  0
SECTION
  2
HEADER
  9
$ACADVER
  1
AC1015
  9
$ACADMAINTVER
 70
    20
  9
$DWGCODEPAGE
  3
ANSI_932
  9
$INSBASE
 10
0.0
 20
0.0
 30
0.0
  9
$EXTMIN
 10
284.985639
 20
-25.48383800000002
 30
0.0
  9
$EXTMAX
 10
689.985639
 20
254.34679
 30
0.0
  9
$LIMMIN
 10
284.984626
 20
-25.484837
  9
$LIMMAX
 10
690.0124749999998
 20
254.347786
  9
$ORTHOMODE
 70
     1
  9
$REGENMODE
 70
     1
  9
$FILLMODE
 70
     1
  9
$QTEXTMODE
 70
     0
  9
$MIRRTEXT
 70
     0
  9
$LTSCALE
 40
6.750430999999998
  9
$ATTMODE
 70
     1
  9
$TEXTSIZE
 40
3.2
  9
$TRACEWID
 40
0.05
  9
$TEXTSTYLE
  7
高3.2
  9
$CLAYER
  8
0
  9
$CELTYPE
  6
CONTINUOUS
  9
$CECOLOR
 62
   256
  9
$CELTSCALE
 40
1.0
  9
$DISPSILH
 70
     0
  9
$DIMSCALE
 40
1.0
  9
$DIMASZ
 40
2.5
  9
$DIMEXO
 40
0.25
  9
$DIMDLI
 40
0.2
  9
$DIMRND
 40
0.0
  9
$DIMDLE
 40
0.0
  9
$DIMEXE
 40
1.25
  9
$DIMTP
 40
0.0
  9
$DIMTM
 40
0.0
  9
$DIMTXT
 40
3.0
  9
$DIMCEN
 40
0.0
  9
$DIMTSZ
 40
0.0
  9
$DIMTOL
 70
     0
  9
$DIMLIM
 70
     0
  9
$DIMTIH
 70
     0
  9
$DIMTOH
 70
     0
  9
$DIMSE1
 70
     0
  9
$DIMSE2
 70
     0
  9
$DIMTAD
 70
     3
  9
$DIMZIN
 70
     8
  9
$DIMBLK
  1
Open30
  9
$DIMASO
 70
     1
  9
$DIMSHO
 70
     1
  9
$DIMPOST
  1

  9
$DIMAPOST
  1

  9
$DIMALT
 70
     0
  9
$DIMALTD
 70
     3
  9
$DIMALTF
 40
0.03937007874016
  9
$DIMLFAC
 40
1.0
  9
$DIMTOFL
 70
     1
  9
$DIMTVP
 40
0.0
  9
$DIMTIX
 70
     0
  9
$DIMSOXD
 70
     0
  9
$DIMSAH
 70
     0
  9
$DIMBLK1
  1

  9
$DIMBLK2
  1

  9
$DIMSTYLE
  2
FREE
  9
$DIMCLRD
 70
     0
  9
$DIMCLRE
 70
     0
  9
$DIMCLRT
 70
     4
  9
$DIMTFAC
 40
1.0
  9
$DIMGAP
 40
0.625
  9
$DIMJUST
 70
     0
  9
$DIMSD1
 70
     0
  9
$DIMSD2
 70
     0
  9
$DIMTOLJ
 70
     0
  9
$DIMTZIN
 70
     8
  9
$DIMALTZ
 70
     0
  9
$DIMALTTZ
 70
     0
  9
$DIMUPT
 70
     1
  9
$DIMDEC
 70
     2
  9
$DIMTDEC
 70
     2
  9
$DIMALTU
 70
     2
  9
$DIMALTTD
 70
     3
  9
$DIMTXSTY
  7
STANDARD
  9
$DIMAUNIT
 70
     0
  9
$DIMADEC
 70
     1
  9
$DIMALTRND
 40
0.0
  9
$DIMAZIN
 70
     2
  9
$DIMDSEP
 70
    46
  9
$DIMATFIT
 70
     0
  9
$DIMFRAC
 70
     0
  9
$DIMLDRBLK
  1
Open30
  9
$DIMLUNIT
 70
     2
  9
$DIMLWD
 70
    -2
  9
$DIMLWE
 70
    -2
  9
$DIMTMOVE
 70
     0
  9
$LUNITS
 70
     2
  9
$LUPREC
 70
     4
  9
$SKETCHINC
 40
0.1
  9
$FILLETRAD
 40
0.0
  9
$AUNITS
 70
     0
  9
$AUPREC
 70
     0
  9
$MENU
  1
.
  9
$ELEVATION
 40
0.0
  9
$PELEVATION
 40
0.0
  9
$THICKNESS
 40
0.0
  9
$LIMCHECK
 70
     0
  9
$CHAMFERA
 40
0.0
  9
$CHAMFERB
 40
0.0
  9
$CHAMFERC
 40
0.0
  9
$CHAMFERD
 40
0.0
  9
$SKPOLY
 70
     0
  9
$TDCREATE
 40
2456311.487861817
  9
$TDUCREATE
 40
2456311.112861818
  9
$TDUPDATE
 40
2456850.442299028
  9
$TDUUPDATE
 40
2456850.067299028
  9
$TDINDWG
 40
0.0950399653
  9
$TDUSRTIMER
 40
0.0950399653
  9
$USRTIMER
 70
     1
  9
$ANGBASE
 50
0.0
  9
$ANGDIR
 70
     0
  9
$PDMODE
 70
     0
  9
$PDSIZE
 40
0.0
  9
$PLINEWID
 40
0.0
  9
$SPLFRAME
 70
     0
  9
$SPLINETYPE
 70
     6
  9
$SPLINESEGS
 70
     8
  9
$HANDSEED
  5
92F
  9
$SURFTAB1
 70
     6
  9
$SURFTAB2
 70
     6
  9
$SURFTYPE
 70
     6
  9
$SURFU
 70
     6
  9
$SURFV
 70
     6
  9
$UCSBASE
  2

  9
$UCSNAME
  2

  9
$UCSORG
 10
0.0
 20
0.0
 30
0.0
  9
$UCSXDIR
 10
1.0
 20
0.0
 30
0.0
  9
$UCSYDIR
 10
0.0
 20
1.0
 30
0.0
  9
$UCSORTHOREF
  2

  9
$UCSORTHOVIEW
 70
     0
  9
$UCSORGTOP
 10
0.0
 20
0.0
 30
0.0
  9
$UCSORGBOTTOM
 10
0.0
 20
0.0
 30
0.0
  9
$UCSORGLEFT
 10
0.0
 20
0.0
 30
0.0
  9
$UCSORGRIGHT
 10
0.0
 20
0.0
 30
0.0
  9
$UCSORGFRONT
 10
0.0
 20
0.0
 30
0.0
  9
$UCSORGBACK
 10
0.0
 20
0.0
 30
0.0
  9
$PUCSBASE
  2

  9
$PUCSNAME
  2

  9
$PUCSORG
 10
0.0
 20
0.0
 30
0.0
  9
$PUCSXDIR
 10
1.0
 20
0.0
 30
0.0
  9
$PUCSYDIR
 10
0.0
 20
1.0
 30
0.0
  9
$PUCSORTHOREF
  2

  9
$PUCSORTHOVIEW
 70
     0
  9
$PUCSORGTOP
 10
0.0
 20
0.0
 30
0.0
  9
$PUCSORGBOTTOM
 10
0.0
 20
0.0
 30
0.0
  9
$PUCSORGLEFT
 10
0.0
 20
0.0
 30
0.0
  9
$PUCSORGRIGHT
 10
0.0
 20
0.0
 30
0.0
  9
$PUCSORGFRONT
 10
0.0
 20
0.0
 30
0.0
  9
$PUCSORGBACK
 10
0.0
 20
0.0
 30
0.0
  9
$USERI1
 70
     0
  9
$USERI2
 70
     0
  9
$USERI3
 70
     0
  9
$USERI4
 70
     0
  9
$USERI5
 70
     0
  9
$USERR1
 40
0.0
  9
$USERR2
 40
0.0
  9
$USERR3
 40
0.0
  9
$USERR4
 40
0.0
  9
$USERR5
 40
0.0
  9
$WORLDVIEW
 70
     1
  9
$SHADEDGE
 70
     3
  9
$SHADEDIF
 70
    70
  9
$TILEMODE
 70
     1
  9
$MAXACTVP
 70
    64
  9
$PINSBASE
 10
0.0
 20
0.0
 30
0.0
  9
$PLIMCHECK
 70
     0
  9
$PEXTMIN
 10
1.000000000000000E+20
 20
1.000000000000000E+20
 30
1.000000000000000E+20
  9
$PEXTMAX
 10
-1.000000000000000E+20
 20
-1.000000000000000E+20
 30
-1.000000000000000E+20
  9
$PLIMMIN
 10
0.0
 20
0.0
  9
$PLIMMAX
 10
12.0
 20
9.0
  9
$UNITMODE
 70
     0
  9
$VISRETAIN
 70
     1
  9
$PLINEGEN
 70
     0
  9
$PSLTSCALE
 70
     1
  9
$TREEDEPTH
 70
  3020
  9
$CMLSTYLE
  2
Standard
  9
$CMLJUST
 70
     0
  9
$CMLSCALE
 40
1.0
  9
$PROXYGRAPHICS
 70
     1
  9
$MEASUREMENT
 70
     0
  9
$CELWEIGHT
370
    -1
  9
$ENDCAPS
280
     0
  9
$JOINSTYLE
280
     0
  9
$LWDISPLAY
290
     0
  9
$INSUNITS
 70
     0
  9
$HYPERLINKBASE
  1

  9
$STYLESHEET
  1

  9
$XEDIT
290
     1
  9
$CEPSNTYPE
380
     0
  9
$PSTYLEMODE
290
     1
  9
$FINGERPRINTGUID
  2
{9D03D76D-6E71-43D9-BC93-3726B99DB958}
  9
$VERSIONGUID
  2
{03F26D59-55C2-43DD-9F1C-8B2F6E9652D0}
  9
$EXTNAMES
290
     1
  9
$PSVPSCALE
 40
0.0
  9
$OLESTARTUP
290
     0
  0
ENDSEC
  0
SECTION
  2
CLASSES
  0
CLASS
  1
ACDBDICTIONARYWDFLT
  2
AcDbDictionaryWithDefault
  3
ObjectDBX Classes
 90
        0
280
     0
281
     0
  0
CLASS
  1
MATERIAL
  2
AcDbMaterial
  3
ObjectDBX Classes
 90
     1153
280
     0
281
     0
  0
CLASS
  1
VISUALSTYLE
  2
AcDbVisualStyle
  3
ObjectDBX Classes
 90
     4095
280
     0
281
     0
  0
CLASS
  1
SCALE
  2
AcDbScale
  3
ObjectDBX Classes
 90
     1153
280
     0
281
     0
  0
CLASS
  1
TABLESTYLE
  2
AcDbTableStyle
  3
ObjectDBX Classes
 90
     4095
280
     0
281
     0
  0
CLASS
  1
MLEADERSTYLE
  2
AcDbMLeaderStyle
  3
ACDB_MLEADERSTYLE_CLASS
 90
     4095
280
     0
281
     0
  0
CLASS
  1
SORTENTSTABLE
  2
AcDbSortentsTable
  3
ObjectDBX Classes
 90
        0
280
     0
281
     0
  0
CLASS
  1
ACDB_TEXTOBJECTCONTEXTDATA_CLASS
  2
AcDbTextObjectContextData
  3
ObjectDBX Classes
 90
    33921
280
     0
281
     0
  0
CLASS
  1
DICTIONARYVAR
  2
AcDbDictionaryVar
  3
ObjectDBX Classes
 90
        0
280
     0
281
     0
  0
CLASS
  1
CELLSTYLEMAP
  2
AcDbCellStyleMap
  3
ObjectDBX Classes
 90
     1152
280
     0
281
     0
  0
CLASS
  1
ACDBPLACEHOLDER
  2
AcDbPlaceHolder
  3
ObjectDBX Classes
 90
        0
280
     0
281
     0
  0
CLASS
  1
LAYOUT
  2
AcDbLayout
  3
ObjectDBX Classes
 90
        0
280
     0
281
     0
  0
ENDSEC
  0
SECTION
  2
TABLES
  0
TABLE
  2
VPORT
  5
8
330
0
100
AcDbSymbolTable
 70
     1
  0
VPORT
  5
8B
330
8
100
AcDbSymbolTableRecord
100
AcDbViewportTableRecord
  2
*Active
 70
     0
 10
0.0
 20
0.0
 11
1.0
 21
1.0
 12
502.9178829138666
 22
86.803944071001
 13
0.0
 23
0.0
 14
1.0
 24
1.0
 15
0.0
 25
0.0
 16
0.0
 26
0.0
 36
1.0
 17
0.0
 27
0.0
 37
0.0
 40
595.3582335735599
 41
2.0347551342812
 42
50.0
 43
0.0
 44
0.0
 50
0.0
 51
0.0
 71
     0
 72
   100
 73
     1
 74
     1
 75
     0
 76
     0
 77
     0
 78
     0
281
     0
 65
     1
110
0.0
120
0.0
130
0.0
111
1.0
121
0.0
131
0.0
112
0.0
122
1.0
132
0.0
 79
     0
146
0.0
  0
ENDTAB
  0
TABLE
  2
LTYPE
  5
5
330
0
100
AcDbSymbolTable
 70
     2
  0
LTYPE
  5
5A
330
5
100
AcDbSymbolTableRecord
100
AcDbLinetypeTableRecord
  2
ByBlock
 70
     0
  3

 72
    65
 73
     0
 40
0.0
  0
LTYPE
  5
5B
330
5
100
AcDbSymbolTableRecord
100
AcDbLinetypeTableRecord
  2
ByLayer
 70
     0
  3

 72
    65
 73
     0
 40
0.0
  0
LTYPE
  5
5C
330
5
100
AcDbSymbolTableRecord
100
AcDbLinetypeTableRecord
  2
CONTINUOUS
 70
     0
  3
Solid-line
 72
    65
 73
     0
 40
0.0
  0
ENDTAB
  0
TABLE
  2
LAYER
  5
2
102
{ACAD_XDICTIONARY
360
4CD
102
}
330
0
100
AcDbSymbolTable
 70
     2
  0
LAYER
  5
54
102
{ACAD_XDICTIONARY
360
68F
102
}
330
2
100
AcDbSymbolTableRecord
100
AcDbLayerTableRecord
  2
0
 70
     0
 62
     7
  6
CONTINUOUS
370
    -3
390
F
  0
LAYER
  5
4B8
330
2
100
AcDbSymbolTableRecord
100
AcDbLayerTableRecord
  2
Defpoints
 70
     0
 62
     7
  6
CONTINUOUS
290
     0
370
    -3
390
F
  0
ENDTAB
  0
TABLE
  2
STYLE
  5
3
330
0
100
AcDbSymbolTable
 70
     5
  0
STYLE
  5
55
330
3
100
AcDbSymbolTableRecord
100
AcDbTextStyleTableRecord
  2
STANDARD
 70
     0
 40
0.0
 41
1.0
 50
0.0
 71
     0
 42
0.2
  3
TXT
  4
BIGFONT
  0
STYLE
  5
4B9
330
3
100
AcDbSymbolTableRecord
100
AcDbTextStyleTableRecord
  2
高3.2
 70
     0
 40
3.2
 41
1.0
 50
0.0
 71
     0
 42
3.2
  3
txt.shx
  4
bigfont.shx
  0
STYLE
  5
4BA
330
3
100
AcDbSymbolTableRecord
100
AcDbTextStyleTableRecord
  2
高6.3
 70
     0
 40
6.299999999999998
 41
1.0
 50
0.0
 71
     0
 42
6.299999999999998
  3
txt.shx
  4
bigfont.shx
  0
STYLE
  5
4BC
330
3
100
AcDbSymbolTableRecord
100
AcDbTextStyleTableRecord
  2
高4.5
 70
     0
 40
4.5
 41
1.0
 50
0.0
 71
     0
 42
6.299999999999998
  3
txt.shx
  4
bigfont.shx
  0
STYLE
  5
4BD
330
3
100
AcDbSymbolTableRecord
100
AcDbTextStyleTableRecord
  2
高2
 70
     0
 40
2.0
 41
1.0
 50
0.0
 71
     0
 42
2.0
  3
txt.shx
  4
bigfont.shx
  0
ENDTAB
  0
TABLE
  2
VIEW
  5
6
330
0
100
AcDbSymbolTable
 70
     0
  0
ENDTAB
  0
TABLE
  2
UCS
  5
7
330
0
100
AcDbSymbolTable
 70
     0
  0
ENDTAB
  0
TABLE
  2
APPID
  5
9
330
0
100
AcDbSymbolTable
 70
    10
  0
APPID
  5
56
330
9
100
AcDbSymbolTableRecord
100
AcDbRegAppTableRecord
  2
ACAD
 70
     0
  0
APPID
  5
5D
330
9
100
AcDbSymbolTableRecord
100
AcDbRegAppTableRecord
  2
AcadAnnotative
 70
     0
  0
APPID
  5
4C8
330
9
100
AcDbSymbolTableRecord
100
AcDbRegAppTableRecord
  2
ACAD_DSTYLE_DIMJOGGED_JOGANGLE_SYMBOL
 70
     0
  0
APPID
  5
4C9
330
9
100
AcDbSymbolTableRecord
100
AcDbRegAppTableRecord
  2
ACAD_DSTYLE_DIMJAG
 70
     0
  0
APPID
  5
4CA
330
9
100
AcDbSymbolTableRecord
100
AcDbRegAppTableRecord
  2
ACAD_DSTYLE_DIMBREAK
 70
     0
  0
APPID
  5
4CB
330
9
100
AcDbSymbolTableRecord
100
AcDbRegAppTableRecord
  2
ACAD_DSTYLE_DIMTALN
 70
     0
  0
APPID
  5
624
330
9
100
AcDbSymbolTableRecord
100
AcDbRegAppTableRecord
  2
ACAD_EXEMPT_FROM_CAD_STANDARDS
 70
     0
  0
APPID
  5
6D5
330
9
100
AcDbSymbolTableRecord
100
AcDbRegAppTableRecord
  2
ACAD_MLEADERVER
 70
     0
  0
APPID
  5
6DA
330
9
100
AcDbSymbolTableRecord
100
AcDbRegAppTableRecord
  2
ACAD_DSTYLE_DIMARC_LENGTH_SYMBOL
 70
     0
  0
APPID
  5
6DB
330
9
100
AcDbSymbolTableRecord
100
AcDbRegAppTableRecord
  2
ACAD_DSTYLE_DIMEXT_LENGTH
 70
     0
  0
ENDTAB
  0
TABLE
  2
DIMSTYLE
  5
A
330
0
100
AcDbSymbolTable
 70
     3
100
AcDbDimStyleTable
 71
     3
340
57
340
4BE
340
4C7
  0
DIMSTYLE
105
57
330
A
100
AcDbSymbolTableRecord
100
AcDbDimStyleTableRecord
  2
Standard
 70
     0
340
55
  0
DIMSTYLE
105
4BE
330
A
100
AcDbSymbolTableRecord
100
AcDbDimStyleTableRecord
  2
1：1
 70
     0
 41
2.5
 42
0.25
 43
0.2
 44
1.25
 73
     0
 74
     0
 77
     3
 78
     8
 79
     2
140
3.0
141
0.0
143
0.03937007874016
147
0.625
171
     3
172
     1
178
     4
179
     1
271
     2
272
     2
274
     3
283
     0
284
     8
288
     1
289
     0
340
55
341
428
342
428
1001
ACAD_DSTYLE_DIMARC_LENGTH_SYMBOL
1070
   379
1070
     2
1001
ACAD_DSTYLE_DIMEXT_LENGTH
1070
   378
1040
1.25
1001
ACAD_DSTYLE_DIMJOGGED_JOGANGLE_SYMBOL
1070
   384
1040
1.570796326794896
  0
DIMSTYLE
105
4C7
330
A
100
AcDbSymbolTableRecord
100
AcDbDimStyleTableRecord
  2
FREE
 70
     0
 41
2.5
 42
0.25
 43
0.2
 44
1.25
 73
     0
 74
     0
 77
     3
 78
     8
 79
     2
140
3.0
141
0.0
143
0.03937007874016
147
0.625
171
     3
172
     1
178
     4
179
     1
271
     2
272
     2
274
     3
283
     0
284
     8
288
     1
289
     0
340
55
341
428
342
428
1001
ACAD_DSTYLE_DIMBREAK
1070
   391
1040
3.75
1001
ACAD_DSTYLE_DIMJAG
1070
   388
1040
1.5
1001
ACAD_DSTYLE_DIMTALN
1070
   392
1070
     0
1001
ACAD_DSTYLE_DIMARC_LENGTH_SYMBOL
1070
   379
1070
     2
1001
ACAD_DSTYLE_DIMEXT_LENGTH
1070
   378
1040
1.25
1001
ACAD_DSTYLE_DIMJOGGED_JOGANGLE_SYMBOL
1070
   384
1040
1.570796326794896
  0
ENDTAB
  0
TABLE
  2
BLOCK_RECORD
  5
1
330
0
100
AcDbSymbolTable
 70
     5
  0
BLOCK_RECORD
  5
6B
102
{ACAD_XDICTIONARY
360
845
102
}
330
1
100
AcDbSymbolTableRecord
100
AcDbBlockTableRecord
  2
*Model_Space
340
6E
  0
BLOCK_RECORD
  5
67
330
1
100
AcDbSymbolTableRecord
100
AcDbBlockTableRecord
  2
*Paper_Space
340
6A
  0
BLOCK_RECORD
  5
428
330
1
100
AcDbSymbolTableRecord
100
AcDbBlockTableRecord
  2
_Open30
340
0
102
{BLKREFS
331
6E5
331
6E6
331
6EE
331
6EF
331
700
331
701
102
}
  0
BLOCK_RECORD
  5
60E
330
1
100
AcDbSymbolTableRecord
100
AcDbBlockTableRecord
  2
*D1
340
0
  0
BLOCK_RECORD
  5
646
330
1
100
AcDbSymbolTableRecord
100
AcDbBlockTableRecord
  2
*D2
340
0
  0
BLOCK_RECORD
  5
652
330
1
100
AcDbSymbolTableRecord
100
AcDbBlockTableRecord
  2
*D3
340
0
  0
BLOCK_RECORD
  5
670
330
1
100
AcDbSymbolTableRecord
100
AcDbBlockTableRecord
  2
*D4
340
0
  0
ENDTAB
  0
ENDSEC
  0
SECTION
  2
BLOCKS
  0
BLOCK
  5
6C
330
6B
100
AcDbEntity
  8
0
100
AcDbBlockBegin
  2
*Model_Space
 70
     0
 10
0.0
 20
0.0
 30
0.0
  3
*Model_Space
  1

  0
ENDBLK
  5
6D
330
6B
100
AcDbEntity
  8
0
100
AcDbBlockEnd
  0
BLOCK
  5
68
330
67
100
AcDbEntity
 67
     1
  8
0
100
AcDbBlockBegin
  2
*Paper_Space
 70
     0
 10
0.0
 20
0.0
 30
0.0
  3
*Paper_Space
  1

  0
ENDBLK
  5
69
330
67
100
AcDbEntity
 67
     1
  8
0
100
AcDbBlockEnd
  0
BLOCK
  5
429
330
428
100
AcDbEntity
  8
0
100
AcDbBlockBegin
  2
_Open30
 70
     0
 10
0.0
 20
0.0
 30
0.0
  3
_Open30
  1

  0
LINE
  5
42A
330
428
100
AcDbEntity
  8
0
  6
ByBlock
 62
     0
370
    -2
100
AcDbLine
 10
-1.0
 20
0.267949
 30
0.0
 11
0.0
 21
0.0
 31
0.0
  0
LINE
  5
42B
330
428
100
AcDbEntity
  8
0
  6
ByBlock
 62
     0
370
    -2
100
AcDbLine
 10
0.0
 20
0.0
 30
0.0
 11
-1.0
 21
-0.267949
 31
0.0
  0
LINE
  5
42C
330
428
100
AcDbEntity
  8
0
  6
ByBlock
 62
     0
370
    -2
100
AcDbLine
 10
0.0
 20
0.0
 30
0.0
 11
-1.0
 21
0.0
 31
0.0
  0
ENDBLK
  5
42D
330
428
100
AcDbEntity
  8
0
100
AcDbBlockEnd
  0
BLOCK
  5
60F
330
60E
100
AcDbEntity
  8
0
100
AcDbBlockBegin
  2
*D1
 70
     1
 10
0.0
 20
0.0
 30
0.0
  3
*D1
  1

  0
LINE
  5
6FD
330
60E
100
AcDbEntity
  8
0
  6
Continuous
 62
     0
370
    -2
100
AcDbLine
 10
538.923312
 20
181.925432
 30
0.0
 11
538.923312
 21
202.8304883861693
 31
0.0
  0
LINE
  5
6FE
330
60E
100
AcDbEntity
  8
0
  6
Continuous
 62
     0
370
    -2
100
AcDbLine
 10
462.436815
 20
181.925432
 30
0.0
 11
462.436815
 21
202.8304883861693
 31
0.0
  0
LINE
  5
6FF
330
60E
100
AcDbEntity
  8
0
  6
Continuous
 62
     0
370
    -2
100
AcDbLine
 10
536.423312
 20
201.5804883861693
 30
0.0
 11
464.9368149999999
 21
201.5804883861693
 31
0.0
  0
INSERT
  5
700
330
60E
100
AcDbEntity
  8
0
  6
Continuous
 62
     0
370
    -2
100
AcDbBlockReference
  2
_Open30
 10
538.923312
 20
201.5804883861693
 30
0.0
 41
2.5
 42
2.5
 43
2.5
  0
INSERT
  5
701
330
60E
100
AcDbEntity
  8
0
  6
Continuous
 62
     0
370
    -2
100
AcDbBlockReference
  2
_Open30
 10
462.436815
 20
201.5804883861693
 30
0.0
 41
2.5
 42
2.5
 43
2.5
 50
180.0
  0
MTEXT
  5
702
330
60E
100
AcDbEntity
  8
0
  6
Continuous
 62
     4
100
AcDbMText
 10
500.6800635
 20
203.7054883861693
 30
0.0
 40
3.0
 41
0.0
 71
     5
 72
     1
  1
145
 73
     1
 44
1.0
1001
ACAD
1000
MTEXTBEGIN
1070
    73
1070
     1
1070
    44
1040
1.0
1070
    74
1070
     0
1000
MTEXTEND
  0
POINT
  5
703
330
60E
100
AcDbEntity
  8
Defpoints
  6
Continuous
 62
     0
100
AcDbPoint
 10
538.923312
 20
181.675432
 30
0.0
  0
POINT
  5
704
330
60E
100
AcDbEntity
  8
Defpoints
  6
Continuous
 62
     0
100
AcDbPoint
 10
462.436815
 20
181.675432
 30
0.0
  0
POINT
  5
705
330
60E
100
AcDbEntity
  8
Defpoints
  6
Continuous
 62
     0
100
AcDbPoint
 10
462.436815
 20
201.5804883861693
 30
0.0
  0
ENDBLK
  5
610
330
60E
100
AcDbEntity
  8
0
100
AcDbBlockEnd
  0
BLOCK
  5
647
330
646
100
AcDbEntity
  8
0
100
AcDbBlockBegin
  2
*D2
 70
     1
 10
0.0
 20
0.0
 30
0.0
  3
*D2
  1

  0
LINE
  5
6E2
330
646
100
AcDbEntity
  8
0
 62
     0
370
    -2
100
AcDbLine
 10
462.186815
 20
135.175432
 30
0.0
 11
434.210949
 21
135.175432
 31
0.0
  0
LINE
  5
6E3
330
646
100
AcDbEntity
  8
0
 62
     0
370
    -2
100
AcDbLine
 10
462.186815
 20
181.675432
 30
0.0
 11
434.210949
 21
181.675432
 31
0.0
  0
LINE
  5
6E4
330
646
100
AcDbEntity
  8
0
 62
     0
370
    -2
100
AcDbLine
 10
435.460949
 20
137.675432
 30
0.0
 11
435.460949
 21
179.175432
 31
0.0
  0
INSERT
  5
6E5
330
646
100
AcDbEntity
  8
0
 62
     0
370
    -2
100
AcDbBlockReference
  2
_Open30
 10
435.460949
 20
135.175432
 30
0.0
 41
2.5
 42
2.5
 43
2.5
 50
270.0
  0
INSERT
  5
6E6
330
646
100
AcDbEntity
  8
0
 62
     0
370
    -2
100
AcDbBlockReference
  2
_Open30
 10
435.460949
 20
181.675432
 30
0.0
 41
2.5
 42
2.5
 43
2.5
 50
90.0
  0
MTEXT
  5
6E7
330
646
100
AcDbEntity
  8
0
 62
     4
100
AcDbMText
 10
433.3359489999999
 20
158.4254320000001
 30
0.0
 40
3.0
 41
0.0
 71
     5
 72
     1
  1
46.5
 11
0.0000000000000001
 21
1.0
 31
0.0
 73
     1
 44
1.0
1001
ACAD
1000
MTEXTBEGIN
1070
    73
1070
     1
1070
    44
1040
1.0
1070
    74
1070
     0
1000
MTEXTEND
  0
POINT
  5
6E8
330
646
100
AcDbEntity
  8
Defpoints
 62
     0
100
AcDbPoint
 10
462.436815
 20
135.175432
 30
0.0
  0
POINT
  5
6E9
330
646
100
AcDbEntity
  8
Defpoints
 62
     0
100
AcDbPoint
 10
462.436815
 20
181.675432
 30
0.0
  0
POINT
  5
6EA
330
646
100
AcDbEntity
  8
Defpoints
 62
     0
100
AcDbPoint
 10
435.460949
 20
181.675432
 30
0.0
  0
ENDBLK
  5
648
330
646
100
AcDbEntity
  8
0
100
AcDbBlockEnd
  0
BLOCK
  5
653
330
652
100
AcDbEntity
  8
0
100
AcDbBlockBegin
  2
*D3
 70
     1
 10
0.0
 20
0.0
 30
0.0
  3
*D3
  1

  0
LINE
  5
6EB
330
652
100
AcDbEntity
  8
0
 62
     0
370
    -2
100
AcDbLine
 10
321.471468
 20
158.175432
 30
0.0
 11
321.471468
 21
118.238367
 31
0.0
  0
LINE
  5
6EC
330
652
100
AcDbEntity
  8
0
 62
     0
370
    -2
100
AcDbLine
 10
417.471468
 20
158.175432
 30
0.0
 11
417.471468
 21
118.238367
 31
0.0
  0
LINE
  5
6ED
330
652
100
AcDbEntity
  8
0
 62
     0
370
    -2
100
AcDbLine
 10
323.971468
 20
119.488367
 30
0.0
 11
414.971468
 21
119.488367
 31
0.0
  0
INSERT
  5
6EE
330
652
100
AcDbEntity
  8
0
 62
     0
370
    -2
100
AcDbBlockReference
  2
_Open30
 10
321.471468
 20
119.488367
 30
0.0
 41
2.5
 42
2.5
 43
2.5
 50
180.0
  0
INSERT
  5
6EF
330
652
100
AcDbEntity
  8
0
 62
     0
370
    -2
100
AcDbBlockReference
  2
_Open30
 10
417.471468
 20
119.488367
 30
0.0
 41
2.5
 42
2.5
 43
2.5
  0
MTEXT
  5
6F0
330
652
100
AcDbEntity
  8
0
 62
     4
100
AcDbMText
 10
369.471468
 20
121.613367
 30
0.0
 40
3.0
 41
0.0
 71
     5
 72
     1
  1
96
 73
     1
 44
1.0
1001
ACAD
1000
MTEXTBEGIN
1070
    73
1070
     1
1070
    44
1040
1.0
1070
    74
1070
     0
1000
MTEXTEND
  0
POINT
  5
6F1
330
652
100
AcDbEntity
  8
Defpoints
 62
     0
100
AcDbPoint
 10
321.471468
 20
158.425432
 30
0.0
  0
POINT
  5
6F2
330
652
100
AcDbEntity
  8
Defpoints
 62
     0
100
AcDbPoint
 10
417.471468
 20
158.425432
 30
0.0
  0
POINT
  5
6F3
330
652
100
AcDbEntity
  8
Defpoints
 62
     0
100
AcDbPoint
 10
417.471468
 20
119.488367
 30
0.0
  0
ENDBLK
  5
654
330
652
100
AcDbEntity
  8
0
100
AcDbBlockEnd
  0
BLOCK
  5
671
330
670
100
AcDbEntity
  8
0
100
AcDbBlockBegin
  2
*D4
 70
     1
 10
0.0
 20
0.0
 30
0.0
  3
*D4
  1

  0
LINE
  5
673
330
670
100
AcDbEntity
  8
0
 62
     0
370
    -2
100
AcDbLine
 10
462.436815
 20
181.737932
 30
0.0
 11
462.436815
 21
194.906995
 31
0.0
  0
LINE
  5
674
330
670
100
AcDbEntity
  8
0
 62
     0
370
    -2
100
AcDbLine
 10
538.923312
 20
181.737932
 30
0.0
 11
538.923312
 21
194.906995
 31
0.0
  0
LINE
  5
675
330
670
100
AcDbEntity
  8
0
 62
     0
370
    -2
100
AcDbLine
 10
462.616815
 20
194.726995
 30
0.0
 11
500.0500634999999
 21
194.726995
 31
0.0
  0
LINE
  5
676
330
670
100
AcDbEntity
  8
0
 62
     0
370
    -2
100
AcDbLine
 10
538.743312
 20
194.726995
 30
0.0
 11
501.3100634999999
 21
194.726995
 31
0.0
  0
SOLID
  5
677
330
670
100
AcDbEntity
  8
0
 62
     0
100
AcDbTrace
 10
462.616815
 20
194.756995
 30
0.0
 11
462.616815
 21
194.696995
 31
0.0
 12
462.436815
 22
194.726995
 32
0.0
 13
462.436815
 23
194.726995
 33
0.0
  0
SOLID
  5
678
330
670
100
AcDbEntity
  8
0
 62
     0
100
AcDbTrace
 10
538.743312
 20
194.756995
 30
0.0
 11
538.743312
 21
194.696995
 31
0.0
 12
538.923312
 22
194.726995
 32
0.0
 13
538.923312
 23
194.726995
 33
0.0
  0
MTEXT
  5
679
330
670
100
AcDbEntity
  8
0
 62
     0
100
AcDbMText
 10
500.6800635000001
 20
194.726995
 30
0.0
 40
0.18
 41
0.0
 71
     5
 72
     1
  1
\A1;76.4865
 73
     1
 44
1.0
1001
ACAD
1000
MTEXTBEGIN
1070
    73
1070
     1
1070
    44
1040
1.0
1070
    74
1070
     0
1000
MTEXTEND
  0
POINT
  5
67A
330
670
100
AcDbEntity
  8
Defpoints
 62
     0
100
AcDbPoint
 10
462.436815
 20
181.675432
 30
0.0
  0
POINT
  5
67B
330
670
100
AcDbEntity
  8
Defpoints
 62
     0
100
AcDbPoint
 10
538.923312
 20
181.675432
 30
0.0
  0
POINT
  5
67C
330
670
100
AcDbEntity
  8
Defpoints
 62
     0
100
AcDbPoint
 10
538.923312
 20
194.726995
 30
0.0
  0
ENDBLK
  5
672
330
670
100
AcDbEntity
  8
0
100
AcDbBlockEnd
  0
ENDSEC
  0
SECTION
  2
ENTITIES
  0
TEXT
  5
BB
330
6B
100
AcDbEntity
  8
0
 62
     3
100
AcDbText
 10
623.886752
 20
-14.858506
 30
0.0
 40
3.2
  1
FREE
  7
高3.2
100
AcDbText
  0
LINE
  5
BC
330
6B
100
AcDbEntity
  8
0
100
AcDbLine
 10
411.33705
 20
89.1579361318127
 30
0.0
 11
448.4076740089096
 21
89.1579361318127
 31
0.0
  0
LINE
  5
BD
330
6B
100
AcDbEntity
  8
0
 62
     3
100
AcDbLine
 10
689.8856030000001
 20
20.245029
 30
0.0
 11
638.286239
 21
20.245029
 31
0.0
  0
TEXT
  5
BE
330
6B
100
AcDbEntity
  8
0
 62
     3
100
AcDbText
 10
643.4342547295496
 20
14.801114
 30
0.0
 40
4.5
  1
コード
  7
高4.5
100
AcDbText
  0
LINE
  5
BF
330
6B
100
AcDbEntity
  8
0
 62
     3
100
AcDbLine
 10
664.286239
 20
14.245029
 30
0.0
 11
664.286239
 21
20.245029
 31
0.0
  0
LINE
  5
C0
330
6B
100
AcDbEntity
  8
0
 62
     3
100
AcDbLine
 10
638.286239
 20
14.245029
 30
0.0
 11
638.286239
 21
20.245029
 31
0.0
  0
LINE
  5
C3
330
6B
100
AcDbEntity
  8
0
 62
     3
100
AcDbLine
 10
664.286275
 20
-8.818114999999997
 30
0.0
 11
664.2862750000001
 21
14.181885
 31
0.0
  0
LINE
  5
C5
330
6B
100
AcDbEntity
  8
0
 62
     3
100
AcDbLine
 10
611.2326659999999
 20
-15.818115
 30
0.0
 11
611.2326659999999
 21
-1.818115
 31
0.0
  0
TEXT
  5
C7
330
6B
100
AcDbEntity
  8
0
 62
     3
100
AcDbText
 10
640.2965929999997
 20
10.387001
 30
0.0
 40
2.0
  1
A
 41
0.7
100
AcDbText
  0
TEXT
  5
C8
330
6B
100
AcDbEntity
  8
0
 62
     3
100
AcDbText
 10
642.8318799999998
 20
10.387001
 30
0.0
 40
2.0
  1
P
 41
0.7
100
AcDbText
  0
TEXT
  5
C9
330
6B
100
AcDbEntity
  8
0
 62
     3
100
AcDbText
 10
645.367166
 20
10.387001
 30
0.0
 40
2.0
  1
P
 41
0.7
100
AcDbText
  0
TEXT
  5
CA
330
6B
100
AcDbEntity
  8
0
 62
     3
100
AcDbText
 10
647.9024519999998
 20
10.387001
 30
0.0
 40
2.0
  1
D
 41
0.7
100
AcDbText
  0
TEXT
  5
CB
330
6B
100
AcDbEntity
  8
0
 62
     3
100
AcDbText
 10
653.2711349999998
 20
10.387001
 30
0.0
 40
2.0
  1
C
 41
0.7
100
AcDbText
  0
TEXT
  5
CC
330
6B
100
AcDbEntity
  8
0
 62
     3
100
AcDbText
 10
655.806421
 20
10.387001
 30
0.0
 40
2.0
  1
H
 41
0.7
100
AcDbText
  0
TEXT
  5
CD
330
6B
100
AcDbEntity
  8
0
 62
     3
100
AcDbText
 10
658.341708
 20
10.387001
 30
0.0
 40
2.0
  1
C
 41
0.7
100
AcDbText
  0
TEXT
  5
CE
330
6B
100
AcDbEntity
  8
0
 62
     3
100
AcDbText
 10
660.8769940000001
 20
10.387001
 30
0.0
 40
2.0
  1
K
 41
0.7
100
AcDbText
  0
TEXT
  5
CF
330
6B
100
AcDbEntity
  8
0
 62
     3
100
AcDbText
 10
666.5509599999998
 20
10.387001
 30
0.0
 40
2.0
  1
DESN
 41
1.216762999999998
100
AcDbText
  0
TEXT
  5
D0
330
6B
100
AcDbEntity
  8
0
 62
     3
100
AcDbText
 10
581.5446019999998
 20
-18.959497
 30
0.0
 40
2.0
  1
NICHIDO IND.CO.LTD
 41
1.274876
100
AcDbText
  0
LINE
  5
D1
330
6B
100
AcDbEntity
  8
0
 62
     3
100
AcDbLine
 10
591.9276309999998
 20
14.181885
 30
0.0
 11
591.9276309999998
 21
-8.818114999999997
 31
0.0
  0
LINE
  5
D2
330
6B
100
AcDbEntity
  8
0
 62
     3
100
AcDbLine
 10
638.2862750000001
 20
14.181885
 30
0.0
 11
638.2862750000001
 21
-25.483838
 31
0.0
  0
LINE
  5
D7
330
6B
100
AcDbEntity
  8
0
 62
     3
100
AcDbLine
 10
651.286275
 20
14.181885
 30
0.0
 11
651.286275
 21
-15.818115
 31
0.0
  0
TEXT
  5
D8
330
6B
100
AcDbEntity
  8
0
 62
     3
100
AcDbText
 10
639.39872
 20
-14.953428
 30
0.0
 40
3.2
  1
作成日
 41
1.017225999999998
100
AcDbText
  0
LINE
  5
D9
330
6B
100
AcDbEntity
  8
0
 62
     3
100
AcDbLine
 10
689.985639
 20
14.181885
 30
0.0
 11
578.682196
 21
14.181885
 31
0.0
  0
LINE
  5
DA
330
6B
100
AcDbEntity
  8
0
 62
     3
100
AcDbLine
 10
677.286275
 20
-8.818114999999997
 30
0.0
 11
677.286275
 21
14.181885
 31
0.0
  0
TEXT
  5
DB
330
6B
100
AcDbEntity
  8
0
 62
     3
100
AcDbText
 10
680.610079
 20
10.47282
 30
0.0
 40
1.8
  1
D
 41
0.666667
100
AcDbText
  0
TEXT
  5
DC
330
6B
100
AcDbEntity
  8
0
 62
     3
100
AcDbText
 10
683.426707
 20
10.47282
 30
0.0
 40
1.8
  1
E
 41
0.666667
100
AcDbText
  0
TEXT
  5
DD
330
6B
100
AcDbEntity
  8
0
 62
     3
100
AcDbText
 10
686.2433349999998
 20
10.47282
 30
0.0
 40
1.8
  1
F
 41
0.666667
100
AcDbText
  0
TEXT
  5
DE
330
6B
100
AcDbEntity
  8
0
 62
     3
100
AcDbText
 10
680.610079
 20
6.480266
 30
0.0
 40
3.2
  1
製図
 41
1.076369
100
AcDbText
  0
LINE
  5
DF
330
6B
100
AcDbEntity
  8
0
 62
     3
100
AcDbLine
 10
578.682196
 20
14.181885
 30
0.0
 11
578.682196
 21
-25.483838
 31
0.0
  0
TEXT
  5
E0
330
6B
100
AcDbEntity
  8
0
 62
     3
100
AcDbText
 10
580.0588489999999
 20
-25.151372
 30
0.0
 40
5.0
  1
日動工業株式会社
 41
0.833333
100
AcDbText
  0
LINE
  5
E1
330
6B
100
AcDbEntity
  8
0
 62
     3
100
AcDbLine
 10
621.5645999999999
 20
-1.818115
 30
0.0
 11
621.5646
 21
-25.483838
 31
0.0
  0
LINE
  5
E2
330
6B
100
AcDbEntity
  8
0
 62
     3
100
AcDbLine
 10
621.5646
 20
-20.650976
 30
0.0
 11
638.2862750000001
 21
-20.650976
 31
0.0
  0
TEXT
  5
E3
330
6B
100
AcDbEntity
  8
0
 62
     3
100
AcDbText
 10
622.151202
 20
-19.834546
 30
0.0
 40
3.2
  1
出図コード
 41
0.8356860000000001
100
AcDbText
  0
LINE
  5
F5
330
6B
100
AcDbEntity
  8
0
 62
     3
100
AcDbLine
 10
578.682196
 20
-15.818115
 30
0.0
 11
689.985639
 21
-15.818115
 31
0.0
  0
LINE
  5
F7
330
6B
100
AcDbEntity
  8
0
 62
     3
100
AcDbLine
 10
578.682196
 20
5.181885000000001
 30
0.0
 11
689.985639
 21
5.181885
 31
0.0
  0
LINE
  5
FD
330
6B
100
AcDbEntity
  8
0
 62
     3
100
AcDbLine
 10
578.682196
 20
-1.818115
 30
0.0
 11
638.2862750000001
 21
-1.818115
 31
0.0
  0
LINE
  5
103
330
6B
100
AcDbEntity
  8
0
 62
     3
100
AcDbLine
 10
578.682196
 20
-8.818114999999995
 30
0.0
 11
689.985639
 21
-8.818114999999997
 31
0.0
  0
LINE
  5
107
330
6B
100
AcDbEntity
  8
0
 62
     3
100
AcDbLine
 10
689.985639
 20
248.571523
 30
0.0
 11
689.985639
 21
-25.48383800000002
 31
0.0
  0
LINE
  5
108
330
6B
100
AcDbEntity
  8
0
 62
     3
100
AcDbLine
 10
299.985639
 20
248.571523
 30
0.0
 11
299.985639
 21
-25.483838
 31
0.0
  0
LINE
  5
109
330
6B
100
AcDbEntity
  8
0
 62
     3
100
AcDbLine
 10
689.985639
 20
-25.483838
 30
0.0
 11
299.985639
 21
-25.483838
 31
0.0
  0
TEXT
  5
10C
330
6B
100
AcDbEntity
  8
0
 62
     3
100
AcDbText
 10
622.018654
 20
-24.87273634533528
 30
0.0
 40
3.2
  1
ZK-A3X
 41
0.8112849999999999
100
AcDbText
  0
LINE
  5
10D
330
6B
100
AcDbEntity
  8
0
 62
     2
100
AcDbLine
 10
477.760528
 20
251.011526
 30
0.0
 11
478.383025
 21
250.686571
 31
0.0
  0
LINE
  5
10E
330
6B
100
AcDbEntity
  8
0
 62
     2
100
AcDbLine
 10
477.760528
 20
245.682054
 30
0.0
 11
478.383025
 21
246.007008
 31
0.0
  0
LINE
  5
10F
330
6B
100
AcDbEntity
  8
0
 62
     2
100
AcDbLine
 10
478.383025
 20
250.686571
 30
0.0
 11
478.383025
 21
246.007008
 31
0.0
  0
LINE
  5
110
330
6B
100
AcDbEntity
  8
0
 62
     2
100
AcDbLine
 10
479.9594789999998
 20
245.682054
 30
0.0
 11
479.336982
 21
246.007008
 31
0.0
  0
LINE
  5
111
330
6B
100
AcDbEntity
  8
0
 62
     2
100
AcDbLine
 10
479.336982
 20
248.859663
 30
0.0
 11
479.336982
 21
246.007008
 31
0.0
  0
LINE
  5
112
330
6B
100
AcDbEntity
  8
0
 62
     2
100
AcDbLine
 10
483.590711
 20
251.011526
 30
0.0
 11
482.968214
 21
250.686571
 31
0.0
  0
LINE
  5
113
330
6B
100
AcDbEntity
  8
0
 62
     2
100
AcDbLine
 10
481.391761
 20
251.011526
 30
0.0
 11
482.0142579999998
 21
250.686571
 31
0.0
  0
LINE
  5
114
330
6B
100
AcDbEntity
  8
0
 62
     2
100
AcDbLine
 10
482.0142579999998
 20
250.686571
 30
0.0
 11
482.0142579999998
 21
248.62609
 31
0.0
  0
LINE
  5
115
330
6B
100
AcDbEntity
  8
0
 62
     2
100
AcDbLine
 10
482.968214
 20
250.686571
 30
0.0
 11
482.968214
 21
245.379823
 31
0.0
  0
LINE
  5
116
330
6B
100
AcDbEntity
  8
0
 62
     2
100
AcDbLine
 10
483.898279
 20
251.011522
 30
0.0
 11
484.520774
 21
250.686563
 31
0.0
  0
LINE
  5
117
330
6B
100
AcDbEntity
  8
0
 62
     2
100
AcDbLine
 10
483.8981669999998
 20
245.682125
 30
0.0
 11
484.5206759999999
 21
246.007058
 31
0.0
  0
LINE
  5
118
330
6B
100
AcDbEntity
  8
0
 62
     2
100
AcDbLine
 10
484.520774
 20
250.686563
 30
0.0
 11
484.520774
 21
246.007058
 31
0.0
  0
LINE
  5
119
330
6B
100
AcDbEntity
  8
0
 62
     2
100
AcDbLine
 10
486.654759
 20
251.011488
 30
0.0
 11
486.032258
 21
250.686542
 31
0.0
  0
LINE
  5
11A
330
6B
100
AcDbEntity
  8
0
 62
     2
100
AcDbLine
 10
486.032258
 20
250.686542
 30
0.0
 11
486.032258
 21
246.007037
 31
0.0
  0
LINE
  5
11B
330
6B
100
AcDbEntity
  8
0
 62
     2
100
AcDbLine
 10
486.654759
 20
245.682091
 30
0.0
 11
486.032258
 21
246.007037
 31
0.0
  0
LINE
  5
11C
330
6B
100
AcDbEntity
  8
0
 62
     2
100
AcDbLine
 10
491.92655
 20
251.011429
 30
0.0
 11
492.5490459999998
 21
250.686473
 31
0.0
  0
LINE
  5
11D
330
6B
100
AcDbEntity
  8
0
 62
     2
100
AcDbLine
 10
492.5490459999998
 20
250.686473
 30
0.0
 11
492.5489639999998
 21
246.006967
 31
0.0
  0
LINE
  5
11E
330
6B
100
AcDbEntity
  8
0
 62
     2
100
AcDbLine
 10
491.926457
 20
245.682033
 30
0.0
 11
492.5489639999998
 21
246.006967
 31
0.0
  0
LINE
  5
11F
330
6B
100
AcDbEntity
  8
0
 62
     2
100
AcDbLine
 10
494.715494
 20
251.011429
 30
0.0
 11
494.0929979999999
 21
250.686473
 31
0.0
  0
LINE
  5
120
330
6B
100
AcDbEntity
  8
0
 62
     2
100
AcDbLine
 10
494.715587
 20
245.682033
 30
0.0
 11
494.09308
 21
246.006967
 31
0.0
  0
LINE
  5
121
330
6B
100
AcDbEntity
  8
0
 62
     2
100
AcDbLine
 10
495.006534
 20
251.011429
 30
0.0
 11
495.62903
 21
250.686473
 31
0.0
  0
LINE
  5
122
330
6B
100
AcDbEntity
  8
0
 62
     2
100
AcDbLine
 10
495.006441
 20
245.682033
 30
0.0
 11
495.628948
 21
246.006967
 31
0.0
  0
LINE
  5
123
330
6B
100
AcDbEntity
  8
0
 62
     2
100
AcDbLine
 10
497.795478
 20
251.011429
 30
0.0
 11
497.172982
 21
250.686473
 31
0.0
  0
LINE
  5
124
330
6B
100
AcDbEntity
  8
0
 62
     2
100
AcDbLine
 10
497.172982
 20
250.686473
 30
0.0
 11
497.1730639999998
 21
246.006967
 31
0.0
  0
LINE
  5
125
330
6B
100
AcDbEntity
  8
0
 62
     2
100
AcDbLine
 10
497.7955709999998
 20
245.682033
 30
0.0
 11
497.1730639999998
 21
246.006967
 31
0.0
  0
LINE
  5
126
330
6B
100
AcDbEntity
  8
0
 62
     2
100
AcDbLine
 10
495.628994
 20
248.647711
 30
0.0
 11
494.093034
 21
248.647711
 31
0.0
  0
LINE
  5
127
330
6B
100
AcDbEntity
  8
0
 62
     2
100
AcDbLine
 10
495.628984
 20
248.045868
 30
0.0
 11
494.093044
 21
248.045868
 31
0.0
  0
LINE
  5
128
330
6B
100
AcDbEntity
  8
0
 62
     2
100
AcDbLine
 10
495.62903
 20
250.686473
 30
0.0
 11
495.628994
 21
248.647711
 31
0.0
  0
LINE
  5
129
330
6B
100
AcDbEntity
  8
0
 62
     2
100
AcDbLine
 10
495.628984
 20
248.045868
 30
0.0
 11
495.628948
 21
246.006967
 31
0.0
  0
LINE
  5
12A
330
6B
100
AcDbEntity
  8
0
 62
     2
100
AcDbLine
 10
494.0929979999999
 20
250.686473
 30
0.0
 11
494.093034
 21
248.647711
 31
0.0
  0
LINE
  5
12B
330
6B
100
AcDbEntity
  8
0
 62
     2
100
AcDbLine
 10
494.093044
 20
248.045868
 30
0.0
 11
494.09308
 21
246.006967
 31
0.0
  0
LINE
  5
12C
330
6B
100
AcDbEntity
  8
0
 62
     2
100
AcDbLine
 10
498.091134
 20
251.011429
 30
0.0
 11
498.7136299999998
 21
250.686473
 31
0.0
  0
LINE
  5
12D
330
6B
100
AcDbEntity
  8
0
 62
     2
100
AcDbLine
 10
498.7136299999998
 20
250.686473
 30
0.0
 11
498.713548
 21
246.006967
 31
0.0
  0
LINE
  5
12E
330
6B
100
AcDbEntity
  8
0
 62
     2
100
AcDbLine
 10
498.0910409999999
 20
245.682033
 30
0.0
 11
498.713548
 21
246.006967
 31
0.0
  0
LINE
  5
12F
330
6B
100
AcDbEntity
  8
0
 62
     2
100
AcDbLine
 10
500.8475769999998
 20
251.011429
 30
0.0
 11
500.2250809999998
 21
250.686473
 31
0.0
  0
LINE
  5
130
330
6B
100
AcDbEntity
  8
0
 62
     2
100
AcDbLine
 10
500.2250809999998
 20
250.686473
 30
0.0
 11
500.2251629999998
 21
246.006967
 31
0.0
  0
LINE
  5
131
330
6B
100
AcDbEntity
  8
0
 62
     2
100
AcDbLine
 10
500.84767
 20
245.682033
 30
0.0
 11
500.2251629999998
 21
246.006967
 31
0.0
  0
LINE
  5
132
330
6B
100
AcDbEntity
  8
0
 62
     2
100
AcDbLine
 10
501.1538049999998
 20
251.011429
 30
0.0
 11
501.776301
 21
250.686473
 31
0.0
  0
LINE
  5
133
330
6B
100
AcDbEntity
  8
0
 62
     2
100
AcDbLine
 10
501.776301
 20
250.686473
 30
0.0
 11
501.7762199999999
 21
246.006967
 31
0.0
  0
LINE
  5
134
330
6B
100
AcDbEntity
  8
0
 62
     2
100
AcDbLine
 10
501.1537119999998
 20
245.682033
 30
0.0
 11
501.7762199999999
 21
246.006967
 31
0.0
  0
ARC
  5
135
330
6B
100
AcDbEntity
  8
0
 62
     2
100
AcDbCircle
 10
489.938105
 20
248.360204
 30
0.0
 40
2.980408
100
AcDbArc
 50
97.701524
 51
270.0
  0
ARC
  5
136
330
6B
100
AcDbEntity
  8
0
 62
     2
100
AcDbCircle
 10
508.338964
 20
248.330265
 30
0.0
 40
3.012775999999998
100
AcDbArc
 50
0.31425
 51
69.00558199999998
  0
ARC
  5
137
330
6B
100
AcDbEntity
  8
0
 62
     2
100
AcDbCircle
 10
508.997071
 20
248.330265
 30
0.0
 40
3.012775999999998
100
AcDbArc
 50
110.994418
 51
148.116611
  0
ARC
  5
138
330
6B
100
AcDbEntity
  8
0
 62
     2
100
AcDbCircle
 10
508.338964
 20
248.363314
 30
0.0
 40
3.012775999999998
100
AcDbArc
 50
290.994418
 51
359.68575
  0
ARC
  5
139
330
6B
100
AcDbEntity
  8
0
 62
     2
100
AcDbCircle
 10
508.997071
 20
248.363314
 30
0.0
 40
3.012775999999998
100
AcDbArc
 50
211.883389
 51
249.005582
  0
ARC
  5
13A
330
6B
100
AcDbEntity
  8
0
 62
     2
100
AcDbCircle
 10
508.668017
 20
249.579369
 30
0.0
 40
1.734386999999999
100
AcDbArc
 50
64.365172
 51
115.634828
  0
ARC
  5
13B
330
6B
100
AcDbEntity
  8
0
 62
     2
100
AcDbCircle
 10
508.668017
 20
247.11421
 30
0.0
 40
1.734386999999999
100
AcDbArc
 50
244.365172
 51
295.634828
  0
ARC
  5
13C
330
6B
100
AcDbEntity
  8
0
 62
     2
100
AcDbCircle
 10
508.668017
 20
249.612314
 30
0.0
 40
0.8512219999999999
100
AcDbArc
 50
19.486606
 51
160.513394
  0
ARC
  5
13D
330
6B
100
AcDbEntity
  8
0
 62
     2
100
AcDbCircle
 10
508.668017
 20
247.081265
 30
0.0
 40
0.8512219999999999
100
AcDbArc
 50
199.4866059999999
 51
340.513394
  0
ARC
  5
13E
330
6B
100
AcDbEntity
  8
0
 62
     3
100
AcDbCircle
 10
501.8930570000001
 20
216.592418
 30
0.0
 40
37.20000000000001
100
AcDbArc
 50
69.50571500000001
 51
81.689988
  0
ARC
  5
13F
330
6B
100
AcDbEntity
  8
0
 62
     3
100
AcDbCircle
 10
501.8930570000001
 20
280.101161
 30
0.0
 40
37.20000000000001
100
AcDbArc
 50
278.310012
 51
290.494285
  0
ARC
  5
140
330
6B
100
AcDbEntity
  8
0
 62
     3
100
AcDbCircle
 10
513.76192
 20
248.34679
 30
0.0
 40
3.299999999999998
100
AcDbArc
 50
290.494285
 51
69.50571500000001
  0
ARC
  5
141
330
6B
100
AcDbEntity
  8
0
 62
     3
100
AcDbCircle
 10
474.76192
 20
248.34679
 30
0.0
 40
3.299999999999998
100
AcDbArc
 50
110.494285
 51
249.505715
  0
ARC
  5
142
330
6B
100
AcDbEntity
  8
0
 62
     3
100
AcDbCircle
 10
486.630783
 20
216.592418
 30
0.0
 40
37.20000000000001
100
AcDbArc
 50
98.31001200000001
 51
110.494285
  0
ARC
  5
143
330
6B
100
AcDbEntity
  8
0
 62
     3
100
AcDbCircle
 10
486.630783
 20
280.101161
 30
0.0
 40
37.20000000000001
100
AcDbArc
 50
249.505715
 51
261.689988
  0
ARC
  5
144
330
6B
100
AcDbEntity
  8
0
 62
     3
100
AcDbCircle
 10
494.26192
 20
164.34679
 30
0.0
 40
90.0
100
AcDbArc
 50
81.689988
 51
98.31001200000001
  0
ARC
  5
145
330
6B
100
AcDbEntity
  8
0
 62
     3
100
AcDbCircle
 10
494.26192
 20
332.34679
 30
0.0
 40
90.0
100
AcDbArc
 50
261.689988
 51
278.310012
  0
ARC
  5
146
330
6B
100
AcDbEntity
  8
0
 62
     3
100
AcDbCircle
 10
494.26192
 20
164.34679
 30
0.0
 40
89.1
100
AcDbArc
 50
81.689988
 51
98.31001200000001
  0
ARC
  5
147
330
6B
100
AcDbEntity
  8
0
 62
     3
100
AcDbCircle
 10
494.26192
 20
332.34679
 30
0.0
 40
89.1
100
AcDbArc
 50
261.689988
 51
278.310012
  0
ARC
  5
148
330
6B
100
AcDbEntity
  8
0
 62
     3
100
AcDbCircle
 10
501.8930570000001
 20
280.101161
 30
0.0
 40
36.3
100
AcDbArc
 50
278.310012
 51
290.494285
  0
ARC
  5
149
330
6B
100
AcDbEntity
  8
0
 62
     3
100
AcDbCircle
 10
501.8930570000001
 20
216.592418
 30
0.0
 40
36.3
100
AcDbArc
 50
69.50571500000001
 51
81.689988
  0
ARC
  5
14A
330
6B
100
AcDbEntity
  8
0
 62
     3
100
AcDbCircle
 10
513.76192
 20
248.34679
 30
0.0
 40
2.399999999999999
100
AcDbArc
 50
290.494285
 51
69.50571500000001
  0
ARC
  5
14B
330
6B
100
AcDbEntity
  8
0
 62
     3
100
AcDbCircle
 10
474.76192
 20
248.34679
 30
0.0
 40
2.399999999999999
100
AcDbArc
 50
110.494285
 51
249.505715
  0
ARC
  5
14C
330
6B
100
AcDbEntity
  8
0
 62
     3
100
AcDbCircle
 10
486.630783
 20
216.592418
 30
0.0
 40
36.3
100
AcDbArc
 50
98.31001200000001
 51
110.494285
  0
ARC
  5
14D
330
6B
100
AcDbEntity
  8
0
 62
     3
100
AcDbCircle
 10
486.630783
 20
280.101161
 30
0.0
 40
36.3
100
AcDbArc
 50
249.505715
 51
261.689988
  0
LINE
  5
14E
330
6B
100
AcDbEntity
  8
0
 62
     2
100
AcDbLine
 10
500.847579
 20
245.379823
 30
0.0
 11
498.091133
 21
245.379823
 31
0.0
  0
LINE
  5
14F
330
6B
100
AcDbEntity
  8
0
 62
     2
100
AcDbLine
 10
500.847579
 20
245.682054
 30
0.0
 11
500.847579
 21
245.379823
 31
0.0
  0
LINE
  5
150
330
6B
100
AcDbEntity
  8
0
 62
     2
100
AcDbLine
 10
497.795479
 20
251.313615
 30
0.0
 11
495.006533
 21
251.313615
 31
0.0
  0
LINE
  5
151
330
6B
100
AcDbEntity
  8
0
 62
     2
100
AcDbLine
 10
497.795479
 20
251.313615
 30
0.0
 11
497.795479
 21
251.011526
 31
0.0
  0
LINE
  5
152
330
6B
100
AcDbEntity
  8
0
 62
     2
100
AcDbLine
 10
497.795479
 20
245.682054
 30
0.0
 11
497.795479
 21
245.379682
 31
0.0
  0
LINE
  5
153
330
6B
100
AcDbEntity
  8
0
 62
     2
100
AcDbLine
 10
497.795479
 20
245.379682
 30
0.0
 11
495.006533
 21
245.379682
 31
0.0
  0
LINE
  5
154
330
6B
100
AcDbEntity
  8
0
 62
     2
100
AcDbLine
 10
500.847579
 20
251.313756
 30
0.0
 11
500.847579
 21
251.011526
 31
0.0
  0
LINE
  5
155
330
6B
100
AcDbEntity
  8
0
 62
     2
100
AcDbLine
 10
500.847579
 20
251.313756
 30
0.0
 11
498.091133
 21
251.313756
 31
0.0
  0
LINE
  5
156
330
6B
100
AcDbEntity
  8
0
 62
     2
100
AcDbLine
 10
498.091133
 20
251.313756
 30
0.0
 11
498.091133
 21
251.011526
 31
0.0
  0
LINE
  5
157
330
6B
100
AcDbEntity
  8
0
 62
     2
100
AcDbLine
 10
501.1538039999998
 20
245.682054
 30
0.0
 11
501.1538039999998
 21
245.379823
 31
0.0
  0
LINE
  5
158
330
6B
100
AcDbEntity
  8
0
 62
     2
100
AcDbLine
 10
503.988519
 20
245.379823
 30
0.0
 11
501.1538039999998
 21
245.379823
 31
0.0
  0
LINE
  5
159
330
6B
100
AcDbEntity
  8
0
 62
     2
100
AcDbLine
 10
503.287753
 20
250.359799
 30
0.0
 11
503.287753
 21
246.33378
 31
0.0
  0
LINE
  5
15A
330
6B
100
AcDbEntity
  8
0
 62
     2
100
AcDbLine
 10
503.287753
 20
246.33378
 30
0.0
 11
503.5592509999998
 21
246.33378
 31
0.0
  0
ARC
  5
15B
330
6B
100
AcDbEntity
  8
0
 62
     2
100
AcDbCircle
 10
502.170986
 20
248.34679
 30
0.0
 40
2.445299
100
AcDbArc
 50
304.591955
 51
55.408045
  0
LINE
  5
15C
330
6B
100
AcDbEntity
  8
0
 62
     2
100
AcDbLine
 10
503.988519
 20
251.313756
 30
0.0
 11
501.1538039999998
 21
251.313756
 31
0.0
  0
LINE
  5
15D
330
6B
100
AcDbEntity
  8
0
 62
     2
100
AcDbLine
 10
501.1538039999998
 20
251.313756
 30
0.0
 11
501.1538039999998
 21
251.011526
 31
0.0
  0
LINE
  5
15E
330
6B
100
AcDbEntity
  8
0
 62
     2
100
AcDbLine
 10
498.091133
 20
245.682054
 30
0.0
 11
498.091133
 21
245.379823
 31
0.0
  0
LINE
  5
15F
330
6B
100
AcDbEntity
  8
0
 62
     2
100
AcDbLine
 10
503.287753
 20
250.359799
 30
0.0
 11
503.5592509999998
 21
250.359799
 31
0.0
  0
LINE
  5
160
330
6B
100
AcDbEntity
  8
0
 62
     2
100
AcDbLine
 10
486.6546669999998
 20
245.682054
 30
0.0
 11
486.654662
 21
245.379795
 31
0.0
  0
LINE
  5
161
330
6B
100
AcDbEntity
  8
0
 62
     2
100
AcDbLine
 10
483.898217
 20
245.379852
 30
0.0
 11
486.654662
 21
245.379803
 31
0.0
  0
LINE
  5
162
330
6B
100
AcDbEntity
  8
0
 62
     2
100
AcDbLine
 10
477.760528
 20
245.379823
 30
0.0
 11
479.9594789999998
 21
245.379823
 31
0.0
  0
ARC
  5
163
330
6B
100
AcDbEntity
  8
0
 62
     2
100
AcDbCircle
 10
470.643467
 20
248.416656
 30
0.0
 40
21.019379
100
AcDbArc
 50
353.866006
 51
357.694034
  0
LINE
  5
164
330
6B
100
AcDbEntity
  8
0
 62
     2
100
AcDbLine
 10
490.2385809999998
 20
247.576131
 30
0.0
 11
491.6458259999997
 21
247.570924
 31
0.0
  0
LINE
  5
1A7
330
6B
100
AcDbEntity
  8
0
 62
     2
100
AcDbLine
 10
490.244265
 20
249.112152
 30
0.0
 11
491.6515089999998
 21
249.106945
 31
0.0
  0
ARC
  5
1A8
330
6B
100
AcDbEntity
  8
0
 62
     2
100
AcDbCircle
 10
470.643467
 20
248.416656
 30
0.0
 40
21.019379
100
AcDbArc
 50
1.881965999999999
 51
5.709994
  0
LINE
  5
1A9
330
6B
100
AcDbEntity
  8
0
 62
     2
100
AcDbLine
 10
486.654766
 20
251.313728
 30
0.0
 11
486.6547599999998
 21
251.011526
 31
0.0
  0
LINE
  5
1AA
330
6B
100
AcDbEntity
  8
0
 62
     2
100
AcDbLine
 10
483.89832
 20
251.313784
 30
0.0
 11
486.654766
 21
251.313736
 31
0.0
  0
LINE
  5
1AB
330
6B
100
AcDbEntity
  8
0
 62
     2
100
AcDbLine
 10
483.898222
 20
245.682054
 30
0.0
 11
483.898217
 21
245.379852
 31
0.0
  0
LINE
  5
1AC
330
6B
100
AcDbEntity
  8
0
 62
     2
100
AcDbLine
 10
483.89832
 20
251.313784
 30
0.0
 11
483.898315
 21
251.011526
 31
0.0
  0
LINE
  5
1AD
330
6B
100
AcDbEntity
  8
0
 62
     2
100
AcDbLine
 10
479.9594789999998
 20
245.682054
 30
0.0
 11
479.9594789999998
 21
245.379823
 31
0.0
  0
LINE
  5
1AE
330
6B
100
AcDbEntity
  8
0
 62
     2
100
AcDbLine
 10
479.336982
 20
248.859663
 30
0.0
 11
481.511882
 21
245.379823
 31
0.0
  0
LINE
  5
1AF
330
6B
100
AcDbEntity
  8
0
 62
     2
100
AcDbLine
 10
481.511882
 20
245.379823
 30
0.0
 11
482.968214
 21
245.379823
 31
0.0
  0
LINE
  5
1B0
330
6B
100
AcDbEntity
  8
0
 62
     2
100
AcDbLine
 10
483.590711
 20
251.313756
 30
0.0
 11
483.590711
 21
251.011526
 31
0.0
  0
LINE
  5
1B1
330
6B
100
AcDbEntity
  8
0
 62
     2
100
AcDbLine
 10
481.391761
 20
251.313756
 30
0.0
 11
483.590711
 21
251.313756
 31
0.0
  0
LINE
  5
1B2
330
6B
100
AcDbEntity
  8
0
 62
     2
100
AcDbLine
 10
481.391761
 20
251.313756
 30
0.0
 11
481.391761
 21
251.011526
 31
0.0
  0
LINE
  5
1B3
330
6B
100
AcDbEntity
  8
0
 62
     2
100
AcDbLine
 10
482.0142579999998
 20
248.62609
 30
0.0
 11
480.2504769999998
 21
251.313756
 31
0.0
  0
LINE
  5
1B4
330
6B
100
AcDbEntity
  8
0
 62
     2
100
AcDbLine
 10
477.760528
 20
251.313756
 30
0.0
 11
480.2504769999998
 21
251.313756
 31
0.0
  0
LINE
  5
1B5
330
6B
100
AcDbEntity
  8
0
 62
     2
100
AcDbLine
 10
491.9265489999999
 20
251.313615
 30
0.0
 11
494.715495
 21
251.313615
 31
0.0
  0
LINE
  5
1B6
330
6B
100
AcDbEntity
  8
0
 62
     2
100
AcDbLine
 10
491.9265489999999
 20
251.011526
 30
0.0
 11
491.9265489999999
 21
251.313615
 31
0.0
  0
LINE
  5
1B7
330
6B
100
AcDbEntity
  8
0
 62
     2
100
AcDbLine
 10
491.9265489999999
 20
245.379682
 30
0.0
 11
491.9265489999999
 21
245.682054
 31
0.0
  0
LINE
  5
1B8
330
6B
100
AcDbEntity
  8
0
 62
     2
100
AcDbLine
 10
491.9265489999999
 20
245.379682
 30
0.0
 11
494.715495
 21
245.379682
 31
0.0
  0
LINE
  5
1B9
330
6B
100
AcDbEntity
  8
0
 62
     2
100
AcDbLine
 10
495.006533
 20
245.682054
 30
0.0
 11
495.006533
 21
245.379682
 31
0.0
  0
LINE
  5
1BA
330
6B
100
AcDbEntity
  8
0
 62
     2
100
AcDbLine
 10
494.715495
 20
245.682054
 30
0.0
 11
494.715495
 21
245.379682
 31
0.0
  0
LINE
  5
1BB
330
6B
100
AcDbEntity
  8
0
 62
     2
100
AcDbLine
 10
494.715495
 20
251.011526
 30
0.0
 11
494.715495
 21
251.313615
 31
0.0
  0
LINE
  5
1BC
330
6B
100
AcDbEntity
  8
0
 62
     2
100
AcDbLine
 10
495.006533
 20
251.011526
 30
0.0
 11
495.006533
 21
251.313615
 31
0.0
  0
LINE
  5
1BD
330
6B
100
AcDbEntity
  8
0
 62
     2
100
AcDbLine
 10
477.760528
 20
245.682054
 30
0.0
 11
477.760528
 21
245.379823
 31
0.0
  0
LINE
  5
1BE
330
6B
100
AcDbEntity
  8
0
 62
     2
100
AcDbLine
 10
477.760528
 20
251.313756
 30
0.0
 11
477.760528
 21
251.011526
 31
0.0
  0
ARC
  5
1BF
330
6B
100
AcDbEntity
  8
0
 62
     2
100
AcDbCircle
 10
504.288519
 20
248.969287
 30
0.0
 40
2.344468999999999
100
AcDbArc
 50
17.308749
 51
23.765071
  0
ARC
  5
1C0
330
6B
100
AcDbEntity
  8
0
 62
     2
100
AcDbCircle
 10
502.290986
 20
248.34679
 30
0.0
 40
4.436751
100
AcDbArc
 50
342.691251
 51
17.308566
  0
ARC
  5
1C1
330
6B
100
AcDbEntity
  8
0
 62
     2
100
AcDbCircle
 10
504.288519
 20
247.724293
 30
0.0
 40
2.344468999999999
100
AcDbArc
 50
336.234929
 51
342.691251
  0
ARC
  5
1C2
330
6B
100
AcDbEntity
  8
0
 62
     2
100
AcDbCircle
 10
503.988519
 20
248.969287
 30
0.0
 40
2.344468999999999
100
AcDbArc
 50
17.308749
 51
90.0
  0
ARC
  5
1C3
330
6B
100
AcDbEntity
  8
0
 62
     2
100
AcDbCircle
 10
501.990986
 20
248.34679
 30
0.0
 40
4.436751
100
AcDbArc
 50
342.691251
 51
17.308566
  0
ARC
  5
1C4
330
6B
100
AcDbEntity
  8
0
 62
     2
100
AcDbCircle
 10
503.988519
 20
247.724293
 30
0.0
 40
2.344468999999999
100
AcDbArc
 50
270.0
 51
342.691251
  0
ARC
  5
1C5
330
6B
100
AcDbEntity
  8
0
 62
     2
100
AcDbCircle
 10
489.5257469999998
 20
248.34679
 30
0.0
 40
2.966965999999998
100
AcDbArc
 50
46.75287999999999
 51
89.749998
  0
ARC
  5
1C6
330
6B
100
AcDbEntity
  8
0
 62
     2
100
AcDbCircle
 10
489.5257469999998
 20
248.34679
 30
0.0
 40
2.966965999999998
100
AcDbArc
 50
273.976333
 51
312.82312
  0
ARC
  5
1C7
330
6B
100
AcDbEntity
  8
0
 62
     2
100
AcDbCircle
 10
505.871187
 20
248.300987
 30
0.0
 40
3.936983999999998
100
AcDbArc
 50
0.6665840000000001
 51
23.903928
  0
ARC
  5
1C8
330
6B
100
AcDbEntity
  8
0
 62
     2
100
AcDbCircle
 10
511.464848
 20
248.300987
 30
0.0
 40
3.936983999999998
100
AcDbArc
 50
156.096072
 51
179.333416
  0
ARC
  5
1C9
330
6B
100
AcDbEntity
  8
0
 62
     2
100
AcDbCircle
 10
505.871187
 20
248.392592
 30
0.0
 40
3.936983999999998
100
AcDbArc
 50
336.096072
 51
359.333416
  0
ARC
  5
1CA
330
6B
100
AcDbEntity
  8
0
 62
     2
100
AcDbCircle
 10
511.464848
 20
248.392592
 30
0.0
 40
3.936983999999998
100
AcDbArc
 50
180.666584
 51
203.903928
  0
LINE
  5
1CB
330
6B
100
AcDbEntity
  8
0
 62
     3
100
AcDbLine
 10
518.6423639999998
 20
248.571523
 30
0.0
 11
689.985639
 21
248.571523
 31
0.0
  0
LINE
  5
1CC
330
6B
100
AcDbEntity
  8
0
 62
     3
100
AcDbLine
 10
470.088329
 20
248.571523
 30
0.0
 11
299.985639
 21
248.571523
 31
0.0
  0
TEXT
  5
1CD
330
6B
100
AcDbEntity
  8
0
 62
     3
100
AcDbText
 10
580.499593
 20
10.351411
 30
0.0
 40
2.0
  1
CONPONENTS
 41
0.5331600000000001
100
AcDbText
  0
TEXT
  5
1CE
330
6B
100
AcDbEntity
  8
0
 62
     3
100
AcDbText
 10
580.1498669999999
 20
-8.580766
 30
0.0
 40
3.0
  1
材
 41
0.833333
100
AcDbText
  0
TEXT
  5
1CF
330
6B
100
AcDbEntity
  8
0
 62
     3
100
AcDbText
 10
587.685509
 20
-8.580766
 30
0.0
 40
3.0
  1
質
 41
0.833333
100
AcDbText
  0
TEXT
  5
1D0
330
6B
100
AcDbEntity
  8
0
 62
     3
100
AcDbText
 10
580.2379369999998
 20
2.043759
 30
0.0
 40
2.0
  1
MODEL
 41
1.031072999999999
100
AcDbText
  0
TEXT
  5
1D1
330
6B
100
AcDbEntity
  8
0
 62
     3
100
AcDbText
 10
580.1498669999999
 20
-4.898457999999998
 30
0.0
 40
2.0
  1
MATERIAL
 41
0.659278
100
AcDbText
  0
TEXT
  5
1D2
330
6B
100
AcDbEntity
  8
0
 62
     3
100
AcDbText
 10
611.4571469999998
 20
-8.580766
 30
0.0
 40
3.0
  1
備
 41
0.833333
100
AcDbText
  0
TEXT
  5
1D3
330
6B
100
AcDbEntity
  8
0
 62
     3
100
AcDbText
 10
618.190149
 20
-8.580766
 30
0.0
 40
3.0
  1
考
 41
0.833333
100
AcDbText
  0
TEXT
  5
1D4
330
6B
100
AcDbEntity
  8
0
 62
     3
100
AcDbText
 10
611.9795312357838
 20
-4.898457999999998
 30
0.0
 40
2.0
  1
REMARKS
 41
0.675794
100
AcDbText
  0
TEXT
  5
1D5
330
6B
100
AcDbEntity
  8
0
 62
     3
100
AcDbText
 10
581.7395959999998
 20
-11.818578
 30
0.0
 40
2.0
  1
3AD
 41
1.42614
100
AcDbText
  0
TEXT
  5
1D6
330
6B
100
AcDbEntity
  8
0
 62
     3
100
AcDbText
 10
591.0505749999998
 20
-11.652845
 30
0.0
 40
2.0
  1
ANGLE
 41
1.669883999999998
100
AcDbText
  0
TEXT
  5
1D7
330
6B
100
AcDbEntity
  8
0
 62
     3
100
AcDbText
 10
611.984462
 20
-12.029686
 30
0.0
 40
2.0
  1
SCALE
 41
0.7719630000000001
100
AcDbText
  0
TEXT
  5
1D8
330
6B
100
AcDbEntity
  8
0
 62
     3
100
AcDbText
 10
581.425725
 20
-15.818115
 30
0.0
 40
3.0
  1
第
 41
0.833333
100
AcDbText
  0
TEXT
  5
1D9
330
6B
100
AcDbEntity
  8
0
 62
     3
100
AcDbText
 10
589.2125749999999
 20
-15.818115
 30
0.0
 40
3.0
  1
三
 41
0.833333
100
AcDbText
  0
TEXT
  5
1DA
330
6B
100
AcDbEntity
  8
0
 62
     3
100
AcDbText
 10
596.999425
 20
-15.818115
 30
0.0
 40
3.0
  1
角
 41
0.833333
100
AcDbText
  0
TEXT
  5
1DB
330
6B
100
AcDbEntity
  8
0
 62
     3
100
AcDbText
 10
604.786275
 20
-15.818115
 30
0.0
 40
3.0
  1
法
 41
0.833333
100
AcDbText
  0
TEXT
  5
1DC
330
6B
100
AcDbEntity
  8
0
 62
     3
100
AcDbText
 10
611.8476669999998
 20
-15.52968599999999
 30
0.0
 40
3.0
  1
尺
 41
0.833333
100
AcDbText
  0
TEXT
  5
1DD
330
6B
100
AcDbEntity
  8
0
 62
     3
100
AcDbText
 10
618.580669
 20
-15.52968599999999
 30
0.0
 40
3.0
  1
度
 41
0.833333
100
AcDbText
  0
TEXT
  5
1DE
330
6B
100
AcDbEntity
  8
0
 62
     3
100
AcDbText
 10
641.16394
 20
6.639613999999999
 30
0.0
 40
3.0
  1
承認
 41
1.089472999999999
100
AcDbText
  0
TEXT
  5
1DF
330
6B
100
AcDbEntity
  8
0
 62
     3
100
AcDbText
 10
654.40682
 20
6.581885
 30
0.0
 40
3.0
  1
検図
 41
0.931761
100
AcDbText
  0
TEXT
  5
1E0
330
6B
100
AcDbEntity
  8
0
 62
     3
100
AcDbText
 10
667.4072169999998
 20
6.581885
 30
0.0
 40
3.0
  1
設
 41
0.833333
100
AcDbText
  0
TEXT
  5
1E1
330
6B
100
AcDbEntity
  8
0
 62
     3
100
AcDbText
 10
671.8970849999998
 20
6.581885
 30
0.0
 40
3.0
  1
計
 41
0.833333
100
AcDbText
  0
TEXT
  5
1E2
330
6B
100
AcDbEntity
  8
0
 62
     3
100
AcDbText
 10
580.5697
 20
6.754436999999998
 30
0.0
 40
3.0
  1
品
 41
0.833333
100
AcDbText
  0
TEXT
  5
1E3
330
6B
100
AcDbEntity
  8
0
 62
     3
100
AcDbText
 10
588.1053419999998
 20
6.754436999999998
 30
0.0
 40
3.0
  1
名
 41
0.833333
100
AcDbText
  0
TEXT
  5
1E4
330
6B
100
AcDbEntity
  8
0
 62
     3
100
AcDbText
 10
580.2379369999998
 20
-1.473999742918488
 30
0.0
 40
3.0
  1
型
 41
0.833333
100
AcDbText
  0
TEXT
  5
1E5
330
6B
100
AcDbEntity
  8
0
 62
     3
100
AcDbText
 10
587.786028
 20
-1.473999742918488
 30
0.0
 40
3.0
  1
式
 41
0.833333
100
AcDbText
  0
TEXT
  5
1ED
330
6B
100
AcDbEntity
  8
0
 62
     3
100
AcDbText
 10
411.33705
 20
89.722699
 30
0.0
 40
4.5
  1
主　　仕　　様
  7
高4.5
100
AcDbText
  0
TEXT
  5
1EE
330
6B
100
AcDbEntity
  8
0
 62
     3
100
AcDbText
 10
401.307141
 20
81.67304900000003
 30
0.0
 40
3.2
  1
型　　式
  7
高3.2
100
AcDbText
  0
TEXT
  5
1EF
330
6B
100
AcDbEntity
  8
0
 62
     3
100
AcDbText
 10
597.164644
 20
6.141494
 30
0.0
 40
4.5
  1
コンバーター
  7
高4.5
100
AcDbText
  0
TEXT
  5
1F0
330
6B
100
AcDbEntity
  8
0
 62
     3
100
AcDbText
 10
654.321556
 20
-15.007917
 30
0.0
 40
3.2
  1
2008.10.03
  7
高3.2
100
AcDbText
  0
LINE
  5
1F1
330
6B
100
AcDbEntity
  8
0
 62
     3
100
AcDbLine
 10
399.39189
 20
87.50400799999999
 30
0.0
 11
490.2756656924585
 21
87.50400799999999
 31
0.0
  0
LINE
  5
1F8
330
6B
100
AcDbEntity
  8
0
 62
     3
100
AcDbLine
 10
287.583715
 20
115.016162
 30
0.0
 11
284.985639
 21
113.516162
 31
0.0
  0
LINE
  5
1F9
330
6B
100
AcDbEntity
  8
0
 62
     3
100
AcDbLine
 10
287.583715
 20
115.016162
 30
0.0
 11
284.985639
 21
116.516162
 31
0.0
  0
LINE
  5
1FA
330
6B
100
AcDbEntity
  8
0
 62
     3
100
AcDbLine
 10
284.985639
 20
113.516162
 30
0.0
 11
284.985639
 21
116.516162
 31
0.0
  0
TEXT
  5
1FB
330
6B
100
AcDbEntity
  8
0
 62
     3
100
AcDbText
 10
401.307141
 20
75.173049
 30
0.0
 40
3.2
  1
定格入力電圧
  7
高3.2
100
AcDbText
  0
TEXT
  5
1FC
330
6B
100
AcDbEntity
  8
0
 62
     3
100
AcDbText
 10
401.307141
 20
68.673049
 30
0.0
 40
3.2
  1
入力電圧動作範囲
  7
高3.2
100
AcDbText
  0
TEXT
  5
1FD
330
6B
100
AcDbEntity
  8
0
 62
     3
100
AcDbText
 10
401.307141
 20
62.173049
 30
0.0
 40
3.2
  1
定格出力電圧
  7
高3.2
100
AcDbText
  0
TEXT
  5
1FE
330
6B
100
AcDbEntity
  8
0
 62
     3
100
AcDbText
 10
401.307141
 20
55.304067
 30
0.0
 40
3.2
  1
連続運転定格値
  7
高3.2
100
AcDbText
  0
TEXT
  5
1FF
330
6B
100
AcDbEntity
  8
0
 62
     3
100
AcDbText
 10
401.307141
 20
49.173049
 30
0.0
 40
3.2
  1
瞬間最大出力電流
  7
高3.2
100
AcDbText
  0
TEXT
  5
200
330
6B
100
AcDbEntity
  8
0
 62
     3
100
AcDbText
 10
401.307141
 20
42.673049
 30
0.0
 40
3.2
  1
冷却方式
  7
高3.2
100
AcDbText
  0
TEXT
  5
201
330
6B
100
AcDbEntity
  8
0
 62
     3
100
AcDbText
 10
401.307141
 20
36.173049
 30
0.0
 40
3.2
  1
出力電力（定格）
  7
高3.2
100
AcDbText
  0
TEXT
  5
202
330
6B
100
AcDbEntity
  8
0
 62
     3
100
AcDbText
 10
401.307141
 20
29.673049
 30
0.0
 40
3.2
  1
待機電流
  7
高3.2
100
AcDbText
  0
LINE
  5
203
330
6B
100
AcDbEntity
  8
0
100
AcDbLine
 10
399.39189
 20
55.004008
 30
0.0
 11
490.2756656924585
 21
55.00400799999997
 31
0.0
  0
LINE
  5
204
330
6B
100
AcDbEntity
  8
0
100
AcDbLine
 10
399.39189
 20
61.50400799999999
 30
0.0
 11
490.2756656924585
 21
61.50400799999999
 31
0.0
  0
LINE
  5
205
330
6B
100
AcDbEntity
  8
0
100
AcDbLine
 10
399.39189
 20
68.004008
 30
0.0
 11
490.2756656924585
 21
68.00400799999998
 31
0.0
  0
LINE
  5
206
330
6B
100
AcDbEntity
  8
0
100
AcDbLine
 10
399.39189
 20
74.504008
 30
0.0
 11
490.2756656924585
 21
74.504008
 31
0.0
  0
LINE
  5
207
330
6B
100
AcDbEntity
  8
0
100
AcDbLine
 10
399.39189
 20
81.004008
 30
0.0
 11
490.2756656924585
 21
81.00400799999999
 31
0.0
  0
LINE
  5
208
330
6B
100
AcDbEntity
  8
0
 62
     3
100
AcDbLine
 10
399.39189
 20
-9.995991999999999
 30
0.0
 11
490.2756656924585
 21
-9.995991999999999
 31
0.0
  0
TEXT
  5
209
330
6B
100
AcDbEntity
  8
0
 62
     3
100
AcDbText
 10
401.307141
 20
-9.326950999999999
 30
0.0
 40
3.2
  1
質　　量
  7
高3.2
100
AcDbText
  0
TEXT
  5
20A
330
6B
100
AcDbEntity
  8
0
 62
     3
100
AcDbText
 10
401.307141
 20
23.173049
 30
0.0
 40
3.2
  1
全負荷変換効率
  7
高3.2
100
AcDbText
  0
TEXT
  5
20B
330
6B
100
AcDbEntity
  8
0
 62
     3
100
AcDbText
 10
401.307141
 20
16.673049
 30
0.0
 40
3.2
  1
出力電圧調整範囲
  7
高3.2
100
AcDbText
  0
TEXT
  5
20C
330
6B
100
AcDbEntity
  8
0
 62
     3
100
AcDbText
 10
401.307141
 20
10.173049
 30
0.0
 40
3.2
  1
出力電圧変動率
  7
高3.2
100
AcDbText
  0
TEXT
  5
20D
330
6B
100
AcDbEntity
  8
0
 62
     3
100
AcDbText
 10
401.307141
 20
3.673048999999998
 30
0.0
 40
3.2
  1
入出力絶縁方法
  7
高3.2
100
AcDbText
  0
TEXT
  5
20E
330
6B
100
AcDbEntity
  8
0
 62
     3
100
AcDbText
 10
401.307141
 20
-2.826950999999998
 30
0.0
 40
3.2
  1
使用温度範囲
  7
高3.2
100
AcDbText
  0
TEXT
  5
20F
330
6B
100
AcDbEntity
  8
0
 62
     3
100
AcDbText
 10
441.609832
 20
81.67304900000003
 30
0.0
 40
3.2
  1
BU-6A
  7
高3.2
100
AcDbText
  0
TEXT
  5
210
330
6B
100
AcDbEntity
  8
0
 62
     3
100
AcDbText
 10
441.609832
 20
75.173049
 30
0.0
 40
3.2
  1
DC24V
  7
高3.2
100
AcDbText
  0
TEXT
  5
211
330
6B
100
AcDbEntity
  8
0
 62
     3
100
AcDbText
 10
441.609832
 20
68.673049
 30
0.0
 40
3.2
  1
DC20～30V
  7
高3.2
100
AcDbText
  0
TEXT
  5
212
330
6B
100
AcDbEntity
  8
0
 62
     3
100
AcDbText
 10
441.609832
 20
61.804067
 30
0.0
 40
3.2
  1
DC13.8V
  7
高3.2
100
AcDbText
  0
TEXT
  5
213
330
6B
100
AcDbEntity
  8
0
 62
     3
100
AcDbText
 10
441.609832
 20
55.67304899999999
 30
0.0
 40
3.2
  1
5A
  7
高3.2
100
AcDbText
  0
TEXT
  5
214
330
6B
100
AcDbEntity
  8
0
 62
     3
100
AcDbText
 10
441.609832
 20
49.173049
 30
0.0
 40
3.2
  1
6A
  7
高3.2
100
AcDbText
  0
TEXT
  5
215
330
6B
100
AcDbEntity
  8
0
 62
     3
100
AcDbText
 10
441.609832
 20
42.673049
 30
0.0
 40
3.2
  1
ヒートシンク放射冷却
  7
高3.2
100
AcDbText
  0
TEXT
  5
216
330
6B
100
AcDbEntity
  8
0
 62
     3
100
AcDbText
 10
441.609832
 20
36.173049
 30
0.0
 40
3.2
  1
82.8W
  7
高3.2
100
AcDbText
  0
TEXT
  5
217
330
6B
100
AcDbEntity
  8
0
 62
     3
100
AcDbText
 10
441.609832
 20
29.673049
 30
0.0
 40
3.2
  1
30～40mA
  7
高3.2
100
AcDbText
  0
TEXT
  5
218
330
6B
100
AcDbEntity
  8
0
 62
     3
100
AcDbText
 10
441.609832
 20
23.173049
 30
0.0
 40
3.2
  1
80％以上
  7
高3.2
100
AcDbText
  0
TEXT
  5
219
330
6B
100
AcDbEntity
  8
0
 62
     3
100
AcDbText
 10
441.609832
 20
16.673049
 30
0.0
 40
3.2
  1
DC12～15V(初期設
  7
高3.2
100
AcDbText
  0
TEXT
  5
21A
330
6B
100
AcDbEntity
  8
0
 62
     3
100
AcDbText
 10
441.609832
 20
10.173049
 30
0.0
 40
3.2
  1
－0.8～＋0.2
  7
高3.2
100
AcDbText
  0
TEXT
  5
21B
330
6B
100
AcDbEntity
  8
0
 62
     3
100
AcDbText
 10
441.609832
 20
3.673048999999998
 30
0.0
 40
3.2
  1
ダイオード
  7
高3.2
100
AcDbText
  0
TEXT
  5
21C
330
6B
100
AcDbEntity
  8
0
 62
     3
100
AcDbText
 10
441.609832
 20
-2.826950999999998
 30
0.0
 40
3.2
  1
－20℃～50℃
  7
高3.2
100
AcDbText
  0
TEXT
  5
21D
330
6B
100
AcDbEntity
  8
0
 62
     3
100
AcDbText
 10
441.609832
 20
-9.326950999999999
 30
0.0
 40
3.2
  1
約0.78kg
  7
高3.2
100
AcDbText
  0
LINE
  5
21E
330
6B
100
AcDbEntity
  8
0
 62
     3
100
AcDbLine
 10
399.39189
 20
-9.995991999999999
 30
0.0
 11
399.39189
 21
87.50400799999999
 31
0.0
  0
LINE
  5
21F
330
6B
100
AcDbEntity
  8
0
 62
     3
100
AcDbLine
 10
439.694582
 20
87.50400799999999
 30
0.0
 11
439.694582
 21
-9.995991999999999
 31
0.0
  0
LINE
  5
220
330
6B
100
AcDbEntity
  8
0
 62
     3
100
AcDbLine
 10
490.2756656924586
 20
87.50400799999999
 30
0.0
 11
490.2756656924586
 21
-9.995991999999999
 31
0.0
  0
LINE
  5
221
330
6B
100
AcDbEntity
  8
0
100
AcDbLine
 10
399.39189
 20
16.004008
 30
0.0
 11
490.2756656924585
 21
16.004008
 31
0.0
  0
LINE
  5
222
330
6B
100
AcDbEntity
  8
0
100
AcDbLine
 10
399.39189
 20
48.504008
 30
0.0
 11
490.2756656924585
 21
48.504008
 31
0.0
  0
LINE
  5
223
330
6B
100
AcDbEntity
  8
0
100
AcDbLine
 10
399.39189
 20
42.00400799999999
 30
0.0
 11
490.2756656924585
 21
42.00400799999999
 31
0.0
  0
LINE
  5
224
330
6B
100
AcDbEntity
  8
0
100
AcDbLine
 10
399.39189
 20
35.504008
 30
0.0
 11
490.2756656924585
 21
35.504008
 31
0.0
  0
LINE
  5
225
330
6B
100
AcDbEntity
  8
0
100
AcDbLine
 10
399.39189
 20
29.004008
 30
0.0
 11
490.2756656924585
 21
29.004008
 31
0.0
  0
LINE
  5
226
330
6B
100
AcDbEntity
  8
0
100
AcDbLine
 10
399.39189
 20
22.504008
 30
0.0
 11
490.2756656924585
 21
22.504008
 31
0.0
  0
LINE
  5
227
330
6B
100
AcDbEntity
  8
0
100
AcDbLine
 10
399.39189
 20
9.504008
 30
0.0
 11
490.2756656924585
 21
9.504008
 31
0.0
  0
LINE
  5
228
330
6B
100
AcDbEntity
  8
0
100
AcDbLine
 10
399.39189
 20
3.004008
 30
0.0
 11
490.2756656924585
 21
3.004007999999998
 31
0.0
  0
LINE
  5
229
330
6B
100
AcDbEntity
  8
0
100
AcDbLine
 10
399.39189
 20
-3.495991999999998
 30
0.0
 11
490.2756656924585
 21
-3.495991999999998
 31
0.0
  0
TEXT
  5
22A
330
6B
100
AcDbEntity
  8
0
 62
     3
100
AcDbText
 10
602.5932248251911
 20
-1.306738999999998
 30
0.0
 40
4.5
  1
BU-6A
  7
高4.5
100
AcDbText
  0
TEXT
  5
22B
330
6B
100
AcDbEntity
  8
0
 62
     3
100
AcDbText
 10
648.854193961185
 20
-24.808748
 30
0.0
 40
6.299999999999998
  1
BU-6A
  7
高6.3
100
AcDbText
  0
TEXT
  5
22C
330
6B
100
AcDbEntity
  8
0
 62
     3
100
AcDbText
 10
665.5790299999998
 20
14.743385
 30
0.0
 40
4.5
  1
6312
  7
高4.5
100
AcDbText
  0
TEXT
  5
22D
330
6B
100
AcDbEntity
  8
0
 62
     3
100
AcDbText
 10
579.672775
 20
27.586213
 30
0.0
 40
4.5
  1
バックアップ回路内蔵
  7
高4.5
100
AcDbText
  0
TEXT
  5
22E
330
6B
100
AcDbEntity
  8
0
 62
     3
100
AcDbText
 10
580.118252
 20
22.685961
 30
0.0
 40
4.5
  1
ACC入力付き
  7
高4.5
100
AcDbText
  0
LINE
  5
234
330
6B
100
AcDbEntity
  8
0
100
AcDbLine
 10
339.076315
 20
170.051765
 30
0.0
 11
324.885736
 21
193.209449
 31
0.0
  0
LINE
  5
235
330
6B
100
AcDbEntity
  8
0
100
AcDbLine
 10
324.885736
 20
193.209449
 30
0.0
 11
308.385736
 21
193.209449
 31
0.0
  0
TEXT
  5
236
330
6B
100
AcDbEntity
  8
0
 62
     4
100
AcDbText
 10
311.135736
 20
194.209449
 30
0.0
 40
3.2
  1
出力端子
  7
高3.2
100
AcDbText
  0
LINE
  5
23C
330
6B
100
AcDbEntity
  8
0
100
AcDbLine
 10
363.937478
 20
167.117274
 30
0.0
 11
354.151192
 21
195.03854
 31
0.0
  0
LINE
  5
23D
330
6B
100
AcDbEntity
  8
0
100
AcDbLine
 10
354.151192
 20
195.03854
 30
0.0
 11
329.401192
 21
195.03854
 31
0.0
  0
TEXT
  5
23E
330
6B
100
AcDbEntity
  8
0
 62
     4
100
AcDbText
 10
332.151192
 20
196.03854
 30
0.0
 40
3.2
  1
シガーソケット
  7
高3.2
100
AcDbText
  0
LINE
  5
244
330
6B
100
AcDbEntity
  8
0
100
AcDbLine
 10
403.7304189999998
 20
170.990934
 30
0.0
 11
411.6659439999998
 21
193.006217
 31
0.0
  0
LINE
  5
245
330
6B
100
AcDbEntity
  8
0
100
AcDbLine
 10
411.6659439999998
 20
193.006217
 30
0.0
 11
430.915944
 21
193.006217
 31
0.0
  0
TEXT
  5
246
330
6B
100
AcDbEntity
  8
0
 62
     4
100
AcDbText
 10
414.415944
 20
194.006217
 30
0.0
 40
3.2
  1
警告ランプ
  7
高3.2
100
AcDbText
  0
LINE
  5
24C
330
6B
100
AcDbEntity
  8
0
100
AcDbLine
 10
397.236448
 20
163.675432
 30
0.0
 11
402.3172569999998
 21
200.322581
 31
0.0
  0
LINE
  5
24D
330
6B
100
AcDbEntity
  8
0
100
AcDbLine
 10
402.3172569999998
 20
200.322581
 30
0.0
 11
424.317257
 21
200.322581
 31
0.0
  0
TEXT
  5
24E
330
6B
100
AcDbEntity
  8
0
 62
     4
100
AcDbText
 10
405.0672569999998
 20
201.322581
 30
0.0
 40
3.2
  1
電源スイッチ
  7
高3.2
100
AcDbText
  0
LINE
  5
254
330
6B
100
AcDbEntity
  8
0
100
AcDbLine
 10
390.917759
 20
171.607502
 30
0.0
 11
396.626751
 21
206.216319
 31
0.0
  0
LINE
  5
255
330
6B
100
AcDbEntity
  8
0
100
AcDbLine
 10
396.626751
 20
206.216319
 30
0.0
 11
415.8767509999998
 21
206.216319
 31
0.0
  0
TEXT
  5
256
330
6B
100
AcDbEntity
  8
0
 62
     4
100
AcDbText
 10
399.3767509999998
 20
207.216319
 30
0.0
 40
3.2
  1
電源ランプ
  7
高3.2
100
AcDbText
  0
LINE
  5
257
330
6B
100
AcDbEntity
  8
0
 62
     3
100
AcDbLine
 10
412.1261379999998
 20
181.675432
 30
0.0
 11
326.816797
 21
181.675432
 31
0.0
  0
LINE
  5
258
330
6B
100
AcDbEntity
  8
0
 62
     3
100
AcDbLine
 10
462.436815
 20
135.175432
 30
0.0
 11
487.895198
 21
135.175432
 31
0.0
  0
LINE
  5
259
330
6B
100
AcDbEntity
  8
0
 62
     3
100
AcDbLine
 10
415.471468
 20
130.675432
 30
0.0
 11
415.471468
 21
144.175432
 31
0.0
  0
LINE
  5
25A
330
6B
100
AcDbEntity
  8
0
 62
     3
100
AcDbLine
 10
323.471468
 20
130.675432
 30
0.0
 11
323.471468
 21
144.175432
 31
0.0
  0
LINE
  5
25B
330
6B
100
AcDbEntity
  8
0
 62
     3
100
AcDbLine
 10
323.471468
 20
130.675432
 30
0.0
 11
415.471468
 21
130.675432
 31
0.0
  0
LINE
  5
25C
330
6B
100
AcDbEntity
  8
0
 62
     3
100
AcDbLine
 10
330.471468
 20
139.675432
 30
0.0
 11
362.93312
 21
139.675432
 31
0.0
  0
ARC
  5
25D
330
6B
100
AcDbEntity
  8
0
 62
     3
100
AcDbCircle
 10
325.877718
 20
158.425432
 30
0.0
 40
91.59375
100
AcDbArc
 50
348.004644
 51
13.21298
  0
ARC
  5
25E
330
6B
100
AcDbEntity
  8
0
 62
     3
100
AcDbCircle
 10
413.065218
 20
158.425432
 30
0.0
 40
91.59375
100
AcDbArc
 50
166.78702
 51
191.995356
  0
LINE
  5
25F
330
6B
100
AcDbEntity
  8
0
 62
     3
100
AcDbLine
 10
329.471468
 20
145.175432
 30
0.0
 11
324.471468
 21
145.175432
 31
0.0
  0
LINE
  5
260
330
6B
100
AcDbEntity
  8
0
 62
     3
100
AcDbLine
 10
408.471468
 20
139.675432
 30
0.0
 11
408.471468
 21
144.175432
 31
0.0
  0
LINE
  5
261
330
6B
100
AcDbEntity
  8
0
 62
     3
100
AcDbLine
 10
330.471468
 20
139.675432
 30
0.0
 11
330.471468
 21
144.175432
 31
0.0
  0
LINE
  5
262
330
6B
100
AcDbEntity
  8
0
 62
     3
100
AcDbLine
 10
409.471468
 20
145.175432
 30
0.0
 11
414.4714679999998
 21
145.175432
 31
0.0
  0
CIRCLE
  5
263
330
6B
100
AcDbEntity
  8
0
 62
     3
100
AcDbCircle
 10
369.471468
 20
153.175432
 30
0.0
 40
15.0
  0
LINE
  5
264
330
6B
100
AcDbEntity
  8
0
 62
     3
100
AcDbLine
 10
376.009816
 20
139.675432
 30
0.0
 11
408.471468
 21
139.675432
 31
0.0
  0
CIRCLE
  5
265
330
6B
100
AcDbEntity
  8
0
 62
     3
100
AcDbCircle
 10
341.971468
 20
165.375432
 30
0.0
 40
5.5
  0
CIRCLE
  5
266
330
6B
100
AcDbEntity
  8
0
 62
     3
100
AcDbCircle
 10
341.971468
 20
146.375432
 30
0.0
 40
5.5
  0
LINE
  5
267
330
6B
100
AcDbEntity
  8
0
 62
     3
100
AcDbLine
 10
403.471468
 20
144.675432
 30
0.0
 11
389.471468
 21
144.675432
 31
0.0
  0
LINE
  5
268
330
6B
100
AcDbEntity
  8
0
 62
     3
100
AcDbLine
 10
403.471468
 20
163.675432
 30
0.0
 11
389.471468
 21
163.675432
 31
0.0
  0
LINE
  5
269
330
6B
100
AcDbEntity
  8
0
 62
     3
100
AcDbLine
 10
403.471468
 20
163.675432
 30
0.0
 11
403.471468
 21
144.675432
 31
0.0
  0
LINE
  5
26A
330
6B
100
AcDbEntity
  8
0
 62
     3
100
AcDbLine
 10
389.471468
 20
163.675432
 30
0.0
 11
389.471468
 21
144.675432
 31
0.0
  0
ARC
  5
26B
330
6B
100
AcDbEntity
  8
0
 62
     3
100
AcDbCircle
 10
414.4714679999998
 20
144.175432
 30
0.0
 40
1.0
100
AcDbArc
 50
0.0
 51
90.0
  0
ARC
  5
26C
330
6B
100
AcDbEntity
  8
0
 62
     3
100
AcDbCircle
 10
409.471468
 20
144.175432
 30
0.0
 40
1.0
100
AcDbArc
 50
90.0
 51
180.0
  0
ARC
  5
26D
330
6B
100
AcDbEntity
  8
0
 62
     3
100
AcDbCircle
 10
329.471468
 20
144.175432
 30
0.0
 40
1.0
100
AcDbArc
 50
0.0
 51
90.0
  0
ARC
  5
26E
330
6B
100
AcDbEntity
  8
0
 62
     3
100
AcDbCircle
 10
324.471468
 20
144.175432
 30
0.0
 40
1.0
100
AcDbArc
 50
90.0
 51
180.0
  0
ARC
  5
26F
330
6B
100
AcDbEntity
  8
0
 62
     3
100
AcDbCircle
 10
412.1261379999998
 20
178.675432
 30
0.0
 40
3.0
100
AcDbArc
 50
13.21298
 51
90.0
  0
ARC
  5
270
330
6B
100
AcDbEntity
  8
0
 62
     3
100
AcDbCircle
 10
326.816797
 20
178.675432
 30
0.0
 40
3.0
100
AcDbArc
 50
90.0
 51
166.78702
  0
LINE
  5
271
330
6B
100
AcDbEntity
  8
0
 62
     3
100
AcDbLine
 10
462.436815
 20
181.675432
 30
0.0
 11
485.6594959999998
 21
181.675432
 31
0.0
  0
LINE
  5
272
330
6B
100
AcDbEntity
  8
0
 62
     3
100
AcDbLine
 10
493.092328
 20
181.675432
 30
0.0
 11
538.923312
 21
181.675432
 31
0.0
  0
LINE
  5
273
330
6B
100
AcDbEntity
  8
0
 62
     3
100
AcDbLine
 10
495.3280309999998
 20
135.175432
 30
0.0
 11
538.923312
 21
135.175432
 31
0.0
  0
LINE
  5
274
330
6B
100
AcDbEntity
  8
0
 62
     3
100
AcDbLine
 10
462.436815
 20
135.175432
 30
0.0
 11
462.436815
 21
181.675432
 31
0.0
  0
LINE
  5
275
330
6B
100
AcDbEntity
  8
0
 62
     3
100
AcDbLine
 10
538.923312
 20
135.175432
 30
0.0
 11
538.923312
 21
181.675432
 31
0.0
  0
LINE
  5
276
330
6B
100
AcDbEntity
  8
0
 62
     3
100
AcDbLine
 10
612.82352
 20
136.175432
 30
0.0
 11
612.82352
 21
139.675432
 31
0.0
  0
LINE
  5
277
330
6B
100
AcDbEntity
  8
0
 62
     3
100
AcDbLine
 10
619.82352
 20
136.175432
 30
0.0
 11
619.82352
 21
139.675432
 31
0.0
  0
LINE
  5
278
330
6B
100
AcDbEntity
  8
0
 62
     3
100
AcDbLine
 10
570.32352
 20
130.675432
 30
0.0
 11
570.32352
 21
144.175432
 31
0.0
  0
ARC
  5
279
330
6B
100
AcDbEntity
  8
0
 62
     3
100
AcDbCircle
 10
571.32352
 20
144.175432
 30
0.0
 40
1.0
100
AcDbArc
 50
90.0
 51
180.0
  0
LINE
  5
27A
330
6B
100
AcDbEntity
  8
0
 62
     3
100
AcDbLine
 10
662.32352
 20
130.675432
 30
0.0
 11
662.32352
 21
144.175432
 31
0.0
  0
LINE
  5
27B
330
6B
100
AcDbEntity
  8
0
 62
     3
100
AcDbLine
 10
658.97819
 20
181.675432
 30
0.0
 11
573.668849
 21
181.675432
 31
0.0
  0
LINE
  5
27C
330
6B
100
AcDbEntity
  8
0
 62
     3
100
AcDbLine
 10
619.82352
 20
136.175432
 30
0.0
 11
612.82352
 21
136.175432
 31
0.0
  0
LINE
  5
27D
330
6B
100
AcDbEntity
  8
0
 62
     3
100
AcDbLine
 10
577.32352
 20
139.675432
 30
0.0
 11
612.82352
 21
139.675432
 31
0.0
  0
LINE
  5
27E
330
6B
100
AcDbEntity
  8
0
 62
     3
100
AcDbLine
 10
619.82352
 20
139.675432
 30
0.0
 11
655.32352
 21
139.675432
 31
0.0
  0
LINE
  5
27F
330
6B
100
AcDbEntity
  8
0
 62
     3
100
AcDbLine
 10
576.32352
 20
145.175432
 30
0.0
 11
571.32352
 21
145.175432
 31
0.0
  0
ARC
  5
280
330
6B
100
AcDbEntity
  8
0
 62
     3
100
AcDbCircle
 10
576.32352
 20
144.175432
 30
0.0
 40
1.0
100
AcDbArc
 50
0.0
 51
90.0
  0
LINE
  5
281
330
6B
100
AcDbEntity
  8
0
 62
     3
100
AcDbLine
 10
656.32352
 20
145.175432
 30
0.0
 11
661.32352
 21
145.175432
 31
0.0
  0
ARC
  5
282
330
6B
100
AcDbEntity
  8
0
 62
     3
100
AcDbCircle
 10
661.32352
 20
144.175432
 30
0.0
 40
1.0
100
AcDbArc
 50
0.0
 51
90.0
  0
LINE
  5
283
330
6B
100
AcDbEntity
  8
0
 62
     3
100
AcDbLine
 10
570.32352
 20
130.675432
 30
0.0
 11
662.32352
 21
130.675432
 31
0.0
  0
ARC
  5
284
330
6B
100
AcDbEntity
  8
0
 62
     3
100
AcDbCircle
 10
572.72977
 20
158.425432
 30
0.0
 40
91.59375
100
AcDbArc
 50
348.004644
 51
13.21298
  0
ARC
  5
285
330
6B
100
AcDbEntity
  8
0
 62
     3
100
AcDbCircle
 10
659.91727
 20
158.425432
 30
0.0
 40
91.59375
100
AcDbArc
 50
166.78702
 51
191.995356
  0
LINE
  5
286
330
6B
100
AcDbEntity
  8
0
 62
     3
100
AcDbLine
 10
655.32352
 20
139.675432
 30
0.0
 11
655.32352
 21
144.175432
 31
0.0
  0
ARC
  5
287
330
6B
100
AcDbEntity
  8
0
 62
     3
100
AcDbCircle
 10
656.32352
 20
144.175432
 30
0.0
 40
1.0
100
AcDbArc
 50
90.0
 51
180.0
  0
LINE
  5
288
330
6B
100
AcDbEntity
  8
0
 62
     3
100
AcDbLine
 10
577.32352
 20
139.675432
 30
0.0
 11
577.32352
 21
144.175432
 31
0.0
  0
ARC
  5
289
330
6B
100
AcDbEntity
  8
0
 62
     3
100
AcDbCircle
 10
658.97819
 20
178.675432
 30
0.0
 40
3.0
100
AcDbArc
 50
13.21298
 51
90.0
  0
ARC
  5
28A
330
6B
100
AcDbEntity
  8
0
 62
     3
100
AcDbCircle
 10
573.668849
 20
178.675432
 30
0.0
 40
3.0
100
AcDbArc
 50
90.0
 51
166.78702
  0
LINE
  5
28B
330
6B
100
AcDbEntity
  8
0
 62
     3
100
AcDbLine
 10
525.867623
 20
118.393396
 30
0.0
 11
525.867623
 21
123.393396
 31
0.0
  0
LINE
  5
28C
330
6B
100
AcDbEntity
  8
0
 62
     3
100
AcDbLine
 10
505.867623
 20
118.393396
 30
0.0
 11
505.867623
 21
123.393396
 31
0.0
  0
LINE
  5
28D
330
6B
100
AcDbEntity
  8
0
 62
     3
100
AcDbLine
 10
505.867623
 20
123.393396
 30
0.0
 11
525.867623
 21
123.393396
 31
0.0
  0
LINE
  5
28E
330
6B
100
AcDbEntity
  8
0
 62
     3
100
AcDbLine
 10
505.867623
 20
118.393396
 30
0.0
 11
525.867623
 21
118.393396
 31
0.0
  0
LINE
  5
28F
330
6B
100
AcDbEntity
  8
0
100
AcDbLine
 10
323.471468
 20
131.675432
 30
0.0
 11
415.471468
 21
131.675432
 31
0.0
  0
CIRCLE
  5
290
330
6B
100
AcDbEntity
  8
0
100
AcDbCircle
 10
411.971468
 20
141.175432
 30
0.0
 40
2.5
  0
CIRCLE
  5
291
330
6B
100
AcDbEntity
  8
0
100
AcDbCircle
 10
326.971468
 20
141.175432
 30
0.0
 40
2.5
  0
CIRCLE
  5
292
330
6B
100
AcDbEntity
  8
0
100
AcDbCircle
 10
411.971468
 20
178.675432
 30
0.0
 40
2.5
  0
CIRCLE
  5
293
330
6B
100
AcDbEntity
  8
0
100
AcDbCircle
 10
326.971468
 20
178.675432
 30
0.0
 40
2.5
  0
LINE
  5
294
330
6B
100
AcDbEntity
  8
0
100
AcDbLine
 10
372.971468
 20
136.175432
 30
0.0
 11
365.971468
 21
136.175432
 31
0.0
  0
LINE
  5
295
330
6B
100
AcDbEntity
  8
0
100
AcDbLine
 10
372.971468
 20
136.175432
 30
0.0
 11
372.971468
 21
138.58948
 31
0.0
  0
LINE
  5
296
330
6B
100
AcDbEntity
  8
0
100
AcDbLine
 10
365.971468
 20
136.175432
 30
0.0
 11
365.971468
 21
138.58948
 31
0.0
  0
LINE
  5
297
330
6B
100
AcDbEntity
  8
0
100
AcDbLine
 10
370.604074
 20
173.175432
 30
0.0
 11
368.338862
 21
173.175432
 31
0.0
  0
LINE
  5
298
330
6B
100
AcDbEntity
  8
0
100
AcDbLine
 10
371.594039
 20
172.316742
 30
0.0
 11
372.221468
 21
167.921194
 31
0.0
  0
LINE
  5
299
330
6B
100
AcDbEntity
  8
0
100
AcDbLine
 10
367.348897
 20
172.316742
 30
0.0
 11
366.721468
 21
167.921194
 31
0.0
  0
LINE
  5
29A
330
6B
100
AcDbEntity
  8
0
100
AcDbLine
 10
326.971468
 20
165.375432
 30
0.0
 11
336.471468
 21
165.375432
 31
0.0
  0
LINE
  5
29B
330
6B
100
AcDbEntity
  8
0
100
AcDbLine
 10
392.221468
 20
146.375432
 30
0.0
 11
400.721468
 21
146.375432
 31
0.0
  0
CIRCLE
  5
29C
330
6B
100
AcDbEntity
  8
0
100
AcDbCircle
 10
341.971468
 20
165.375432
 30
0.0
 40
3.5
  0
CIRCLE
  5
29D
330
6B
100
AcDbEntity
  8
0
100
AcDbCircle
 10
341.971468
 20
146.375432
 30
0.0
 40
3.5
  0
LINE
  5
29E
330
6B
100
AcDbEntity
  8
0
100
AcDbLine
 10
400.721468
 20
161.375432
 30
0.0
 11
392.221468
 21
161.375432
 31
0.0
  0
ARC
  5
29F
330
6B
100
AcDbEntity
  8
0
100
AcDbCircle
 10
373.096468
 20
153.875432
 30
0.0
 40
28.625
100
AcDbArc
 50
344.810713
 51
15.189287
  0
ARC
  5
2A0
330
6B
100
AcDbEntity
  8
0
100
AcDbCircle
 10
419.8464679999998
 20
153.875432
 30
0.0
 40
28.625
100
AcDbArc
 50
164.810713
 51
195.189287
  0
LINE
  5
2A1
330
6B
100
AcDbEntity
  8
0
100
AcDbLine
 10
392.971468
 20
157.456677
 30
0.0
 11
399.971468
 21
157.456677
 31
0.0
  0
LINE
  5
2A2
330
6B
100
AcDbEntity
  8
0
100
AcDbLine
 10
400.721468
 20
161.375432
 30
0.0
 11
399.971468
 21
157.456677
 31
0.0
  0
LINE
  5
2A3
330
6B
100
AcDbEntity
  8
0
100
AcDbLine
 10
399.971468
 20
157.456677
 30
0.0
 11
400.721468
 21
146.375432
 31
0.0
  0
LINE
  5
2A4
330
6B
100
AcDbEntity
  8
0
100
AcDbLine
 10
392.221468
 20
161.375432
 30
0.0
 11
392.971468
 21
157.456677
 31
0.0
  0
LINE
  5
2A5
330
6B
100
AcDbEntity
  8
0
100
AcDbLine
 10
392.971468
 20
157.456677
 30
0.0
 11
392.221468
 21
146.375432
 31
0.0
  0
LINE
  5
2A6
330
6B
100
AcDbEntity
  8
0
100
AcDbLine
 10
326.971468
 20
146.375432
 30
0.0
 11
336.471468
 21
146.375432
 31
0.0
  0
LINE
  5
2A7
330
6B
100
AcDbEntity
  8
0
100
AcDbLine
 10
383.471468
 20
147.875432
 30
0.0
 11
383.471468
 21
147.790267
 31
0.0
  0
LINE
  5
2A8
330
6B
100
AcDbEntity
  8
0
100
AcDbLine
 10
384.471468
 20
147.875432
 30
0.0
 11
384.471468
 21
163.875432
 31
0.0
  0
LINE
  5
2A9
330
6B
100
AcDbEntity
  8
0
100
AcDbLine
 10
385.471468
 20
163.875432
 30
0.0
 11
385.471468
 21
147.875432
 31
0.0
  0
LINE
  5
2AA
330
6B
100
AcDbEntity
  8
0
100
AcDbLine
 10
386.471468
 20
163.875432
 30
0.0
 11
386.471468
 21
147.875432
 31
0.0
  0
LINE
  5
2AB
330
6B
100
AcDbEntity
  8
0
100
AcDbLine
 10
387.471468
 20
163.875432
 30
0.0
 11
387.471468
 21
147.875432
 31
0.0
  0
LINE
  5
2AC
330
6B
100
AcDbEntity
  8
0
100
AcDbLine
 10
388.471468
 20
163.875432
 30
0.0
 11
388.471468
 21
147.875432
 31
0.0
  0
LINE
  5
2AD
330
6B
100
AcDbEntity
  8
0
100
AcDbLine
 10
404.471468
 20
147.875432
 30
0.0
 11
404.471468
 21
160.144186
 31
0.0
  0
LINE
  5
2AE
330
6B
100
AcDbEntity
  8
0
100
AcDbLine
 10
405.471468
 20
147.875432
 30
0.0
 11
405.471468
 21
160.144186
 31
0.0
  0
LINE
  5
2AF
330
6B
100
AcDbEntity
  8
0
100
AcDbLine
 10
406.4714679999998
 20
147.875432
 30
0.0
 11
406.4714679999998
 21
160.144186
 31
0.0
  0
LINE
  5
2B0
330
6B
100
AcDbEntity
  8
0
100
AcDbLine
 10
407.471468
 20
147.875432
 30
0.0
 11
407.471468
 21
160.144186
 31
0.0
  0
LINE
  5
2B1
330
6B
100
AcDbEntity
  8
0
100
AcDbLine
 10
408.471468
 20
147.875432
 30
0.0
 11
408.471468
 21
160.144186
 31
0.0
  0
LINE
  5
2B2
330
6B
100
AcDbEntity
  8
0
100
AcDbLine
 10
409.471468
 20
147.875432
 30
0.0
 11
409.471468
 21
163.875432
 31
0.0
  0
LINE
  5
2B3
330
6B
100
AcDbEntity
  8
0
100
AcDbLine
 10
410.4714679999998
 20
147.875432
 30
0.0
 11
410.4714679999998
 21
163.875432
 31
0.0
  0
LINE
  5
2B4
330
6B
100
AcDbEntity
  8
0
100
AcDbLine
 10
411.471468
 20
147.875432
 30
0.0
 11
411.471468
 21
163.875432
 31
0.0
  0
LINE
  5
2B5
330
6B
100
AcDbEntity
  8
0
100
AcDbLine
 10
383.471468
 20
158.560597
 30
0.0
 11
383.471468
 21
163.875432
 31
0.0
  0
LINE
  5
2B6
330
6B
100
AcDbEntity
  8
0
100
AcDbLine
 10
382.471468
 20
160.658747
 30
0.0
 11
382.471468
 21
163.875432
 31
0.0
  0
LINE
  5
2B7
330
6B
100
AcDbEntity
  8
0
100
AcDbLine
 10
381.471468
 20
162.175432
 30
0.0
 11
381.471468
 21
163.875432
 31
0.0
  0
LINE
  5
2B8
330
6B
100
AcDbEntity
  8
0
100
AcDbLine
 10
380.471468
 20
163.373471
 30
0.0
 11
380.471468
 21
163.875432
 31
0.0
  0
LINE
  5
2B9
330
6B
100
AcDbEntity
  8
0
100
AcDbLine
 10
358.471468
 20
163.875432
 30
0.0
 11
358.471468
 21
163.373471
 31
0.0
  0
LINE
  5
2BA
330
6B
100
AcDbEntity
  8
0
100
AcDbLine
 10
357.471468
 20
163.875432
 30
0.0
 11
357.471468
 21
162.175432
 31
0.0
  0
LINE
  5
2BB
330
6B
100
AcDbEntity
  8
0
100
AcDbLine
 10
356.471468
 20
163.875432
 30
0.0
 11
356.471468
 21
160.658747
 31
0.0
  0
LINE
  5
2BC
330
6B
100
AcDbEntity
  8
0
100
AcDbLine
 10
355.471468
 20
163.875432
 30
0.0
 11
355.471468
 21
158.560597
 31
0.0
  0
LINE
  5
2BD
330
6B
100
AcDbEntity
  8
0
100
AcDbLine
 10
354.471468
 20
163.875432
 30
0.0
 11
354.471468
 21
147.875432
 31
0.0
  0
LINE
  5
2BE
330
6B
100
AcDbEntity
  8
0
100
AcDbLine
 10
353.471468
 20
163.875432
 30
0.0
 11
353.471468
 21
147.875432
 31
0.0
  0
LINE
  5
2BF
330
6B
100
AcDbEntity
  8
0
100
AcDbLine
 10
352.471468
 20
163.875432
 30
0.0
 11
352.471468
 21
147.875432
 31
0.0
  0
LINE
  5
2C0
330
6B
100
AcDbEntity
  8
0
100
AcDbLine
 10
351.471468
 20
163.875432
 30
0.0
 11
351.471468
 21
147.875432
 31
0.0
  0
LINE
  5
2C1
330
6B
100
AcDbEntity
  8
0
100
AcDbLine
 10
350.471468
 20
163.875432
 30
0.0
 11
350.471468
 21
147.875432
 31
0.0
  0
LINE
  5
2C2
330
6B
100
AcDbEntity
  8
0
100
AcDbLine
 10
349.471468
 20
163.875432
 30
0.0
 11
349.471468
 21
147.875432
 31
0.0
  0
LINE
  5
2C3
330
6B
100
AcDbEntity
  8
0
100
AcDbLine
 10
348.471468
 20
163.875432
 30
0.0
 11
348.471468
 21
147.875432
 31
0.0
  0
LINE
  5
2C4
330
6B
100
AcDbEntity
  8
0
100
AcDbLine
 10
347.471468
 20
163.875432
 30
0.0
 11
347.471468
 21
147.875432
 31
0.0
  0
LINE
  5
2C5
330
6B
100
AcDbEntity
  8
0
100
AcDbLine
 10
346.471468
 20
162.213154
 30
0.0
 11
346.471468
 21
149.53771
 31
0.0
  0
LINE
  5
2C6
330
6B
100
AcDbEntity
  8
0
100
AcDbLine
 10
345.471468
 20
161.132791
 30
0.0
 11
345.471468
 21
150.618073
 31
0.0
  0
LINE
  5
2C7
330
6B
100
AcDbEntity
  8
0
100
AcDbLine
 10
344.471468
 20
160.476453
 30
0.0
 11
344.471468
 21
151.274412
 31
0.0
  0
LINE
  5
2C8
330
6B
100
AcDbEntity
  8
0
100
AcDbLine
 10
343.471468
 20
160.083929
 30
0.0
 11
343.471468
 21
151.666935
 31
0.0
  0
LINE
  5
2C9
330
6B
100
AcDbEntity
  8
0
100
AcDbLine
 10
342.471468
 20
159.898207
 30
0.0
 11
342.471468
 21
151.852658
 31
0.0
  0
LINE
  5
2CA
330
6B
100
AcDbEntity
  8
0
100
AcDbLine
 10
341.471468
 20
159.898207
 30
0.0
 11
341.471468
 21
151.852658
 31
0.0
  0
LINE
  5
2CB
330
6B
100
AcDbEntity
  8
0
100
AcDbLine
 10
340.471468
 20
160.083929
 30
0.0
 11
340.471468
 21
151.666935
 31
0.0
  0
LINE
  5
2CC
330
6B
100
AcDbEntity
  8
0
100
AcDbLine
 10
339.471468
 20
160.476453
 30
0.0
 11
339.471468
 21
151.274412
 31
0.0
  0
LINE
  5
2CD
330
6B
100
AcDbEntity
  8
0
100
AcDbLine
 10
338.471468
 20
161.132791
 30
0.0
 11
338.471468
 21
150.618073
 31
0.0
  0
LINE
  5
2CE
330
6B
100
AcDbEntity
  8
0
100
AcDbLine
 10
337.471468
 20
162.213154
 30
0.0
 11
337.471468
 21
149.53771
 31
0.0
  0
LINE
  5
2CF
330
6B
100
AcDbEntity
  8
0
100
AcDbLine
 10
336.471468
 20
147.875432
 30
0.0
 11
336.471468
 21
163.875432
 31
0.0
  0
LINE
  5
2D0
330
6B
100
AcDbEntity
  8
0
100
AcDbLine
 10
335.471468
 20
147.875432
 30
0.0
 11
335.471468
 21
163.875432
 31
0.0
  0
LINE
  5
2D1
330
6B
100
AcDbEntity
  8
0
100
AcDbLine
 10
334.471468
 20
147.875432
 30
0.0
 11
334.471468
 21
163.875432
 31
0.0
  0
LINE
  5
2D2
330
6B
100
AcDbEntity
  8
0
100
AcDbLine
 10
333.471468
 20
147.875432
 30
0.0
 11
333.471468
 21
163.875432
 31
0.0
  0
LINE
  5
2D3
330
6B
100
AcDbEntity
  8
0
100
AcDbLine
 10
332.471468
 20
147.875432
 30
0.0
 11
332.471468
 21
163.875432
 31
0.0
  0
LINE
  5
2D4
330
6B
100
AcDbEntity
  8
0
100
AcDbLine
 10
331.471468
 20
147.875432
 30
0.0
 11
331.471468
 21
163.875432
 31
0.0
  0
LINE
  5
2D5
330
6B
100
AcDbEntity
  8
0
100
AcDbLine
 10
330.471468
 20
147.875432
 30
0.0
 11
330.471468
 21
163.875432
 31
0.0
  0
LINE
  5
2D6
330
6B
100
AcDbEntity
  8
0
100
AcDbLine
 10
329.471468
 20
147.875432
 30
0.0
 11
329.471468
 21
163.875432
 31
0.0
  0
LINE
  5
2D7
330
6B
100
AcDbEntity
  8
0
100
AcDbLine
 10
328.471468
 20
147.875432
 30
0.0
 11
328.471468
 21
163.875432
 31
0.0
  0
LINE
  5
2D8
330
6B
100
AcDbEntity
  8
0
100
AcDbLine
 10
327.471468
 20
147.875432
 30
0.0
 11
327.471468
 21
163.875432
 31
0.0
  0
LINE
  5
2D9
330
6B
100
AcDbEntity
  8
0
100
AcDbLine
 10
355.471468
 20
147.875432
 30
0.0
 11
355.471468
 21
147.790267
 31
0.0
  0
LINE
  5
2DA
330
6B
100
AcDbEntity
  8
0
100
AcDbLine
 10
403.471468
 20
146.375432
 30
0.0
 11
412.471468
 21
146.375432
 31
0.0
  0
LINE
  5
2DB
330
6B
100
AcDbEntity
  8
0
100
AcDbLine
 10
382.841584
 20
146.375432
 30
0.0
 11
389.471468
 21
146.375432
 31
0.0
  0
LINE
  5
2DC
330
6B
100
AcDbEntity
  8
0
100
AcDbLine
 10
347.471468
 20
146.375432
 30
0.0
 11
356.101352
 21
146.375432
 31
0.0
  0
LINE
  5
2DD
330
6B
100
AcDbEntity
  8
0
100
AcDbLine
 10
347.471468
 20
165.375432
 30
0.0
 11
360.744498
 21
165.375432
 31
0.0
  0
LINE
  5
2DE
330
6B
100
AcDbEntity
  8
0
100
AcDbLine
 10
378.198438
 20
165.375432
 30
0.0
 11
412.471468
 21
165.375432
 31
0.0
  0
LINE
  5
2DF
330
6B
100
AcDbEntity
  8
0
100
AcDbLine
 10
409.071468
 20
131.675432
 30
0.0
 11
409.071468
 21
130.675432
 31
0.0
  0
LINE
  5
2E0
330
6B
100
AcDbEntity
  8
0
100
AcDbLine
 10
404.8714679999998
 20
131.675432
 30
0.0
 11
404.8714679999998
 21
130.675432
 31
0.0
  0
LINE
  5
2E1
330
6B
100
AcDbEntity
  8
0
100
AcDbLine
 10
334.071468
 20
130.675432
 30
0.0
 11
334.071468
 21
131.675432
 31
0.0
  0
LINE
  5
2E2
330
6B
100
AcDbEntity
  8
0
100
AcDbLine
 10
329.871468
 20
130.675432
 30
0.0
 11
329.871468
 21
131.675432
 31
0.0
  0
CIRCLE
  5
2E3
330
6B
100
AcDbEntity
  8
0
100
AcDbCircle
 10
402.471468
 20
170.175432
 30
0.0
 40
1.5
  0
CIRCLE
  5
2E4
330
6B
100
AcDbEntity
  8
0
100
AcDbCircle
 10
390.471468
 20
170.175432
 30
0.0
 40
1.5
  0
TEXT
  5
2E5
330
6B
100
AcDbEntity
  8
0
100
AcDbText
 10
385.999951
 20
173.178028
 30
0.0
 40
1.6
  1
POWER
100
AcDbText
  0
TEXT
  5
2E6
330
6B
100
AcDbEntity
  8
0
100
AcDbText
 10
398.883405
 20
175.482876
 30
0.0
 40
1.6
  1
OVER
100
AcDbText
  0
TEXT
  5
2E7
330
6B
100
AcDbEntity
  8
0
100
AcDbText
 10
398.833275
 20
173.127922
 30
0.0
 40
1.6
  1
LOAD
100
AcDbText
  0
TEXT
  5
2E8
330
6B
100
AcDbEntity
  8
0
100
AcDbText
 10
335.640459
 20
177.367737
 30
0.0
 40
1.6
  1
DC OUTPUT
100
AcDbText
  0
TEXT
  5
2E9
330
6B
100
AcDbEntity
  8
0
100
AcDbText
 10
362.9445
 20
154.204158
 30
0.0
 40
3.0
  1
DC12V
100
AcDbText
  0
TEXT
  5
2EA
330
6B
100
AcDbEntity
  8
0
100
AcDbText
 10
363.370449
 20
150.341614
 30
0.0
 40
2.0
  1
SOCKET
100
AcDbText
  0
TEXT
  5
2EB
330
6B
100
AcDbEntity
  8
0
100
AcDbText
 10
404.8265999999999
 20
161.4558129999999
 30
0.0
 40
1.6
  1
ON
100
AcDbText
  0
LINE
  5
2EC
330
6B
100
AcDbEntity
  8
0
100
AcDbLine
 10
360.543244
 20
173.640255
 30
0.0
 11
355.712594
 21
172.08539
 31
0.0
  0
LINE
  5
2ED
330
6B
100
AcDbEntity
  8
0
100
AcDbLine
 10
360.766615
 20
172.558304
 30
0.0
 11
355.87393
 21
170.983473
 31
0.0
  0
ARC
  5
2EE
330
6B
100
AcDbEntity
  8
0
100
AcDbCircle
 10
360.062657
 20
172.977004
 30
0.0
 40
0.819064
100
AcDbArc
 50
329.25669
 51
54.07311600000001
  0
ARC
  5
2EF
330
6B
100
AcDbEntity
  8
0
100
AcDbCircle
 10
354.993803
 20
171.228465
 30
0.0
 40
0.7002030000000002
100
AcDbArc
 50
139.582881
 51
243.7469240000001
  0
ARC
  5
2F0
330
6B
100
AcDbEntity
  8
0
100
AcDbCircle
 10
354.2454259999999
 20
171.073962
 30
0.0
 40
0.645439
100
AcDbArc
 50
312.813763
 51
70.51604300000002
  0
ARC
  5
2F1
330
6B
100
AcDbEntity
  8
0
100
AcDbCircle
 10
354.65683
 20
171.298674
 30
0.0
 40
0.97675
100
AcDbArc
 50
334.293207
 51
43.66077299999999
  0
ARC
  5
2F2
330
6B
100
AcDbEntity
  8
0
100
AcDbCircle
 10
355.091127
 20
171.431629
 30
0.0
 40
0.902012
100
AcDbArc
 50
330.208764
 51
46.450652
  0
LINE
  5
2F3
330
6B
100
AcDbEntity
  8
0
100
AcDbLine
 10
355.36345
 20
171.97301
 30
0.0
 11
354.460707
 21
171.68244
 31
0.0
  0
LINE
  5
2F4
330
6B
100
AcDbEntity
  8
0
100
AcDbLine
 10
355.536906
 20
170.874993
 30
0.0
 11
354.684078
 21
170.6004889999999
 31
0.0
  0
LINE
  5
310
330
6B
100
AcDbEntity
  8
0
100
AcDbLine
 10
359.047059
 20
174.382417
 30
0.0
 11
355.8448160000001
 21
170.005446
 31
0.0
  0
LINE
  5
311
330
6B
100
AcDbEntity
  8
0
100
AcDbLine
 10
356.091143
 20
174.546554
 30
0.0
 11
359.074428
 21
170.251651
 31
0.0
  0
LINE
  5
312
330
6B
100
AcDbEntity
  8
0
100
AcDbLine
 10
462.436815
 20
130.675432
 30
0.0
 11
462.436815
 21
135.175432
 31
0.0
  0
LINE
  5
313
330
6B
100
AcDbEntity
  8
0
100
AcDbLine
 10
537.923312
 20
135.175432
 30
0.0
 11
537.923312
 21
181.675432
 31
0.0
  0
LINE
  5
314
330
6B
100
AcDbEntity
  8
0
100
AcDbLine
 10
463.436815
 20
135.175432
 30
0.0
 11
463.436815
 21
181.675432
 31
0.0
  0
LINE
  5
315
330
6B
100
AcDbEntity
  8
0
100
AcDbLine
 10
461.436815
 20
131.675432
 30
0.0
 11
461.436815
 21
145.175432
 31
0.0
  0
LINE
  5
316
330
6B
100
AcDbEntity
  8
0
100
AcDbLine
 10
461.436815
 20
145.175432
 30
0.0
 11
462.436815
 21
145.175432
 31
0.0
  0
LINE
  5
317
330
6B
100
AcDbEntity
  8
0
100
AcDbLine
 10
461.436815
 20
131.675432
 30
0.0
 11
451.436815
 21
131.675432
 31
0.0
  0
LINE
  5
318
330
6B
100
AcDbEntity
  8
0
100
AcDbLine
 10
462.436815
 20
130.675432
 30
0.0
 11
451.436815
 21
130.675432
 31
0.0
  0
LINE
  5
319
330
6B
100
AcDbEntity
  8
0
100
AcDbLine
 10
451.436815
 20
130.675432
 30
0.0
 11
451.436815
 21
131.675432
 31
0.0
  0
LINE
  5
31A
330
6B
100
AcDbEntity
  8
0
100
AcDbLine
 10
538.923312
 20
130.675432
 30
0.0
 11
538.923312
 21
135.175432
 31
0.0
  0
LINE
  5
31B
330
6B
100
AcDbEntity
  8
0
100
AcDbLine
 10
539.9233119999998
 20
131.675432
 30
0.0
 11
539.9233119999998
 21
145.175432
 31
0.0
  0
LINE
  5
31C
330
6B
100
AcDbEntity
  8
0
100
AcDbLine
 10
549.923312
 20
130.675432
 30
0.0
 11
549.923312
 21
131.675432
 31
0.0
  0
LINE
  5
31D
330
6B
100
AcDbEntity
  8
0
100
AcDbLine
 10
539.9233119999998
 20
131.675432
 30
0.0
 11
549.923312
 21
131.675432
 31
0.0
  0
LINE
  5
31E
330
6B
100
AcDbEntity
  8
0
100
AcDbLine
 10
538.923312
 20
130.675432
 30
0.0
 11
549.923312
 21
130.675432
 31
0.0
  0
LINE
  5
31F
330
6B
100
AcDbEntity
  8
0
100
AcDbLine
 10
538.923312
 20
145.175432
 30
0.0
 11
539.9233119999998
 21
145.175432
 31
0.0
  0
LINE
  5
320
330
6B
100
AcDbEntity
  8
0
100
AcDbLine
 10
462.436815
 20
170.875432
 30
0.0
 11
442.436815
 21
170.875432
 31
0.0
  0
LINE
  5
321
330
6B
100
AcDbEntity
  8
0
100
AcDbLine
 10
454.653959
 20
140.875432
 30
0.0
 11
442.436815
 21
140.875432
 31
0.0
  0
LINE
  5
322
330
6B
100
AcDbEntity
  8
0
100
AcDbLine
 10
454.436815
 20
151.875432
 30
0.0
 11
442.436815
 21
151.875432
 31
0.0
  0
LINE
  5
323
330
6B
100
AcDbEntity
  8
0
100
AcDbLine
 10
454.436815
 20
159.875432
 30
0.0
 11
442.436815
 21
159.875432
 31
0.0
  0
LINE
  5
324
330
6B
100
AcDbEntity
  8
0
100
AcDbLine
 10
442.436815
 20
140.875432
 30
0.0
 11
442.436815
 21
151.875432
 31
0.0
  0
LINE
  5
325
330
6B
100
AcDbEntity
  8
0
100
AcDbLine
 10
442.436815
 20
159.875432
 30
0.0
 11
442.436815
 21
170.875432
 31
0.0
  0
LINE
  5
326
330
6B
100
AcDbEntity
  8
0
100
AcDbLine
 10
454.436815
 20
142.175432
 30
0.0
 11
454.436815
 21
164.175432
 31
0.0
  0
ARC
  5
327
330
6B
100
AcDbEntity
  8
0
100
AcDbCircle
 10
458.436815
 20
164.175432
 30
0.0
 40
4.0
100
AcDbArc
 50
0.0
 51
180.0
  0
ARC
  5
328
330
6B
100
AcDbEntity
  8
0
100
AcDbCircle
 10
458.436815
 20
142.175432
 30
0.0
 40
4.0
100
AcDbArc
 50
180.0
 51
318.590378
  0
LINE
  5
329
330
6B
100
AcDbEntity
  8
0
100
AcDbLine
 10
462.436815
 20
163.675432
 30
0.0
 11
460.4368149999998
 21
163.675432
 31
0.0
  0
LINE
  5
32A
330
6B
100
AcDbEntity
  8
0
100
AcDbLine
 10
461.436815
 20
144.675432
 30
0.0
 11
460.4368149999998
 21
144.675432
 31
0.0
  0
LINE
  5
32B
330
6B
100
AcDbEntity
  8
0
100
AcDbLine
 10
460.4368149999998
 20
144.675432
 30
0.0
 11
460.4368149999998
 21
163.675432
 31
0.0
  0
ARC
  5
32C
330
6B
100
AcDbEntity
  8
0
100
AcDbCircle
 10
463.257107
 20
154.495827
 30
0.0
 40
7.435253999999998
100
AcDbArc
 50
112.291156
 51
156.533192
  0
ARC
  5
32D
330
6B
100
AcDbEntity
  8
0
100
AcDbCircle
 10
434.146324
 20
143.14791
 30
0.0
 40
26.487862
100
AcDbArc
 50
6.998832000000001
 51
32.69731800000001
  0
LINE
  5
32E
330
6B
100
AcDbEntity
  8
0
100
AcDbLine
 10
537.923312
 20
160.675432
 30
0.0
 11
490.296262
 21
160.675432
 31
0.0
  0
LINE
  5
32F
330
6B
100
AcDbEntity
  8
0
100
AcDbLine
 10
537.923312
 20
166.175432
 30
0.0
 11
488.020968
 21
166.175432
 31
0.0
  0
LINE
  5
330
330
6B
100
AcDbEntity
  8
0
100
AcDbLine
 10
537.923312
 20
157.875432
 30
0.0
 11
491.7837679999998
 21
157.875432
 31
0.0
  0
LINE
  5
331
330
6B
100
AcDbEntity
  8
0
100
AcDbLine
 10
537.923312
 20
155.075432
 30
0.0
 11
493.328887
 21
155.075432
 31
0.0
  0
LINE
  5
332
330
6B
100
AcDbEntity
  8
0
100
AcDbLine
 10
537.923312
 20
152.275432
 30
0.0
 11
494.813628
 21
152.275432
 31
0.0
  0
LINE
  5
333
330
6B
100
AcDbEntity
  8
0
100
AcDbLine
 10
537.923312
 20
149.475432
 30
0.0
 11
496.118873
 21
149.475432
 31
0.0
  0
LINE
  5
334
330
6B
100
AcDbEntity
  8
0
100
AcDbLine
 10
537.923312
 20
146.675432
 30
0.0
 11
497.119054
 21
146.675432
 31
0.0
  0
LINE
  5
335
330
6B
100
AcDbEntity
  8
0
100
AcDbLine
 10
537.923312
 20
143.875432
 30
0.0
 11
497.676045
 21
143.875432
 31
0.0
  0
LINE
  5
336
330
6B
100
AcDbEntity
  8
0
100
AcDbLine
 10
537.923312
 20
159.675432
 30
0.0
 11
490.813374
 21
159.675432
 31
0.0
  0
LINE
  5
337
330
6B
100
AcDbEntity
  8
0
100
AcDbLine
 10
537.923312
 20
156.875432
 30
0.0
 11
492.335144
 21
156.875432
 31
0.0
  0
LINE
  5
338
330
6B
100
AcDbEntity
  8
0
100
AcDbLine
 10
537.923312
 20
154.075432
 30
0.0
 11
493.8721929999998
 21
154.075432
 31
0.0
  0
LINE
  5
339
330
6B
100
AcDbEntity
  8
0
100
AcDbLine
 10
537.923312
 20
151.275432
 30
0.0
 11
495.306719
 21
151.275432
 31
0.0
  0
LINE
  5
33A
330
6B
100
AcDbEntity
  8
0
100
AcDbLine
 10
537.923312
 20
148.475432
 30
0.0
 11
496.517937
 21
148.475432
 31
0.0
  0
LINE
  5
33B
330
6B
100
AcDbEntity
  8
0
100
AcDbLine
 10
537.923312
 20
145.675432
 30
0.0
 11
497.376559
 21
145.675432
 31
0.0
  0
CIRCLE
  5
33C
330
6B
100
AcDbEntity
  8
0
100
AcDbCircle
 10
527.9233119999998
 20
163.425432
 30
0.0
 40
1.5
  0
LINE
  5
361
330
6B
100
AcDbEntity
  8
0
100
AcDbLine
 10
480.5881359999998
 20
166.175432
 30
0.0
 11
463.436815
 21
166.175432
 31
0.0
  0
LINE
  5
362
330
6B
100
AcDbEntity
  8
0
100
AcDbLine
 10
490.243212
 20
143.875432
 30
0.0
 11
463.436815
 21
143.875432
 31
0.0
  0
LINE
  5
363
330
6B
100
AcDbEntity
  8
0
100
AcDbLine
 10
489.9437269999999
 20
145.675432
 30
0.0
 11
463.436815
 21
145.675432
 31
0.0
  0
LINE
  5
364
330
6B
100
AcDbEntity
  8
0
100
AcDbLine
 10
489.686222
 20
146.675432
 30
0.0
 11
463.436815
 21
146.675432
 31
0.0
  0
LINE
  5
365
330
6B
100
AcDbEntity
  8
0
100
AcDbLine
 10
489.085105
 20
148.475432
 30
0.0
 11
463.436815
 21
148.475432
 31
0.0
  0
LINE
  5
366
330
6B
100
AcDbEntity
  8
0
100
AcDbLine
 10
488.6860409999998
 20
149.475432
 30
0.0
 11
463.436815
 21
149.475432
 31
0.0
  0
LINE
  5
367
330
6B
100
AcDbEntity
  8
0
100
AcDbLine
 10
487.873887
 20
151.275432
 30
0.0
 11
463.436815
 21
151.275432
 31
0.0
  0
LINE
  5
368
330
6B
100
AcDbEntity
  8
0
100
AcDbLine
 10
487.3807959999998
 20
152.275432
 30
0.0
 11
463.436815
 21
152.275432
 31
0.0
  0
LINE
  5
369
330
6B
100
AcDbEntity
  8
0
100
AcDbLine
 10
486.4393599999998
 20
154.075432
 30
0.0
 11
463.436815
 21
154.075432
 31
0.0
  0
LINE
  5
36A
330
6B
100
AcDbEntity
  8
0
100
AcDbLine
 10
485.8960539999998
 20
155.075432
 30
0.0
 11
463.436815
 21
155.075432
 31
0.0
  0
LINE
  5
36B
330
6B
100
AcDbEntity
  8
0
100
AcDbLine
 10
484.902311
 20
156.875432
 30
0.0
 11
463.436815
 21
156.875432
 31
0.0
  0
LINE
  5
36C
330
6B
100
AcDbEntity
  8
0
100
AcDbLine
 10
484.350936
 20
157.875432
 30
0.0
 11
463.436815
 21
157.875432
 31
0.0
  0
LINE
  5
36D
330
6B
100
AcDbEntity
  8
0
100
AcDbLine
 10
483.380542
 20
159.675432
 30
0.0
 11
463.436815
 21
159.675432
 31
0.0
  0
LINE
  5
36E
330
6B
100
AcDbEntity
  8
0
100
AcDbLine
 10
482.86343
 20
160.675432
 30
0.0
 11
463.436815
 21
160.675432
 31
0.0
  0
LINE
  5
36F
330
6B
100
AcDbEntity
  8
0
100
AcDbLine
 10
370.604074
 20
172.175432
 30
0.0
 11
368.338862
 21
172.175432
 31
0.0
  0
LINE
  5
370
330
6B
100
AcDbEntity
  8
0
100
AcDbLine
 10
370.746816
 20
171.175432
 30
0.0
 11
368.19612
 21
171.175432
 31
0.0
  0
LINE
  5
371
330
6B
100
AcDbEntity
  8
0
100
AcDbLine
 10
370.889557
 20
170.175432
 30
0.0
 11
368.053378
 21
170.175432
 31
0.0
  0
LINE
  5
372
330
6B
100
AcDbEntity
  8
0
100
AcDbLine
 10
371.032299
 20
169.175432
 30
0.0
 11
367.910637
 21
169.175432
 31
0.0
  0
ARC
  5
373
330
6B
100
AcDbEntity
  8
0
100
AcDbCircle
 10
370.604074
 20
172.175432
 30
0.0
 40
1.0
100
AcDbArc
 50
8.123632
 51
90.0
  0
ARC
  5
374
330
6B
100
AcDbEntity
  8
0
100
AcDbCircle
 10
368.338862
 20
172.175432
 30
0.0
 40
1.0
100
AcDbArc
 50
90.0
 51
171.876368
  0
LINE
  5
375
330
6B
100
AcDbEntity
  8
0
100
AcDbLine
 10
371.971468
 20
137.175432
 30
0.0
 11
371.971468
 21
138.385233
 31
0.0
  0
LINE
  5
376
330
6B
100
AcDbEntity
  8
0
100
AcDbLine
 10
366.971468
 20
137.175432
 30
0.0
 11
366.971468
 21
138.385233
 31
0.0
  0
LINE
  5
377
330
6B
100
AcDbEntity
  8
0
100
AcDbLine
 10
371.971468
 20
137.175432
 30
0.0
 11
366.971468
 21
137.175432
 31
0.0
  0
LINE
  5
378
330
6B
100
AcDbEntity
  8
0
100
AcDbLine
 10
570.32352
 20
131.675432
 30
0.0
 11
662.32352
 21
131.675432
 31
0.0
  0
CIRCLE
  5
379
330
6B
100
AcDbEntity
  8
0
100
AcDbCircle
 10
658.82352
 20
141.175432
 30
0.0
 40
2.5
  0
CIRCLE
  5
37A
330
6B
100
AcDbEntity
  8
0
100
AcDbCircle
 10
573.82352
 20
141.175432
 30
0.0
 40
2.5
  0
CIRCLE
  5
37B
330
6B
100
AcDbEntity
  8
0
100
AcDbCircle
 10
658.82352
 20
178.675432
 30
0.0
 40
2.5
  0
CIRCLE
  5
37C
330
6B
100
AcDbEntity
  8
0
100
AcDbCircle
 10
573.82352
 20
178.675432
 30
0.0
 40
2.5
  0
LINE
  5
37D
330
6B
100
AcDbEntity
  8
0
100
AcDbLine
 10
576.72352
 20
130.675432
 30
0.0
 11
576.72352
 21
131.675432
 31
0.0
  0
LINE
  5
37E
330
6B
100
AcDbEntity
  8
0
100
AcDbLine
 10
580.92352
 20
130.675432
 30
0.0
 11
580.92352
 21
131.675432
 31
0.0
  0
LINE
  5
37F
330
6B
100
AcDbEntity
  8
0
100
AcDbLine
 10
651.72352
 20
131.675432
 30
0.0
 11
651.72352
 21
130.675432
 31
0.0
  0
LINE
  5
380
330
6B
100
AcDbEntity
  8
0
100
AcDbLine
 10
655.92352
 20
131.675432
 30
0.0
 11
655.92352
 21
130.675432
 31
0.0
  0
LINE
  5
381
330
6B
100
AcDbEntity
  8
0
100
AcDbLine
 10
656.32352
 20
159.398668
 30
0.0
 11
620.32352
 21
159.398668
 31
0.0
  0
LINE
  5
382
330
6B
100
AcDbEntity
  8
0
100
AcDbLine
 10
656.32352
 20
176.675432
 30
0.0
 11
620.32352
 21
176.675432
 31
0.0
  0
LINE
  5
383
330
6B
100
AcDbEntity
  8
0
100
AcDbLine
 10
620.32352
 20
176.675432
 30
0.0
 11
620.32352
 21
159.398668
 31
0.0
  0
LINE
  5
384
330
6B
100
AcDbEntity
  8
0
100
AcDbLine
 10
656.32352
 20
176.675432
 30
0.0
 11
656.32352
 21
159.398668
 31
0.0
  0
LINE
  5
385
330
6B
100
AcDbEntity
  8
0
100
AcDbLine
 10
638.32352
 20
159.398668
 30
0.0
 11
638.32352
 21
176.675432
 31
0.0
  0
LINE
  5
386
330
6B
100
AcDbEntity
  8
0
100
AcDbLine
 10
656.32352
 20
163.675432
 30
0.0
 11
620.32352
 21
163.675432
 31
0.0
  0
LINE
  5
387
330
6B
100
AcDbEntity
  8
0
100
AcDbLine
 10
648.32352
 20
163.675432
 30
0.0
 11
648.32352
 21
176.675432
 31
0.0
  0
LINE
  5
388
330
6B
100
AcDbEntity
  8
0
100
AcDbLine
 10
646.32352
 20
163.675432
 30
0.0
 11
646.32352
 21
176.675432
 31
0.0
  0
LINE
  5
389
330
6B
100
AcDbEntity
  8
0
100
AcDbLine
 10
639.32352
 20
163.675432
 30
0.0
 11
639.32352
 21
176.675432
 31
0.0
  0
LINE
  5
38A
330
6B
100
AcDbEntity
  8
0
100
AcDbLine
 10
637.32352
 20
163.675432
 30
0.0
 11
637.32352
 21
176.675432
 31
0.0
  0
LINE
  5
38B
330
6B
100
AcDbEntity
  8
0
100
AcDbLine
 10
630.32352
 20
163.675432
 30
0.0
 11
630.32352
 21
176.675432
 31
0.0
  0
LINE
  5
38C
330
6B
100
AcDbEntity
  8
0
100
AcDbLine
 10
628.32352
 20
163.675432
 30
0.0
 11
628.32352
 21
176.675432
 31
0.0
  0
LINE
  5
38D
330
6B
100
AcDbEntity
  8
0
100
AcDbLine
 10
655.32352
 20
163.675432
 30
0.0
 11
655.32352
 21
176.675432
 31
0.0
  0
LINE
  5
38E
330
6B
100
AcDbEntity
  8
0
100
AcDbLine
 10
621.32352
 20
163.675432
 30
0.0
 11
621.32352
 21
176.675432
 31
0.0
  0
CIRCLE
  5
38F
330
6B
100
AcDbEntity
  8
0
100
AcDbCircle
 10
651.82352
 20
170.175432
 30
0.0
 40
2.5
  0
CIRCLE
  5
390
330
6B
100
AcDbEntity
  8
0
100
AcDbCircle
 10
642.82352
 20
170.175432
 30
0.0
 40
2.5
  0
CIRCLE
  5
391
330
6B
100
AcDbEntity
  8
0
100
AcDbCircle
 10
633.82352
 20
170.175432
 30
0.0
 40
2.5
  0
CIRCLE
  5
392
330
6B
100
AcDbEntity
  8
0
100
AcDbCircle
 10
624.82352
 20
170.175432
 30
0.0
 40
2.5
  0
LINE
  5
393
330
6B
100
AcDbEntity
  8
0
100
AcDbLine
 10
655.32352
 20
175.175432
 30
0.0
 11
648.32352
 21
175.175432
 31
0.0
  0
LINE
  5
394
330
6B
100
AcDbEntity
  8
0
100
AcDbLine
 10
655.32352
 20
165.175432
 30
0.0
 11
648.32352
 21
165.175432
 31
0.0
  0
LINE
  5
395
330
6B
100
AcDbEntity
  8
0
100
AcDbLine
 10
655.32352
 20
174.175432
 30
0.0
 11
648.32352
 21
174.175432
 31
0.0
  0
LINE
  5
396
330
6B
100
AcDbEntity
  8
0
100
AcDbLine
 10
655.32352
 20
166.175432
 30
0.0
 11
648.32352
 21
166.175432
 31
0.0
  0
LINE
  5
397
330
6B
100
AcDbEntity
  8
0
100
AcDbLine
 10
628.32352
 20
166.175432
 30
0.0
 11
621.32352
 21
166.175432
 31
0.0
  0
LINE
  5
398
330
6B
100
AcDbEntity
  8
0
100
AcDbLine
 10
628.32352
 20
174.175432
 30
0.0
 11
621.32352
 21
174.175432
 31
0.0
  0
LINE
  5
399
330
6B
100
AcDbEntity
  8
0
100
AcDbLine
 10
637.32352
 20
174.175432
 30
0.0
 11
630.32352
 21
174.175432
 31
0.0
  0
LINE
  5
39A
330
6B
100
AcDbEntity
  8
0
100
AcDbLine
 10
637.32352
 20
166.175432
 30
0.0
 11
630.32352
 21
166.175432
 31
0.0
  0
LINE
  5
39B
330
6B
100
AcDbEntity
  8
0
100
AcDbLine
 10
646.32352
 20
166.175432
 30
0.0
 11
639.32352
 21
166.175432
 31
0.0
  0
LINE
  5
39C
330
6B
100
AcDbEntity
  8
0
100
AcDbLine
 10
646.32352
 20
174.175432
 30
0.0
 11
639.32352
 21
174.175432
 31
0.0
  0
LINE
  5
39D
330
6B
100
AcDbEntity
  8
0
100
AcDbLine
 10
646.32352
 20
165.175432
 30
0.0
 11
639.32352
 21
165.175432
 31
0.0
  0
LINE
  5
39E
330
6B
100
AcDbEntity
  8
0
100
AcDbLine
 10
646.32352
 20
175.175432
 30
0.0
 11
639.32352
 21
175.175432
 31
0.0
  0
LINE
  5
39F
330
6B
100
AcDbEntity
  8
0
100
AcDbLine
 10
628.32352
 20
175.175432
 30
0.0
 11
621.32352
 21
175.175432
 31
0.0
  0
LINE
  5
3A0
330
6B
100
AcDbEntity
  8
0
100
AcDbLine
 10
628.32352
 20
165.175432
 30
0.0
 11
621.32352
 21
165.175432
 31
0.0
  0
LINE
  5
3A1
330
6B
100
AcDbEntity
  8
0
100
AcDbLine
 10
637.32352
 20
165.175432
 30
0.0
 11
630.32352
 21
165.175432
 31
0.0
  0
LINE
  5
3A2
330
6B
100
AcDbEntity
  8
0
100
AcDbLine
 10
637.32352
 20
175.175432
 30
0.0
 11
630.32352
 21
175.175432
 31
0.0
  0
LINE
  5
3A3
330
6B
100
AcDbEntity
  8
0
100
AcDbLine
 10
538.923312
 20
170.175432
 30
0.0
 11
552.769663
 21
170.175432
 31
0.0
  0
LINE
  5
3A4
330
6B
100
AcDbEntity
  8
0
100
AcDbLine
 10
538.923312
 20
172.175432
 30
0.0
 11
552.769663
 21
172.175432
 31
0.0
  0
LINE
  5
3A5
330
6B
100
AcDbEntity
  8
0
100
AcDbLine
 10
538.923312
 20
168.175432
 30
0.0
 11
552.769663
 21
168.175432
 31
0.0
  0
LINE
  5
3A6
330
6B
100
AcDbEntity
  8
0
100
AcDbLine
 10
538.923312
 20
171.175432
 30
0.0
 11
552.769663
 21
171.175432
 31
0.0
  0
LINE
  5
3A7
330
6B
100
AcDbEntity
  8
0
100
AcDbLine
 10
538.923312
 20
169.175432
 30
0.0
 11
552.769663
 21
169.175432
 31
0.0
  0
LINE
  5
3A8
330
6B
100
AcDbEntity
  8
0
100
AcDbLine
 10
620.32352
 20
159.398668
 30
0.0
 11
656.32352
 21
159.398668
 31
0.0
  0
CIRCLE
  5
3A9
330
6B
100
AcDbEntity
  8
0
100
AcDbCircle
 10
615.5103949999999
 20
171.40085
 30
0.0
 40
1.0
  0
CIRCLE
  5
3AA
330
6B
100
AcDbEntity
  8
0
100
AcDbCircle
 10
615.6324900000002
 20
168.812601
 30
0.0
 40
1.0
  0
CIRCLE
  5
3AB
330
6B
100
AcDbEntity
  8
0
100
AcDbCircle
 10
613.0279139999998
 20
171.40085
 30
0.0
 40
1.0
  0
CIRCLE
  5
3AC
330
6B
100
AcDbEntity
  8
0
100
AcDbCircle
 10
612.9702509999998
 20
168.789157
 30
0.0
 40
1.0
  0
ARC
  5
3AD
330
6B
100
AcDbEntity
  8
0
100
AcDbCircle
 10
614.32352
 20
170.175432
 30
0.0
 40
5.501322
100
AcDbArc
 50
223.356347
 51
316.643653
  0
ARC
  5
3AE
330
6B
100
AcDbEntity
  8
0
100
AcDbCircle
 10
614.32352
 20
170.175432
 30
0.0
 40
5.501322
100
AcDbArc
 50
43.35634699999999
 51
136.643653
  0
LINE
  5
3AF
330
6B
100
AcDbEntity
  8
0
100
AcDbLine
 10
611.32352
 20
173.175432
 30
0.0
 11
611.32352
 21
167.175432
 31
0.0
  0
LINE
  5
3B0
330
6B
100
AcDbEntity
  8
0
100
AcDbLine
 10
610.32352
 20
166.398589
 30
0.0
 11
610.32352
 21
173.952275
 31
0.0
  0
LINE
  5
3B1
330
6B
100
AcDbEntity
  8
0
100
AcDbLine
 10
617.32352
 20
173.175432
 30
0.0
 11
617.32352
 21
167.175432
 31
0.0
  0
LINE
  5
3B2
330
6B
100
AcDbEntity
  8
0
100
AcDbLine
 10
618.32352
 20
173.952275
 30
0.0
 11
618.32352
 21
166.398589
 31
0.0
  0
LINE
  5
3B3
330
6B
100
AcDbEntity
  8
0
100
AcDbLine
 10
611.32352
 20
167.175432
 30
0.0
 11
617.32352
 21
167.175432
 31
0.0
  0
LINE
  5
3B4
330
6B
100
AcDbEntity
  8
0
100
AcDbLine
 10
617.32352
 20
173.175432
 30
0.0
 11
611.32352
 21
173.175432
 31
0.0
  0
LINE
  5
3B5
330
6B
100
AcDbEntity
  8
0
100
AcDbLine
 10
541.923312
 20
176.675432
 30
0.0
 11
538.923312
 21
176.675432
 31
0.0
  0
LINE
  5
3B6
330
6B
100
AcDbEntity
  8
0
100
AcDbLine
 10
541.923312
 20
163.675432
 30
0.0
 11
538.923312
 21
163.675432
 31
0.0
  0
LINE
  5
3B7
330
6B
100
AcDbEntity
  8
0
100
AcDbLine
 10
541.923312
 20
176.675432
 30
0.0
 11
544.923312
 21
173.675432
 31
0.0
  0
LINE
  5
3B8
330
6B
100
AcDbEntity
  8
0
100
AcDbLine
 10
544.923312
 20
166.675432
 30
0.0
 11
541.923312
 21
163.675432
 31
0.0
  0
LINE
  5
3B9
330
6B
100
AcDbEntity
  8
0
100
AcDbLine
 10
542.9359889999998
 20
119.393396
 30
0.0
 11
552.769663
 21
119.393396
 31
0.0
  0
LINE
  5
3BA
330
6B
100
AcDbEntity
  8
0
100
AcDbLine
 10
546.740632
 20
118.393396
 30
0.0
 11
552.769663
 21
118.393396
 31
0.0
  0
LINE
  5
3BB
330
6B
100
AcDbEntity
  8
0
100
AcDbLine
 10
485.337477
 20
120.393396
 30
0.0
 11
505.867623
 21
120.393396
 31
0.0
  0
LINE
  5
3BC
330
6B
100
AcDbEntity
  8
0
100
AcDbLine
 10
549.7047209999998
 20
117.393396
 30
0.0
 11
552.769663
 21
117.393396
 31
0.0
  0
LINE
  5
3BD
330
6B
100
AcDbEntity
  8
0
100
AcDbLine
 10
485.337477
 20
121.393396
 30
0.0
 11
505.867623
 21
121.393396
 31
0.0
  0
LINE
  5
3BE
330
6B
100
AcDbEntity
  8
0
100
AcDbLine
 10
559.769663
 20
126.393396
 30
0.0
 11
559.769663
 21
136.896814
 31
0.0
  0
LINE
  5
3BF
330
6B
100
AcDbEntity
  8
0
100
AcDbLine
 10
560.769663
 20
126.393396
 30
0.0
 11
560.769663
 21
137.457609
 31
0.0
  0
LINE
  5
3C0
330
6B
100
AcDbEntity
  8
0
100
AcDbLine
 10
558.769663
 20
126.393396
 30
0.0
 11
558.769663
 21
136.299412
 31
0.0
  0
LINE
  5
3C1
330
6B
100
AcDbEntity
  8
0
100
AcDbLine
 10
561.769663
 20
126.393396
 30
0.0
 11
561.769663
 21
137.382006
 31
0.0
  0
LINE
  5
3C2
330
6B
100
AcDbEntity
  8
0
100
AcDbLine
 10
557.769663
 20
126.393396
 30
0.0
 11
557.769663
 21
136.256706
 31
0.0
  0
ARC
  5
3C3
330
6B
100
AcDbEntity
  8
0
100
AcDbCircle
 10
552.769663
 20
163.175432
 30
0.0
 40
5.0
100
AcDbArc
 50
0.0
 51
90.0
  0
ARC
  5
3C4
330
6B
100
AcDbEntity
  8
0
100
AcDbCircle
 10
552.769663
 20
126.393396
 30
0.0
 40
5.0
100
AcDbArc
 50
270.0
 51
0.0
  0
ARC
  5
3C5
330
6B
100
AcDbEntity
  8
0
100
AcDbCircle
 10
552.769663
 20
163.175432
 30
0.0
 40
6.0
100
AcDbArc
 50
0.0
 51
90.0
  0
ARC
  5
3C6
330
6B
100
AcDbEntity
  8
0
100
AcDbCircle
 10
552.769663
 20
126.393396
 30
0.0
 40
6.0
100
AcDbArc
 50
270.0
 51
0.0
  0
ARC
  5
3C7
330
6B
100
AcDbEntity
  8
0
100
AcDbCircle
 10
552.769663
 20
163.175432
 30
0.0
 40
7.0
100
AcDbArc
 50
0.0
 51
90.0
  0
ARC
  5
3C8
330
6B
100
AcDbEntity
  8
0
100
AcDbCircle
 10
552.769663
 20
126.393396
 30
0.0
 40
7.0
100
AcDbArc
 50
270.0
 51
0.0
  0
ARC
  5
3C9
330
6B
100
AcDbEntity
  8
0
100
AcDbCircle
 10
552.769663
 20
163.175432
 30
0.0
 40
8.0
100
AcDbArc
 50
0.0
 51
90.0
  0
ARC
  5
3CA
330
6B
100
AcDbEntity
  8
0
100
AcDbCircle
 10
552.769663
 20
126.393396
 30
0.0
 40
8.0
100
AcDbArc
 50
270.0
 51
0.0
  0
ARC
  5
3CB
330
6B
100
AcDbEntity
  8
0
100
AcDbCircle
 10
552.769663
 20
163.175432
 30
0.0
 40
9.0
100
AcDbArc
 50
0.0
 51
90.0
  0
ARC
  5
3CC
330
6B
100
AcDbEntity
  8
0
100
AcDbCircle
 10
552.769663
 20
126.393396
 30
0.0
 40
9.0
100
AcDbArc
 50
270.0
 51
0.0
  0
LINE
  5
3CD
330
6B
100
AcDbEntity
  8
0
100
AcDbLine
 10
485.337477
 20
115.393396
 30
0.0
 11
522.215318
 21
115.393396
 31
0.0
  0
LINE
  5
3CE
330
6B
100
AcDbEntity
  8
0
100
AcDbLine
 10
485.337477
 20
114.393396
 30
0.0
 11
522.215318
 21
114.393396
 31
0.0
  0
LINE
  5
3CF
330
6B
100
AcDbEntity
  8
0
100
AcDbLine
 10
485.337477
 20
109.393396
 30
0.0
 11
519.5442299999998
 21
109.393396
 31
0.0
  0
LINE
  5
3D0
330
6B
100
AcDbEntity
  8
0
100
AcDbLine
 10
485.337477
 20
108.393396
 30
0.0
 11
519.5442299999998
 21
108.393396
 31
0.0
  0
LINE
  5
3D1
330
6B
100
AcDbEntity
  8
0
100
AcDbLine
 10
485.337477
 20
103.393396
 30
0.0
 11
517.673668
 21
103.393396
 31
0.0
  0
LINE
  5
3D2
330
6B
100
AcDbEntity
  8
0
100
AcDbLine
 10
485.337477
 20
102.393396
 30
0.0
 11
517.673668
 21
102.393396
 31
0.0
  0
LINE
  5
3D3
330
6B
100
AcDbEntity
  8
0
100
AcDbLine
 10
535.51367
 20
119.037967
 30
0.0
 11
529.284194
 21
116.68428
 31
0.0
  0
LINE
  5
3D4
330
6B
100
AcDbEntity
  8
0
100
AcDbLine
 10
534.668295
 20
115.576489
 30
0.0
 11
531.041693
 21
113.028545
 31
0.0
  0
LINE
  5
3D5
330
6B
100
AcDbEntity
  8
0
100
AcDbLine
 10
534.970575
 20
112.356849
 30
0.0
 11
531.7061879999998
 21
109.142488
 31
0.0
  0
LINE
  5
3D6
330
6B
100
AcDbEntity
  8
0
100
AcDbLine
 10
535.867114
 20
118.102511
 30
0.0
 11
529.637637
 21
115.748825
 31
0.0
  0
LINE
  5
3D7
330
6B
100
AcDbEntity
  8
0
100
AcDbLine
 10
535.2431690000002
 20
114.758247
 30
0.0
 11
531.616566
 21
112.210302
 31
0.0
  0
LINE
  5
3D8
330
6B
100
AcDbEntity
  8
0
100
AcDbLine
 10
535.6722009999998
 20
111.644304
 30
0.0
 11
532.4078139999998
 21
108.429942
 31
0.0
  0
LINE
  5
3D9
330
6B
100
AcDbEntity
  8
0
100
AcDbLine
 10
525.867623
 20
121.393396
 30
0.0
 11
552.769663
 21
121.393396
 31
0.0
  0
LINE
  5
3DA
330
6B
100
AcDbEntity
  8
0
100
AcDbLine
 10
525.867623
 20
120.393396
 30
0.0
 11
552.769663
 21
120.393396
 31
0.0
  0
ARC
  5
3DB
330
6B
100
AcDbEntity
  8
0
100
AcDbCircle
 10
517.673668
 20
123.393396
 30
0.0
 40
20.0
100
AcDbArc
 50
270.0
 51
314.557604
  0
ARC
  5
3DC
330
6B
100
AcDbEntity
  8
0
100
AcDbCircle
 10
519.5442299999998
 20
129.393396
 30
0.0
 40
20.0
100
AcDbArc
 50
270.0
 51
305.090749
  0
ARC
  5
3DD
330
6B
100
AcDbEntity
  8
0
100
AcDbCircle
 10
522.215318
 20
135.393396
 30
0.0
 40
20.0
100
AcDbArc
 50
270.0
 51
290.698097
  0
ARC
  5
3DE
330
6B
100
AcDbEntity
  8
0
100
AcDbCircle
 10
517.673668
 20
123.393396
 30
0.0
 40
21.0
100
AcDbArc
 50
270.0
 51
314.557604
  0
ARC
  5
3DF
330
6B
100
AcDbEntity
  8
0
100
AcDbCircle
 10
519.5442299999998
 20
129.393396
 30
0.0
 40
21.0
100
AcDbArc
 50
270.0
 51
305.090749
  0
ARC
  5
3E0
330
6B
100
AcDbEntity
  8
0
100
AcDbCircle
 10
522.215318
 20
135.393396
 30
0.0
 40
21.0
100
AcDbArc
 50
270.0
 51
290.698097
  0
ARC
  5
3E1
330
6B
100
AcDbEntity
  8
0
100
AcDbCircle
 10
549.7047209999998
 20
97.393396
 30
0.0
 40
21.0
100
AcDbArc
 50
90.0
 51
134.557604
  0
ARC
  5
3E2
330
6B
100
AcDbEntity
  8
0
100
AcDbCircle
 10
546.740632
 20
98.393396
 30
0.0
 40
21.0
100
AcDbArc
 50
90.0
 51
125.090749
  0
ARC
  5
3E3
330
6B
100
AcDbEntity
  8
0
100
AcDbCircle
 10
542.9359889999998
 20
99.393396
 30
0.0
 40
21.0
100
AcDbArc
 50
90.0
 51
110.698097
  0
ARC
  5
3E4
330
6B
100
AcDbEntity
  8
0
100
AcDbCircle
 10
542.9359889999998
 20
99.393396
 30
0.0
 40
20.0
100
AcDbArc
 50
90.0
 51
110.698097
  0
ARC
  5
3E5
330
6B
100
AcDbEntity
  8
0
100
AcDbCircle
 10
546.740632
 20
98.393396
 30
0.0
 40
20.0
100
AcDbArc
 50
90.0
 51
125.090749
  0
ARC
  5
3E6
330
6B
100
AcDbEntity
  8
0
100
AcDbCircle
 10
549.7047209999998
 20
97.393396
 30
0.0
 40
20.0
100
AcDbArc
 50
90.0
 51
134.557604
  0
TEXT
  5
3E7
330
6B
100
AcDbEntity
  8
0
100
AcDbText
 10
508.4394559999998
 20
125.302502
 30
0.0
 40
3.2
  1
ヒューズ
  7
高3.2
100
AcDbText
  0
TEXT
  5
3E8
330
6B
100
AcDbEntity
  8
0
100
AcDbText
 10
621.073169
 20
160.724846
 30
0.0
 40
1.6
  1
イルミＭＡＸ５０ｍＡ
 41
0.869444
100
AcDbText
  0
TEXT
  5
3E9
330
6B
100
AcDbEntity
  8
0
100
AcDbText
 10
640.2821949999998
 20
160.598364
 30
0.0
 40
2.0
  1
バックアップ
100
AcDbText
  0
LINE
  5
3FC
330
6B
100
AcDbEntity
  8
0
100
AcDbLine
 10
561.769663
 20
138.961454
 30
0.0
 11
561.769663
 21
163.175432
 31
0.0
  0
LINE
  5
3FD
330
6B
100
AcDbEntity
  8
0
100
AcDbLine
 10
560.769663
 20
139.006721
 30
0.0
 11
560.769663
 21
163.175432
 31
0.0
  0
LINE
  5
3FE
330
6B
100
AcDbEntity
  8
0
100
AcDbLine
 10
559.769663
 20
138.436299
 30
0.0
 11
559.769663
 21
163.175432
 31
0.0
  0
LINE
  5
3FF
330
6B
100
AcDbEntity
  8
0
100
AcDbLine
 10
558.769663
 20
137.846643
 30
0.0
 11
558.769663
 21
163.175432
 31
0.0
  0
LINE
  5
400
330
6B
100
AcDbEntity
  8
0
100
AcDbLine
 10
557.769663
 20
137.832864
 30
0.0
 11
557.769663
 21
163.175432
 31
0.0
  0
LINE
  5
401
330
6B
100
AcDbEntity
  8
0
100
AcDbLine
 10
485.337477
 20
121.393396
 30
0.0
 11
485.337477
 21
120.393396
 31
0.0
  0
LINE
  5
402
330
6B
100
AcDbEntity
  8
0
100
AcDbLine
 10
485.337477
 20
115.393396
 30
0.0
 11
485.337477
 21
114.393396
 31
0.0
  0
LINE
  5
403
330
6B
100
AcDbEntity
  8
0
100
AcDbLine
 10
485.337477
 20
109.393396
 30
0.0
 11
485.337477
 21
108.393396
 31
0.0
  0
LINE
  5
404
330
6B
100
AcDbEntity
  8
0
100
AcDbLine
 10
485.337477
 20
103.393396
 30
0.0
 11
485.337477
 21
102.393396
 31
0.0
  0
LINE
  5
405
330
6B
100
AcDbEntity
  8
0
100
AcDbLine
 10
485.337477
 20
121.143396
 30
0.0
 11
481.6803799999998
 21
121.143396
 31
0.0
  0
LINE
  5
406
330
6B
100
AcDbEntity
  8
0
100
AcDbLine
 10
485.337477
 20
120.643396
 30
0.0
 11
481.6803799999998
 21
120.643396
 31
0.0
  0
LINE
  5
407
330
6B
100
AcDbEntity
  8
0
100
AcDbLine
 10
481.6803799999998
 20
121.143396
 30
0.0
 11
481.6803799999998
 21
120.643396
 31
0.0
  0
LINE
  5
408
330
6B
100
AcDbEntity
  8
0
100
AcDbLine
 10
485.337477
 20
114.643396
 30
0.0
 11
481.6803799999998
 21
114.643396
 31
0.0
  0
LINE
  5
409
330
6B
100
AcDbEntity
  8
0
100
AcDbLine
 10
485.337477
 20
115.143396
 30
0.0
 11
481.6803799999998
 21
115.143396
 31
0.0
  0
LINE
  5
40A
330
6B
100
AcDbEntity
  8
0
100
AcDbLine
 10
481.6803799999998
 20
115.143396
 30
0.0
 11
481.6803799999998
 21
114.643396
 31
0.0
  0
LINE
  5
40B
330
6B
100
AcDbEntity
  8
0
100
AcDbLine
 10
485.337477
 20
108.643396
 30
0.0
 11
481.6803799999998
 21
108.643396
 31
0.0
  0
LINE
  5
40C
330
6B
100
AcDbEntity
  8
0
100
AcDbLine
 10
485.337477
 20
109.143396
 30
0.0
 11
481.6803799999998
 21
109.143396
 31
0.0
  0
LINE
  5
40D
330
6B
100
AcDbEntity
  8
0
100
AcDbLine
 10
481.6803799999998
 20
109.143396
 30
0.0
 11
481.6803799999998
 21
108.643396
 31
0.0
  0
LINE
  5
40E
330
6B
100
AcDbEntity
  8
0
100
AcDbLine
 10
485.337477
 20
102.643396
 30
0.0
 11
481.6803799999998
 21
102.643396
 31
0.0
  0
LINE
  5
40F
330
6B
100
AcDbEntity
  8
0
100
AcDbLine
 10
485.337477
 20
103.143396
 30
0.0
 11
481.6803799999998
 21
103.143396
 31
0.0
  0
LINE
  5
410
330
6B
100
AcDbEntity
  8
0
100
AcDbLine
 10
481.6803799999998
 20
103.143396
 30
0.0
 11
481.6803799999998
 21
102.643396
 31
0.0
  0
TEXT
  5
411
330
6B
100
AcDbEntity
  8
0
 62
     3
100
AcDbText
 10
481.0242042539997
 20
122.3904348019974
 30
0.0
 40
3.2
  1
赤＋24V
  7
高3.2
100
AcDbText
  0
TEXT
  5
412
330
6B
100
AcDbEntity
  8
0
 62
     3
100
AcDbText
 10
481.0242042539997
 20
116.1964398019974
 30
0.0
 40
3.2
  1
黒－24V
  7
高3.2
100
AcDbText
  0
TEXT
  5
413
330
6B
100
AcDbEntity
  8
0
 62
     3
100
AcDbText
 10
481.0242042539997
 20
110.1794168019974
 30
0.0
 40
3.2
  1
青ACC24V
  7
高3.2
100
AcDbText
  0
LINE
  5
414
330
6B
100
AcDbEntity
  8
0
100
AcDbLine
 10
544.923312
 20
173.675432
 30
0.0
 11
544.923312
 21
172.175432
 31
0.0
  0
LINE
  5
415
330
6B
100
AcDbEntity
  8
0
100
AcDbLine
 10
544.923312
 20
168.175432
 30
0.0
 11
544.923312
 21
166.675432
 31
0.0
  0
LINE
  5
41B
330
6B
100
AcDbEntity
  8
0
100
AcDbLine
 10
647.198471
 20
176.348342
 30
0.0
 11
655.1339959999998
 21
198.363625
 31
0.0
  0
LINE
  5
41C
330
6B
100
AcDbEntity
  8
0
100
AcDbLine
 10
655.1339959999998
 20
198.363625
 30
0.0
 11
688.133996
 21
198.363625
 31
0.0
  0
TEXT
  5
41D
330
6B
100
AcDbEntity
  8
0
 62
     4
100
AcDbText
 10
657.883996
 20
199.363625
 30
0.0
 40
3.2
  1
バックアップ出力端子
 41
0.716146
100
AcDbText
  0
LINE
  5
423
330
6B
100
AcDbEntity
  8
0
100
AcDbLine
 10
628.4738509999998
 20
176.434385
 30
0.0
 11
614.283272
 21
199.592069
 31
0.0
  0
LINE
  5
424
330
6B
100
AcDbEntity
  8
0
100
AcDbLine
 10
614.283272
 20
199.592069
 30
0.0
 11
589.5332719999998
 21
199.592069
 31
0.0
  0
TEXT
  5
425
330
6B
100
AcDbEntity
  8
0
 62
     4
100
AcDbText
 10
592.283272
 20
200.592069
 30
0.0
 40
3.2
  1
イルミ出力端子
 41
0.716146
100
AcDbText
  0
TEXT
  5
426
102
{ACAD_XDICTIONARY
360
65E
102
}
330
6B
100
AcDbEntity
  8
0
 62
     3
100
AcDbText
 10
481.0242042539997
 20
103.9854218019974
 30
0.0
 40
3.2
  1
ダイダイ　イルミ24V
  7
高3.2
100
AcDbText
1001
AcadAnnotative
1000
AnnotativeData
1002
{
1070
     1
1070
     0
1002
}
  0
TEXT
  5
502
330
6B
100
AcDbEntity
  8
0
 62
     3
100
AcDbText
 10
677.485639
 20
239.071523
 30
0.0
 40
3.2
  1
担　当
  7
高3.2
100
AcDbText
  0
TEXT
  5
503
330
6B
100
AcDbEntity
  8
0
 62
     3
100
AcDbText
 10
633.4856389999998
 20
239.071523
 30
0.0
 40
3.2
  1
変更・追記内容
  7
高3.2
100
AcDbText
  0
TEXT
  5
504
330
6B
100
AcDbEntity
  8
0
 62
     3
100
AcDbText
 10
608.5991540003392
 20
234.4009844900917
 30
0.0
 40
2.0
  1
1
  7
高2
100
AcDbText
  0
TEXT
  5
505
330
6B
100
AcDbEntity
  8
0
 62
     3
100
AcDbText
 10
608.2906425235818
 20
229.2311677778188
 30
0.0
 40
2.0
  1
2
  7
高2
100
AcDbText
  0
TEXT
  5
506
330
6B
100
AcDbEntity
  8
0
 62
     3
100
AcDbText
 10
615.4856389999999
 20
239.071523
 30
0.0
 40
3.2
  1
日　付
  7
高3.2
100
AcDbText
  0
TEXT
  5
507
330
6B
100
AcDbEntity
  8
0
 62
     3
100
AcDbText
 10
615.4856389999999
 20
244.071523
 30
0.0
 40
3.2
  1
図　　　　面　　　　略　　　　歴
  7
高3.2
100
AcDbText
  0
TEXT
  5
508
330
6B
100
AcDbEntity
  8
0
 62
     3
100
AcDbText
 10
605.485639
 20
239.071523
 30
0.0
 40
3.2
  1
記号
  7
高3.2
100
AcDbText
  0
LINE
  5
509
330
6B
100
AcDbEntity
  8
0
100
AcDbLine
 10
608.985639
 20
232.3624190000001
 30
0.0
 11
607.085639
 21
229.071523
 31
0.0
  0
LINE
  5
50A
330
6B
100
AcDbEntity
  8
0
100
AcDbLine
 10
608.985639
 20
232.3624190000001
 30
0.0
 11
610.8856389999998
 21
229.071523
 31
0.0
  0
LINE
  5
50B
330
6B
100
AcDbEntity
  8
0
100
AcDbLine
 10
607.085639
 20
229.071523
 30
0.0
 11
610.8856389999998
 21
229.071523
 31
0.0
  0
LINE
  5
50C
330
6B
100
AcDbEntity
  8
0
100
AcDbLine
 10
608.985639
 20
237.3624200000001
 30
0.0
 11
607.085639
 21
234.071523
 31
0.0
  0
LINE
  5
50D
330
6B
100
AcDbEntity
  8
0
100
AcDbLine
 10
608.985639
 20
237.3624200000001
 30
0.0
 11
610.8856389999998
 21
234.071523
 31
0.0
  0
LINE
  5
50E
330
6B
100
AcDbEntity
  8
0
100
AcDbLine
 10
607.085639
 20
234.071523
 30
0.0
 11
610.8856389999998
 21
234.071523
 31
0.0
  0
LINE
  5
50F
330
6B
100
AcDbEntity
  8
0
 62
     3
100
AcDbLine
 10
603.9856389999998
 20
243.571523
 30
0.0
 11
689.985639
 21
243.571523
 31
0.0
  0
LINE
  5
510
330
6B
100
AcDbEntity
  8
0
 62
     3
100
AcDbLine
 10
603.9856389999998
 20
238.571523
 30
0.0
 11
689.985639
 21
238.571523
 31
0.0
  0
LINE
  5
511
330
6B
100
AcDbEntity
  8
0
 62
     7
100
AcDbLine
 10
603.9856389999998
 20
233.571523
 30
0.0
 11
689.985639
 21
233.571523
 31
0.0
  0
LINE
  5
512
330
6B
100
AcDbEntity
  8
0
 62
     3
100
AcDbLine
 10
603.9856389999998
 20
228.571523
 30
0.0
 11
689.985639
 21
228.571523
 31
0.0
  0
LINE
  5
513
330
6B
100
AcDbEntity
  8
0
 62
     7
100
AcDbLine
 10
675.9856389999997
 20
228.571523
 30
0.0
 11
675.985639
 21
243.571523
 31
0.0
  0
LINE
  5
514
330
6B
100
AcDbEntity
  8
0
 62
     7
100
AcDbLine
 10
631.9856389999999
 20
228.571523
 30
0.0
 11
631.9856389999999
 21
243.571523
 31
0.0
  0
LINE
  5
515
330
6B
100
AcDbEntity
  8
0
 62
     7
100
AcDbLine
 10
613.985639
 20
228.571523
 30
0.0
 11
613.985639
 21
243.571523
 31
0.0
  0
LINE
  5
516
330
6B
100
AcDbEntity
  8
0
 62
     3
100
AcDbLine
 10
603.9856389999998
 20
228.571523
 30
0.0
 11
603.9856389999998
 21
248.571523
 31
0.0
  0
LINE
  5
83F
330
6B
100
AcDbEntity
  8
0
  6
Continuous
100
AcDbLine
 10
538.923312
 20
181.925432
 30
0.0
 11
538.923312
 21
202.8304883861693
 31
0.0
  0
LINE
  5
840
330
6B
100
AcDbEntity
  8
0
  6
Continuous
100
AcDbLine
 10
462.436815
 20
181.925432
 30
0.0
 11
462.436815
 21
202.8304883861693
 31
0.0
  0
LINE
  5
841
330
6B
100
AcDbEntity
  8
0
  6
Continuous
100
AcDbLine
 10
536.423312
 20
201.5804883861693
 30
0.0
 11
464.9368149999999
 21
201.5804883861693
 31
0.0
  0
LINE
  5
847
330
6B
100
AcDbEntity
  8
0
100
AcDbLine
 10
626.971946
 20
177.859681
 30
0.0
 11
628.4738509999998
 21
176.434385
 31
0.0
  0
LINE
  5
848
330
6B
100
AcDbEntity
  8
0
100
AcDbLine
 10
628.4738509999998
 20
176.434385
 30
0.0
 11
627.8858109999998
 21
178.41968
 31
0.0
  0
LINE
  5
849
330
6B
100
AcDbEntity
  8
0
100
AcDbLine
 10
647.372521
 20
178.411566
 30
0.0
 11
647.198471
 21
176.348342
 31
0.0
  0
LINE
  5
84A
330
6B
100
AcDbEntity
  8
0
100
AcDbLine
 10
647.198471
 20
176.348342
 30
0.0
 11
648.3808149999998
 21
178.048121
 31
0.0
  0
LINE
  5
84B
330
6B
100
AcDbEntity
  8
0
100
AcDbLine
 10
556.221438
 20
137.888986
 30
0.0
 11
557.166606
 21
136.697986
 31
0.0
  0
LINE
  5
84C
330
6B
100
AcDbEntity
  8
0
100
AcDbLine
 10
557.166606
 20
136.697986
 30
0.0
 11
558.205693
 21
136.160691
 31
0.0
  0
LINE
  5
84D
330
6B
100
AcDbEntity
  8
0
100
AcDbLine
 10
558.205693
 20
136.160691
 30
0.0
 11
559.730633
 21
136.870809
 31
0.0
  0
LINE
  5
84E
330
6B
100
AcDbEntity
  8
0
100
AcDbLine
 10
559.730633
 20
136.870809
 30
0.0
 11
561.258107
 21
137.543769
 31
0.0
  0
LINE
  5
84F
330
6B
100
AcDbEntity
  8
0
100
AcDbLine
 10
561.258107
 20
137.543769
 30
0.0
 11
562.1785119999998
 21
137.069469
 31
0.0
  0
LINE
  5
850
330
6B
100
AcDbEntity
  8
0
100
AcDbLine
 10
562.1785119999998
 20
137.069469
 30
0.0
 11
563.028507
 21
136.079334
 31
0.0
  0
LINE
  5
851
330
6B
100
AcDbEntity
  8
0
100
AcDbLine
 10
556.2539789999998
 20
139.450149
 30
0.0
 11
557.1991469999998
 21
138.25915
 31
0.0
  0
LINE
  5
852
330
6B
100
AcDbEntity
  8
0
100
AcDbLine
 10
557.1991469999998
 20
138.25915
 30
0.0
 11
558.238233
 21
137.721855
 31
0.0
  0
LINE
  5
853
330
6B
100
AcDbEntity
  8
0
100
AcDbLine
 10
558.238233
 20
137.721855
 30
0.0
 11
559.763173
 21
138.431973
 31
0.0
  0
LINE
  5
854
330
6B
100
AcDbEntity
  8
0
100
AcDbLine
 10
559.763173
 20
138.431973
 30
0.0
 11
561.2906469999997
 21
139.104933
 31
0.0
  0
LINE
  5
855
330
6B
100
AcDbEntity
  8
0
100
AcDbLine
 10
561.2906469999997
 20
139.104933
 30
0.0
 11
562.2110519999998
 21
138.630633
 31
0.0
  0
LINE
  5
856
330
6B
100
AcDbEntity
  8
0
100
AcDbLine
 10
562.2110519999998
 20
138.630633
 30
0.0
 11
563.061047
 21
137.640498
 31
0.0
  0
LINE
  5
857
330
6B
100
AcDbEntity
  8
0
100
AcDbLine
 10
496.189316
 20
185.161424
 30
0.0
 11
493.749004
 21
182.437241
 31
0.0
  0
LINE
  5
858
330
6B
100
AcDbEntity
  8
0
100
AcDbLine
 10
493.749004
 20
182.437241
 30
0.0
 11
491.4824199999998
 21
179.694643
 31
0.0
  0
LINE
  5
859
330
6B
100
AcDbEntity
  8
0
100
AcDbLine
 10
491.4824199999998
 20
179.694643
 30
0.0
 11
489.5632919999997
 21
176.915214
 31
0.0
  0
LINE
  5
85A
330
6B
100
AcDbEntity
  8
0
100
AcDbLine
 10
489.5632919999997
 20
176.915214
 30
0.0
 11
488.1653459999998
 21
174.080537
 31
0.0
  0
LINE
  5
85B
330
6B
100
AcDbEntity
  8
0
100
AcDbLine
 10
488.1653459999998
 20
174.080537
 30
0.0
 11
487.4623099999998
 21
171.172197
 31
0.0
  0
LINE
  5
85C
330
6B
100
AcDbEntity
  8
0
100
AcDbLine
 10
487.4623099999998
 20
171.172197
 30
0.0
 11
488.26555
 21
165.388494
 31
0.0
  0
LINE
  5
85D
330
6B
100
AcDbEntity
  8
0
100
AcDbLine
 10
488.26555
 20
165.388494
 30
0.0
 11
490.9625919999998
 21
159.393348
 31
0.0
  0
LINE
  5
85E
330
6B
100
AcDbEntity
  8
0
100
AcDbLine
 10
490.9625919999998
 20
159.393348
 30
0.0
 11
494.2789079999998
 21
153.311171
 31
0.0
  0
LINE
  5
85F
330
6B
100
AcDbEntity
  8
0
100
AcDbLine
 10
494.2789079999998
 20
153.311171
 30
0.0
 11
496.9399730000001
 21
147.266376
 31
0.0
  0
LINE
  5
860
330
6B
100
AcDbEntity
  8
0
100
AcDbLine
 10
496.9399730000001
 20
147.266376
 30
0.0
 11
497.6712599999998
 21
141.383373
 31
0.0
  0
LINE
  5
861
330
6B
100
AcDbEntity
  8
0
100
AcDbLine
 10
497.6712599999998
 20
141.383373
 30
0.0
 11
497.106548
 21
138.916241
 31
0.0
  0
LINE
  5
862
330
6B
100
AcDbEntity
  8
0
100
AcDbLine
 10
497.106548
 20
138.916241
 30
0.0
 11
496.0620769999998
 21
136.491959
 31
0.0
  0
LINE
  5
863
330
6B
100
AcDbEntity
  8
0
100
AcDbLine
 10
496.0620769999998
 20
136.491959
 30
0.0
 11
494.6577849999997
 21
134.099817
 31
0.0
  0
LINE
  5
864
330
6B
100
AcDbEntity
  8
0
100
AcDbLine
 10
494.6577849999997
 20
134.099817
 30
0.0
 11
493.013613
 21
131.7291
 31
0.0
  0
LINE
  5
865
330
6B
100
AcDbEntity
  8
0
100
AcDbLine
 10
493.013613
 20
131.7291
 30
0.0
 11
491.2495009999998
 21
129.369096
 31
0.0
  0
LINE
  5
866
330
6B
100
AcDbEntity
  8
0
100
AcDbLine
 10
488.756484
 20
185.161424
 30
0.0
 11
486.3161719999998
 21
182.437241
 31
0.0
  0
LINE
  5
867
330
6B
100
AcDbEntity
  8
0
100
AcDbLine
 10
486.3161719999998
 20
182.437241
 30
0.0
 11
484.0495879999998
 21
179.694643
 31
0.0
  0
LINE
  5
868
330
6B
100
AcDbEntity
  8
0
100
AcDbLine
 10
484.0495879999998
 20
179.694643
 30
0.0
 11
482.1304589999998
 21
176.915214
 31
0.0
  0
LINE
  5
869
330
6B
100
AcDbEntity
  8
0
100
AcDbLine
 10
482.1304589999998
 20
176.915214
 30
0.0
 11
480.7325129999998
 21
174.080537
 31
0.0
  0
LINE
  5
86A
330
6B
100
AcDbEntity
  8
0
100
AcDbLine
 10
480.7325129999998
 20
174.080537
 30
0.0
 11
480.029478
 21
171.172197
 31
0.0
  0
LINE
  5
86B
330
6B
100
AcDbEntity
  8
0
100
AcDbLine
 10
480.029478
 20
171.172197
 30
0.0
 11
480.8327179999998
 21
165.388494
 31
0.0
  0
LINE
  5
86C
330
6B
100
AcDbEntity
  8
0
100
AcDbLine
 10
480.8327179999998
 20
165.388494
 30
0.0
 11
483.529759
 21
159.393348
 31
0.0
  0
LINE
  5
86D
330
6B
100
AcDbEntity
  8
0
100
AcDbLine
 10
483.529759
 20
159.393348
 30
0.0
 11
486.8460759999998
 21
153.311171
 31
0.0
  0
LINE
  5
86E
330
6B
100
AcDbEntity
  8
0
100
AcDbLine
 10
486.8460759999998
 20
153.311171
 30
0.0
 11
489.50714
 21
147.266376
 31
0.0
  0
LINE
  5
86F
330
6B
100
AcDbEntity
  8
0
100
AcDbLine
 10
489.50714
 20
147.266376
 30
0.0
 11
490.2384279999998
 21
141.383373
 31
0.0
  0
LINE
  5
870
330
6B
100
AcDbEntity
  8
0
100
AcDbLine
 10
490.2384279999998
 20
141.383373
 30
0.0
 11
489.6737159999998
 21
138.916241
 31
0.0
  0
LINE
  5
871
330
6B
100
AcDbEntity
  8
0
100
AcDbLine
 10
489.6737159999998
 20
138.916241
 30
0.0
 11
488.629244
 21
136.491959
 31
0.0
  0
LINE
  5
872
330
6B
100
AcDbEntity
  8
0
100
AcDbLine
 10
488.629244
 20
136.491959
 30
0.0
 11
487.224953
 21
134.099817
 31
0.0
  0
LINE
  5
873
330
6B
100
AcDbEntity
  8
0
100
AcDbLine
 10
487.224953
 20
134.099817
 30
0.0
 11
485.5807809999998
 21
131.7291
 31
0.0
  0
LINE
  5
874
330
6B
100
AcDbEntity
  8
0
100
AcDbLine
 10
485.5807809999998
 20
131.7291
 30
0.0
 11
483.816669
 21
129.369096
 31
0.0
  0
LINE
  5
875
330
6B
100
AcDbEntity
  8
0
100
AcDbLine
 10
353.085677
 20
175.113069
 30
0.0
 11
353.937435
 21
174.531972
 31
0.0
  0
LINE
  5
876
330
6B
100
AcDbEntity
  8
0
100
AcDbLine
 10
353.937435
 20
174.531972
 30
0.0
 11
354.574757
 21
173.8300139999999
 31
0.0
  0
LINE
  5
877
330
6B
100
AcDbEntity
  8
0
100
AcDbLine
 10
354.574757
 20
173.8300139999999
 30
0.0
 11
354.857833
 21
172.893356
 31
0.0
  0
LINE
  5
878
330
6B
100
AcDbEntity
  8
0
100
AcDbLine
 10
354.857833
 20
172.893356
 30
0.0
 11
354.912079
 21
171.827725
 31
0.0
  0
LINE
  5
879
330
6B
100
AcDbEntity
  8
0
100
AcDbLine
 10
354.266672
 20
175.23282
 30
0.0
 11
354.639213
 21
174.660969
 31
0.0
  0
LINE
  5
87A
330
6B
100
AcDbEntity
  8
0
100
AcDbLine
 10
354.639213
 20
174.660969
 30
0.0
 11
354.917074
 21
174.05241
 31
0.0
  0
LINE
  5
87B
330
6B
100
AcDbEntity
  8
0
100
AcDbLine
 10
354.917074
 20
174.05241
 30
0.0
 11
355.001299
 21
173.681349
 31
0.0
  0
LINE
  5
87C
330
6B
100
AcDbEntity
  8
0
100
AcDbLine
 10
355.001299
 20
173.681349
 30
0.0
 11
355.036885
 21
173.299684
 31
0.0
  0
LINE
  5
87D
330
6B
100
AcDbEntity
  8
0
100
AcDbLine
 10
355.036885
 20
173.299684
 30
0.0
 11
355.00896
 21
172.56157
 31
0.0
  0
LINE
  5
87E
330
6B
100
AcDbEntity
  8
0
100
AcDbLine
 10
355.00896
 20
172.56157
 30
0.0
 11
354.912079
 21
171.827725
 31
0.0
  0
LINE
  5
87F
330
6B
100
AcDbEntity
  8
0
100
AcDbLine
 10
356.149415
 20
176.15662
 30
0.0
 11
355.457916
 21
175.758435
 31
0.0
  0
LINE
  5
880
330
6B
100
AcDbEntity
  8
0
100
AcDbLine
 10
355.457916
 20
175.758435
 30
0.0
 11
355.054001
 21
175.267035
 31
0.0
  0
LINE
  5
881
330
6B
100
AcDbEntity
  8
0
100
AcDbLine
 10
355.054001
 20
175.267035
 30
0.0
 11
355.133464
 21
174.541953
 31
0.0
  0
LINE
  5
882
330
6B
100
AcDbEntity
  8
0
100
AcDbLine
 10
355.133464
 20
174.541953
 30
0.0
 11
355.362086
 21
173.727369
 31
0.0
  0
LINE
  5
883
330
6B
100
AcDbEntity
  8
0
100
AcDbLine
 10
355.362086
 20
173.727369
 30
0.0
 11
355.312904
 21
172.965061
 31
0.0
  0
LINE
  5
884
330
6B
100
AcDbEntity
  8
0
100
AcDbLine
 10
355.312904
 20
172.965061
 30
0.0
 11
355.071117
 21
172.239026
 31
0.0
  0
LINE
  5
885
330
6B
100
AcDbEntity
  8
0
100
AcDbLine
 10
355.071117
 20
172.239026
 30
0.0
 11
354.991581
 21
172.032863
 31
0.0
  0
LINE
  5
886
330
6B
100
AcDbEntity
  8
0
100
AcDbLine
 10
354.991581
 20
172.032863
 30
0.0
 11
354.912079
 21
171.827725
 31
0.0
  0
LINE
  5
887
330
6B
100
AcDbEntity
  8
0
100
AcDbLine
 10
390.714523
 20
173.668056
 30
0.0
 11
390.917759
 21
171.607502
 31
0.0
  0
LINE
  5
888
330
6B
100
AcDbEntity
  8
0
100
AcDbLine
 10
390.917759
 20
171.607502
 30
0.0
 11
391.772028
 21
173.493612
 31
0.0
  0
LINE
  5
889
330
6B
100
AcDbEntity
  8
0
100
AcDbLine
 10
396.980283
 20
165.730077
 30
0.0
 11
397.236448
 21
163.675432
 31
0.0
  0
LINE
  5
88A
330
6B
100
AcDbEntity
  8
0
100
AcDbLine
 10
397.236448
 20
163.675432
 30
0.0
 11
398.041925
 21
165.58289
 31
0.0
  0
LINE
  5
88B
330
6B
100
AcDbEntity
  8
0
100
AcDbLine
 10
403.9044689999998
 20
173.054158
 30
0.0
 11
403.7304189999998
 21
170.990934
 31
0.0
  0
LINE
  5
88C
330
6B
100
AcDbEntity
  8
0
100
AcDbLine
 10
403.7304189999998
 20
170.990934
 30
0.0
 11
404.912763
 21
172.690713
 31
0.0
  0
LINE
  5
88D
330
6B
100
AcDbEntity
  8
0
100
AcDbLine
 10
362.77021
 20
168.827441
 30
0.0
 11
363.937478
 21
167.117274
 31
0.0
  0
LINE
  5
88E
330
6B
100
AcDbEntity
  8
0
100
AcDbLine
 10
363.937478
 20
167.117274
 30
0.0
 11
363.781678
 21
169.181957
 31
0.0
  0
LINE
  5
88F
330
6B
100
AcDbEntity
  8
0
100
AcDbLine
 10
337.57441
 20
171.477061
 30
0.0
 11
339.076315
 21
170.051765
 31
0.0
  0
LINE
  5
890
330
6B
100
AcDbEntity
  8
0
100
AcDbLine
 10
339.076315
 20
170.051765
 30
0.0
 11
338.488275
 21
172.03706
 31
0.0
  0
LINE
  5
891
330
6B
100
AcDbEntity
  8
0
 62
     2
100
AcDbLine
 10
490.244265
 20
249.112152
 30
0.0
 11
490.217654
 21
249.282535
 31
0.0
  0
LINE
  5
892
330
6B
100
AcDbEntity
  8
0
 62
     2
100
AcDbLine
 10
490.217654
 20
249.282535
 30
0.0
 11
490.1856949999998
 21
249.445684
 31
0.0
  0
LINE
  5
893
330
6B
100
AcDbEntity
  8
0
 62
     2
100
AcDbLine
 10
490.1856949999998
 20
249.445684
 30
0.0
 11
490.1486349999998
 21
249.60034
 31
0.0
  0
LINE
  5
894
330
6B
100
AcDbEntity
  8
0
 62
     2
100
AcDbLine
 10
490.1486349999998
 20
249.60034
 30
0.0
 11
490.106761
 21
249.745307
 31
0.0
  0
LINE
  5
895
330
6B
100
AcDbEntity
  8
0
 62
     2
100
AcDbLine
 10
490.106761
 20
249.745307
 30
0.0
 11
490.0603959999998
 21
249.879463
 31
0.0
  0
LINE
  5
896
330
6B
100
AcDbEntity
  8
0
 62
     2
100
AcDbLine
 10
490.0603959999998
 20
249.879463
 30
0.0
 11
490.009898
 21
250.001773
 31
0.0
  0
LINE
  5
897
330
6B
100
AcDbEntity
  8
0
 62
     2
100
AcDbLine
 10
490.009898
 20
250.001773
 30
0.0
 11
489.955657
 21
250.111291
 31
0.0
  0
LINE
  5
898
330
6B
100
AcDbEntity
  8
0
 62
     2
100
AcDbLine
 10
489.955657
 20
250.111291
 30
0.0
 11
489.898094
 21
250.20717
 31
0.0
  0
LINE
  5
899
330
6B
100
AcDbEntity
  8
0
 62
     2
100
AcDbLine
 10
489.898094
 20
250.20717
 30
0.0
 11
489.837653
 21
250.288669
 31
0.0
  0
LINE
  5
89A
330
6B
100
AcDbEntity
  8
0
 62
     2
100
AcDbLine
 10
489.837653
 20
250.288669
 30
0.0
 11
489.7748009999999
 21
250.355159
 31
0.0
  0
LINE
  5
89B
330
6B
100
AcDbEntity
  8
0
 62
     2
100
AcDbLine
 10
489.7748009999999
 20
250.355159
 30
0.0
 11
489.710024
 21
250.406125
 31
0.0
  0
LINE
  5
89C
330
6B
100
AcDbEntity
  8
0
 62
     2
100
AcDbLine
 10
489.710024
 20
250.406125
 30
0.0
 11
489.643822
 21
250.441173
 31
0.0
  0
LINE
  5
89D
330
6B
100
AcDbEntity
  8
0
 62
     2
100
AcDbLine
 10
489.643822
 20
250.441173
 30
0.0
 11
489.5767079999997
 21
250.460033
 31
0.0
  0
LINE
  5
89E
330
6B
100
AcDbEntity
  8
0
 62
     2
100
AcDbLine
 10
489.5767079999997
 20
250.460033
 30
0.0
 11
489.5091999999998
 21
250.462558
 31
0.0
  0
LINE
  5
89F
330
6B
100
AcDbEntity
  8
0
 62
     2
100
AcDbLine
 10
489.5091999999998
 20
250.462558
 30
0.0
 11
489.44182
 21
250.44873
 31
0.0
  0
LINE
  5
8A0
330
6B
100
AcDbEntity
  8
0
 62
     2
100
AcDbLine
 10
489.44182
 20
250.44873
 30
0.0
 11
489.3750879999998
 21
250.418655
 31
0.0
  0
LINE
  5
8A1
330
6B
100
AcDbEntity
  8
0
 62
     2
100
AcDbLine
 10
489.3750879999998
 20
250.418655
 30
0.0
 11
489.309521
 21
250.372565
 31
0.0
  0
LINE
  5
8A2
330
6B
100
AcDbEntity
  8
0
 62
     2
100
AcDbLine
 10
489.309521
 20
250.372565
 30
0.0
 11
489.245625
 21
250.310817
 31
0.0
  0
LINE
  5
8A3
330
6B
100
AcDbEntity
  8
0
 62
     2
100
AcDbLine
 10
489.245625
 20
250.310817
 30
0.0
 11
489.183895
 21
250.233888
 31
0.0
  0
LINE
  5
8A4
330
6B
100
AcDbEntity
  8
0
 62
     2
100
AcDbLine
 10
489.183895
 20
250.233888
 30
0.0
 11
489.124807
 21
250.142373
 31
0.0
  0
LINE
  5
8A5
330
6B
100
AcDbEntity
  8
0
 62
     2
100
AcDbLine
 10
489.124807
 20
250.142373
 30
0.0
 11
489.0688179999998
 21
250.036979
 31
0.0
  0
LINE
  5
8A6
330
6B
100
AcDbEntity
  8
0
 62
     2
100
AcDbLine
 10
489.0688179999998
 20
250.036979
 30
0.0
 11
489.016361
 21
249.918521
 31
0.0
  0
LINE
  5
8A7
330
6B
100
AcDbEntity
  8
0
 62
     2
100
AcDbLine
 10
489.016361
 20
249.918521
 30
0.0
 11
488.967841
 21
249.787914
 31
0.0
  0
LINE
  5
8A8
330
6B
100
AcDbEntity
  8
0
 62
     2
100
AcDbLine
 10
488.967841
 20
249.787914
 30
0.0
 11
488.923633
 21
249.646168
 31
0.0
  0
LINE
  5
8A9
330
6B
100
AcDbEntity
  8
0
 62
     2
100
AcDbLine
 10
488.923633
 20
249.646168
 30
0.0
 11
488.8840799999998
 21
249.494378
 31
0.0
  0
LINE
  5
8AA
330
6B
100
AcDbEntity
  8
0
 62
     2
100
AcDbLine
 10
488.8840799999998
 20
249.494378
 30
0.0
 11
488.849486
 21
249.333718
 31
0.0
  0
LINE
  5
8AB
330
6B
100
AcDbEntity
  8
0
 62
     2
100
AcDbLine
 10
488.849486
 20
249.333718
 30
0.0
 11
488.820119
 21
249.16543
 31
0.0
  0
LINE
  5
8AC
330
6B
100
AcDbEntity
  8
0
 62
     2
100
AcDbLine
 10
488.820119
 20
249.16543
 30
0.0
 11
488.796207
 21
248.990814
 31
0.0
  0
LINE
  5
8AD
330
6B
100
AcDbEntity
  8
0
 62
     2
100
AcDbLine
 10
488.796207
 20
248.990814
 30
0.0
 11
488.7779329999998
 21
248.81122
 31
0.0
  0
LINE
  5
8AE
330
6B
100
AcDbEntity
  8
0
 62
     2
100
AcDbLine
 10
488.7779329999998
 20
248.81122
 30
0.0
 11
488.76544
 21
248.628036
 31
0.0
  0
LINE
  5
8AF
330
6B
100
AcDbEntity
  8
0
 62
     2
100
AcDbLine
 10
488.76544
 20
248.628036
 30
0.0
 11
488.758823
 21
248.442678
 31
0.0
  0
LINE
  5
8B0
330
6B
100
AcDbEntity
  8
0
 62
     2
100
AcDbLine
 10
488.758823
 20
248.442678
 30
0.0
 11
488.7581349999998
 21
248.256579
 31
0.0
  0
LINE
  5
8B1
330
6B
100
AcDbEntity
  8
0
 62
     2
100
AcDbLine
 10
488.7581349999998
 20
248.256579
 30
0.0
 11
488.7633799999998
 21
248.071177
 31
0.0
  0
LINE
  5
8B2
330
6B
100
AcDbEntity
  8
0
 62
     2
100
AcDbLine
 10
488.7633799999998
 20
248.071177
 30
0.0
 11
488.774517
 21
247.887906
 31
0.0
  0
LINE
  5
8B3
330
6B
100
AcDbEntity
  8
0
 62
     2
100
AcDbLine
 10
488.774517
 20
247.887906
 30
0.0
 11
488.791461
 21
247.708182
 31
0.0
  0
LINE
  5
8B4
330
6B
100
AcDbEntity
  8
0
 62
     2
100
AcDbLine
 10
488.791461
 20
247.708182
 30
0.0
 11
488.814081
 21
247.533394
 31
0.0
  0
LINE
  5
8B5
330
6B
100
AcDbEntity
  8
0
 62
     2
100
AcDbLine
 10
488.814081
 20
247.533394
 30
0.0
 11
488.842201
 21
247.364893
 31
0.0
  0
LINE
  5
8B6
330
6B
100
AcDbEntity
  8
0
 62
     2
100
AcDbLine
 10
488.842201
 20
247.364893
 30
0.0
 11
488.875605
 21
247.203981
 31
0.0
  0
LINE
  5
8B7
330
6B
100
AcDbEntity
  8
0
 62
     2
100
AcDbLine
 10
488.875605
 20
247.203981
 30
0.0
 11
488.9140339999998
 21
247.051903
 31
0.0
  0
LINE
  5
8B8
330
6B
100
AcDbEntity
  8
0
 62
     2
100
AcDbLine
 10
488.9140339999998
 20
247.051903
 30
0.0
 11
488.957192
 21
246.909833
 31
0.0
  0
LINE
  5
8B9
330
6B
100
AcDbEntity
  8
0
 62
     2
100
AcDbLine
 10
488.957192
 20
246.909833
 30
0.0
 11
489.004744
 21
246.778871
 31
0.0
  0
LINE
  5
8BA
330
6B
100
AcDbEntity
  8
0
 62
     2
100
AcDbLine
 10
489.004744
 20
246.778871
 30
0.0
 11
489.056323
 21
246.660028
 31
0.0
  0
LINE
  5
8BB
330
6B
100
AcDbEntity
  8
0
 62
     2
100
AcDbLine
 10
489.056323
 20
246.660028
 30
0.0
 11
489.11153
 21
246.554222
 31
0.0
  0
LINE
  5
8BC
330
6B
100
AcDbEntity
  8
0
 62
     2
100
AcDbLine
 10
489.11153
 20
246.554222
 30
0.0
 11
489.16994
 21
246.462272
 31
0.0
  0
LINE
  5
8BD
330
6B
100
AcDbEntity
  8
0
 62
     2
100
AcDbLine
 10
489.16994
 20
246.462272
 30
0.0
 11
489.231099
 21
246.384889
 31
0.0
  0
LINE
  5
8BE
330
6B
100
AcDbEntity
  8
0
 62
     2
100
AcDbLine
 10
489.231099
 20
246.384889
 30
0.0
 11
489.294536
 21
246.32267
 31
0.0
  0
LINE
  5
8BF
330
6B
100
AcDbEntity
  8
0
 62
     2
100
AcDbLine
 10
489.294536
 20
246.32267
 30
0.0
 11
489.3597599999998
 21
246.276096
 31
0.0
  0
LINE
  5
8C0
330
6B
100
AcDbEntity
  8
0
 62
     2
100
AcDbLine
 10
489.3597599999998
 20
246.276096
 30
0.0
 11
489.4262669999998
 21
246.245528
 31
0.0
  0
LINE
  5
8C1
330
6B
100
AcDbEntity
  8
0
 62
     2
100
AcDbLine
 10
489.4262669999998
 20
246.245528
 30
0.0
 11
489.493543
 21
246.231201
 31
0.0
  0
LINE
  5
8C2
330
6B
100
AcDbEntity
  8
0
 62
     2
100
AcDbLine
 10
489.493543
 20
246.231201
 30
0.0
 11
489.5610679999998
 21
246.233227
 31
0.0
  0
LINE
  5
8C3
330
6B
100
AcDbEntity
  8
0
 62
     2
100
AcDbLine
 10
489.5610679999998
 20
246.233227
 30
0.0
 11
489.62832
 21
246.25159
 31
0.0
  0
LINE
  5
8C4
330
6B
100
AcDbEntity
  8
0
 62
     2
100
AcDbLine
 10
489.62832
 20
246.25159
 30
0.0
 11
489.6947789999998
 21
246.286147
 31
0.0
  0
LINE
  5
8C5
330
6B
100
AcDbEntity
  8
0
 62
     2
100
AcDbLine
 10
489.6947789999998
 20
246.286147
 30
0.0
 11
489.759932
 21
246.336632
 31
0.0
  0
LINE
  5
8C6
330
6B
100
AcDbEntity
  8
0
 62
     2
100
AcDbLine
 10
489.759932
 20
246.336632
 30
0.0
 11
489.823274
 21
246.402655
 31
0.0
  0
LINE
  5
8C7
330
6B
100
AcDbEntity
  8
0
 62
     2
100
AcDbLine
 10
489.823274
 20
246.402655
 30
0.0
 11
489.884317
 21
246.483705
 31
0.0
  0
LINE
  5
8C8
330
6B
100
AcDbEntity
  8
0
 62
     2
100
AcDbLine
 10
489.884317
 20
246.483705
 30
0.0
 11
489.9425879999998
 21
246.579155
 31
0.0
  0
LINE
  5
8C9
330
6B
100
AcDbEntity
  8
0
 62
     2
100
AcDbLine
 10
489.9425879999998
 20
246.579155
 30
0.0
 11
489.997637
 21
246.688269
 31
0.0
  0
LINE
  5
8CA
330
6B
100
AcDbEntity
  8
0
 62
     2
100
AcDbLine
 10
489.997637
 20
246.688269
 30
0.0
 11
490.0490389999998
 21
246.810201
 31
0.0
  0
LINE
  5
8CB
330
6B
100
AcDbEntity
  8
0
 62
     2
100
AcDbLine
 10
490.0490389999998
 20
246.810201
 30
0.0
 11
490.0963959999998
 21
246.944011
 31
0.0
  0
LINE
  5
8CC
330
6B
100
AcDbEntity
  8
0
 62
     2
100
AcDbLine
 10
490.0963959999998
 20
246.944011
 30
0.0
 11
490.1393419999998
 21
247.088664
 31
0.0
  0
LINE
  5
8CD
330
6B
100
AcDbEntity
  8
0
 62
     2
100
AcDbLine
 10
490.1393419999998
 20
247.088664
 30
0.0
 11
490.177545
 21
247.243041
 31
0.0
  0
LINE
  5
8CE
330
6B
100
AcDbEntity
  8
0
 62
     2
100
AcDbLine
 10
490.177545
 20
247.243041
 30
0.0
 11
490.2107110000001
 21
247.40595
 31
0.0
  0
LINE
  5
8CF
330
6B
100
AcDbEntity
  8
0
 62
     2
100
AcDbLine
 10
490.2107110000001
 20
247.40595
 30
0.0
 11
490.2385809999998
 21
247.576131
 31
0.0
  0
LINE
  5
8D0
330
6B
100
AcDbEntity
  8
0
100
AcDbLine
 10
321.471468
 20
158.175432
 30
0.0
 11
321.471468
 21
118.238367
 31
0.0
  0
LINE
  5
8D1
330
6B
100
AcDbEntity
  8
0
100
AcDbLine
 10
417.471468
 20
158.175432
 30
0.0
 11
417.471468
 21
118.238367
 31
0.0
  0
LINE
  5
8D2
330
6B
100
AcDbEntity
  8
0
100
AcDbLine
 10
323.971468
 20
119.488367
 30
0.0
 11
414.971468
 21
119.488367
 31
0.0
  0
LINE
  5
8D6
330
6B
100
AcDbEntity
  8
0
100
AcDbLine
 10
462.186815
 20
135.175432
 30
0.0
 11
434.210949
 21
135.175432
 31
0.0
  0
LINE
  5
8D7
330
6B
100
AcDbEntity
  8
0
100
AcDbLine
 10
462.186815
 20
181.675432
 30
0.0
 11
434.210949
 21
181.675432
 31
0.0
  0
LINE
  5
8D8
330
6B
100
AcDbEntity
  8
0
100
AcDbLine
 10
435.460949
 20
137.675432
 30
0.0
 11
435.460949
 21
179.175432
 31
0.0
  0
TEXT
  5
8DC
330
6B
100
AcDbEntity
  8
0
  6
Continuous
 62
     4
100
AcDbText
 10
497.1800635
 20
202.2054883861693
 30
0.0
 40
3.0
  1
145
100
AcDbText
  0
LINE
  5
8DD
330
6B
100
AcDbEntity
  8
0
  6
ByBlock
 62
     0
370
    -2
100
AcDbLine
 10
464.9368149999999
 20
200.9106158861693
 30
0.0
 11
462.436815
 21
201.5804883861693
 31
0.0
  0
LINE
  5
8DE
330
6B
100
AcDbEntity
  8
0
  6
ByBlock
 62
     0
370
    -2
100
AcDbLine
 10
462.436815
 20
201.5804883861693
 30
0.0
 11
464.9368149999999
 21
202.2503608861693
 31
0.0
  0
LINE
  5
8DF
330
6B
100
AcDbEntity
  8
0
  6
ByBlock
 62
     0
370
    -2
100
AcDbLine
 10
462.436815
 20
201.5804883861693
 30
0.0
 11
464.9368149999999
 21
201.5804883861693
 31
0.0
  0
LINE
  5
8E0
330
6B
100
AcDbEntity
  8
0
  6
ByBlock
 62
     0
370
    -2
100
AcDbLine
 10
536.423312
 20
202.2503608861693
 30
0.0
 11
538.923312
 21
201.5804883861693
 31
0.0
  0
LINE
  5
8E1
330
6B
100
AcDbEntity
  8
0
  6
ByBlock
 62
     0
370
    -2
100
AcDbLine
 10
538.923312
 20
201.5804883861693
 30
0.0
 11
536.423312
 21
200.9106158861693
 31
0.0
  0
LINE
  5
8E2
330
6B
100
AcDbEntity
  8
0
  6
ByBlock
 62
     0
370
    -2
100
AcDbLine
 10
538.923312
 20
201.5804883861693
 30
0.0
 11
536.423312
 21
201.5804883861693
 31
0.0
  0
TEXT
  5
8E3
330
6B
100
AcDbEntity
  8
0
  6
Continuous
 62
     4
100
AcDbText
 10
366.971468
 20
120.113367
 30
0.0
 40
3.0
  1
96
100
AcDbText
  0
LINE
  5
8E4
330
6B
100
AcDbEntity
  8
0
  6
ByBlock
 62
     0
370
    -2
100
AcDbLine
 10
414.971468
 20
120.1582395
 30
0.0
 11
417.471468
 21
119.488367
 31
0.0
  0
LINE
  5
8E5
330
6B
100
AcDbEntity
  8
0
  6
ByBlock
 62
     0
370
    -2
100
AcDbLine
 10
417.471468
 20
119.488367
 30
0.0
 11
414.971468
 21
118.8184945
 31
0.0
  0
LINE
  5
8E6
330
6B
100
AcDbEntity
  8
0
  6
ByBlock
 62
     0
370
    -2
100
AcDbLine
 10
417.471468
 20
119.488367
 30
0.0
 11
414.971468
 21
119.488367
 31
0.0
  0
LINE
  5
8E7
330
6B
100
AcDbEntity
  8
0
  6
ByBlock
 62
     0
370
    -2
100
AcDbLine
 10
323.971468
 20
118.8184945
 30
0.0
 11
321.471468
 21
119.488367
 31
0.0
  0
LINE
  5
8E8
330
6B
100
AcDbEntity
  8
0
  6
ByBlock
 62
     0
370
    -2
100
AcDbLine
 10
321.471468
 20
119.488367
 30
0.0
 11
323.971468
 21
120.1582395
 31
0.0
  0
LINE
  5
8E9
330
6B
100
AcDbEntity
  8
0
  6
ByBlock
 62
     0
370
    -2
100
AcDbLine
 10
321.471468
 20
119.488367
 30
0.0
 11
323.971468
 21
119.488367
 31
0.0
  0
TEXT
  5
8EA
330
6B
100
AcDbEntity
  8
0
  6
Continuous
 62
     4
100
AcDbText
 10
434.8359489999999
 20
153.9254320000001
 30
0.0
 40
3.0
  1
46.5
 50
90.0
100
AcDbText
  0
LINE
  5
8EB
330
6B
100
AcDbEntity
  8
0
  6
ByBlock
 62
     0
370
    -2
100
AcDbLine
 10
434.7910765
 20
179.175432
 30
0.0
 11
435.460949
 21
181.675432
 31
0.0
  0
LINE
  5
8EC
330
6B
100
AcDbEntity
  8
0
  6
ByBlock
 62
     0
370
    -2
100
AcDbLine
 10
435.460949
 20
181.675432
 30
0.0
 11
436.1308215
 21
179.175432
 31
0.0
  0
LINE
  5
8ED
330
6B
100
AcDbEntity
  8
0
  6
ByBlock
 62
     0
370
    -2
100
AcDbLine
 10
435.460949
 20
181.675432
 30
0.0
 11
435.460949
 21
179.175432
 31
0.0
  0
LINE
  5
8EE
330
6B
100
AcDbEntity
  8
0
  6
ByBlock
 62
     0
370
    -2
100
AcDbLine
 10
436.1308215
 20
137.675432
 30
0.0
 11
435.460949
 21
135.175432
 31
0.0
  0
LINE
  5
8EF
330
6B
100
AcDbEntity
  8
0
  6
ByBlock
 62
     0
370
    -2
100
AcDbLine
 10
435.460949
 20
135.175432
 30
0.0
 11
434.7910765
 21
137.675432
 31
0.0
  0
LINE
  5
8F0
330
6B
100
AcDbEntity
  8
0
  6
ByBlock
 62
     0
370
    -2
100
AcDbLine
 10
435.460949
 20
135.175432
 30
0.0
 11
435.460949
 21
137.675432
 31
0.0
  0
ENDSEC
  0
SECTION
  2
OBJECTS
  0
DICTIONARY
  5
C
330
0
100
AcDbDictionary
281
     1
  3
ACAD_2007HEADERVARS_RT
350
8F4
  3
ACAD_COLOR
350
62
  3
ACAD_GROUP
350
D
  3
ACAD_LAYOUT
350
61
  3
ACAD_MATERIAL
350
10
  3
ACAD_MLEADERSTYLE
350
65
  3
ACAD_MLINESTYLE
350
5E
  3
ACAD_PLOTSETTINGS
350
60
  3
ACAD_PLOTSTYLENAME
350
E
  3
ACAD_SCALELIST
350
42
  3
ACAD_TABLESTYLE
350
63
  3
ACAD_VISUALSTYLE
350
29
  3
ACDB_RECOMPOSE_DATA
350
8F2
  3
AcDbVariableDictionary
350
691
  3
DWGPROPS
350
8F3
  0
DICTIONARY
  5
4CD
330
2
100
AcDbDictionary
280
     1
281
     1
  3
ACAD_LAYERSTATES
360
4CE
  0
DICTIONARY
  5
68F
330
54
100
AcDbDictionary
280
     1
281
     1
  3
ADSK_XREC_LAYER_RECONCILED
360
690
  0
DICTIONARY
  5
845
330
6B
100
AcDbDictionary
280
     1
281
     1
  3
ACAD_SORTENTS
360
846
  0
DICTIONARY
  5
65E
330
426
100
AcDbDictionary
280
     1
281
     1
  3
AcDbContextDataManager
360
65F
  0
DICTIONARY
  5
8F4
102
{ACAD_REACTORS
330
C
102
}
330
C
100
AcDbDictionary
281
     1
  3
DIMARCSYM
350
8F6
  3
DIMFXL
350
8F5
  3
DIMJOGANG
350
8F7
  0
DICTIONARY
  5
62
102
{ACAD_REACTORS
330
C
102
}
330
C
100
AcDbDictionary
281
     1
  0
DICTIONARY
  5
D
102
{ACAD_REACTORS
330
C
102
}
330
C
100
AcDbDictionary
281
     1
  0
DICTIONARY
  5
61
102
{ACAD_REACTORS
330
C
102
}
330
C
100
AcDbDictionary
281
     1
  3
Model
350
6E
  3
レイアウト1
350
6A
  0
DICTIONARY
  5
10
102
{ACAD_REACTORS
330
C
102
}
330
C
100
AcDbDictionary
281
     1
  3
ByBlock
350
19
  3
ByLayer
350
11
  3
Global
350
21
  0
DICTIONARY
  5
65
102
{ACAD_REACTORS
330
C
102
}
330
C
100
AcDbDictionary
281
     1
  3
Standard
350
66
  0
DICTIONARY
  5
5E
102
{ACAD_REACTORS
330
C
102
}
330
C
100
AcDbDictionary
281
     1
  3
Standard
350
5F
  0
DICTIONARY
  5
60
102
{ACAD_REACTORS
330
C
102
}
330
C
100
AcDbDictionary
281
     1
  0
ACDBDICTIONARYWDFLT
  5
E
102
{ACAD_REACTORS
330
C
102
}
330
C
100
AcDbDictionary
281
     1
  3
Normal
350
F
100
AcDbDictionaryWithDefault
340
F
  0
DICTIONARY
  5
42
102
{ACAD_REACTORS
330
C
102
}
330
C
100
AcDbDictionary
281
     1
  3
A0
350
43
  3
A1
350
44
  3
A2
350
45
  3
A3
350
46
  3
A4
350
47
  3
A5
350
48
  3
A6
350
49
  3
A7
350
4A
  3
A8
350
4B
  3
A9
350
4C
  3
B0
350
4D
  3
B1
350
4E
  3
B2
350
4F
  3
B3
350
50
  3
B4
350
51
  3
B5
350
52
  3
B6
350
53
  0
DICTIONARY
  5
63
102
{ACAD_REACTORS
330
C
102
}
330
C
100
AcDbDictionary
281
     1
  3
Standard
350
64
  0
DICTIONARY
  5
29
102
{ACAD_REACTORS
330
C
102
}
330
C
100
AcDbDictionary
281
     1
  3
2dWireframe
350
2F
  3
3dWireframe
350
4CC
  3
Basic
350
2E
  3
Brighten
350
35
  3
ColorChange
350
39
  3
Conceptual
350
32
  3
Dim
350
34
  3
EdgeColorOff
350
41
  3
Facepattern
350
38
  3
Flat
350
2A
  3
FlatWithEdges
350
2B
  3
Gouraud
350
2C
  3
GouraudWithEdges
350
2D
  3
Hidden
350
31
  3
JitterOff
350
3F
  3
Linepattern
350
37
  3
OverhangOff
350
40
  3
Realistic
350
33
  3
Shaded
350
3E
  3
Shaded with edges
350
3D
  3
Shades of Gray
350
3A
  3
Sketchy
350
3B
  3
Thicken
350
36
  3
Wireframe
350
30
  3
X-Ray
350
3C
  0
XRECORD
  5
8F2
102
{ACAD_REACTORS
330
C
102
}
330
C
100
AcDbXrecord
280
     1
 90
        1
330
64
  0
DICTIONARY
  5
691
102
{ACAD_REACTORS
330
C
102
}
330
C
100
AcDbDictionary
281
     1
  3
CANNOSCALE
350
694
  3
CMLEADERSTYLE
350
693
  3
CTABLESTYLE
350
692
  3
DIMASSOC
350
697
  3
INDEXCTL
350
696
  3
SORTENTS
350
695
  3
XCLIPFRAME
350
708
  0
XRECORD
  5
8F3
102
{ACAD_REACTORS
330
C
102
}
330
C
100
AcDbXrecord
280
     1
  1
DWGPROPS COOKIE
  2

  3

  4

  6

  7

  8
imamura
  9

300
=
301
=
302
=
303
=
304
=
305
=
306
=
307
=
308
=
309
=
 40
0.0950398495370371
 41
2456311.487861817
 42
2456850.442299028
  1

 90
        0
  0
DICTIONARY
  5
4CE
102
{ACAD_REACTORS
330
4CD
102
}
330
4CD
100
AcDbDictionary
281
     1
  0
XRECORD
  5
690
102
{ACAD_REACTORS
330
68F
102
}
330
68F
100
AcDbXrecord
280
     1
290
     1
  0
SORTENTSTABLE
  5
846
102
{ACAD_REACTORS
330
845
102
}
330
845
100
AcDbSortentsTable
330
6B
331
3A0
  5
854
331
870
  5
3E0
331
278
  5
2DB
331
3B1
  5
865
331
881
  5
399
331
120
  5
13A
331
3C2
  5
876
331
892
  5
1C2
331
131
  5
14B
331
282
  5
2E5
331
50A
  5
8D7
331
142
  5
15C
331
3D3
  5
887
331
8A3
  5
1D3
331
293
  5
311
331
3E4
  5
898
331
8B4
  5
1E4
331
153
  5
1AF
331
2A4
  5
322
331
2B5
  5
333
331
15D
  5
1B9
331
406
  5
8B4
331
2C6
  5
368
331
2D7
  5
379
331
8E7
  5
D2
331
1B7
  5
21D
331
318
  5
3B1
331
D7
  5
112
331
329
  5
3C2
331
1C8
  5
22E
331
2E8
  5
38A
331
33A
  5
3D3
331
1D9
  5
258
331
363
  5
408
331
212
  5
284
331
374
  5
423
331
1FB
  5
26D
331
385
  5
50F
331
234
  5
2A3
331
223
  5
295
331
8D6
  5
BB
331
8C5
  5
202
331
856
  5
8A3
331
867
  5
3D7
331
256
  5
2B9
331
267
  5
2CA
331
10F
  5
129
331
245
  5
2AE
331
390
  5
842
331
868
  5
3D8
331
268
  5
2CB
331
408
  5
8B6
331
110
  5
12A
331
3A1
  5
855
331
871
  5
3E1
331
279
  5
2DC
331
3B2
  5
866
331
882
  5
39A
331
121
  5
13B
331
3C3
  5
877
331
893
  5
1C3
331
132
  5
14C
331
283
  5
2E6
331
50B
  5
8D8
331
143
  5
15D
331
3D4
  5
888
331
8A4
  5
1D4
331
3E5
  5
899
331
8B5
  5
1E5
331
154
  5
1B0
331
2A5
  5
323
331
2B6
  5
334
331
15E
  5
1BA
331
407
  5
8B5
331
2C7
  5
369
331
1A7
  5
20D
331
2D8
  5
37A
331
C7
  5
F7
331
319
  5
3B2
331
1B8
  5
21E
331
2E9
  5
38B
331
32A
  5
3C3
331
1C9
  5
234
331
33B
  5
3D4
331
1DA
  5
259
331
364
  5
409
331
224
  5
296
331
375
  5
424
331
1FC
  5
26E
331
213
  5
285
331
8D7
  5
BC
331
8C6
  5
203
331
294
  5
312
331
386
  5
510
331
857
  5
3E5
331
246
  5
2AF
331
257
  5
2BA
331
235
  5
2A4
331
858
  5
3E6
331
391
  5
843
331
869
  5
3D9
331
258
  5
2BB
331
269
  5
2CC
331
409
  5
8B7
331
111
  5
12B
331
3A2
  5
856
331
872
  5
3E2
331
27A
  5
2DD
331
3B3
  5
867
331
883
  5
39B
331
122
  5
13C
331
3C4
  5
878
331
894
  5
1C4
331
133
  5
14D
331
284
  5
2E7
331
50C
  5
8DC
331
144
  5
15E
331
3D5
  5
889
331
8A5
  5
1D5
331
3E6
  5
89A
331
8B6
  5
1ED
331
155
  5
1B1
331
2A6
  5
324
331
2B7
  5
335
331
15F
  5
1BB
331
2C8
  5
36A
331
1A8
  5
20E
331
2D9
  5
37B
331
C8
  5
FD
331
31A
  5
3B3
331
1B9
  5
21F
331
2EA
  5
38C
331
32B
  5
3C4
331
1CA
  5
235
331
33C
  5
3D5
331
1DB
  5
25A
331
365
  5
40A
331
214
  5
286
331
376
  5
425
331
1FD
  5
26F
331
225
  5
297
331
8D8
  5
BD
331
8C7
  5
204
331
295
  5
313
331
847
  5
8C9
331
387
  5
511
331
236
  5
2A5
331
848
  5
8CA
331
388
  5
512
331
859
  5
3E7
331
392
  5
844
331
86A
  5
3DA
331
259
  5
2BC
331
26A
  5
2CD
331
40A
  5
8B8
331
112
  5
12C
331
3A3
  5
857
331
873
  5
3E3
331
27B
  5
2DE
331
41B
  5
8C6
331
3B4
  5
868
331
884
  5
39C
331
3C5
  5
879
331
895
  5
1C5
331
134
  5
14E
331
285
  5
2E8
331
50D
  5
8DD
331
145
  5
15F
331
3D6
  5
88A
331
296
  5
314
331
3E7
  5
89B
331
8B7
  5
1EE
331
156
  5
1B2
331
2B8
  5
336
331
8C8
  5
205
331
2C9
  5
36B
331
1A9
  5
20F
331
2DA
  5
37C
331
C9
  5
103
331
31B
  5
3B4
331
1BA
  5
220
331
2EB
  5
38D
331
32C
  5
3C5
331
1CB
  5
236
331
215
  5
287
331
1DC
  5
25B
331
366
  5
40B
331
1ED
  5
265
331
377
  5
426
331
1FE
  5
270
331
226
  5
298
331
160
  5
1BC
331
2A7
  5
325
331
8A6
  5
1D6
331
123
  5
13D
331
378
  5
502
331
849
  5
8C4
331
D8
  5
113
331
389
  5
513
331
85A
  5
3E8
331
393
  5
847
331
86B
  5
3DB
331
25A
  5
2BD
331
26B
  5
2CE
331
40B
  5
8B9
331
113
  5
12D
331
3A4
  5
858
331
874
  5
3E4
331
27C
  5
2DF
331
41C
  5
8C7
331
124
  5
13E
331
3B5
  5
869
331
3C6
  5
87A
331
896
  5
1C6
331
135
  5
14F
331
286
  5
2E9
331
50E
  5
8DE
331
146
  5
160
331
3D7
  5
88B
331
297
  5
315
331
3E8
  5
89C
331
8B8
  5
1EF
331
157
  5
1B3
331
2B9
  5
337
331
8C9
  5
206
331
2CA
  5
36C
331
1AA
  5
210
331
2DB
  5
37D
331
CA
  5
107
331
31C
  5
3B5
331
1BB
  5
221
331
2EC
  5
38E
331
32D
  5
3C6
331
1CC
  5
23C
331
216
  5
288
331
1DD
  5
25C
331
367
  5
40C
331
1EE
  5
266
331
1FF
  5
271
331
227
  5
299
331
161
  5
1BD
331
2A8
  5
326
331
8A7
  5
1D7
331
885
  5
39D
331
368
  5
40D
331
228
  5
29A
331
379
  5
503
331
200
  5
272
331
84A
  5
8C5
331
D9
  5
114
331
38A
  5
514
331
85B
  5
3E9
331
25B
  5
2BE
331
394
  5
848
331
86C
  5
3DC
331
103
  5
122
331
26C
  5
2CF
331
40C
  5
8BA
331
114
  5
12E
331
3A5
  5
859
331
875
  5
3A5
331
41D
  5
8C8
331
125
  5
13F
331
3B6
  5
86A
331
886
  5
39E
331
3C7
  5
87B
331
897
  5
1C7
331
136
  5
150
331
50F
  5
8DF
331
147
  5
161
331
3D8
  5
88C
331
298
  5
316
331
3E9
  5
89D
331
8B9
  5
1F0
331
2BA
  5
338
331
8CA
  5
207
331
2CB
  5
36D
331
1AB
  5
211
331
2DC
  5
37E
331
31D
  5
3B6
331
1BC
  5
222
331
2ED
  5
38F
331
32E
  5
3C7
331
1CD
  5
23D
331
217
  5
289
331
1DE
  5
25D
331
1EF
  5
267
331
CB
  5
108
331
162
  5
1BE
331
2A9
  5
327
331
8A8
  5
1D8
331
287
  5
2EA
331
27D
  5
2E0
331
218
  5
28A
331
369
  5
40E
331
1F0
  5
268
331
229
  5
29B
331
37A
  5
504
331
201
  5
273
331
84B
  5
8A4
331
DA
  5
115
331
38B
  5
515
331
85C
  5
3FC
331
BB
  5
DD
331
395
  5
849
331
86D
  5
3DD
331
25C
  5
2BF
331
26D
  5
2D0
331
40D
  5
8BB
331
115
  5
12F
331
3A6
  5
85A
331
27E
  5
2E1
331
876
  5
3A6
331
3B7
  5
86B
331
887
  5
2B5
331
3C8
  5
87C
331
898
  5
1C8
331
137
  5
151
331
126
  5
140
331
510
  5
8E0
331
148
  5
162
331
3D9
  5
88D
331
8A9
  5
1D9
331
2AA
  5
328
331
8BA
  5
1F1
331
2BB
  5
339
331
8CB
  5
208
331
8DC
  5
8F0
331
2CC
  5
36E
331
1AC
  5
212
331
2DD
  5
37F
331
31E
  5
3B7
331
1BD
  5
223
331
2EE
  5
390
331
32F
  5
3C8
331
1DF
  5
25E
331
1CE
  5
23E
331
CC
  5
109
331
163
  5
1BF
331
299
  5
317
331
288
  5
2EB
331
330
  5
3C9
331
208
  5
27A
331
219
  5
28B
331
1E0
  5
25F
331
36A
  5
40F
331
1F1
  5
269
331
22A
  5
29C
331
37B
  5
505
331
202
  5
274
331
84C
  5
8A5
331
DB
  5
116
331
38C
  5
516
331
24C
  5
2B2
331
85D
  5
3FD
331
BC
  5
DE
331
396
  5
84A
331
86E
  5
3DE
331
25D
  5
2C0
331
40E
  5
8BC
331
116
  5
130
331
3A7
  5
85B
331
877
  5
3A7
331
26E
  5
2D1
331
3B8
  5
86C
331
888
  5
2B6
331
127
  5
141
331
3C9
  5
87D
331
899
  5
1C9
331
138
  5
152
331
27F
  5
2E2
331
511
  5
8E1
331
149
  5
163
331
3DA
  5
88E
331
8AA
  5
1DA
331
2AB
  5
329
331
8BB
  5
1F8
331
3FC
  5
8AA
331
8CC
  5
209
331
8DD
  5
8ED
331
164
  5
1C0
331
2CD
  5
36F
331
2DE
  5
380
331
CD
  5
10C
331
31F
  5
3B8
331
1BE
  5
224
331
1CF
  5
244
331
2EF
  5
391
331
1AD
  5
213
331
2BC
  5
33A
331
29A
  5
318
331
289
  5
2EC
331
320
  5
3B9
331
2F0
  5
392
331
8E8
  5
D7
331
331
  5
3CA
331
1D0
  5
245
331
209
  5
27B
331
36B
  5
410
331
21A
  5
28C
331
1E1
  5
260
331
22B
  5
29D
331
37C
  5
506
331
203
  5
275
331
23C
  5
2A8
331
84D
  5
8A6
331
DC
  5
117
331
38D
  5
83F
331
24D
  5
2B3
331
85E
  5
3FE
331
BD
  5
DF
331
397
  5
84B
331
86F
  5
3DF
331
26F
  5
2D2
331
40F
  5
8BD
331
117
  5
131
331
25E
  5
2C1
331
F5
  5
11F
331
3A8
  5
85C
331
3B9
  5
86D
331
889
  5
2B0
331
128
  5
142
331
3CA
  5
87E
331
89A
  5
1CA
331
139
  5
153
331
28A
  5
2ED
331
878
  5
3A8
331
512
  5
8E2
331
3DB
  5
88F
331
8AB
  5
1DB
331
29B
  5
319
331
2AC
  5
32A
331
3FD
  5
8AB
331
8CD
  5
20A
331
8DE
  5
8EE
331
2CE
  5
370
331
1AE
  5
214
331
2DF
  5
381
331
1BF
  5
225
331
CE
  5
10D
331
2BD
  5
33B
331
8BC
  5
1F9
331
14A
  5
164
331
310
  5
3A9
331
2E0
  5
382
331
321
  5
3BA
331
1C0
  5
226
331
2F1
  5
393
331
8E9
  5
D8
331
332
  5
3CB
331
1D1
  5
246
331
20A
  5
27C
331
36C
  5
411
331
21B
  5
28D
331
1E2
  5
261
331
22C
  5
29E
331
37D
  5
507
331
204
  5
276
331
23D
  5
2A9
331
84E
  5
8A7
331
DD
  5
118
331
24E
  5
2B4
331
85F
  5
3FF
331
25F
  5
2C2
331
398
  5
84C
331
270
  5
2D3
331
410
  5
8BE
331
118
  5
132
331
107
  5
123
331
BE
  5
E0
331
38E
  5
840
331
3A9
  5
85D
331
3BA
  5
86E
331
88A
  5
2B1
331
129
  5
143
331
502
  5
8CF
331
13A
  5
154
331
879
  5
39F
331
3CB
  5
87F
331
28B
  5
2EE
331
513
  5
8E3
331
3DC
  5
890
331
8AC
  5
1DC
331
2AD
  5
32B
331
8BD
  5
1FA
331
3FE
  5
8AC
331
8DF
  5
8EF
331
2BE
  5
33C
331
2CF
  5
371
331
1AF
  5
215
331
CF
  5
10E
331
8CE
  5
20B
331
29C
  5
31A
331
14B
  5
1A7
331
89B
  5
1CB
331
8E0
  5
8EA
331
2D0
  5
372
331
1B0
  5
216
331
311
  5
3AA
331
D0
  5
10F
331
2E1
  5
383
331
322
  5
3BB
331
1C1
  5
227
331
2F2
  5
394
331
8EA
  5
CE
331
333
  5
3CC
331
1D2
  5
24C
331
20B
  5
27D
331
36D
  5
412
331
21C
  5
28E
331
1E3
  5
262
331
22D
  5
29F
331
37E
  5
508
331
23E
  5
2AA
331
84F
  5
8A8
331
DE
  5
119
331
F7
  5
120
331
860
  5
400
331
260
  5
2C3
331
399
  5
84D
331
271
  5
2D4
331
411
  5
8BF
331
119
  5
133
331
108
  5
124
331
BF
  5
E1
331
38F
  5
841
331
3AA
  5
85E
331
3BB
  5
86F
331
88B
  5
2AB
331
12A
  5
144
331
503
  5
8D0
331
13B
  5
155
331
87A
  5
3A0
331
205
  5
277
331
3CC
  5
880
331
28C
  5
2EF
331
514
  5
8E4
331
3DD
  5
891
331
8AD
  5
1DD
331
2AE
  5
32C
331
8BE
  5
1FB
331
3FF
  5
8AD
331
2BF
  5
361
331
8CF
  5
20C
331
29D
  5
31B
331
14C
  5
1A8
331
89C
  5
1CC
331
400
  5
8AE
331
8D0
  5
CF
331
2C0
  5
362
331
8E1
  5
8EB
331
C0
  5
E2
331
2D1
  5
373
331
1B1
  5
217
331
312
  5
3AB
331
D1
  5
110
331
2E2
  5
384
331
323
  5
3BC
331
1C2
  5
228
331
2F3
  5
395
331
334
  5
3CD
331
1D3
  5
24D
331
8EB
  5
CB
331
20C
  5
27E
331
36E
  5
413
331
21D
  5
28F
331
22E
  5
2A0
331
83F
  5
8E7
331
37F
  5
509
331
850
  5
8A9
331
DF
  5
11A
331
261
  5
2C4
331
39A
  5
84E
331
272
  5
2D5
331
412
  5
8C0
331
3AB
  5
85F
331
87B
  5
3A1
331
423
  5
8CB
331
12B
  5
145
331
11A
  5
134
331
109
  5
125
331
861
  5
401
331
3BC
  5
870
331
504
  5
8D1
331
13C
  5
156
331
3CD
  5
881
331
89D
  5
1CD
331
515
  5
8E5
331
14D
  5
1A9
331
3DE
  5
892
331
29E
  5
31C
331
2AF
  5
32D
331
8BF
  5
1FC
331
8AE
  5
1DE
331
28D
  5
2F0
331
88C
  5
2AC
331
206
  5
278
331
1E4
  5
263
331
2B0
  5
32E
331
8C0
  5
1FD
331
158
  5
1B4
331
401
  5
8AF
331
8D1
  5
D0
331
8E2
  5
8EC
331
2C1
  5
363
331
2D2
  5
374
331
313
  5
3AC
331
D2
  5
111
331
2E3
  5
385
331
324
  5
3BD
331
1C3
  5
229
331
1B2
  5
218
331
2F4
  5
396
331
335
  5
3CE
331
1D4
  5
24E
331
20D
  5
27F
331
36F
  5
414
331
21E
  5
290
331
1E5
  5
264
331
840
  5
8E8
331
207
  5
279
331
8EC
  5
CC
331
851
  5
89E
331
E0
  5
11B
331
862
  5
402
331
39B
  5
84F
331
273
  5
2D6
331
413
  5
8C1
331
3AC
  5
860
331
87C
  5
3A2
331
424
  5
8CC
331
3BD
  5
871
331
88D
  5
2A6
331
12C
  5
146
331
11B
  5
135
331
262
  5
2C5
331
505
  5
8D2
331
3CE
  5
882
331
89E
  5
1CE
331
28E
  5
2F1
331
516
  5
8E6
331
14E
  5
1AA
331
3DF
  5
893
331
29F
  5
31D
331
8AF
  5
1DF
331
13D
  5
157
331
380
  5
50A
331
3E0
  5
894
331
8B0
  5
1E0
331
2A0
  5
31E
331
2B1
  5
32F
331
8C1
  5
1FE
331
159
  5
1B5
331
402
  5
8B0
331
8D2
  5
D1
331
2C2
  5
364
331
2D3
  5
375
331
8E3
  5
DC
331
314
  5
3AD
331
2E4
  5
386
331
325
  5
3BE
331
1C4
  5
22A
331
336
  5
3CF
331
1D5
  5
254
331
8ED
  5
CD
331
1B3
  5
219
331
841
  5
8E9
331
370
  5
415
331
21F
  5
291
331
381
  5
50B
331
852
  5
89F
331
E1
  5
11C
331
863
  5
403
331
39C
  5
850
331
263
  5
2C6
331
414
  5
8C2
331
11C
  5
136
331
3AD
  5
861
331
425
  5
8CD
331
12D
  5
147
331
3BE
  5
872
331
88E
  5
2A7
331
87D
  5
3A3
331
274
  5
2D7
331
20E
  5
280
331
506
  5
8D3
331
3CF
  5
883
331
89F
  5
1CF
331
28F
  5
2F2
331
14F
  5
1AB
331
13E
  5
158
331
3D0
  5
884
331
8A0
  5
1D0
331
290
  5
2F3
331
3E1
  5
895
331
8B1
  5
1E1
331
150
  5
1AC
331
2A1
  5
31F
331
2B2
  5
330
331
8C2
  5
1FF
331
403
  5
8B1
331
15A
  5
1B6
331
2C3
  5
365
331
C3
  5
E3
331
2D4
  5
376
331
315
  5
3AE
331
1B4
  5
21A
331
2E5
  5
387
331
326
  5
3BF
331
1C5
  5
22B
331
337
  5
3D0
331
1D6
  5
255
331
220
  5
292
331
20F
  5
281
331
382
  5
50C
331
371
  5
41B
331
1F8
  5
26A
331
853
  5
8A0
331
E2
  5
11D
331
8EE
  5
C3
331
8E4
  5
D9
331
264
  5
2C7
331
39D
  5
851
331
275
  5
2D8
331
415
  5
8C3
331
3AE
  5
862
331
87E
  5
3A4
331
426
  5
8CE
331
12E
  5
148
331
11D
  5
137
331
10C
  5
126
331
3BF
  5
873
331
507
  5
8D4
331
13F
  5
159
331
88F
  5
2A1
331
864
  5
404
331
3C0
  5
874
331
890
  5
2A2
331
280
  5
2E3
331
508
  5
8D5
331
140
  5
15A
331
3D1
  5
885
331
8A1
  5
1D1
331
291
  5
2F4
331
3E2
  5
896
331
8B2
  5
1E2
331
151
  5
1AD
331
2A2
  5
320
331
2B3
  5
331
331
8C3
  5
200
331
404
  5
8B2
331
15B
  5
1B7
331
2C4
  5
366
331
2D5
  5
377
331
316
  5
3AF
331
1B5
  5
21B
331
327
  5
3C0
331
1C6
  5
22C
331
338
  5
3D1
331
1D7
  5
256
331
361
  5
406
331
210
  5
282
331
8EF
  5
C5
331
383
  5
50D
331
372
  5
41C
331
1F9
  5
26B
331
854
  5
8A1
331
E3
  5
11E
331
865
  5
405
331
254
  5
2B7
331
39E
  5
852
331
10D
  5
127
331
3AF
  5
863
331
87F
  5
397
331
11E
  5
138
331
12F
  5
149
331
276
  5
2D9
331
265
  5
2C8
331
221
  5
293
331
2E6
  5
388
331
8E5
  5
DA
331
3B0
  5
864
331
880
  5
398
331
3C1
  5
875
331
891
  5
1C1
331
130
  5
14A
331
281
  5
2E4
331
509
  5
8D6
331
141
  5
15B
331
3D2
  5
886
331
8A2
  5
1D2
331
292
  5
310
331
3E3
  5
897
331
8B3
  5
1E3
331
152
  5
1AE
331
2A3
  5
321
331
2B4
  5
332
331
8C4
  5
201
331
405
  5
8B3
331
2C5
  5
367
331
2D6
  5
378
331
8E6
  5
DB
331
317
  5
3B0
331
1B6
  5
21C
331
328
  5
3C1
331
1C7
  5
22D
331
339
  5
3D2
331
1D8
  5
257
331
362
  5
407
331
211
  5
283
331
222
  5
294
331
384
  5
50E
331
373
  5
41D
331
1FA
  5
26C
331
8F0
  5
C7
331
2E7
  5
389
331
C5
  5
F5
331
15C
  5
1B8
331
855
  5
8A2
331
255
  5
2B8
331
866
  5
3D6
331
266
  5
2C9
331
39F
  5
853
331
277
  5
2DA
331
11F
  5
139
331
10E
  5
128
331
FD
  5
121
331
244
  5
2AD
  0
DICTIONARY
  5
65F
102
{ACAD_REACTORS
330
65E
102
}
330
65E
100
AcDbDictionary
281
     1
  3
ACDB_ANNOTATIONSCALES
350
660
  0
XRECORD
  5
8F6
102
{ACAD_REACTORS
330
8F4
102
}
330
8F4
100
AcDbXrecord
280
     1
 70
     2
  0
XRECORD
  5
8F5
102
{ACAD_REACTORS
330
8F4
102
}
330
8F4
100
AcDbXrecord
280
     1
 40
1.25
  0
XRECORD
  5
8F7
102
{ACAD_REACTORS
330
8F4
102
}
330
8F4
100
AcDbXrecord
280
     1
 40
1.570796326794896
  0
LAYOUT
  5
6E
102
{ACAD_XDICTIONARY
360
92B
102
}
102
{ACAD_REACTORS
330
61
102
}
330
61
100
AcDbPlotSettings
  1

  2
FX DP 205
  4

  6

 40
0.0
 41
0.0
 42
0.0
 43
0.0
 44
0.0
 45
0.0
 46
0.0
 47
0.0
 48
0.0
 49
0.0
140
0.0
141
0.0
142
1.0
143
1.0
 70
  1712
 72
     0
 73
     0
 74
     0
  7

 75
     0
147
1.0
148
0.0
149
0.0
100
AcDbLayout
  1
Model
 70
     1
 71
     0
 10
0.0
 20
0.0
 11
12.0
 21
9.0
 12
0.0
 22
0.0
 32
0.0
 14
0.0
 24
0.0
 34
0.0
 15
0.0
 25
0.0
 35
0.0
146
0.0
 13
0.0
 23
0.0
 33
0.0
 16
1.0
 26
0.0
 36
0.0
 17
0.0
 27
1.0
 37
0.0
 76
     0
330
6B
331
8B
  0
LAYOUT
  5
6A
102
{ACAD_XDICTIONARY
360
929
102
}
102
{ACAD_REACTORS
330
61
102
}
330
61
100
AcDbPlotSettings
  1

  2
FX DP 205
  4

  6

 40
0.0
 41
0.0
 42
0.0
 43
0.0
 44
0.0
 45
0.0
 46
0.0
 47
0.0
 48
0.0
 49
0.0
140
0.0
141
0.0
142
1.0
143
1.0
 70
   688
 72
     0
 73
     0
 74
     5
  7

 75
    16
147
1.0
148
0.0
149
0.0
100
AcDbLayout
  1
レイアウト1
 70
     1
 71
     1
 10
0.0
 20
0.0
 11
12.0
 21
9.0
 12
0.0
 22
0.0
 32
0.0
 14
1.000000000000000E+20
 24
1.000000000000000E+20
 34
1.000000000000000E+20
 15
-1.000000000000000E+20
 25
-1.000000000000000E+20
 35
-1.000000000000000E+20
146
0.0
 13
0.0
 23
0.0
 33
0.0
 16
1.0
 26
0.0
 36
0.0
 17
0.0
 27
1.0
 37
0.0
 76
     0
330
67
  0
MATERIAL
  5
19
102
{ACAD_XDICTIONARY
360
1A
102
}
102
{ACAD_REACTORS
330
10
102
}
330
10
100
AcDbMaterial
  1
ByBlock
 72
     0
 43
0.0208333333333333
 43
0.0
 43
0.0
 43
0.0
 43
0.0
 43
0.0208333333333333
 43
0.0
 43
0.0
 43
0.0
 43
0.0
 43
1.0
 43
0.0
 43
0.0
 43
0.0
 43
0.0
 43
1.0
 77
     0
 47
0.0208333333333333
 47
0.0
 47
0.0
 47
0.0
 47
0.0
 47
0.0208333333333333
 47
0.0
 47
0.0
 47
0.0
 47
0.0
 47
1.0
 47
0.0
 47
0.0
 47
0.0
 47
0.0
 47
1.0
171
     0
 49
0.0208333333333333
 49
0.0
 49
0.0
 49
0.0
 49
0.0
 49
0.0208333333333333
 49
0.0
 49
0.0
 49
0.0
 49
0.0
 49
1.0
 49
0.0
 49
0.0
 49
0.0
 49
0.0
 49
1.0
175
     0
142
0.0208333333333333
142
0.0
142
0.0
142
0.0
142
0.0
142
0.0208333333333333
142
0.0
142
0.0
142
0.0
142
0.0
142
1.0
142
0.0
142
0.0
142
0.0
142
0.0
142
1.0
179
     0
144
0.0208333333333333
144
0.0
144
0.0
144
0.0
144
0.0
144
0.0208333333333333
144
0.0
144
0.0
144
0.0
144
0.0
144
1.0
144
0.0
144
0.0
144
0.0
144
0.0
144
1.0
147
0.0208333333333333
147
0.0
147
0.0
147
0.0
147
0.0
147
0.0208333333333333
147
0.0
147
0.0
147
0.0
147
0.0
147
1.0
147
0.0
147
0.0
147
0.0
147
0.0
147
1.0
  0
MATERIAL
  5
11
102
{ACAD_XDICTIONARY
360
12
102
}
102
{ACAD_REACTORS
330
10
102
}
330
10
100
AcDbMaterial
  1
ByLayer
 72
     0
 43
0.0208333333333333
 43
0.0
 43
0.0
 43
0.0
 43
0.0
 43
0.0208333333333333
 43
0.0
 43
0.0
 43
0.0
 43
0.0
 43
1.0
 43
0.0
 43
0.0
 43
0.0
 43
0.0
 43
1.0
 77
     0
 47
0.0208333333333333
 47
0.0
 47
0.0
 47
0.0
 47
0.0
 47
0.0208333333333333
 47
0.0
 47
0.0
 47
0.0
 47
0.0
 47
1.0
 47
0.0
 47
0.0
 47
0.0
 47
0.0
 47
1.0
171
     0
 49
0.0208333333333333
 49
0.0
 49
0.0
 49
0.0
 49
0.0
 49
0.0208333333333333
 49
0.0
 49
0.0
 49
0.0
 49
0.0
 49
1.0
 49
0.0
 49
0.0
 49
0.0
 49
0.0
 49
1.0
175
     0
142
0.0208333333333333
142
0.0
142
0.0
142
0.0
142
0.0
142
0.0208333333333333
142
0.0
142
0.0
142
0.0
142
0.0
142
1.0
142
0.0
142
0.0
142
0.0
142
0.0
142
1.0
179
     0
144
0.0208333333333333
144
0.0
144
0.0
144
0.0
144
0.0
144
0.0208333333333333
144
0.0
144
0.0
144
0.0
144
0.0
144
1.0
144
0.0
144
0.0
144
0.0
144
0.0
144
1.0
147
0.0208333333333333
147
0.0
147
0.0
147
0.0
147
0.0
147
0.0208333333333333
147
0.0
147
0.0
147
0.0
147
0.0
147
1.0
147
0.0
147
0.0
147
0.0
147
0.0
147
1.0
  0
MATERIAL
  5
21
102
{ACAD_XDICTIONARY
360
22
102
}
102
{ACAD_REACTORS
330
10
102
}
330
10
100
AcDbMaterial
  1
Global
 72
     0
 43
0.0208333333333333
 43
0.0
 43
0.0
 43
0.0
 43
0.0
 43
0.0208333333333333
 43
0.0
 43
0.0
 43
0.0
 43
0.0
 43
1.0
 43
0.0
 43
0.0
 43
0.0
 43
0.0
 43
1.0
 77
     0
 47
0.0208333333333333
 47
0.0
 47
0.0
 47
0.0
 47
0.0
 47
0.0208333333333333
 47
0.0
 47
0.0
 47
0.0
 47
0.0
 47
1.0
 47
0.0
 47
0.0
 47
0.0
 47
0.0
 47
1.0
171
     0
 49
0.0208333333333333
 49
0.0
 49
0.0
 49
0.0
 49
0.0
 49
0.0208333333333333
 49
0.0
 49
0.0
 49
0.0
 49
0.0
 49
1.0
 49
0.0
 49
0.0
 49
0.0
 49
0.0
 49
1.0
175
     0
142
0.0208333333333333
142
0.0
142
0.0
142
0.0
142
0.0
142
0.0208333333333333
142
0.0
142
0.0
142
0.0
142
0.0
142
1.0
142
0.0
142
0.0
142
0.0
142
0.0
142
1.0
179
     0
144
0.0208333333333333
144
0.0
144
0.0
144
0.0
144
0.0
144
0.0208333333333333
144
0.0
144
0.0
144
0.0
144
0.0
144
1.0
144
0.0
144
0.0
144
0.0
144
0.0
144
1.0
147
0.0208333333333333
147
0.0
147
0.0
147
0.0
147
0.0
147
0.0208333333333333
147
0.0
147
0.0
147
0.0
147
0.0
147
1.0
147
0.0
147
0.0
147
0.0
147
0.0
147
1.0
  0
MLEADERSTYLE
  5
66
102
{ACAD_REACTORS
330
65
102
}
330
65
100
AcDbMLeaderStyle
170
     2
171
     1
172
     0
 90
        2
 40
0.0
 41
0.0
173
     1
 91
-1056964608
340
5A
 92
       -2
290
     1
 42
0.09
291
     1
 43
0.36
  3
Standard
 44
0.18
300

342
55
174
     1
178
     6
175
     1
176
     0
 93
-1056964608
 45
0.18
292
     0
297
     0
 46
0.18
 94
-1056964608
 47
1.0
 49
1.0
140
1.0
293
     1
141
0.0
294
     1
177
     0
142
1.0
295
     0
296
     0
143
0.125
1001
ACAD_MLEADERVER
1070
     2
  0
MLINESTYLE
  5
5F
102
{ACAD_REACTORS
330
5E
102
}
330
5E
100
AcDbMlineStyle
  2
STANDARD
 70
     0
  3

 62
   256
 51
90.0
 52
90.0
 71
     2
 49
0.5
 62
   256
  6
BYLAYER
 49
-0.5
 62
   256
  6
BYLAYER
  0
ACDBPLACEHOLDER
  5
F
102
{ACAD_REACTORS
330
E
102
}
330
E
  0
SCALE
  5
43
102
{ACAD_REACTORS
330
42
102
}
330
42
100
AcDbScale
 70
     0
300
1:1
140
1.0
141
1.0
290
     1
  0
SCALE
  5
44
102
{ACAD_REACTORS
330
42
102
}
330
42
100
AcDbScale
 70
     0
300
1/128" = 1'-0"
140
0.0078125
141
12.0
290
     0
  0
SCALE
  5
45
102
{ACAD_REACTORS
330
42
102
}
330
42
100
AcDbScale
 70
     0
300
1/64" = 1'-0"
140
0.015625
141
12.0
290
     0
  0
SCALE
  5
46
102
{ACAD_REACTORS
330
42
102
}
330
42
100
AcDbScale
 70
     0
300
1/32" = 1'-0"
140
0.03125
141
12.0
290
     0
  0
SCALE
  5
47
102
{ACAD_REACTORS
330
42
102
}
330
42
100
AcDbScale
 70
     0
300
1/16" = 1'-0"
140
0.0625
141
12.0
290
     0
  0
SCALE
  5
48
102
{ACAD_REACTORS
330
42
102
}
330
42
100
AcDbScale
 70
     0
300
3/32" = 1'-0"
140
0.09375
141
12.0
290
     0
  0
SCALE
  5
49
102
{ACAD_REACTORS
330
42
102
}
330
42
100
AcDbScale
 70
     0
300
1/8" = 1'-0"
140
0.125
141
12.0
290
     0
  0
SCALE
  5
4A
102
{ACAD_REACTORS
330
42
102
}
330
42
100
AcDbScale
 70
     0
300
3/16" = 1'-0"
140
0.1875
141
12.0
290
     0
  0
SCALE
  5
4B
102
{ACAD_REACTORS
330
42
102
}
330
42
100
AcDbScale
 70
     0
300
1/4" = 1'-0"
140
0.25
141
12.0
290
     0
  0
SCALE
  5
4C
102
{ACAD_REACTORS
330
42
102
}
330
42
100
AcDbScale
 70
     0
300
3/8" = 1'-0"
140
0.375
141
12.0
290
     0
  0
SCALE
  5
4D
102
{ACAD_REACTORS
330
42
102
}
330
42
100
AcDbScale
 70
     0
300
1/2" = 1'-0"
140
0.5
141
12.0
290
     0
  0
SCALE
  5
4E
102
{ACAD_REACTORS
330
42
102
}
330
42
100
AcDbScale
 70
     0
300
3/4" = 1'-0"
140
0.75
141
12.0
290
     0
  0
SCALE
  5
4F
102
{ACAD_REACTORS
330
42
102
}
330
42
100
AcDbScale
 70
     0
300
1" = 1'-0"
140
1.0
141
12.0
290
     0
  0
SCALE
  5
50
102
{ACAD_REACTORS
330
42
102
}
330
42
100
AcDbScale
 70
     0
300
1-1/2" = 1'-0"
140
1.5
141
12.0
290
     0
  0
SCALE
  5
51
102
{ACAD_REACTORS
330
42
102
}
330
42
100
AcDbScale
 70
     0
300
3" = 1'-0"
140
3.0
141
12.0
290
     0
  0
SCALE
  5
52
102
{ACAD_REACTORS
330
42
102
}
330
42
100
AcDbScale
 70
     0
300
6" = 1'-0"
140
6.0
141
12.0
290
     0
  0
SCALE
  5
53
102
{ACAD_REACTORS
330
42
102
}
330
42
100
AcDbScale
 70
     0
300
1'-0" = 1'-0"
140
12.0
141
12.0
290
     0
  0
TABLESTYLE
  5
64
102
{ACAD_XDICTIONARY
360
699
102
}
102
{ACAD_REACTORS
330
63
102
}
330
63
100
AcDbTableStyle
  3
Standard
 70
     0
 71
     0
 40
0.06
 41
0.06
280
     0
281
     0
  7
STANDARD
140
0.18
170
     2
 62
     0
 63
     7
283
     0
274
    -2
284
     1
 64
     0
275
    -2
285
     1
 65
     0
276
    -2
286
     1
 66
     0
277
    -2
287
     1
 67
     0
278
    -2
288
     1
 68
     0
279
    -2
289
     1
 69
     0
  7
STANDARD
140
0.25
170
     5
 62
     0
 63
     7
283
     0
274
    -2
284
     1
 64
     0
275
    -2
285
     1
 65
     0
276
    -2
286
     1
 66
     0
277
    -2
287
     1
 67
     0
278
    -2
288
     1
 68
     0
279
    -2
289
     1
 69
     0
  7
STANDARD
140
0.18
170
     5
 62
     0
 63
     7
283
     0
274
    -2
284
     1
 64
     0
275
    -2
285
     1
 65
     0
276
    -2
286
     1
 66
     0
277
    -2
287
     1
 67
     0
278
    -2
288
     1
 68
     0
279
    -2
289
     1
 69
     0
  0
VISUALSTYLE
  5
2F
102
{ACAD_XDICTIONARY
360
902
102
}
102
{ACAD_REACTORS
330
29
102
}
330
29
100
AcDbVisualStyle
  2

 70
     4
 71
     0
 72
     2
 73
     0
 90
        0
 40
-0.6
 41
-30.0
 62
     5
 63
     7
 74
     1
 91
        4
 64
     7
 65
   257
 75
     1
175
     1
 42
1.0
 92
        0
 66
   257
 43
1.0
 76
     1
 77
     6
 78
     2
 67
     7
 79
     5
170
     0
171
     0
290
     0
174
     0
 93
        1
 44
0.0
173
     0
291
     0
 45
0.0
1001
ACAD
1000
AcDbSavedByObjectVersion
1070
     0
  0
VISUALSTYLE
  5
4CC
102
{ACAD_XDICTIONARY
360
92D
102
}
102
{ACAD_REACTORS
330
29
102
}
330
29
100
AcDbVisualStyle
  2

 70
     5
 71
     0
 72
     2
 73
     1
 90
        0
 40
-0.6
 41
-30.0
 62
     5
 63
     7
 74
     1
 91
        4
 64
     7
 65
   257
 75
     1
175
     1
 42
1.0
 92
        0
 66
   257
 43
1.0
 76
     1
 77
     6
 78
     2
 67
     7
 79
     5
170
     0
171
     0
290
     0
174
     0
 93
        1
 44
0.0
173
     0
291
     0
 45
0.0
1001
ACAD
1000
AcDbSavedByObjectVersion
1070
     0
  0
VISUALSTYLE
  5
2E
102
{ACAD_XDICTIONARY
360
900
102
}
102
{ACAD_REACTORS
330
29
102
}
330
29
100
AcDbVisualStyle
  2

 70
     7
 71
     1
 72
     0
 73
     1
 90
        0
 40
-0.6
 41
-30.0
 62
     5
 63
     7
 74
     0
 91
        4
 64
     7
 65
   257
 75
     1
175
     1
 42
1.0
 92
        8
 66
     7
 43
1.0
 76
     1
 77
     6
 78
     2
 67
     7
 79
     5
170
     0
171
     0
290
     0
174
     0
 93
        1
 44
0.0
173
     0
291
     1
 45
0.0
1001
ACAD
1000
AcDbSavedByObjectVersion
1070
     0
  0
VISUALSTYLE
  5
35
102
{ACAD_XDICTIONARY
360
90E
102
}
102
{ACAD_REACTORS
330
29
102
}
330
29
100
AcDbVisualStyle
  2

 70
    12
 71
     2
 72
     2
 73
     0
 90
        0
 40
-0.6
 41
-30.0
 62
     5
 63
     7
 74
     1
 91
        4
 64
     7
 65
   257
 75
     1
175
     1
 42
1.0
 92
        8
 66
     7
 43
1.0
 76
     1
 77
     6
 78
     2
 67
     7
 79
     5
170
     0
171
     0
290
     0
174
     0
 93
        1
 44
50.0
173
     0
291
     1
 45
0.0
1001
ACAD
1000
AcDbSavedByObjectVersion
1070
     0
  0
VISUALSTYLE
  5
39
102
{ACAD_XDICTIONARY
360
916
102
}
102
{ACAD_REACTORS
330
29
102
}
330
29
100
AcDbVisualStyle
  2

 70
    16
 71
     2
 72
     2
 73
     3
 90
        0
 40
-0.6
 41
-30.0
 62
     5
 63
     8
 74
     1
 91
        4
 64
     7
 65
   257
 75
     1
175
     1
 42
1.0
 92
        8
 66
     8
 43
1.0
 76
     1
 77
     6
 78
     2
 67
     7
 79
     5
170
     0
171
     0
290
     0
174
     0
 93
        1
 44
0.0
173
     0
291
     1
 45
0.0
1001
ACAD
1000
AcDbSavedByObjectVersion
1070
     0
  0
VISUALSTYLE
  5
32
102
{ACAD_XDICTIONARY
360
908
102
}
102
{ACAD_REACTORS
330
29
102
}
330
29
100
AcDbVisualStyle
  2

 70
     9
 71
     3
 72
     2
 73
     0
 90
        0
 40
-0.6
 41
-30.0
 62
     5
 63
     7
 74
     2
 91
        2
 64
     7
 65
   257
 75
     1
175
     1
 42
179.0
 92
        8
 66
     7
 43
1.0
 76
     1
 77
     6
 78
     2
 67
     7
 79
     3
170
     0
171
     0
290
     0
174
     0
 93
        1
 44
0.0
173
     0
291
     0
 45
0.0
1001
ACAD
1000
AcDbSavedByObjectVersion
1070
     0
  0
VISUALSTYLE
  5
34
102
{ACAD_XDICTIONARY
360
90C
102
}
102
{ACAD_REACTORS
330
29
102
}
330
29
100
AcDbVisualStyle
  2

 70
    11
 71
     2
 72
     2
 73
     0
 90
        0
 40
-0.6
 41
-30.0
 62
     5
 63
     7
 74
     1
 91
        4
 64
     7
 65
   257
 75
     1
175
     1
 42
1.0
 92
        8
 66
     7
 43
1.0
 76
     1
 77
     6
 78
     2
 67
     7
 79
     5
170
     0
171
     0
290
     0
174
     0
 93
        1
 44
-50.0
173
     0
291
     1
 45
0.0
1001
ACAD
1000
AcDbSavedByObjectVersion
1070
     0
  0
VISUALSTYLE
  5
41
102
{ACAD_XDICTIONARY
360
926
102
}
102
{ACAD_REACTORS
330
29
102
}
330
29
100
AcDbVisualStyle
  2

 70
    22
 71
     2
 72
     2
 73
     0
 90
        0
 40
-0.6
 41
-30.0
 62
     5
 63
     7
 74
     1
 91
        4
 64
     7
 65
   257
 75
     1
175
     1
 42
1.0
 92
        8
 66
     7
 43
1.0
 76
     1
 77
     6
 78
     2
 67
     7
 79
     5
170
     0
171
     0
290
     0
174
     0
 93
        1
 44
0.0
173
     0
291
     1
 45
0.0
1001
ACAD
1000
AcDbSavedByObjectVersion
1070
     0
  0
VISUALSTYLE
  5
38
102
{ACAD_XDICTIONARY
360
914
102
}
102
{ACAD_REACTORS
330
29
102
}
330
29
100
AcDbVisualStyle
  2

 70
    15
 71
     2
 72
     2
 73
     0
 90
        0
 40
-0.6
 41
-30.0
 62
     5
 63
     7
 74
     1
 91
        4
 64
     7
 65
   257
 75
     1
175
     1
 42
1.0
 92
        8
 66
     7
 43
1.0
 76
     1
 77
     6
 78
     2
 67
     7
 79
     5
170
     0
171
     0
290
     0
174
     0
 93
        1
 44
0.0
173
     0
291
     1
 45
0.0
1001
ACAD
1000
AcDbSavedByObjectVersion
1070
     0
  0
VISUALSTYLE
  5
2A
102
{ACAD_XDICTIONARY
360
8F8
102
}
102
{ACAD_REACTORS
330
29
102
}
330
29
100
AcDbVisualStyle
  2

 70
     0
 71
     2
 72
     1
 73
     1
 90
        2
 40
-0.6
 41
30.0
 62
     5
 63
     7
 74
     0
 91
        0
 64
     7
 65
   257
 75
     1
175
     1
 42
1.0
 92
        8
 66
     7
 43
1.0
 76
     1
 77
     6
 78
     2
 67
     7
 79
     5
170
     0
171
     0
290
     0
174
     0
 93
       13
 44
0.0
173
     0
291
     1
 45
0.0
1001
ACAD
1000
AcDbSavedByObjectVersion
1070
     0
  0
VISUALSTYLE
  5
2B
102
{ACAD_XDICTIONARY
360
8FA
102
}
102
{ACAD_REACTORS
330
29
102
}
330
29
100
AcDbVisualStyle
  2

 70
     1
 71
     2
 72
     1
 73
     1
 90
        2
 40
-0.6
 41
30.0
 62
     5
 63
     7
 74
     1
 91
        0
 64
     7
 65
   257
 75
     1
175
     1
 42
1.0
 92
        0
 66
   257
 43
1.0
 76
     1
 77
     6
 78
     2
 67
     7
 79
     5
170
     0
171
     0
290
     0
174
     0
 93
       13
 44
0.0
173
     0
291
     1
 45
0.0
1001
ACAD
1000
AcDbSavedByObjectVersion
1070
     0
  0
VISUALSTYLE
  5
2C
102
{ACAD_XDICTIONARY
360
8FC
102
}
102
{ACAD_REACTORS
330
29
102
}
330
29
100
AcDbVisualStyle
  2

 70
     2
 71
     2
 72
     2
 73
     1
 90
        2
 40
-0.6
 41
30.0
 62
     5
 63
     7
 74
     0
 91
        0
 64
     7
 65
   257
 75
     1
175
     1
 42
1.0
 92
        0
 66
     7
 43
1.0
 76
     1
 77
     6
 78
     2
 67
     7
 79
     5
170
     0
171
     0
290
     0
174
     0
 93
       13
 44
0.0
173
     0
291
     1
 45
0.0
1001
ACAD
1000
AcDbSavedByObjectVersion
1070
     0
  0
VISUALSTYLE
  5
2D
102
{ACAD_XDICTIONARY
360
8FE
102
}
102
{ACAD_REACTORS
330
29
102
}
330
29
100
AcDbVisualStyle
  2

 70
     3
 71
     2
 72
     2
 73
     1
 90
        2
 40
-0.6
 41
30.0
 62
     5
 63
     7
 74
     1
 91
        0
 64
     7
 65
   257
 75
     1
175
     1
 42
1.0
 92
        0
 66
   257
 43
1.0
 76
     1
 77
     6
 78
     2
 67
     7
 79
     5
170
     0
171
     0
290
     0
174
     0
 93
       13
 44
0.0
173
     0
291
     1
 45
0.0
1001
ACAD
1000
AcDbSavedByObjectVersion
1070
     0
  0
VISUALSTYLE
  5
31
102
{ACAD_XDICTIONARY
360
906
102
}
102
{ACAD_REACTORS
330
29
102
}
330
29
100
AcDbVisualStyle
  2

 70
     6
 71
     1
 72
     2
 73
     2
 90
        0
 40
-0.6
 41
-30.0
 62
     5
 63
     7
 74
     2
 91
        2
 64
     7
 65
   257
 75
     2
175
     1
 42
40.0
 92
        0
 66
   257
 43
1.0
 76
     1
 77
     6
 78
     2
 67
     7
 79
     3
170
     0
171
     0
290
     0
174
     0
 93
        1
 44
0.0
173
     0
291
     0
 45
0.0
1001
ACAD
1000
AcDbSavedByObjectVersion
1070
     0
  0
VISUALSTYLE
  5
3F
102
{ACAD_XDICTIONARY
360
922
102
}
102
{ACAD_REACTORS
330
29
102
}
330
29
100
AcDbVisualStyle
  2

 70
    20
 71
     2
 72
     2
 73
     0
 90
        0
 40
-0.6
 41
-30.0
 62
     5
 63
     7
 74
     1
 91
        4
 64
     7
 65
   257
 75
     1
175
     1
 42
1.0
 92
       10
 66
     7
 43
1.0
 76
     1
 77
     6
 78
     2
 67
     7
 79
     5
170
     0
171
     0
290
     0
174
     0
 93
        1
 44
0.0
173
     0
291
     1
 45
0.0
1001
ACAD
1000
AcDbSavedByObjectVersion
1070
     0
  0
VISUALSTYLE
  5
37
102
{ACAD_XDICTIONARY
360
912
102
}
102
{ACAD_REACTORS
330
29
102
}
330
29
100
AcDbVisualStyle
  2

 70
    14
 71
     2
 72
     2
 73
     0
 90
        0
 40
-0.6
 41
-30.0
 62
     5
 63
     7
 74
     1
 91
        4
 64
     7
 65
   257
 75
     7
175
     7
 42
1.0
 92
        8
 66
     7
 43
1.0
 76
     1
 77
     6
 78
     2
 67
     7
 79
     5
170
     0
171
     0
290
     0
174
     0
 93
        1
 44
0.0
173
     0
291
     1
 45
0.0
1001
ACAD
1000
AcDbSavedByObjectVersion
1070
     0
  0
VISUALSTYLE
  5
40
102
{ACAD_XDICTIONARY
360
924
102
}
102
{ACAD_REACTORS
330
29
102
}
330
29
100
AcDbVisualStyle
  2

 70
    21
 71
     2
 72
     2
 73
     0
 90
        0
 40
-0.6
 41
-30.0
 62
     5
 63
     7
 74
     1
 91
        4
 64
     7
 65
   257
 75
     1
175
     1
 42
1.0
 92
        9
 66
     7
 43
1.0
 76
     1
 77
     6
 78
     2
 67
     7
 79
     5
170
     0
171
     0
290
     0
174
     0
 93
        1
 44
0.0
173
     0
291
     1
 45
0.0
1001
ACAD
1000
AcDbSavedByObjectVersion
1070
     0
  0
VISUALSTYLE
  5
33
102
{ACAD_XDICTIONARY
360
90A
102
}
102
{ACAD_REACTORS
330
29
102
}
330
29
100
AcDbVisualStyle
  2

 70
     8
 71
     2
 72
     3
 73
     0
 90
        2
 40
-0.6
 41
30.0
 62
     5
 63
     7
 74
     0
 91
        0
 64
     7
 65
   257
 75
     1
175
     1
 42
1.0
 92
        8
 66
   257
 43
1.0
 76
     1
 77
     6
 78
     2
 67
     7
 79
     3
170
     0
171
     0
290
     0
174
     0
 93
       13
 44
0.0
173
     0
291
     0
 45
0.0
1001
ACAD
1000
AcDbSavedByObjectVersion
1070
     0
  0
VISUALSTYLE
  5
3E
102
{ACAD_XDICTIONARY
360
920
102
}
102
{ACAD_REACTORS
330
29
102
}
330
29
100
AcDbVisualStyle
  2

 70
    27
 71
     2
 72
     2
 73
     1
 90
        2
 40
-0.6
 41
30.0
 62
     5
 63
     7
 74
     0
 91
        4
 64
     7
 65
   257
 75
     1
175
     1
 42
1.0
 92
        8
 66
   257
 43
1.0
 76
     1
 77
     6
 78
     2
 67
     8
 79
     3
170
     0
171
     0
290
     0
174
     0
 93
        5
 44
0.0
173
     0
291
     0
 45
0.0
1001
ACAD
1000
AcDbSavedByObjectVersion
1070
     0
  0
VISUALSTYLE
  5
3D
102
{ACAD_XDICTIONARY
360
91E
102
}
102
{ACAD_REACTORS
330
29
102
}
330
29
100
AcDbVisualStyle
  2

 70
    26
 71
     2
 72
     2
 73
     1
 90
        2
 40
-0.6
 41
30.0
 62
     5
 63
     7
 74
     1
 91
       10
 64
     7
 65
   257
 75
     2
175
     1
 42
1.0
 92
        8
 66
   257
 43
1.0
 76
     1
 77
     6
 78
     2
 67
     7
 79
     3
170
     0
171
     0
290
     0
174
     0
 93
        5
 44
0.0
173
     0
291
     0
 45
0.0
1001
ACAD
1000
AcDbSavedByObjectVersion
1070
     0
  0
VISUALSTYLE
  5
3A
102
{ACAD_XDICTIONARY
360
918
102
}
102
{ACAD_REACTORS
330
29
102
}
330
29
100
AcDbVisualStyle
  2

 70
    23
 71
     2
 72
     2
 73
     3
 90
        0
 40
-0.6
 41
-30.0
 62
     5
 63
     7
 74
     2
 91
        2
 64
     7
 65
     7
 75
     1
175
     1
 42
40.0
 92
        8
 66
     7
 43
1.0
 76
     1
 77
     6
 78
     2
 67
     7
 79
     3
170
     0
171
     0
290
     0
174
     0
 93
        1
 44
0.0
173
     0
291
     0
 45
0.0
1001
ACAD
1000
AcDbSavedByObjectVersion
1070
     0
  0
VISUALSTYLE
  5
3B
102
{ACAD_XDICTIONARY
360
91A
102
}
102
{ACAD_REACTORS
330
29
102
}
330
29
100
AcDbVisualStyle
  2

 70
    24
 71
     1
 72
     2
 73
     2
 90
        0
 40
-0.6
 41
-30.0
 62
     5
 63
     7
 74
     2
 91
        2
 64
     7
 65
     7
 75
     1
175
     1
 42
40.0
 92
       11
 66
     7
 43
1.0
 76
     1
 77
     6
 78
     2
 67
     7
 79
     6
170
     0
171
     0
290
     0
174
     0
 93
        1
 44
0.0
173
     0
291
     0
 45
0.0
1001
ACAD
1000
AcDbSavedByObjectVersion
1070
     0
  0
VISUALSTYLE
  5
36
102
{ACAD_XDICTIONARY
360
910
102
}
102
{ACAD_REACTORS
330
29
102
}
330
29
100
AcDbVisualStyle
  2

 70
    13
 71
     2
 72
     2
 73
     0
 90
        0
 40
-0.6
 41
-30.0
 62
     5
 63
     7
 74
     1
 91
        4
 64
     7
 65
   257
 75
     1
175
     1
 42
1.0
 92
       12
 66
     7
 43
1.0
 76
     1
 77
     6
 78
     2
 67
     7
 79
     5
170
     0
171
     0
290
     0
174
     0
 93
        1
 44
0.0
173
     0
291
     1
 45
0.0
1001
ACAD
1000
AcDbSavedByObjectVersion
1070
     0
  0
VISUALSTYLE
  5
30
102
{ACAD_XDICTIONARY
360
904
102
}
102
{ACAD_REACTORS
330
29
102
}
330
29
100
AcDbVisualStyle
  2

 70
     5
 71
     0
 72
     2
 73
     0
 90
        0
 40
-0.6
 41
-30.0
 62
     5
 63
     7
 74
     1
 91
        4
 64
     7
 65
   257
 75
     1
175
     1
 42
1.0
 92
        0
 66
   257
 43
1.0
 76
     1
 77
     6
 78
     2
 67
     7
 79
     3
170
     0
171
     0
290
     0
174
     0
 93
        1
 44
0.0
173
     0
291
     0
 45
0.0
1001
ACAD
1000
AcDbSavedByObjectVersion
1070
     0
  0
VISUALSTYLE
  5
3C
102
{ACAD_XDICTIONARY
360
91C
102
}
102
{ACAD_REACTORS
330
29
102
}
330
29
100
AcDbVisualStyle
  2

 70
    25
 71
     2
 72
     2
 73
     1
 90
        1
 40
0.5
 41
-30.0
 62
     5
 63
     7
 74
     1
 91
        0
 64
     7
 65
   257
 75
     1
175
     1
 42
1.0
 92
        8
 66
     7
 43
1.0
 76
     1
 77
     6
 78
     2
 67
     7
 79
     3
170
     0
171
     0
290
     0
174
     0
 93
       13
 44
0.0
173
     0
291
     0
 45
0.0
1001
ACAD
1000
AcDbSavedByObjectVersion
1070
     0
  0
DICTIONARYVAR
  5
694
102
{ACAD_REACTORS
330
691
102
}
330
691
100
DictionaryVariables
280
     0
  1
1:1
  0
DICTIONARYVAR
  5
693
102
{ACAD_REACTORS
330
691
102
}
330
691
100
DictionaryVariables
280
     0
  1
STANDARD
  0
DICTIONARYVAR
  5
692
102
{ACAD_REACTORS
330
691
102
}
330
691
100
DictionaryVariables
280
     0
  1
STANDARD
  0
DICTIONARYVAR
  5
697
102
{ACAD_REACTORS
330
691
102
}
330
691
100
DictionaryVariables
280
     0
  1
1
  0
DICTIONARYVAR
  5
696
102
{ACAD_REACTORS
330
691
102
}
330
691
100
DictionaryVariables
280
     0
  1
0
  0
DICTIONARYVAR
  5
695
102
{ACAD_REACTORS
330
691
102
}
330
691
100
DictionaryVariables
280
     0
  1
127
  0
DICTIONARYVAR
  5
708
102
{ACAD_REACTORS
330
691
102
}
330
691
100
DictionaryVariables
280
     0
  1
2
  0
DICTIONARY
  5
660
102
{ACAD_REACTORS
330
65F
102
}
330
65F
100
AcDbDictionary
281
     1
  0
DICTIONARY
  5
92B
330
6E
100
AcDbDictionary
280
     1
281
     1
  3
ACAD_XREC_ROUNDTRIP
360
92C
  0
DICTIONARY
  5
929
330
6A
100
AcDbDictionary
280
     1
281
     1
  3
ACAD_XREC_ROUNDTRIP
360
92A
  0
DICTIONARY
  5
1A
330
19
100
AcDbDictionary
280
     1
281
     1
  3
ACAD_XREC_ROUNDTRIP
360
6A2
  3
BUMPTILE
360
1C
  3
DIFFUSETILE
360
1B
  3
OPACITYTILE
360
1F
  3
REFLECTIONTILE
360
1E
  3
REFRACTIONTILE
360
20
  3
SPECULARTILE
360
1D
  0
DICTIONARY
  5
12
330
11
100
AcDbDictionary
280
     1
281
     1
  3
ACAD_XREC_ROUNDTRIP
360
6A1
  3
BUMPTILE
360
14
  3
DIFFUSETILE
360
13
  3
OPACITYTILE
360
17
  3
REFLECTIONTILE
360
16
  3
REFRACTIONTILE
360
18
  3
SPECULARTILE
360
15
  0
DICTIONARY
  5
22
330
21
100
AcDbDictionary
280
     1
281
     1
  3
ACAD_XREC_ROUNDTRIP
360
6A3
  3
BUMPTILE
360
24
  3
DIFFUSETILE
360
23
  3
OPACITYTILE
360
27
  3
REFLECTIONTILE
360
26
  3
REFRACTIONTILE
360
28
  3
SPECULARTILE
360
25
  0
DICTIONARY
  5
699
330
64
100
AcDbDictionary
280
     1
281
     1
  3
ACAD_ROUNDTRIP_2008_TABLESTYLE_CELLSTYLEMAP
360
8F1
  3
ACAD_XREC_ROUNDTRIP
360
928
  0
DICTIONARY
  5
902
330
2F
100
AcDbDictionary
280
     1
281
     1
  3
ACAD_XREC_ROUNDTRIP
360
903
  0
DICTIONARY
  5
92D
330
4CC
100
AcDbDictionary
280
     1
281
     1
  3
ACAD_XREC_ROUNDTRIP
360
92E
  0
DICTIONARY
  5
900
330
2E
100
AcDbDictionary
280
     1
281
     1
  3
ACAD_XREC_ROUNDTRIP
360
901
  0
DICTIONARY
  5
90E
330
35
100
AcDbDictionary
280
     1
281
     1
  3
ACAD_XREC_ROUNDTRIP
360
90F
  0
DICTIONARY
  5
916
330
39
100
AcDbDictionary
280
     1
281
     1
  3
ACAD_XREC_ROUNDTRIP
360
917
  0
DICTIONARY
  5
908
330
32
100
AcDbDictionary
280
     1
281
     1
  3
ACAD_XREC_ROUNDTRIP
360
909
  0
DICTIONARY
  5
90C
330
34
100
AcDbDictionary
280
     1
281
     1
  3
ACAD_XREC_ROUNDTRIP
360
90D
  0
DICTIONARY
  5
926
330
41
100
AcDbDictionary
280
     1
281
     1
  3
ACAD_XREC_ROUNDTRIP
360
927
  0
DICTIONARY
  5
914
330
38
100
AcDbDictionary
280
     1
281
     1
  3
ACAD_XREC_ROUNDTRIP
360
915
  0
DICTIONARY
  5
8F8
330
2A
100
AcDbDictionary
280
     1
281
     1
  3
ACAD_XREC_ROUNDTRIP
360
8F9
  0
DICTIONARY
  5
8FA
330
2B
100
AcDbDictionary
280
     1
281
     1
  3
ACAD_XREC_ROUNDTRIP
360
8FB
  0
DICTIONARY
  5
8FC
330
2C
100
AcDbDictionary
280
     1
281
     1
  3
ACAD_XREC_ROUNDTRIP
360
8FD
  0
DICTIONARY
  5
8FE
330
2D
100
AcDbDictionary
280
     1
281
     1
  3
ACAD_XREC_ROUNDTRIP
360
8FF
  0
DICTIONARY
  5
906
330
31
100
AcDbDictionary
280
     1
281
     1
  3
ACAD_XREC_ROUNDTRIP
360
907
  0
DICTIONARY
  5
922
330
3F
100
AcDbDictionary
280
     1
281
     1
  3
ACAD_XREC_ROUNDTRIP
360
923
  0
DICTIONARY
  5
912
330
37
100
AcDbDictionary
280
     1
281
     1
  3
ACAD_XREC_ROUNDTRIP
360
913
  0
DICTIONARY
  5
924
330
40
100
AcDbDictionary
280
     1
281
     1
  3
ACAD_XREC_ROUNDTRIP
360
925
  0
DICTIONARY
  5
90A
330
33
100
AcDbDictionary
280
     1
281
     1
  3
ACAD_XREC_ROUNDTRIP
360
90B
  0
DICTIONARY
  5
920
330
3E
100
AcDbDictionary
280
     1
281
     1
  3
ACAD_XREC_ROUNDTRIP
360
921
  0
DICTIONARY
  5
91E
330
3D
100
AcDbDictionary
280
     1
281
     1
  3
ACAD_XREC_ROUNDTRIP
360
91F
  0
DICTIONARY
  5
918
330
3A
100
AcDbDictionary
280
     1
281
     1
  3
ACAD_XREC_ROUNDTRIP
360
919
  0
DICTIONARY
  5
91A
330
3B
100
AcDbDictionary
280
     1
281
     1
  3
ACAD_XREC_ROUNDTRIP
360
91B
  0
DICTIONARY
  5
910
330
36
100
AcDbDictionary
280
     1
281
     1
  3
ACAD_XREC_ROUNDTRIP
360
911
  0
DICTIONARY
  5
904
330
30
100
AcDbDictionary
280
     1
281
     1
  3
ACAD_XREC_ROUNDTRIP
360
905
  0
DICTIONARY
  5
91C
330
3C
100
AcDbDictionary
280
     1
281
     1
  3
ACAD_XREC_ROUNDTRIP
360
91D
  0
XRECORD
  5
92C
102
{ACAD_REACTORS
330
92B
102
}
330
92B
100
AcDbXrecord
280
     1
102
SHADEPLOT
 70
     0
102
SHADEPLOTRESLEVEL
 70
     2
102
SHADEPLOTCUSTOMDPI
 70
   300
  0
XRECORD
  5
92A
102
{ACAD_REACTORS
330
929
102
}
330
929
100
AcDbXrecord
280
     1
102
SHADEPLOT
 70
     0
102
SHADEPLOTRESLEVEL
 70
     2
102
SHADEPLOTCUSTOMDPI
 70
   300
  0
XRECORD
  5
6A2
102
{ACAD_REACTORS
330
1A
102
}
330
1A
100
AcDbXrecord
280
     1
102
MATERIAL
148
0.0
149
0.0
149
0.0
 93
        0
 94
      127
282
     0
 72
     0
 77
     0
171
     0
175
     0
179
     0
273
     0
  0
XRECORD
  5
1C
102
{ACAD_REACTORS
330
1A
102
}
330
1A
100
AcDbXrecord
280
     1
270
     1
271
     1
  0
XRECORD
  5
1B
102
{ACAD_REACTORS
330
1A
102
}
330
1A
100
AcDbXrecord
280
     1
270
     1
271
     1
  0
XRECORD
  5
1F
102
{ACAD_REACTORS
330
1A
102
}
330
1A
100
AcDbXrecord
280
     1
270
     1
271
     1
  0
XRECORD
  5
1E
102
{ACAD_REACTORS
330
1A
102
}
330
1A
100
AcDbXrecord
280
     1
270
     1
271
     1
  0
XRECORD
  5
20
102
{ACAD_REACTORS
330
1A
102
}
330
1A
100
AcDbXrecord
280
     1
270
     1
271
     1
  0
XRECORD
  5
1D
102
{ACAD_REACTORS
330
1A
102
}
330
1A
100
AcDbXrecord
280
     1
270
     1
271
     1
  0
XRECORD
  5
6A1
102
{ACAD_REACTORS
330
12
102
}
330
12
100
AcDbXrecord
280
     1
102
MATERIAL
148
0.0
149
0.0
149
0.0
 93
        0
 94
      127
282
     0
 72
     0
 77
     0
171
     0
175
     0
179
     0
273
     0
  0
XRECORD
  5
14
102
{ACAD_REACTORS
330
12
102
}
330
12
100
AcDbXrecord
280
     1
270
     1
271
     1
  0
XRECORD
  5
13
102
{ACAD_REACTORS
330
12
102
}
330
12
100
AcDbXrecord
280
     1
270
     1
271
     1
  0
XRECORD
  5
17
102
{ACAD_REACTORS
330
12
102
}
330
12
100
AcDbXrecord
280
     1
270
     1
271
     1
  0
XRECORD
  5
16
102
{ACAD_REACTORS
330
12
102
}
330
12
100
AcDbXrecord
280
     1
270
     1
271
     1
  0
XRECORD
  5
18
102
{ACAD_REACTORS
330
12
102
}
330
12
100
AcDbXrecord
280
     1
270
     1
271
     1
  0
XRECORD
  5
15
102
{ACAD_REACTORS
330
12
102
}
330
12
100
AcDbXrecord
280
     1
270
     1
271
     1
  0
XRECORD
  5
6A3
102
{ACAD_REACTORS
330
22
102
}
330
22
100
AcDbXrecord
280
     1
102
MATERIAL
148
0.0
149
0.0
149
0.0
 93
        0
 94
      127
282
     0
 72
     0
 77
     0
171
     0
175
     0
179
     0
273
     0
  0
XRECORD
  5
24
102
{ACAD_REACTORS
330
22
102
}
330
22
100
AcDbXrecord
280
     1
270
     1
271
     1
  0
XRECORD
  5
23
102
{ACAD_REACTORS
330
22
102
}
330
22
100
AcDbXrecord
280
     1
270
     1
271
     1
  0
XRECORD
  5
27
102
{ACAD_REACTORS
330
22
102
}
330
22
100
AcDbXrecord
280
     1
270
     1
271
     1
  0
XRECORD
  5
26
102
{ACAD_REACTORS
330
22
102
}
330
22
100
AcDbXrecord
280
     1
270
     1
271
     1
  0
XRECORD
  5
28
102
{ACAD_REACTORS
330
22
102
}
330
22
100
AcDbXrecord
280
     1
270
     1
271
     1
  0
XRECORD
  5
25
102
{ACAD_REACTORS
330
22
102
}
330
22
100
AcDbXrecord
280
     1
270
     1
271
     1
  0
CELLSTYLEMAP
  5
8F1
102
{ACAD_REACTORS
330
699
102
}
330
699
100
AcDbCellStyleMap
 90
        3
300
CELLSTYLE
  1
TABLEFORMAT_BEGIN
 90
        5
170
     1
 91
        0
 92
    32768
 62
   257
 93
        1
300
CONTENTFORMAT
  1
CONTENTFORMAT_BEGIN
 90
        0
 91
        0
 92
      512
 93
        0
300

 40
0.0
140
1.0
 94
        5
 62
     0
340
55
144
0.25
309
CONTENTFORMAT_END
171
     1
301
MARGIN
  1
CELLMARGIN_BEGIN
 40
0.06
 40
0.06
 40
0.06
 40
0.06
 40
0.18
 40
0.18
309
CELLMARGIN_END
 94
        6
 95
        1
302
GRIDFORMAT
  1
GRIDFORMAT_BEGIN
 90
        0
 91
        1
 62
     0
 92
       -2
340
0
 93
        0
 40
0.045
309
GRIDFORMAT_END
 95
        2
302
GRIDFORMAT
  1
GRIDFORMAT_BEGIN
 90
        0
 91
        1
 62
     0
 92
       -2
340
0
 93
        0
 40
0.045
309
GRIDFORMAT_END
 95
        4
302
GRIDFORMAT
  1
GRIDFORMAT_BEGIN
 90
        0
 91
        1
 62
     0
 92
       -2
340
0
 93
        0
 40
0.045
309
GRIDFORMAT_END
 95
        8
302
GRIDFORMAT
  1
GRIDFORMAT_BEGIN
 90
        0
 91
        1
 62
     0
 92
       -2
340
0
 93
        0
 40
0.045
309
GRIDFORMAT_END
 95
       16
302
GRIDFORMAT
  1
GRIDFORMAT_BEGIN
 90
        0
 91
        1
 62
     0
 92
       -2
340
0
 93
        0
 40
0.045
309
GRIDFORMAT_END
 95
       32
302
GRIDFORMAT
  1
GRIDFORMAT_BEGIN
 90
        0
 91
        1
 62
     0
 92
       -2
340
0
 93
        0
 40
0.045
309
GRIDFORMAT_END
309
TABLEFORMAT_END
  1
CELLSTYLE_BEGIN
 90
        1
 91
        1
300
_TITLE
309
CELLSTYLE_END
300
CELLSTYLE
  1
TABLEFORMAT_BEGIN
 90
        5
170
     1
 91
        0
 92
        0
 62
   257
 93
        1
300
CONTENTFORMAT
  1
CONTENTFORMAT_BEGIN
 90
        0
 91
        0
 92
      512
 93
        0
300

 40
0.0
140
1.0
 94
        5
 62
     0
340
55
144
0.18
309
CONTENTFORMAT_END
171
     1
301
MARGIN
  1
CELLMARGIN_BEGIN
 40
0.06
 40
0.06
 40
0.06
 40
0.06
 40
0.18
 40
0.18
309
CELLMARGIN_END
 94
        6
 95
        1
302
GRIDFORMAT
  1
GRIDFORMAT_BEGIN
 90
        0
 91
        1
 62
     0
 92
       -2
340
0
 93
        0
 40
0.045
309
GRIDFORMAT_END
 95
        2
302
GRIDFORMAT
  1
GRIDFORMAT_BEGIN
 90
        0
 91
        1
 62
     0
 92
       -2
340
0
 93
        0
 40
0.045
309
GRIDFORMAT_END
 95
        4
302
GRIDFORMAT
  1
GRIDFORMAT_BEGIN
 90
        0
 91
        1
 62
     0
 92
       -2
340
0
 93
        0
 40
0.045
309
GRIDFORMAT_END
 95
        8
302
GRIDFORMAT
  1
GRIDFORMAT_BEGIN
 90
        0
 91
        1
 62
     0
 92
       -2
340
0
 93
        0
 40
0.045
309
GRIDFORMAT_END
 95
       16
302
GRIDFORMAT
  1
GRIDFORMAT_BEGIN
 90
        0
 91
        1
 62
     0
 92
       -2
340
0
 93
        0
 40
0.045
309
GRIDFORMAT_END
 95
       32
302
GRIDFORMAT
  1
GRIDFORMAT_BEGIN
 90
        0
 91
        1
 62
     0
 92
       -2
340
0
 93
        0
 40
0.045
309
GRIDFORMAT_END
309
TABLEFORMAT_END
  1
CELLSTYLE_BEGIN
 90
        2
 91
        1
300
_HEADER
309
CELLSTYLE_END
300
CELLSTYLE
  1
TABLEFORMAT_BEGIN
 90
        5
170
     1
 91
        0
 92
        0
 62
   257
 93
        1
300
CONTENTFORMAT
  1
CONTENTFORMAT_BEGIN
 90
        0
 91
        0
 92
      512
 93
        0
300

 40
0.0
140
1.0
 94
        2
 62
     0
340
55
144
0.18
309
CONTENTFORMAT_END
171
     1
301
MARGIN
  1
CELLMARGIN_BEGIN
 40
0.06
 40
0.06
 40
0.06
 40
0.06
 40
0.18
 40
0.18
309
CELLMARGIN_END
 94
        6
 95
        1
302
GRIDFORMAT
  1
GRIDFORMAT_BEGIN
 90
        0
 91
        1
 62
     0
 92
       -2
340
0
 93
        0
 40
0.045
309
GRIDFORMAT_END
 95
        2
302
GRIDFORMAT
  1
GRIDFORMAT_BEGIN
 90
        0
 91
        1
 62
     0
 92
       -2
340
0
 93
        0
 40
0.045
309
GRIDFORMAT_END
 95
        4
302
GRIDFORMAT
  1
GRIDFORMAT_BEGIN
 90
        0
 91
        1
 62
     0
 92
       -2
340
0
 93
        0
 40
0.045
309
GRIDFORMAT_END
 95
        8
302
GRIDFORMAT
  1
GRIDFORMAT_BEGIN
 90
        0
 91
        1
 62
     0
 92
       -2
340
0
 93
        0
 40
0.045
309
GRIDFORMAT_END
 95
       16
302
GRIDFORMAT
  1
GRIDFORMAT_BEGIN
 90
        0
 91
        1
 62
     0
 92
       -2
340
0
 93
        0
 40
0.045
309
GRIDFORMAT_END
 95
       32
302
GRIDFORMAT
  1
GRIDFORMAT_BEGIN
 90
        0
 91
        1
 62
     0
 92
       -2
340
0
 93
        0
 40
0.045
309
GRIDFORMAT_END
309
TABLEFORMAT_END
  1
CELLSTYLE_BEGIN
 90
        3
 91
        2
300
_DATA
309
CELLSTYLE_END
  0
XRECORD
  5
928
102
{ACAD_REACTORS
330
699
102
}
330
699
100
AcDbXrecord
280
     1
102
ACAD_ROUNDTRIP_PRE2007_TABLESTYLE
 90
      512
 91
        0
  1

 92
      512
 93
        0
  2

 94
      512
 95
        0
  3

  0
XRECORD
  5
903
102
{ACAD_REACTORS
330
902
102
}
330
902
100
AcDbXrecord
280
     1
102
RTVSPropertyOp0
 70
     1
102
RTVSPropertyOp1
 70
     1
102
RTVSPropertyOp2
 70
     1
102
RTVSPropertyOp3
 70
     1
102
RTVSPropertyOp4
 70
     1
102
RTVSPropertyOp5
 70
     1
102
RTVSPropertyOp6
 70
     1
102
RTVSPropertyOp7
 70
     1
102
RTVSPropertyOp8
 70
     1
102
RTVSPropertyOp9
 70
     1
102
RTVSPropertyOp10
 70
     1
102
RTVSPropertyOp11
 70
     1
102
RTVSPropertyOp12
 70
     1
102
RTVSPropertyOp13
 70
     1
102
RTVSPropertyOp14
 70
     1
102
RTVSPropertyOp15
 70
     1
102
RTVSPropertyOp16
 70
     1
102
RTVSPropertyOp17
 70
     1
102
RTVSPropertyOp18
 70
     1
102
RTVSPropertyOp19
 70
     1
102
RTVSPropertyOp20
 70
     1
102
RTVSPropertyOp21
 70
     1
102
RTVSPropertyOp22
 70
     1
102
RTVSPropertyOp23
 70
     1
102
RTVSPropertyOp24
 70
     1
102
RTVSPropertyOp25
 70
     1
102
RTVSPropertyOp26
 70
     1
102
RTVSPropertyOp27
 70
     1
102
RTVSPropertyOp28
 70
     1
102
RTVSPropertyOp29
 70
     1
102
RTVSPropertyOp30
 70
     1
102
RTVSPropertyOp31
 70
     1
102
RTVSPropertyOp32
 70
     1
  0
XRECORD
  5
92E
102
{ACAD_REACTORS
330
92D
102
}
330
92D
100
AcDbXrecord
280
     1
102
RTVSPropertyOp0
 70
     1
102
RTVSPropertyOp1
 70
     1
102
RTVSPropertyOp2
 70
     1
102
RTVSPropertyOp3
 70
     1
102
RTVSPropertyOp4
 70
     1
102
RTVSPropertyOp5
 70
     1
102
RTVSPropertyOp6
 70
     1
102
RTVSPropertyOp7
 70
     1
102
RTVSPropertyOp8
 70
     1
102
RTVSPropertyOp9
 70
     1
102
RTVSPropertyOp10
 70
     1
102
RTVSPropertyOp11
 70
     1
102
RTVSPropertyOp12
 70
     1
102
RTVSPropertyOp13
 70
     1
102
RTVSPropertyOp14
 70
     1
102
RTVSPropertyOp15
 70
     1
102
RTVSPropertyOp16
 70
     1
102
RTVSPropertyOp17
 70
     1
102
RTVSPropertyOp18
 70
     1
102
RTVSPropertyOp19
 70
     1
102
RTVSPropertyOp20
 70
     1
102
RTVSPropertyOp21
 70
     1
102
RTVSPropertyOp22
 70
     1
102
RTVSPropertyOp23
 70
     1
102
RTVSPropertyOp24
 70
     1
102
RTVSPropertyOp25
 70
     1
102
RTVSPropertyOp26
 70
     1
102
RTVSPropertyOp27
 70
     1
102
RTVSPropertyOp28
 70
     1
102
RTVSPropertyOp29
 70
     1
102
RTVSPropertyOp30
 70
     1
102
RTVSPropertyOp31
 70
     1
102
RTVSPropertyOp32
 70
     1
  0
XRECORD
  5
901
102
{ACAD_REACTORS
330
900
102
}
330
900
100
AcDbXrecord
280
     1
102
RTVSPropertyOp0
 70
     1
102
RTVSPropertyOp1
 70
     1
102
RTVSPropertyOp2
 70
     1
102
RTVSPropertyOp3
 70
     1
102
RTVSPropertyOp4
 70
     1
102
RTVSPropertyOp5
 70
     1
102
RTVSPropertyOp6
 70
     1
102
RTVSPropertyOp7
 70
     1
102
RTVSPropertyOp8
 70
     1
102
RTVSPropertyOp9
 70
     1
102
RTVSPropertyOp10
 70
     1
102
RTVSPropertyOp11
 70
     1
102
RTVSPropertyOp12
 70
     1
102
RTVSPropertyOp13
 70
     1
102
RTVSPropertyOp14
 70
     1
102
RTVSPropertyOp15
 70
     1
102
RTVSPropertyOp16
 70
     1
102
RTVSPropertyOp17
 70
     1
102
RTVSPropertyOp18
 70
     1
102
RTVSPropertyOp19
 70
     1
102
RTVSPropertyOp20
 70
     1
102
RTVSPropertyOp21
 70
     1
102
RTVSPropertyOp22
 70
     1
102
RTVSPropertyOp23
 70
     1
102
RTVSPropertyOp24
 70
     1
102
RTVSPropertyOp25
 70
     1
102
RTVSPropertyOp26
 70
     1
102
RTVSPropertyOp27
 70
     1
102
RTVSPropertyOp28
 70
     1
102
RTVSPropertyOp29
 70
     1
102
RTVSPropertyOp30
 70
     1
102
RTVSPropertyOp31
 70
     1
102
RTVSPropertyOp32
 70
     1
  0
XRECORD
  5
90F
102
{ACAD_REACTORS
330
90E
102
}
330
90E
100
AcDbXrecord
280
     1
102
RTVSPropertyOp0
 70
     1
102
RTVSPropertyOp1
 70
     1
102
RTVSPropertyOp2
 70
     1
102
RTVSPropertyOp3
 70
     1
102
RTVSPropertyOp4
 70
     1
102
RTVSPropertyOp5
 70
     1
102
RTVSPropertyOp6
 70
     1
102
RTVSPropertyOp7
 70
     1
102
RTVSPropertyOp8
 70
     1
102
RTVSPropertyOp9
 70
     1
102
RTVSPropertyOp10
 70
     1
102
RTVSPropertyOp11
 70
     1
102
RTVSPropertyOp12
 70
     1
102
RTVSPropertyOp13
 70
     1
102
RTVSPropertyOp14
 70
     1
102
RTVSPropertyOp15
 70
     1
102
RTVSPropertyOp16
 70
     1
102
RTVSPropertyOp17
 70
     1
102
RTVSPropertyOp18
 70
     1
102
RTVSPropertyOp19
 70
     1
102
RTVSPropertyOp20
 70
     1
102
RTVSPropertyOp21
 70
     1
102
RTVSPropertyOp22
 70
     1
102
RTVSPropertyOp23
 70
     1
102
RTVSPropertyOp24
 70
     1
102
RTVSPropertyOp25
 70
     1
102
RTVSPropertyOp26
 70
     1
102
RTVSPropertyOp27
 70
     1
102
RTVSPropertyOp28
 70
     1
102
RTVSPropertyOp29
 70
     1
102
RTVSPropertyOp30
 70
     1
102
RTVSPropertyOp31
 70
     1
102
RTVSPropertyOp32
 70
     1
  0
XRECORD
  5
917
102
{ACAD_REACTORS
330
916
102
}
330
916
100
AcDbXrecord
280
     1
102
RTVSPropertyOp0
 70
     1
102
RTVSPropertyOp1
 70
     1
102
RTVSPropertyOp2
 70
     1
102
RTVSPropertyOp3
 70
     1
102
RTVSPropertyOp4
 70
     1
102
RTVSPropertyOp5
 70
     1
102
RTVSPropertyOp6
 70
     1
102
RTVSPropertyOp7
 70
     1
102
RTVSPropertyOp8
 70
     1
102
RTVSPropertyOp9
 70
     1
102
RTVSPropertyOp10
 70
     1
102
RTVSPropertyOp11
 70
     1
102
RTVSPropertyOp12
 70
     1
102
RTVSPropertyOp13
 70
     1
102
RTVSPropertyOp14
 70
     1
102
RTVSPropertyOp15
 70
     1
102
RTVSPropertyOp16
 70
     1
102
RTVSPropertyOp17
 70
     1
102
RTVSPropertyOp18
 70
     1
102
RTVSPropertyOp19
 70
     1
102
RTVSPropertyOp20
 70
     1
102
RTVSPropertyOp21
 70
     1
102
RTVSPropertyOp22
 70
     1
102
RTVSPropertyOp23
 70
     1
102
RTVSPropertyOp24
 70
     1
102
RTVSPropertyOp25
 70
     1
102
RTVSPropertyOp26
 70
     1
102
RTVSPropertyOp27
 70
     1
102
RTVSPropertyOp28
 70
     1
102
RTVSPropertyOp29
 70
     1
102
RTVSPropertyOp30
 70
     1
102
RTVSPropertyOp31
 70
     1
102
RTVSPropertyOp32
 70
     1
  0
XRECORD
  5
909
102
{ACAD_REACTORS
330
908
102
}
330
908
100
AcDbXrecord
280
     1
102
RTVSPropertyOp0
 70
     1
102
RTVSPropertyOp1
 70
     1
102
RTVSPropertyOp2
 70
     1
102
RTVSPropertyOp3
 70
     1
102
RTVSPropertyOp4
 70
     1
102
RTVSPropertyOp5
 70
     1
102
RTVSPropertyOp6
 70
     1
102
RTVSPropertyOp7
 70
     1
102
RTVSPropertyOp8
 70
     1
102
RTVSPropertyOp9
 70
     1
102
RTVSPropertyOp10
 70
     1
102
RTVSPropertyOp11
 70
     1
102
RTVSPropertyOp12
 70
     1
102
RTVSPropertyOp13
 70
     1
102
RTVSPropertyOp14
 70
     1
102
RTVSPropertyOp15
 70
     1
102
RTVSPropertyOp16
 70
     1
102
RTVSPropertyOp17
 70
     1
102
RTVSPropertyOp18
 70
     1
102
RTVSPropertyOp19
 70
     1
102
RTVSPropertyOp20
 70
     1
102
RTVSPropertyOp21
 70
     1
102
RTVSPropertyOp22
 70
     1
102
RTVSPropertyOp23
 70
     1
102
RTVSPropertyOp24
 70
     1
102
RTVSPropertyOp25
 70
     1
102
RTVSPropertyOp26
 70
     1
102
RTVSPropertyOp27
 70
     1
102
RTVSPropertyOp28
 70
     1
102
RTVSPropertyOp29
 70
     1
102
RTVSPropertyOp30
 70
     1
102
RTVSPropertyOp31
 70
     1
102
RTVSPropertyOp32
 70
     1
  0
XRECORD
  5
90D
102
{ACAD_REACTORS
330
90C
102
}
330
90C
100
AcDbXrecord
280
     1
102
RTVSPropertyOp0
 70
     1
102
RTVSPropertyOp1
 70
     1
102
RTVSPropertyOp2
 70
     1
102
RTVSPropertyOp3
 70
     1
102
RTVSPropertyOp4
 70
     1
102
RTVSPropertyOp5
 70
     1
102
RTVSPropertyOp6
 70
     1
102
RTVSPropertyOp7
 70
     1
102
RTVSPropertyOp8
 70
     1
102
RTVSPropertyOp9
 70
     1
102
RTVSPropertyOp10
 70
     1
102
RTVSPropertyOp11
 70
     1
102
RTVSPropertyOp12
 70
     1
102
RTVSPropertyOp13
 70
     1
102
RTVSPropertyOp14
 70
     1
102
RTVSPropertyOp15
 70
     1
102
RTVSPropertyOp16
 70
     1
102
RTVSPropertyOp17
 70
     1
102
RTVSPropertyOp18
 70
     1
102
RTVSPropertyOp19
 70
     1
102
RTVSPropertyOp20
 70
     1
102
RTVSPropertyOp21
 70
     1
102
RTVSPropertyOp22
 70
     1
102
RTVSPropertyOp23
 70
     1
102
RTVSPropertyOp24
 70
     1
102
RTVSPropertyOp25
 70
     1
102
RTVSPropertyOp26
 70
     1
102
RTVSPropertyOp27
 70
     1
102
RTVSPropertyOp28
 70
     1
102
RTVSPropertyOp29
 70
     1
102
RTVSPropertyOp30
 70
     1
102
RTVSPropertyOp31
 70
     1
102
RTVSPropertyOp32
 70
     1
  0
XRECORD
  5
927
102
{ACAD_REACTORS
330
926
102
}
330
926
100
AcDbXrecord
280
     1
102
RTVSPropertyOp0
 70
     0
102
RTVSPropertyOp1
 70
     0
102
RTVSPropertyOp2
 70
     0
102
RTVSPropertyOp3
 70
     0
102
RTVSPropertyOp4
 70
     0
102
RTVSPropertyOp5
 70
     0
102
RTVSPropertyOp6
 70
     0
102
RTVSPropertyOp7
 70
     0
102
RTVSPropertyOp8
 70
     0
102
RTVSPropertyOp9
 70
     0
102
RTVSPropertyOp10
 70
     0
102
RTVSPropertyOp11
 70
     0
102
RTVSPropertyOp12
 70
     0
102
RTVSPropertyOp13
 70
     0
102
RTVSPropertyOp14
 70
     2
102
RTVSPropertyOp15
 70
     0
102
RTVSPropertyOp16
 70
     0
102
RTVSPropertyOp17
 70
     0
102
RTVSPropertyOp18
 70
     0
102
RTVSPropertyOp19
 70
     0
102
RTVSPropertyOp20
 70
     0
102
RTVSPropertyOp21
 70
     0
102
RTVSPropertyOp22
 70
     0
102
RTVSPropertyOp23
 70
     0
102
RTVSPropertyOp24
 70
     0
102
RTVSPropertyOp25
 70
     0
102
RTVSPropertyOp26
 70
     0
102
RTVSPropertyOp27
 70
     0
102
RTVSPropertyOp28
 70
     0
102
RTVSPropertyOp29
 70
     0
102
RTVSPropertyOp30
 70
     0
102
RTVSPropertyOp31
 70
     0
102
RTVSPropertyOp32
 70
     0
  0
XRECORD
  5
915
102
{ACAD_REACTORS
330
914
102
}
330
914
100
AcDbXrecord
280
     1
102
RTVSPropertyOp0
 70
     1
102
RTVSPropertyOp1
 70
     1
102
RTVSPropertyOp2
 70
     1
102
RTVSPropertyOp3
 70
     1
102
RTVSPropertyOp4
 70
     1
102
RTVSPropertyOp5
 70
     1
102
RTVSPropertyOp6
 70
     1
102
RTVSPropertyOp7
 70
     1
102
RTVSPropertyOp8
 70
     1
102
RTVSPropertyOp9
 70
     1
102
RTVSPropertyOp10
 70
     1
102
RTVSPropertyOp11
 70
     1
102
RTVSPropertyOp12
 70
     1
102
RTVSPropertyOp13
 70
     1
102
RTVSPropertyOp14
 70
     1
102
RTVSPropertyOp15
 70
     1
102
RTVSPropertyOp16
 70
     1
102
RTVSPropertyOp17
 70
     1
102
RTVSPropertyOp18
 70
     1
102
RTVSPropertyOp19
 70
     1
102
RTVSPropertyOp20
 70
     1
102
RTVSPropertyOp21
 70
     1
102
RTVSPropertyOp22
 70
     1
102
RTVSPropertyOp23
 70
     1
102
RTVSPropertyOp24
 70
     1
102
RTVSPropertyOp25
 70
     1
102
RTVSPropertyOp26
 70
     1
102
RTVSPropertyOp27
 70
     1
102
RTVSPropertyOp28
 70
     1
102
RTVSPropertyOp29
 70
     1
102
RTVSPropertyOp30
 70
     1
102
RTVSPropertyOp31
 70
     1
102
RTVSPropertyOp32
 70
     1
  0
XRECORD
  5
8F9
102
{ACAD_REACTORS
330
8F8
102
}
330
8F8
100
AcDbXrecord
280
     1
102
RTVSPropertyOp0
 70
     1
102
RTVSPropertyOp1
 70
     1
102
RTVSPropertyOp2
 70
     1
102
RTVSPropertyOp3
 70
     1
102
RTVSPropertyOp4
 70
     1
102
RTVSPropertyOp5
 70
     1
102
RTVSPropertyOp6
 70
     1
102
RTVSPropertyOp7
 70
     1
102
RTVSPropertyOp8
 70
     1
102
RTVSPropertyOp9
 70
     1
102
RTVSPropertyOp10
 70
     1
102
RTVSPropertyOp11
 70
     1
102
RTVSPropertyOp12
 70
     1
102
RTVSPropertyOp13
 70
     1
102
RTVSPropertyOp14
 70
     1
102
RTVSPropertyOp15
 70
     1
102
RTVSPropertyOp16
 70
     1
102
RTVSPropertyOp17
 70
     1
102
RTVSPropertyOp18
 70
     1
102
RTVSPropertyOp19
 70
     1
102
RTVSPropertyOp20
 70
     1
102
RTVSPropertyOp21
 70
     1
102
RTVSPropertyOp22
 70
     1
102
RTVSPropertyOp23
 70
     1
102
RTVSPropertyOp24
 70
     1
102
RTVSPropertyOp25
 70
     1
102
RTVSPropertyOp26
 70
     1
102
RTVSPropertyOp27
 70
     1
102
RTVSPropertyOp28
 70
     1
102
RTVSPropertyOp29
 70
     1
102
RTVSPropertyOp30
 70
     1
102
RTVSPropertyOp31
 70
     1
102
RTVSPropertyOp32
 70
     1
  0
XRECORD
  5
8FB
102
{ACAD_REACTORS
330
8FA
102
}
330
8FA
100
AcDbXrecord
280
     1
102
RTVSPropertyOp0
 70
     1
102
RTVSPropertyOp1
 70
     1
102
RTVSPropertyOp2
 70
     1
102
RTVSPropertyOp3
 70
     1
102
RTVSPropertyOp4
 70
     1
102
RTVSPropertyOp5
 70
     1
102
RTVSPropertyOp6
 70
     1
102
RTVSPropertyOp7
 70
     1
102
RTVSPropertyOp8
 70
     1
102
RTVSPropertyOp9
 70
     1
102
RTVSPropertyOp10
 70
     1
102
RTVSPropertyOp11
 70
     1
102
RTVSPropertyOp12
 70
     1
102
RTVSPropertyOp13
 70
     1
102
RTVSPropertyOp14
 70
     1
102
RTVSPropertyOp15
 70
     1
102
RTVSPropertyOp16
 70
     1
102
RTVSPropertyOp17
 70
     1
102
RTVSPropertyOp18
 70
     1
102
RTVSPropertyOp19
 70
     1
102
RTVSPropertyOp20
 70
     1
102
RTVSPropertyOp21
 70
     1
102
RTVSPropertyOp22
 70
     1
102
RTVSPropertyOp23
 70
     1
102
RTVSPropertyOp24
 70
     1
102
RTVSPropertyOp25
 70
     1
102
RTVSPropertyOp26
 70
     1
102
RTVSPropertyOp27
 70
     1
102
RTVSPropertyOp28
 70
     1
102
RTVSPropertyOp29
 70
     1
102
RTVSPropertyOp30
 70
     1
102
RTVSPropertyOp31
 70
     1
102
RTVSPropertyOp32
 70
     1
  0
XRECORD
  5
8FD
102
{ACAD_REACTORS
330
8FC
102
}
330
8FC
100
AcDbXrecord
280
     1
102
RTVSPropertyOp0
 70
     1
102
RTVSPropertyOp1
 70
     1
102
RTVSPropertyOp2
 70
     1
102
RTVSPropertyOp3
 70
     1
102
RTVSPropertyOp4
 70
     1
102
RTVSPropertyOp5
 70
     1
102
RTVSPropertyOp6
 70
     1
102
RTVSPropertyOp7
 70
     1
102
RTVSPropertyOp8
 70
     1
102
RTVSPropertyOp9
 70
     1
102
RTVSPropertyOp10
 70
     1
102
RTVSPropertyOp11
 70
     1
102
RTVSPropertyOp12
 70
     1
102
RTVSPropertyOp13
 70
     1
102
RTVSPropertyOp14
 70
     1
102
RTVSPropertyOp15
 70
     1
102
RTVSPropertyOp16
 70
     1
102
RTVSPropertyOp17
 70
     1
102
RTVSPropertyOp18
 70
     1
102
RTVSPropertyOp19
 70
     1
102
RTVSPropertyOp20
 70
     1
102
RTVSPropertyOp21
 70
     1
102
RTVSPropertyOp22
 70
     1
102
RTVSPropertyOp23
 70
     1
102
RTVSPropertyOp24
 70
     1
102
RTVSPropertyOp25
 70
     1
102
RTVSPropertyOp26
 70
     1
102
RTVSPropertyOp27
 70
     1
102
RTVSPropertyOp28
 70
     1
102
RTVSPropertyOp29
 70
     1
102
RTVSPropertyOp30
 70
     1
102
RTVSPropertyOp31
 70
     1
102
RTVSPropertyOp32
 70
     1
  0
XRECORD
  5
8FF
102
{ACAD_REACTORS
330
8FE
102
}
330
8FE
100
AcDbXrecord
280
     1
102
RTVSPropertyOp0
 70
     1
102
RTVSPropertyOp1
 70
     1
102
RTVSPropertyOp2
 70
     1
102
RTVSPropertyOp3
 70
     1
102
RTVSPropertyOp4
 70
     1
102
RTVSPropertyOp5
 70
     1
102
RTVSPropertyOp6
 70
     1
102
RTVSPropertyOp7
 70
     1
102
RTVSPropertyOp8
 70
     1
102
RTVSPropertyOp9
 70
     1
102
RTVSPropertyOp10
 70
     1
102
RTVSPropertyOp11
 70
     1
102
RTVSPropertyOp12
 70
     1
102
RTVSPropertyOp13
 70
     1
102
RTVSPropertyOp14
 70
     1
102
RTVSPropertyOp15
 70
     1
102
RTVSPropertyOp16
 70
     1
102
RTVSPropertyOp17
 70
     1
102
RTVSPropertyOp18
 70
     1
102
RTVSPropertyOp19
 70
     1
102
RTVSPropertyOp20
 70
     1
102
RTVSPropertyOp21
 70
     1
102
RTVSPropertyOp22
 70
     1
102
RTVSPropertyOp23
 70
     1
102
RTVSPropertyOp24
 70
     1
102
RTVSPropertyOp25
 70
     1
102
RTVSPropertyOp26
 70
     1
102
RTVSPropertyOp27
 70
     1
102
RTVSPropertyOp28
 70
     1
102
RTVSPropertyOp29
 70
     1
102
RTVSPropertyOp30
 70
     1
102
RTVSPropertyOp31
 70
     1
102
RTVSPropertyOp32
 70
     1
  0
XRECORD
  5
907
102
{ACAD_REACTORS
330
906
102
}
330
906
100
AcDbXrecord
280
     1
102
RTVSPropertyOp0
 70
     1
102
RTVSPropertyOp1
 70
     1
102
RTVSPropertyOp2
 70
     1
102
RTVSPropertyOp3
 70
     1
102
RTVSPropertyOp4
 70
     1
102
RTVSPropertyOp5
 70
     1
102
RTVSPropertyOp6
 70
     1
102
RTVSPropertyOp7
 70
     1
102
RTVSPropertyOp8
 70
     1
102
RTVSPropertyOp9
 70
     1
102
RTVSPropertyOp10
 70
     1
102
RTVSPropertyOp11
 70
     1
102
RTVSPropertyOp12
 70
     1
102
RTVSPropertyOp13
 70
     1
102
RTVSPropertyOp14
 70
     1
102
RTVSPropertyOp15
 70
     1
102
RTVSPropertyOp16
 70
     1
102
RTVSPropertyOp17
 70
     1
102
RTVSPropertyOp18
 70
     1
102
RTVSPropertyOp19
 70
     1
102
RTVSPropertyOp20
 70
     1
102
RTVSPropertyOp21
 70
     1
102
RTVSPropertyOp22
 70
     1
102
RTVSPropertyOp23
 70
     1
102
RTVSPropertyOp24
 70
     1
102
RTVSPropertyOp25
 70
     1
102
RTVSPropertyOp26
 70
     1
102
RTVSPropertyOp27
 70
     1
102
RTVSPropertyOp28
 70
     1
102
RTVSPropertyOp29
 70
     1
102
RTVSPropertyOp30
 70
     1
102
RTVSPropertyOp31
 70
     1
102
RTVSPropertyOp32
 70
     1
  0
XRECORD
  5
923
102
{ACAD_REACTORS
330
922
102
}
330
922
100
AcDbXrecord
280
     1
102
RTVSPropertyOp0
 70
     0
102
RTVSPropertyOp1
 70
     0
102
RTVSPropertyOp2
 70
     0
102
RTVSPropertyOp3
 70
     0
102
RTVSPropertyOp4
 70
     0
102
RTVSPropertyOp5
 70
     0
102
RTVSPropertyOp6
 70
     0
102
RTVSPropertyOp7
 70
     0
102
RTVSPropertyOp8
 70
     0
102
RTVSPropertyOp9
 70
     0
102
RTVSPropertyOp10
 70
     0
102
RTVSPropertyOp11
 70
     0
102
RTVSPropertyOp12
 70
     0
102
RTVSPropertyOp13
 70
     0
102
RTVSPropertyOp14
 70
     2
102
RTVSPropertyOp15
 70
     0
102
RTVSPropertyOp16
 70
     0
102
RTVSPropertyOp17
 70
     0
102
RTVSPropertyOp18
 70
     0
102
RTVSPropertyOp19
 70
     0
102
RTVSPropertyOp20
 70
     0
102
RTVSPropertyOp21
 70
     0
102
RTVSPropertyOp22
 70
     0
102
RTVSPropertyOp23
 70
     0
102
RTVSPropertyOp24
 70
     0
102
RTVSPropertyOp25
 70
     0
102
RTVSPropertyOp26
 70
     0
102
RTVSPropertyOp27
 70
     0
102
RTVSPropertyOp28
 70
     0
102
RTVSPropertyOp29
 70
     0
102
RTVSPropertyOp30
 70
     0
102
RTVSPropertyOp31
 70
     0
102
RTVSPropertyOp32
 70
     0
  0
XRECORD
  5
913
102
{ACAD_REACTORS
330
912
102
}
330
912
100
AcDbXrecord
280
     1
102
RTVSPropertyOp0
 70
     1
102
RTVSPropertyOp1
 70
     1
102
RTVSPropertyOp2
 70
     1
102
RTVSPropertyOp3
 70
     1
102
RTVSPropertyOp4
 70
     1
102
RTVSPropertyOp5
 70
     1
102
RTVSPropertyOp6
 70
     1
102
RTVSPropertyOp7
 70
     1
102
RTVSPropertyOp8
 70
     1
102
RTVSPropertyOp9
 70
     1
102
RTVSPropertyOp10
 70
     1
102
RTVSPropertyOp11
 70
     1
102
RTVSPropertyOp12
 70
     1
102
RTVSPropertyOp13
 70
     1
102
RTVSPropertyOp14
 70
     1
102
RTVSPropertyOp15
 70
     1
102
RTVSPropertyOp16
 70
     1
102
RTVSPropertyOp17
 70
     1
102
RTVSPropertyOp18
 70
     1
102
RTVSPropertyOp19
 70
     1
102
RTVSPropertyOp20
 70
     1
102
RTVSPropertyOp21
 70
     1
102
RTVSPropertyOp22
 70
     1
102
RTVSPropertyOp23
 70
     1
102
RTVSPropertyOp24
 70
     1
102
RTVSPropertyOp25
 70
     1
102
RTVSPropertyOp26
 70
     1
102
RTVSPropertyOp27
 70
     1
102
RTVSPropertyOp28
 70
     1
102
RTVSPropertyOp29
 70
     1
102
RTVSPropertyOp30
 70
     1
102
RTVSPropertyOp31
 70
     1
102
RTVSPropertyOp32
 70
     1
  0
XRECORD
  5
925
102
{ACAD_REACTORS
330
924
102
}
330
924
100
AcDbXrecord
280
     1
102
RTVSPropertyOp0
 70
     0
102
RTVSPropertyOp1
 70
     0
102
RTVSPropertyOp2
 70
     0
102
RTVSPropertyOp3
 70
     0
102
RTVSPropertyOp4
 70
     0
102
RTVSPropertyOp5
 70
     0
102
RTVSPropertyOp6
 70
     0
102
RTVSPropertyOp7
 70
     0
102
RTVSPropertyOp8
 70
     0
102
RTVSPropertyOp9
 70
     0
102
RTVSPropertyOp10
 70
     0
102
RTVSPropertyOp11
 70
     0
102
RTVSPropertyOp12
 70
     0
102
RTVSPropertyOp13
 70
     0
102
RTVSPropertyOp14
 70
     2
102
RTVSPropertyOp15
 70
     0
102
RTVSPropertyOp16
 70
     0
102
RTVSPropertyOp17
 70
     0
102
RTVSPropertyOp18
 70
     0
102
RTVSPropertyOp19
 70
     0
102
RTVSPropertyOp20
 70
     0
102
RTVSPropertyOp21
 70
     0
102
RTVSPropertyOp22
 70
     0
102
RTVSPropertyOp23
 70
     0
102
RTVSPropertyOp24
 70
     0
102
RTVSPropertyOp25
 70
     0
102
RTVSPropertyOp26
 70
     0
102
RTVSPropertyOp27
 70
     0
102
RTVSPropertyOp28
 70
     0
102
RTVSPropertyOp29
 70
     0
102
RTVSPropertyOp30
 70
     0
102
RTVSPropertyOp31
 70
     0
102
RTVSPropertyOp32
 70
     0
  0
XRECORD
  5
90B
102
{ACAD_REACTORS
330
90A
102
}
330
90A
100
AcDbXrecord
280
     1
102
RTVSPropertyOp0
 70
     1
102
RTVSPropertyOp1
 70
     1
102
RTVSPropertyOp2
 70
     1
102
RTVSPropertyOp3
 70
     1
102
RTVSPropertyOp4
 70
     1
102
RTVSPropertyOp5
 70
     1
102
RTVSPropertyOp6
 70
     1
102
RTVSPropertyOp7
 70
     1
102
RTVSPropertyOp8
 70
     1
102
RTVSPropertyOp9
 70
     1
102
RTVSPropertyOp10
 70
     1
102
RTVSPropertyOp11
 70
     1
102
RTVSPropertyOp12
 70
     1
102
RTVSPropertyOp13
 70
     1
102
RTVSPropertyOp14
 70
     1
102
RTVSPropertyOp15
 70
     1
102
RTVSPropertyOp16
 70
     1
102
RTVSPropertyOp17
 70
     1
102
RTVSPropertyOp18
 70
     1
102
RTVSPropertyOp19
 70
     1
102
RTVSPropertyOp20
 70
     1
102
RTVSPropertyOp21
 70
     1
102
RTVSPropertyOp22
 70
     1
102
RTVSPropertyOp23
 70
     1
102
RTVSPropertyOp24
 70
     1
102
RTVSPropertyOp25
 70
     1
102
RTVSPropertyOp26
 70
     1
102
RTVSPropertyOp27
 70
     1
102
RTVSPropertyOp28
 70
     1
102
RTVSPropertyOp29
 70
     1
102
RTVSPropertyOp30
 70
     1
102
RTVSPropertyOp31
 70
     1
102
RTVSPropertyOp32
 70
     1
  0
XRECORD
  5
921
102
{ACAD_REACTORS
330
920
102
}
330
920
100
AcDbXrecord
280
     1
102
RTVSPropertyOp0
 70
     1
102
RTVSPropertyOp1
 70
     1
102
RTVSPropertyOp2
 70
     1
102
RTVSPropertyOp3
 70
     1
102
RTVSPropertyOp4
 70
     1
102
RTVSPropertyOp5
 70
     1
102
RTVSPropertyOp6
 70
     1
102
RTVSPropertyOp7
 70
     1
102
RTVSPropertyOp8
 70
     1
102
RTVSPropertyOp9
 70
     1
102
RTVSPropertyOp10
 70
     1
102
RTVSPropertyOp11
 70
     1
102
RTVSPropertyOp12
 70
     1
102
RTVSPropertyOp13
 70
     1
102
RTVSPropertyOp14
 70
     1
102
RTVSPropertyOp15
 70
     1
102
RTVSPropertyOp16
 70
     1
102
RTVSPropertyOp17
 70
     1
102
RTVSPropertyOp18
 70
     1
102
RTVSPropertyOp19
 70
     1
102
RTVSPropertyOp20
 70
     1
102
RTVSPropertyOp21
 70
     1
102
RTVSPropertyOp22
 70
     1
102
RTVSPropertyOp23
 70
     1
102
RTVSPropertyOp24
 70
     1
102
RTVSPropertyOp25
 70
     1
102
RTVSPropertyOp26
 70
     1
102
RTVSPropertyOp27
 70
     1
102
RTVSPropertyOp28
 70
     1
102
RTVSPropertyOp29
 70
     1
102
RTVSPropertyOp30
 70
     1
102
RTVSPropertyOp31
 70
     1
102
RTVSPropertyOp32
 70
     1
  0
XRECORD
  5
91F
102
{ACAD_REACTORS
330
91E
102
}
330
91E
100
AcDbXrecord
280
     1
102
RTVSPropertyOp0
 70
     1
102
RTVSPropertyOp1
 70
     1
102
RTVSPropertyOp2
 70
     1
102
RTVSPropertyOp3
 70
     1
102
RTVSPropertyOp4
 70
     1
102
RTVSPropertyOp5
 70
     1
102
RTVSPropertyOp6
 70
     1
102
RTVSPropertyOp7
 70
     1
102
RTVSPropertyOp8
 70
     1
102
RTVSPropertyOp9
 70
     1
102
RTVSPropertyOp10
 70
     1
102
RTVSPropertyOp11
 70
     1
102
RTVSPropertyOp12
 70
     1
102
RTVSPropertyOp13
 70
     1
102
RTVSPropertyOp14
 70
     1
102
RTVSPropertyOp15
 70
     1
102
RTVSPropertyOp16
 70
     1
102
RTVSPropertyOp17
 70
     1
102
RTVSPropertyOp18
 70
     1
102
RTVSPropertyOp19
 70
     1
102
RTVSPropertyOp20
 70
     1
102
RTVSPropertyOp21
 70
     1
102
RTVSPropertyOp22
 70
     1
102
RTVSPropertyOp23
 70
     1
102
RTVSPropertyOp24
 70
     1
102
RTVSPropertyOp25
 70
     1
102
RTVSPropertyOp26
 70
     1
102
RTVSPropertyOp27
 70
     1
102
RTVSPropertyOp28
 70
     1
102
RTVSPropertyOp29
 70
     1
102
RTVSPropertyOp30
 70
     1
102
RTVSPropertyOp31
 70
     1
102
RTVSPropertyOp32
 70
     1
  0
XRECORD
  5
919
102
{ACAD_REACTORS
330
918
102
}
330
918
100
AcDbXrecord
280
     1
102
RTVSPropertyOp0
 70
     1
102
RTVSPropertyOp1
 70
     1
102
RTVSPropertyOp2
 70
     1
102
RTVSPropertyOp3
 70
     1
102
RTVSPropertyOp4
 70
     1
102
RTVSPropertyOp5
 70
     1
102
RTVSPropertyOp6
 70
     1
102
RTVSPropertyOp7
 70
     1
102
RTVSPropertyOp8
 70
     1
102
RTVSPropertyOp9
 70
     1
102
RTVSPropertyOp10
 70
     1
102
RTVSPropertyOp11
 70
     1
102
RTVSPropertyOp12
 70
     1
102
RTVSPropertyOp13
 70
     1
102
RTVSPropertyOp14
 70
     1
102
RTVSPropertyOp15
 70
     1
102
RTVSPropertyOp16
 70
     1
102
RTVSPropertyOp17
 70
     1
102
RTVSPropertyOp18
 70
     1
102
RTVSPropertyOp19
 70
     1
102
RTVSPropertyOp20
 70
     1
102
RTVSPropertyOp21
 70
     1
102
RTVSPropertyOp22
 70
     1
102
RTVSPropertyOp23
 70
     1
102
RTVSPropertyOp24
 70
     1
102
RTVSPropertyOp25
 70
     1
102
RTVSPropertyOp26
 70
     1
102
RTVSPropertyOp27
 70
     1
102
RTVSPropertyOp28
 70
     1
102
RTVSPropertyOp29
 70
     1
102
RTVSPropertyOp30
 70
     1
102
RTVSPropertyOp31
 70
     1
102
RTVSPropertyOp32
 70
     1
  0
XRECORD
  5
91B
102
{ACAD_REACTORS
330
91A
102
}
330
91A
100
AcDbXrecord
280
     1
102
RTVSPropertyOp0
 70
     1
102
RTVSPropertyOp1
 70
     1
102
RTVSPropertyOp2
 70
     1
102
RTVSPropertyOp3
 70
     1
102
RTVSPropertyOp4
 70
     1
102
RTVSPropertyOp5
 70
     1
102
RTVSPropertyOp6
 70
     1
102
RTVSPropertyOp7
 70
     1
102
RTVSPropertyOp8
 70
     1
102
RTVSPropertyOp9
 70
     1
102
RTVSPropertyOp10
 70
     1
102
RTVSPropertyOp11
 70
     1
102
RTVSPropertyOp12
 70
     1
102
RTVSPropertyOp13
 70
     1
102
RTVSPropertyOp14
 70
     1
102
RTVSPropertyOp15
 70
     1
102
RTVSPropertyOp16
 70
     1
102
RTVSPropertyOp17
 70
     1
102
RTVSPropertyOp18
 70
     1
102
RTVSPropertyOp19
 70
     1
102
RTVSPropertyOp20
 70
     1
102
RTVSPropertyOp21
 70
     1
102
RTVSPropertyOp22
 70
     1
102
RTVSPropertyOp23
 70
     1
102
RTVSPropertyOp24
 70
     1
102
RTVSPropertyOp25
 70
     1
102
RTVSPropertyOp26
 70
     1
102
RTVSPropertyOp27
 70
     1
102
RTVSPropertyOp28
 70
     1
102
RTVSPropertyOp29
 70
     1
102
RTVSPropertyOp30
 70
     1
102
RTVSPropertyOp31
 70
     1
102
RTVSPropertyOp32
 70
     1
  0
XRECORD
  5
911
102
{ACAD_REACTORS
330
910
102
}
330
910
100
AcDbXrecord
280
     1
102
RTVSPropertyOp0
 70
     1
102
RTVSPropertyOp1
 70
     1
102
RTVSPropertyOp2
 70
     1
102
RTVSPropertyOp3
 70
     1
102
RTVSPropertyOp4
 70
     1
102
RTVSPropertyOp5
 70
     1
102
RTVSPropertyOp6
 70
     1
102
RTVSPropertyOp7
 70
     1
102
RTVSPropertyOp8
 70
     1
102
RTVSPropertyOp9
 70
     1
102
RTVSPropertyOp10
 70
     1
102
RTVSPropertyOp11
 70
     1
102
RTVSPropertyOp12
 70
     1
102
RTVSPropertyOp13
 70
     1
102
RTVSPropertyOp14
 70
     1
102
RTVSPropertyOp15
 70
     1
102
RTVSPropertyOp16
 70
     1
102
RTVSPropertyOp17
 70
     1
102
RTVSPropertyOp18
 70
     1
102
RTVSPropertyOp19
 70
     1
102
RTVSPropertyOp20
 70
     1
102
RTVSPropertyOp21
 70
     1
102
RTVSPropertyOp22
 70
     1
102
RTVSPropertyOp23
 70
     1
102
RTVSPropertyOp24
 70
     1
102
RTVSPropertyOp25
 70
     1
102
RTVSPropertyOp26
 70
     1
102
RTVSPropertyOp27
 70
     1
102
RTVSPropertyOp28
 70
     1
102
RTVSPropertyOp29
 70
     1
102
RTVSPropertyOp30
 70
     1
102
RTVSPropertyOp31
 70
     1
102
RTVSPropertyOp32
 70
     1
  0
XRECORD
  5
905
102
{ACAD_REACTORS
330
904
102
}
330
904
100
AcDbXrecord
280
     1
102
RTVSPropertyOp0
 70
     1
102
RTVSPropertyOp1
 70
     1
102
RTVSPropertyOp2
 70
     1
102
RTVSPropertyOp3
 70
     1
102
RTVSPropertyOp4
 70
     1
102
RTVSPropertyOp5
 70
     1
102
RTVSPropertyOp6
 70
     1
102
RTVSPropertyOp7
 70
     1
102
RTVSPropertyOp8
 70
     1
102
RTVSPropertyOp9
 70
     1
102
RTVSPropertyOp10
 70
     1
102
RTVSPropertyOp11
 70
     1
102
RTVSPropertyOp12
 70
     1
102
RTVSPropertyOp13
 70
     1
102
RTVSPropertyOp14
 70
     1
102
RTVSPropertyOp15
 70
     1
102
RTVSPropertyOp16
 70
     1
102
RTVSPropertyOp17
 70
     1
102
RTVSPropertyOp18
 70
     1
102
RTVSPropertyOp19
 70
     1
102
RTVSPropertyOp20
 70
     1
102
RTVSPropertyOp21
 70
     1
102
RTVSPropertyOp22
 70
     1
102
RTVSPropertyOp23
 70
     1
102
RTVSPropertyOp24
 70
     1
102
RTVSPropertyOp25
 70
     1
102
RTVSPropertyOp26
 70
     1
102
RTVSPropertyOp27
 70
     1
102
RTVSPropertyOp28
 70
     1
102
RTVSPropertyOp29
 70
     1
102
RTVSPropertyOp30
 70
     1
102
RTVSPropertyOp31
 70
     1
102
RTVSPropertyOp32
 70
     1
  0
XRECORD
  5
91D
102
{ACAD_REACTORS
330
91C
102
}
330
91C
100
AcDbXrecord
280
     1
102
RTVSPropertyOp0
 70
     1
102
RTVSPropertyOp1
 70
     1
102
RTVSPropertyOp2
 70
     1
102
RTVSPropertyOp3
 70
     1
102
RTVSPropertyOp4
 70
     1
102
RTVSPropertyOp5
 70
     1
102
RTVSPropertyOp6
 70
     1
102
RTVSPropertyOp7
 70
     1
102
RTVSPropertyOp8
 70
     1
102
RTVSPropertyOp9
 70
     1
102
RTVSPropertyOp10
 70
     1
102
RTVSPropertyOp11
 70
     1
102
RTVSPropertyOp12
 70
     1
102
RTVSPropertyOp13
 70
     1
102
RTVSPropertyOp14
 70
     1
102
RTVSPropertyOp15
 70
     1
102
RTVSPropertyOp16
 70
     1
102
RTVSPropertyOp17
 70
     1
102
RTVSPropertyOp18
 70
     1
102
RTVSPropertyOp19
 70
     1
102
RTVSPropertyOp20
 70
     1
102
RTVSPropertyOp21
 70
     1
102
RTVSPropertyOp22
 70
     1
102
RTVSPropertyOp23
 70
     1
102
RTVSPropertyOp24
 70
     1
102
RTVSPropertyOp25
 70
     1
102
RTVSPropertyOp26
 70
     1
102
RTVSPropertyOp27
 70
     1
102
RTVSPropertyOp28
 70
     1
102
RTVSPropertyOp29
 70
     1
102
RTVSPropertyOp30
 70
     1
102
RTVSPropertyOp31
 70
     1
102
RTVSPropertyOp32
 70
     1
  0
ENDSEC
  0
EOF
