  0
SECTION
  2
HEADER
  9
$ACADVER
  1
AC1015
  9
$ACADMAINTVER
 70
    20
  9
$DWGCODEPAGE
  3
ANSI_932
  9
$INSBASE
 10
0.0
 20
0.0
 30
0.0
  9
$EXTMIN
 10
284.985639
 20
-25.48383800000002
 30
0.0
  9
$EXTMAX
 10
689.985639
 20
254.34679
 30
0.0
  9
$LIMMIN
 10
284.984626
 20
-25.484837
  9
$LIMMAX
 10
690.0124749999998
 20
254.347786
  9
$ORTHOMODE
 70
     1
  9
$REGENMODE
 70
     1
  9
$FILLMODE
 70
     1
  9
$QTEXTMODE
 70
     0
  9
$MIRRTEXT
 70
     0
  9
$LTSCALE
 40
6.750430999999998
  9
$ATTMODE
 70
     1
  9
$TEXTSIZE
 40
3.2
  9
$TRACEWID
 40
0.05
  9
$TEXTSTYLE
  7
高3.2
  9
$CLAYER
  8
0
  9
$CELTYPE
  6
CONTINUOUS
  9
$CECOLOR
 62
   256
  9
$CELTSCALE
 40
1.0
  9
$DISPSILH
 70
     0
  9
$DIMSCALE
 40
1.0
  9
$DIMASZ
 40
2.5
  9
$DIMEXO
 40
0.25
  9
$DIMDLI
 40
0.2
  9
$DIMRND
 40
0.0
  9
$DIMDLE
 40
0.0
  9
$DIMEXE
 40
1.25
  9
$DIMTP
 40
0.0
  9
$DIMTM
 40
0.0
  9
$DIMTXT
 40
3.0
  9
$DIMCEN
 40
0.0
  9
$DIMTSZ
 40
0.0
  9
$DIMTOL
 70
     0
  9
$DIMLIM
 70
     0
  9
$DIMTIH
 70
     0
  9
$DIMTOH
 70
     0
  9
$DIMSE1
 70
     0
  9
$DIMSE2
 70
     0
  9
$DIMTAD
 70
     3
  9
$DIMZIN
 70
     8
  9
$DIMBLK
  1
Open30
  9
$DIMASO
 70
     1
  9
$DIMSHO
 70
     1
  9
$DIMPOST
  1

  9
$DIMAPOST
  1

  9
$DIMALT
 70
     0
  9
$DIMALTD
 70
     3
  9
$DIMALTF
 40
0.03937007874016
  9
$DIMLFAC
 40
1.0
  9
$DIMTOFL
 70
     1
  9
$DIMTVP
 40
0.0
  9
$DIMTIX
 70
     0
  9
$DIMSOXD
 70
     0
  9
$DIMSAH
 70
     0
  9
$DIMBLK1
  1

  9
$DIMBLK2
  1

  9
$DIMSTYLE
  2
FREE
  9
$DIMCLRD
 70
     0
  9
$DIMCLRE
 70
     0
  9
$DIMCLRT
 70
     4
  9
$DIMTFAC
 40
1.0
  9
$DIMGAP
 40
0.625
  9
$DIMJUST
 70
     0
  9
$DIMSD1
 70
     0
  9
$DIMSD2
 70
     0
  9
$DIMTOLJ
 70
     0
  9
$DIMTZIN
 70
     8
  9
$DIMALTZ
 70
     0
  9
$DIMALTTZ
 70
     0
  9
$DIMUPT
 70
     1
  9
$DIMDEC
 70
     2
  9
$DIMTDEC
 70
     2
  9
$DIMALTU
 70
     2
  9
$DIMALTTD
 70
     3
  9
$DIMTXSTY
  7
STANDARD
  9
$DIMAUNIT
 70
     0
  9
$DIMADEC
 70
     1
  9
$DIMALTRND
 40
0.0
  9
$DIMAZIN
 70
     2
  9
$DIMDSEP
 70
    46
  9
$DIMATFIT
 70
     0
  9
$DIMFRAC
 70
     0
  9
$DIMLDRBLK
  1
Open30
  9
$DIMLUNIT
 70
     2
  9
$DIMLWD
 70
    -2
  9
$DIMLWE
 70
    -2
  9
$DIMTMOVE
 70
     0
  9
$LUNITS
 70
     2
  9
$LUPREC
 70
     4
  9
$SKETCHINC
 40
0.1
  9
$FILLETRAD
 40
0.0
  9
$AUNITS
 70
     0
  9
$AUPREC
 70
     0
  9
$MENU
  1
.
  9
$ELEVATION
 40
0.0
  9
$PELEVATION
 40
0.0
  9
$THICKNESS
 40
0.0
  9
$LIMCHECK
 70
     0
  9
$CHAMFERA
 40
0.0
  9
$CHAMFERB
 40
0.0
  9
$CHAMFERC
 40
0.0
  9
$CHAMFERD
 40
0.0
  9
$SKPOLY
 70
     0
  9
$TDCREATE
 40
2456311.558881597
  9
$TDUCREATE
 40
2456311.183881597
  9
$TDUPDATE
 40
2456850.440895498
  9
$TDUUPDATE
 40
2456850.065895498
  9
$TDINDWG
 40
0.0286885648
  9
$TDUSRTIMER
 40
0.0286885648
  9
$USRTIMER
 70
     1
  9
$ANGBASE
 50
0.0
  9
$ANGDIR
 70
     0
  9
$PDMODE
 70
     0
  9
$PDSIZE
 40
0.0
  9
$PLINEWID
 40
0.0
  9
$SPLFRAME
 70
     0
  9
$SPLINETYPE
 70
     6
  9
$SPLINESEGS
 70
     8
  9
$HANDSEED
  5
814
  9
$SURFTAB1
 70
     6
  9
$SURFTAB2
 70
     6
  9
$SURFTYPE
 70
     6
  9
$SURFU
 70
     6
  9
$SURFV
 70
     6
  9
$UCSBASE
  2

  9
$UCSNAME
  2

  9
$UCSORG
 10
0.0
 20
0.0
 30
0.0
  9
$UCSXDIR
 10
1.0
 20
0.0
 30
0.0
  9
$UCSYDIR
 10
0.0
 20
1.0
 30
0.0
  9
$UCSORTHOREF
  2

  9
$UCSORTHOVIEW
 70
     0
  9
$UCSORGTOP
 10
0.0
 20
0.0
 30
0.0
  9
$UCSORGBOTTOM
 10
0.0
 20
0.0
 30
0.0
  9
$UCSORGLEFT
 10
0.0
 20
0.0
 30
0.0
  9
$UCSORGRIGHT
 10
0.0
 20
0.0
 30
0.0
  9
$UCSORGFRONT
 10
0.0
 20
0.0
 30
0.0
  9
$UCSORGBACK
 10
0.0
 20
0.0
 30
0.0
  9
$PUCSBASE
  2

  9
$PUCSNAME
  2

  9
$PUCSORG
 10
0.0
 20
0.0
 30
0.0
  9
$PUCSXDIR
 10
1.0
 20
0.0
 30
0.0
  9
$PUCSYDIR
 10
0.0
 20
1.0
 30
0.0
  9
$PUCSORTHOREF
  2

  9
$PUCSORTHOVIEW
 70
     0
  9
$PUCSORGTOP
 10
0.0
 20
0.0
 30
0.0
  9
$PUCSORGBOTTOM
 10
0.0
 20
0.0
 30
0.0
  9
$PUCSORGLEFT
 10
0.0
 20
0.0
 30
0.0
  9
$PUCSORGRIGHT
 10
0.0
 20
0.0
 30
0.0
  9
$PUCSORGFRONT
 10
0.0
 20
0.0
 30
0.0
  9
$PUCSORGBACK
 10
0.0
 20
0.0
 30
0.0
  9
$USERI1
 70
     0
  9
$USERI2
 70
     0
  9
$USERI3
 70
     0
  9
$USERI4
 70
     0
  9
$USERI5
 70
     0
  9
$USERR1
 40
0.0
  9
$USERR2
 40
0.0
  9
$USERR3
 40
0.0
  9
$USERR4
 40
0.0
  9
$USERR5
 40
0.0
  9
$WORLDVIEW
 70
     1
  9
$SHADEDGE
 70
     3
  9
$SHADEDIF
 70
    70
  9
$TILEMODE
 70
     1
  9
$MAXACTVP
 70
    64
  9
$PINSBASE
 10
0.0
 20
0.0
 30
0.0
  9
$PLIMCHECK
 70
     0
  9
$PEXTMIN
 10
1.000000000000000E+20
 20
1.000000000000000E+20
 30
1.000000000000000E+20
  9
$PEXTMAX
 10
-1.000000000000000E+20
 20
-1.000000000000000E+20
 30
-1.000000000000000E+20
  9
$PLIMMIN
 10
0.0
 20
0.0
  9
$PLIMMAX
 10
12.0
 20
9.0
  9
$UNITMODE
 70
     0
  9
$VISRETAIN
 70
     1
  9
$PLINEGEN
 70
     0
  9
$PSLTSCALE
 70
     1
  9
$TREEDEPTH
 70
  3020
  9
$CMLSTYLE
  2
Standard
  9
$CMLJUST
 70
     0
  9
$CMLSCALE
 40
1.0
  9
$PROXYGRAPHICS
 70
     1
  9
$MEASUREMENT
 70
     0
  9
$CELWEIGHT
370
    -1
  9
$ENDCAPS
280
     0
  9
$JOINSTYLE
280
     0
  9
$LWDISPLAY
290
     0
  9
$INSUNITS
 70
     0
  9
$HYPERLINKBASE
  1

  9
$STYLESHEET
  1

  9
$XEDIT
290
     1
  9
$CEPSNTYPE
380
     0
  9
$PSTYLEMODE
290
     1
  9
$FINGERPRINTGUID
  2
{0393F6C5-E778-48C3-B8E9-90B090AFE158}
  9
$VERSIONGUID
  2
{940E8AC2-B245-4E0F-8283-0EFEBA17A32A}
  9
$EXTNAMES
290
     1
  9
$PSVPSCALE
 40
0.0
  9
$OLESTARTUP
290
     0
  0
ENDSEC
  0
SECTION
  2
CLASSES
  0
CLASS
  1
ACDBDICTIONARYWDFLT
  2
AcDbDictionaryWithDefault
  3
ObjectDBX Classes
 90
        0
280
     0
281
     0
  0
CLASS
  1
MATERIAL
  2
AcDbMaterial
  3
ObjectDBX Classes
 90
     1153
280
     0
281
     0
  0
CLASS
  1
VISUALSTYLE
  2
AcDbVisualStyle
  3
ObjectDBX Classes
 90
     4095
280
     0
281
     0
  0
CLASS
  1
SCALE
  2
AcDbScale
  3
ObjectDBX Classes
 90
     1153
280
     0
281
     0
  0
CLASS
  1
TABLESTYLE
  2
AcDbTableStyle
  3
ObjectDBX Classes
 90
     4095
280
     0
281
     0
  0
CLASS
  1
MLEADERSTYLE
  2
AcDbMLeaderStyle
  3
ACDB_MLEADERSTYLE_CLASS
 90
     4095
280
     0
281
     0
  0
CLASS
  1
SORTENTSTABLE
  2
AcDbSortentsTable
  3
ObjectDBX Classes
 90
        0
280
     0
281
     0
  0
CLASS
  1
DICTIONARYVAR
  2
AcDbDictionaryVar
  3
ObjectDBX Classes
 90
        0
280
     0
281
     0
  0
CLASS
  1
CELLSTYLEMAP
  2
AcDbCellStyleMap
  3
ObjectDBX Classes
 90
     1152
280
     0
281
     0
  0
CLASS
  1
ACDBPLACEHOLDER
  2
AcDbPlaceHolder
  3
ObjectDBX Classes
 90
        0
280
     0
281
     0
  0
CLASS
  1
LAYOUT
  2
AcDbLayout
  3
ObjectDBX Classes
 90
        0
280
     0
281
     0
  0
ENDSEC
  0
SECTION
  2
TABLES
  0
TABLE
  2
VPORT
  5
8
330
0
100
AcDbSymbolTable
 70
     1
  0
VPORT
  5
8B
330
8
100
AcDbSymbolTableRecord
100
AcDbViewportTableRecord
  2
*Active
 70
     0
 10
0.0
 20
0.0
 11
1.0
 21
1.0
 12
649.275836948927
 22
74.32990617752778
 13
0.0
 23
0.0
 14
1.0
 24
1.0
 15
0.0
 25
0.0
 16
0.0
 26
0.0
 36
1.0
 17
0.0
 27
0.0
 37
0.0
 40
517.8689067370795
 41
2.123499142367066
 42
50.0
 43
0.0
 44
0.0
 50
0.0
 51
0.0
 71
     0
 72
   100
 73
     1
 74
     1
 75
     0
 76
     0
 77
     0
 78
     0
281
     0
 65
     1
110
0.0
120
0.0
130
0.0
111
1.0
121
0.0
131
0.0
112
0.0
122
1.0
132
0.0
 79
     0
146
0.0
  0
ENDTAB
  0
TABLE
  2
LTYPE
  5
5
330
0
100
AcDbSymbolTable
 70
     2
  0
LTYPE
  5
5A
330
5
100
AcDbSymbolTableRecord
100
AcDbLinetypeTableRecord
  2
ByBlock
 70
     0
  3

 72
    65
 73
     0
 40
0.0
  0
LTYPE
  5
5B
330
5
100
AcDbSymbolTableRecord
100
AcDbLinetypeTableRecord
  2
ByLayer
 70
     0
  3

 72
    65
 73
     0
 40
0.0
  0
LTYPE
  5
5C
330
5
100
AcDbSymbolTableRecord
100
AcDbLinetypeTableRecord
  2
CONTINUOUS
 70
     0
  3
Solid-line
 72
    65
 73
     0
 40
0.0
  0
ENDTAB
  0
TABLE
  2
LAYER
  5
2
102
{ACAD_XDICTIONARY
360
4E7
102
}
330
0
100
AcDbSymbolTable
 70
     2
  0
LAYER
  5
54
102
{ACAD_XDICTIONARY
360
677
102
}
330
2
100
AcDbSymbolTableRecord
100
AcDbLayerTableRecord
  2
0
 70
     0
 62
     7
  6
CONTINUOUS
370
    -3
390
F
  0
LAYER
  5
4D2
330
2
100
AcDbSymbolTableRecord
100
AcDbLayerTableRecord
  2
Defpoints
 70
     0
 62
     7
  6
CONTINUOUS
290
     0
370
    -3
390
F
  0
ENDTAB
  0
TABLE
  2
STYLE
  5
3
330
0
100
AcDbSymbolTable
 70
     5
  0
STYLE
  5
55
330
3
100
AcDbSymbolTableRecord
100
AcDbTextStyleTableRecord
  2
STANDARD
 70
     0
 40
0.0
 41
1.0
 50
0.0
 71
     0
 42
0.2
  3
TXT
  4
BIGFONT
  0
STYLE
  5
4D3
330
3
100
AcDbSymbolTableRecord
100
AcDbTextStyleTableRecord
  2
高3.2
 70
     0
 40
3.2
 41
1.0
 50
0.0
 71
     0
 42
3.2
  3
txt.shx
  4
bigfont.shx
  0
STYLE
  5
4D4
330
3
100
AcDbSymbolTableRecord
100
AcDbTextStyleTableRecord
  2
高6.3
 70
     0
 40
6.299999999999998
 41
1.0
 50
0.0
 71
     0
 42
6.299999999999998
  3
txt.shx
  4
bigfont.shx
  0
STYLE
  5
4D6
330
3
100
AcDbSymbolTableRecord
100
AcDbTextStyleTableRecord
  2
高4.5
 70
     0
 40
4.5
 41
1.0
 50
0.0
 71
     0
 42
6.299999999999998
  3
txt.shx
  4
bigfont.shx
  0
STYLE
  5
4D7
330
3
100
AcDbSymbolTableRecord
100
AcDbTextStyleTableRecord
  2
高2
 70
     0
 40
2.0
 41
1.0
 50
0.0
 71
     0
 42
2.0
  3
txt.shx
  4
bigfont.shx
  0
ENDTAB
  0
TABLE
  2
VIEW
  5
6
330
0
100
AcDbSymbolTable
 70
     0
  0
ENDTAB
  0
TABLE
  2
UCS
  5
7
330
0
100
AcDbSymbolTable
 70
     0
  0
ENDTAB
  0
TABLE
  2
APPID
  5
9
330
0
100
AcDbSymbolTable
 70
    10
  0
APPID
  5
56
330
9
100
AcDbSymbolTableRecord
100
AcDbRegAppTableRecord
  2
ACAD
 70
     0
  0
APPID
  5
5D
330
9
100
AcDbSymbolTableRecord
100
AcDbRegAppTableRecord
  2
AcadAnnotative
 70
     0
  0
APPID
  5
4E2
330
9
100
AcDbSymbolTableRecord
100
AcDbRegAppTableRecord
  2
ACAD_DSTYLE_DIMJOGGED_JOGANGLE_SYMBOL
 70
     0
  0
APPID
  5
4E3
330
9
100
AcDbSymbolTableRecord
100
AcDbRegAppTableRecord
  2
ACAD_DSTYLE_DIMJAG
 70
     0
  0
APPID
  5
4E4
330
9
100
AcDbSymbolTableRecord
100
AcDbRegAppTableRecord
  2
ACAD_DSTYLE_DIMBREAK
 70
     0
  0
APPID
  5
4E5
330
9
100
AcDbSymbolTableRecord
100
AcDbRegAppTableRecord
  2
ACAD_DSTYLE_DIMTALN
 70
     0
  0
APPID
  5
633
330
9
100
AcDbSymbolTableRecord
100
AcDbRegAppTableRecord
  2
ACAD_EXEMPT_FROM_CAD_STANDARDS
 70
     0
  0
APPID
  5
6B9
330
9
100
AcDbSymbolTableRecord
100
AcDbRegAppTableRecord
  2
ACAD_MLEADERVER
 70
     0
  0
APPID
  5
6BE
330
9
100
AcDbSymbolTableRecord
100
AcDbRegAppTableRecord
  2
ACAD_DSTYLE_DIMARC_LENGTH_SYMBOL
 70
     0
  0
APPID
  5
6BF
330
9
100
AcDbSymbolTableRecord
100
AcDbRegAppTableRecord
  2
ACAD_DSTYLE_DIMEXT_LENGTH
 70
     0
  0
ENDTAB
  0
TABLE
  2
DIMSTYLE
  5
A
330
0
100
AcDbSymbolTable
 70
     3
100
AcDbDimStyleTable
 71
     3
340
57
340
4D8
340
4E1
  0
DIMSTYLE
105
57
330
A
100
AcDbSymbolTableRecord
100
AcDbDimStyleTableRecord
  2
Standard
 70
     0
340
55
  0
DIMSTYLE
105
4D8
330
A
100
AcDbSymbolTableRecord
100
AcDbDimStyleTableRecord
  2
1：1
 70
     0
 41
2.5
 42
0.25
 43
0.2
 44
1.25
 73
     0
 74
     0
 77
     3
 78
     8
 79
     2
140
3.0
141
0.0
143
0.03937007874016
147
0.625
171
     3
172
     1
178
     4
179
     1
271
     2
272
     2
274
     3
283
     0
284
     8
288
     1
289
     0
340
55
341
442
342
442
1001
ACAD_DSTYLE_DIMARC_LENGTH_SYMBOL
1070
   379
1070
     2
1001
ACAD_DSTYLE_DIMEXT_LENGTH
1070
   378
1040
1.25
1001
ACAD_DSTYLE_DIMJOGGED_JOGANGLE_SYMBOL
1070
   384
1040
1.570796326794896
  0
DIMSTYLE
105
4E1
330
A
100
AcDbSymbolTableRecord
100
AcDbDimStyleTableRecord
  2
FREE
 70
     0
 41
2.5
 42
0.25
 43
0.2
 44
1.25
 73
     0
 74
     0
 77
     3
 78
     8
 79
     2
140
3.0
141
0.0
143
0.03937007874016
147
0.625
171
     3
172
     1
178
     4
179
     1
271
     2
272
     2
274
     3
283
     0
284
     8
288
     1
289
     0
340
55
341
442
342
442
1001
ACAD_DSTYLE_DIMBREAK
1070
   391
1040
3.75
1001
ACAD_DSTYLE_DIMJAG
1070
   388
1040
1.5
1001
ACAD_DSTYLE_DIMTALN
1070
   392
1070
     0
1001
ACAD_DSTYLE_DIMARC_LENGTH_SYMBOL
1070
   379
1070
     2
1001
ACAD_DSTYLE_DIMEXT_LENGTH
1070
   378
1040
1.25
1001
ACAD_DSTYLE_DIMJOGGED_JOGANGLE_SYMBOL
1070
   384
1040
1.570796326794896
  0
ENDTAB
  0
TABLE
  2
BLOCK_RECORD
  5
1
330
0
100
AcDbSymbolTable
 70
     4
  0
BLOCK_RECORD
  5
6B
102
{ACAD_XDICTIONARY
360
724
102
}
330
1
100
AcDbSymbolTableRecord
100
AcDbBlockTableRecord
  2
*Model_Space
340
6E
  0
BLOCK_RECORD
  5
67
330
1
100
AcDbSymbolTableRecord
100
AcDbBlockTableRecord
  2
*Paper_Space
340
6A
  0
BLOCK_RECORD
  5
442
330
1
100
AcDbSymbolTableRecord
100
AcDbBlockTableRecord
  2
_Open30
340
0
102
{BLKREFS
331
6C9
331
6CA
331
6D2
331
6D3
331
6DB
331
6DC
102
}
  0
BLOCK_RECORD
  5
627
330
1
100
AcDbSymbolTableRecord
100
AcDbBlockTableRecord
  2
*D1
340
0
  0
BLOCK_RECORD
  5
63E
330
1
100
AcDbSymbolTableRecord
100
AcDbBlockTableRecord
  2
*D2
340
0
  0
BLOCK_RECORD
  5
64A
330
1
100
AcDbSymbolTableRecord
100
AcDbBlockTableRecord
  2
*D3
340
0
  0
ENDTAB
  0
ENDSEC
  0
SECTION
  2
BLOCKS
  0
BLOCK
  5
6C
330
6B
100
AcDbEntity
  8
0
100
AcDbBlockBegin
  2
*Model_Space
 70
     0
 10
0.0
 20
0.0
 30
0.0
  3
*Model_Space
  1

  0
ENDBLK
  5
6D
330
6B
100
AcDbEntity
  8
0
100
AcDbBlockEnd
  0
BLOCK
  5
68
330
67
100
AcDbEntity
 67
     1
  8
0
100
AcDbBlockBegin
  2
*Paper_Space
 70
     0
 10
0.0
 20
0.0
 30
0.0
  3
*Paper_Space
  1

  0
ENDBLK
  5
69
330
67
100
AcDbEntity
 67
     1
  8
0
100
AcDbBlockEnd
  0
BLOCK
  5
443
330
442
100
AcDbEntity
  8
0
100
AcDbBlockBegin
  2
_Open30
 70
     0
 10
0.0
 20
0.0
 30
0.0
  3
_Open30
  1

  0
LINE
  5
444
330
442
100
AcDbEntity
  8
0
  6
ByBlock
 62
     0
370
    -2
100
AcDbLine
 10
-1.0
 20
0.267949
 30
0.0
 11
0.0
 21
0.0
 31
0.0
  0
LINE
  5
445
330
442
100
AcDbEntity
  8
0
  6
ByBlock
 62
     0
370
    -2
100
AcDbLine
 10
0.0
 20
0.0
 30
0.0
 11
-1.0
 21
-0.267949
 31
0.0
  0
LINE
  5
446
330
442
100
AcDbEntity
  8
0
  6
ByBlock
 62
     0
370
    -2
100
AcDbLine
 10
0.0
 20
0.0
 30
0.0
 11
-1.0
 21
0.0
 31
0.0
  0
ENDBLK
  5
447
330
442
100
AcDbEntity
  8
0
100
AcDbBlockEnd
  0
BLOCK
  5
628
330
627
100
AcDbEntity
  8
0
100
AcDbBlockBegin
  2
*D1
 70
     1
 10
0.0
 20
0.0
 30
0.0
  3
*D1
  1

  0
LINE
  5
6D8
330
627
100
AcDbEntity
  8
0
 62
     0
370
    -2
100
AcDbLine
 10
461.067839
 20
180.343698
 30
0.0
 11
461.067839
 21
194.395261
 31
0.0
  0
LINE
  5
6D9
330
627
100
AcDbEntity
  8
0
 62
     0
370
    -2
100
AcDbLine
 10
537.554336
 20
180.343698
 30
0.0
 11
537.554336
 21
194.395261
 31
0.0
  0
LINE
  5
6DA
330
627
100
AcDbEntity
  8
0
 62
     0
370
    -2
100
AcDbLine
 10
463.5678389999999
 20
193.145261
 30
0.0
 11
535.054336
 21
193.145261
 31
0.0
  0
INSERT
  5
6DB
330
627
100
AcDbEntity
  8
0
 62
     0
370
    -2
100
AcDbBlockReference
  2
_Open30
 10
461.067839
 20
193.145261
 30
0.0
 41
2.5
 42
2.5
 43
2.5
 50
180.0
  0
INSERT
  5
6DC
330
627
100
AcDbEntity
  8
0
 62
     0
370
    -2
100
AcDbBlockReference
  2
_Open30
 10
537.554336
 20
193.145261
 30
0.0
 41
2.5
 42
2.5
 43
2.5
  0
MTEXT
  5
6DD
330
627
100
AcDbEntity
  8
0
 62
     4
100
AcDbMText
 10
499.3110875
 20
195.270261
 30
0.0
 40
3.0
 41
0.0
 71
     5
 72
     1
  1
190
 73
     1
 44
1.0
1001
ACAD
1000
MTEXTBEGIN
1070
    73
1070
     1
1070
    44
1040
1.0
1070
    74
1070
     0
1000
MTEXTEND
  0
POINT
  5
6DE
330
627
100
AcDbEntity
  8
Defpoints
 62
     0
100
AcDbPoint
 10
461.067839
 20
180.093698
 30
0.0
  0
POINT
  5
6DF
330
627
100
AcDbEntity
  8
Defpoints
 62
     0
100
AcDbPoint
 10
537.554336
 20
180.093698
 30
0.0
  0
POINT
  5
6E0
330
627
100
AcDbEntity
  8
Defpoints
 62
     0
100
AcDbPoint
 10
537.554336
 20
193.145261
 30
0.0
  0
ENDBLK
  5
629
330
627
100
AcDbEntity
  8
0
100
AcDbBlockEnd
  0
BLOCK
  5
63F
330
63E
100
AcDbEntity
  8
0
100
AcDbBlockBegin
  2
*D2
 70
     1
 10
0.0
 20
0.0
 30
0.0
  3
*D2
  1

  0
LINE
  5
6C6
330
63E
100
AcDbEntity
  8
0
 62
     0
370
    -2
100
AcDbLine
 10
460.8178389999999
 20
133.593698
 30
0.0
 11
432.841973
 21
133.593698
 31
0.0
  0
LINE
  5
6C7
330
63E
100
AcDbEntity
  8
0
 62
     0
370
    -2
100
AcDbLine
 10
460.8178389999999
 20
180.093698
 30
0.0
 11
432.841973
 21
180.093698
 31
0.0
  0
LINE
  5
6C8
330
63E
100
AcDbEntity
  8
0
 62
     0
370
    -2
100
AcDbLine
 10
434.091973
 20
136.093698
 30
0.0
 11
434.091973
 21
177.593698
 31
0.0
  0
INSERT
  5
6C9
330
63E
100
AcDbEntity
  8
0
 62
     0
370
    -2
100
AcDbBlockReference
  2
_Open30
 10
434.091973
 20
133.593698
 30
0.0
 41
2.5
 42
2.5
 43
2.5
 50
270.0
  0
INSERT
  5
6CA
330
63E
100
AcDbEntity
  8
0
 62
     0
370
    -2
100
AcDbBlockReference
  2
_Open30
 10
434.091973
 20
180.093698
 30
0.0
 41
2.5
 42
2.5
 43
2.5
 50
90.0
  0
MTEXT
  5
6CB
330
63E
100
AcDbEntity
  8
0
 62
     4
100
AcDbMText
 10
431.966973
 20
156.8436980000001
 30
0.0
 40
3.0
 41
0.0
 71
     5
 72
     1
  1
46.5
 11
0.0000000000000001
 21
1.0
 31
0.0
 73
     1
 44
1.0
1001
ACAD
1000
MTEXTBEGIN
1070
    73
1070
     1
1070
    44
1040
1.0
1070
    74
1070
     0
1000
MTEXTEND
  0
POINT
  5
6CC
330
63E
100
AcDbEntity
  8
Defpoints
 62
     0
100
AcDbPoint
 10
461.067839
 20
133.593698
 30
0.0
  0
POINT
  5
6CD
330
63E
100
AcDbEntity
  8
Defpoints
 62
     0
100
AcDbPoint
 10
461.067839
 20
180.093698
 30
0.0
  0
POINT
  5
6CE
330
63E
100
AcDbEntity
  8
Defpoints
 62
     0
100
AcDbPoint
 10
434.091973
 20
180.093698
 30
0.0
  0
ENDBLK
  5
640
330
63E
100
AcDbEntity
  8
0
100
AcDbBlockEnd
  0
BLOCK
  5
64B
330
64A
100
AcDbEntity
  8
0
100
AcDbBlockBegin
  2
*D3
 70
     1
 10
0.0
 20
0.0
 30
0.0
  3
*D3
  1

  0
LINE
  5
6CF
330
64A
100
AcDbEntity
  8
0
 62
     0
370
    -2
100
AcDbLine
 10
320.1024910000001
 20
156.593698
 30
0.0
 11
320.1024910000001
 21
116.656633
 31
0.0
  0
LINE
  5
6D0
330
64A
100
AcDbEntity
  8
0
 62
     0
370
    -2
100
AcDbLine
 10
416.102491
 20
156.593698
 30
0.0
 11
416.102491
 21
116.656633
 31
0.0
  0
LINE
  5
6D1
330
64A
100
AcDbEntity
  8
0
 62
     0
370
    -2
100
AcDbLine
 10
322.6024910000001
 20
117.906633
 30
0.0
 11
413.602491
 21
117.906633
 31
0.0
  0
INSERT
  5
6D2
330
64A
100
AcDbEntity
  8
0
 62
     0
370
    -2
100
AcDbBlockReference
  2
_Open30
 10
320.1024910000001
 20
117.906633
 30
0.0
 41
2.5
 42
2.5
 43
2.5
 50
180.0
  0
INSERT
  5
6D3
330
64A
100
AcDbEntity
  8
0
 62
     0
370
    -2
100
AcDbBlockReference
  2
_Open30
 10
416.102491
 20
117.906633
 30
0.0
 41
2.5
 42
2.5
 43
2.5
  0
MTEXT
  5
6D4
330
64A
100
AcDbEntity
  8
0
 62
     4
100
AcDbMText
 10
368.1024910000001
 20
120.031633
 30
0.0
 40
3.0
 41
0.0
 71
     5
 72
     1
  1
96
 73
     1
 44
1.0
1001
ACAD
1000
MTEXTBEGIN
1070
    73
1070
     1
1070
    44
1040
1.0
1070
    74
1070
     0
1000
MTEXTEND
  0
POINT
  5
6D5
330
64A
100
AcDbEntity
  8
Defpoints
 62
     0
100
AcDbPoint
 10
320.1024910000001
 20
156.843698
 30
0.0
  0
POINT
  5
6D6
330
64A
100
AcDbEntity
  8
Defpoints
 62
     0
100
AcDbPoint
 10
416.102491
 20
156.843698
 30
0.0
  0
POINT
  5
6D7
330
64A
100
AcDbEntity
  8
Defpoints
 62
     0
100
AcDbPoint
 10
416.102491
 20
117.906633
 30
0.0
  0
ENDBLK
  5
64C
330
64A
100
AcDbEntity
  8
0
100
AcDbBlockEnd
  0
ENDSEC
  0
SECTION
  2
ENTITIES
  0
TEXT
  5
BB
330
6B
100
AcDbEntity
  8
0
 62
     3
100
AcDbText
 10
623.886752
 20
-14.858506
 30
0.0
 40
3.2
  1
FREE
  7
高3.2
100
AcDbText
  0
LINE
  5
BC
330
6B
100
AcDbEntity
  8
0
100
AcDbLine
 10
411.33705
 20
88.93552501187185
 30
0.0
 11
448.469539350536
 21
88.93552501187185
 31
0.0
  0
LINE
  5
BD
330
6B
100
AcDbEntity
  8
0
 62
     3
100
AcDbLine
 10
689.8856030000001
 20
20.245029
 30
0.0
 11
638.286239
 21
20.245029
 31
0.0
  0
TEXT
  5
BE
330
6B
100
AcDbEntity
  8
0
 62
     3
100
AcDbText
 10
643.6294306607365
 20
14.801114
 30
0.0
 40
4.5
  1
コード
  7
高4.5
100
AcDbText
  0
LINE
  5
BF
330
6B
100
AcDbEntity
  8
0
 62
     3
100
AcDbLine
 10
664.286239
 20
14.245029
 30
0.0
 11
664.286239
 21
20.245029
 31
0.0
  0
LINE
  5
C0
330
6B
100
AcDbEntity
  8
0
 62
     3
100
AcDbLine
 10
638.286239
 20
14.245029
 30
0.0
 11
638.286239
 21
20.245029
 31
0.0
  0
LINE
  5
C3
330
6B
100
AcDbEntity
  8
0
 62
     3
100
AcDbLine
 10
664.286275
 20
-8.818114999999997
 30
0.0
 11
664.2862750000001
 21
14.181885
 31
0.0
  0
LINE
  5
C5
330
6B
100
AcDbEntity
  8
0
 62
     3
100
AcDbLine
 10
611.2326659999999
 20
-15.818115
 30
0.0
 11
611.2326659999999
 21
-1.818115
 31
0.0
  0
TEXT
  5
C7
330
6B
100
AcDbEntity
  8
0
 62
     3
100
AcDbText
 10
640.2965929999997
 20
10.387001
 30
0.0
 40
2.0
  1
A
 41
0.7
100
AcDbText
  0
TEXT
  5
C8
330
6B
100
AcDbEntity
  8
0
 62
     3
100
AcDbText
 10
642.8318799999998
 20
10.387001
 30
0.0
 40
2.0
  1
P
 41
0.7
100
AcDbText
  0
TEXT
  5
C9
330
6B
100
AcDbEntity
  8
0
 62
     3
100
AcDbText
 10
645.367166
 20
10.387001
 30
0.0
 40
2.0
  1
P
 41
0.7
100
AcDbText
  0
TEXT
  5
CA
330
6B
100
AcDbEntity
  8
0
 62
     3
100
AcDbText
 10
647.9024519999998
 20
10.387001
 30
0.0
 40
2.0
  1
D
 41
0.7
100
AcDbText
  0
TEXT
  5
CB
330
6B
100
AcDbEntity
  8
0
 62
     3
100
AcDbText
 10
653.2711349999998
 20
10.387001
 30
0.0
 40
2.0
  1
C
 41
0.7
100
AcDbText
  0
TEXT
  5
CC
330
6B
100
AcDbEntity
  8
0
 62
     3
100
AcDbText
 10
655.806421
 20
10.387001
 30
0.0
 40
2.0
  1
H
 41
0.7
100
AcDbText
  0
TEXT
  5
CD
330
6B
100
AcDbEntity
  8
0
 62
     3
100
AcDbText
 10
658.341708
 20
10.387001
 30
0.0
 40
2.0
  1
C
 41
0.7
100
AcDbText
  0
TEXT
  5
CE
330
6B
100
AcDbEntity
  8
0
 62
     3
100
AcDbText
 10
660.8769940000001
 20
10.387001
 30
0.0
 40
2.0
  1
K
 41
0.7
100
AcDbText
  0
TEXT
  5
CF
330
6B
100
AcDbEntity
  8
0
 62
     3
100
AcDbText
 10
666.5509599999998
 20
10.387001
 30
0.0
 40
2.0
  1
DESN
 41
1.216762999999998
100
AcDbText
  0
TEXT
  5
D0
330
6B
100
AcDbEntity
  8
0
 62
     3
100
AcDbText
 10
581.5446019999998
 20
-18.959497
 30
0.0
 40
2.0
  1
NICHIDO IND.CO.LTD
 41
1.274876
100
AcDbText
  0
LINE
  5
D1
330
6B
100
AcDbEntity
  8
0
 62
     3
100
AcDbLine
 10
591.9276309999998
 20
14.181885
 30
0.0
 11
591.9276309999998
 21
-8.818114999999997
 31
0.0
  0
LINE
  5
D2
330
6B
100
AcDbEntity
  8
0
 62
     3
100
AcDbLine
 10
638.2862750000001
 20
14.181885
 30
0.0
 11
638.2862750000001
 21
-25.483838
 31
0.0
  0
LINE
  5
D7
330
6B
100
AcDbEntity
  8
0
 62
     3
100
AcDbLine
 10
651.286275
 20
14.181885
 30
0.0
 11
651.286275
 21
-15.818115
 31
0.0
  0
TEXT
  5
D8
330
6B
100
AcDbEntity
  8
0
 62
     3
100
AcDbText
 10
639.39872
 20
-14.953428
 30
0.0
 40
3.2
  1
作成日
 41
1.017225999999998
100
AcDbText
  0
LINE
  5
D9
330
6B
100
AcDbEntity
  8
0
 62
     3
100
AcDbLine
 10
689.985639
 20
14.181885
 30
0.0
 11
578.682196
 21
14.181885
 31
0.0
  0
LINE
  5
DA
330
6B
100
AcDbEntity
  8
0
 62
     3
100
AcDbLine
 10
677.286275
 20
-8.818114999999997
 30
0.0
 11
677.286275
 21
14.181885
 31
0.0
  0
TEXT
  5
DB
330
6B
100
AcDbEntity
  8
0
 62
     3
100
AcDbText
 10
680.610079
 20
10.47282
 30
0.0
 40
1.8
  1
D
 41
0.666667
100
AcDbText
  0
TEXT
  5
DC
330
6B
100
AcDbEntity
  8
0
 62
     3
100
AcDbText
 10
683.426707
 20
10.47282
 30
0.0
 40
1.8
  1
E
 41
0.666667
100
AcDbText
  0
TEXT
  5
DD
330
6B
100
AcDbEntity
  8
0
 62
     3
100
AcDbText
 10
686.2433349999998
 20
10.47282
 30
0.0
 40
1.8
  1
F
 41
0.666667
100
AcDbText
  0
TEXT
  5
DE
330
6B
100
AcDbEntity
  8
0
 62
     3
100
AcDbText
 10
680.610079
 20
6.480266
 30
0.0
 40
3.2
  1
製図
 41
1.076369
100
AcDbText
  0
LINE
  5
DF
330
6B
100
AcDbEntity
  8
0
 62
     3
100
AcDbLine
 10
578.682196
 20
14.181885
 30
0.0
 11
578.682196
 21
-25.483838
 31
0.0
  0
TEXT
  5
E0
330
6B
100
AcDbEntity
  8
0
 62
     3
100
AcDbText
 10
580.0588489999999
 20
-25.151372
 30
0.0
 40
5.0
  1
日動工業株式会社
 41
0.833333
100
AcDbText
  0
LINE
  5
E1
330
6B
100
AcDbEntity
  8
0
 62
     3
100
AcDbLine
 10
621.5645999999999
 20
-1.818115
 30
0.0
 11
621.5646
 21
-25.483838
 31
0.0
  0
LINE
  5
E2
330
6B
100
AcDbEntity
  8
0
 62
     3
100
AcDbLine
 10
621.5646
 20
-20.650976
 30
0.0
 11
638.2862750000001
 21
-20.650976
 31
0.0
  0
TEXT
  5
E3
330
6B
100
AcDbEntity
  8
0
 62
     3
100
AcDbText
 10
622.151202
 20
-19.834546
 30
0.0
 40
3.2
  1
出図コード
 41
0.8356860000000001
100
AcDbText
  0
LINE
  5
F5
330
6B
100
AcDbEntity
  8
0
 62
     3
100
AcDbLine
 10
578.682196
 20
-15.818115
 30
0.0
 11
689.985639
 21
-15.818115
 31
0.0
  0
LINE
  5
F7
330
6B
100
AcDbEntity
  8
0
 62
     3
100
AcDbLine
 10
578.682196
 20
5.181885000000001
 30
0.0
 11
689.985639
 21
5.181885
 31
0.0
  0
LINE
  5
FD
330
6B
100
AcDbEntity
  8
0
 62
     3
100
AcDbLine
 10
578.682196
 20
-1.818115
 30
0.0
 11
638.2862750000001
 21
-1.818115
 31
0.0
  0
LINE
  5
103
330
6B
100
AcDbEntity
  8
0
 62
     3
100
AcDbLine
 10
578.682196
 20
-8.818114999999995
 30
0.0
 11
689.985639
 21
-8.818114999999997
 31
0.0
  0
LINE
  5
107
330
6B
100
AcDbEntity
  8
0
 62
     3
100
AcDbLine
 10
689.985639
 20
248.571523
 30
0.0
 11
689.985639
 21
-25.48383800000002
 31
0.0
  0
LINE
  5
108
330
6B
100
AcDbEntity
  8
0
 62
     3
100
AcDbLine
 10
299.985639
 20
248.571523
 30
0.0
 11
299.985639
 21
-25.483838
 31
0.0
  0
LINE
  5
109
330
6B
100
AcDbEntity
  8
0
 62
     3
100
AcDbLine
 10
689.985639
 20
-25.483838
 30
0.0
 11
299.985639
 21
-25.483838
 31
0.0
  0
TEXT
  5
10C
330
6B
100
AcDbEntity
  8
0
 62
     3
100
AcDbText
 10
622.018654
 20
-25.10357659760302
 30
0.0
 40
3.2
  1
ZK-A3X
 41
0.8112849999999999
100
AcDbText
  0
LINE
  5
10D
330
6B
100
AcDbEntity
  8
0
 62
     2
100
AcDbLine
 10
477.760528
 20
251.011526
 30
0.0
 11
478.383025
 21
250.686571
 31
0.0
  0
LINE
  5
10E
330
6B
100
AcDbEntity
  8
0
 62
     2
100
AcDbLine
 10
477.760528
 20
245.682054
 30
0.0
 11
478.383025
 21
246.007008
 31
0.0
  0
LINE
  5
10F
330
6B
100
AcDbEntity
  8
0
 62
     2
100
AcDbLine
 10
478.383025
 20
250.686571
 30
0.0
 11
478.383025
 21
246.007008
 31
0.0
  0
LINE
  5
110
330
6B
100
AcDbEntity
  8
0
 62
     2
100
AcDbLine
 10
479.9594789999998
 20
245.682054
 30
0.0
 11
479.336982
 21
246.007008
 31
0.0
  0
LINE
  5
111
330
6B
100
AcDbEntity
  8
0
 62
     2
100
AcDbLine
 10
479.336982
 20
248.859663
 30
0.0
 11
479.336982
 21
246.007008
 31
0.0
  0
LINE
  5
112
330
6B
100
AcDbEntity
  8
0
 62
     2
100
AcDbLine
 10
483.590711
 20
251.011526
 30
0.0
 11
482.968214
 21
250.686571
 31
0.0
  0
LINE
  5
113
330
6B
100
AcDbEntity
  8
0
 62
     2
100
AcDbLine
 10
481.391761
 20
251.011526
 30
0.0
 11
482.0142579999998
 21
250.686571
 31
0.0
  0
LINE
  5
114
330
6B
100
AcDbEntity
  8
0
 62
     2
100
AcDbLine
 10
482.0142579999998
 20
250.686571
 30
0.0
 11
482.0142579999998
 21
248.62609
 31
0.0
  0
LINE
  5
115
330
6B
100
AcDbEntity
  8
0
 62
     2
100
AcDbLine
 10
482.968214
 20
250.686571
 30
0.0
 11
482.968214
 21
245.379823
 31
0.0
  0
LINE
  5
116
330
6B
100
AcDbEntity
  8
0
 62
     2
100
AcDbLine
 10
483.898279
 20
251.011522
 30
0.0
 11
484.520774
 21
250.686563
 31
0.0
  0
LINE
  5
117
330
6B
100
AcDbEntity
  8
0
 62
     2
100
AcDbLine
 10
483.8981669999998
 20
245.682125
 30
0.0
 11
484.5206759999999
 21
246.007058
 31
0.0
  0
LINE
  5
118
330
6B
100
AcDbEntity
  8
0
 62
     2
100
AcDbLine
 10
484.520774
 20
250.686563
 30
0.0
 11
484.520774
 21
246.007058
 31
0.0
  0
LINE
  5
119
330
6B
100
AcDbEntity
  8
0
 62
     2
100
AcDbLine
 10
486.654759
 20
251.011488
 30
0.0
 11
486.032258
 21
250.686542
 31
0.0
  0
LINE
  5
11A
330
6B
100
AcDbEntity
  8
0
 62
     2
100
AcDbLine
 10
486.032258
 20
250.686542
 30
0.0
 11
486.032258
 21
246.007037
 31
0.0
  0
LINE
  5
11B
330
6B
100
AcDbEntity
  8
0
 62
     2
100
AcDbLine
 10
486.654759
 20
245.682091
 30
0.0
 11
486.032258
 21
246.007037
 31
0.0
  0
LINE
  5
11C
330
6B
100
AcDbEntity
  8
0
 62
     2
100
AcDbLine
 10
491.92655
 20
251.011429
 30
0.0
 11
492.5490459999998
 21
250.686473
 31
0.0
  0
LINE
  5
11D
330
6B
100
AcDbEntity
  8
0
 62
     2
100
AcDbLine
 10
492.5490459999998
 20
250.686473
 30
0.0
 11
492.5489639999998
 21
246.006967
 31
0.0
  0
LINE
  5
11E
330
6B
100
AcDbEntity
  8
0
 62
     2
100
AcDbLine
 10
491.926457
 20
245.682033
 30
0.0
 11
492.5489639999998
 21
246.006967
 31
0.0
  0
LINE
  5
11F
330
6B
100
AcDbEntity
  8
0
 62
     2
100
AcDbLine
 10
494.715494
 20
251.011429
 30
0.0
 11
494.0929979999999
 21
250.686473
 31
0.0
  0
LINE
  5
120
330
6B
100
AcDbEntity
  8
0
 62
     2
100
AcDbLine
 10
494.715587
 20
245.682033
 30
0.0
 11
494.09308
 21
246.006967
 31
0.0
  0
LINE
  5
121
330
6B
100
AcDbEntity
  8
0
 62
     2
100
AcDbLine
 10
495.006534
 20
251.011429
 30
0.0
 11
495.62903
 21
250.686473
 31
0.0
  0
LINE
  5
122
330
6B
100
AcDbEntity
  8
0
 62
     2
100
AcDbLine
 10
495.006441
 20
245.682033
 30
0.0
 11
495.628948
 21
246.006967
 31
0.0
  0
LINE
  5
123
330
6B
100
AcDbEntity
  8
0
 62
     2
100
AcDbLine
 10
497.795478
 20
251.011429
 30
0.0
 11
497.172982
 21
250.686473
 31
0.0
  0
LINE
  5
124
330
6B
100
AcDbEntity
  8
0
 62
     2
100
AcDbLine
 10
497.172982
 20
250.686473
 30
0.0
 11
497.1730639999998
 21
246.006967
 31
0.0
  0
LINE
  5
125
330
6B
100
AcDbEntity
  8
0
 62
     2
100
AcDbLine
 10
497.7955709999998
 20
245.682033
 30
0.0
 11
497.1730639999998
 21
246.006967
 31
0.0
  0
LINE
  5
126
330
6B
100
AcDbEntity
  8
0
 62
     2
100
AcDbLine
 10
495.628994
 20
248.647711
 30
0.0
 11
494.093034
 21
248.647711
 31
0.0
  0
LINE
  5
127
330
6B
100
AcDbEntity
  8
0
 62
     2
100
AcDbLine
 10
495.628984
 20
248.045868
 30
0.0
 11
494.093044
 21
248.045868
 31
0.0
  0
LINE
  5
128
330
6B
100
AcDbEntity
  8
0
 62
     2
100
AcDbLine
 10
495.62903
 20
250.686473
 30
0.0
 11
495.628994
 21
248.647711
 31
0.0
  0
LINE
  5
129
330
6B
100
AcDbEntity
  8
0
 62
     2
100
AcDbLine
 10
495.628984
 20
248.045868
 30
0.0
 11
495.628948
 21
246.006967
 31
0.0
  0
LINE
  5
12A
330
6B
100
AcDbEntity
  8
0
 62
     2
100
AcDbLine
 10
494.0929979999999
 20
250.686473
 30
0.0
 11
494.093034
 21
248.647711
 31
0.0
  0
LINE
  5
12B
330
6B
100
AcDbEntity
  8
0
 62
     2
100
AcDbLine
 10
494.093044
 20
248.045868
 30
0.0
 11
494.09308
 21
246.006967
 31
0.0
  0
LINE
  5
12C
330
6B
100
AcDbEntity
  8
0
 62
     2
100
AcDbLine
 10
498.091134
 20
251.011429
 30
0.0
 11
498.7136299999998
 21
250.686473
 31
0.0
  0
LINE
  5
12D
330
6B
100
AcDbEntity
  8
0
 62
     2
100
AcDbLine
 10
498.7136299999998
 20
250.686473
 30
0.0
 11
498.713548
 21
246.006967
 31
0.0
  0
LINE
  5
12E
330
6B
100
AcDbEntity
  8
0
 62
     2
100
AcDbLine
 10
498.0910409999999
 20
245.682033
 30
0.0
 11
498.713548
 21
246.006967
 31
0.0
  0
LINE
  5
12F
330
6B
100
AcDbEntity
  8
0
 62
     2
100
AcDbLine
 10
500.8475769999998
 20
251.011429
 30
0.0
 11
500.2250809999998
 21
250.686473
 31
0.0
  0
LINE
  5
130
330
6B
100
AcDbEntity
  8
0
 62
     2
100
AcDbLine
 10
500.2250809999998
 20
250.686473
 30
0.0
 11
500.2251629999998
 21
246.006967
 31
0.0
  0
LINE
  5
131
330
6B
100
AcDbEntity
  8
0
 62
     2
100
AcDbLine
 10
500.84767
 20
245.682033
 30
0.0
 11
500.2251629999998
 21
246.006967
 31
0.0
  0
LINE
  5
132
330
6B
100
AcDbEntity
  8
0
 62
     2
100
AcDbLine
 10
501.1538049999998
 20
251.011429
 30
0.0
 11
501.776301
 21
250.686473
 31
0.0
  0
LINE
  5
133
330
6B
100
AcDbEntity
  8
0
 62
     2
100
AcDbLine
 10
501.776301
 20
250.686473
 30
0.0
 11
501.7762199999999
 21
246.006967
 31
0.0
  0
LINE
  5
134
330
6B
100
AcDbEntity
  8
0
 62
     2
100
AcDbLine
 10
501.1537119999998
 20
245.682033
 30
0.0
 11
501.7762199999999
 21
246.006967
 31
0.0
  0
ARC
  5
135
330
6B
100
AcDbEntity
  8
0
 62
     2
100
AcDbCircle
 10
489.938105
 20
248.360204
 30
0.0
 40
2.980408
100
AcDbArc
 50
97.701524
 51
270.0
  0
ARC
  5
136
330
6B
100
AcDbEntity
  8
0
 62
     2
100
AcDbCircle
 10
508.338964
 20
248.330265
 30
0.0
 40
3.012775999999998
100
AcDbArc
 50
0.31425
 51
69.00558199999998
  0
ARC
  5
137
330
6B
100
AcDbEntity
  8
0
 62
     2
100
AcDbCircle
 10
508.997071
 20
248.330265
 30
0.0
 40
3.012775999999998
100
AcDbArc
 50
110.994418
 51
148.116611
  0
ARC
  5
138
330
6B
100
AcDbEntity
  8
0
 62
     2
100
AcDbCircle
 10
508.338964
 20
248.363314
 30
0.0
 40
3.012775999999998
100
AcDbArc
 50
290.994418
 51
359.68575
  0
ARC
  5
139
330
6B
100
AcDbEntity
  8
0
 62
     2
100
AcDbCircle
 10
508.997071
 20
248.363314
 30
0.0
 40
3.012775999999998
100
AcDbArc
 50
211.883389
 51
249.005582
  0
ARC
  5
13A
330
6B
100
AcDbEntity
  8
0
 62
     2
100
AcDbCircle
 10
508.668017
 20
249.579369
 30
0.0
 40
1.734386999999999
100
AcDbArc
 50
64.365172
 51
115.634828
  0
ARC
  5
13B
330
6B
100
AcDbEntity
  8
0
 62
     2
100
AcDbCircle
 10
508.668017
 20
247.11421
 30
0.0
 40
1.734386999999999
100
AcDbArc
 50
244.365172
 51
295.634828
  0
ARC
  5
13C
330
6B
100
AcDbEntity
  8
0
 62
     2
100
AcDbCircle
 10
508.668017
 20
249.612314
 30
0.0
 40
0.8512219999999999
100
AcDbArc
 50
19.486606
 51
160.513394
  0
ARC
  5
13D
330
6B
100
AcDbEntity
  8
0
 62
     2
100
AcDbCircle
 10
508.668017
 20
247.081265
 30
0.0
 40
0.8512219999999999
100
AcDbArc
 50
199.4866059999999
 51
340.513394
  0
ARC
  5
13E
330
6B
100
AcDbEntity
  8
0
 62
     3
100
AcDbCircle
 10
501.8930570000001
 20
216.592418
 30
0.0
 40
37.20000000000001
100
AcDbArc
 50
69.50571500000001
 51
81.689988
  0
ARC
  5
13F
330
6B
100
AcDbEntity
  8
0
 62
     3
100
AcDbCircle
 10
501.8930570000001
 20
280.101161
 30
0.0
 40
37.20000000000001
100
AcDbArc
 50
278.310012
 51
290.494285
  0
ARC
  5
140
330
6B
100
AcDbEntity
  8
0
 62
     3
100
AcDbCircle
 10
513.76192
 20
248.34679
 30
0.0
 40
3.299999999999998
100
AcDbArc
 50
290.494285
 51
69.50571500000001
  0
ARC
  5
141
330
6B
100
AcDbEntity
  8
0
 62
     3
100
AcDbCircle
 10
474.76192
 20
248.34679
 30
0.0
 40
3.299999999999998
100
AcDbArc
 50
110.494285
 51
249.505715
  0
ARC
  5
142
330
6B
100
AcDbEntity
  8
0
 62
     3
100
AcDbCircle
 10
486.630783
 20
216.592418
 30
0.0
 40
37.20000000000001
100
AcDbArc
 50
98.31001200000001
 51
110.494285
  0
ARC
  5
143
330
6B
100
AcDbEntity
  8
0
 62
     3
100
AcDbCircle
 10
486.630783
 20
280.101161
 30
0.0
 40
37.20000000000001
100
AcDbArc
 50
249.505715
 51
261.689988
  0
ARC
  5
144
330
6B
100
AcDbEntity
  8
0
 62
     3
100
AcDbCircle
 10
494.26192
 20
164.34679
 30
0.0
 40
90.0
100
AcDbArc
 50
81.689988
 51
98.31001200000001
  0
ARC
  5
145
330
6B
100
AcDbEntity
  8
0
 62
     3
100
AcDbCircle
 10
494.26192
 20
332.34679
 30
0.0
 40
90.0
100
AcDbArc
 50
261.689988
 51
278.310012
  0
ARC
  5
146
330
6B
100
AcDbEntity
  8
0
 62
     3
100
AcDbCircle
 10
494.26192
 20
164.34679
 30
0.0
 40
89.1
100
AcDbArc
 50
81.689988
 51
98.31001200000001
  0
ARC
  5
147
330
6B
100
AcDbEntity
  8
0
 62
     3
100
AcDbCircle
 10
494.26192
 20
332.34679
 30
0.0
 40
89.1
100
AcDbArc
 50
261.689988
 51
278.310012
  0
ARC
  5
148
330
6B
100
AcDbEntity
  8
0
 62
     3
100
AcDbCircle
 10
501.8930570000001
 20
280.101161
 30
0.0
 40
36.3
100
AcDbArc
 50
278.310012
 51
290.494285
  0
ARC
  5
149
330
6B
100
AcDbEntity
  8
0
 62
     3
100
AcDbCircle
 10
501.8930570000001
 20
216.592418
 30
0.0
 40
36.3
100
AcDbArc
 50
69.50571500000001
 51
81.689988
  0
ARC
  5
14A
330
6B
100
AcDbEntity
  8
0
 62
     3
100
AcDbCircle
 10
513.76192
 20
248.34679
 30
0.0
 40
2.399999999999999
100
AcDbArc
 50
290.494285
 51
69.50571500000001
  0
ARC
  5
14B
330
6B
100
AcDbEntity
  8
0
 62
     3
100
AcDbCircle
 10
474.76192
 20
248.34679
 30
0.0
 40
2.399999999999999
100
AcDbArc
 50
110.494285
 51
249.505715
  0
ARC
  5
14C
330
6B
100
AcDbEntity
  8
0
 62
     3
100
AcDbCircle
 10
486.630783
 20
216.592418
 30
0.0
 40
36.3
100
AcDbArc
 50
98.31001200000001
 51
110.494285
  0
ARC
  5
14D
330
6B
100
AcDbEntity
  8
0
 62
     3
100
AcDbCircle
 10
486.630783
 20
280.101161
 30
0.0
 40
36.3
100
AcDbArc
 50
249.505715
 51
261.689988
  0
LINE
  5
14E
330
6B
100
AcDbEntity
  8
0
 62
     2
100
AcDbLine
 10
500.847579
 20
245.379823
 30
0.0
 11
498.091133
 21
245.379823
 31
0.0
  0
LINE
  5
14F
330
6B
100
AcDbEntity
  8
0
 62
     2
100
AcDbLine
 10
500.847579
 20
245.682054
 30
0.0
 11
500.847579
 21
245.379823
 31
0.0
  0
LINE
  5
150
330
6B
100
AcDbEntity
  8
0
 62
     2
100
AcDbLine
 10
497.795479
 20
251.313615
 30
0.0
 11
495.006533
 21
251.313615
 31
0.0
  0
LINE
  5
151
330
6B
100
AcDbEntity
  8
0
 62
     2
100
AcDbLine
 10
497.795479
 20
251.313615
 30
0.0
 11
497.795479
 21
251.011526
 31
0.0
  0
LINE
  5
152
330
6B
100
AcDbEntity
  8
0
 62
     2
100
AcDbLine
 10
497.795479
 20
245.682054
 30
0.0
 11
497.795479
 21
245.379682
 31
0.0
  0
LINE
  5
153
330
6B
100
AcDbEntity
  8
0
 62
     2
100
AcDbLine
 10
497.795479
 20
245.379682
 30
0.0
 11
495.006533
 21
245.379682
 31
0.0
  0
LINE
  5
154
330
6B
100
AcDbEntity
  8
0
 62
     2
100
AcDbLine
 10
500.847579
 20
251.313756
 30
0.0
 11
500.847579
 21
251.011526
 31
0.0
  0
LINE
  5
155
330
6B
100
AcDbEntity
  8
0
 62
     2
100
AcDbLine
 10
500.847579
 20
251.313756
 30
0.0
 11
498.091133
 21
251.313756
 31
0.0
  0
LINE
  5
156
330
6B
100
AcDbEntity
  8
0
 62
     2
100
AcDbLine
 10
498.091133
 20
251.313756
 30
0.0
 11
498.091133
 21
251.011526
 31
0.0
  0
LINE
  5
157
330
6B
100
AcDbEntity
  8
0
 62
     2
100
AcDbLine
 10
501.1538039999998
 20
245.682054
 30
0.0
 11
501.1538039999998
 21
245.379823
 31
0.0
  0
LINE
  5
158
330
6B
100
AcDbEntity
  8
0
 62
     2
100
AcDbLine
 10
503.988519
 20
245.379823
 30
0.0
 11
501.1538039999998
 21
245.379823
 31
0.0
  0
LINE
  5
159
330
6B
100
AcDbEntity
  8
0
 62
     2
100
AcDbLine
 10
503.287753
 20
250.359799
 30
0.0
 11
503.287753
 21
246.33378
 31
0.0
  0
LINE
  5
15A
330
6B
100
AcDbEntity
  8
0
 62
     2
100
AcDbLine
 10
503.287753
 20
246.33378
 30
0.0
 11
503.5592509999998
 21
246.33378
 31
0.0
  0
ARC
  5
15B
330
6B
100
AcDbEntity
  8
0
 62
     2
100
AcDbCircle
 10
502.170986
 20
248.34679
 30
0.0
 40
2.445299
100
AcDbArc
 50
304.591955
 51
55.408045
  0
LINE
  5
15C
330
6B
100
AcDbEntity
  8
0
 62
     2
100
AcDbLine
 10
503.988519
 20
251.313756
 30
0.0
 11
501.1538039999998
 21
251.313756
 31
0.0
  0
LINE
  5
15D
330
6B
100
AcDbEntity
  8
0
 62
     2
100
AcDbLine
 10
501.1538039999998
 20
251.313756
 30
0.0
 11
501.1538039999998
 21
251.011526
 31
0.0
  0
LINE
  5
15E
330
6B
100
AcDbEntity
  8
0
 62
     2
100
AcDbLine
 10
498.091133
 20
245.682054
 30
0.0
 11
498.091133
 21
245.379823
 31
0.0
  0
LINE
  5
15F
330
6B
100
AcDbEntity
  8
0
 62
     2
100
AcDbLine
 10
503.287753
 20
250.359799
 30
0.0
 11
503.5592509999998
 21
250.359799
 31
0.0
  0
LINE
  5
160
330
6B
100
AcDbEntity
  8
0
 62
     2
100
AcDbLine
 10
486.6546669999998
 20
245.682054
 30
0.0
 11
486.654662
 21
245.379795
 31
0.0
  0
LINE
  5
161
330
6B
100
AcDbEntity
  8
0
 62
     2
100
AcDbLine
 10
483.898217
 20
245.379852
 30
0.0
 11
486.654662
 21
245.379803
 31
0.0
  0
LINE
  5
162
330
6B
100
AcDbEntity
  8
0
 62
     2
100
AcDbLine
 10
477.760528
 20
245.379823
 30
0.0
 11
479.9594789999998
 21
245.379823
 31
0.0
  0
ARC
  5
163
330
6B
100
AcDbEntity
  8
0
 62
     2
100
AcDbCircle
 10
470.643467
 20
248.416656
 30
0.0
 40
21.019379
100
AcDbArc
 50
353.866006
 51
357.694034
  0
LINE
  5
164
330
6B
100
AcDbEntity
  8
0
 62
     2
100
AcDbLine
 10
490.2385809999998
 20
247.576131
 30
0.0
 11
491.6458259999997
 21
247.570924
 31
0.0
  0
LINE
  5
1A7
330
6B
100
AcDbEntity
  8
0
 62
     2
100
AcDbLine
 10
490.244265
 20
249.112152
 30
0.0
 11
491.6515089999998
 21
249.106945
 31
0.0
  0
ARC
  5
1A8
330
6B
100
AcDbEntity
  8
0
 62
     2
100
AcDbCircle
 10
470.643467
 20
248.416656
 30
0.0
 40
21.019379
100
AcDbArc
 50
1.881965999999999
 51
5.709994
  0
LINE
  5
1A9
330
6B
100
AcDbEntity
  8
0
 62
     2
100
AcDbLine
 10
486.654766
 20
251.313728
 30
0.0
 11
486.6547599999998
 21
251.011526
 31
0.0
  0
LINE
  5
1AA
330
6B
100
AcDbEntity
  8
0
 62
     2
100
AcDbLine
 10
483.89832
 20
251.313784
 30
0.0
 11
486.654766
 21
251.313736
 31
0.0
  0
LINE
  5
1AB
330
6B
100
AcDbEntity
  8
0
 62
     2
100
AcDbLine
 10
483.898222
 20
245.682054
 30
0.0
 11
483.898217
 21
245.379852
 31
0.0
  0
LINE
  5
1AC
330
6B
100
AcDbEntity
  8
0
 62
     2
100
AcDbLine
 10
483.89832
 20
251.313784
 30
0.0
 11
483.898315
 21
251.011526
 31
0.0
  0
LINE
  5
1AD
330
6B
100
AcDbEntity
  8
0
 62
     2
100
AcDbLine
 10
479.9594789999998
 20
245.682054
 30
0.0
 11
479.9594789999998
 21
245.379823
 31
0.0
  0
LINE
  5
1AE
330
6B
100
AcDbEntity
  8
0
 62
     2
100
AcDbLine
 10
479.336982
 20
248.859663
 30
0.0
 11
481.511882
 21
245.379823
 31
0.0
  0
LINE
  5
1AF
330
6B
100
AcDbEntity
  8
0
 62
     2
100
AcDbLine
 10
481.511882
 20
245.379823
 30
0.0
 11
482.968214
 21
245.379823
 31
0.0
  0
LINE
  5
1B0
330
6B
100
AcDbEntity
  8
0
 62
     2
100
AcDbLine
 10
483.590711
 20
251.313756
 30
0.0
 11
483.590711
 21
251.011526
 31
0.0
  0
LINE
  5
1B1
330
6B
100
AcDbEntity
  8
0
 62
     2
100
AcDbLine
 10
481.391761
 20
251.313756
 30
0.0
 11
483.590711
 21
251.313756
 31
0.0
  0
LINE
  5
1B2
330
6B
100
AcDbEntity
  8
0
 62
     2
100
AcDbLine
 10
481.391761
 20
251.313756
 30
0.0
 11
481.391761
 21
251.011526
 31
0.0
  0
LINE
  5
1B3
330
6B
100
AcDbEntity
  8
0
 62
     2
100
AcDbLine
 10
482.0142579999998
 20
248.62609
 30
0.0
 11
480.2504769999998
 21
251.313756
 31
0.0
  0
LINE
  5
1B4
330
6B
100
AcDbEntity
  8
0
 62
     2
100
AcDbLine
 10
477.760528
 20
251.313756
 30
0.0
 11
480.2504769999998
 21
251.313756
 31
0.0
  0
LINE
  5
1B5
330
6B
100
AcDbEntity
  8
0
 62
     2
100
AcDbLine
 10
491.9265489999999
 20
251.313615
 30
0.0
 11
494.715495
 21
251.313615
 31
0.0
  0
LINE
  5
1B6
330
6B
100
AcDbEntity
  8
0
 62
     2
100
AcDbLine
 10
491.9265489999999
 20
251.011526
 30
0.0
 11
491.9265489999999
 21
251.313615
 31
0.0
  0
LINE
  5
1B7
330
6B
100
AcDbEntity
  8
0
 62
     2
100
AcDbLine
 10
491.9265489999999
 20
245.379682
 30
0.0
 11
491.9265489999999
 21
245.682054
 31
0.0
  0
LINE
  5
1B8
330
6B
100
AcDbEntity
  8
0
 62
     2
100
AcDbLine
 10
491.9265489999999
 20
245.379682
 30
0.0
 11
494.715495
 21
245.379682
 31
0.0
  0
LINE
  5
1B9
330
6B
100
AcDbEntity
  8
0
 62
     2
100
AcDbLine
 10
495.006533
 20
245.682054
 30
0.0
 11
495.006533
 21
245.379682
 31
0.0
  0
LINE
  5
1BA
330
6B
100
AcDbEntity
  8
0
 62
     2
100
AcDbLine
 10
494.715495
 20
245.682054
 30
0.0
 11
494.715495
 21
245.379682
 31
0.0
  0
LINE
  5
1BB
330
6B
100
AcDbEntity
  8
0
 62
     2
100
AcDbLine
 10
494.715495
 20
251.011526
 30
0.0
 11
494.715495
 21
251.313615
 31
0.0
  0
LINE
  5
1BC
330
6B
100
AcDbEntity
  8
0
 62
     2
100
AcDbLine
 10
495.006533
 20
251.011526
 30
0.0
 11
495.006533
 21
251.313615
 31
0.0
  0
LINE
  5
1BD
330
6B
100
AcDbEntity
  8
0
 62
     2
100
AcDbLine
 10
477.760528
 20
245.682054
 30
0.0
 11
477.760528
 21
245.379823
 31
0.0
  0
LINE
  5
1BE
330
6B
100
AcDbEntity
  8
0
 62
     2
100
AcDbLine
 10
477.760528
 20
251.313756
 30
0.0
 11
477.760528
 21
251.011526
 31
0.0
  0
ARC
  5
1BF
330
6B
100
AcDbEntity
  8
0
 62
     2
100
AcDbCircle
 10
504.288519
 20
248.969287
 30
0.0
 40
2.344468999999999
100
AcDbArc
 50
17.308749
 51
23.765071
  0
ARC
  5
1C0
330
6B
100
AcDbEntity
  8
0
 62
     2
100
AcDbCircle
 10
502.290986
 20
248.34679
 30
0.0
 40
4.436751
100
AcDbArc
 50
342.691251
 51
17.308566
  0
ARC
  5
1C1
330
6B
100
AcDbEntity
  8
0
 62
     2
100
AcDbCircle
 10
504.288519
 20
247.724293
 30
0.0
 40
2.344468999999999
100
AcDbArc
 50
336.234929
 51
342.691251
  0
ARC
  5
1C2
330
6B
100
AcDbEntity
  8
0
 62
     2
100
AcDbCircle
 10
503.988519
 20
248.969287
 30
0.0
 40
2.344468999999999
100
AcDbArc
 50
17.308749
 51
90.0
  0
ARC
  5
1C3
330
6B
100
AcDbEntity
  8
0
 62
     2
100
AcDbCircle
 10
501.990986
 20
248.34679
 30
0.0
 40
4.436751
100
AcDbArc
 50
342.691251
 51
17.308566
  0
ARC
  5
1C4
330
6B
100
AcDbEntity
  8
0
 62
     2
100
AcDbCircle
 10
503.988519
 20
247.724293
 30
0.0
 40
2.344468999999999
100
AcDbArc
 50
270.0
 51
342.691251
  0
ARC
  5
1C5
330
6B
100
AcDbEntity
  8
0
 62
     2
100
AcDbCircle
 10
489.5257469999998
 20
248.34679
 30
0.0
 40
2.966965999999998
100
AcDbArc
 50
46.75287999999999
 51
89.749998
  0
ARC
  5
1C6
330
6B
100
AcDbEntity
  8
0
 62
     2
100
AcDbCircle
 10
489.5257469999998
 20
248.34679
 30
0.0
 40
2.966965999999998
100
AcDbArc
 50
273.976333
 51
312.82312
  0
ARC
  5
1C7
330
6B
100
AcDbEntity
  8
0
 62
     2
100
AcDbCircle
 10
505.871187
 20
248.300987
 30
0.0
 40
3.936983999999998
100
AcDbArc
 50
0.6665840000000001
 51
23.903928
  0
ARC
  5
1C8
330
6B
100
AcDbEntity
  8
0
 62
     2
100
AcDbCircle
 10
511.464848
 20
248.300987
 30
0.0
 40
3.936983999999998
100
AcDbArc
 50
156.096072
 51
179.333416
  0
ARC
  5
1C9
330
6B
100
AcDbEntity
  8
0
 62
     2
100
AcDbCircle
 10
505.871187
 20
248.392592
 30
0.0
 40
3.936983999999998
100
AcDbArc
 50
336.096072
 51
359.333416
  0
ARC
  5
1CA
330
6B
100
AcDbEntity
  8
0
 62
     2
100
AcDbCircle
 10
511.464848
 20
248.392592
 30
0.0
 40
3.936983999999998
100
AcDbArc
 50
180.666584
 51
203.903928
  0
LINE
  5
1CB
330
6B
100
AcDbEntity
  8
0
 62
     3
100
AcDbLine
 10
518.6423639999998
 20
248.571523
 30
0.0
 11
689.985639
 21
248.571523
 31
0.0
  0
LINE
  5
1CC
330
6B
100
AcDbEntity
  8
0
 62
     3
100
AcDbLine
 10
470.088329
 20
248.571523
 30
0.0
 11
299.985639
 21
248.571523
 31
0.0
  0
TEXT
  5
1CD
330
6B
100
AcDbEntity
  8
0
 62
     3
100
AcDbText
 10
580.499593
 20
10.351411
 30
0.0
 40
2.0
  1
CONPONENTS
 41
0.5331600000000001
100
AcDbText
  0
TEXT
  5
1CE
330
6B
100
AcDbEntity
  8
0
 62
     3
100
AcDbText
 10
580.1498669999999
 20
-8.580766
 30
0.0
 40
3.0
  1
材
 41
0.833333
100
AcDbText
  0
TEXT
  5
1CF
330
6B
100
AcDbEntity
  8
0
 62
     3
100
AcDbText
 10
587.685509
 20
-8.580766
 30
0.0
 40
3.0
  1
質
 41
0.833333
100
AcDbText
  0
TEXT
  5
1D0
330
6B
100
AcDbEntity
  8
0
 62
     3
100
AcDbText
 10
580.2379369999998
 20
2.043759
 30
0.0
 40
2.0
  1
MODEL
 41
1.031072999999999
100
AcDbText
  0
TEXT
  5
1D1
330
6B
100
AcDbEntity
  8
0
 62
     3
100
AcDbText
 10
580.1498669999999
 20
-4.898457999999998
 30
0.0
 40
2.0
  1
MATERIAL
 41
0.659278
100
AcDbText
  0
TEXT
  5
1D2
330
6B
100
AcDbEntity
  8
0
 62
     3
100
AcDbText
 10
611.4571469999998
 20
-8.580766
 30
0.0
 40
3.0
  1
備
 41
0.833333
100
AcDbText
  0
TEXT
  5
1D3
330
6B
100
AcDbEntity
  8
0
 62
     3
100
AcDbText
 10
618.190149
 20
-8.580766
 30
0.0
 40
3.0
  1
考
 41
0.833333
100
AcDbText
  0
TEXT
  5
1D4
330
6B
100
AcDbEntity
  8
0
 62
     3
100
AcDbText
 10
611.793109440011
 20
-4.898457999999998
 30
0.0
 40
2.0
  1
REMARKS
 41
0.675794
100
AcDbText
  0
TEXT
  5
1D5
330
6B
100
AcDbEntity
  8
0
 62
     3
100
AcDbText
 10
581.7395959999998
 20
-11.818578
 30
0.0
 40
2.0
  1
3AD
 41
1.42614
100
AcDbText
  0
TEXT
  5
1D6
330
6B
100
AcDbEntity
  8
0
 62
     3
100
AcDbText
 10
591.0505749999998
 20
-11.652845
 30
0.0
 40
2.0
  1
ANGLE
 41
1.669883999999998
100
AcDbText
  0
TEXT
  5
1D7
330
6B
100
AcDbEntity
  8
0
 62
     3
100
AcDbText
 10
611.984462
 20
-12.029686
 30
0.0
 40
2.0
  1
SCALE
 41
0.7719630000000001
100
AcDbText
  0
TEXT
  5
1D8
330
6B
100
AcDbEntity
  8
0
 62
     3
100
AcDbText
 10
581.425725
 20
-15.818115
 30
0.0
 40
3.0
  1
第
 41
0.833333
100
AcDbText
  0
TEXT
  5
1D9
330
6B
100
AcDbEntity
  8
0
 62
     3
100
AcDbText
 10
589.2125749999999
 20
-15.818115
 30
0.0
 40
3.0
  1
三
 41
0.833333
100
AcDbText
  0
TEXT
  5
1DA
330
6B
100
AcDbEntity
  8
0
 62
     3
100
AcDbText
 10
596.999425
 20
-15.818115
 30
0.0
 40
3.0
  1
角
 41
0.833333
100
AcDbText
  0
TEXT
  5
1DB
330
6B
100
AcDbEntity
  8
0
 62
     3
100
AcDbText
 10
604.786275
 20
-15.818115
 30
0.0
 40
3.0
  1
法
 41
0.833333
100
AcDbText
  0
TEXT
  5
1DC
330
6B
100
AcDbEntity
  8
0
 62
     3
100
AcDbText
 10
611.8476669999998
 20
-15.52968599999999
 30
0.0
 40
3.0
  1
尺
 41
0.833333
100
AcDbText
  0
TEXT
  5
1DD
330
6B
100
AcDbEntity
  8
0
 62
     3
100
AcDbText
 10
618.580669
 20
-15.52968599999999
 30
0.0
 40
3.0
  1
度
 41
0.833333
100
AcDbText
  0
TEXT
  5
1DE
330
6B
100
AcDbEntity
  8
0
 62
     3
100
AcDbText
 10
641.16394
 20
6.639613999999999
 30
0.0
 40
3.0
  1
承認
 41
1.089472999999999
100
AcDbText
  0
TEXT
  5
1DF
330
6B
100
AcDbEntity
  8
0
 62
     3
100
AcDbText
 10
654.40682
 20
6.581885
 30
0.0
 40
3.0
  1
検図
 41
0.931761
100
AcDbText
  0
TEXT
  5
1E0
330
6B
100
AcDbEntity
  8
0
 62
     3
100
AcDbText
 10
667.4072169999998
 20
6.581885
 30
0.0
 40
3.0
  1
設
 41
0.833333
100
AcDbText
  0
TEXT
  5
1E1
330
6B
100
AcDbEntity
  8
0
 62
     3
100
AcDbText
 10
671.8970849999998
 20
6.581885
 30
0.0
 40
3.0
  1
計
 41
0.833333
100
AcDbText
  0
TEXT
  5
1E2
330
6B
100
AcDbEntity
  8
0
 62
     3
100
AcDbText
 10
580.5697
 20
6.754436999999998
 30
0.0
 40
3.0
  1
品
 41
0.833333
100
AcDbText
  0
TEXT
  5
1E3
330
6B
100
AcDbEntity
  8
0
 62
     3
100
AcDbText
 10
588.1053419999998
 20
6.754436999999998
 30
0.0
 40
3.0
  1
名
 41
0.833333
100
AcDbText
  0
TEXT
  5
1E4
330
6B
100
AcDbEntity
  8
0
 62
     3
100
AcDbText
 10
580.2379369999998
 20
-1.439587808148269
 30
0.0
 40
3.0
  1
型
 41
0.833333
100
AcDbText
  0
TEXT
  5
1E5
330
6B
100
AcDbEntity
  8
0
 62
     3
100
AcDbText
 10
587.786028
 20
-1.439587808148269
 30
0.0
 40
3.0
  1
式
 41
0.833333
100
AcDbText
  0
TEXT
  5
1ED
330
6B
100
AcDbEntity
  8
0
 62
     3
100
AcDbText
 10
411.33705
 20
89.722699
 30
0.0
 40
4.5
  1
主　　仕　　様
  7
高4.5
100
AcDbText
  0
TEXT
  5
1EE
330
6B
100
AcDbEntity
  8
0
 62
     3
100
AcDbText
 10
401.307141
 20
81.67304900000003
 30
0.0
 40
3.2
  1
型　　式
  7
高3.2
100
AcDbText
  0
TEXT
  5
1EF
330
6B
100
AcDbEntity
  8
0
 62
     3
100
AcDbText
 10
597.164644
 20
6.141494
 30
0.0
 40
4.5
  1
コンバーター
  7
高4.5
100
AcDbText
  0
TEXT
  5
1F0
330
6B
100
AcDbEntity
  8
0
 62
     3
100
AcDbText
 10
654.321556
 20
-15.007917
 30
0.0
 40
3.2
  1
2008.10.03
  7
高3.2
100
AcDbText
  0
LINE
  5
1F1
330
6B
100
AcDbEntity
  8
0
 62
     3
100
AcDbLine
 10
399.39189
 20
87.50400799999999
 30
0.0
 11
514.109832
 21
87.50400799999999
 31
0.0
  0
LINE
  5
1F8
330
6B
100
AcDbEntity
  8
0
 62
     3
100
AcDbLine
 10
287.583715
 20
115.016162
 30
0.0
 11
284.985639
 21
113.516162
 31
0.0
  0
LINE
  5
1F9
330
6B
100
AcDbEntity
  8
0
 62
     3
100
AcDbLine
 10
287.583715
 20
115.016162
 30
0.0
 11
284.985639
 21
116.516162
 31
0.0
  0
LINE
  5
1FA
330
6B
100
AcDbEntity
  8
0
 62
     3
100
AcDbLine
 10
284.985639
 20
113.516162
 30
0.0
 11
284.985639
 21
116.516162
 31
0.0
  0
TEXT
  5
1FB
330
6B
100
AcDbEntity
  8
0
 62
     3
100
AcDbText
 10
401.307141
 20
75.173049
 30
0.0
 40
3.2
  1
定格入力電圧
  7
高3.2
100
AcDbText
  0
TEXT
  5
1FC
330
6B
100
AcDbEntity
  8
0
 62
     3
100
AcDbText
 10
401.307141
 20
68.673049
 30
0.0
 40
3.2
  1
入力電圧動作範囲
  7
高3.2
100
AcDbText
  0
TEXT
  5
1FD
330
6B
100
AcDbEntity
  8
0
 62
     3
100
AcDbText
 10
401.307141
 20
62.173049
 30
0.0
 40
3.2
  1
定格出力電圧
  7
高3.2
100
AcDbText
  0
TEXT
  5
1FE
330
6B
100
AcDbEntity
  8
0
 62
     3
100
AcDbText
 10
401.307141
 20
55.304067
 30
0.0
 40
3.2
  1
連続運転定格値
  7
高3.2
100
AcDbText
  0
TEXT
  5
1FF
330
6B
100
AcDbEntity
  8
0
 62
     3
100
AcDbText
 10
401.307141
 20
49.173049
 30
0.0
 40
3.2
  1
瞬間最大出力電流
  7
高3.2
100
AcDbText
  0
TEXT
  5
200
330
6B
100
AcDbEntity
  8
0
 62
     3
100
AcDbText
 10
401.307141
 20
42.673049
 30
0.0
 40
3.2
  1
冷却方式
  7
高3.2
100
AcDbText
  0
TEXT
  5
201
330
6B
100
AcDbEntity
  8
0
 62
     3
100
AcDbText
 10
401.307141
 20
36.173049
 30
0.0
 40
3.2
  1
出力電力（定格）
  7
高3.2
100
AcDbText
  0
TEXT
  5
202
330
6B
100
AcDbEntity
  8
0
 62
     3
100
AcDbText
 10
401.307141
 20
29.673049
 30
0.0
 40
3.2
  1
待機電流
  7
高3.2
100
AcDbText
  0
LINE
  5
203
330
6B
100
AcDbEntity
  8
0
100
AcDbLine
 10
399.39189
 20
55.004008
 30
0.0
 11
514.109832
 21
55.004008
 31
0.0
  0
LINE
  5
204
330
6B
100
AcDbEntity
  8
0
100
AcDbLine
 10
399.39189
 20
61.50400799999999
 30
0.0
 11
514.109832
 21
61.50400799999999
 31
0.0
  0
LINE
  5
205
330
6B
100
AcDbEntity
  8
0
100
AcDbLine
 10
399.39189
 20
68.004008
 30
0.0
 11
514.109832
 21
68.004008
 31
0.0
  0
LINE
  5
206
330
6B
100
AcDbEntity
  8
0
100
AcDbLine
 10
399.39189
 20
74.504008
 30
0.0
 11
514.109832
 21
74.504008
 31
0.0
  0
LINE
  5
207
330
6B
100
AcDbEntity
  8
0
100
AcDbLine
 10
399.39189
 20
81.004008
 30
0.0
 11
514.109832
 21
81.004008
 31
0.0
  0
LINE
  5
208
330
6B
100
AcDbEntity
  8
0
 62
     3
100
AcDbLine
 10
399.39189
 20
-9.995991999999999
 30
0.0
 11
514.109832
 21
-9.995991999999999
 31
0.0
  0
TEXT
  5
209
330
6B
100
AcDbEntity
  8
0
 62
     3
100
AcDbText
 10
401.307141
 20
-9.326950999999999
 30
0.0
 40
3.2
  1
質　　量
  7
高3.2
100
AcDbText
  0
TEXT
  5
20A
330
6B
100
AcDbEntity
  8
0
 62
     3
100
AcDbText
 10
401.307141
 20
23.173049
 30
0.0
 40
3.2
  1
全負荷変換効率
  7
高3.2
100
AcDbText
  0
TEXT
  5
20B
330
6B
100
AcDbEntity
  8
0
 62
     3
100
AcDbText
 10
401.307141
 20
16.673049
 30
0.0
 40
3.2
  1
出力電圧調整範囲
  7
高3.2
100
AcDbText
  0
TEXT
  5
20C
330
6B
100
AcDbEntity
  8
0
 62
     3
100
AcDbText
 10
401.307141
 20
10.173049
 30
0.0
 40
3.2
  1
出力電圧変動率
  7
高3.2
100
AcDbText
  0
TEXT
  5
20D
330
6B
100
AcDbEntity
  8
0
 62
     3
100
AcDbText
 10
401.307141
 20
3.673048999999998
 30
0.0
 40
3.2
  1
入出力絶縁方法
  7
高3.2
100
AcDbText
  0
TEXT
  5
20E
330
6B
100
AcDbEntity
  8
0
 62
     3
100
AcDbText
 10
401.307141
 20
-2.826950999999998
 30
0.0
 40
3.2
  1
使用温度範囲
  7
高3.2
100
AcDbText
  0
TEXT
  5
20F
330
6B
100
AcDbEntity
  8
0
 62
     3
100
AcDbText
 10
435.8000774964162
 20
75.173049
 30
0.0
 40
3.2
  1
DC24V
  7
高3.2
100
AcDbText
  0
TEXT
  5
210
330
6B
100
AcDbEntity
  8
0
 62
     3
100
AcDbText
 10
435.8000774964162
 20
68.673049
 30
0.0
 40
3.2
  1
DC20～30V
  7
高3.2
100
AcDbText
  0
TEXT
  5
211
330
6B
100
AcDbEntity
  8
0
 62
     3
100
AcDbText
 10
435.8000774964162
 20
61.804067
 30
0.0
 40
3.2
  1
DC13.8V
  7
高3.2
100
AcDbText
  0
TEXT
  5
212
330
6B
100
AcDbEntity
  8
0
 62
     3
100
AcDbText
 10
435.8000774964162
 20
29.673049
 30
0.0
 40
3.2
  1
30～40mA
  7
高3.2
100
AcDbText
  0
TEXT
  5
213
330
6B
100
AcDbEntity
  8
0
 62
     3
100
AcDbText
 10
435.8000774964162
 20
23.173049
 30
0.0
 40
3.2
  1
80％以上
  7
高3.2
100
AcDbText
  0
TEXT
  5
214
330
6B
100
AcDbEntity
  8
0
 62
     3
100
AcDbText
 10
435.8000774964162
 20
16.673049
 30
0.0
 40
3.2
  1
DC12～15V(初期設
  7
高3.2
100
AcDbText
  0
TEXT
  5
215
330
6B
100
AcDbEntity
  8
0
 62
     3
100
AcDbText
 10
435.8000774964162
 20
10.173049
 30
0.0
 40
3.2
  1
－0.8～＋0.2
  7
高3.2
100
AcDbText
  0
TEXT
  5
216
330
6B
100
AcDbEntity
  8
0
 62
     3
100
AcDbText
 10
435.8000774964162
 20
3.673048999999998
 30
0.0
 40
3.2
  1
ダイオード
  7
高3.2
100
AcDbText
  0
TEXT
  5
217
330
6B
100
AcDbEntity
  8
0
 62
     3
100
AcDbText
 10
435.8000774964162
 20
-2.826950999999998
 30
0.0
 40
3.2
  1
－20℃～50℃
  7
高3.2
100
AcDbText
  0
LINE
  5
218
330
6B
100
AcDbEntity
  8
0
 62
     3
100
AcDbLine
 10
399.39189
 20
-9.995991999999999
 30
0.0
 11
399.39189
 21
87.50400799999999
 31
0.0
  0
LINE
  5
219
330
6B
100
AcDbEntity
  8
0
 62
     3
100
AcDbLine
 10
433.8848274964163
 20
87.50400799999999
 30
0.0
 11
433.8848274964163
 21
-9.995991999999999
 31
0.0
  0
LINE
  5
21A
330
6B
100
AcDbEntity
  8
0
 62
     3
100
AcDbLine
 10
514.109832
 20
87.50400799999999
 30
0.0
 11
514.109832
 21
-9.995991999999999
 31
0.0
  0
LINE
  5
21B
330
6B
100
AcDbEntity
  8
0
100
AcDbLine
 10
399.39189
 20
16.004008
 30
0.0
 11
514.109832
 21
16.004008
 31
0.0
  0
LINE
  5
21C
330
6B
100
AcDbEntity
  8
0
100
AcDbLine
 10
399.39189
 20
48.504008
 30
0.0
 11
514.109832
 21
48.504008
 31
0.0
  0
LINE
  5
21D
330
6B
100
AcDbEntity
  8
0
100
AcDbLine
 10
399.39189
 20
42.00400799999999
 30
0.0
 11
514.109832
 21
42.00400799999999
 31
0.0
  0
LINE
  5
21E
330
6B
100
AcDbEntity
  8
0
100
AcDbLine
 10
399.39189
 20
35.504008
 30
0.0
 11
514.109832
 21
35.504008
 31
0.0
  0
LINE
  5
21F
330
6B
100
AcDbEntity
  8
0
100
AcDbLine
 10
399.39189
 20
29.004008
 30
0.0
 11
514.109832
 21
29.004008
 31
0.0
  0
LINE
  5
220
330
6B
100
AcDbEntity
  8
0
100
AcDbLine
 10
399.39189
 20
22.504008
 30
0.0
 11
514.109832
 21
22.504008
 31
0.0
  0
LINE
  5
221
330
6B
100
AcDbEntity
  8
0
100
AcDbLine
 10
399.39189
 20
9.504008
 30
0.0
 11
514.109832
 21
9.504008
 31
0.0
  0
LINE
  5
222
330
6B
100
AcDbEntity
  8
0
100
AcDbLine
 10
399.39189
 20
3.004008
 30
0.0
 11
514.109832
 21
3.004008
 31
0.0
  0
LINE
  5
223
330
6B
100
AcDbEntity
  8
0
100
AcDbLine
 10
399.39189
 20
-3.495991999999998
 30
0.0
 11
514.109832
 21
-3.495991999999998
 31
0.0
  0
TEXT
  5
224
330
6B
100
AcDbEntity
  8
0
 62
     3
100
AcDbText
 10
435.8000774964162
 20
42.673049
 30
0.0
 40
3.2
  1
ヒートシンク放射冷却,FAN
  7
高3.2
100
AcDbText
  0
TEXT
  5
225
330
6B
100
AcDbEntity
  8
0
 62
     3
100
AcDbText
 10
435.8000774964162
 20
81.67304900000003
 30
0.0
 40
3.2
  1
BU-20A
  7
高3.2
100
AcDbText
  0
TEXT
  5
226
330
6B
100
AcDbEntity
  8
0
 62
     3
100
AcDbText
 10
435.8000774964162
 20
55.67304899999999
 30
0.0
 40
3.2
  1
18A
  7
高3.2
100
AcDbText
  0
TEXT
  5
227
330
6B
100
AcDbEntity
  8
0
 62
     3
100
AcDbText
 10
435.8000774964162
 20
49.173049
 30
0.0
 40
3.2
  1
20A
  7
高3.2
100
AcDbText
  0
TEXT
  5
228
330
6B
100
AcDbEntity
  8
0
 62
     3
100
AcDbText
 10
435.8000774964162
 20
36.173049
 30
0.0
 40
3.2
  1
276W
  7
高3.2
100
AcDbText
  0
TEXT
  5
229
330
6B
100
AcDbEntity
  8
0
 62
     3
100
AcDbText
 10
435.8000774964162
 20
-9.326950999999999
 30
0.0
 40
3.2
  1
約1.08kg
  7
高3.2
100
AcDbText
  0
TEXT
  5
22A
330
6B
100
AcDbEntity
  8
0
 62
     3
100
AcDbText
 10
579.672775
 20
27.586213
 30
0.0
 40
4.5
  1
バックアップ回路内蔵
  7
高4.5
100
AcDbText
  0
TEXT
  5
22B
330
6B
100
AcDbEntity
  8
0
 62
     3
100
AcDbText
 10
580.118252
 20
22.685961
 30
0.0
 40
4.5
  1
ACC入力付き
  7
高4.5
100
AcDbText
  0
TEXT
  5
22C
330
6B
100
AcDbEntity
  8
0
 62
     3
100
AcDbText
 10
598.5822595917111
 20
-1.306738999999998
 30
0.0
 40
4.5
  1
BU-20A
  7
高4.5
100
AcDbText
  0
TEXT
  5
22D
330
6B
100
AcDbEntity
  8
0
 62
     3
100
AcDbText
 10
644.685047011269
 20
-24.808748
 30
0.0
 40
6.299999999999998
  1
BU-20A
  7
高6.3
100
AcDbText
  0
TEXT
  5
22E
330
6B
100
AcDbEntity
  8
0
 62
     3
100
AcDbText
 10
668.0868591705173
 20
14.743385
 30
0.0
 40
4.5
  1
6314
  7
高4.5
100
AcDbText
  0
LINE
  5
22F
330
6B
100
AcDbEntity
  8
0
 62
     3
100
AcDbLine
 10
410.7571619999998
 20
180.093698
 30
0.0
 11
325.447821
 21
180.093698
 31
0.0
  0
LINE
  5
230
330
6B
100
AcDbEntity
  8
0
 62
     3
100
AcDbLine
 10
461.067839
 20
133.593698
 30
0.0
 11
486.5262219999998
 21
133.593698
 31
0.0
  0
LINE
  5
231
330
6B
100
AcDbEntity
  8
0
 62
     3
100
AcDbLine
 10
414.102491
 20
129.093698
 30
0.0
 11
414.102491
 21
142.593698
 31
0.0
  0
LINE
  5
232
330
6B
100
AcDbEntity
  8
0
 62
     3
100
AcDbLine
 10
322.1024910000001
 20
129.093698
 30
0.0
 11
322.1024910000001
 21
142.593698
 31
0.0
  0
LINE
  5
233
330
6B
100
AcDbEntity
  8
0
 62
     3
100
AcDbLine
 10
322.1024910000001
 20
129.093698
 30
0.0
 11
414.102491
 21
129.093698
 31
0.0
  0
LINE
  5
234
330
6B
100
AcDbEntity
  8
0
 62
     3
100
AcDbLine
 10
329.102491
 20
138.093698
 30
0.0
 11
361.564143
 21
138.093698
 31
0.0
  0
ARC
  5
235
330
6B
100
AcDbEntity
  8
0
 62
     3
100
AcDbCircle
 10
324.508741
 20
156.843698
 30
0.0
 40
91.59375
100
AcDbArc
 50
348.004644
 51
13.21298
  0
ARC
  5
236
330
6B
100
AcDbEntity
  8
0
 62
     3
100
AcDbCircle
 10
411.696241
 20
156.843698
 30
0.0
 40
91.59375
100
AcDbArc
 50
166.78702
 51
191.995356
  0
LINE
  5
237
330
6B
100
AcDbEntity
  8
0
 62
     3
100
AcDbLine
 10
328.1024910000001
 20
143.593698
 30
0.0
 11
323.102491
 21
143.593698
 31
0.0
  0
LINE
  5
238
330
6B
100
AcDbEntity
  8
0
 62
     3
100
AcDbLine
 10
407.102491
 20
138.093698
 30
0.0
 11
407.102491
 21
142.593698
 31
0.0
  0
LINE
  5
239
330
6B
100
AcDbEntity
  8
0
 62
     3
100
AcDbLine
 10
329.102491
 20
138.093698
 30
0.0
 11
329.102491
 21
142.593698
 31
0.0
  0
LINE
  5
23A
330
6B
100
AcDbEntity
  8
0
 62
     3
100
AcDbLine
 10
408.102491
 20
143.593698
 30
0.0
 11
413.102491
 21
143.593698
 31
0.0
  0
CIRCLE
  5
23B
330
6B
100
AcDbEntity
  8
0
 62
     3
100
AcDbCircle
 10
368.102491
 20
151.593698
 30
0.0
 40
15.0
  0
LINE
  5
23C
330
6B
100
AcDbEntity
  8
0
 62
     3
100
AcDbLine
 10
374.64084
 20
138.093698
 30
0.0
 11
407.102491
 21
138.093698
 31
0.0
  0
CIRCLE
  5
23D
330
6B
100
AcDbEntity
  8
0
 62
     3
100
AcDbCircle
 10
340.6024910000001
 20
163.793698
 30
0.0
 40
5.5
  0
CIRCLE
  5
23E
330
6B
100
AcDbEntity
  8
0
 62
     3
100
AcDbCircle
 10
340.6024910000001
 20
144.793698
 30
0.0
 40
5.5
  0
LINE
  5
23F
330
6B
100
AcDbEntity
  8
0
 62
     3
100
AcDbLine
 10
402.102491
 20
143.093698
 30
0.0
 11
388.1024910000002
 21
143.093698
 31
0.0
  0
LINE
  5
240
330
6B
100
AcDbEntity
  8
0
 62
     3
100
AcDbLine
 10
402.102491
 20
162.093698
 30
0.0
 11
388.1024910000002
 21
162.093698
 31
0.0
  0
LINE
  5
241
330
6B
100
AcDbEntity
  8
0
 62
     3
100
AcDbLine
 10
402.102491
 20
162.093698
 30
0.0
 11
402.102491
 21
143.093698
 31
0.0
  0
LINE
  5
242
330
6B
100
AcDbEntity
  8
0
 62
     3
100
AcDbLine
 10
388.1024910000002
 20
162.093698
 30
0.0
 11
388.1024910000002
 21
143.093698
 31
0.0
  0
ARC
  5
243
330
6B
100
AcDbEntity
  8
0
 62
     3
100
AcDbCircle
 10
413.102491
 20
142.593698
 30
0.0
 40
1.0
100
AcDbArc
 50
0.0
 51
90.0
  0
ARC
  5
244
330
6B
100
AcDbEntity
  8
0
 62
     3
100
AcDbCircle
 10
408.102491
 20
142.593698
 30
0.0
 40
1.0
100
AcDbArc
 50
90.0
 51
180.0
  0
ARC
  5
245
330
6B
100
AcDbEntity
  8
0
 62
     3
100
AcDbCircle
 10
328.1024910000001
 20
142.593698
 30
0.0
 40
1.0
100
AcDbArc
 50
0.0
 51
90.0
  0
ARC
  5
246
330
6B
100
AcDbEntity
  8
0
 62
     3
100
AcDbCircle
 10
323.102491
 20
142.593698
 30
0.0
 40
1.0
100
AcDbArc
 50
90.0
 51
180.0
  0
ARC
  5
247
330
6B
100
AcDbEntity
  8
0
 62
     3
100
AcDbCircle
 10
410.7571619999998
 20
177.093698
 30
0.0
 40
3.0
100
AcDbArc
 50
13.21298
 51
90.0
  0
ARC
  5
248
330
6B
100
AcDbEntity
  8
0
 62
     3
100
AcDbCircle
 10
325.447821
 20
177.093698
 30
0.0
 40
3.0
100
AcDbArc
 50
90.0
 51
166.78702
  0
LINE
  5
249
330
6B
100
AcDbEntity
  8
0
 62
     3
100
AcDbLine
 10
461.067839
 20
180.093698
 30
0.0
 11
484.29052
 21
180.093698
 31
0.0
  0
LINE
  5
24A
330
6B
100
AcDbEntity
  8
0
 62
     3
100
AcDbLine
 10
491.7233519999999
 20
180.093698
 30
0.0
 11
537.554336
 21
180.093698
 31
0.0
  0
LINE
  5
24B
330
6B
100
AcDbEntity
  8
0
 62
     3
100
AcDbLine
 10
493.959054
 20
133.593698
 30
0.0
 11
537.554336
 21
133.593698
 31
0.0
  0
LINE
  5
24C
330
6B
100
AcDbEntity
  8
0
 62
     3
100
AcDbLine
 10
461.067839
 20
133.593698
 30
0.0
 11
461.067839
 21
180.093698
 31
0.0
  0
LINE
  5
24D
330
6B
100
AcDbEntity
  8
0
 62
     3
100
AcDbLine
 10
537.554336
 20
133.593698
 30
0.0
 11
537.554336
 21
180.093698
 31
0.0
  0
LINE
  5
24E
330
6B
100
AcDbEntity
  8
0
 62
     3
100
AcDbLine
 10
611.4545429999998
 20
134.593698
 30
0.0
 11
611.4545429999998
 21
138.093698
 31
0.0
  0
LINE
  5
24F
330
6B
100
AcDbEntity
  8
0
 62
     3
100
AcDbLine
 10
618.454543
 20
134.593698
 30
0.0
 11
618.454543
 21
138.093698
 31
0.0
  0
LINE
  5
250
330
6B
100
AcDbEntity
  8
0
 62
     3
100
AcDbLine
 10
568.9545429999998
 20
129.093698
 30
0.0
 11
568.9545429999998
 21
142.593698
 31
0.0
  0
ARC
  5
251
330
6B
100
AcDbEntity
  8
0
 62
     3
100
AcDbCircle
 10
569.9545429999998
 20
142.593698
 30
0.0
 40
1.0
100
AcDbArc
 50
90.0
 51
180.0
  0
LINE
  5
252
330
6B
100
AcDbEntity
  8
0
 62
     3
100
AcDbLine
 10
660.9545429999998
 20
129.093698
 30
0.0
 11
660.9545429999998
 21
142.593698
 31
0.0
  0
LINE
  5
253
330
6B
100
AcDbEntity
  8
0
 62
     3
100
AcDbLine
 10
657.609214
 20
180.093698
 30
0.0
 11
572.299873
 21
180.093698
 31
0.0
  0
LINE
  5
254
330
6B
100
AcDbEntity
  8
0
 62
     3
100
AcDbLine
 10
618.454543
 20
134.593698
 30
0.0
 11
611.4545429999998
 21
134.593698
 31
0.0
  0
LINE
  5
255
330
6B
100
AcDbEntity
  8
0
 62
     3
100
AcDbLine
 10
575.9545429999998
 20
138.093698
 30
0.0
 11
611.4545429999998
 21
138.093698
 31
0.0
  0
LINE
  5
256
330
6B
100
AcDbEntity
  8
0
 62
     3
100
AcDbLine
 10
618.454543
 20
138.093698
 30
0.0
 11
653.9545429999998
 21
138.093698
 31
0.0
  0
LINE
  5
257
330
6B
100
AcDbEntity
  8
0
 62
     3
100
AcDbLine
 10
574.9545429999998
 20
143.593698
 30
0.0
 11
569.9545429999998
 21
143.593698
 31
0.0
  0
ARC
  5
258
330
6B
100
AcDbEntity
  8
0
 62
     3
100
AcDbCircle
 10
574.9545429999998
 20
142.593698
 30
0.0
 40
1.0
100
AcDbArc
 50
0.0
 51
90.0
  0
LINE
  5
259
330
6B
100
AcDbEntity
  8
0
 62
     3
100
AcDbLine
 10
654.9545429999998
 20
143.593698
 30
0.0
 11
659.9545429999998
 21
143.593698
 31
0.0
  0
ARC
  5
25A
330
6B
100
AcDbEntity
  8
0
 62
     3
100
AcDbCircle
 10
659.9545429999998
 20
142.593698
 30
0.0
 40
1.0
100
AcDbArc
 50
0.0
 51
90.0
  0
LINE
  5
25B
330
6B
100
AcDbEntity
  8
0
 62
     3
100
AcDbLine
 10
568.9545429999998
 20
129.093698
 30
0.0
 11
660.9545429999998
 21
129.093698
 31
0.0
  0
ARC
  5
25C
330
6B
100
AcDbEntity
  8
0
 62
     3
100
AcDbCircle
 10
571.3607929999998
 20
156.843698
 30
0.0
 40
91.59375
100
AcDbArc
 50
348.004644
 51
13.21298
  0
ARC
  5
25D
330
6B
100
AcDbEntity
  8
0
 62
     3
100
AcDbCircle
 10
658.5482929999998
 20
156.843698
 30
0.0
 40
91.59375
100
AcDbArc
 50
166.78702
 51
191.995356
  0
LINE
  5
25E
330
6B
100
AcDbEntity
  8
0
 62
     3
100
AcDbLine
 10
653.9545429999998
 20
138.093698
 30
0.0
 11
653.9545429999998
 21
142.593698
 31
0.0
  0
ARC
  5
25F
330
6B
100
AcDbEntity
  8
0
 62
     3
100
AcDbCircle
 10
654.9545429999998
 20
142.593698
 30
0.0
 40
1.0
100
AcDbArc
 50
90.0
 51
180.0
  0
LINE
  5
260
330
6B
100
AcDbEntity
  8
0
 62
     3
100
AcDbLine
 10
575.9545429999998
 20
138.093698
 30
0.0
 11
575.9545429999998
 21
142.593698
 31
0.0
  0
ARC
  5
261
330
6B
100
AcDbEntity
  8
0
 62
     3
100
AcDbCircle
 10
657.609214
 20
177.093698
 30
0.0
 40
3.0
100
AcDbArc
 50
13.21298
 51
90.0
  0
ARC
  5
262
330
6B
100
AcDbEntity
  8
0
 62
     3
100
AcDbCircle
 10
572.299873
 20
177.093698
 30
0.0
 40
3.0
100
AcDbArc
 50
90.0
 51
166.78702
  0
LINE
  5
263
330
6B
100
AcDbEntity
  8
0
 62
     3
100
AcDbLine
 10
524.4986469999998
 20
116.811661
 30
0.0
 11
524.4986469999998
 21
121.811661
 31
0.0
  0
LINE
  5
264
330
6B
100
AcDbEntity
  8
0
 62
     3
100
AcDbLine
 10
504.4986469999998
 20
116.811661
 30
0.0
 11
504.4986469999998
 21
121.811661
 31
0.0
  0
LINE
  5
265
330
6B
100
AcDbEntity
  8
0
 62
     3
100
AcDbLine
 10
504.4986469999998
 20
121.811661
 30
0.0
 11
524.4986469999998
 21
121.811661
 31
0.0
  0
LINE
  5
266
330
6B
100
AcDbEntity
  8
0
 62
     3
100
AcDbLine
 10
504.4986469999998
 20
116.811661
 30
0.0
 11
524.4986469999998
 21
116.811661
 31
0.0
  0
LINE
  5
267
330
6B
100
AcDbEntity
  8
0
100
AcDbLine
 10
322.1024910000001
 20
130.093698
 30
0.0
 11
414.102491
 21
130.093698
 31
0.0
  0
CIRCLE
  5
268
330
6B
100
AcDbEntity
  8
0
100
AcDbCircle
 10
410.602491
 20
139.593698
 30
0.0
 40
2.5
  0
CIRCLE
  5
269
330
6B
100
AcDbEntity
  8
0
100
AcDbCircle
 10
325.6024910000001
 20
139.593698
 30
0.0
 40
2.5
  0
CIRCLE
  5
26A
330
6B
100
AcDbEntity
  8
0
100
AcDbCircle
 10
410.602491
 20
177.093698
 30
0.0
 40
2.5
  0
CIRCLE
  5
26B
330
6B
100
AcDbEntity
  8
0
100
AcDbCircle
 10
325.6024910000001
 20
177.093698
 30
0.0
 40
2.5
  0
LINE
  5
26C
330
6B
100
AcDbEntity
  8
0
100
AcDbLine
 10
371.6024910000002
 20
134.593698
 30
0.0
 11
364.602491
 21
134.593698
 31
0.0
  0
LINE
  5
26D
330
6B
100
AcDbEntity
  8
0
100
AcDbLine
 10
371.6024910000002
 20
134.593698
 30
0.0
 11
371.6024910000002
 21
137.007746
 31
0.0
  0
LINE
  5
26E
330
6B
100
AcDbEntity
  8
0
100
AcDbLine
 10
364.602491
 20
134.593698
 30
0.0
 11
364.602491
 21
137.007746
 31
0.0
  0
LINE
  5
26F
330
6B
100
AcDbEntity
  8
0
100
AcDbLine
 10
369.235097
 20
171.593698
 30
0.0
 11
366.969886
 21
171.593698
 31
0.0
  0
LINE
  5
270
330
6B
100
AcDbEntity
  8
0
100
AcDbLine
 10
370.225062
 20
170.735007
 30
0.0
 11
370.852491
 21
166.33946
 31
0.0
  0
LINE
  5
271
330
6B
100
AcDbEntity
  8
0
100
AcDbLine
 10
365.97992
 20
170.735007
 30
0.0
 11
365.3524910000002
 21
166.33946
 31
0.0
  0
LINE
  5
272
330
6B
100
AcDbEntity
  8
0
100
AcDbLine
 10
325.6024910000001
 20
163.793698
 30
0.0
 11
335.102491
 21
163.793698
 31
0.0
  0
LINE
  5
273
330
6B
100
AcDbEntity
  8
0
100
AcDbLine
 10
390.852491
 20
144.793698
 30
0.0
 11
399.3524910000002
 21
144.793698
 31
0.0
  0
CIRCLE
  5
274
330
6B
100
AcDbEntity
  8
0
100
AcDbCircle
 10
340.6024910000001
 20
163.793698
 30
0.0
 40
3.5
  0
CIRCLE
  5
275
330
6B
100
AcDbEntity
  8
0
100
AcDbCircle
 10
340.6024910000001
 20
144.793698
 30
0.0
 40
3.5
  0
LINE
  5
276
330
6B
100
AcDbEntity
  8
0
100
AcDbLine
 10
399.3524910000002
 20
159.793698
 30
0.0
 11
390.852491
 21
159.793698
 31
0.0
  0
ARC
  5
277
330
6B
100
AcDbEntity
  8
0
100
AcDbCircle
 10
371.727491
 20
152.293698
 30
0.0
 40
28.625
100
AcDbArc
 50
344.810713
 51
15.189287
  0
ARC
  5
278
330
6B
100
AcDbEntity
  8
0
100
AcDbCircle
 10
418.477491
 20
152.293698
 30
0.0
 40
28.625
100
AcDbArc
 50
164.810713
 51
195.189287
  0
LINE
  5
279
330
6B
100
AcDbEntity
  8
0
100
AcDbLine
 10
391.602491
 20
155.874943
 30
0.0
 11
398.6024910000002
 21
155.874943
 31
0.0
  0
LINE
  5
27A
330
6B
100
AcDbEntity
  8
0
100
AcDbLine
 10
399.3524910000002
 20
159.793698
 30
0.0
 11
398.6024910000002
 21
155.874943
 31
0.0
  0
LINE
  5
27B
330
6B
100
AcDbEntity
  8
0
100
AcDbLine
 10
398.6024910000002
 20
155.874943
 30
0.0
 11
399.3524910000002
 21
144.793698
 31
0.0
  0
LINE
  5
27C
330
6B
100
AcDbEntity
  8
0
100
AcDbLine
 10
390.852491
 20
159.793698
 30
0.0
 11
391.602491
 21
155.874943
 31
0.0
  0
LINE
  5
27D
330
6B
100
AcDbEntity
  8
0
100
AcDbLine
 10
391.602491
 20
155.874943
 30
0.0
 11
390.852491
 21
144.793698
 31
0.0
  0
LINE
  5
27E
330
6B
100
AcDbEntity
  8
0
100
AcDbLine
 10
325.6024910000001
 20
144.793698
 30
0.0
 11
335.102491
 21
144.793698
 31
0.0
  0
LINE
  5
27F
330
6B
100
AcDbEntity
  8
0
100
AcDbLine
 10
382.1024910000001
 20
146.293698
 30
0.0
 11
382.1024910000001
 21
146.208533
 31
0.0
  0
LINE
  5
280
330
6B
100
AcDbEntity
  8
0
100
AcDbLine
 10
383.102491
 20
146.293698
 30
0.0
 11
383.102491
 21
162.293698
 31
0.0
  0
LINE
  5
281
330
6B
100
AcDbEntity
  8
0
100
AcDbLine
 10
384.1024910000001
 20
162.293698
 30
0.0
 11
384.1024910000001
 21
146.293698
 31
0.0
  0
LINE
  5
282
330
6B
100
AcDbEntity
  8
0
100
AcDbLine
 10
385.1024910000002
 20
162.293698
 30
0.0
 11
385.1024910000002
 21
146.293698
 31
0.0
  0
LINE
  5
283
330
6B
100
AcDbEntity
  8
0
100
AcDbLine
 10
386.1024910000002
 20
162.293698
 30
0.0
 11
386.1024910000002
 21
146.293698
 31
0.0
  0
LINE
  5
284
330
6B
100
AcDbEntity
  8
0
100
AcDbLine
 10
387.102491
 20
162.293698
 30
0.0
 11
387.102491
 21
146.293698
 31
0.0
  0
LINE
  5
285
330
6B
100
AcDbEntity
  8
0
100
AcDbLine
 10
403.102491
 20
146.293698
 30
0.0
 11
403.102491
 21
158.562452
 31
0.0
  0
LINE
  5
286
330
6B
100
AcDbEntity
  8
0
100
AcDbLine
 10
404.102491
 20
146.293698
 30
0.0
 11
404.102491
 21
158.562452
 31
0.0
  0
LINE
  5
287
330
6B
100
AcDbEntity
  8
0
100
AcDbLine
 10
405.102491
 20
146.293698
 30
0.0
 11
405.102491
 21
158.562452
 31
0.0
  0
LINE
  5
288
330
6B
100
AcDbEntity
  8
0
100
AcDbLine
 10
406.102491
 20
146.293698
 30
0.0
 11
406.102491
 21
158.562452
 31
0.0
  0
LINE
  5
289
330
6B
100
AcDbEntity
  8
0
100
AcDbLine
 10
407.102491
 20
146.293698
 30
0.0
 11
407.102491
 21
158.562452
 31
0.0
  0
LINE
  5
28A
330
6B
100
AcDbEntity
  8
0
100
AcDbLine
 10
408.102491
 20
146.293698
 30
0.0
 11
408.102491
 21
162.293698
 31
0.0
  0
LINE
  5
28B
330
6B
100
AcDbEntity
  8
0
100
AcDbLine
 10
409.102491
 20
146.293698
 30
0.0
 11
409.102491
 21
162.293698
 31
0.0
  0
LINE
  5
28C
330
6B
100
AcDbEntity
  8
0
100
AcDbLine
 10
410.102491
 20
146.293698
 30
0.0
 11
410.102491
 21
162.293698
 31
0.0
  0
LINE
  5
28D
330
6B
100
AcDbEntity
  8
0
100
AcDbLine
 10
382.1024910000001
 20
156.978863
 30
0.0
 11
382.1024910000001
 21
162.293698
 31
0.0
  0
LINE
  5
28E
330
6B
100
AcDbEntity
  8
0
100
AcDbLine
 10
381.102491
 20
159.077013
 30
0.0
 11
381.102491
 21
162.293698
 31
0.0
  0
LINE
  5
28F
330
6B
100
AcDbEntity
  8
0
100
AcDbLine
 10
380.1024910000002
 20
160.593698
 30
0.0
 11
380.1024910000002
 21
162.293698
 31
0.0
  0
LINE
  5
290
330
6B
100
AcDbEntity
  8
0
100
AcDbLine
 10
379.102491
 20
161.791737
 30
0.0
 11
379.102491
 21
162.293698
 31
0.0
  0
LINE
  5
291
330
6B
100
AcDbEntity
  8
0
100
AcDbLine
 10
357.1024910000001
 20
162.293698
 30
0.0
 11
357.1024910000001
 21
161.791737
 31
0.0
  0
LINE
  5
292
330
6B
100
AcDbEntity
  8
0
100
AcDbLine
 10
356.102491
 20
162.293698
 30
0.0
 11
356.102491
 21
160.593698
 31
0.0
  0
LINE
  5
293
330
6B
100
AcDbEntity
  8
0
100
AcDbLine
 10
355.1024910000001
 20
162.293698
 30
0.0
 11
355.1024910000001
 21
159.077013
 31
0.0
  0
LINE
  5
294
330
6B
100
AcDbEntity
  8
0
100
AcDbLine
 10
354.102491
 20
162.293698
 30
0.0
 11
354.102491
 21
156.978863
 31
0.0
  0
LINE
  5
295
330
6B
100
AcDbEntity
  8
0
100
AcDbLine
 10
353.1024910000001
 20
162.293698
 30
0.0
 11
353.1024910000001
 21
146.293698
 31
0.0
  0
LINE
  5
296
330
6B
100
AcDbEntity
  8
0
100
AcDbLine
 10
352.102491
 20
162.293698
 30
0.0
 11
352.102491
 21
146.293698
 31
0.0
  0
LINE
  5
297
330
6B
100
AcDbEntity
  8
0
100
AcDbLine
 10
351.1024910000001
 20
162.293698
 30
0.0
 11
351.1024910000001
 21
146.293698
 31
0.0
  0
LINE
  5
298
330
6B
100
AcDbEntity
  8
0
100
AcDbLine
 10
350.102491
 20
162.293698
 30
0.0
 11
350.102491
 21
146.293698
 31
0.0
  0
LINE
  5
299
330
6B
100
AcDbEntity
  8
0
100
AcDbLine
 10
349.1024910000001
 20
162.293698
 30
0.0
 11
349.1024910000001
 21
146.293698
 31
0.0
  0
LINE
  5
29A
330
6B
100
AcDbEntity
  8
0
100
AcDbLine
 10
348.102491
 20
162.293698
 30
0.0
 11
348.102491
 21
146.293698
 31
0.0
  0
LINE
  5
29B
330
6B
100
AcDbEntity
  8
0
100
AcDbLine
 10
347.1024910000001
 20
162.293698
 30
0.0
 11
347.1024910000001
 21
146.293698
 31
0.0
  0
LINE
  5
29C
330
6B
100
AcDbEntity
  8
0
100
AcDbLine
 10
346.102491
 20
162.293698
 30
0.0
 11
346.102491
 21
146.293698
 31
0.0
  0
LINE
  5
29D
330
6B
100
AcDbEntity
  8
0
100
AcDbLine
 10
345.1024910000001
 20
160.63142
 30
0.0
 11
345.1024910000001
 21
147.955976
 31
0.0
  0
LINE
  5
29E
330
6B
100
AcDbEntity
  8
0
100
AcDbLine
 10
344.102491
 20
159.551057
 30
0.0
 11
344.102491
 21
149.036339
 31
0.0
  0
LINE
  5
29F
330
6B
100
AcDbEntity
  8
0
100
AcDbLine
 10
343.102491
 20
158.894718
 30
0.0
 11
343.102491
 21
149.692677
 31
0.0
  0
LINE
  5
2A0
330
6B
100
AcDbEntity
  8
0
100
AcDbLine
 10
342.102491
 20
158.502195
 30
0.0
 11
342.102491
 21
150.085201
 31
0.0
  0
LINE
  5
2A1
330
6B
100
AcDbEntity
  8
0
100
AcDbLine
 10
341.102491
 20
158.316472
 30
0.0
 11
341.102491
 21
150.270924
 31
0.0
  0
LINE
  5
2A2
330
6B
100
AcDbEntity
  8
0
100
AcDbLine
 10
340.102491
 20
158.316472
 30
0.0
 11
340.102491
 21
150.270924
 31
0.0
  0
LINE
  5
2A3
330
6B
100
AcDbEntity
  8
0
100
AcDbLine
 10
339.102491
 20
158.502195
 30
0.0
 11
339.102491
 21
150.085201
 31
0.0
  0
LINE
  5
2A4
330
6B
100
AcDbEntity
  8
0
100
AcDbLine
 10
338.1024910000001
 20
158.894718
 30
0.0
 11
338.1024910000001
 21
149.692677
 31
0.0
  0
LINE
  5
2A5
330
6B
100
AcDbEntity
  8
0
100
AcDbLine
 10
337.102491
 20
159.551057
 30
0.0
 11
337.102491
 21
149.036339
 31
0.0
  0
LINE
  5
2A6
330
6B
100
AcDbEntity
  8
0
100
AcDbLine
 10
336.1024910000001
 20
160.63142
 30
0.0
 11
336.1024910000001
 21
147.955976
 31
0.0
  0
LINE
  5
2A7
330
6B
100
AcDbEntity
  8
0
100
AcDbLine
 10
335.102491
 20
146.293698
 30
0.0
 11
335.102491
 21
162.293698
 31
0.0
  0
LINE
  5
2A8
330
6B
100
AcDbEntity
  8
0
100
AcDbLine
 10
334.1024910000001
 20
146.293698
 30
0.0
 11
334.1024910000001
 21
162.293698
 31
0.0
  0
LINE
  5
2A9
330
6B
100
AcDbEntity
  8
0
100
AcDbLine
 10
333.102491
 20
146.293698
 30
0.0
 11
333.102491
 21
162.293698
 31
0.0
  0
LINE
  5
2AA
330
6B
100
AcDbEntity
  8
0
100
AcDbLine
 10
332.1024910000001
 20
146.293698
 30
0.0
 11
332.1024910000001
 21
162.293698
 31
0.0
  0
LINE
  5
2AB
330
6B
100
AcDbEntity
  8
0
100
AcDbLine
 10
331.102491
 20
146.293698
 30
0.0
 11
331.102491
 21
162.293698
 31
0.0
  0
LINE
  5
2AC
330
6B
100
AcDbEntity
  8
0
100
AcDbLine
 10
330.1024910000001
 20
146.293698
 30
0.0
 11
330.1024910000001
 21
162.293698
 31
0.0
  0
LINE
  5
2AD
330
6B
100
AcDbEntity
  8
0
100
AcDbLine
 10
329.102491
 20
146.293698
 30
0.0
 11
329.102491
 21
162.293698
 31
0.0
  0
LINE
  5
2AE
330
6B
100
AcDbEntity
  8
0
100
AcDbLine
 10
328.1024910000001
 20
146.293698
 30
0.0
 11
328.1024910000001
 21
162.293698
 31
0.0
  0
LINE
  5
2AF
330
6B
100
AcDbEntity
  8
0
100
AcDbLine
 10
327.102491
 20
146.293698
 30
0.0
 11
327.102491
 21
162.293698
 31
0.0
  0
LINE
  5
2B0
330
6B
100
AcDbEntity
  8
0
100
AcDbLine
 10
326.1024910000001
 20
146.293698
 30
0.0
 11
326.1024910000001
 21
162.293698
 31
0.0
  0
LINE
  5
2B1
330
6B
100
AcDbEntity
  8
0
100
AcDbLine
 10
354.102491
 20
146.293698
 30
0.0
 11
354.102491
 21
146.208533
 31
0.0
  0
LINE
  5
2B2
330
6B
100
AcDbEntity
  8
0
100
AcDbLine
 10
402.102491
 20
144.793698
 30
0.0
 11
411.102491
 21
144.793698
 31
0.0
  0
LINE
  5
2B3
330
6B
100
AcDbEntity
  8
0
100
AcDbLine
 10
381.472607
 20
144.793698
 30
0.0
 11
388.1024910000002
 21
144.793698
 31
0.0
  0
LINE
  5
2B4
330
6B
100
AcDbEntity
  8
0
100
AcDbLine
 10
346.102491
 20
144.793698
 30
0.0
 11
354.732375
 21
144.793698
 31
0.0
  0
LINE
  5
2B5
330
6B
100
AcDbEntity
  8
0
100
AcDbLine
 10
346.102491
 20
163.793698
 30
0.0
 11
359.3755220000002
 21
163.793698
 31
0.0
  0
LINE
  5
2B6
330
6B
100
AcDbEntity
  8
0
100
AcDbLine
 10
376.829461
 20
163.793698
 30
0.0
 11
411.102491
 21
163.793698
 31
0.0
  0
LINE
  5
2B7
330
6B
100
AcDbEntity
  8
0
100
AcDbLine
 10
407.702491
 20
130.093698
 30
0.0
 11
407.702491
 21
129.093698
 31
0.0
  0
LINE
  5
2B8
330
6B
100
AcDbEntity
  8
0
100
AcDbLine
 10
403.502491
 20
130.093698
 30
0.0
 11
403.502491
 21
129.093698
 31
0.0
  0
LINE
  5
2B9
330
6B
100
AcDbEntity
  8
0
100
AcDbLine
 10
332.702491
 20
129.093698
 30
0.0
 11
332.702491
 21
130.093698
 31
0.0
  0
LINE
  5
2BA
330
6B
100
AcDbEntity
  8
0
100
AcDbLine
 10
328.502491
 20
129.093698
 30
0.0
 11
328.502491
 21
130.093698
 31
0.0
  0
CIRCLE
  5
2BB
330
6B
100
AcDbEntity
  8
0
100
AcDbCircle
 10
401.102491
 20
168.593698
 30
0.0
 40
1.5
  0
CIRCLE
  5
2BC
330
6B
100
AcDbEntity
  8
0
100
AcDbCircle
 10
389.102491
 20
168.593698
 30
0.0
 40
1.5
  0
TEXT
  5
2BD
330
6B
100
AcDbEntity
  8
0
100
AcDbText
 10
384.630974
 20
171.596294
 30
0.0
 40
1.6
  1
POWER
100
AcDbText
  0
TEXT
  5
2BE
330
6B
100
AcDbEntity
  8
0
100
AcDbText
 10
397.5144279999998
 20
173.901142
 30
0.0
 40
1.6
  1
OVER
100
AcDbText
  0
TEXT
  5
2BF
330
6B
100
AcDbEntity
  8
0
100
AcDbText
 10
397.464298
 20
171.546188
 30
0.0
 40
1.6
  1
LOAD
100
AcDbText
  0
TEXT
  5
2C0
330
6B
100
AcDbEntity
  8
0
100
AcDbText
 10
334.271482
 20
175.786003
 30
0.0
 40
1.6
  1
DC OUTPUT
100
AcDbText
  0
TEXT
  5
2C1
330
6B
100
AcDbEntity
  8
0
100
AcDbText
 10
361.575523
 20
152.622423
 30
0.0
 40
3.0
  1
DC12V
100
AcDbText
  0
TEXT
  5
2C2
330
6B
100
AcDbEntity
  8
0
100
AcDbText
 10
362.001472
 20
148.75988
 30
0.0
 40
2.0
  1
SOCKET
100
AcDbText
  0
TEXT
  5
2C3
330
6B
100
AcDbEntity
  8
0
100
AcDbText
 10
403.4576239999998
 20
159.874079
 30
0.0
 40
1.6
  1
ON
100
AcDbText
  0
LINE
  5
2C4
330
6B
100
AcDbEntity
  8
0
100
AcDbLine
 10
359.174268
 20
172.058521
 30
0.0
 11
354.343618
 21
170.503656
 31
0.0
  0
LINE
  5
2C5
330
6B
100
AcDbEntity
  8
0
100
AcDbLine
 10
359.397638
 20
170.97657
 30
0.0
 11
354.504954
 21
169.401739
 31
0.0
  0
ARC
  5
2C6
330
6B
100
AcDbEntity
  8
0
100
AcDbCircle
 10
358.69368
 20
171.39527
 30
0.0
 40
0.819064
100
AcDbArc
 50
329.25669
 51
54.07311600000001
  0
ARC
  5
2C7
330
6B
100
AcDbEntity
  8
0
100
AcDbCircle
 10
353.624826
 20
169.646731
 30
0.0
 40
0.7002030000000002
100
AcDbArc
 50
139.582881
 51
243.7469240000001
  0
ARC
  5
2C8
330
6B
100
AcDbEntity
  8
0
100
AcDbCircle
 10
352.876449
 20
169.492227
 30
0.0
 40
0.645439
100
AcDbArc
 50
312.813763
 51
70.51604300000002
  0
ARC
  5
2C9
330
6B
100
AcDbEntity
  8
0
100
AcDbCircle
 10
353.287853
 20
169.71694
 30
0.0
 40
0.97675
100
AcDbArc
 50
334.293207
 51
43.66077299999999
  0
ARC
  5
2CA
330
6B
100
AcDbEntity
  8
0
100
AcDbCircle
 10
353.722151
 20
169.849895
 30
0.0
 40
0.902012
100
AcDbArc
 50
330.208764
 51
46.450652
  0
LINE
  5
2CB
330
6B
100
AcDbEntity
  8
0
100
AcDbLine
 10
353.994473
 20
170.391275
 30
0.0
 11
353.091731
 21
170.100705
 31
0.0
  0
LINE
  5
2CC
330
6B
100
AcDbEntity
  8
0
100
AcDbLine
 10
354.16793
 20
169.293259
 30
0.0
 11
353.315101
 21
169.018755
 31
0.0
  0
LINE
  5
2E8
330
6B
100
AcDbEntity
  8
0
100
AcDbLine
 10
357.678082
 20
172.800683
 30
0.0
 11
354.47584
 21
168.423712
 31
0.0
  0
LINE
  5
2E9
330
6B
100
AcDbEntity
  8
0
100
AcDbLine
 10
354.722166
 20
172.96482
 30
0.0
 11
357.705452
 21
168.669917
 31
0.0
  0
LINE
  5
2EA
330
6B
100
AcDbEntity
  8
0
100
AcDbLine
 10
461.067839
 20
129.093698
 30
0.0
 11
461.067839
 21
133.593698
 31
0.0
  0
LINE
  5
2EB
330
6B
100
AcDbEntity
  8
0
100
AcDbLine
 10
536.554336
 20
133.593698
 30
0.0
 11
536.554336
 21
180.093698
 31
0.0
  0
LINE
  5
2EC
330
6B
100
AcDbEntity
  8
0
100
AcDbLine
 10
462.067839
 20
133.593698
 30
0.0
 11
462.067839
 21
180.093698
 31
0.0
  0
LINE
  5
2ED
330
6B
100
AcDbEntity
  8
0
100
AcDbLine
 10
460.0678389999997
 20
130.093698
 30
0.0
 11
460.0678389999997
 21
143.593698
 31
0.0
  0
LINE
  5
2EE
330
6B
100
AcDbEntity
  8
0
100
AcDbLine
 10
460.0678389999997
 20
143.593698
 30
0.0
 11
461.067839
 21
143.593698
 31
0.0
  0
LINE
  5
2EF
330
6B
100
AcDbEntity
  8
0
100
AcDbLine
 10
460.0678389999997
 20
130.093698
 30
0.0
 11
450.067839
 21
130.093698
 31
0.0
  0
LINE
  5
2F0
330
6B
100
AcDbEntity
  8
0
100
AcDbLine
 10
461.067839
 20
129.093698
 30
0.0
 11
450.067839
 21
129.093698
 31
0.0
  0
LINE
  5
2F1
330
6B
100
AcDbEntity
  8
0
100
AcDbLine
 10
450.067839
 20
129.093698
 30
0.0
 11
450.067839
 21
130.093698
 31
0.0
  0
LINE
  5
2F2
330
6B
100
AcDbEntity
  8
0
100
AcDbLine
 10
537.554336
 20
129.093698
 30
0.0
 11
537.554336
 21
133.593698
 31
0.0
  0
LINE
  5
2F3
330
6B
100
AcDbEntity
  8
0
100
AcDbLine
 10
538.554336
 20
130.093698
 30
0.0
 11
538.554336
 21
143.593698
 31
0.0
  0
LINE
  5
2F4
330
6B
100
AcDbEntity
  8
0
100
AcDbLine
 10
548.554336
 20
129.093698
 30
0.0
 11
548.554336
 21
130.093698
 31
0.0
  0
LINE
  5
2F5
330
6B
100
AcDbEntity
  8
0
100
AcDbLine
 10
538.554336
 20
130.093698
 30
0.0
 11
548.554336
 21
130.093698
 31
0.0
  0
LINE
  5
2F6
330
6B
100
AcDbEntity
  8
0
100
AcDbLine
 10
537.554336
 20
129.093698
 30
0.0
 11
548.554336
 21
129.093698
 31
0.0
  0
LINE
  5
2F7
330
6B
100
AcDbEntity
  8
0
100
AcDbLine
 10
537.554336
 20
143.593698
 30
0.0
 11
538.554336
 21
143.593698
 31
0.0
  0
LINE
  5
2F8
330
6B
100
AcDbEntity
  8
0
100
AcDbLine
 10
461.067839
 20
169.293698
 30
0.0
 11
441.067839
 21
169.293698
 31
0.0
  0
LINE
  5
2F9
330
6B
100
AcDbEntity
  8
0
100
AcDbLine
 10
453.2849829999998
 20
139.293698
 30
0.0
 11
441.067839
 21
139.293698
 31
0.0
  0
LINE
  5
2FA
330
6B
100
AcDbEntity
  8
0
100
AcDbLine
 10
453.067839
 20
150.293698
 30
0.0
 11
441.067839
 21
150.293698
 31
0.0
  0
LINE
  5
2FB
330
6B
100
AcDbEntity
  8
0
100
AcDbLine
 10
453.067839
 20
158.293698
 30
0.0
 11
441.067839
 21
158.293698
 31
0.0
  0
LINE
  5
2FC
330
6B
100
AcDbEntity
  8
0
100
AcDbLine
 10
441.067839
 20
139.293698
 30
0.0
 11
441.067839
 21
150.293698
 31
0.0
  0
LINE
  5
2FD
330
6B
100
AcDbEntity
  8
0
100
AcDbLine
 10
441.067839
 20
158.293698
 30
0.0
 11
441.067839
 21
169.293698
 31
0.0
  0
LINE
  5
2FE
330
6B
100
AcDbEntity
  8
0
100
AcDbLine
 10
453.067839
 20
140.593698
 30
0.0
 11
453.067839
 21
162.593698
 31
0.0
  0
ARC
  5
2FF
330
6B
100
AcDbEntity
  8
0
100
AcDbCircle
 10
457.067839
 20
162.593698
 30
0.0
 40
4.0
100
AcDbArc
 50
0.0
 51
180.0
  0
ARC
  5
300
330
6B
100
AcDbEntity
  8
0
100
AcDbCircle
 10
457.067839
 20
140.593698
 30
0.0
 40
4.0
100
AcDbArc
 50
180.0
 51
318.590378
  0
LINE
  5
301
330
6B
100
AcDbEntity
  8
0
100
AcDbLine
 10
461.067839
 20
162.093698
 30
0.0
 11
459.0678389999998
 21
162.093698
 31
0.0
  0
LINE
  5
302
330
6B
100
AcDbEntity
  8
0
100
AcDbLine
 10
460.0678389999997
 20
143.093698
 30
0.0
 11
459.0678389999998
 21
143.093698
 31
0.0
  0
LINE
  5
303
330
6B
100
AcDbEntity
  8
0
100
AcDbLine
 10
459.0678389999998
 20
143.093698
 30
0.0
 11
459.0678389999998
 21
162.093698
 31
0.0
  0
ARC
  5
304
330
6B
100
AcDbEntity
  8
0
100
AcDbCircle
 10
461.8881299999998
 20
152.914093
 30
0.0
 40
7.435253999999998
100
AcDbArc
 50
112.291156
 51
156.533192
  0
ARC
  5
305
330
6B
100
AcDbEntity
  8
0
100
AcDbCircle
 10
432.7773469999998
 20
141.566175
 30
0.0
 40
26.487862
100
AcDbArc
 50
6.998832000000001
 51
32.69731800000001
  0
LINE
  5
306
330
6B
100
AcDbEntity
  8
0
100
AcDbLine
 10
536.554336
 20
159.093698
 30
0.0
 11
488.927286
 21
159.093698
 31
0.0
  0
LINE
  5
307
330
6B
100
AcDbEntity
  8
0
100
AcDbLine
 10
536.554336
 20
164.593698
 30
0.0
 11
486.6519919999998
 21
164.593698
 31
0.0
  0
LINE
  5
308
330
6B
100
AcDbEntity
  8
0
100
AcDbLine
 10
536.554336
 20
156.293698
 30
0.0
 11
490.414791
 21
156.293698
 31
0.0
  0
LINE
  5
309
330
6B
100
AcDbEntity
  8
0
100
AcDbLine
 10
536.554336
 20
153.493698
 30
0.0
 11
491.95991
 21
153.493698
 31
0.0
  0
LINE
  5
30A
330
6B
100
AcDbEntity
  8
0
100
AcDbLine
 10
536.554336
 20
150.693698
 30
0.0
 11
493.4446509999999
 21
150.693698
 31
0.0
  0
LINE
  5
30B
330
6B
100
AcDbEntity
  8
0
100
AcDbLine
 10
536.554336
 20
147.893698
 30
0.0
 11
494.7498969999998
 21
147.893698
 31
0.0
  0
LINE
  5
30C
330
6B
100
AcDbEntity
  8
0
100
AcDbLine
 10
536.554336
 20
145.0936979999999
 30
0.0
 11
495.750077
 21
145.0936979999999
 31
0.0
  0
LINE
  5
30D
330
6B
100
AcDbEntity
  8
0
100
AcDbLine
 10
536.554336
 20
142.293698
 30
0.0
 11
496.3070679999998
 21
142.293698
 31
0.0
  0
LINE
  5
30E
330
6B
100
AcDbEntity
  8
0
100
AcDbLine
 10
536.554336
 20
158.093698
 30
0.0
 11
489.444397
 21
158.093698
 31
0.0
  0
LINE
  5
30F
330
6B
100
AcDbEntity
  8
0
100
AcDbLine
 10
536.554336
 20
155.293698
 30
0.0
 11
490.966167
 21
155.293698
 31
0.0
  0
LINE
  5
310
330
6B
100
AcDbEntity
  8
0
100
AcDbLine
 10
536.554336
 20
152.493698
 30
0.0
 11
492.5032159999998
 21
152.493698
 31
0.0
  0
LINE
  5
311
330
6B
100
AcDbEntity
  8
0
100
AcDbLine
 10
536.554336
 20
149.693698
 30
0.0
 11
493.9377429999998
 21
149.693698
 31
0.0
  0
LINE
  5
312
330
6B
100
AcDbEntity
  8
0
100
AcDbLine
 10
536.554336
 20
146.893698
 30
0.0
 11
495.148961
 21
146.893698
 31
0.0
  0
LINE
  5
313
330
6B
100
AcDbEntity
  8
0
100
AcDbLine
 10
536.554336
 20
144.093698
 30
0.0
 11
496.007582
 21
144.093698
 31
0.0
  0
CIRCLE
  5
314
330
6B
100
AcDbEntity
  8
0
100
AcDbCircle
 10
519.054336
 20
161.843698
 30
0.0
 40
1.5
  0
CIRCLE
  5
315
330
6B
100
AcDbEntity
  8
0
100
AcDbCircle
 10
511.554336
 20
161.843698
 30
0.0
 40
1.5
  0
CIRCLE
  5
316
330
6B
100
AcDbEntity
  8
0
100
AcDbCircle
 10
504.054336
 20
161.843698
 30
0.0
 40
1.5
  0
LINE
  5
33B
330
6B
100
AcDbEntity
  8
0
100
AcDbLine
 10
479.2191589999998
 20
164.593698
 30
0.0
 11
462.067839
 21
164.593698
 31
0.0
  0
LINE
  5
33C
330
6B
100
AcDbEntity
  8
0
100
AcDbLine
 10
488.8742360000001
 20
142.293698
 30
0.0
 11
462.067839
 21
142.293698
 31
0.0
  0
LINE
  5
33D
330
6B
100
AcDbEntity
  8
0
100
AcDbLine
 10
488.5747499999998
 20
144.093698
 30
0.0
 11
462.067839
 21
144.093698
 31
0.0
  0
LINE
  5
33E
330
6B
100
AcDbEntity
  8
0
100
AcDbLine
 10
488.3172449999998
 20
145.0936979999999
 30
0.0
 11
462.067839
 21
145.0936979999999
 31
0.0
  0
LINE
  5
33F
330
6B
100
AcDbEntity
  8
0
100
AcDbLine
 10
487.716129
 20
146.893698
 30
0.0
 11
462.067839
 21
146.893698
 31
0.0
  0
LINE
  5
340
330
6B
100
AcDbEntity
  8
0
100
AcDbLine
 10
487.3170639999998
 20
147.893698
 30
0.0
 11
462.067839
 21
147.893698
 31
0.0
  0
LINE
  5
341
330
6B
100
AcDbEntity
  8
0
100
AcDbLine
 10
486.5049099999998
 20
149.693698
 30
0.0
 11
462.067839
 21
149.693698
 31
0.0
  0
LINE
  5
342
330
6B
100
AcDbEntity
  8
0
100
AcDbLine
 10
486.011819
 20
150.693698
 30
0.0
 11
462.067839
 21
150.693698
 31
0.0
  0
LINE
  5
343
330
6B
100
AcDbEntity
  8
0
100
AcDbLine
 10
485.070384
 20
152.493698
 30
0.0
 11
462.067839
 21
152.493698
 31
0.0
  0
LINE
  5
344
330
6B
100
AcDbEntity
  8
0
100
AcDbLine
 10
484.5270779999999
 20
153.493698
 30
0.0
 11
462.067839
 21
153.493698
 31
0.0
  0
LINE
  5
345
330
6B
100
AcDbEntity
  8
0
100
AcDbLine
 10
483.5333349999998
 20
155.293698
 30
0.0
 11
462.067839
 21
155.293698
 31
0.0
  0
LINE
  5
346
330
6B
100
AcDbEntity
  8
0
100
AcDbLine
 10
482.9819589999998
 20
156.293698
 30
0.0
 11
462.067839
 21
156.293698
 31
0.0
  0
LINE
  5
347
330
6B
100
AcDbEntity
  8
0
100
AcDbLine
 10
482.0115649999998
 20
158.093698
 30
0.0
 11
462.067839
 21
158.093698
 31
0.0
  0
LINE
  5
348
330
6B
100
AcDbEntity
  8
0
100
AcDbLine
 10
481.494453
 20
159.093698
 30
0.0
 11
462.067839
 21
159.093698
 31
0.0
  0
LINE
  5
349
330
6B
100
AcDbEntity
  8
0
100
AcDbLine
 10
369.235097
 20
170.593698
 30
0.0
 11
366.969886
 21
170.593698
 31
0.0
  0
LINE
  5
34A
330
6B
100
AcDbEntity
  8
0
100
AcDbLine
 10
369.377839
 20
169.593698
 30
0.0
 11
366.827144
 21
169.593698
 31
0.0
  0
LINE
  5
34B
330
6B
100
AcDbEntity
  8
0
100
AcDbLine
 10
369.520581
 20
168.593698
 30
0.0
 11
366.684402
 21
168.593698
 31
0.0
  0
LINE
  5
34C
330
6B
100
AcDbEntity
  8
0
100
AcDbLine
 10
369.663323
 20
167.593698
 30
0.0
 11
366.54166
 21
167.593698
 31
0.0
  0
ARC
  5
34D
330
6B
100
AcDbEntity
  8
0
100
AcDbCircle
 10
369.235097
 20
170.593698
 30
0.0
 40
1.0
100
AcDbArc
 50
8.123632
 51
90.0
  0
ARC
  5
34E
330
6B
100
AcDbEntity
  8
0
100
AcDbCircle
 10
366.969886
 20
170.593698
 30
0.0
 40
1.0
100
AcDbArc
 50
90.0
 51
171.876368
  0
LINE
  5
34F
330
6B
100
AcDbEntity
  8
0
100
AcDbLine
 10
370.602491
 20
135.593698
 30
0.0
 11
370.602491
 21
136.803498
 31
0.0
  0
LINE
  5
350
330
6B
100
AcDbEntity
  8
0
100
AcDbLine
 10
365.6024910000001
 20
135.593698
 30
0.0
 11
365.6024910000001
 21
136.803498
 31
0.0
  0
LINE
  5
351
330
6B
100
AcDbEntity
  8
0
100
AcDbLine
 10
370.602491
 20
135.593698
 30
0.0
 11
365.6024910000001
 21
135.593698
 31
0.0
  0
LINE
  5
352
330
6B
100
AcDbEntity
  8
0
100
AcDbLine
 10
600.9545429999998
 20
146.293698
 30
0.0
 11
600.9545429999998
 21
146.208533
 31
0.0
  0
LINE
  5
353
330
6B
100
AcDbEntity
  8
0
100
AcDbLine
 10
568.9545429999998
 20
130.093698
 30
0.0
 11
660.9545429999998
 21
130.093698
 31
0.0
  0
CIRCLE
  5
354
330
6B
100
AcDbEntity
  8
0
100
AcDbCircle
 10
657.4545429999998
 20
139.593698
 30
0.0
 40
2.5
  0
CIRCLE
  5
355
330
6B
100
AcDbEntity
  8
0
100
AcDbCircle
 10
572.4545429999998
 20
139.593698
 30
0.0
 40
2.5
  0
CIRCLE
  5
356
330
6B
100
AcDbEntity
  8
0
100
AcDbCircle
 10
657.4545429999998
 20
177.093698
 30
0.0
 40
2.5
  0
CIRCLE
  5
357
330
6B
100
AcDbEntity
  8
0
100
AcDbCircle
 10
572.4545429999998
 20
177.093698
 30
0.0
 40
2.5
  0
LINE
  5
358
330
6B
100
AcDbEntity
  8
0
100
AcDbLine
 10
575.3545429999998
 20
129.093698
 30
0.0
 11
575.3545429999998
 21
130.093698
 31
0.0
  0
LINE
  5
359
330
6B
100
AcDbEntity
  8
0
100
AcDbLine
 10
579.5545429999998
 20
129.093698
 30
0.0
 11
579.5545429999998
 21
130.093698
 31
0.0
  0
LINE
  5
35A
330
6B
100
AcDbEntity
  8
0
100
AcDbLine
 10
650.3545429999998
 20
130.093698
 30
0.0
 11
650.3545429999998
 21
129.093698
 31
0.0
  0
LINE
  5
35B
330
6B
100
AcDbEntity
  8
0
100
AcDbLine
 10
654.5545429999998
 20
130.093698
 30
0.0
 11
654.5545429999998
 21
129.093698
 31
0.0
  0
LINE
  5
35C
330
6B
100
AcDbEntity
  8
0
100
AcDbLine
 10
654.9545429999998
 20
157.816934
 30
0.0
 11
618.9545429999998
 21
157.816934
 31
0.0
  0
LINE
  5
35D
330
6B
100
AcDbEntity
  8
0
100
AcDbLine
 10
654.9545429999998
 20
175.093698
 30
0.0
 11
618.9545429999998
 21
175.093698
 31
0.0
  0
ARC
  5
35E
330
6B
100
AcDbEntity
  8
0
100
AcDbCircle
 10
594.9545429999998
 20
157.816934
 30
0.0
 40
18.0
100
AcDbArc
 50
309.594068
 51
50.40593199999999
  0
LINE
  5
35F
330
6B
100
AcDbEntity
  8
0
100
AcDbLine
 10
618.9545429999998
 20
175.093698
 30
0.0
 11
618.9545429999998
 21
157.816934
 31
0.0
  0
LINE
  5
360
330
6B
100
AcDbEntity
  8
0
100
AcDbLine
 10
654.9545429999998
 20
175.093698
 30
0.0
 11
654.9545429999998
 21
157.816934
 31
0.0
  0
LINE
  5
361
330
6B
100
AcDbEntity
  8
0
100
AcDbLine
 10
636.9545429999998
 20
157.816934
 30
0.0
 11
636.9545429999998
 21
175.093698
 31
0.0
  0
LINE
  5
362
330
6B
100
AcDbEntity
  8
0
100
AcDbLine
 10
654.9545429999998
 20
162.093698
 30
0.0
 11
618.9545429999998
 21
162.093698
 31
0.0
  0
LINE
  5
363
330
6B
100
AcDbEntity
  8
0
100
AcDbLine
 10
646.9545429999998
 20
162.093698
 30
0.0
 11
646.9545429999998
 21
175.093698
 31
0.0
  0
LINE
  5
364
330
6B
100
AcDbEntity
  8
0
100
AcDbLine
 10
644.9545429999998
 20
162.093698
 30
0.0
 11
644.9545429999998
 21
175.093698
 31
0.0
  0
LINE
  5
365
330
6B
100
AcDbEntity
  8
0
100
AcDbLine
 10
637.9545429999998
 20
162.093698
 30
0.0
 11
637.9545429999998
 21
175.093698
 31
0.0
  0
LINE
  5
366
330
6B
100
AcDbEntity
  8
0
100
AcDbLine
 10
635.9545429999998
 20
162.093698
 30
0.0
 11
635.9545429999998
 21
175.093698
 31
0.0
  0
LINE
  5
367
330
6B
100
AcDbEntity
  8
0
100
AcDbLine
 10
628.9545429999998
 20
162.093698
 30
0.0
 11
628.9545429999998
 21
175.093698
 31
0.0
  0
LINE
  5
368
330
6B
100
AcDbEntity
  8
0
100
AcDbLine
 10
626.9545429999998
 20
162.093698
 30
0.0
 11
626.9545429999998
 21
175.093698
 31
0.0
  0
LINE
  5
369
330
6B
100
AcDbEntity
  8
0
100
AcDbLine
 10
653.9545429999998
 20
162.093698
 30
0.0
 11
653.9545429999998
 21
175.093698
 31
0.0
  0
LINE
  5
36A
330
6B
100
AcDbEntity
  8
0
100
AcDbLine
 10
619.9545429999998
 20
162.093698
 30
0.0
 11
619.9545429999998
 21
175.093698
 31
0.0
  0
CIRCLE
  5
36B
330
6B
100
AcDbEntity
  8
0
100
AcDbCircle
 10
650.4545429999998
 20
168.593698
 30
0.0
 40
2.5
  0
CIRCLE
  5
36C
330
6B
100
AcDbEntity
  8
0
100
AcDbCircle
 10
641.4545429999998
 20
168.593698
 30
0.0
 40
2.5
  0
CIRCLE
  5
36D
330
6B
100
AcDbEntity
  8
0
100
AcDbCircle
 10
632.4545429999998
 20
168.593698
 30
0.0
 40
2.5
  0
CIRCLE
  5
36E
330
6B
100
AcDbEntity
  8
0
100
AcDbCircle
 10
623.4545429999998
 20
168.593698
 30
0.0
 40
2.5
  0
LINE
  5
36F
330
6B
100
AcDbEntity
  8
0
100
AcDbLine
 10
653.9545429999998
 20
173.593698
 30
0.0
 11
646.9545429999998
 21
173.593698
 31
0.0
  0
LINE
  5
370
330
6B
100
AcDbEntity
  8
0
100
AcDbLine
 10
653.9545429999998
 20
163.593698
 30
0.0
 11
646.9545429999998
 21
163.593698
 31
0.0
  0
LINE
  5
371
330
6B
100
AcDbEntity
  8
0
100
AcDbLine
 10
653.9545429999998
 20
172.593698
 30
0.0
 11
646.9545429999998
 21
172.593698
 31
0.0
  0
LINE
  5
372
330
6B
100
AcDbEntity
  8
0
100
AcDbLine
 10
653.9545429999998
 20
164.593698
 30
0.0
 11
646.9545429999998
 21
164.593698
 31
0.0
  0
LINE
  5
373
330
6B
100
AcDbEntity
  8
0
100
AcDbLine
 10
626.9545429999998
 20
164.593698
 30
0.0
 11
619.9545429999998
 21
164.593698
 31
0.0
  0
LINE
  5
374
330
6B
100
AcDbEntity
  8
0
100
AcDbLine
 10
626.9545429999998
 20
172.593698
 30
0.0
 11
619.9545429999998
 21
172.593698
 31
0.0
  0
LINE
  5
375
330
6B
100
AcDbEntity
  8
0
100
AcDbLine
 10
635.9545429999998
 20
172.593698
 30
0.0
 11
628.9545429999998
 21
172.593698
 31
0.0
  0
LINE
  5
376
330
6B
100
AcDbEntity
  8
0
100
AcDbLine
 10
635.9545429999998
 20
164.593698
 30
0.0
 11
628.9545429999998
 21
164.593698
 31
0.0
  0
LINE
  5
377
330
6B
100
AcDbEntity
  8
0
100
AcDbLine
 10
644.9545429999998
 20
164.593698
 30
0.0
 11
637.9545429999998
 21
164.593698
 31
0.0
  0
LINE
  5
378
330
6B
100
AcDbEntity
  8
0
100
AcDbLine
 10
644.9545429999998
 20
172.593698
 30
0.0
 11
637.9545429999998
 21
172.593698
 31
0.0
  0
LINE
  5
379
330
6B
100
AcDbEntity
  8
0
100
AcDbLine
 10
644.9545429999998
 20
163.593698
 30
0.0
 11
637.9545429999998
 21
163.593698
 31
0.0
  0
LINE
  5
37A
330
6B
100
AcDbEntity
  8
0
100
AcDbLine
 10
644.9545429999998
 20
173.593698
 30
0.0
 11
637.9545429999998
 21
173.593698
 31
0.0
  0
LINE
  5
37B
330
6B
100
AcDbEntity
  8
0
100
AcDbLine
 10
626.9545429999998
 20
173.593698
 30
0.0
 11
619.9545429999998
 21
173.593698
 31
0.0
  0
LINE
  5
37C
330
6B
100
AcDbEntity
  8
0
100
AcDbLine
 10
626.9545429999998
 20
163.593698
 30
0.0
 11
619.9545429999998
 21
163.593698
 31
0.0
  0
LINE
  5
37D
330
6B
100
AcDbEntity
  8
0
100
AcDbLine
 10
635.9545429999998
 20
163.593698
 30
0.0
 11
628.9545429999998
 21
163.593698
 31
0.0
  0
LINE
  5
37E
330
6B
100
AcDbEntity
  8
0
100
AcDbLine
 10
635.9545429999998
 20
173.593698
 30
0.0
 11
628.9545429999998
 21
173.593698
 31
0.0
  0
CIRCLE
  5
37F
330
6B
100
AcDbEntity
  8
0
100
AcDbCircle
 10
638.1414179999998
 20
153.636463
 30
0.0
 40
1.0
  0
CIRCLE
  5
380
330
6B
100
AcDbEntity
  8
0
100
AcDbCircle
 10
638.2932789999999
 20
151.073457
 30
0.0
 40
1.0
  0
CIRCLE
  5
381
330
6B
100
AcDbEntity
  8
0
100
AcDbCircle
 10
635.658938
 20
153.636463
 30
0.0
 40
1.0
  0
CIRCLE
  5
382
330
6B
100
AcDbEntity
  8
0
100
AcDbCircle
 10
635.6310399999999
 20
151.050013
 30
0.0
 40
1.0
  0
ARC
  5
383
330
6B
100
AcDbEntity
  8
0
100
AcDbCircle
 10
636.9545429999998
 20
152.315612
 30
0.0
 40
5.501322
100
AcDbArc
 50
223.356347
 51
316.643653
  0
LINE
  5
384
330
6B
100
AcDbEntity
  8
0
100
AcDbLine
 10
639.9545429999998
 20
155.315612
 30
0.0
 11
639.9545429999998
 21
149.315612
 31
0.0
  0
LINE
  5
385
330
6B
100
AcDbEntity
  8
0
100
AcDbLine
 10
633.9545429999998
 20
155.315612
 30
0.0
 11
633.9545429999998
 21
149.315612
 31
0.0
  0
LINE
  5
386
330
6B
100
AcDbEntity
  8
0
100
AcDbLine
 10
537.554336
 20
152.315612
 30
0.0
 11
551.4006860000002
 21
152.315612
 31
0.0
  0
LINE
  5
387
330
6B
100
AcDbEntity
  8
0
100
AcDbLine
 10
639.9545429999998
 20
155.315612
 30
0.0
 11
633.9545429999998
 21
155.315612
 31
0.0
  0
LINE
  5
388
330
6B
100
AcDbEntity
  8
0
100
AcDbLine
 10
633.9545429999998
 20
149.315612
 30
0.0
 11
639.9545429999998
 21
149.315612
 31
0.0
  0
LINE
  5
389
330
6B
100
AcDbEntity
  8
0
100
AcDbLine
 10
640.9545429999998
 20
156.092455
 30
0.0
 11
640.9545429999998
 21
148.538769
 31
0.0
  0
LINE
  5
38A
330
6B
100
AcDbEntity
  8
0
100
AcDbLine
 10
632.9545429999998
 20
148.538769
 30
0.0
 11
632.9545429999998
 21
156.092455
 31
0.0
  0
ARC
  5
38B
330
6B
100
AcDbEntity
  8
0
100
AcDbCircle
 10
636.9545429999998
 20
152.315612
 30
0.0
 40
5.501322
100
AcDbArc
 50
43.35634699999999
 51
136.643653
  0
LINE
  5
38C
330
6B
100
AcDbEntity
  8
0
100
AcDbLine
 10
537.554336
 20
154.315612
 30
0.0
 11
551.4006860000002
 21
154.315612
 31
0.0
  0
LINE
  5
38D
330
6B
100
AcDbEntity
  8
0
100
AcDbLine
 10
537.554336
 20
150.315612
 30
0.0
 11
551.4006860000002
 21
150.315612
 31
0.0
  0
LINE
  5
38E
330
6B
100
AcDbEntity
  8
0
100
AcDbLine
 10
537.554336
 20
153.315612
 30
0.0
 11
551.4006860000002
 21
153.315612
 31
0.0
  0
LINE
  5
38F
330
6B
100
AcDbEntity
  8
0
100
AcDbLine
 10
537.554336
 20
151.315612
 30
0.0
 11
551.4006860000002
 21
151.315612
 31
0.0
  0
LINE
  5
390
330
6B
100
AcDbEntity
  8
0
100
AcDbLine
 10
618.9545429999998
 20
157.816934
 30
0.0
 11
654.9545429999998
 21
157.816934
 31
0.0
  0
CIRCLE
  5
391
330
6B
100
AcDbEntity
  8
0
100
AcDbCircle
 10
579.9545429999998
 20
172.816934
 30
0.0
 40
2.5
  0
CIRCLE
  5
392
330
6B
100
AcDbEntity
  8
0
100
AcDbCircle
 10
609.9545429999998
 20
172.816934
 30
0.0
 40
2.5
  0
CIRCLE
  5
393
330
6B
100
AcDbEntity
  8
0
100
AcDbCircle
 10
609.9545429999998
 20
142.816934
 30
0.0
 40
2.5
  0
CIRCLE
  5
394
330
6B
100
AcDbEntity
  8
0
100
AcDbCircle
 10
579.9545429999998
 20
142.816934
 30
0.0
 40
2.5
  0
ARC
  5
395
330
6B
100
AcDbEntity
  8
0
100
AcDbCircle
 10
594.9545429999998
 20
157.816934
 30
0.0
 40
10.0
100
AcDbArc
 50
77.457603
 51
162.542397
  0
LINE
  5
396
330
6B
100
AcDbEntity
  8
0
100
AcDbLine
 10
540.554336
 20
175.093698
 30
0.0
 11
537.554336
 21
175.093698
 31
0.0
  0
LINE
  5
397
330
6B
100
AcDbEntity
  8
0
100
AcDbLine
 10
540.554336
 20
162.093698
 30
0.0
 11
537.554336
 21
162.093698
 31
0.0
  0
LINE
  5
398
330
6B
100
AcDbEntity
  8
0
100
AcDbLine
 10
540.554336
 20
175.093698
 30
0.0
 11
543.554336
 21
172.093698
 31
0.0
  0
LINE
  5
399
330
6B
100
AcDbEntity
  8
0
100
AcDbLine
 10
543.554336
 20
172.093698
 30
0.0
 11
543.554336
 21
165.093698
 31
0.0
  0
LINE
  5
39A
330
6B
100
AcDbEntity
  8
0
100
AcDbLine
 10
543.554336
 20
165.093698
 30
0.0
 11
540.554336
 21
162.093698
 31
0.0
  0
LINE
  5
39B
330
6B
100
AcDbEntity
  8
0
100
AcDbLine
 10
541.5670119999998
 20
117.811661
 30
0.0
 11
551.4006860000002
 21
117.811661
 31
0.0
  0
LINE
  5
39C
330
6B
100
AcDbEntity
  8
0
100
AcDbLine
 10
545.371655
 20
116.811661
 30
0.0
 11
551.4006860000002
 21
116.811661
 31
0.0
  0
LINE
  5
39D
330
6B
100
AcDbEntity
  8
0
100
AcDbLine
 10
483.968501
 20
118.811661
 30
0.0
 11
504.4986469999998
 21
118.811661
 31
0.0
  0
LINE
  5
39E
330
6B
100
AcDbEntity
  8
0
100
AcDbLine
 10
548.3357449999998
 20
115.811661
 30
0.0
 11
551.4006860000002
 21
115.811661
 31
0.0
  0
LINE
  5
39F
330
6B
100
AcDbEntity
  8
0
100
AcDbLine
 10
483.968501
 20
119.811661
 30
0.0
 11
504.4986469999998
 21
119.811661
 31
0.0
  0
LINE
  5
3A0
330
6B
100
AcDbEntity
  8
0
100
AcDbLine
 10
558.400686
 20
124.811661
 30
0.0
 11
558.400686
 21
135.31508
 31
0.0
  0
LINE
  5
3A1
330
6B
100
AcDbEntity
  8
0
100
AcDbLine
 10
559.400686
 20
124.811661
 30
0.0
 11
559.400686
 21
135.875875
 31
0.0
  0
LINE
  5
3A2
330
6B
100
AcDbEntity
  8
0
100
AcDbLine
 10
557.400686
 20
124.811661
 30
0.0
 11
557.400686
 21
134.717678
 31
0.0
  0
LINE
  5
3A3
330
6B
100
AcDbEntity
  8
0
100
AcDbLine
 10
560.4006860000001
 20
124.811661
 30
0.0
 11
560.4006860000001
 21
135.800272
 31
0.0
  0
LINE
  5
3A4
330
6B
100
AcDbEntity
  8
0
100
AcDbLine
 10
556.400686
 20
124.811661
 30
0.0
 11
556.400686
 21
134.674972
 31
0.0
  0
ARC
  5
3A5
330
6B
100
AcDbEntity
  8
0
100
AcDbCircle
 10
551.4006860000002
 20
145.315612
 30
0.0
 40
5.0
100
AcDbArc
 50
0.0
 51
90.0
  0
ARC
  5
3A6
330
6B
100
AcDbEntity
  8
0
100
AcDbCircle
 10
551.4006860000002
 20
124.811661
 30
0.0
 40
5.0
100
AcDbArc
 50
270.0
 51
0.0
  0
ARC
  5
3A7
330
6B
100
AcDbEntity
  8
0
100
AcDbCircle
 10
551.4006860000002
 20
145.315612
 30
0.0
 40
6.0
100
AcDbArc
 50
0.0
 51
90.0
  0
ARC
  5
3A8
330
6B
100
AcDbEntity
  8
0
100
AcDbCircle
 10
551.4006860000002
 20
124.811661
 30
0.0
 40
6.0
100
AcDbArc
 50
270.0
 51
0.0
  0
ARC
  5
3A9
330
6B
100
AcDbEntity
  8
0
100
AcDbCircle
 10
551.4006860000002
 20
145.315612
 30
0.0
 40
7.0
100
AcDbArc
 50
0.0
 51
90.0
  0
ARC
  5
3AA
330
6B
100
AcDbEntity
  8
0
100
AcDbCircle
 10
551.4006860000002
 20
124.811661
 30
0.0
 40
7.0
100
AcDbArc
 50
270.0
 51
0.0
  0
ARC
  5
3AB
330
6B
100
AcDbEntity
  8
0
100
AcDbCircle
 10
551.4006860000002
 20
145.315612
 30
0.0
 40
8.0
100
AcDbArc
 50
0.0
 51
90.0
  0
ARC
  5
3AC
330
6B
100
AcDbEntity
  8
0
100
AcDbCircle
 10
551.4006860000002
 20
124.811661
 30
0.0
 40
8.0
100
AcDbArc
 50
270.0
 51
0.0
  0
ARC
  5
3AD
330
6B
100
AcDbEntity
  8
0
100
AcDbCircle
 10
551.4006860000002
 20
145.315612
 30
0.0
 40
9.0
100
AcDbArc
 50
0.0
 51
90.0
  0
ARC
  5
3AE
330
6B
100
AcDbEntity
  8
0
100
AcDbCircle
 10
551.4006860000002
 20
124.811661
 30
0.0
 40
9.0
100
AcDbArc
 50
270.0
 51
0.0
  0
LINE
  5
3AF
330
6B
100
AcDbEntity
  8
0
100
AcDbLine
 10
483.968501
 20
113.811661
 30
0.0
 11
520.846341
 21
113.811661
 31
0.0
  0
LINE
  5
3B0
330
6B
100
AcDbEntity
  8
0
100
AcDbLine
 10
483.968501
 20
112.811661
 30
0.0
 11
520.846341
 21
112.811661
 31
0.0
  0
LINE
  5
3B1
330
6B
100
AcDbEntity
  8
0
100
AcDbLine
 10
483.968501
 20
107.811661
 30
0.0
 11
518.1752529999998
 21
107.811661
 31
0.0
  0
LINE
  5
3B2
330
6B
100
AcDbEntity
  8
0
100
AcDbLine
 10
483.968501
 20
106.811661
 30
0.0
 11
518.1752529999998
 21
106.811661
 31
0.0
  0
LINE
  5
3B3
330
6B
100
AcDbEntity
  8
0
100
AcDbLine
 10
483.968501
 20
101.811661
 30
0.0
 11
516.304692
 21
101.811661
 31
0.0
  0
LINE
  5
3B4
330
6B
100
AcDbEntity
  8
0
100
AcDbLine
 10
483.968501
 20
100.811661
 30
0.0
 11
516.304692
 21
100.811661
 31
0.0
  0
LINE
  5
3B5
330
6B
100
AcDbEntity
  8
0
100
AcDbLine
 10
534.144693
 20
117.456233
 30
0.0
 11
527.9152169999998
 21
115.102546
 31
0.0
  0
LINE
  5
3B6
330
6B
100
AcDbEntity
  8
0
100
AcDbLine
 10
533.299319
 20
113.994755
 30
0.0
 11
529.672716
 21
111.446811
 31
0.0
  0
LINE
  5
3B7
330
6B
100
AcDbEntity
  8
0
100
AcDbLine
 10
533.601599
 20
110.775115
 30
0.0
 11
530.337212
 21
107.560753
 31
0.0
  0
LINE
  5
3B8
330
6B
100
AcDbEntity
  8
0
100
AcDbLine
 10
534.498137
 20
116.520777
 30
0.0
 11
528.268661
 21
114.16709
 31
0.0
  0
LINE
  5
3B9
330
6B
100
AcDbEntity
  8
0
100
AcDbLine
 10
533.874192
 20
113.176512
 30
0.0
 11
530.2475889999998
 21
110.628568
 31
0.0
  0
LINE
  5
3BA
330
6B
100
AcDbEntity
  8
0
100
AcDbLine
 10
534.303225
 20
110.06257
 30
0.0
 11
531.0388379999998
 21
106.848208
 31
0.0
  0
LINE
  5
3BB
330
6B
100
AcDbEntity
  8
0
100
AcDbLine
 10
524.4986469999998
 20
119.811661
 30
0.0
 11
551.4006860000002
 21
119.811661
 31
0.0
  0
LINE
  5
3BC
330
6B
100
AcDbEntity
  8
0
100
AcDbLine
 10
524.4986469999998
 20
118.811661
 30
0.0
 11
551.4006860000002
 21
118.811661
 31
0.0
  0
ARC
  5
3BD
330
6B
100
AcDbEntity
  8
0
100
AcDbCircle
 10
516.304692
 20
121.811661
 30
0.0
 40
20.0
100
AcDbArc
 50
270.0
 51
314.557604
  0
ARC
  5
3BE
330
6B
100
AcDbEntity
  8
0
100
AcDbCircle
 10
518.1752529999998
 20
127.811661
 30
0.0
 40
20.0
100
AcDbArc
 50
270.0
 51
305.090749
  0
ARC
  5
3BF
330
6B
100
AcDbEntity
  8
0
100
AcDbCircle
 10
520.846341
 20
133.811661
 30
0.0
 40
20.0
100
AcDbArc
 50
270.0
 51
290.698097
  0
ARC
  5
3C0
330
6B
100
AcDbEntity
  8
0
100
AcDbCircle
 10
516.304692
 20
121.811661
 30
0.0
 40
21.0
100
AcDbArc
 50
270.0
 51
314.557604
  0
ARC
  5
3C1
330
6B
100
AcDbEntity
  8
0
100
AcDbCircle
 10
518.1752529999998
 20
127.811661
 30
0.0
 40
21.0
100
AcDbArc
 50
270.0
 51
305.090749
  0
ARC
  5
3C2
330
6B
100
AcDbEntity
  8
0
100
AcDbCircle
 10
520.846341
 20
133.811661
 30
0.0
 40
21.0
100
AcDbArc
 50
270.0
 51
290.698097
  0
ARC
  5
3C3
330
6B
100
AcDbEntity
  8
0
100
AcDbCircle
 10
548.3357449999998
 20
95.811661
 30
0.0
 40
21.0
100
AcDbArc
 50
90.0
 51
134.557604
  0
ARC
  5
3C4
330
6B
100
AcDbEntity
  8
0
100
AcDbCircle
 10
545.371655
 20
96.811661
 30
0.0
 40
21.0
100
AcDbArc
 50
90.0
 51
125.090749
  0
ARC
  5
3C5
330
6B
100
AcDbEntity
  8
0
100
AcDbCircle
 10
541.5670119999998
 20
97.811661
 30
0.0
 40
21.0
100
AcDbArc
 50
90.0
 51
110.698097
  0
ARC
  5
3C6
330
6B
100
AcDbEntity
  8
0
100
AcDbCircle
 10
541.5670119999998
 20
97.811661
 30
0.0
 40
20.0
100
AcDbArc
 50
90.0
 51
110.698097
  0
ARC
  5
3C7
330
6B
100
AcDbEntity
  8
0
100
AcDbCircle
 10
545.371655
 20
96.811661
 30
0.0
 40
20.0
100
AcDbArc
 50
90.0
 51
125.090749
  0
ARC
  5
3C8
330
6B
100
AcDbEntity
  8
0
100
AcDbCircle
 10
548.3357449999998
 20
95.811661
 30
0.0
 40
20.0
100
AcDbArc
 50
90.0
 51
134.557604
  0
TEXT
  5
3C9
330
6B
100
AcDbEntity
  8
0
100
AcDbText
 10
507.0704799999998
 20
123.720768
 30
0.0
 40
3.2
  1
ヒューズ
  7
高3.2
100
AcDbText
  0
TEXT
  5
3CA
330
6B
100
AcDbEntity
  8
0
100
AcDbText
 10
619.704192
 20
159.143112
 30
0.0
 40
1.6
  1
イルミＭＡＸ５０ｍＡ
 41
0.869444
100
AcDbText
  0
TEXT
  5
3CB
330
6B
100
AcDbEntity
  8
0
100
AcDbText
 10
638.9132179999998
 20
159.01663
 30
0.0
 40
2.0
  1
バックアップ
100
AcDbText
  0
LINE
  5
3DE
330
6B
100
AcDbEntity
  8
0
100
AcDbLine
 10
560.4006860000001
 20
137.37972
 30
0.0
 11
560.4006860000001
 21
145.315612
 31
0.0
  0
LINE
  5
3DF
330
6B
100
AcDbEntity
  8
0
100
AcDbLine
 10
559.400686
 20
137.424987
 30
0.0
 11
559.400686
 21
145.315612
 31
0.0
  0
LINE
  5
3E0
330
6B
100
AcDbEntity
  8
0
100
AcDbLine
 10
558.400686
 20
136.8545649999999
 30
0.0
 11
558.400686
 21
145.315612
 31
0.0
  0
LINE
  5
3E1
330
6B
100
AcDbEntity
  8
0
100
AcDbLine
 10
557.400686
 20
136.264909
 30
0.0
 11
557.400686
 21
145.315612
 31
0.0
  0
LINE
  5
3E2
330
6B
100
AcDbEntity
  8
0
100
AcDbLine
 10
556.400686
 20
136.25113
 30
0.0
 11
556.400686
 21
145.315612
 31
0.0
  0
LINE
  5
3E3
330
6B
100
AcDbEntity
  8
0
100
AcDbLine
 10
585.4151509999998
 20
160.816934
 30
0.0
 11
577.206304
 21
160.816934
 31
0.0
  0
LINE
  5
3E4
330
6B
100
AcDbEntity
  8
0
100
AcDbLine
 10
585.4151509999998
 20
154.816934
 30
0.0
 11
577.206304
 21
154.816934
 31
0.0
  0
LINE
  5
3E5
330
6B
100
AcDbEntity
  8
0
100
AcDbLine
 10
602.322316
 20
151.055578
 30
0.0
 11
606.426739
 21
143.946508
 31
0.0
  0
LINE
  5
3E6
330
6B
100
AcDbEntity
  8
0
100
AcDbLine
 10
597.1261629999998
 20
148.055578
 30
0.0
 11
601.230587
 21
140.946508
 31
0.0
  0
LINE
  5
3E7
330
6B
100
AcDbEntity
  8
0
100
AcDbLine
 10
597.1261629999998
 20
167.5782899999999
 30
0.0
 11
601.230587
 21
174.68736
 31
0.0
  0
LINE
  5
3E8
330
6B
100
AcDbEntity
  8
0
100
AcDbLine
 10
602.322316
 20
164.57829
 30
0.0
 11
606.426739
 21
171.68736
 31
0.0
  0
ARC
  5
3E9
330
6B
100
AcDbEntity
  8
0
100
AcDbCircle
 10
594.9545429999998
 20
157.816934
 30
0.0
 40
18.0
100
AcDbArc
 50
189.5940679999999
 51
290.405932
  0
ARC
  5
3EA
330
6B
100
AcDbEntity
  8
0
100
AcDbCircle
 10
594.9545429999998
 20
157.816934
 30
0.0
 40
18.0
100
AcDbArc
 50
69.594068
 51
170.405932
  0
ARC
  5
3EB
330
6B
100
AcDbEntity
  8
0
100
AcDbCircle
 10
594.9545429999998
 20
157.816934
 30
0.0
 40
10.0
100
AcDbArc
 50
197.457603
 51
282.542397
  0
ARC
  5
3EC
330
6B
100
AcDbEntity
  8
0
100
AcDbCircle
 10
594.9545429999998
 20
157.816934
 30
0.0
 40
10.0
100
AcDbArc
 50
317.457603
 51
42.54239699999998
  0
LINE
  5
3ED
330
6B
100
AcDbEntity
  8
0
100
AcDbLine
 10
483.968501
 20
119.811661
 30
0.0
 11
483.968501
 21
118.811661
 31
0.0
  0
LINE
  5
3EE
330
6B
100
AcDbEntity
  8
0
100
AcDbLine
 10
483.968501
 20
113.811661
 30
0.0
 11
483.968501
 21
112.811661
 31
0.0
  0
LINE
  5
3EF
330
6B
100
AcDbEntity
  8
0
100
AcDbLine
 10
483.968501
 20
107.811661
 30
0.0
 11
483.968501
 21
106.811661
 31
0.0
  0
LINE
  5
3F0
330
6B
100
AcDbEntity
  8
0
100
AcDbLine
 10
483.968501
 20
101.811661
 30
0.0
 11
483.968501
 21
100.811661
 31
0.0
  0
LINE
  5
3F1
330
6B
100
AcDbEntity
  8
0
100
AcDbLine
 10
483.968501
 20
119.561661
 30
0.0
 11
480.311403
 21
119.561661
 31
0.0
  0
LINE
  5
3F2
330
6B
100
AcDbEntity
  8
0
100
AcDbLine
 10
483.968501
 20
119.061661
 30
0.0
 11
480.311403
 21
119.061661
 31
0.0
  0
LINE
  5
3F3
330
6B
100
AcDbEntity
  8
0
100
AcDbLine
 10
480.311403
 20
119.561661
 30
0.0
 11
480.311403
 21
119.061661
 31
0.0
  0
LINE
  5
3F4
330
6B
100
AcDbEntity
  8
0
100
AcDbLine
 10
483.968501
 20
113.061661
 30
0.0
 11
480.311403
 21
113.061661
 31
0.0
  0
LINE
  5
3F5
330
6B
100
AcDbEntity
  8
0
100
AcDbLine
 10
483.968501
 20
113.561661
 30
0.0
 11
480.311403
 21
113.561661
 31
0.0
  0
LINE
  5
3F6
330
6B
100
AcDbEntity
  8
0
100
AcDbLine
 10
480.311403
 20
113.561661
 30
0.0
 11
480.311403
 21
113.061661
 31
0.0
  0
LINE
  5
3F7
330
6B
100
AcDbEntity
  8
0
100
AcDbLine
 10
483.968501
 20
107.061661
 30
0.0
 11
480.311403
 21
107.061661
 31
0.0
  0
LINE
  5
3F8
330
6B
100
AcDbEntity
  8
0
100
AcDbLine
 10
483.968501
 20
107.561661
 30
0.0
 11
480.311403
 21
107.561661
 31
0.0
  0
LINE
  5
3F9
330
6B
100
AcDbEntity
  8
0
100
AcDbLine
 10
480.311403
 20
107.561661
 30
0.0
 11
480.311403
 21
107.061661
 31
0.0
  0
LINE
  5
3FA
330
6B
100
AcDbEntity
  8
0
100
AcDbLine
 10
483.968501
 20
101.061661
 30
0.0
 11
480.311403
 21
101.061661
 31
0.0
  0
LINE
  5
3FB
330
6B
100
AcDbEntity
  8
0
100
AcDbLine
 10
483.968501
 20
101.561661
 30
0.0
 11
480.311403
 21
101.561661
 31
0.0
  0
LINE
  5
3FC
330
6B
100
AcDbEntity
  8
0
100
AcDbLine
 10
480.311403
 20
101.561661
 30
0.0
 11
480.311403
 21
101.061661
 31
0.0
  0
TEXT
  5
3FD
330
6B
100
AcDbEntity
  8
0
 62
     3
100
AcDbText
 10
479.6600511415962
 20
120.737632
 30
0.0
 40
3.2
  1
赤＋24V
  7
高3.2
100
AcDbText
  0
TEXT
  5
3FE
330
6B
100
AcDbEntity
  8
0
 62
     3
100
AcDbText
 10
479.6600511415962
 20
114.543637
 30
0.0
 40
3.2
  1
黒－24V
  7
高3.2
100
AcDbText
  0
TEXT
  5
3FF
330
6B
100
AcDbEntity
  8
0
 62
     3
100
AcDbText
 10
479.6600511415962
 20
108.526613
 30
0.0
 40
3.2
  1
青ACC24V
  7
高3.2
100
AcDbText
  0
LINE
  5
405
330
6B
100
AcDbEntity
  8
0
100
AcDbLine
 10
337.707338
 20
168.470031
 30
0.0
 11
323.516759
 21
191.627715
 31
0.0
  0
LINE
  5
406
330
6B
100
AcDbEntity
  8
0
100
AcDbLine
 10
323.516759
 20
191.627715
 30
0.0
 11
307.016759
 21
191.627715
 31
0.0
  0
TEXT
  5
407
330
6B
100
AcDbEntity
  8
0
 62
     4
100
AcDbText
 10
309.766759
 20
192.627715
 30
0.0
 40
3.2
  1
出力端子
  7
高3.2
100
AcDbText
  0
LINE
  5
40D
330
6B
100
AcDbEntity
  8
0
100
AcDbLine
 10
362.568502
 20
165.53554
 30
0.0
 11
352.782216
 21
193.456806
 31
0.0
  0
LINE
  5
40E
330
6B
100
AcDbEntity
  8
0
100
AcDbLine
 10
352.782216
 20
193.456806
 30
0.0
 11
328.032216
 21
193.456806
 31
0.0
  0
TEXT
  5
40F
330
6B
100
AcDbEntity
  8
0
 62
     4
100
AcDbText
 10
330.782216
 20
194.456806
 30
0.0
 40
3.2
  1
シガーソケット
  7
高3.2
100
AcDbText
  0
LINE
  5
415
330
6B
100
AcDbEntity
  8
0
100
AcDbLine
 10
402.361442
 20
169.409199
 30
0.0
 11
410.296968
 21
191.424483
 31
0.0
  0
LINE
  5
416
330
6B
100
AcDbEntity
  8
0
100
AcDbLine
 10
410.296968
 20
191.424483
 30
0.0
 11
429.546968
 21
191.424483
 31
0.0
  0
TEXT
  5
417
330
6B
100
AcDbEntity
  8
0
 62
     4
100
AcDbText
 10
413.046968
 20
192.424483
 30
0.0
 40
3.2
  1
警告ランプ
  7
高3.2
100
AcDbText
  0
LINE
  5
41D
330
6B
100
AcDbEntity
  8
0
100
AcDbLine
 10
395.867472
 20
162.093698
 30
0.0
 11
400.9482799999998
 21
198.740847
 31
0.0
  0
LINE
  5
41E
330
6B
100
AcDbEntity
  8
0
100
AcDbLine
 10
400.9482799999998
 20
198.740847
 30
0.0
 11
422.9482799999998
 21
198.740847
 31
0.0
  0
TEXT
  5
41F
330
6B
100
AcDbEntity
  8
0
 62
     4
100
AcDbText
 10
403.6982799999998
 20
199.740847
 30
0.0
 40
3.2
  1
電源スイッチ
  7
高3.2
100
AcDbText
  0
LINE
  5
425
330
6B
100
AcDbEntity
  8
0
100
AcDbLine
 10
389.548783
 20
170.025768
 30
0.0
 11
395.257774
 21
204.634585
 31
0.0
  0
LINE
  5
426
330
6B
100
AcDbEntity
  8
0
100
AcDbLine
 10
395.257774
 20
204.634585
 30
0.0
 11
414.507774
 21
204.634585
 31
0.0
  0
TEXT
  5
427
330
6B
100
AcDbEntity
  8
0
 62
     4
100
AcDbText
 10
398.007774
 20
205.634585
 30
0.0
 40
3.2
  1
電源ランプ
  7
高3.2
100
AcDbText
  0
LINE
  5
42D
330
6B
100
AcDbEntity
  8
0
100
AcDbLine
 10
645.829494
 20
174.766608
 30
0.0
 11
653.765019
 21
196.781891
 31
0.0
  0
LINE
  5
42E
330
6B
100
AcDbEntity
  8
0
100
AcDbLine
 10
653.765019
 20
196.781891
 30
0.0
 11
686.765019
 21
196.781891
 31
0.0
  0
TEXT
  5
42F
330
6B
100
AcDbEntity
  8
0
 62
     4
100
AcDbText
 10
651.3447173716922
 20
197.781891
 30
0.0
 40
3.2
  1
バックアップ出力端子
  7
高3.2
100
AcDbText
  0
LINE
  5
435
330
6B
100
AcDbEntity
  8
0
100
AcDbLine
 10
627.104874
 20
174.852651
 30
0.0
 11
612.914295
 21
198.010335
 31
0.0
  0
LINE
  5
436
330
6B
100
AcDbEntity
  8
0
100
AcDbLine
 10
612.914295
 20
198.010335
 30
0.0
 11
588.164295
 21
198.010335
 31
0.0
  0
TEXT
  5
437
330
6B
100
AcDbEntity
  8
0
 62
     4
100
AcDbText
 10
590.914295
 20
199.010335
 30
0.0
 40
3.2
  1
イルミ出力端子
  7
高3.2
100
AcDbText
  0
LINE
  5
43D
330
6B
100
AcDbEntity
  8
0
100
AcDbLine
 10
594.4282339999999
 20
171.115127
 30
0.0
 11
580.237654
 21
194.272811
 31
0.0
  0
LINE
  5
43E
330
6B
100
AcDbEntity
  8
0
100
AcDbLine
 10
580.237654
 20
194.272811
 30
0.0
 11
560.987654
 21
194.272811
 31
0.0
  0
TEXT
  5
43F
330
6B
100
AcDbEntity
  8
0
 62
     4
100
AcDbText
 10
563.7376539999998
 20
195.272811
 30
0.0
 40
3.2
  1
冷却ファン
  7
高3.2
100
AcDbText
  0
TEXT
  5
440
330
6B
100
AcDbEntity
  8
0
 62
     3
100
AcDbText
 10
479.6600511415962
 20
102.332618
 30
0.0
 40
3.2
  1
ダイダイ　イルミ24V
  7
高3.2
100
AcDbText
  0
TEXT
  5
51C
330
6B
100
AcDbEntity
  8
0
 62
     3
100
AcDbText
 10
677.485639
 20
239.071523
 30
0.0
 40
3.2
  1
担　当
  7
高3.2
100
AcDbText
  0
TEXT
  5
51D
330
6B
100
AcDbEntity
  8
0
 62
     3
100
AcDbText
 10
633.4856389999998
 20
239.071523
 30
0.0
 40
3.2
  1
変更・追記内容
  7
高3.2
100
AcDbText
  0
TEXT
  5
51E
330
6B
100
AcDbEntity
  8
0
 62
     3
100
AcDbText
 10
608.5991540003392
 20
234.4009844900917
 30
0.0
 40
2.0
  1
1
  7
高2
100
AcDbText
  0
TEXT
  5
51F
330
6B
100
AcDbEntity
  8
0
 62
     3
100
AcDbText
 10
608.2906425235818
 20
229.2311677778188
 30
0.0
 40
2.0
  1
2
  7
高2
100
AcDbText
  0
TEXT
  5
520
330
6B
100
AcDbEntity
  8
0
 62
     3
100
AcDbText
 10
615.4856389999999
 20
239.071523
 30
0.0
 40
3.2
  1
日　付
  7
高3.2
100
AcDbText
  0
TEXT
  5
521
330
6B
100
AcDbEntity
  8
0
 62
     3
100
AcDbText
 10
615.4856389999999
 20
244.071523
 30
0.0
 40
3.2
  1
図　　　　面　　　　略　　　　歴
  7
高3.2
100
AcDbText
  0
TEXT
  5
522
330
6B
100
AcDbEntity
  8
0
 62
     3
100
AcDbText
 10
605.485639
 20
239.071523
 30
0.0
 40
3.2
  1
記号
  7
高3.2
100
AcDbText
  0
LINE
  5
523
330
6B
100
AcDbEntity
  8
0
100
AcDbLine
 10
608.985639
 20
232.3624190000001
 30
0.0
 11
607.085639
 21
229.071523
 31
0.0
  0
LINE
  5
524
330
6B
100
AcDbEntity
  8
0
100
AcDbLine
 10
608.985639
 20
232.3624190000001
 30
0.0
 11
610.8856389999998
 21
229.071523
 31
0.0
  0
LINE
  5
525
330
6B
100
AcDbEntity
  8
0
100
AcDbLine
 10
607.085639
 20
229.071523
 30
0.0
 11
610.8856389999998
 21
229.071523
 31
0.0
  0
LINE
  5
526
330
6B
100
AcDbEntity
  8
0
100
AcDbLine
 10
608.985639
 20
237.3624200000001
 30
0.0
 11
607.085639
 21
234.071523
 31
0.0
  0
LINE
  5
527
330
6B
100
AcDbEntity
  8
0
100
AcDbLine
 10
608.985639
 20
237.3624200000001
 30
0.0
 11
610.8856389999998
 21
234.071523
 31
0.0
  0
LINE
  5
528
330
6B
100
AcDbEntity
  8
0
100
AcDbLine
 10
607.085639
 20
234.071523
 30
0.0
 11
610.8856389999998
 21
234.071523
 31
0.0
  0
LINE
  5
529
330
6B
100
AcDbEntity
  8
0
 62
     3
100
AcDbLine
 10
603.9856389999998
 20
243.571523
 30
0.0
 11
689.985639
 21
243.571523
 31
0.0
  0
LINE
  5
52A
330
6B
100
AcDbEntity
  8
0
 62
     3
100
AcDbLine
 10
603.9856389999998
 20
238.571523
 30
0.0
 11
689.985639
 21
238.571523
 31
0.0
  0
LINE
  5
52B
330
6B
100
AcDbEntity
  8
0
 62
     7
100
AcDbLine
 10
603.9856389999998
 20
233.571523
 30
0.0
 11
689.985639
 21
233.571523
 31
0.0
  0
LINE
  5
52C
330
6B
100
AcDbEntity
  8
0
 62
     3
100
AcDbLine
 10
603.9856389999998
 20
228.571523
 30
0.0
 11
689.985639
 21
228.571523
 31
0.0
  0
LINE
  5
52D
330
6B
100
AcDbEntity
  8
0
 62
     7
100
AcDbLine
 10
675.985639
 20
228.571523
 30
0.0
 11
675.985639
 21
243.571523
 31
0.0
  0
LINE
  5
52E
330
6B
100
AcDbEntity
  8
0
 62
     7
100
AcDbLine
 10
631.9856389999999
 20
228.571523
 30
0.0
 11
631.9856389999999
 21
243.571523
 31
0.0
  0
LINE
  5
52F
330
6B
100
AcDbEntity
  8
0
 62
     7
100
AcDbLine
 10
613.985639
 20
228.571523
 30
0.0
 11
613.985639
 21
243.571523
 31
0.0
  0
LINE
  5
530
330
6B
100
AcDbEntity
  8
0
 62
     3
100
AcDbLine
 10
603.9856389999998
 20
228.571523
 30
0.0
 11
603.9856389999998
 21
248.571523
 31
0.0
  0
LINE
  5
722
330
6B
100
AcDbEntity
  8
0
100
AcDbLine
 10
592.926329
 20
172.540423
 30
0.0
 11
594.4282339999999
 21
171.115127
 31
0.0
  0
LINE
  5
723
330
6B
100
AcDbEntity
  8
0
100
AcDbLine
 10
594.4282339999999
 20
171.115127
 30
0.0
 11
593.840194
 21
173.100422
 31
0.0
  0
LINE
  5
726
330
6B
100
AcDbEntity
  8
0
100
AcDbLine
 10
625.60297
 20
176.277947
 30
0.0
 11
627.104874
 21
174.852651
 31
0.0
  0
LINE
  5
727
330
6B
100
AcDbEntity
  8
0
100
AcDbLine
 10
627.104874
 20
174.852651
 30
0.0
 11
626.516835
 21
176.837946
 31
0.0
  0
LINE
  5
728
330
6B
100
AcDbEntity
  8
0
100
AcDbLine
 10
646.003544
 20
176.829832
 30
0.0
 11
645.829494
 21
174.766608
 31
0.0
  0
LINE
  5
729
330
6B
100
AcDbEntity
  8
0
100
AcDbLine
 10
645.829494
 20
174.766608
 30
0.0
 11
647.011838
 21
176.466387
 31
0.0
  0
LINE
  5
72A
330
6B
100
AcDbEntity
  8
0
100
AcDbLine
 10
389.345546
 20
172.086322
 30
0.0
 11
389.548783
 21
170.025768
 31
0.0
  0
LINE
  5
72B
330
6B
100
AcDbEntity
  8
0
100
AcDbLine
 10
389.548783
 20
170.025768
 30
0.0
 11
390.403052
 21
171.911878
 31
0.0
  0
LINE
  5
72C
330
6B
100
AcDbEntity
  8
0
100
AcDbLine
 10
395.611306
 20
164.148343
 30
0.0
 11
395.867472
 21
162.093698
 31
0.0
  0
LINE
  5
72D
330
6B
100
AcDbEntity
  8
0
100
AcDbLine
 10
395.867472
 20
162.093698
 30
0.0
 11
396.672948
 21
164.001156
 31
0.0
  0
LINE
  5
72E
330
6B
100
AcDbEntity
  8
0
100
AcDbLine
 10
402.535493
 20
171.472423
 30
0.0
 11
402.361442
 21
169.409199
 31
0.0
  0
LINE
  5
72F
330
6B
100
AcDbEntity
  8
0
100
AcDbLine
 10
402.361442
 20
169.409199
 30
0.0
 11
403.543786
 21
171.108979
 31
0.0
  0
LINE
  5
730
330
6B
100
AcDbEntity
  8
0
100
AcDbLine
 10
361.401233
 20
167.245707
 30
0.0
 11
362.568502
 21
165.53554
 31
0.0
  0
LINE
  5
731
330
6B
100
AcDbEntity
  8
0
100
AcDbLine
 10
362.568502
 20
165.53554
 30
0.0
 11
362.412701
 21
167.600222
 31
0.0
  0
LINE
  5
732
330
6B
100
AcDbEntity
  8
0
100
AcDbLine
 10
336.205434
 20
169.895327
 30
0.0
 11
337.707338
 21
168.470031
 31
0.0
  0
LINE
  5
733
330
6B
100
AcDbEntity
  8
0
100
AcDbLine
 10
337.707338
 20
168.470031
 30
0.0
 11
337.119299
 21
170.455326
 31
0.0
  0
LINE
  5
734
330
6B
100
AcDbEntity
  8
0
100
AcDbLine
 10
554.8524620000002
 20
136.307251
 30
0.0
 11
555.797629
 21
135.116251
 31
0.0
  0
LINE
  5
735
330
6B
100
AcDbEntity
  8
0
100
AcDbLine
 10
555.797629
 20
135.116251
 30
0.0
 11
556.836716
 21
134.578957
 31
0.0
  0
LINE
  5
736
330
6B
100
AcDbEntity
  8
0
100
AcDbLine
 10
556.836716
 20
134.578957
 30
0.0
 11
558.3616559999998
 21
135.289075
 31
0.0
  0
LINE
  5
737
330
6B
100
AcDbEntity
  8
0
100
AcDbLine
 10
558.3616559999998
 20
135.289075
 30
0.0
 11
559.88913
 21
135.962035
 31
0.0
  0
LINE
  5
738
330
6B
100
AcDbEntity
  8
0
100
AcDbLine
 10
559.88913
 20
135.962035
 30
0.0
 11
560.809535
 21
135.487735
 31
0.0
  0
LINE
  5
739
330
6B
100
AcDbEntity
  8
0
100
AcDbLine
 10
560.809535
 20
135.487735
 30
0.0
 11
561.65953
 21
134.4976
 31
0.0
  0
LINE
  5
73A
330
6B
100
AcDbEntity
  8
0
100
AcDbLine
 10
554.8850019999998
 20
137.868415
 30
0.0
 11
555.83017
 21
136.677415
 31
0.0
  0
LINE
  5
73B
330
6B
100
AcDbEntity
  8
0
100
AcDbLine
 10
555.83017
 20
136.677415
 30
0.0
 11
556.869257
 21
136.140121
 31
0.0
  0
LINE
  5
73C
330
6B
100
AcDbEntity
  8
0
100
AcDbLine
 10
556.869257
 20
136.140121
 30
0.0
 11
558.3941969999998
 21
136.850239
 31
0.0
  0
LINE
  5
73D
330
6B
100
AcDbEntity
  8
0
100
AcDbLine
 10
558.3941969999998
 20
136.850239
 30
0.0
 11
559.9216709999998
 21
137.523198
 31
0.0
  0
LINE
  5
73E
330
6B
100
AcDbEntity
  8
0
100
AcDbLine
 10
559.9216709999998
 20
137.523198
 30
0.0
 11
560.842076
 21
137.048899
 31
0.0
  0
LINE
  5
73F
330
6B
100
AcDbEntity
  8
0
100
AcDbLine
 10
560.842076
 20
137.048899
 30
0.0
 11
561.69207
 21
136.058764
 31
0.0
  0
LINE
  5
740
330
6B
100
AcDbEntity
  8
0
100
AcDbLine
 10
494.8203389999997
 20
183.57969
 30
0.0
 11
492.380028
 21
180.855507
 31
0.0
  0
LINE
  5
741
330
6B
100
AcDbEntity
  8
0
100
AcDbLine
 10
492.380028
 20
180.855507
 30
0.0
 11
490.1134439999998
 21
178.112909
 31
0.0
  0
LINE
  5
742
330
6B
100
AcDbEntity
  8
0
100
AcDbLine
 10
490.1134439999998
 20
178.112909
 30
0.0
 11
488.194315
 21
175.33348
 31
0.0
  0
LINE
  5
743
330
6B
100
AcDbEntity
  8
0
100
AcDbLine
 10
488.194315
 20
175.33348
 30
0.0
 11
486.796369
 21
172.498803
 31
0.0
  0
LINE
  5
744
330
6B
100
AcDbEntity
  8
0
100
AcDbLine
 10
486.796369
 20
172.498803
 30
0.0
 11
486.093333
 21
169.590463
 31
0.0
  0
LINE
  5
745
330
6B
100
AcDbEntity
  8
0
100
AcDbLine
 10
486.093333
 20
169.590463
 30
0.0
 11
486.896574
 21
163.80676
 31
0.0
  0
LINE
  5
746
330
6B
100
AcDbEntity
  8
0
100
AcDbLine
 10
486.896574
 20
163.80676
 30
0.0
 11
489.593615
 21
157.811614
 31
0.0
  0
LINE
  5
747
330
6B
100
AcDbEntity
  8
0
100
AcDbLine
 10
489.593615
 20
157.811614
 30
0.0
 11
492.9099309999998
 21
151.729437
 31
0.0
  0
LINE
  5
748
330
6B
100
AcDbEntity
  8
0
100
AcDbLine
 10
492.9099309999998
 20
151.729437
 30
0.0
 11
495.570996
 21
145.684642
 31
0.0
  0
LINE
  5
749
330
6B
100
AcDbEntity
  8
0
100
AcDbLine
 10
495.570996
 20
145.684642
 30
0.0
 11
496.3022829999998
 21
139.801639
 31
0.0
  0
LINE
  5
74A
330
6B
100
AcDbEntity
  8
0
100
AcDbLine
 10
496.3022829999998
 20
139.801639
 30
0.0
 11
495.7375719999998
 21
137.334506
 31
0.0
  0
LINE
  5
74B
330
6B
100
AcDbEntity
  8
0
100
AcDbLine
 10
495.7375719999998
 20
137.334506
 30
0.0
 11
494.6931
 21
134.910225
 31
0.0
  0
LINE
  5
74C
330
6B
100
AcDbEntity
  8
0
100
AcDbLine
 10
494.6931
 20
134.910225
 30
0.0
 11
493.288808
 21
132.518083
 31
0.0
  0
LINE
  5
74D
330
6B
100
AcDbEntity
  8
0
100
AcDbLine
 10
493.288808
 20
132.518083
 30
0.0
 11
491.6446360000001
 21
130.147366
 31
0.0
  0
LINE
  5
74E
330
6B
100
AcDbEntity
  8
0
100
AcDbLine
 10
491.6446360000001
 20
130.147366
 30
0.0
 11
489.8805249999998
 21
127.787362
 31
0.0
  0
LINE
  5
74F
330
6B
100
AcDbEntity
  8
0
100
AcDbLine
 10
487.387507
 20
183.57969
 30
0.0
 11
484.947195
 21
180.855507
 31
0.0
  0
LINE
  5
750
330
6B
100
AcDbEntity
  8
0
100
AcDbLine
 10
484.947195
 20
180.855507
 30
0.0
 11
482.680611
 21
178.112909
 31
0.0
  0
LINE
  5
751
330
6B
100
AcDbEntity
  8
0
100
AcDbLine
 10
482.680611
 20
178.112909
 30
0.0
 11
480.761483
 21
175.33348
 31
0.0
  0
LINE
  5
752
330
6B
100
AcDbEntity
  8
0
100
AcDbLine
 10
480.761483
 20
175.33348
 30
0.0
 11
479.363537
 21
172.498803
 31
0.0
  0
LINE
  5
753
330
6B
100
AcDbEntity
  8
0
100
AcDbLine
 10
479.363537
 20
172.498803
 30
0.0
 11
478.6605009999998
 21
169.590463
 31
0.0
  0
LINE
  5
754
330
6B
100
AcDbEntity
  8
0
100
AcDbLine
 10
478.6605009999998
 20
169.590463
 30
0.0
 11
479.4637409999999
 21
163.80676
 31
0.0
  0
LINE
  5
755
330
6B
100
AcDbEntity
  8
0
100
AcDbLine
 10
479.4637409999999
 20
163.80676
 30
0.0
 11
482.1607829999998
 21
157.811614
 31
0.0
  0
LINE
  5
756
330
6B
100
AcDbEntity
  8
0
100
AcDbLine
 10
482.1607829999998
 20
157.811614
 30
0.0
 11
485.477099
 21
151.729437
 31
0.0
  0
LINE
  5
757
330
6B
100
AcDbEntity
  8
0
100
AcDbLine
 10
485.477099
 20
151.729437
 30
0.0
 11
488.1381639999998
 21
145.684642
 31
0.0
  0
LINE
  5
758
330
6B
100
AcDbEntity
  8
0
100
AcDbLine
 10
488.1381639999998
 20
145.684642
 30
0.0
 11
488.8694509999998
 21
139.801639
 31
0.0
  0
LINE
  5
759
330
6B
100
AcDbEntity
  8
0
100
AcDbLine
 10
488.8694509999998
 20
139.801639
 30
0.0
 11
488.3047389999998
 21
137.334506
 31
0.0
  0
LINE
  5
75A
330
6B
100
AcDbEntity
  8
0
100
AcDbLine
 10
488.3047389999998
 20
137.334506
 30
0.0
 11
487.2602679999998
 21
134.910225
 31
0.0
  0
LINE
  5
75B
330
6B
100
AcDbEntity
  8
0
100
AcDbLine
 10
487.2602679999998
 20
134.910225
 30
0.0
 11
485.855976
 21
132.518083
 31
0.0
  0
LINE
  5
75C
330
6B
100
AcDbEntity
  8
0
100
AcDbLine
 10
485.855976
 20
132.518083
 30
0.0
 11
484.211804
 21
130.147366
 31
0.0
  0
LINE
  5
75D
330
6B
100
AcDbEntity
  8
0
100
AcDbLine
 10
484.211804
 20
130.147366
 30
0.0
 11
482.447692
 21
127.787362
 31
0.0
  0
LINE
  5
75E
330
6B
100
AcDbEntity
  8
0
100
AcDbLine
 10
351.716701
 20
173.531334
 30
0.0
 11
352.568458
 21
172.950237
 31
0.0
  0
LINE
  5
75F
330
6B
100
AcDbEntity
  8
0
100
AcDbLine
 10
352.568458
 20
172.950237
 30
0.0
 11
353.20578
 21
172.24828
 31
0.0
  0
LINE
  5
760
330
6B
100
AcDbEntity
  8
0
100
AcDbLine
 10
353.20578
 20
172.24828
 30
0.0
 11
353.488856
 21
171.311622
 31
0.0
  0
LINE
  5
761
330
6B
100
AcDbEntity
  8
0
100
AcDbLine
 10
353.488856
 20
171.311622
 30
0.0
 11
353.543102
 21
170.24599
 31
0.0
  0
LINE
  5
762
330
6B
100
AcDbEntity
  8
0
100
AcDbLine
 10
352.897695
 20
173.651086
 30
0.0
 11
353.270236
 21
173.079235
 31
0.0
  0
LINE
  5
763
330
6B
100
AcDbEntity
  8
0
100
AcDbLine
 10
353.270236
 20
173.079235
 30
0.0
 11
353.548097
 21
172.470676
 31
0.0
  0
LINE
  5
764
330
6B
100
AcDbEntity
  8
0
100
AcDbLine
 10
353.548097
 20
172.470676
 30
0.0
 11
353.632323
 21
172.099615
 31
0.0
  0
LINE
  5
765
330
6B
100
AcDbEntity
  8
0
100
AcDbLine
 10
353.632323
 20
172.099615
 30
0.0
 11
353.667908
 21
171.71795
 31
0.0
  0
LINE
  5
766
330
6B
100
AcDbEntity
  8
0
100
AcDbLine
 10
353.667908
 20
171.71795
 30
0.0
 11
353.6399830000001
 21
170.979836
 31
0.0
  0
LINE
  5
767
330
6B
100
AcDbEntity
  8
0
100
AcDbLine
 10
353.6399830000001
 20
170.979836
 30
0.0
 11
353.543102
 21
170.24599
 31
0.0
  0
LINE
  5
768
330
6B
100
AcDbEntity
  8
0
100
AcDbLine
 10
354.780439
 20
174.574886
 30
0.0
 11
354.088939
 21
174.176701
 31
0.0
  0
LINE
  5
769
330
6B
100
AcDbEntity
  8
0
100
AcDbLine
 10
354.088939
 20
174.176701
 30
0.0
 11
353.685024
 21
173.685301
 31
0.0
  0
LINE
  5
76A
330
6B
100
AcDbEntity
  8
0
100
AcDbLine
 10
353.685024
 20
173.685301
 30
0.0
 11
353.764488
 21
172.960219
 31
0.0
  0
LINE
  5
76B
330
6B
100
AcDbEntity
  8
0
100
AcDbLine
 10
353.764488
 20
172.960219
 30
0.0
 11
353.993109
 21
172.145635
 31
0.0
  0
LINE
  5
76C
330
6B
100
AcDbEntity
  8
0
100
AcDbLine
 10
353.993109
 20
172.145635
 30
0.0
 11
353.943928
 21
171.383327
 31
0.0
  0
LINE
  5
76D
330
6B
100
AcDbEntity
  8
0
100
AcDbLine
 10
353.943928
 20
171.383327
 30
0.0
 11
353.70214
 21
170.657291
 31
0.0
  0
LINE
  5
76E
330
6B
100
AcDbEntity
  8
0
100
AcDbLine
 10
353.70214
 20
170.657291
 30
0.0
 11
353.622604
 21
170.451129
 31
0.0
  0
LINE
  5
76F
330
6B
100
AcDbEntity
  8
0
100
AcDbLine
 10
353.622604
 20
170.451129
 30
0.0
 11
353.543102
 21
170.24599
 31
0.0
  0
LINE
  5
770
330
6B
100
AcDbEntity
  8
0
 62
     2
100
AcDbLine
 10
490.244265
 20
249.112152
 30
0.0
 11
490.217654
 21
249.282535
 31
0.0
  0
LINE
  5
771
330
6B
100
AcDbEntity
  8
0
 62
     2
100
AcDbLine
 10
490.217654
 20
249.282535
 30
0.0
 11
490.1856949999998
 21
249.445684
 31
0.0
  0
LINE
  5
772
330
6B
100
AcDbEntity
  8
0
 62
     2
100
AcDbLine
 10
490.1856949999998
 20
249.445684
 30
0.0
 11
490.1486349999998
 21
249.60034
 31
0.0
  0
LINE
  5
773
330
6B
100
AcDbEntity
  8
0
 62
     2
100
AcDbLine
 10
490.1486349999998
 20
249.60034
 30
0.0
 11
490.106761
 21
249.745307
 31
0.0
  0
LINE
  5
774
330
6B
100
AcDbEntity
  8
0
 62
     2
100
AcDbLine
 10
490.106761
 20
249.745307
 30
0.0
 11
490.0603959999998
 21
249.879463
 31
0.0
  0
LINE
  5
775
330
6B
100
AcDbEntity
  8
0
 62
     2
100
AcDbLine
 10
490.0603959999998
 20
249.879463
 30
0.0
 11
490.009898
 21
250.001773
 31
0.0
  0
LINE
  5
776
330
6B
100
AcDbEntity
  8
0
 62
     2
100
AcDbLine
 10
490.009898
 20
250.001773
 30
0.0
 11
489.955657
 21
250.111291
 31
0.0
  0
LINE
  5
777
330
6B
100
AcDbEntity
  8
0
 62
     2
100
AcDbLine
 10
489.955657
 20
250.111291
 30
0.0
 11
489.898094
 21
250.20717
 31
0.0
  0
LINE
  5
778
330
6B
100
AcDbEntity
  8
0
 62
     2
100
AcDbLine
 10
489.898094
 20
250.20717
 30
0.0
 11
489.837653
 21
250.288669
 31
0.0
  0
LINE
  5
779
330
6B
100
AcDbEntity
  8
0
 62
     2
100
AcDbLine
 10
489.837653
 20
250.288669
 30
0.0
 11
489.7748009999999
 21
250.355159
 31
0.0
  0
LINE
  5
77A
330
6B
100
AcDbEntity
  8
0
 62
     2
100
AcDbLine
 10
489.7748009999999
 20
250.355159
 30
0.0
 11
489.710024
 21
250.406125
 31
0.0
  0
LINE
  5
77B
330
6B
100
AcDbEntity
  8
0
 62
     2
100
AcDbLine
 10
489.710024
 20
250.406125
 30
0.0
 11
489.643822
 21
250.441173
 31
0.0
  0
LINE
  5
77C
330
6B
100
AcDbEntity
  8
0
 62
     2
100
AcDbLine
 10
489.643822
 20
250.441173
 30
0.0
 11
489.5767079999997
 21
250.460033
 31
0.0
  0
LINE
  5
77D
330
6B
100
AcDbEntity
  8
0
 62
     2
100
AcDbLine
 10
489.5767079999997
 20
250.460033
 30
0.0
 11
489.5091999999998
 21
250.462558
 31
0.0
  0
LINE
  5
77E
330
6B
100
AcDbEntity
  8
0
 62
     2
100
AcDbLine
 10
489.5091999999998
 20
250.462558
 30
0.0
 11
489.44182
 21
250.44873
 31
0.0
  0
LINE
  5
77F
330
6B
100
AcDbEntity
  8
0
 62
     2
100
AcDbLine
 10
489.44182
 20
250.44873
 30
0.0
 11
489.3750879999998
 21
250.418655
 31
0.0
  0
LINE
  5
780
330
6B
100
AcDbEntity
  8
0
 62
     2
100
AcDbLine
 10
489.3750879999998
 20
250.418655
 30
0.0
 11
489.309521
 21
250.372565
 31
0.0
  0
LINE
  5
781
330
6B
100
AcDbEntity
  8
0
 62
     2
100
AcDbLine
 10
489.309521
 20
250.372565
 30
0.0
 11
489.245625
 21
250.310817
 31
0.0
  0
LINE
  5
782
330
6B
100
AcDbEntity
  8
0
 62
     2
100
AcDbLine
 10
489.245625
 20
250.310817
 30
0.0
 11
489.183895
 21
250.233888
 31
0.0
  0
LINE
  5
783
330
6B
100
AcDbEntity
  8
0
 62
     2
100
AcDbLine
 10
489.183895
 20
250.233888
 30
0.0
 11
489.124807
 21
250.142373
 31
0.0
  0
LINE
  5
784
330
6B
100
AcDbEntity
  8
0
 62
     2
100
AcDbLine
 10
489.124807
 20
250.142373
 30
0.0
 11
489.0688179999998
 21
250.036979
 31
0.0
  0
LINE
  5
785
330
6B
100
AcDbEntity
  8
0
 62
     2
100
AcDbLine
 10
489.0688179999998
 20
250.036979
 30
0.0
 11
489.016361
 21
249.918521
 31
0.0
  0
LINE
  5
786
330
6B
100
AcDbEntity
  8
0
 62
     2
100
AcDbLine
 10
489.016361
 20
249.918521
 30
0.0
 11
488.967841
 21
249.787914
 31
0.0
  0
LINE
  5
787
330
6B
100
AcDbEntity
  8
0
 62
     2
100
AcDbLine
 10
488.967841
 20
249.787914
 30
0.0
 11
488.923633
 21
249.646168
 31
0.0
  0
LINE
  5
788
330
6B
100
AcDbEntity
  8
0
 62
     2
100
AcDbLine
 10
488.923633
 20
249.646168
 30
0.0
 11
488.8840799999998
 21
249.494378
 31
0.0
  0
LINE
  5
789
330
6B
100
AcDbEntity
  8
0
 62
     2
100
AcDbLine
 10
488.8840799999998
 20
249.494378
 30
0.0
 11
488.849486
 21
249.333718
 31
0.0
  0
LINE
  5
78A
330
6B
100
AcDbEntity
  8
0
 62
     2
100
AcDbLine
 10
488.849486
 20
249.333718
 30
0.0
 11
488.820119
 21
249.16543
 31
0.0
  0
LINE
  5
78B
330
6B
100
AcDbEntity
  8
0
 62
     2
100
AcDbLine
 10
488.820119
 20
249.16543
 30
0.0
 11
488.796207
 21
248.990814
 31
0.0
  0
LINE
  5
78C
330
6B
100
AcDbEntity
  8
0
 62
     2
100
AcDbLine
 10
488.796207
 20
248.990814
 30
0.0
 11
488.7779329999998
 21
248.81122
 31
0.0
  0
LINE
  5
78D
330
6B
100
AcDbEntity
  8
0
 62
     2
100
AcDbLine
 10
488.7779329999998
 20
248.81122
 30
0.0
 11
488.76544
 21
248.628036
 31
0.0
  0
LINE
  5
78E
330
6B
100
AcDbEntity
  8
0
 62
     2
100
AcDbLine
 10
488.76544
 20
248.628036
 30
0.0
 11
488.758823
 21
248.442678
 31
0.0
  0
LINE
  5
78F
330
6B
100
AcDbEntity
  8
0
 62
     2
100
AcDbLine
 10
488.758823
 20
248.442678
 30
0.0
 11
488.7581349999998
 21
248.256579
 31
0.0
  0
LINE
  5
790
330
6B
100
AcDbEntity
  8
0
 62
     2
100
AcDbLine
 10
488.7581349999998
 20
248.256579
 30
0.0
 11
488.7633799999998
 21
248.071177
 31
0.0
  0
LINE
  5
791
330
6B
100
AcDbEntity
  8
0
 62
     2
100
AcDbLine
 10
488.7633799999998
 20
248.071177
 30
0.0
 11
488.774517
 21
247.887906
 31
0.0
  0
LINE
  5
792
330
6B
100
AcDbEntity
  8
0
 62
     2
100
AcDbLine
 10
488.774517
 20
247.887906
 30
0.0
 11
488.791461
 21
247.708182
 31
0.0
  0
LINE
  5
793
330
6B
100
AcDbEntity
  8
0
 62
     2
100
AcDbLine
 10
488.791461
 20
247.708182
 30
0.0
 11
488.814081
 21
247.533394
 31
0.0
  0
LINE
  5
794
330
6B
100
AcDbEntity
  8
0
 62
     2
100
AcDbLine
 10
488.814081
 20
247.533394
 30
0.0
 11
488.842201
 21
247.364893
 31
0.0
  0
LINE
  5
795
330
6B
100
AcDbEntity
  8
0
 62
     2
100
AcDbLine
 10
488.842201
 20
247.364893
 30
0.0
 11
488.875605
 21
247.203981
 31
0.0
  0
LINE
  5
796
330
6B
100
AcDbEntity
  8
0
 62
     2
100
AcDbLine
 10
488.875605
 20
247.203981
 30
0.0
 11
488.9140339999998
 21
247.051903
 31
0.0
  0
LINE
  5
797
330
6B
100
AcDbEntity
  8
0
 62
     2
100
AcDbLine
 10
488.9140339999998
 20
247.051903
 30
0.0
 11
488.957192
 21
246.909833
 31
0.0
  0
LINE
  5
798
330
6B
100
AcDbEntity
  8
0
 62
     2
100
AcDbLine
 10
488.957192
 20
246.909833
 30
0.0
 11
489.004744
 21
246.778871
 31
0.0
  0
LINE
  5
799
330
6B
100
AcDbEntity
  8
0
 62
     2
100
AcDbLine
 10
489.004744
 20
246.778871
 30
0.0
 11
489.056323
 21
246.660028
 31
0.0
  0
LINE
  5
79A
330
6B
100
AcDbEntity
  8
0
 62
     2
100
AcDbLine
 10
489.056323
 20
246.660028
 30
0.0
 11
489.11153
 21
246.554222
 31
0.0
  0
LINE
  5
79B
330
6B
100
AcDbEntity
  8
0
 62
     2
100
AcDbLine
 10
489.11153
 20
246.554222
 30
0.0
 11
489.16994
 21
246.462272
 31
0.0
  0
LINE
  5
79C
330
6B
100
AcDbEntity
  8
0
 62
     2
100
AcDbLine
 10
489.16994
 20
246.462272
 30
0.0
 11
489.231099
 21
246.384889
 31
0.0
  0
LINE
  5
79D
330
6B
100
AcDbEntity
  8
0
 62
     2
100
AcDbLine
 10
489.231099
 20
246.384889
 30
0.0
 11
489.294536
 21
246.32267
 31
0.0
  0
LINE
  5
79E
330
6B
100
AcDbEntity
  8
0
 62
     2
100
AcDbLine
 10
489.294536
 20
246.32267
 30
0.0
 11
489.3597599999998
 21
246.276096
 31
0.0
  0
LINE
  5
79F
330
6B
100
AcDbEntity
  8
0
 62
     2
100
AcDbLine
 10
489.3597599999998
 20
246.276096
 30
0.0
 11
489.4262669999998
 21
246.245528
 31
0.0
  0
LINE
  5
7A0
330
6B
100
AcDbEntity
  8
0
 62
     2
100
AcDbLine
 10
489.4262669999998
 20
246.245528
 30
0.0
 11
489.493543
 21
246.231201
 31
0.0
  0
LINE
  5
7A1
330
6B
100
AcDbEntity
  8
0
 62
     2
100
AcDbLine
 10
489.493543
 20
246.231201
 30
0.0
 11
489.5610679999998
 21
246.233227
 31
0.0
  0
LINE
  5
7A2
330
6B
100
AcDbEntity
  8
0
 62
     2
100
AcDbLine
 10
489.5610679999998
 20
246.233227
 30
0.0
 11
489.62832
 21
246.25159
 31
0.0
  0
LINE
  5
7A3
330
6B
100
AcDbEntity
  8
0
 62
     2
100
AcDbLine
 10
489.62832
 20
246.25159
 30
0.0
 11
489.6947789999998
 21
246.286147
 31
0.0
  0
LINE
  5
7A4
330
6B
100
AcDbEntity
  8
0
 62
     2
100
AcDbLine
 10
489.6947789999998
 20
246.286147
 30
0.0
 11
489.759932
 21
246.336632
 31
0.0
  0
LINE
  5
7A5
330
6B
100
AcDbEntity
  8
0
 62
     2
100
AcDbLine
 10
489.759932
 20
246.336632
 30
0.0
 11
489.823274
 21
246.402655
 31
0.0
  0
LINE
  5
7A6
330
6B
100
AcDbEntity
  8
0
 62
     2
100
AcDbLine
 10
489.823274
 20
246.402655
 30
0.0
 11
489.884317
 21
246.483705
 31
0.0
  0
LINE
  5
7A7
330
6B
100
AcDbEntity
  8
0
 62
     2
100
AcDbLine
 10
489.884317
 20
246.483705
 30
0.0
 11
489.9425879999998
 21
246.579155
 31
0.0
  0
LINE
  5
7A8
330
6B
100
AcDbEntity
  8
0
 62
     2
100
AcDbLine
 10
489.9425879999998
 20
246.579155
 30
0.0
 11
489.997637
 21
246.688269
 31
0.0
  0
LINE
  5
7A9
330
6B
100
AcDbEntity
  8
0
 62
     2
100
AcDbLine
 10
489.997637
 20
246.688269
 30
0.0
 11
490.0490389999998
 21
246.810201
 31
0.0
  0
LINE
  5
7AA
330
6B
100
AcDbEntity
  8
0
 62
     2
100
AcDbLine
 10
490.0490389999998
 20
246.810201
 30
0.0
 11
490.0963959999998
 21
246.944011
 31
0.0
  0
LINE
  5
7AB
330
6B
100
AcDbEntity
  8
0
 62
     2
100
AcDbLine
 10
490.0963959999998
 20
246.944011
 30
0.0
 11
490.1393419999998
 21
247.088664
 31
0.0
  0
LINE
  5
7AC
330
6B
100
AcDbEntity
  8
0
 62
     2
100
AcDbLine
 10
490.1393419999998
 20
247.088664
 30
0.0
 11
490.177545
 21
247.243041
 31
0.0
  0
LINE
  5
7AD
330
6B
100
AcDbEntity
  8
0
 62
     2
100
AcDbLine
 10
490.177545
 20
247.243041
 30
0.0
 11
490.2107110000001
 21
247.40595
 31
0.0
  0
LINE
  5
7AE
330
6B
100
AcDbEntity
  8
0
 62
     2
100
AcDbLine
 10
490.2107110000001
 20
247.40595
 30
0.0
 11
490.2385809999998
 21
247.576131
 31
0.0
  0
LINE
  5
7AF
330
6B
100
AcDbEntity
  8
0
100
AcDbLine
 10
461.067839
 20
180.343698
 30
0.0
 11
461.067839
 21
194.395261
 31
0.0
  0
LINE
  5
7B0
330
6B
100
AcDbEntity
  8
0
100
AcDbLine
 10
537.554336
 20
180.343698
 30
0.0
 11
537.554336
 21
194.395261
 31
0.0
  0
LINE
  5
7B1
330
6B
100
AcDbEntity
  8
0
100
AcDbLine
 10
463.5678389999999
 20
193.145261
 30
0.0
 11
535.054336
 21
193.145261
 31
0.0
  0
LINE
  5
7B5
330
6B
100
AcDbEntity
  8
0
100
AcDbLine
 10
320.1024910000001
 20
156.593698
 30
0.0
 11
320.1024910000001
 21
116.656633
 31
0.0
  0
LINE
  5
7B6
330
6B
100
AcDbEntity
  8
0
100
AcDbLine
 10
416.102491
 20
156.593698
 30
0.0
 11
416.102491
 21
116.656633
 31
0.0
  0
LINE
  5
7B7
330
6B
100
AcDbEntity
  8
0
100
AcDbLine
 10
322.6024910000001
 20
117.906633
 30
0.0
 11
413.602491
 21
117.906633
 31
0.0
  0
LINE
  5
7BB
330
6B
100
AcDbEntity
  8
0
100
AcDbLine
 10
460.8178389999999
 20
133.593698
 30
0.0
 11
432.841973
 21
133.593698
 31
0.0
  0
LINE
  5
7BC
330
6B
100
AcDbEntity
  8
0
100
AcDbLine
 10
460.8178389999999
 20
180.093698
 30
0.0
 11
432.841973
 21
180.093698
 31
0.0
  0
LINE
  5
7BD
330
6B
100
AcDbEntity
  8
0
100
AcDbLine
 10
434.091973
 20
136.093698
 30
0.0
 11
434.091973
 21
177.593698
 31
0.0
  0
TEXT
  5
7C1
330
6B
100
AcDbEntity
  8
0
  6
Continuous
 62
     4
100
AcDbText
 10
496.0610874999999
 20
193.770261
 30
0.0
 40
3.0
  1
190
100
AcDbText
  0
LINE
  5
7C2
330
6B
100
AcDbEntity
  8
0
  6
ByBlock
 62
     0
370
    -2
100
AcDbLine
 10
535.054336
 20
193.8151335
 30
0.0
 11
537.554336
 21
193.145261
 31
0.0
  0
LINE
  5
7C3
330
6B
100
AcDbEntity
  8
0
  6
ByBlock
 62
     0
370
    -2
100
AcDbLine
 10
537.554336
 20
193.145261
 30
0.0
 11
535.054336
 21
192.4753885
 31
0.0
  0
LINE
  5
7C4
330
6B
100
AcDbEntity
  8
0
  6
ByBlock
 62
     0
370
    -2
100
AcDbLine
 10
537.554336
 20
193.145261
 30
0.0
 11
535.054336
 21
193.145261
 31
0.0
  0
LINE
  5
7C5
330
6B
100
AcDbEntity
  8
0
  6
ByBlock
 62
     0
370
    -2
100
AcDbLine
 10
463.5678389999999
 20
192.4753885
 30
0.0
 11
461.067839
 21
193.145261
 31
0.0
  0
LINE
  5
7C6
330
6B
100
AcDbEntity
  8
0
  6
ByBlock
 62
     0
370
    -2
100
AcDbLine
 10
461.067839
 20
193.145261
 30
0.0
 11
463.5678389999999
 21
193.8151335
 31
0.0
  0
LINE
  5
7C7
330
6B
100
AcDbEntity
  8
0
  6
ByBlock
 62
     0
370
    -2
100
AcDbLine
 10
461.067839
 20
193.145261
 30
0.0
 11
463.5678389999999
 21
193.145261
 31
0.0
  0
TEXT
  5
7C8
330
6B
100
AcDbEntity
  8
0
  6
Continuous
 62
     4
100
AcDbText
 10
365.6024910000001
 20
118.531633
 30
0.0
 40
3.0
  1
96
100
AcDbText
  0
LINE
  5
7C9
330
6B
100
AcDbEntity
  8
0
  6
ByBlock
 62
     0
370
    -2
100
AcDbLine
 10
413.602491
 20
118.5765055
 30
0.0
 11
416.102491
 21
117.906633
 31
0.0
  0
LINE
  5
7CA
330
6B
100
AcDbEntity
  8
0
  6
ByBlock
 62
     0
370
    -2
100
AcDbLine
 10
416.102491
 20
117.906633
 30
0.0
 11
413.602491
 21
117.2367605
 31
0.0
  0
LINE
  5
7CB
330
6B
100
AcDbEntity
  8
0
  6
ByBlock
 62
     0
370
    -2
100
AcDbLine
 10
416.102491
 20
117.906633
 30
0.0
 11
413.602491
 21
117.906633
 31
0.0
  0
LINE
  5
7CC
330
6B
100
AcDbEntity
  8
0
  6
ByBlock
 62
     0
370
    -2
100
AcDbLine
 10
322.6024910000001
 20
117.2367605
 30
0.0
 11
320.1024910000001
 21
117.906633
 31
0.0
  0
LINE
  5
7CD
330
6B
100
AcDbEntity
  8
0
  6
ByBlock
 62
     0
370
    -2
100
AcDbLine
 10
320.1024910000001
 20
117.906633
 30
0.0
 11
322.6024910000001
 21
118.5765055
 31
0.0
  0
LINE
  5
7CE
330
6B
100
AcDbEntity
  8
0
  6
ByBlock
 62
     0
370
    -2
100
AcDbLine
 10
320.1024910000001
 20
117.906633
 30
0.0
 11
322.6024910000001
 21
117.906633
 31
0.0
  0
TEXT
  5
7CF
330
6B
100
AcDbEntity
  8
0
  6
Continuous
 62
     4
100
AcDbText
 10
433.4669729999999
 20
152.343698
 30
0.0
 40
3.0
  1
46.5
 50
90.0
100
AcDbText
  0
LINE
  5
7D0
330
6B
100
AcDbEntity
  8
0
  6
ByBlock
 62
     0
370
    -2
100
AcDbLine
 10
433.4221005
 20
177.593698
 30
0.0
 11
434.091973
 21
180.093698
 31
0.0
  0
LINE
  5
7D1
330
6B
100
AcDbEntity
  8
0
  6
ByBlock
 62
     0
370
    -2
100
AcDbLine
 10
434.091973
 20
180.093698
 30
0.0
 11
434.7618455
 21
177.593698
 31
0.0
  0
LINE
  5
7D2
330
6B
100
AcDbEntity
  8
0
  6
ByBlock
 62
     0
370
    -2
100
AcDbLine
 10
434.091973
 20
180.093698
 30
0.0
 11
434.091973
 21
177.593698
 31
0.0
  0
LINE
  5
7D3
330
6B
100
AcDbEntity
  8
0
  6
ByBlock
 62
     0
370
    -2
100
AcDbLine
 10
434.7618455
 20
136.093698
 30
0.0
 11
434.091973
 21
133.593698
 31
0.0
  0
LINE
  5
7D4
330
6B
100
AcDbEntity
  8
0
  6
ByBlock
 62
     0
370
    -2
100
AcDbLine
 10
434.091973
 20
133.593698
 30
0.0
 11
433.4221005
 21
136.093698
 31
0.0
  0
LINE
  5
7D5
330
6B
100
AcDbEntity
  8
0
  6
ByBlock
 62
     0
370
    -2
100
AcDbLine
 10
434.091973
 20
133.593698
 30
0.0
 11
434.091973
 21
136.093698
 31
0.0
  0
ENDSEC
  0
SECTION
  2
OBJECTS
  0
DICTIONARY
  5
C
330
0
100
AcDbDictionary
281
     1
  3
ACAD_2007HEADERVARS_RT
350
7D9
  3
ACAD_COLOR
350
62
  3
ACAD_GROUP
350
D
  3
ACAD_LAYOUT
350
61
  3
ACAD_MATERIAL
350
10
  3
ACAD_MLEADERSTYLE
350
65
  3
ACAD_MLINESTYLE
350
5E
  3
ACAD_PLOTSETTINGS
350
60
  3
ACAD_PLOTSTYLENAME
350
E
  3
ACAD_SCALELIST
350
42
  3
ACAD_TABLESTYLE
350
63
  3
ACAD_VISUALSTYLE
350
29
  3
ACDB_RECOMPOSE_DATA
350
7D7
  3
AcDbVariableDictionary
350
679
  3
DWGPROPS
350
7D8
  0
DICTIONARY
  5
4E7
330
2
100
AcDbDictionary
280
     1
281
     1
  3
ACAD_LAYERSTATES
360
4E8
  0
DICTIONARY
  5
677
330
54
100
AcDbDictionary
280
     1
281
     1
  3
ADSK_XREC_LAYER_RECONCILED
360
678
  0
DICTIONARY
  5
724
330
6B
100
AcDbDictionary
280
     1
281
     1
  3
ACAD_SORTENTS
360
725
  0
DICTIONARY
  5
7D9
102
{ACAD_REACTORS
330
C
102
}
330
C
100
AcDbDictionary
281
     1
  3
DIMARCSYM
350
7DB
  3
DIMFXL
350
7DA
  3
DIMJOGANG
350
7DC
  0
DICTIONARY
  5
62
102
{ACAD_REACTORS
330
C
102
}
330
C
100
AcDbDictionary
281
     1
  0
DICTIONARY
  5
D
102
{ACAD_REACTORS
330
C
102
}
330
C
100
AcDbDictionary
281
     1
  0
DICTIONARY
  5
61
102
{ACAD_REACTORS
330
C
102
}
330
C
100
AcDbDictionary
281
     1
  3
Model
350
6E
  3
レイアウト1
350
6A
  0
DICTIONARY
  5
10
102
{ACAD_REACTORS
330
C
102
}
330
C
100
AcDbDictionary
281
     1
  3
ByBlock
350
19
  3
ByLayer
350
11
  3
Global
350
21
  0
DICTIONARY
  5
65
102
{ACAD_REACTORS
330
C
102
}
330
C
100
AcDbDictionary
281
     1
  3
Standard
350
66
  0
DICTIONARY
  5
5E
102
{ACAD_REACTORS
330
C
102
}
330
C
100
AcDbDictionary
281
     1
  3
Standard
350
5F
  0
DICTIONARY
  5
60
102
{ACAD_REACTORS
330
C
102
}
330
C
100
AcDbDictionary
281
     1
  0
ACDBDICTIONARYWDFLT
  5
E
102
{ACAD_REACTORS
330
C
102
}
330
C
100
AcDbDictionary
281
     1
  3
Normal
350
F
100
AcDbDictionaryWithDefault
340
F
  0
DICTIONARY
  5
42
102
{ACAD_REACTORS
330
C
102
}
330
C
100
AcDbDictionary
281
     1
  3
A0
350
43
  3
A1
350
44
  3
A2
350
45
  3
A3
350
46
  3
A4
350
47
  3
A5
350
48
  3
A6
350
49
  3
A7
350
4A
  3
A8
350
4B
  3
A9
350
4C
  3
B0
350
4D
  3
B1
350
4E
  3
B2
350
4F
  3
B3
350
50
  3
B4
350
51
  3
B5
350
52
  3
B6
350
53
  0
DICTIONARY
  5
63
102
{ACAD_REACTORS
330
C
102
}
330
C
100
AcDbDictionary
281
     1
  3
Standard
350
64
  0
DICTIONARY
  5
29
102
{ACAD_REACTORS
330
C
102
}
330
C
100
AcDbDictionary
281
     1
  3
2dWireframe
350
2F
  3
3dWireframe
350
4E6
  3
Basic
350
2E
  3
Brighten
350
35
  3
ColorChange
350
39
  3
Conceptual
350
32
  3
Dim
350
34
  3
EdgeColorOff
350
41
  3
Facepattern
350
38
  3
Flat
350
2A
  3
FlatWithEdges
350
2B
  3
Gouraud
350
2C
  3
GouraudWithEdges
350
2D
  3
Hidden
350
31
  3
JitterOff
350
3F
  3
Linepattern
350
37
  3
OverhangOff
350
40
  3
Realistic
350
33
  3
Shaded
350
3E
  3
Shaded with edges
350
3D
  3
Shades of Gray
350
3A
  3
Sketchy
350
3B
  3
Thicken
350
36
  3
Wireframe
350
30
  3
X-Ray
350
3C
  0
XRECORD
  5
7D7
102
{ACAD_REACTORS
330
C
102
}
330
C
100
AcDbXrecord
280
     1
 90
        1
330
64
  0
DICTIONARY
  5
679
102
{ACAD_REACTORS
330
C
102
}
330
C
100
AcDbDictionary
281
     1
  3
CANNOSCALE
350
67C
  3
CMLEADERSTYLE
350
67B
  3
CTABLESTYLE
350
67A
  3
DIMASSOC
350
67F
  3
INDEXCTL
350
67E
  3
SORTENTS
350
67D
  3
XCLIPFRAME
350
6E3
  0
XRECORD
  5
7D8
102
{ACAD_REACTORS
330
C
102
}
330
C
100
AcDbXrecord
280
     1
  1
DWGPROPS COOKIE
  2

  3

  4

  6

  7

  8
imamura
  9

300
=
301
=
302
=
303
=
304
=
305
=
306
=
307
=
308
=
309
=
 40
0.0286883796296296
 41
2456311.558881597
 42
2456850.440895498
  1

 90
        0
  0
DICTIONARY
  5
4E8
102
{ACAD_REACTORS
330
4E7
102
}
330
4E7
100
AcDbDictionary
281
     1
  0
XRECORD
  5
678
102
{ACAD_REACTORS
330
677
102
}
330
677
100
AcDbXrecord
280
     1
290
     1
  0
SORTENTSTABLE
  5
725
102
{ACAD_REACTORS
330
724
102
}
330
724
100
AcDbSortentsTable
330
6B
331
228
  5
28E
331
200
  5
266
331
310
  5
3AC
331
7D0
  5
CB
331
34A
  5
3F2
331
24A
  5
2B0
331
211
  5
277
331
239
  5
29F
331
25B
  5
2C1
331
35B
  5
40D
331
103
  5
12F
331
26C
  5
2ED
331
43D
  5
7BD
331
36C
  5
437
331
114
  5
13B
331
27D
  5
2FE
331
526
  5
7CB
331
37D
  5
528
331
125
  5
14C
331
28E
  5
30F
331
38E
  5
72C
331
136
  5
15D
331
72F
  5
7A3
331
39F
  5
73D
331
147
  5
1B0
331
298
  5
33D
331
740
  5
3C2
331
3A9
  5
747
331
2A9
  5
34E
331
751
  5
3B5
331
158
  5
1C1
331
3BA
  5
758
331
76A
  5
374
331
2CB
  5
370
331
BB
  5
109
331
3CB
  5
769
331
77B
  5
1D9
331
2F5
  5
391
331
78C
  5
1F1
331
3ED
  5
785
331
79D
  5
208
331
306
  5
3A2
331
3FE
  5
796
331
7AE
  5
219
331
40F
  5
7A1
331
1EF
  5
25B
331
1DE
  5
251
331
1CD
  5
240
331
1BC
  5
22F
331
1AB
  5
21E
331
2BA
  5
35F
331
218
  5
27E
331
229
  5
28F
331
1F0
  5
25C
331
201
  5
267
331
311
  5
3AD
331
23A
  5
2A0
331
212
  5
278
331
34B
  5
3F3
331
24B
  5
2B1
331
C3
  5
111
331
42D
  5
7B3
331
35C
  5
40E
331
25C
  5
2C2
331
26D
  5
2EE
331
43E
  5
7BE
331
36D
  5
43D
331
115
  5
13C
331
27E
  5
2FF
331
527
  5
7CC
331
37E
  5
529
331
126
  5
14D
331
28F
  5
310
331
7D1
  5
CC
331
38F
  5
72D
331
137
  5
15E
331
730
  5
79D
331
148
  5
1B1
331
741
  5
3C3
331
159
  5
1C2
331
3AA
  5
748
331
2AA
  5
34F
331
299
  5
33E
331
3BB
  5
759
331
76B
  5
375
331
2BB
  5
360
331
2CC
  5
371
331
BC
  5
10C
331
1BD
  5
230
331
77C
  5
1DA
331
2F6
  5
392
331
1CE
  5
241
331
3EE
  5
786
331
307
  5
3A3
331
1DF
  5
252
331
3FF
  5
797
331
7AF
  5
E0
331
79E
  5
209
331
78D
  5
1F8
331
1AC
  5
21F
331
752
  5
3B6
331
308
  5
3A4
331
1E0
  5
253
331
219
  5
27F
331
7B0
  5
E1
331
1F1
  5
25D
331
22A
  5
290
331
7C1
  5
108
331
202
  5
268
331
312
  5
3AE
331
7D2
  5
CD
331
33B
  5
3E3
331
213
  5
279
331
23B
  5
2A1
331
41D
  5
7A9
331
34C
  5
3F4
331
42E
  5
7B4
331
35D
  5
40F
331
25D
  5
2C3
331
26E
  5
2EF
331
43F
  5
7BF
331
36E
  5
43E
331
116
  5
13D
331
24C
  5
2B2
331
528
  5
7CD
331
37F
  5
52A
331
127
  5
14E
331
27F
  5
300
331
390
  5
72E
331
731
  5
79E
331
149
  5
1B2
331
138
  5
15F
331
742
  5
3C4
331
15A
  5
1C3
331
3AB
  5
749
331
753
  5
3B7
331
3BC
  5
75A
331
76C
  5
376
331
1AD
  5
220
331
BD
  5
10D
331
1BE
  5
231
331
77D
  5
1DB
331
2BC
  5
361
331
2AB
  5
350
331
29A
  5
33F
331
3DE
  5
776
331
2F7
  5
393
331
3EF
  5
787
331
79F
  5
20A
331
1CF
  5
242
331
78E
  5
1F9
331
2F8
  5
394
331
1D0
  5
243
331
3F0
  5
788
331
7A0
  5
20B
331
309
  5
3A5
331
1E1
  5
254
331
21A
  5
280
331
7B1
  5
E2
331
22B
  5
291
331
7C2
  5
FD
331
203
  5
269
331
313
  5
3AF
331
23C
  5
2A2
331
7D3
  5
C3
331
33C
  5
3E4
331
214
  5
27A
331
24D
  5
2B3
331
C5
  5
112
331
41E
  5
7AA
331
34D
  5
3F5
331
42F
  5
7B5
331
35E
  5
415
331
25E
  5
2C4
331
26F
  5
2F0
331
36F
  5
43F
331
117
  5
13E
331
280
  5
301
331
529
  5
7CE
331
380
  5
52B
331
128
  5
14F
331
391
  5
72F
331
732
  5
798
331
14A
  5
1B3
331
139
  5
160
331
743
  5
3C5
331
15B
  5
1C4
331
3AC
  5
74A
331
2AC
  5
351
331
29B
  5
340
331
F5
  5
12C
331
3BD
  5
75B
331
76D
  5
377
331
2BD
  5
362
331
1AE
  5
221
331
BE
  5
10E
331
1BF
  5
232
331
77E
  5
1DC
331
3DF
  5
777
331
78F
  5
1FA
331
754
  5
3B8
331
2E8
  5
384
331
1C0
  5
233
331
3E0
  5
778
331
790
  5
1FB
331
2F9
  5
395
331
1D1
  5
244
331
3F1
  5
789
331
7A1
  5
20C
331
30A
  5
3A6
331
21B
  5
281
331
1E2
  5
255
331
22C
  5
292
331
7C3
  5
103
331
204
  5
26A
331
314
  5
3B0
331
23D
  5
2A3
331
7D4
  5
C5
331
33D
  5
3E5
331
215
  5
27B
331
41F
  5
7AB
331
34E
  5
3F6
331
24E
  5
2B4
331
25F
  5
2C5
331
35F
  5
416
331
107
  5
130
331
270
  5
2F1
331
370
  5
440
331
118
  5
13F
331
281
  5
302
331
52A
  5
7CF
331
381
  5
52C
331
129
  5
150
331
722
  5
7BB
331
392
  5
730
331
733
  5
799
331
14B
  5
1B4
331
13A
  5
161
331
744
  5
3C6
331
15C
  5
1C5
331
3AD
  5
74B
331
2AD
  5
352
331
755
  5
3B9
331
29C
  5
341
331
D7
  5
11F
331
3BE
  5
75C
331
76E
  5
378
331
1AF
  5
222
331
BF
  5
10F
331
77F
  5
1DD
331
2BE
  5
363
331
440
  5
7C0
331
1B0
  5
223
331
2E9
  5
385
331
780
  5
1DE
331
1C1
  5
234
331
3E1
  5
779
331
791
  5
1FC
331
2FA
  5
396
331
1D2
  5
245
331
3F2
  5
78A
331
7A2
  5
20D
331
30B
  5
3A7
331
21C
  5
282
331
1E3
  5
256
331
22D
  5
293
331
7C4
  5
107
331
205
  5
26B
331
315
  5
3B1
331
23E
  5
2A4
331
7D5
  5
C7
331
33E
  5
3E6
331
216
  5
27C
331
24F
  5
2B5
331
34F
  5
3F7
331
F7
  5
12D
331
260
  5
2C6
331
360
  5
417
331
108
  5
131
331
271
  5
2F2
331
371
  5
51C
331
119
  5
140
331
282
  5
303
331
52B
  5
7D0
331
382
  5
52D
331
723
  5
7BC
331
393
  5
731
331
13B
  5
162
331
12A
  5
151
331
734
  5
770
331
29D
  5
342
331
745
  5
3C7
331
15D
  5
1C6
331
14C
  5
1B5
331
D8
  5
120
331
C7
  5
113
331
3AE
  5
74C
331
756
  5
3BA
331
3BF
  5
75D
331
76F
  5
379
331
2BF
  5
364
331
2AE
  5
353
331
2C0
  5
365
331
3C0
  5
75E
331
770
  5
1CE
331
1B1
  5
224
331
2EA
  5
386
331
781
  5
1DF
331
1C2
  5
235
331
3E2
  5
77A
331
792
  5
1FD
331
2FB
  5
397
331
1D3
  5
246
331
3F3
  5
78B
331
7A3
  5
20E
331
30C
  5
3A8
331
21D
  5
283
331
1E4
  5
257
331
415
  5
7A4
331
7C5
  5
E3
331
22E
  5
294
331
316
  5
3B2
331
206
  5
26C
331
23F
  5
2A5
331
33F
  5
3E7
331
350
  5
3F8
331
250
  5
2B6
331
C8
  5
114
331
261
  5
2C7
331
361
  5
41D
331
109
  5
132
331
372
  5
51D
331
11A
  5
141
331
283
  5
304
331
52C
  5
7D1
331
383
  5
52E
331
394
  5
732
331
13C
  5
163
331
12B
  5
152
331
735
  5
771
331
29E
  5
343
331
746
  5
3C8
331
3AF
  5
74D
331
2AF
  5
354
331
15E
  5
1C7
331
14D
  5
1B6
331
272
  5
2F3
331
D9
  5
121
331
217
  5
27D
331
757
  5
3BB
331
3B0
  5
74E
331
760
  5
382
331
2B0
  5
355
331
758
  5
3BC
331
2C1
  5
366
331
3C1
  5
75F
331
771
  5
1CF
331
1B2
  5
225
331
2EB
  5
387
331
782
  5
1E0
331
1C3
  5
236
331
3E3
  5
77B
331
793
  5
1FE
331
2FC
  5
398
331
1D4
  5
247
331
3F4
  5
78C
331
7A4
  5
20F
331
30D
  5
3A9
331
1E5
  5
258
331
405
  5
79A
331
7B5
  5
D2
331
21E
  5
284
331
416
  5
7A5
331
7C6
  5
F5
331
340
  5
3E8
331
240
  5
2A6
331
207
  5
26D
331
351
  5
3F9
331
251
  5
2B7
331
C9
  5
115
331
362
  5
41E
331
262
  5
2C8
331
DA
  5
122
331
273
  5
2F4
331
51C
  5
7C1
331
373
  5
51E
331
284
  5
305
331
11B
  5
142
331
52D
  5
7D2
331
384
  5
52F
331
12C
  5
153
331
395
  5
733
331
13D
  5
164
331
736
  5
772
331
14E
  5
1B7
331
29F
  5
344
331
747
  5
3C9
331
15F
  5
1C8
331
22F
  5
295
331
2A0
  5
345
331
3A0
  5
73E
331
160
  5
1C9
331
748
  5
3CA
331
3B1
  5
74F
331
761
  5
383
331
2B1
  5
356
331
759
  5
3BD
331
2C2
  5
367
331
3C2
  5
760
331
772
  5
1D0
331
1B3
  5
226
331
2EC
  5
388
331
783
  5
1E1
331
1C4
  5
237
331
3E4
  5
77C
331
794
  5
1FF
331
2FD
  5
399
331
1D5
  5
248
331
3F5
  5
78D
331
30E
  5
3AA
331
406
  5
79B
331
7B6
  5
D7
331
417
  5
7A6
331
7C7
  5
F7
331
21F
  5
285
331
341
  5
3E9
331
241
  5
2A7
331
208
  5
26E
331
352
  5
3FA
331
252
  5
2B8
331
CA
  5
116
331
363
  5
41F
331
263
  5
2C9
331
DB
  5
123
331
274
  5
2F5
331
51D
  5
7C2
331
374
  5
51F
331
285
  5
306
331
11C
  5
143
331
52E
  5
7D3
331
385
  5
530
331
12D
  5
154
331
726
  5
7B6
331
396
  5
734
331
737
  5
773
331
14F
  5
1B8
331
13E
  5
1A7
331
230
  5
296
331
7A5
  5
210
331
290
  5
311
331
738
  5
774
331
150
  5
1B9
331
2A1
  5
346
331
3A1
  5
73F
331
161
  5
1CA
331
749
  5
3CB
331
3B2
  5
750
331
762
  5
37A
331
2B2
  5
357
331
75A
  5
3BE
331
2C3
  5
368
331
3C3
  5
761
331
773
  5
1D1
331
1B4
  5
227
331
2ED
  5
389
331
784
  5
1E2
331
1C5
  5
238
331
3E5
  5
77D
331
795
  5
200
331
1D6
  5
249
331
3F6
  5
78E
331
30F
  5
3AB
331
407
  5
79C
331
7B7
  5
D8
331
1F8
  5
25E
331
220
  5
286
331
231
  5
297
331
342
  5
3EA
331
242
  5
2A8
331
209
  5
26F
331
353
  5
3FB
331
253
  5
2B9
331
CB
  5
117
331
264
  5
2CA
331
DC
  5
124
331
435
  5
7B8
331
364
  5
425
331
10C
  5
133
331
51E
  5
7C3
331
375
  5
520
331
11D
  5
144
331
275
  5
2F6
331
286
  5
307
331
52F
  5
7D4
331
386
  5
722
331
727
  5
7B7
331
397
  5
735
331
13F
  5
1A8
331
12E
  5
155
331
7C8
  5
DF
331
7A6
  5
211
331
2FE
  5
39A
331
530
  5
7D5
331
728
  5
7B1
331
398
  5
736
331
140
  5
1A9
331
291
  5
312
331
739
  5
775
331
151
  5
1BA
331
2A2
  5
347
331
3A2
  5
740
331
162
  5
1CB
331
74A
  5
3DE
331
3B3
  5
751
331
763
  5
37B
331
2B3
  5
358
331
75B
  5
3BF
331
2C4
  5
369
331
3C4
  5
762
331
774
  5
1D2
331
1B5
  5
228
331
2EE
  5
38A
331
785
  5
1E3
331
3E6
  5
77E
331
796
  5
201
331
1D7
  5
24A
331
3F7
  5
78F
331
221
  5
287
331
1F9
  5
25F
331
232
  5
298
331
7C9
  5
DC
331
343
  5
3EB
331
243
  5
2A9
331
425
  5
7AE
331
354
  5
3FC
331
254
  5
2BA
331
CC
  5
118
331
265
  5
2CB
331
DD
  5
125
331
436
  5
7B9
331
365
  5
426
331
276
  5
2F7
331
10D
  5
134
331
51F
  5
7C4
331
376
  5
521
331
11E
  5
145
331
287
  5
308
331
387
  5
723
331
12F
  5
156
331
20A
  5
270
331
7A7
  5
212
331
2FF
  5
39B
331
1C6
  5
239
331
520
  5
7C5
331
288
  5
309
331
388
  5
726
331
130
  5
157
331
729
  5
7B2
331
399
  5
737
331
141
  5
1AA
331
292
  5
313
331
73A
  5
76A
331
152
  5
1BB
331
2A3
  5
348
331
3A3
  5
741
331
163
  5
1CC
331
74B
  5
3DF
331
3B4
  5
752
331
764
  5
37C
331
2B4
  5
359
331
75C
  5
3C0
331
2C5
  5
36A
331
3C5
  5
763
331
775
  5
1D3
331
1B6
  5
229
331
2EF
  5
38B
331
1C7
  5
23A
331
3E7
  5
77F
331
797
  5
202
331
1D8
  5
24B
331
3F8
  5
790
331
222
  5
288
331
1FA
  5
260
331
233
  5
299
331
344
  5
3EC
331
244
  5
2AA
331
20B
  5
271
331
7CA
  5
DD
331
255
  5
2BB
331
426
  5
7AF
331
355
  5
3FD
331
FD
  5
12E
331
266
  5
2CC
331
437
  5
7BA
331
366
  5
427
331
10E
  5
135
331
DE
  5
126
331
277
  5
2F8
331
377
  5
522
331
11F
  5
146
331
CD
  5
119
331
7A8
  5
213
331
300
  5
39C
331
786
  5
1E4
331
278
  5
2F9
331
521
  5
7C6
331
378
  5
523
331
120
  5
147
331
289
  5
30A
331
389
  5
727
331
131
  5
158
331
72A
  5
7AC
331
39A
  5
738
331
142
  5
1AB
331
293
  5
314
331
73B
  5
76B
331
153
  5
1BC
331
2A4
  5
349
331
3A4
  5
742
331
164
  5
1CD
331
74C
  5
3E0
331
3B5
  5
753
331
765
  5
37D
331
2B5
  5
35A
331
75D
  5
3C1
331
2C6
  5
36B
331
3C6
  5
764
331
1B7
  5
22A
331
2F0
  5
38C
331
1C8
  5
23B
331
3E8
  5
780
331
798
  5
203
331
1D9
  5
24C
331
3F9
  5
791
331
223
  5
289
331
1FB
  5
261
331
234
  5
29A
331
345
  5
3ED
331
245
  5
2AB
331
20C
  5
272
331
427
  5
7B0
331
356
  5
3FE
331
256
  5
2BC
331
CE
  5
11A
331
7CB
  5
DE
331
267
  5
2E8
331
367
  5
42D
331
10F
  5
136
331
DF
  5
127
331
7A9
  5
214
331
301
  5
39D
331
787
  5
1E5
331
776
  5
1D4
331
268
  5
2E9
331
E0
  5
128
331
368
  5
42E
331
110
  5
137
331
279
  5
2FA
331
522
  5
7C7
331
379
  5
524
331
121
  5
148
331
28A
  5
30B
331
38A
  5
728
331
132
  5
159
331
72B
  5
7AD
331
39B
  5
739
331
143
  5
1AC
331
294
  5
315
331
73C
  5
76C
331
154
  5
1BD
331
3A5
  5
743
331
2A5
  5
34A
331
74D
  5
3E1
331
3B6
  5
754
331
766
  5
37E
331
2B6
  5
35B
331
75E
  5
380
331
1A7
  5
21A
331
3C7
  5
765
331
1B8
  5
22B
331
2F1
  5
38D
331
1C9
  5
23C
331
3E9
  5
781
331
799
  5
204
331
1DA
  5
24D
331
3FA
  5
792
331
7AA
  5
215
331
224
  5
28A
331
1FC
  5
262
331
235
  5
29B
331
7CC
  5
D9
331
346
  5
3EE
331
246
  5
2AC
331
20D
  5
273
331
357
  5
3FF
331
257
  5
2BD
331
CF
  5
11B
331
7BB
  5
BB
331
302
  5
39E
331
788
  5
1ED
331
777
  5
1D5
331
2C7
  5
36C
331
358
  5
405
331
258
  5
2BE
331
D0
  5
11C
331
269
  5
2EA
331
E1
  5
129
331
369
  5
42F
331
111
  5
138
331
27A
  5
2FB
331
523
  5
7C8
331
37A
  5
525
331
122
  5
149
331
28B
  5
30C
331
38B
  5
729
331
133
  5
15A
331
72C
  5
7A7
331
39C
  5
73A
331
144
  5
1AD
331
295
  5
316
331
73D
  5
76D
331
155
  5
1BE
331
3A6
  5
744
331
2A6
  5
34B
331
74E
  5
3E2
331
3B7
  5
755
331
767
  5
37F
331
2B7
  5
35C
331
2C8
  5
36D
331
1A8
  5
21B
331
3C8
  5
766
331
1B9
  5
22C
331
2F2
  5
38E
331
1CA
  5
23D
331
3EA
  5
782
331
79A
  5
205
331
1DB
  5
24E
331
303
  5
39F
331
789
  5
1EE
331
778
  5
1D6
331
75F
  5
381
331
3FB
  5
793
331
225
  5
28B
331
1FD
  5
263
331
236
  5
29C
331
7CD
  5
DA
331
347
  5
3EF
331
247
  5
2AD
331
20E
  5
274
331
7BC
  5
BC
331
7AB
  5
216
331
348
  5
3F0
331
248
  5
2AE
331
C0
  5
110
331
359
  5
406
331
259
  5
2BF
331
D1
  5
11D
331
26A
  5
2EB
331
E2
  5
12A
331
36A
  5
435
331
112
  5
139
331
27B
  5
2FC
331
524
  5
7C9
331
37B
  5
526
331
123
  5
14A
331
28C
  5
30D
331
38C
  5
72A
331
134
  5
15B
331
72D
  5
7A8
331
39D
  5
73B
331
145
  5
1AE
331
296
  5
33B
331
73E
  5
76E
331
156
  5
1BF
331
3A7
  5
745
331
2A7
  5
34C
331
74F
  5
3B3
331
3B8
  5
756
331
768
  5
372
331
2C9
  5
36E
331
1A9
  5
21C
331
3C9
  5
767
331
779
  5
1D7
331
2F3
  5
38F
331
78A
  5
1EF
331
3EB
  5
783
331
79B
  5
206
331
304
  5
3A0
331
3FC
  5
794
331
7AC
  5
217
331
1DC
  5
24F
331
1CB
  5
23E
331
1BA
  5
22D
331
2B8
  5
35D
331
40D
  5
79F
331
226
  5
28C
331
1FE
  5
264
331
237
  5
29D
331
7CE
  5
DB
331
20F
  5
275
331
7BD
  5
BD
331
1ED
  5
259
331
238
  5
29E
331
349
  5
3F1
331
249
  5
2AF
331
210
  5
276
331
35A
  5
407
331
25A
  5
2C0
331
D2
  5
11E
331
26B
  5
2EC
331
E3
  5
12B
331
36B
  5
436
331
113
  5
13A
331
27C
  5
2FD
331
525
  5
7CA
331
37C
  5
527
331
124
  5
14B
331
28D
  5
30E
331
38D
  5
72B
331
135
  5
15C
331
72E
  5
7A2
331
39E
  5
73C
331
146
  5
1AF
331
297
  5
33C
331
73F
  5
76F
331
157
  5
1C0
331
3A8
  5
746
331
2A8
  5
34D
331
750
  5
3B4
331
3B9
  5
757
331
769
  5
373
331
2CA
  5
36F
331
1AA
  5
21D
331
3CA
  5
768
331
77A
  5
1D8
331
2F4
  5
390
331
78B
  5
1F0
331
3EC
  5
784
331
79C
  5
207
331
305
  5
3A1
331
3FD
  5
795
331
7AD
  5
218
331
1EE
  5
25A
331
1DD
  5
250
331
1CC
  5
23F
331
1BB
  5
22E
331
2B9
  5
35E
331
40E
  5
7A0
331
227
  5
28D
331
1FF
  5
265
331
7CF
  5
D1
  0
XRECORD
  5
7DB
102
{ACAD_REACTORS
330
7D9
102
}
330
7D9
100
AcDbXrecord
280
     1
 70
     2
  0
XRECORD
  5
7DA
102
{ACAD_REACTORS
330
7D9
102
}
330
7D9
100
AcDbXrecord
280
     1
 40
1.25
  0
XRECORD
  5
7DC
102
{ACAD_REACTORS
330
7D9
102
}
330
7D9
100
AcDbXrecord
280
     1
 40
1.570796326794896
  0
LAYOUT
  5
6E
102
{ACAD_XDICTIONARY
360
810
102
}
102
{ACAD_REACTORS
330
61
102
}
330
61
100
AcDbPlotSettings
  1

  2
FX DP 205
  4

  6

 40
0.0
 41
0.0
 42
0.0
 43
0.0
 44
0.0
 45
0.0
 46
0.0
 47
0.0
 48
0.0
 49
0.0
140
0.0
141
0.0
142
1.0
143
1.0
 70
  1712
 72
     0
 73
     0
 74
     0
  7

 75
     0
147
1.0
148
0.0
149
0.0
100
AcDbLayout
  1
Model
 70
     1
 71
     0
 10
0.0
 20
0.0
 11
12.0
 21
9.0
 12
0.0
 22
0.0
 32
0.0
 14
0.0
 24
0.0
 34
0.0
 15
0.0
 25
0.0
 35
0.0
146
0.0
 13
0.0
 23
0.0
 33
0.0
 16
1.0
 26
0.0
 36
0.0
 17
0.0
 27
1.0
 37
0.0
 76
     0
330
6B
331
8B
  0
LAYOUT
  5
6A
102
{ACAD_XDICTIONARY
360
80E
102
}
102
{ACAD_REACTORS
330
61
102
}
330
61
100
AcDbPlotSettings
  1

  2
FX DP 205
  4

  6

 40
0.0
 41
0.0
 42
0.0
 43
0.0
 44
0.0
 45
0.0
 46
0.0
 47
0.0
 48
0.0
 49
0.0
140
0.0
141
0.0
142
1.0
143
1.0
 70
   688
 72
     0
 73
     0
 74
     5
  7

 75
    16
147
1.0
148
0.0
149
0.0
100
AcDbLayout
  1
レイアウト1
 70
     1
 71
     1
 10
0.0
 20
0.0
 11
12.0
 21
9.0
 12
0.0
 22
0.0
 32
0.0
 14
1.000000000000000E+20
 24
1.000000000000000E+20
 34
1.000000000000000E+20
 15
-1.000000000000000E+20
 25
-1.000000000000000E+20
 35
-1.000000000000000E+20
146
0.0
 13
0.0
 23
0.0
 33
0.0
 16
1.0
 26
0.0
 36
0.0
 17
0.0
 27
1.0
 37
0.0
 76
     0
330
67
  0
MATERIAL
  5
19
102
{ACAD_XDICTIONARY
360
1A
102
}
102
{ACAD_REACTORS
330
10
102
}
330
10
100
AcDbMaterial
  1
ByBlock
 72
     0
 43
0.0208333333333333
 43
0.0
 43
0.0
 43
0.0
 43
0.0
 43
0.0208333333333333
 43
0.0
 43
0.0
 43
0.0
 43
0.0
 43
1.0
 43
0.0
 43
0.0
 43
0.0
 43
0.0
 43
1.0
 77
     0
 47
0.0208333333333333
 47
0.0
 47
0.0
 47
0.0
 47
0.0
 47
0.0208333333333333
 47
0.0
 47
0.0
 47
0.0
 47
0.0
 47
1.0
 47
0.0
 47
0.0
 47
0.0
 47
0.0
 47
1.0
171
     0
 49
0.0208333333333333
 49
0.0
 49
0.0
 49
0.0
 49
0.0
 49
0.0208333333333333
 49
0.0
 49
0.0
 49
0.0
 49
0.0
 49
1.0
 49
0.0
 49
0.0
 49
0.0
 49
0.0
 49
1.0
175
     0
142
0.0208333333333333
142
0.0
142
0.0
142
0.0
142
0.0
142
0.0208333333333333
142
0.0
142
0.0
142
0.0
142
0.0
142
1.0
142
0.0
142
0.0
142
0.0
142
0.0
142
1.0
179
     0
144
0.0208333333333333
144
0.0
144
0.0
144
0.0
144
0.0
144
0.0208333333333333
144
0.0
144
0.0
144
0.0
144
0.0
144
1.0
144
0.0
144
0.0
144
0.0
144
0.0
144
1.0
147
0.0208333333333333
147
0.0
147
0.0
147
0.0
147
0.0
147
0.0208333333333333
147
0.0
147
0.0
147
0.0
147
0.0
147
1.0
147
0.0
147
0.0
147
0.0
147
0.0
147
1.0
  0
MATERIAL
  5
11
102
{ACAD_XDICTIONARY
360
12
102
}
102
{ACAD_REACTORS
330
10
102
}
330
10
100
AcDbMaterial
  1
ByLayer
 72
     0
 43
0.0208333333333333
 43
0.0
 43
0.0
 43
0.0
 43
0.0
 43
0.0208333333333333
 43
0.0
 43
0.0
 43
0.0
 43
0.0
 43
1.0
 43
0.0
 43
0.0
 43
0.0
 43
0.0
 43
1.0
 77
     0
 47
0.0208333333333333
 47
0.0
 47
0.0
 47
0.0
 47
0.0
 47
0.0208333333333333
 47
0.0
 47
0.0
 47
0.0
 47
0.0
 47
1.0
 47
0.0
 47
0.0
 47
0.0
 47
0.0
 47
1.0
171
     0
 49
0.0208333333333333
 49
0.0
 49
0.0
 49
0.0
 49
0.0
 49
0.0208333333333333
 49
0.0
 49
0.0
 49
0.0
 49
0.0
 49
1.0
 49
0.0
 49
0.0
 49
0.0
 49
0.0
 49
1.0
175
     0
142
0.0208333333333333
142
0.0
142
0.0
142
0.0
142
0.0
142
0.0208333333333333
142
0.0
142
0.0
142
0.0
142
0.0
142
1.0
142
0.0
142
0.0
142
0.0
142
0.0
142
1.0
179
     0
144
0.0208333333333333
144
0.0
144
0.0
144
0.0
144
0.0
144
0.0208333333333333
144
0.0
144
0.0
144
0.0
144
0.0
144
1.0
144
0.0
144
0.0
144
0.0
144
0.0
144
1.0
147
0.0208333333333333
147
0.0
147
0.0
147
0.0
147
0.0
147
0.0208333333333333
147
0.0
147
0.0
147
0.0
147
0.0
147
1.0
147
0.0
147
0.0
147
0.0
147
0.0
147
1.0
  0
MATERIAL
  5
21
102
{ACAD_XDICTIONARY
360
22
102
}
102
{ACAD_REACTORS
330
10
102
}
330
10
100
AcDbMaterial
  1
Global
 72
     0
 43
0.0208333333333333
 43
0.0
 43
0.0
 43
0.0
 43
0.0
 43
0.0208333333333333
 43
0.0
 43
0.0
 43
0.0
 43
0.0
 43
1.0
 43
0.0
 43
0.0
 43
0.0
 43
0.0
 43
1.0
 77
     0
 47
0.0208333333333333
 47
0.0
 47
0.0
 47
0.0
 47
0.0
 47
0.0208333333333333
 47
0.0
 47
0.0
 47
0.0
 47
0.0
 47
1.0
 47
0.0
 47
0.0
 47
0.0
 47
0.0
 47
1.0
171
     0
 49
0.0208333333333333
 49
0.0
 49
0.0
 49
0.0
 49
0.0
 49
0.0208333333333333
 49
0.0
 49
0.0
 49
0.0
 49
0.0
 49
1.0
 49
0.0
 49
0.0
 49
0.0
 49
0.0
 49
1.0
175
     0
142
0.0208333333333333
142
0.0
142
0.0
142
0.0
142
0.0
142
0.0208333333333333
142
0.0
142
0.0
142
0.0
142
0.0
142
1.0
142
0.0
142
0.0
142
0.0
142
0.0
142
1.0
179
     0
144
0.0208333333333333
144
0.0
144
0.0
144
0.0
144
0.0
144
0.0208333333333333
144
0.0
144
0.0
144
0.0
144
0.0
144
1.0
144
0.0
144
0.0
144
0.0
144
0.0
144
1.0
147
0.0208333333333333
147
0.0
147
0.0
147
0.0
147
0.0
147
0.0208333333333333
147
0.0
147
0.0
147
0.0
147
0.0
147
1.0
147
0.0
147
0.0
147
0.0
147
0.0
147
1.0
  0
MLEADERSTYLE
  5
66
102
{ACAD_REACTORS
330
65
102
}
330
65
100
AcDbMLeaderStyle
170
     2
171
     1
172
     0
 90
        2
 40
0.0
 41
0.0
173
     1
 91
-1056964608
340
5A
 92
       -2
290
     1
 42
0.09
291
     1
 43
0.36
  3
Standard
 44
0.18
300

342
55
174
     1
178
     6
175
     1
176
     0
 93
-1056964608
 45
0.18
292
     0
297
     0
 46
0.18
 94
-1056964608
 47
1.0
 49
1.0
140
1.0
293
     1
141
0.0
294
     1
177
     0
142
1.0
295
     0
296
     0
143
0.125
1001
ACAD_MLEADERVER
1070
     2
  0
MLINESTYLE
  5
5F
102
{ACAD_REACTORS
330
5E
102
}
330
5E
100
AcDbMlineStyle
  2
STANDARD
 70
     0
  3

 62
   256
 51
90.0
 52
90.0
 71
     2
 49
0.5
 62
   256
  6
BYLAYER
 49
-0.5
 62
   256
  6
BYLAYER
  0
ACDBPLACEHOLDER
  5
F
102
{ACAD_REACTORS
330
E
102
}
330
E
  0
SCALE
  5
43
102
{ACAD_REACTORS
330
42
102
}
330
42
100
AcDbScale
 70
     0
300
1:1
140
1.0
141
1.0
290
     1
  0
SCALE
  5
44
102
{ACAD_REACTORS
330
42
102
}
330
42
100
AcDbScale
 70
     0
300
1/128" = 1'-0"
140
0.0078125
141
12.0
290
     0
  0
SCALE
  5
45
102
{ACAD_REACTORS
330
42
102
}
330
42
100
AcDbScale
 70
     0
300
1/64" = 1'-0"
140
0.015625
141
12.0
290
     0
  0
SCALE
  5
46
102
{ACAD_REACTORS
330
42
102
}
330
42
100
AcDbScale
 70
     0
300
1/32" = 1'-0"
140
0.03125
141
12.0
290
     0
  0
SCALE
  5
47
102
{ACAD_REACTORS
330
42
102
}
330
42
100
AcDbScale
 70
     0
300
1/16" = 1'-0"
140
0.0625
141
12.0
290
     0
  0
SCALE
  5
48
102
{ACAD_REACTORS
330
42
102
}
330
42
100
AcDbScale
 70
     0
300
3/32" = 1'-0"
140
0.09375
141
12.0
290
     0
  0
SCALE
  5
49
102
{ACAD_REACTORS
330
42
102
}
330
42
100
AcDbScale
 70
     0
300
1/8" = 1'-0"
140
0.125
141
12.0
290
     0
  0
SCALE
  5
4A
102
{ACAD_REACTORS
330
42
102
}
330
42
100
AcDbScale
 70
     0
300
3/16" = 1'-0"
140
0.1875
141
12.0
290
     0
  0
SCALE
  5
4B
102
{ACAD_REACTORS
330
42
102
}
330
42
100
AcDbScale
 70
     0
300
1/4" = 1'-0"
140
0.25
141
12.0
290
     0
  0
SCALE
  5
4C
102
{ACAD_REACTORS
330
42
102
}
330
42
100
AcDbScale
 70
     0
300
3/8" = 1'-0"
140
0.375
141
12.0
290
     0
  0
SCALE
  5
4D
102
{ACAD_REACTORS
330
42
102
}
330
42
100
AcDbScale
 70
     0
300
1/2" = 1'-0"
140
0.5
141
12.0
290
     0
  0
SCALE
  5
4E
102
{ACAD_REACTORS
330
42
102
}
330
42
100
AcDbScale
 70
     0
300
3/4" = 1'-0"
140
0.75
141
12.0
290
     0
  0
SCALE
  5
4F
102
{ACAD_REACTORS
330
42
102
}
330
42
100
AcDbScale
 70
     0
300
1" = 1'-0"
140
1.0
141
12.0
290
     0
  0
SCALE
  5
50
102
{ACAD_REACTORS
330
42
102
}
330
42
100
AcDbScale
 70
     0
300
1-1/2" = 1'-0"
140
1.5
141
12.0
290
     0
  0
SCALE
  5
51
102
{ACAD_REACTORS
330
42
102
}
330
42
100
AcDbScale
 70
     0
300
3" = 1'-0"
140
3.0
141
12.0
290
     0
  0
SCALE
  5
52
102
{ACAD_REACTORS
330
42
102
}
330
42
100
AcDbScale
 70
     0
300
6" = 1'-0"
140
6.0
141
12.0
290
     0
  0
SCALE
  5
53
102
{ACAD_REACTORS
330
42
102
}
330
42
100
AcDbScale
 70
     0
300
1'-0" = 1'-0"
140
12.0
141
12.0
290
     0
  0
TABLESTYLE
  5
64
102
{ACAD_XDICTIONARY
360
681
102
}
102
{ACAD_REACTORS
330
63
102
}
330
63
100
AcDbTableStyle
  3
Standard
 70
     0
 71
     0
 40
0.06
 41
0.06
280
     0
281
     0
  7
STANDARD
140
0.18
170
     2
 62
     0
 63
     7
283
     0
274
    -2
284
     1
 64
     0
275
    -2
285
     1
 65
     0
276
    -2
286
     1
 66
     0
277
    -2
287
     1
 67
     0
278
    -2
288
     1
 68
     0
279
    -2
289
     1
 69
     0
  7
STANDARD
140
0.25
170
     5
 62
     0
 63
     7
283
     0
274
    -2
284
     1
 64
     0
275
    -2
285
     1
 65
     0
276
    -2
286
     1
 66
     0
277
    -2
287
     1
 67
     0
278
    -2
288
     1
 68
     0
279
    -2
289
     1
 69
     0
  7
STANDARD
140
0.18
170
     5
 62
     0
 63
     7
283
     0
274
    -2
284
     1
 64
     0
275
    -2
285
     1
 65
     0
276
    -2
286
     1
 66
     0
277
    -2
287
     1
 67
     0
278
    -2
288
     1
 68
     0
279
    -2
289
     1
 69
     0
  0
VISUALSTYLE
  5
2F
102
{ACAD_XDICTIONARY
360
7E7
102
}
102
{ACAD_REACTORS
330
29
102
}
330
29
100
AcDbVisualStyle
  2

 70
     4
 71
     0
 72
     2
 73
     0
 90
        0
 40
-0.6
 41
-30.0
 62
     5
 63
     7
 74
     1
 91
        4
 64
     7
 65
   257
 75
     1
175
     1
 42
1.0
 92
        0
 66
   257
 43
1.0
 76
     1
 77
     6
 78
     2
 67
     7
 79
     5
170
     0
171
     0
290
     0
174
     0
 93
        1
 44
0.0
173
     0
291
     0
 45
0.0
1001
ACAD
1000
AcDbSavedByObjectVersion
1070
     0
  0
VISUALSTYLE
  5
4E6
102
{ACAD_XDICTIONARY
360
812
102
}
102
{ACAD_REACTORS
330
29
102
}
330
29
100
AcDbVisualStyle
  2

 70
     5
 71
     0
 72
     2
 73
     1
 90
        0
 40
-0.6
 41
-30.0
 62
     5
 63
     7
 74
     1
 91
        4
 64
     7
 65
   257
 75
     1
175
     1
 42
1.0
 92
        0
 66
   257
 43
1.0
 76
     1
 77
     6
 78
     2
 67
     7
 79
     5
170
     0
171
     0
290
     0
174
     0
 93
        1
 44
0.0
173
     0
291
     0
 45
0.0
1001
ACAD
1000
AcDbSavedByObjectVersion
1070
     0
  0
VISUALSTYLE
  5
2E
102
{ACAD_XDICTIONARY
360
7E5
102
}
102
{ACAD_REACTORS
330
29
102
}
330
29
100
AcDbVisualStyle
  2

 70
     7
 71
     1
 72
     0
 73
     1
 90
        0
 40
-0.6
 41
-30.0
 62
     5
 63
     7
 74
     0
 91
        4
 64
     7
 65
   257
 75
     1
175
     1
 42
1.0
 92
        8
 66
     7
 43
1.0
 76
     1
 77
     6
 78
     2
 67
     7
 79
     5
170
     0
171
     0
290
     0
174
     0
 93
        1
 44
0.0
173
     0
291
     1
 45
0.0
1001
ACAD
1000
AcDbSavedByObjectVersion
1070
     0
  0
VISUALSTYLE
  5
35
102
{ACAD_XDICTIONARY
360
7F3
102
}
102
{ACAD_REACTORS
330
29
102
}
330
29
100
AcDbVisualStyle
  2

 70
    12
 71
     2
 72
     2
 73
     0
 90
        0
 40
-0.6
 41
-30.0
 62
     5
 63
     7
 74
     1
 91
        4
 64
     7
 65
   257
 75
     1
175
     1
 42
1.0
 92
        8
 66
     7
 43
1.0
 76
     1
 77
     6
 78
     2
 67
     7
 79
     5
170
     0
171
     0
290
     0
174
     0
 93
        1
 44
50.0
173
     0
291
     1
 45
0.0
1001
ACAD
1000
AcDbSavedByObjectVersion
1070
     0
  0
VISUALSTYLE
  5
39
102
{ACAD_XDICTIONARY
360
7FB
102
}
102
{ACAD_REACTORS
330
29
102
}
330
29
100
AcDbVisualStyle
  2

 70
    16
 71
     2
 72
     2
 73
     3
 90
        0
 40
-0.6
 41
-30.0
 62
     5
 63
     8
 74
     1
 91
        4
 64
     7
 65
   257
 75
     1
175
     1
 42
1.0
 92
        8
 66
     8
 43
1.0
 76
     1
 77
     6
 78
     2
 67
     7
 79
     5
170
     0
171
     0
290
     0
174
     0
 93
        1
 44
0.0
173
     0
291
     1
 45
0.0
1001
ACAD
1000
AcDbSavedByObjectVersion
1070
     0
  0
VISUALSTYLE
  5
32
102
{ACAD_XDICTIONARY
360
7ED
102
}
102
{ACAD_REACTORS
330
29
102
}
330
29
100
AcDbVisualStyle
  2

 70
     9
 71
     3
 72
     2
 73
     0
 90
        0
 40
-0.6
 41
-30.0
 62
     5
 63
     7
 74
     2
 91
        2
 64
     7
 65
   257
 75
     1
175
     1
 42
179.0
 92
        8
 66
     7
 43
1.0
 76
     1
 77
     6
 78
     2
 67
     7
 79
     3
170
     0
171
     0
290
     0
174
     0
 93
        1
 44
0.0
173
     0
291
     0
 45
0.0
1001
ACAD
1000
AcDbSavedByObjectVersion
1070
     0
  0
VISUALSTYLE
  5
34
102
{ACAD_XDICTIONARY
360
7F1
102
}
102
{ACAD_REACTORS
330
29
102
}
330
29
100
AcDbVisualStyle
  2

 70
    11
 71
     2
 72
     2
 73
     0
 90
        0
 40
-0.6
 41
-30.0
 62
     5
 63
     7
 74
     1
 91
        4
 64
     7
 65
   257
 75
     1
175
     1
 42
1.0
 92
        8
 66
     7
 43
1.0
 76
     1
 77
     6
 78
     2
 67
     7
 79
     5
170
     0
171
     0
290
     0
174
     0
 93
        1
 44
-50.0
173
     0
291
     1
 45
0.0
1001
ACAD
1000
AcDbSavedByObjectVersion
1070
     0
  0
VISUALSTYLE
  5
41
102
{ACAD_XDICTIONARY
360
80B
102
}
102
{ACAD_REACTORS
330
29
102
}
330
29
100
AcDbVisualStyle
  2

 70
    22
 71
     2
 72
     2
 73
     0
 90
        0
 40
-0.6
 41
-30.0
 62
     5
 63
     7
 74
     1
 91
        4
 64
     7
 65
   257
 75
     1
175
     1
 42
1.0
 92
        8
 66
     7
 43
1.0
 76
     1
 77
     6
 78
     2
 67
     7
 79
     5
170
     0
171
     0
290
     0
174
     0
 93
        1
 44
0.0
173
     0
291
     1
 45
0.0
1001
ACAD
1000
AcDbSavedByObjectVersion
1070
     0
  0
VISUALSTYLE
  5
38
102
{ACAD_XDICTIONARY
360
7F9
102
}
102
{ACAD_REACTORS
330
29
102
}
330
29
100
AcDbVisualStyle
  2

 70
    15
 71
     2
 72
     2
 73
     0
 90
        0
 40
-0.6
 41
-30.0
 62
     5
 63
     7
 74
     1
 91
        4
 64
     7
 65
   257
 75
     1
175
     1
 42
1.0
 92
        8
 66
     7
 43
1.0
 76
     1
 77
     6
 78
     2
 67
     7
 79
     5
170
     0
171
     0
290
     0
174
     0
 93
        1
 44
0.0
173
     0
291
     1
 45
0.0
1001
ACAD
1000
AcDbSavedByObjectVersion
1070
     0
  0
VISUALSTYLE
  5
2A
102
{ACAD_XDICTIONARY
360
7DD
102
}
102
{ACAD_REACTORS
330
29
102
}
330
29
100
AcDbVisualStyle
  2

 70
     0
 71
     2
 72
     1
 73
     1
 90
        2
 40
-0.6
 41
30.0
 62
     5
 63
     7
 74
     0
 91
        0
 64
     7
 65
   257
 75
     1
175
     1
 42
1.0
 92
        8
 66
     7
 43
1.0
 76
     1
 77
     6
 78
     2
 67
     7
 79
     5
170
     0
171
     0
290
     0
174
     0
 93
       13
 44
0.0
173
     0
291
     1
 45
0.0
1001
ACAD
1000
AcDbSavedByObjectVersion
1070
     0
  0
VISUALSTYLE
  5
2B
102
{ACAD_XDICTIONARY
360
7DF
102
}
102
{ACAD_REACTORS
330
29
102
}
330
29
100
AcDbVisualStyle
  2

 70
     1
 71
     2
 72
     1
 73
     1
 90
        2
 40
-0.6
 41
30.0
 62
     5
 63
     7
 74
     1
 91
        0
 64
     7
 65
   257
 75
     1
175
     1
 42
1.0
 92
        0
 66
   257
 43
1.0
 76
     1
 77
     6
 78
     2
 67
     7
 79
     5
170
     0
171
     0
290
     0
174
     0
 93
       13
 44
0.0
173
     0
291
     1
 45
0.0
1001
ACAD
1000
AcDbSavedByObjectVersion
1070
     0
  0
VISUALSTYLE
  5
2C
102
{ACAD_XDICTIONARY
360
7E1
102
}
102
{ACAD_REACTORS
330
29
102
}
330
29
100
AcDbVisualStyle
  2

 70
     2
 71
     2
 72
     2
 73
     1
 90
        2
 40
-0.6
 41
30.0
 62
     5
 63
     7
 74
     0
 91
        0
 64
     7
 65
   257
 75
     1
175
     1
 42
1.0
 92
        0
 66
     7
 43
1.0
 76
     1
 77
     6
 78
     2
 67
     7
 79
     5
170
     0
171
     0
290
     0
174
     0
 93
       13
 44
0.0
173
     0
291
     1
 45
0.0
1001
ACAD
1000
AcDbSavedByObjectVersion
1070
     0
  0
VISUALSTYLE
  5
2D
102
{ACAD_XDICTIONARY
360
7E3
102
}
102
{ACAD_REACTORS
330
29
102
}
330
29
100
AcDbVisualStyle
  2

 70
     3
 71
     2
 72
     2
 73
     1
 90
        2
 40
-0.6
 41
30.0
 62
     5
 63
     7
 74
     1
 91
        0
 64
     7
 65
   257
 75
     1
175
     1
 42
1.0
 92
        0
 66
   257
 43
1.0
 76
     1
 77
     6
 78
     2
 67
     7
 79
     5
170
     0
171
     0
290
     0
174
     0
 93
       13
 44
0.0
173
     0
291
     1
 45
0.0
1001
ACAD
1000
AcDbSavedByObjectVersion
1070
     0
  0
VISUALSTYLE
  5
31
102
{ACAD_XDICTIONARY
360
7EB
102
}
102
{ACAD_REACTORS
330
29
102
}
330
29
100
AcDbVisualStyle
  2

 70
     6
 71
     1
 72
     2
 73
     2
 90
        0
 40
-0.6
 41
-30.0
 62
     5
 63
     7
 74
     2
 91
        2
 64
     7
 65
   257
 75
     2
175
     1
 42
40.0
 92
        0
 66
   257
 43
1.0
 76
     1
 77
     6
 78
     2
 67
     7
 79
     3
170
     0
171
     0
290
     0
174
     0
 93
        1
 44
0.0
173
     0
291
     0
 45
0.0
1001
ACAD
1000
AcDbSavedByObjectVersion
1070
     0
  0
VISUALSTYLE
  5
3F
102
{ACAD_XDICTIONARY
360
807
102
}
102
{ACAD_REACTORS
330
29
102
}
330
29
100
AcDbVisualStyle
  2

 70
    20
 71
     2
 72
     2
 73
     0
 90
        0
 40
-0.6
 41
-30.0
 62
     5
 63
     7
 74
     1
 91
        4
 64
     7
 65
   257
 75
     1
175
     1
 42
1.0
 92
       10
 66
     7
 43
1.0
 76
     1
 77
     6
 78
     2
 67
     7
 79
     5
170
     0
171
     0
290
     0
174
     0
 93
        1
 44
0.0
173
     0
291
     1
 45
0.0
1001
ACAD
1000
AcDbSavedByObjectVersion
1070
     0
  0
VISUALSTYLE
  5
37
102
{ACAD_XDICTIONARY
360
7F7
102
}
102
{ACAD_REACTORS
330
29
102
}
330
29
100
AcDbVisualStyle
  2

 70
    14
 71
     2
 72
     2
 73
     0
 90
        0
 40
-0.6
 41
-30.0
 62
     5
 63
     7
 74
     1
 91
        4
 64
     7
 65
   257
 75
     7
175
     7
 42
1.0
 92
        8
 66
     7
 43
1.0
 76
     1
 77
     6
 78
     2
 67
     7
 79
     5
170
     0
171
     0
290
     0
174
     0
 93
        1
 44
0.0
173
     0
291
     1
 45
0.0
1001
ACAD
1000
AcDbSavedByObjectVersion
1070
     0
  0
VISUALSTYLE
  5
40
102
{ACAD_XDICTIONARY
360
809
102
}
102
{ACAD_REACTORS
330
29
102
}
330
29
100
AcDbVisualStyle
  2

 70
    21
 71
     2
 72
     2
 73
     0
 90
        0
 40
-0.6
 41
-30.0
 62
     5
 63
     7
 74
     1
 91
        4
 64
     7
 65
   257
 75
     1
175
     1
 42
1.0
 92
        9
 66
     7
 43
1.0
 76
     1
 77
     6
 78
     2
 67
     7
 79
     5
170
     0
171
     0
290
     0
174
     0
 93
        1
 44
0.0
173
     0
291
     1
 45
0.0
1001
ACAD
1000
AcDbSavedByObjectVersion
1070
     0
  0
VISUALSTYLE
  5
33
102
{ACAD_XDICTIONARY
360
7EF
102
}
102
{ACAD_REACTORS
330
29
102
}
330
29
100
AcDbVisualStyle
  2

 70
     8
 71
     2
 72
     3
 73
     0
 90
        2
 40
-0.6
 41
30.0
 62
     5
 63
     7
 74
     0
 91
        0
 64
     7
 65
   257
 75
     1
175
     1
 42
1.0
 92
        8
 66
   257
 43
1.0
 76
     1
 77
     6
 78
     2
 67
     7
 79
     3
170
     0
171
     0
290
     0
174
     0
 93
       13
 44
0.0
173
     0
291
     0
 45
0.0
1001
ACAD
1000
AcDbSavedByObjectVersion
1070
     0
  0
VISUALSTYLE
  5
3E
102
{ACAD_XDICTIONARY
360
805
102
}
102
{ACAD_REACTORS
330
29
102
}
330
29
100
AcDbVisualStyle
  2

 70
    27
 71
     2
 72
     2
 73
     1
 90
        2
 40
-0.6
 41
30.0
 62
     5
 63
     7
 74
     0
 91
        4
 64
     7
 65
   257
 75
     1
175
     1
 42
1.0
 92
        8
 66
   257
 43
1.0
 76
     1
 77
     6
 78
     2
 67
     8
 79
     3
170
     0
171
     0
290
     0
174
     0
 93
        5
 44
0.0
173
     0
291
     0
 45
0.0
1001
ACAD
1000
AcDbSavedByObjectVersion
1070
     0
  0
VISUALSTYLE
  5
3D
102
{ACAD_XDICTIONARY
360
803
102
}
102
{ACAD_REACTORS
330
29
102
}
330
29
100
AcDbVisualStyle
  2

 70
    26
 71
     2
 72
     2
 73
     1
 90
        2
 40
-0.6
 41
30.0
 62
     5
 63
     7
 74
     1
 91
       10
 64
     7
 65
   257
 75
     2
175
     1
 42
1.0
 92
        8
 66
   257
 43
1.0
 76
     1
 77
     6
 78
     2
 67
     7
 79
     3
170
     0
171
     0
290
     0
174
     0
 93
        5
 44
0.0
173
     0
291
     0
 45
0.0
1001
ACAD
1000
AcDbSavedByObjectVersion
1070
     0
  0
VISUALSTYLE
  5
3A
102
{ACAD_XDICTIONARY
360
7FD
102
}
102
{ACAD_REACTORS
330
29
102
}
330
29
100
AcDbVisualStyle
  2

 70
    23
 71
     2
 72
     2
 73
     3
 90
        0
 40
-0.6
 41
-30.0
 62
     5
 63
     7
 74
     2
 91
        2
 64
     7
 65
     7
 75
     1
175
     1
 42
40.0
 92
        8
 66
     7
 43
1.0
 76
     1
 77
     6
 78
     2
 67
     7
 79
     3
170
     0
171
     0
290
     0
174
     0
 93
        1
 44
0.0
173
     0
291
     0
 45
0.0
1001
ACAD
1000
AcDbSavedByObjectVersion
1070
     0
  0
VISUALSTYLE
  5
3B
102
{ACAD_XDICTIONARY
360
7FF
102
}
102
{ACAD_REACTORS
330
29
102
}
330
29
100
AcDbVisualStyle
  2

 70
    24
 71
     1
 72
     2
 73
     2
 90
        0
 40
-0.6
 41
-30.0
 62
     5
 63
     7
 74
     2
 91
        2
 64
     7
 65
     7
 75
     1
175
     1
 42
40.0
 92
       11
 66
     7
 43
1.0
 76
     1
 77
     6
 78
     2
 67
     7
 79
     6
170
     0
171
     0
290
     0
174
     0
 93
        1
 44
0.0
173
     0
291
     0
 45
0.0
1001
ACAD
1000
AcDbSavedByObjectVersion
1070
     0
  0
VISUALSTYLE
  5
36
102
{ACAD_XDICTIONARY
360
7F5
102
}
102
{ACAD_REACTORS
330
29
102
}
330
29
100
AcDbVisualStyle
  2

 70
    13
 71
     2
 72
     2
 73
     0
 90
        0
 40
-0.6
 41
-30.0
 62
     5
 63
     7
 74
     1
 91
        4
 64
     7
 65
   257
 75
     1
175
     1
 42
1.0
 92
       12
 66
     7
 43
1.0
 76
     1
 77
     6
 78
     2
 67
     7
 79
     5
170
     0
171
     0
290
     0
174
     0
 93
        1
 44
0.0
173
     0
291
     1
 45
0.0
1001
ACAD
1000
AcDbSavedByObjectVersion
1070
     0
  0
VISUALSTYLE
  5
30
102
{ACAD_XDICTIONARY
360
7E9
102
}
102
{ACAD_REACTORS
330
29
102
}
330
29
100
AcDbVisualStyle
  2

 70
     5
 71
     0
 72
     2
 73
     0
 90
        0
 40
-0.6
 41
-30.0
 62
     5
 63
     7
 74
     1
 91
        4
 64
     7
 65
   257
 75
     1
175
     1
 42
1.0
 92
        0
 66
   257
 43
1.0
 76
     1
 77
     6
 78
     2
 67
     7
 79
     3
170
     0
171
     0
290
     0
174
     0
 93
        1
 44
0.0
173
     0
291
     0
 45
0.0
1001
ACAD
1000
AcDbSavedByObjectVersion
1070
     0
  0
VISUALSTYLE
  5
3C
102
{ACAD_XDICTIONARY
360
801
102
}
102
{ACAD_REACTORS
330
29
102
}
330
29
100
AcDbVisualStyle
  2

 70
    25
 71
     2
 72
     2
 73
     1
 90
        1
 40
0.5
 41
-30.0
 62
     5
 63
     7
 74
     1
 91
        0
 64
     7
 65
   257
 75
     1
175
     1
 42
1.0
 92
        8
 66
     7
 43
1.0
 76
     1
 77
     6
 78
     2
 67
     7
 79
     3
170
     0
171
     0
290
     0
174
     0
 93
       13
 44
0.0
173
     0
291
     0
 45
0.0
1001
ACAD
1000
AcDbSavedByObjectVersion
1070
     0
  0
DICTIONARYVAR
  5
67C
102
{ACAD_REACTORS
330
679
102
}
330
679
100
DictionaryVariables
280
     0
  1
1:1
  0
DICTIONARYVAR
  5
67B
102
{ACAD_REACTORS
330
679
102
}
330
679
100
DictionaryVariables
280
     0
  1
STANDARD
  0
DICTIONARYVAR
  5
67A
102
{ACAD_REACTORS
330
679
102
}
330
679
100
DictionaryVariables
280
     0
  1
STANDARD
  0
DICTIONARYVAR
  5
67F
102
{ACAD_REACTORS
330
679
102
}
330
679
100
DictionaryVariables
280
     0
  1
1
  0
DICTIONARYVAR
  5
67E
102
{ACAD_REACTORS
330
679
102
}
330
679
100
DictionaryVariables
280
     0
  1
0
  0
DICTIONARYVAR
  5
67D
102
{ACAD_REACTORS
330
679
102
}
330
679
100
DictionaryVariables
280
     0
  1
127
  0
DICTIONARYVAR
  5
6E3
102
{ACAD_REACTORS
330
679
102
}
330
679
100
DictionaryVariables
280
     0
  1
2
  0
DICTIONARY
  5
810
330
6E
100
AcDbDictionary
280
     1
281
     1
  3
ACAD_XREC_ROUNDTRIP
360
811
  0
DICTIONARY
  5
80E
330
6A
100
AcDbDictionary
280
     1
281
     1
  3
ACAD_XREC_ROUNDTRIP
360
80F
  0
DICTIONARY
  5
1A
330
19
100
AcDbDictionary
280
     1
281
     1
  3
ACAD_XREC_ROUNDTRIP
360
686
  3
BUMPTILE
360
1C
  3
DIFFUSETILE
360
1B
  3
OPACITYTILE
360
1F
  3
REFLECTIONTILE
360
1E
  3
REFRACTIONTILE
360
20
  3
SPECULARTILE
360
1D
  0
DICTIONARY
  5
12
330
11
100
AcDbDictionary
280
     1
281
     1
  3
ACAD_XREC_ROUNDTRIP
360
685
  3
BUMPTILE
360
14
  3
DIFFUSETILE
360
13
  3
OPACITYTILE
360
17
  3
REFLECTIONTILE
360
16
  3
REFRACTIONTILE
360
18
  3
SPECULARTILE
360
15
  0
DICTIONARY
  5
22
330
21
100
AcDbDictionary
280
     1
281
     1
  3
ACAD_XREC_ROUNDTRIP
360
687
  3
BUMPTILE
360
24
  3
DIFFUSETILE
360
23
  3
OPACITYTILE
360
27
  3
REFLECTIONTILE
360
26
  3
REFRACTIONTILE
360
28
  3
SPECULARTILE
360
25
  0
DICTIONARY
  5
681
330
64
100
AcDbDictionary
280
     1
281
     1
  3
ACAD_ROUNDTRIP_2008_TABLESTYLE_CELLSTYLEMAP
360
7D6
  3
ACAD_XREC_ROUNDTRIP
360
80D
  0
DICTIONARY
  5
7E7
330
2F
100
AcDbDictionary
280
     1
281
     1
  3
ACAD_XREC_ROUNDTRIP
360
7E8
  0
DICTIONARY
  5
812
330
4E6
100
AcDbDictionary
280
     1
281
     1
  3
ACAD_XREC_ROUNDTRIP
360
813
  0
DICTIONARY
  5
7E5
330
2E
100
AcDbDictionary
280
     1
281
     1
  3
ACAD_XREC_ROUNDTRIP
360
7E6
  0
DICTIONARY
  5
7F3
330
35
100
AcDbDictionary
280
     1
281
     1
  3
ACAD_XREC_ROUNDTRIP
360
7F4
  0
DICTIONARY
  5
7FB
330
39
100
AcDbDictionary
280
     1
281
     1
  3
ACAD_XREC_ROUNDTRIP
360
7FC
  0
DICTIONARY
  5
7ED
330
32
100
AcDbDictionary
280
     1
281
     1
  3
ACAD_XREC_ROUNDTRIP
360
7EE
  0
DICTIONARY
  5
7F1
330
34
100
AcDbDictionary
280
     1
281
     1
  3
ACAD_XREC_ROUNDTRIP
360
7F2
  0
DICTIONARY
  5
80B
330
41
100
AcDbDictionary
280
     1
281
     1
  3
ACAD_XREC_ROUNDTRIP
360
80C
  0
DICTIONARY
  5
7F9
330
38
100
AcDbDictionary
280
     1
281
     1
  3
ACAD_XREC_ROUNDTRIP
360
7FA
  0
DICTIONARY
  5
7DD
330
2A
100
AcDbDictionary
280
     1
281
     1
  3
ACAD_XREC_ROUNDTRIP
360
7DE
  0
DICTIONARY
  5
7DF
330
2B
100
AcDbDictionary
280
     1
281
     1
  3
ACAD_XREC_ROUNDTRIP
360
7E0
  0
DICTIONARY
  5
7E1
330
2C
100
AcDbDictionary
280
     1
281
     1
  3
ACAD_XREC_ROUNDTRIP
360
7E2
  0
DICTIONARY
  5
7E3
330
2D
100
AcDbDictionary
280
     1
281
     1
  3
ACAD_XREC_ROUNDTRIP
360
7E4
  0
DICTIONARY
  5
7EB
330
31
100
AcDbDictionary
280
     1
281
     1
  3
ACAD_XREC_ROUNDTRIP
360
7EC
  0
DICTIONARY
  5
807
330
3F
100
AcDbDictionary
280
     1
281
     1
  3
ACAD_XREC_ROUNDTRIP
360
808
  0
DICTIONARY
  5
7F7
330
37
100
AcDbDictionary
280
     1
281
     1
  3
ACAD_XREC_ROUNDTRIP
360
7F8
  0
DICTIONARY
  5
809
330
40
100
AcDbDictionary
280
     1
281
     1
  3
ACAD_XREC_ROUNDTRIP
360
80A
  0
DICTIONARY
  5
7EF
330
33
100
AcDbDictionary
280
     1
281
     1
  3
ACAD_XREC_ROUNDTRIP
360
7F0
  0
DICTIONARY
  5
805
330
3E
100
AcDbDictionary
280
     1
281
     1
  3
ACAD_XREC_ROUNDTRIP
360
806
  0
DICTIONARY
  5
803
330
3D
100
AcDbDictionary
280
     1
281
     1
  3
ACAD_XREC_ROUNDTRIP
360
804
  0
DICTIONARY
  5
7FD
330
3A
100
AcDbDictionary
280
     1
281
     1
  3
ACAD_XREC_ROUNDTRIP
360
7FE
  0
DICTIONARY
  5
7FF
330
3B
100
AcDbDictionary
280
     1
281
     1
  3
ACAD_XREC_ROUNDTRIP
360
800
  0
DICTIONARY
  5
7F5
330
36
100
AcDbDictionary
280
     1
281
     1
  3
ACAD_XREC_ROUNDTRIP
360
7F6
  0
DICTIONARY
  5
7E9
330
30
100
AcDbDictionary
280
     1
281
     1
  3
ACAD_XREC_ROUNDTRIP
360
7EA
  0
DICTIONARY
  5
801
330
3C
100
AcDbDictionary
280
     1
281
     1
  3
ACAD_XREC_ROUNDTRIP
360
802
  0
XRECORD
  5
811
102
{ACAD_REACTORS
330
810
102
}
330
810
100
AcDbXrecord
280
     1
102
SHADEPLOT
 70
     0
102
SHADEPLOTRESLEVEL
 70
     2
102
SHADEPLOTCUSTOMDPI
 70
   300
  0
XRECORD
  5
80F
102
{ACAD_REACTORS
330
80E
102
}
330
80E
100
AcDbXrecord
280
     1
102
SHADEPLOT
 70
     0
102
SHADEPLOTRESLEVEL
 70
     2
102
SHADEPLOTCUSTOMDPI
 70
   300
  0
XRECORD
  5
686
102
{ACAD_REACTORS
330
1A
102
}
330
1A
100
AcDbXrecord
280
     1
102
MATERIAL
148
0.0
149
0.0
149
0.0
 93
        0
 94
      127
282
     0
 72
     0
 77
     0
171
     0
175
     0
179
     0
273
     0
  0
XRECORD
  5
1C
102
{ACAD_REACTORS
330
1A
102
}
330
1A
100
AcDbXrecord
280
     1
270
     1
271
     1
  0
XRECORD
  5
1B
102
{ACAD_REACTORS
330
1A
102
}
330
1A
100
AcDbXrecord
280
     1
270
     1
271
     1
  0
XRECORD
  5
1F
102
{ACAD_REACTORS
330
1A
102
}
330
1A
100
AcDbXrecord
280
     1
270
     1
271
     1
  0
XRECORD
  5
1E
102
{ACAD_REACTORS
330
1A
102
}
330
1A
100
AcDbXrecord
280
     1
270
     1
271
     1
  0
XRECORD
  5
20
102
{ACAD_REACTORS
330
1A
102
}
330
1A
100
AcDbXrecord
280
     1
270
     1
271
     1
  0
XRECORD
  5
1D
102
{ACAD_REACTORS
330
1A
102
}
330
1A
100
AcDbXrecord
280
     1
270
     1
271
     1
  0
XRECORD
  5
685
102
{ACAD_REACTORS
330
12
102
}
330
12
100
AcDbXrecord
280
     1
102
MATERIAL
148
0.0
149
0.0
149
0.0
 93
        0
 94
      127
282
     0
 72
     0
 77
     0
171
     0
175
     0
179
     0
273
     0
  0
XRECORD
  5
14
102
{ACAD_REACTORS
330
12
102
}
330
12
100
AcDbXrecord
280
     1
270
     1
271
     1
  0
XRECORD
  5
13
102
{ACAD_REACTORS
330
12
102
}
330
12
100
AcDbXrecord
280
     1
270
     1
271
     1
  0
XRECORD
  5
17
102
{ACAD_REACTORS
330
12
102
}
330
12
100
AcDbXrecord
280
     1
270
     1
271
     1
  0
XRECORD
  5
16
102
{ACAD_REACTORS
330
12
102
}
330
12
100
AcDbXrecord
280
     1
270
     1
271
     1
  0
XRECORD
  5
18
102
{ACAD_REACTORS
330
12
102
}
330
12
100
AcDbXrecord
280
     1
270
     1
271
     1
  0
XRECORD
  5
15
102
{ACAD_REACTORS
330
12
102
}
330
12
100
AcDbXrecord
280
     1
270
     1
271
     1
  0
XRECORD
  5
687
102
{ACAD_REACTORS
330
22
102
}
330
22
100
AcDbXrecord
280
     1
102
MATERIAL
148
0.0
149
0.0
149
0.0
 93
        0
 94
      127
282
     0
 72
     0
 77
     0
171
     0
175
     0
179
     0
273
     0
  0
XRECORD
  5
24
102
{ACAD_REACTORS
330
22
102
}
330
22
100
AcDbXrecord
280
     1
270
     1
271
     1
  0
XRECORD
  5
23
102
{ACAD_REACTORS
330
22
102
}
330
22
100
AcDbXrecord
280
     1
270
     1
271
     1
  0
XRECORD
  5
27
102
{ACAD_REACTORS
330
22
102
}
330
22
100
AcDbXrecord
280
     1
270
     1
271
     1
  0
XRECORD
  5
26
102
{ACAD_REACTORS
330
22
102
}
330
22
100
AcDbXrecord
280
     1
270
     1
271
     1
  0
XRECORD
  5
28
102
{ACAD_REACTORS
330
22
102
}
330
22
100
AcDbXrecord
280
     1
270
     1
271
     1
  0
XRECORD
  5
25
102
{ACAD_REACTORS
330
22
102
}
330
22
100
AcDbXrecord
280
     1
270
     1
271
     1
  0
CELLSTYLEMAP
  5
7D6
102
{ACAD_REACTORS
330
681
102
}
330
681
100
AcDbCellStyleMap
 90
        3
300
CELLSTYLE
  1
TABLEFORMAT_BEGIN
 90
        5
170
     1
 91
        0
 92
    32768
 62
   257
 93
        1
300
CONTENTFORMAT
  1
CONTENTFORMAT_BEGIN
 90
        0
 91
        0
 92
      512
 93
        0
300

 40
0.0
140
1.0
 94
        5
 62
     0
340
55
144
0.25
309
CONTENTFORMAT_END
171
     1
301
MARGIN
  1
CELLMARGIN_BEGIN
 40
0.06
 40
0.06
 40
0.06
 40
0.06
 40
0.18
 40
0.18
309
CELLMARGIN_END
 94
        6
 95
        1
302
GRIDFORMAT
  1
GRIDFORMAT_BEGIN
 90
        0
 91
        1
 62
     0
 92
       -2
340
0
 93
        0
 40
0.045
309
GRIDFORMAT_END
 95
        2
302
GRIDFORMAT
  1
GRIDFORMAT_BEGIN
 90
        0
 91
        1
 62
     0
 92
       -2
340
0
 93
        0
 40
0.045
309
GRIDFORMAT_END
 95
        4
302
GRIDFORMAT
  1
GRIDFORMAT_BEGIN
 90
        0
 91
        1
 62
     0
 92
       -2
340
0
 93
        0
 40
0.045
309
GRIDFORMAT_END
 95
        8
302
GRIDFORMAT
  1
GRIDFORMAT_BEGIN
 90
        0
 91
        1
 62
     0
 92
       -2
340
0
 93
        0
 40
0.045
309
GRIDFORMAT_END
 95
       16
302
GRIDFORMAT
  1
GRIDFORMAT_BEGIN
 90
        0
 91
        1
 62
     0
 92
       -2
340
0
 93
        0
 40
0.045
309
GRIDFORMAT_END
 95
       32
302
GRIDFORMAT
  1
GRIDFORMAT_BEGIN
 90
        0
 91
        1
 62
     0
 92
       -2
340
0
 93
        0
 40
0.045
309
GRIDFORMAT_END
309
TABLEFORMAT_END
  1
CELLSTYLE_BEGIN
 90
        1
 91
        1
300
_TITLE
309
CELLSTYLE_END
300
CELLSTYLE
  1
TABLEFORMAT_BEGIN
 90
        5
170
     1
 91
        0
 92
        0
 62
   257
 93
        1
300
CONTENTFORMAT
  1
CONTENTFORMAT_BEGIN
 90
        0
 91
        0
 92
      512
 93
        0
300

 40
0.0
140
1.0
 94
        5
 62
     0
340
55
144
0.18
309
CONTENTFORMAT_END
171
     1
301
MARGIN
  1
CELLMARGIN_BEGIN
 40
0.06
 40
0.06
 40
0.06
 40
0.06
 40
0.18
 40
0.18
309
CELLMARGIN_END
 94
        6
 95
        1
302
GRIDFORMAT
  1
GRIDFORMAT_BEGIN
 90
        0
 91
        1
 62
     0
 92
       -2
340
0
 93
        0
 40
0.045
309
GRIDFORMAT_END
 95
        2
302
GRIDFORMAT
  1
GRIDFORMAT_BEGIN
 90
        0
 91
        1
 62
     0
 92
       -2
340
0
 93
        0
 40
0.045
309
GRIDFORMAT_END
 95
        4
302
GRIDFORMAT
  1
GRIDFORMAT_BEGIN
 90
        0
 91
        1
 62
     0
 92
       -2
340
0
 93
        0
 40
0.045
309
GRIDFORMAT_END
 95
        8
302
GRIDFORMAT
  1
GRIDFORMAT_BEGIN
 90
        0
 91
        1
 62
     0
 92
       -2
340
0
 93
        0
 40
0.045
309
GRIDFORMAT_END
 95
       16
302
GRIDFORMAT
  1
GRIDFORMAT_BEGIN
 90
        0
 91
        1
 62
     0
 92
       -2
340
0
 93
        0
 40
0.045
309
GRIDFORMAT_END
 95
       32
302
GRIDFORMAT
  1
GRIDFORMAT_BEGIN
 90
        0
 91
        1
 62
     0
 92
       -2
340
0
 93
        0
 40
0.045
309
GRIDFORMAT_END
309
TABLEFORMAT_END
  1
CELLSTYLE_BEGIN
 90
        2
 91
        1
300
_HEADER
309
CELLSTYLE_END
300
CELLSTYLE
  1
TABLEFORMAT_BEGIN
 90
        5
170
     1
 91
        0
 92
        0
 62
   257
 93
        1
300
CONTENTFORMAT
  1
CONTENTFORMAT_BEGIN
 90
        0
 91
        0
 92
      512
 93
        0
300

 40
0.0
140
1.0
 94
        2
 62
     0
340
55
144
0.18
309
CONTENTFORMAT_END
171
     1
301
MARGIN
  1
CELLMARGIN_BEGIN
 40
0.06
 40
0.06
 40
0.06
 40
0.06
 40
0.18
 40
0.18
309
CELLMARGIN_END
 94
        6
 95
        1
302
GRIDFORMAT
  1
GRIDFORMAT_BEGIN
 90
        0
 91
        1
 62
     0
 92
       -2
340
0
 93
        0
 40
0.045
309
GRIDFORMAT_END
 95
        2
302
GRIDFORMAT
  1
GRIDFORMAT_BEGIN
 90
        0
 91
        1
 62
     0
 92
       -2
340
0
 93
        0
 40
0.045
309
GRIDFORMAT_END
 95
        4
302
GRIDFORMAT
  1
GRIDFORMAT_BEGIN
 90
        0
 91
        1
 62
     0
 92
       -2
340
0
 93
        0
 40
0.045
309
GRIDFORMAT_END
 95
        8
302
GRIDFORMAT
  1
GRIDFORMAT_BEGIN
 90
        0
 91
        1
 62
     0
 92
       -2
340
0
 93
        0
 40
0.045
309
GRIDFORMAT_END
 95
       16
302
GRIDFORMAT
  1
GRIDFORMAT_BEGIN
 90
        0
 91
        1
 62
     0
 92
       -2
340
0
 93
        0
 40
0.045
309
GRIDFORMAT_END
 95
       32
302
GRIDFORMAT
  1
GRIDFORMAT_BEGIN
 90
        0
 91
        1
 62
     0
 92
       -2
340
0
 93
        0
 40
0.045
309
GRIDFORMAT_END
309
TABLEFORMAT_END
  1
CELLSTYLE_BEGIN
 90
        3
 91
        2
300
_DATA
309
CELLSTYLE_END
  0
XRECORD
  5
80D
102
{ACAD_REACTORS
330
681
102
}
330
681
100
AcDbXrecord
280
     1
102
ACAD_ROUNDTRIP_PRE2007_TABLESTYLE
 90
      512
 91
        0
  1

 92
      512
 93
        0
  2

 94
      512
 95
        0
  3

  0
XRECORD
  5
7E8
102
{ACAD_REACTORS
330
7E7
102
}
330
7E7
100
AcDbXrecord
280
     1
102
RTVSPropertyOp0
 70
     1
102
RTVSPropertyOp1
 70
     1
102
RTVSPropertyOp2
 70
     1
102
RTVSPropertyOp3
 70
     1
102
RTVSPropertyOp4
 70
     1
102
RTVSPropertyOp5
 70
     1
102
RTVSPropertyOp6
 70
     1
102
RTVSPropertyOp7
 70
     1
102
RTVSPropertyOp8
 70
     1
102
RTVSPropertyOp9
 70
     1
102
RTVSPropertyOp10
 70
     1
102
RTVSPropertyOp11
 70
     1
102
RTVSPropertyOp12
 70
     1
102
RTVSPropertyOp13
 70
     1
102
RTVSPropertyOp14
 70
     1
102
RTVSPropertyOp15
 70
     1
102
RTVSPropertyOp16
 70
     1
102
RTVSPropertyOp17
 70
     1
102
RTVSPropertyOp18
 70
     1
102
RTVSPropertyOp19
 70
     1
102
RTVSPropertyOp20
 70
     1
102
RTVSPropertyOp21
 70
     1
102
RTVSPropertyOp22
 70
     1
102
RTVSPropertyOp23
 70
     1
102
RTVSPropertyOp24
 70
     1
102
RTVSPropertyOp25
 70
     1
102
RTVSPropertyOp26
 70
     1
102
RTVSPropertyOp27
 70
     1
102
RTVSPropertyOp28
 70
     1
102
RTVSPropertyOp29
 70
     1
102
RTVSPropertyOp30
 70
     1
102
RTVSPropertyOp31
 70
     1
102
RTVSPropertyOp32
 70
     1
  0
XRECORD
  5
813
102
{ACAD_REACTORS
330
812
102
}
330
812
100
AcDbXrecord
280
     1
102
RTVSPropertyOp0
 70
     1
102
RTVSPropertyOp1
 70
     1
102
RTVSPropertyOp2
 70
     1
102
RTVSPropertyOp3
 70
     1
102
RTVSPropertyOp4
 70
     1
102
RTVSPropertyOp5
 70
     1
102
RTVSPropertyOp6
 70
     1
102
RTVSPropertyOp7
 70
     1
102
RTVSPropertyOp8
 70
     1
102
RTVSPropertyOp9
 70
     1
102
RTVSPropertyOp10
 70
     1
102
RTVSPropertyOp11
 70
     1
102
RTVSPropertyOp12
 70
     1
102
RTVSPropertyOp13
 70
     1
102
RTVSPropertyOp14
 70
     1
102
RTVSPropertyOp15
 70
     1
102
RTVSPropertyOp16
 70
     1
102
RTVSPropertyOp17
 70
     1
102
RTVSPropertyOp18
 70
     1
102
RTVSPropertyOp19
 70
     1
102
RTVSPropertyOp20
 70
     1
102
RTVSPropertyOp21
 70
     1
102
RTVSPropertyOp22
 70
     1
102
RTVSPropertyOp23
 70
     1
102
RTVSPropertyOp24
 70
     1
102
RTVSPropertyOp25
 70
     1
102
RTVSPropertyOp26
 70
     1
102
RTVSPropertyOp27
 70
     1
102
RTVSPropertyOp28
 70
     1
102
RTVSPropertyOp29
 70
     1
102
RTVSPropertyOp30
 70
     1
102
RTVSPropertyOp31
 70
     1
102
RTVSPropertyOp32
 70
     1
  0
XRECORD
  5
7E6
102
{ACAD_REACTORS
330
7E5
102
}
330
7E5
100
AcDbXrecord
280
     1
102
RTVSPropertyOp0
 70
     1
102
RTVSPropertyOp1
 70
     1
102
RTVSPropertyOp2
 70
     1
102
RTVSPropertyOp3
 70
     1
102
RTVSPropertyOp4
 70
     1
102
RTVSPropertyOp5
 70
     1
102
RTVSPropertyOp6
 70
     1
102
RTVSPropertyOp7
 70
     1
102
RTVSPropertyOp8
 70
     1
102
RTVSPropertyOp9
 70
     1
102
RTVSPropertyOp10
 70
     1
102
RTVSPropertyOp11
 70
     1
102
RTVSPropertyOp12
 70
     1
102
RTVSPropertyOp13
 70
     1
102
RTVSPropertyOp14
 70
     1
102
RTVSPropertyOp15
 70
     1
102
RTVSPropertyOp16
 70
     1
102
RTVSPropertyOp17
 70
     1
102
RTVSPropertyOp18
 70
     1
102
RTVSPropertyOp19
 70
     1
102
RTVSPropertyOp20
 70
     1
102
RTVSPropertyOp21
 70
     1
102
RTVSPropertyOp22
 70
     1
102
RTVSPropertyOp23
 70
     1
102
RTVSPropertyOp24
 70
     1
102
RTVSPropertyOp25
 70
     1
102
RTVSPropertyOp26
 70
     1
102
RTVSPropertyOp27
 70
     1
102
RTVSPropertyOp28
 70
     1
102
RTVSPropertyOp29
 70
     1
102
RTVSPropertyOp30
 70
     1
102
RTVSPropertyOp31
 70
     1
102
RTVSPropertyOp32
 70
     1
  0
XRECORD
  5
7F4
102
{ACAD_REACTORS
330
7F3
102
}
330
7F3
100
AcDbXrecord
280
     1
102
RTVSPropertyOp0
 70
     1
102
RTVSPropertyOp1
 70
     1
102
RTVSPropertyOp2
 70
     1
102
RTVSPropertyOp3
 70
     1
102
RTVSPropertyOp4
 70
     1
102
RTVSPropertyOp5
 70
     1
102
RTVSPropertyOp6
 70
     1
102
RTVSPropertyOp7
 70
     1
102
RTVSPropertyOp8
 70
     1
102
RTVSPropertyOp9
 70
     1
102
RTVSPropertyOp10
 70
     1
102
RTVSPropertyOp11
 70
     1
102
RTVSPropertyOp12
 70
     1
102
RTVSPropertyOp13
 70
     1
102
RTVSPropertyOp14
 70
     1
102
RTVSPropertyOp15
 70
     1
102
RTVSPropertyOp16
 70
     1
102
RTVSPropertyOp17
 70
     1
102
RTVSPropertyOp18
 70
     1
102
RTVSPropertyOp19
 70
     1
102
RTVSPropertyOp20
 70
     1
102
RTVSPropertyOp21
 70
     1
102
RTVSPropertyOp22
 70
     1
102
RTVSPropertyOp23
 70
     1
102
RTVSPropertyOp24
 70
     1
102
RTVSPropertyOp25
 70
     1
102
RTVSPropertyOp26
 70
     1
102
RTVSPropertyOp27
 70
     1
102
RTVSPropertyOp28
 70
     1
102
RTVSPropertyOp29
 70
     1
102
RTVSPropertyOp30
 70
     1
102
RTVSPropertyOp31
 70
     1
102
RTVSPropertyOp32
 70
     1
  0
XRECORD
  5
7FC
102
{ACAD_REACTORS
330
7FB
102
}
330
7FB
100
AcDbXrecord
280
     1
102
RTVSPropertyOp0
 70
     1
102
RTVSPropertyOp1
 70
     1
102
RTVSPropertyOp2
 70
     1
102
RTVSPropertyOp3
 70
     1
102
RTVSPropertyOp4
 70
     1
102
RTVSPropertyOp5
 70
     1
102
RTVSPropertyOp6
 70
     1
102
RTVSPropertyOp7
 70
     1
102
RTVSPropertyOp8
 70
     1
102
RTVSPropertyOp9
 70
     1
102
RTVSPropertyOp10
 70
     1
102
RTVSPropertyOp11
 70
     1
102
RTVSPropertyOp12
 70
     1
102
RTVSPropertyOp13
 70
     1
102
RTVSPropertyOp14
 70
     1
102
RTVSPropertyOp15
 70
     1
102
RTVSPropertyOp16
 70
     1
102
RTVSPropertyOp17
 70
     1
102
RTVSPropertyOp18
 70
     1
102
RTVSPropertyOp19
 70
     1
102
RTVSPropertyOp20
 70
     1
102
RTVSPropertyOp21
 70
     1
102
RTVSPropertyOp22
 70
     1
102
RTVSPropertyOp23
 70
     1
102
RTVSPropertyOp24
 70
     1
102
RTVSPropertyOp25
 70
     1
102
RTVSPropertyOp26
 70
     1
102
RTVSPropertyOp27
 70
     1
102
RTVSPropertyOp28
 70
     1
102
RTVSPropertyOp29
 70
     1
102
RTVSPropertyOp30
 70
     1
102
RTVSPropertyOp31
 70
     1
102
RTVSPropertyOp32
 70
     1
  0
XRECORD
  5
7EE
102
{ACAD_REACTORS
330
7ED
102
}
330
7ED
100
AcDbXrecord
280
     1
102
RTVSPropertyOp0
 70
     1
102
RTVSPropertyOp1
 70
     1
102
RTVSPropertyOp2
 70
     1
102
RTVSPropertyOp3
 70
     1
102
RTVSPropertyOp4
 70
     1
102
RTVSPropertyOp5
 70
     1
102
RTVSPropertyOp6
 70
     1
102
RTVSPropertyOp7
 70
     1
102
RTVSPropertyOp8
 70
     1
102
RTVSPropertyOp9
 70
     1
102
RTVSPropertyOp10
 70
     1
102
RTVSPropertyOp11
 70
     1
102
RTVSPropertyOp12
 70
     1
102
RTVSPropertyOp13
 70
     1
102
RTVSPropertyOp14
 70
     1
102
RTVSPropertyOp15
 70
     1
102
RTVSPropertyOp16
 70
     1
102
RTVSPropertyOp17
 70
     1
102
RTVSPropertyOp18
 70
     1
102
RTVSPropertyOp19
 70
     1
102
RTVSPropertyOp20
 70
     1
102
RTVSPropertyOp21
 70
     1
102
RTVSPropertyOp22
 70
     1
102
RTVSPropertyOp23
 70
     1
102
RTVSPropertyOp24
 70
     1
102
RTVSPropertyOp25
 70
     1
102
RTVSPropertyOp26
 70
     1
102
RTVSPropertyOp27
 70
     1
102
RTVSPropertyOp28
 70
     1
102
RTVSPropertyOp29
 70
     1
102
RTVSPropertyOp30
 70
     1
102
RTVSPropertyOp31
 70
     1
102
RTVSPropertyOp32
 70
     1
  0
XRECORD
  5
7F2
102
{ACAD_REACTORS
330
7F1
102
}
330
7F1
100
AcDbXrecord
280
     1
102
RTVSPropertyOp0
 70
     1
102
RTVSPropertyOp1
 70
     1
102
RTVSPropertyOp2
 70
     1
102
RTVSPropertyOp3
 70
     1
102
RTVSPropertyOp4
 70
     1
102
RTVSPropertyOp5
 70
     1
102
RTVSPropertyOp6
 70
     1
102
RTVSPropertyOp7
 70
     1
102
RTVSPropertyOp8
 70
     1
102
RTVSPropertyOp9
 70
     1
102
RTVSPropertyOp10
 70
     1
102
RTVSPropertyOp11
 70
     1
102
RTVSPropertyOp12
 70
     1
102
RTVSPropertyOp13
 70
     1
102
RTVSPropertyOp14
 70
     1
102
RTVSPropertyOp15
 70
     1
102
RTVSPropertyOp16
 70
     1
102
RTVSPropertyOp17
 70
     1
102
RTVSPropertyOp18
 70
     1
102
RTVSPropertyOp19
 70
     1
102
RTVSPropertyOp20
 70
     1
102
RTVSPropertyOp21
 70
     1
102
RTVSPropertyOp22
 70
     1
102
RTVSPropertyOp23
 70
     1
102
RTVSPropertyOp24
 70
     1
102
RTVSPropertyOp25
 70
     1
102
RTVSPropertyOp26
 70
     1
102
RTVSPropertyOp27
 70
     1
102
RTVSPropertyOp28
 70
     1
102
RTVSPropertyOp29
 70
     1
102
RTVSPropertyOp30
 70
     1
102
RTVSPropertyOp31
 70
     1
102
RTVSPropertyOp32
 70
     1
  0
XRECORD
  5
80C
102
{ACAD_REACTORS
330
80B
102
}
330
80B
100
AcDbXrecord
280
     1
102
RTVSPropertyOp0
 70
     0
102
RTVSPropertyOp1
 70
     0
102
RTVSPropertyOp2
 70
     0
102
RTVSPropertyOp3
 70
     0
102
RTVSPropertyOp4
 70
     0
102
RTVSPropertyOp5
 70
     0
102
RTVSPropertyOp6
 70
     0
102
RTVSPropertyOp7
 70
     0
102
RTVSPropertyOp8
 70
     0
102
RTVSPropertyOp9
 70
     0
102
RTVSPropertyOp10
 70
     0
102
RTVSPropertyOp11
 70
     0
102
RTVSPropertyOp12
 70
     0
102
RTVSPropertyOp13
 70
     0
102
RTVSPropertyOp14
 70
     2
102
RTVSPropertyOp15
 70
     0
102
RTVSPropertyOp16
 70
     0
102
RTVSPropertyOp17
 70
     0
102
RTVSPropertyOp18
 70
     0
102
RTVSPropertyOp19
 70
     0
102
RTVSPropertyOp20
 70
     0
102
RTVSPropertyOp21
 70
     0
102
RTVSPropertyOp22
 70
     0
102
RTVSPropertyOp23
 70
     0
102
RTVSPropertyOp24
 70
     0
102
RTVSPropertyOp25
 70
     0
102
RTVSPropertyOp26
 70
     0
102
RTVSPropertyOp27
 70
     0
102
RTVSPropertyOp28
 70
     0
102
RTVSPropertyOp29
 70
     0
102
RTVSPropertyOp30
 70
     0
102
RTVSPropertyOp31
 70
     0
102
RTVSPropertyOp32
 70
     0
  0
XRECORD
  5
7FA
102
{ACAD_REACTORS
330
7F9
102
}
330
7F9
100
AcDbXrecord
280
     1
102
RTVSPropertyOp0
 70
     1
102
RTVSPropertyOp1
 70
     1
102
RTVSPropertyOp2
 70
     1
102
RTVSPropertyOp3
 70
     1
102
RTVSPropertyOp4
 70
     1
102
RTVSPropertyOp5
 70
     1
102
RTVSPropertyOp6
 70
     1
102
RTVSPropertyOp7
 70
     1
102
RTVSPropertyOp8
 70
     1
102
RTVSPropertyOp9
 70
     1
102
RTVSPropertyOp10
 70
     1
102
RTVSPropertyOp11
 70
     1
102
RTVSPropertyOp12
 70
     1
102
RTVSPropertyOp13
 70
     1
102
RTVSPropertyOp14
 70
     1
102
RTVSPropertyOp15
 70
     1
102
RTVSPropertyOp16
 70
     1
102
RTVSPropertyOp17
 70
     1
102
RTVSPropertyOp18
 70
     1
102
RTVSPropertyOp19
 70
     1
102
RTVSPropertyOp20
 70
     1
102
RTVSPropertyOp21
 70
     1
102
RTVSPropertyOp22
 70
     1
102
RTVSPropertyOp23
 70
     1
102
RTVSPropertyOp24
 70
     1
102
RTVSPropertyOp25
 70
     1
102
RTVSPropertyOp26
 70
     1
102
RTVSPropertyOp27
 70
     1
102
RTVSPropertyOp28
 70
     1
102
RTVSPropertyOp29
 70
     1
102
RTVSPropertyOp30
 70
     1
102
RTVSPropertyOp31
 70
     1
102
RTVSPropertyOp32
 70
     1
  0
XRECORD
  5
7DE
102
{ACAD_REACTORS
330
7DD
102
}
330
7DD
100
AcDbXrecord
280
     1
102
RTVSPropertyOp0
 70
     1
102
RTVSPropertyOp1
 70
     1
102
RTVSPropertyOp2
 70
     1
102
RTVSPropertyOp3
 70
     1
102
RTVSPropertyOp4
 70
     1
102
RTVSPropertyOp5
 70
     1
102
RTVSPropertyOp6
 70
     1
102
RTVSPropertyOp7
 70
     1
102
RTVSPropertyOp8
 70
     1
102
RTVSPropertyOp9
 70
     1
102
RTVSPropertyOp10
 70
     1
102
RTVSPropertyOp11
 70
     1
102
RTVSPropertyOp12
 70
     1
102
RTVSPropertyOp13
 70
     1
102
RTVSPropertyOp14
 70
     1
102
RTVSPropertyOp15
 70
     1
102
RTVSPropertyOp16
 70
     1
102
RTVSPropertyOp17
 70
     1
102
RTVSPropertyOp18
 70
     1
102
RTVSPropertyOp19
 70
     1
102
RTVSPropertyOp20
 70
     1
102
RTVSPropertyOp21
 70
     1
102
RTVSPropertyOp22
 70
     1
102
RTVSPropertyOp23
 70
     1
102
RTVSPropertyOp24
 70
     1
102
RTVSPropertyOp25
 70
     1
102
RTVSPropertyOp26
 70
     1
102
RTVSPropertyOp27
 70
     1
102
RTVSPropertyOp28
 70
     1
102
RTVSPropertyOp29
 70
     1
102
RTVSPropertyOp30
 70
     1
102
RTVSPropertyOp31
 70
     1
102
RTVSPropertyOp32
 70
     1
  0
XRECORD
  5
7E0
102
{ACAD_REACTORS
330
7DF
102
}
330
7DF
100
AcDbXrecord
280
     1
102
RTVSPropertyOp0
 70
     1
102
RTVSPropertyOp1
 70
     1
102
RTVSPropertyOp2
 70
     1
102
RTVSPropertyOp3
 70
     1
102
RTVSPropertyOp4
 70
     1
102
RTVSPropertyOp5
 70
     1
102
RTVSPropertyOp6
 70
     1
102
RTVSPropertyOp7
 70
     1
102
RTVSPropertyOp8
 70
     1
102
RTVSPropertyOp9
 70
     1
102
RTVSPropertyOp10
 70
     1
102
RTVSPropertyOp11
 70
     1
102
RTVSPropertyOp12
 70
     1
102
RTVSPropertyOp13
 70
     1
102
RTVSPropertyOp14
 70
     1
102
RTVSPropertyOp15
 70
     1
102
RTVSPropertyOp16
 70
     1
102
RTVSPropertyOp17
 70
     1
102
RTVSPropertyOp18
 70
     1
102
RTVSPropertyOp19
 70
     1
102
RTVSPropertyOp20
 70
     1
102
RTVSPropertyOp21
 70
     1
102
RTVSPropertyOp22
 70
     1
102
RTVSPropertyOp23
 70
     1
102
RTVSPropertyOp24
 70
     1
102
RTVSPropertyOp25
 70
     1
102
RTVSPropertyOp26
 70
     1
102
RTVSPropertyOp27
 70
     1
102
RTVSPropertyOp28
 70
     1
102
RTVSPropertyOp29
 70
     1
102
RTVSPropertyOp30
 70
     1
102
RTVSPropertyOp31
 70
     1
102
RTVSPropertyOp32
 70
     1
  0
XRECORD
  5
7E2
102
{ACAD_REACTORS
330
7E1
102
}
330
7E1
100
AcDbXrecord
280
     1
102
RTVSPropertyOp0
 70
     1
102
RTVSPropertyOp1
 70
     1
102
RTVSPropertyOp2
 70
     1
102
RTVSPropertyOp3
 70
     1
102
RTVSPropertyOp4
 70
     1
102
RTVSPropertyOp5
 70
     1
102
RTVSPropertyOp6
 70
     1
102
RTVSPropertyOp7
 70
     1
102
RTVSPropertyOp8
 70
     1
102
RTVSPropertyOp9
 70
     1
102
RTVSPropertyOp10
 70
     1
102
RTVSPropertyOp11
 70
     1
102
RTVSPropertyOp12
 70
     1
102
RTVSPropertyOp13
 70
     1
102
RTVSPropertyOp14
 70
     1
102
RTVSPropertyOp15
 70
     1
102
RTVSPropertyOp16
 70
     1
102
RTVSPropertyOp17
 70
     1
102
RTVSPropertyOp18
 70
     1
102
RTVSPropertyOp19
 70
     1
102
RTVSPropertyOp20
 70
     1
102
RTVSPropertyOp21
 70
     1
102
RTVSPropertyOp22
 70
     1
102
RTVSPropertyOp23
 70
     1
102
RTVSPropertyOp24
 70
     1
102
RTVSPropertyOp25
 70
     1
102
RTVSPropertyOp26
 70
     1
102
RTVSPropertyOp27
 70
     1
102
RTVSPropertyOp28
 70
     1
102
RTVSPropertyOp29
 70
     1
102
RTVSPropertyOp30
 70
     1
102
RTVSPropertyOp31
 70
     1
102
RTVSPropertyOp32
 70
     1
  0
XRECORD
  5
7E4
102
{ACAD_REACTORS
330
7E3
102
}
330
7E3
100
AcDbXrecord
280
     1
102
RTVSPropertyOp0
 70
     1
102
RTVSPropertyOp1
 70
     1
102
RTVSPropertyOp2
 70
     1
102
RTVSPropertyOp3
 70
     1
102
RTVSPropertyOp4
 70
     1
102
RTVSPropertyOp5
 70
     1
102
RTVSPropertyOp6
 70
     1
102
RTVSPropertyOp7
 70
     1
102
RTVSPropertyOp8
 70
     1
102
RTVSPropertyOp9
 70
     1
102
RTVSPropertyOp10
 70
     1
102
RTVSPropertyOp11
 70
     1
102
RTVSPropertyOp12
 70
     1
102
RTVSPropertyOp13
 70
     1
102
RTVSPropertyOp14
 70
     1
102
RTVSPropertyOp15
 70
     1
102
RTVSPropertyOp16
 70
     1
102
RTVSPropertyOp17
 70
     1
102
RTVSPropertyOp18
 70
     1
102
RTVSPropertyOp19
 70
     1
102
RTVSPropertyOp20
 70
     1
102
RTVSPropertyOp21
 70
     1
102
RTVSPropertyOp22
 70
     1
102
RTVSPropertyOp23
 70
     1
102
RTVSPropertyOp24
 70
     1
102
RTVSPropertyOp25
 70
     1
102
RTVSPropertyOp26
 70
     1
102
RTVSPropertyOp27
 70
     1
102
RTVSPropertyOp28
 70
     1
102
RTVSPropertyOp29
 70
     1
102
RTVSPropertyOp30
 70
     1
102
RTVSPropertyOp31
 70
     1
102
RTVSPropertyOp32
 70
     1
  0
XRECORD
  5
7EC
102
{ACAD_REACTORS
330
7EB
102
}
330
7EB
100
AcDbXrecord
280
     1
102
RTVSPropertyOp0
 70
     1
102
RTVSPropertyOp1
 70
     1
102
RTVSPropertyOp2
 70
     1
102
RTVSPropertyOp3
 70
     1
102
RTVSPropertyOp4
 70
     1
102
RTVSPropertyOp5
 70
     1
102
RTVSPropertyOp6
 70
     1
102
RTVSPropertyOp7
 70
     1
102
RTVSPropertyOp8
 70
     1
102
RTVSPropertyOp9
 70
     1
102
RTVSPropertyOp10
 70
     1
102
RTVSPropertyOp11
 70
     1
102
RTVSPropertyOp12
 70
     1
102
RTVSPropertyOp13
 70
     1
102
RTVSPropertyOp14
 70
     1
102
RTVSPropertyOp15
 70
     1
102
RTVSPropertyOp16
 70
     1
102
RTVSPropertyOp17
 70
     1
102
RTVSPropertyOp18
 70
     1
102
RTVSPropertyOp19
 70
     1
102
RTVSPropertyOp20
 70
     1
102
RTVSPropertyOp21
 70
     1
102
RTVSPropertyOp22
 70
     1
102
RTVSPropertyOp23
 70
     1
102
RTVSPropertyOp24
 70
     1
102
RTVSPropertyOp25
 70
     1
102
RTVSPropertyOp26
 70
     1
102
RTVSPropertyOp27
 70
     1
102
RTVSPropertyOp28
 70
     1
102
RTVSPropertyOp29
 70
     1
102
RTVSPropertyOp30
 70
     1
102
RTVSPropertyOp31
 70
     1
102
RTVSPropertyOp32
 70
     1
  0
XRECORD
  5
808
102
{ACAD_REACTORS
330
807
102
}
330
807
100
AcDbXrecord
280
     1
102
RTVSPropertyOp0
 70
     0
102
RTVSPropertyOp1
 70
     0
102
RTVSPropertyOp2
 70
     0
102
RTVSPropertyOp3
 70
     0
102
RTVSPropertyOp4
 70
     0
102
RTVSPropertyOp5
 70
     0
102
RTVSPropertyOp6
 70
     0
102
RTVSPropertyOp7
 70
     0
102
RTVSPropertyOp8
 70
     0
102
RTVSPropertyOp9
 70
     0
102
RTVSPropertyOp10
 70
     0
102
RTVSPropertyOp11
 70
     0
102
RTVSPropertyOp12
 70
     0
102
RTVSPropertyOp13
 70
     0
102
RTVSPropertyOp14
 70
     2
102
RTVSPropertyOp15
 70
     0
102
RTVSPropertyOp16
 70
     0
102
RTVSPropertyOp17
 70
     0
102
RTVSPropertyOp18
 70
     0
102
RTVSPropertyOp19
 70
     0
102
RTVSPropertyOp20
 70
     0
102
RTVSPropertyOp21
 70
     0
102
RTVSPropertyOp22
 70
     0
102
RTVSPropertyOp23
 70
     0
102
RTVSPropertyOp24
 70
     0
102
RTVSPropertyOp25
 70
     0
102
RTVSPropertyOp26
 70
     0
102
RTVSPropertyOp27
 70
     0
102
RTVSPropertyOp28
 70
     0
102
RTVSPropertyOp29
 70
     0
102
RTVSPropertyOp30
 70
     0
102
RTVSPropertyOp31
 70
     0
102
RTVSPropertyOp32
 70
     0
  0
XRECORD
  5
7F8
102
{ACAD_REACTORS
330
7F7
102
}
330
7F7
100
AcDbXrecord
280
     1
102
RTVSPropertyOp0
 70
     1
102
RTVSPropertyOp1
 70
     1
102
RTVSPropertyOp2
 70
     1
102
RTVSPropertyOp3
 70
     1
102
RTVSPropertyOp4
 70
     1
102
RTVSPropertyOp5
 70
     1
102
RTVSPropertyOp6
 70
     1
102
RTVSPropertyOp7
 70
     1
102
RTVSPropertyOp8
 70
     1
102
RTVSPropertyOp9
 70
     1
102
RTVSPropertyOp10
 70
     1
102
RTVSPropertyOp11
 70
     1
102
RTVSPropertyOp12
 70
     1
102
RTVSPropertyOp13
 70
     1
102
RTVSPropertyOp14
 70
     1
102
RTVSPropertyOp15
 70
     1
102
RTVSPropertyOp16
 70
     1
102
RTVSPropertyOp17
 70
     1
102
RTVSPropertyOp18
 70
     1
102
RTVSPropertyOp19
 70
     1
102
RTVSPropertyOp20
 70
     1
102
RTVSPropertyOp21
 70
     1
102
RTVSPropertyOp22
 70
     1
102
RTVSPropertyOp23
 70
     1
102
RTVSPropertyOp24
 70
     1
102
RTVSPropertyOp25
 70
     1
102
RTVSPropertyOp26
 70
     1
102
RTVSPropertyOp27
 70
     1
102
RTVSPropertyOp28
 70
     1
102
RTVSPropertyOp29
 70
     1
102
RTVSPropertyOp30
 70
     1
102
RTVSPropertyOp31
 70
     1
102
RTVSPropertyOp32
 70
     1
  0
XRECORD
  5
80A
102
{ACAD_REACTORS
330
809
102
}
330
809
100
AcDbXrecord
280
     1
102
RTVSPropertyOp0
 70
     0
102
RTVSPropertyOp1
 70
     0
102
RTVSPropertyOp2
 70
     0
102
RTVSPropertyOp3
 70
     0
102
RTVSPropertyOp4
 70
     0
102
RTVSPropertyOp5
 70
     0
102
RTVSPropertyOp6
 70
     0
102
RTVSPropertyOp7
 70
     0
102
RTVSPropertyOp8
 70
     0
102
RTVSPropertyOp9
 70
     0
102
RTVSPropertyOp10
 70
     0
102
RTVSPropertyOp11
 70
     0
102
RTVSPropertyOp12
 70
     0
102
RTVSPropertyOp13
 70
     0
102
RTVSPropertyOp14
 70
     2
102
RTVSPropertyOp15
 70
     0
102
RTVSPropertyOp16
 70
     0
102
RTVSPropertyOp17
 70
     0
102
RTVSPropertyOp18
 70
     0
102
RTVSPropertyOp19
 70
     0
102
RTVSPropertyOp20
 70
     0
102
RTVSPropertyOp21
 70
     0
102
RTVSPropertyOp22
 70
     0
102
RTVSPropertyOp23
 70
     0
102
RTVSPropertyOp24
 70
     0
102
RTVSPropertyOp25
 70
     0
102
RTVSPropertyOp26
 70
     0
102
RTVSPropertyOp27
 70
     0
102
RTVSPropertyOp28
 70
     0
102
RTVSPropertyOp29
 70
     0
102
RTVSPropertyOp30
 70
     0
102
RTVSPropertyOp31
 70
     0
102
RTVSPropertyOp32
 70
     0
  0
XRECORD
  5
7F0
102
{ACAD_REACTORS
330
7EF
102
}
330
7EF
100
AcDbXrecord
280
     1
102
RTVSPropertyOp0
 70
     1
102
RTVSPropertyOp1
 70
     1
102
RTVSPropertyOp2
 70
     1
102
RTVSPropertyOp3
 70
     1
102
RTVSPropertyOp4
 70
     1
102
RTVSPropertyOp5
 70
     1
102
RTVSPropertyOp6
 70
     1
102
RTVSPropertyOp7
 70
     1
102
RTVSPropertyOp8
 70
     1
102
RTVSPropertyOp9
 70
     1
102
RTVSPropertyOp10
 70
     1
102
RTVSPropertyOp11
 70
     1
102
RTVSPropertyOp12
 70
     1
102
RTVSPropertyOp13
 70
     1
102
RTVSPropertyOp14
 70
     1
102
RTVSPropertyOp15
 70
     1
102
RTVSPropertyOp16
 70
     1
102
RTVSPropertyOp17
 70
     1
102
RTVSPropertyOp18
 70
     1
102
RTVSPropertyOp19
 70
     1
102
RTVSPropertyOp20
 70
     1
102
RTVSPropertyOp21
 70
     1
102
RTVSPropertyOp22
 70
     1
102
RTVSPropertyOp23
 70
     1
102
RTVSPropertyOp24
 70
     1
102
RTVSPropertyOp25
 70
     1
102
RTVSPropertyOp26
 70
     1
102
RTVSPropertyOp27
 70
     1
102
RTVSPropertyOp28
 70
     1
102
RTVSPropertyOp29
 70
     1
102
RTVSPropertyOp30
 70
     1
102
RTVSPropertyOp31
 70
     1
102
RTVSPropertyOp32
 70
     1
  0
XRECORD
  5
806
102
{ACAD_REACTORS
330
805
102
}
330
805
100
AcDbXrecord
280
     1
102
RTVSPropertyOp0
 70
     1
102
RTVSPropertyOp1
 70
     1
102
RTVSPropertyOp2
 70
     1
102
RTVSPropertyOp3
 70
     1
102
RTVSPropertyOp4
 70
     1
102
RTVSPropertyOp5
 70
     1
102
RTVSPropertyOp6
 70
     1
102
RTVSPropertyOp7
 70
     1
102
RTVSPropertyOp8
 70
     1
102
RTVSPropertyOp9
 70
     1
102
RTVSPropertyOp10
 70
     1
102
RTVSPropertyOp11
 70
     1
102
RTVSPropertyOp12
 70
     1
102
RTVSPropertyOp13
 70
     1
102
RTVSPropertyOp14
 70
     1
102
RTVSPropertyOp15
 70
     1
102
RTVSPropertyOp16
 70
     1
102
RTVSPropertyOp17
 70
     1
102
RTVSPropertyOp18
 70
     1
102
RTVSPropertyOp19
 70
     1
102
RTVSPropertyOp20
 70
     1
102
RTVSPropertyOp21
 70
     1
102
RTVSPropertyOp22
 70
     1
102
RTVSPropertyOp23
 70
     1
102
RTVSPropertyOp24
 70
     1
102
RTVSPropertyOp25
 70
     1
102
RTVSPropertyOp26
 70
     1
102
RTVSPropertyOp27
 70
     1
102
RTVSPropertyOp28
 70
     1
102
RTVSPropertyOp29
 70
     1
102
RTVSPropertyOp30
 70
     1
102
RTVSPropertyOp31
 70
     1
102
RTVSPropertyOp32
 70
     1
  0
XRECORD
  5
804
102
{ACAD_REACTORS
330
803
102
}
330
803
100
AcDbXrecord
280
     1
102
RTVSPropertyOp0
 70
     1
102
RTVSPropertyOp1
 70
     1
102
RTVSPropertyOp2
 70
     1
102
RTVSPropertyOp3
 70
     1
102
RTVSPropertyOp4
 70
     1
102
RTVSPropertyOp5
 70
     1
102
RTVSPropertyOp6
 70
     1
102
RTVSPropertyOp7
 70
     1
102
RTVSPropertyOp8
 70
     1
102
RTVSPropertyOp9
 70
     1
102
RTVSPropertyOp10
 70
     1
102
RTVSPropertyOp11
 70
     1
102
RTVSPropertyOp12
 70
     1
102
RTVSPropertyOp13
 70
     1
102
RTVSPropertyOp14
 70
     1
102
RTVSPropertyOp15
 70
     1
102
RTVSPropertyOp16
 70
     1
102
RTVSPropertyOp17
 70
     1
102
RTVSPropertyOp18
 70
     1
102
RTVSPropertyOp19
 70
     1
102
RTVSPropertyOp20
 70
     1
102
RTVSPropertyOp21
 70
     1
102
RTVSPropertyOp22
 70
     1
102
RTVSPropertyOp23
 70
     1
102
RTVSPropertyOp24
 70
     1
102
RTVSPropertyOp25
 70
     1
102
RTVSPropertyOp26
 70
     1
102
RTVSPropertyOp27
 70
     1
102
RTVSPropertyOp28
 70
     1
102
RTVSPropertyOp29
 70
     1
102
RTVSPropertyOp30
 70
     1
102
RTVSPropertyOp31
 70
     1
102
RTVSPropertyOp32
 70
     1
  0
XRECORD
  5
7FE
102
{ACAD_REACTORS
330
7FD
102
}
330
7FD
100
AcDbXrecord
280
     1
102
RTVSPropertyOp0
 70
     1
102
RTVSPropertyOp1
 70
     1
102
RTVSPropertyOp2
 70
     1
102
RTVSPropertyOp3
 70
     1
102
RTVSPropertyOp4
 70
     1
102
RTVSPropertyOp5
 70
     1
102
RTVSPropertyOp6
 70
     1
102
RTVSPropertyOp7
 70
     1
102
RTVSPropertyOp8
 70
     1
102
RTVSPropertyOp9
 70
     1
102
RTVSPropertyOp10
 70
     1
102
RTVSPropertyOp11
 70
     1
102
RTVSPropertyOp12
 70
     1
102
RTVSPropertyOp13
 70
     1
102
RTVSPropertyOp14
 70
     1
102
RTVSPropertyOp15
 70
     1
102
RTVSPropertyOp16
 70
     1
102
RTVSPropertyOp17
 70
     1
102
RTVSPropertyOp18
 70
     1
102
RTVSPropertyOp19
 70
     1
102
RTVSPropertyOp20
 70
     1
102
RTVSPropertyOp21
 70
     1
102
RTVSPropertyOp22
 70
     1
102
RTVSPropertyOp23
 70
     1
102
RTVSPropertyOp24
 70
     1
102
RTVSPropertyOp25
 70
     1
102
RTVSPropertyOp26
 70
     1
102
RTVSPropertyOp27
 70
     1
102
RTVSPropertyOp28
 70
     1
102
RTVSPropertyOp29
 70
     1
102
RTVSPropertyOp30
 70
     1
102
RTVSPropertyOp31
 70
     1
102
RTVSPropertyOp32
 70
     1
  0
XRECORD
  5
800
102
{ACAD_REACTORS
330
7FF
102
}
330
7FF
100
AcDbXrecord
280
     1
102
RTVSPropertyOp0
 70
     1
102
RTVSPropertyOp1
 70
     1
102
RTVSPropertyOp2
 70
     1
102
RTVSPropertyOp3
 70
     1
102
RTVSPropertyOp4
 70
     1
102
RTVSPropertyOp5
 70
     1
102
RTVSPropertyOp6
 70
     1
102
RTVSPropertyOp7
 70
     1
102
RTVSPropertyOp8
 70
     1
102
RTVSPropertyOp9
 70
     1
102
RTVSPropertyOp10
 70
     1
102
RTVSPropertyOp11
 70
     1
102
RTVSPropertyOp12
 70
     1
102
RTVSPropertyOp13
 70
     1
102
RTVSPropertyOp14
 70
     1
102
RTVSPropertyOp15
 70
     1
102
RTVSPropertyOp16
 70
     1
102
RTVSPropertyOp17
 70
     1
102
RTVSPropertyOp18
 70
     1
102
RTVSPropertyOp19
 70
     1
102
RTVSPropertyOp20
 70
     1
102
RTVSPropertyOp21
 70
     1
102
RTVSPropertyOp22
 70
     1
102
RTVSPropertyOp23
 70
     1
102
RTVSPropertyOp24
 70
     1
102
RTVSPropertyOp25
 70
     1
102
RTVSPropertyOp26
 70
     1
102
RTVSPropertyOp27
 70
     1
102
RTVSPropertyOp28
 70
     1
102
RTVSPropertyOp29
 70
     1
102
RTVSPropertyOp30
 70
     1
102
RTVSPropertyOp31
 70
     1
102
RTVSPropertyOp32
 70
     1
  0
XRECORD
  5
7F6
102
{ACAD_REACTORS
330
7F5
102
}
330
7F5
100
AcDbXrecord
280
     1
102
RTVSPropertyOp0
 70
     1
102
RTVSPropertyOp1
 70
     1
102
RTVSPropertyOp2
 70
     1
102
RTVSPropertyOp3
 70
     1
102
RTVSPropertyOp4
 70
     1
102
RTVSPropertyOp5
 70
     1
102
RTVSPropertyOp6
 70
     1
102
RTVSPropertyOp7
 70
     1
102
RTVSPropertyOp8
 70
     1
102
RTVSPropertyOp9
 70
     1
102
RTVSPropertyOp10
 70
     1
102
RTVSPropertyOp11
 70
     1
102
RTVSPropertyOp12
 70
     1
102
RTVSPropertyOp13
 70
     1
102
RTVSPropertyOp14
 70
     1
102
RTVSPropertyOp15
 70
     1
102
RTVSPropertyOp16
 70
     1
102
RTVSPropertyOp17
 70
     1
102
RTVSPropertyOp18
 70
     1
102
RTVSPropertyOp19
 70
     1
102
RTVSPropertyOp20
 70
     1
102
RTVSPropertyOp21
 70
     1
102
RTVSPropertyOp22
 70
     1
102
RTVSPropertyOp23
 70
     1
102
RTVSPropertyOp24
 70
     1
102
RTVSPropertyOp25
 70
     1
102
RTVSPropertyOp26
 70
     1
102
RTVSPropertyOp27
 70
     1
102
RTVSPropertyOp28
 70
     1
102
RTVSPropertyOp29
 70
     1
102
RTVSPropertyOp30
 70
     1
102
RTVSPropertyOp31
 70
     1
102
RTVSPropertyOp32
 70
     1
  0
XRECORD
  5
7EA
102
{ACAD_REACTORS
330
7E9
102
}
330
7E9
100
AcDbXrecord
280
     1
102
RTVSPropertyOp0
 70
     1
102
RTVSPropertyOp1
 70
     1
102
RTVSPropertyOp2
 70
     1
102
RTVSPropertyOp3
 70
     1
102
RTVSPropertyOp4
 70
     1
102
RTVSPropertyOp5
 70
     1
102
RTVSPropertyOp6
 70
     1
102
RTVSPropertyOp7
 70
     1
102
RTVSPropertyOp8
 70
     1
102
RTVSPropertyOp9
 70
     1
102
RTVSPropertyOp10
 70
     1
102
RTVSPropertyOp11
 70
     1
102
RTVSPropertyOp12
 70
     1
102
RTVSPropertyOp13
 70
     1
102
RTVSPropertyOp14
 70
     1
102
RTVSPropertyOp15
 70
     1
102
RTVSPropertyOp16
 70
     1
102
RTVSPropertyOp17
 70
     1
102
RTVSPropertyOp18
 70
     1
102
RTVSPropertyOp19
 70
     1
102
RTVSPropertyOp20
 70
     1
102
RTVSPropertyOp21
 70
     1
102
RTVSPropertyOp22
 70
     1
102
RTVSPropertyOp23
 70
     1
102
RTVSPropertyOp24
 70
     1
102
RTVSPropertyOp25
 70
     1
102
RTVSPropertyOp26
 70
     1
102
RTVSPropertyOp27
 70
     1
102
RTVSPropertyOp28
 70
     1
102
RTVSPropertyOp29
 70
     1
102
RTVSPropertyOp30
 70
     1
102
RTVSPropertyOp31
 70
     1
102
RTVSPropertyOp32
 70
     1
  0
XRECORD
  5
802
102
{ACAD_REACTORS
330
801
102
}
330
801
100
AcDbXrecord
280
     1
102
RTVSPropertyOp0
 70
     1
102
RTVSPropertyOp1
 70
     1
102
RTVSPropertyOp2
 70
     1
102
RTVSPropertyOp3
 70
     1
102
RTVSPropertyOp4
 70
     1
102
RTVSPropertyOp5
 70
     1
102
RTVSPropertyOp6
 70
     1
102
RTVSPropertyOp7
 70
     1
102
RTVSPropertyOp8
 70
     1
102
RTVSPropertyOp9
 70
     1
102
RTVSPropertyOp10
 70
     1
102
RTVSPropertyOp11
 70
     1
102
RTVSPropertyOp12
 70
     1
102
RTVSPropertyOp13
 70
     1
102
RTVSPropertyOp14
 70
     1
102
RTVSPropertyOp15
 70
     1
102
RTVSPropertyOp16
 70
     1
102
RTVSPropertyOp17
 70
     1
102
RTVSPropertyOp18
 70
     1
102
RTVSPropertyOp19
 70
     1
102
RTVSPropertyOp20
 70
     1
102
RTVSPropertyOp21
 70
     1
102
RTVSPropertyOp22
 70
     1
102
RTVSPropertyOp23
 70
     1
102
RTVSPropertyOp24
 70
     1
102
RTVSPropertyOp25
 70
     1
102
RTVSPropertyOp26
 70
     1
102
RTVSPropertyOp27
 70
     1
102
RTVSPropertyOp28
 70
     1
102
RTVSPropertyOp29
 70
     1
102
RTVSPropertyOp30
 70
     1
102
RTVSPropertyOp31
 70
     1
102
RTVSPropertyOp32
 70
     1
  0
ENDSEC
  0
EOF
