  0
SECTION
  2
HEADER
  9
$ACADVER
  1
AC1015
  9
$ACADMAINTVER
 70
    20
  9
$DWGCODEPAGE
  3
ANSI_932
  9
$INSBASE
 10
0.0
 20
0.0
 30
0.0
  9
$EXTMIN
 10
284.985639
 20
-25.48383800000002
 30
0.0
  9
$EXTMAX
 10
689.985639
 20
254.34679
 30
0.0
  9
$LIMMIN
 10
284.984626
 20
-25.484837
  9
$LIMMAX
 10
690.0124749999998
 20
254.347786
  9
$ORTHOMODE
 70
     1
  9
$REGENMODE
 70
     1
  9
$FILLMODE
 70
     1
  9
$QTEXTMODE
 70
     0
  9
$MIRRTEXT
 70
     0
  9
$LTSCALE
 40
6.750430999999998
  9
$ATTMODE
 70
     1
  9
$TEXTSIZE
 40
3.2
  9
$TRACEWID
 40
0.05
  9
$TEXTSTYLE
  7
高3.2
  9
$CLAYER
  8
0
  9
$CELTYPE
  6
CONTINUOUS
  9
$CECOLOR
 62
   256
  9
$CELTSCALE
 40
1.0
  9
$DISPSILH
 70
     0
  9
$DIMSCALE
 40
1.0
  9
$DIMASZ
 40
2.5
  9
$DIMEXO
 40
0.25
  9
$DIMDLI
 40
0.2
  9
$DIMRND
 40
0.0
  9
$DIMDLE
 40
0.0
  9
$DIMEXE
 40
1.25
  9
$DIMTP
 40
0.0
  9
$DIMTM
 40
0.0
  9
$DIMTXT
 40
3.0
  9
$DIMCEN
 40
0.0
  9
$DIMTSZ
 40
0.0
  9
$DIMTOL
 70
     0
  9
$DIMLIM
 70
     0
  9
$DIMTIH
 70
     0
  9
$DIMTOH
 70
     0
  9
$DIMSE1
 70
     0
  9
$DIMSE2
 70
     0
  9
$DIMTAD
 70
     3
  9
$DIMZIN
 70
     8
  9
$DIMBLK
  1
Open30
  9
$DIMASO
 70
     1
  9
$DIMSHO
 70
     1
  9
$DIMPOST
  1

  9
$DIMAPOST
  1

  9
$DIMALT
 70
     0
  9
$DIMALTD
 70
     3
  9
$DIMALTF
 40
0.03937007874016
  9
$DIMLFAC
 40
1.0
  9
$DIMTOFL
 70
     1
  9
$DIMTVP
 40
0.0
  9
$DIMTIX
 70
     0
  9
$DIMSOXD
 70
     0
  9
$DIMSAH
 70
     0
  9
$DIMBLK1
  1

  9
$DIMBLK2
  1

  9
$DIMSTYLE
  2
FREE
  9
$DIMCLRD
 70
     0
  9
$DIMCLRE
 70
     0
  9
$DIMCLRT
 70
     4
  9
$DIMTFAC
 40
1.0
  9
$DIMGAP
 40
0.625
  9
$DIMJUST
 70
     0
  9
$DIMSD1
 70
     0
  9
$DIMSD2
 70
     0
  9
$DIMTOLJ
 70
     0
  9
$DIMTZIN
 70
     8
  9
$DIMALTZ
 70
     0
  9
$DIMALTTZ
 70
     0
  9
$DIMUPT
 70
     1
  9
$DIMDEC
 70
     2
  9
$DIMTDEC
 70
     2
  9
$DIMALTU
 70
     2
  9
$DIMALTTD
 70
     3
  9
$DIMTXSTY
  7
STANDARD
  9
$DIMAUNIT
 70
     0
  9
$DIMADEC
 70
     1
  9
$DIMALTRND
 40
0.0
  9
$DIMAZIN
 70
     2
  9
$DIMDSEP
 70
    46
  9
$DIMATFIT
 70
     0
  9
$DIMFRAC
 70
     0
  9
$DIMLDRBLK
  1
Open30
  9
$DIMLUNIT
 70
     2
  9
$DIMLWD
 70
    -2
  9
$DIMLWE
 70
    -2
  9
$DIMTMOVE
 70
     0
  9
$LUNITS
 70
     2
  9
$LUPREC
 70
     4
  9
$SKETCHINC
 40
0.1
  9
$FILLETRAD
 40
0.0
  9
$AUNITS
 70
     0
  9
$AUPREC
 70
     0
  9
$MENU
  1
.
  9
$ELEVATION
 40
0.0
  9
$PELEVATION
 40
0.0
  9
$THICKNESS
 40
0.0
  9
$LIMCHECK
 70
     0
  9
$CHAMFERA
 40
0.0
  9
$CHAMFERB
 40
0.0
  9
$CHAMFERC
 40
0.0
  9
$CHAMFERD
 40
0.0
  9
$SKPOLY
 70
     0
  9
$TDCREATE
 40
2456311.553654988
  9
$TDUCREATE
 40
2456311.178654988
  9
$TDUPDATE
 40
2456850.441227847
  9
$TDUUPDATE
 40
2456850.066227847
  9
$TDINDWG
 40
0.0321101505
  9
$TDUSRTIMER
 40
0.0321101505
  9
$USRTIMER
 70
     1
  9
$ANGBASE
 50
0.0
  9
$ANGDIR
 70
     0
  9
$PDMODE
 70
     0
  9
$PDSIZE
 40
0.0
  9
$PLINEWID
 40
0.0
  9
$SPLFRAME
 70
     0
  9
$SPLINETYPE
 70
     6
  9
$SPLINESEGS
 70
     8
  9
$HANDSEED
  5
845
  9
$SURFTAB1
 70
     6
  9
$SURFTAB2
 70
     6
  9
$SURFTYPE
 70
     6
  9
$SURFU
 70
     6
  9
$SURFV
 70
     6
  9
$UCSBASE
  2

  9
$UCSNAME
  2

  9
$UCSORG
 10
0.0
 20
0.0
 30
0.0
  9
$UCSXDIR
 10
1.0
 20
0.0
 30
0.0
  9
$UCSYDIR
 10
0.0
 20
1.0
 30
0.0
  9
$UCSORTHOREF
  2

  9
$UCSORTHOVIEW
 70
     0
  9
$UCSORGTOP
 10
0.0
 20
0.0
 30
0.0
  9
$UCSORGBOTTOM
 10
0.0
 20
0.0
 30
0.0
  9
$UCSORGLEFT
 10
0.0
 20
0.0
 30
0.0
  9
$UCSORGRIGHT
 10
0.0
 20
0.0
 30
0.0
  9
$UCSORGFRONT
 10
0.0
 20
0.0
 30
0.0
  9
$UCSORGBACK
 10
0.0
 20
0.0
 30
0.0
  9
$PUCSBASE
  2

  9
$PUCSNAME
  2

  9
$PUCSORG
 10
0.0
 20
0.0
 30
0.0
  9
$PUCSXDIR
 10
1.0
 20
0.0
 30
0.0
  9
$PUCSYDIR
 10
0.0
 20
1.0
 30
0.0
  9
$PUCSORTHOREF
  2

  9
$PUCSORTHOVIEW
 70
     0
  9
$PUCSORGTOP
 10
0.0
 20
0.0
 30
0.0
  9
$PUCSORGBOTTOM
 10
0.0
 20
0.0
 30
0.0
  9
$PUCSORGLEFT
 10
0.0
 20
0.0
 30
0.0
  9
$PUCSORGRIGHT
 10
0.0
 20
0.0
 30
0.0
  9
$PUCSORGFRONT
 10
0.0
 20
0.0
 30
0.0
  9
$PUCSORGBACK
 10
0.0
 20
0.0
 30
0.0
  9
$USERI1
 70
     0
  9
$USERI2
 70
     0
  9
$USERI3
 70
     0
  9
$USERI4
 70
     0
  9
$USERI5
 70
     0
  9
$USERR1
 40
0.0
  9
$USERR2
 40
0.0
  9
$USERR3
 40
0.0
  9
$USERR4
 40
0.0
  9
$USERR5
 40
0.0
  9
$WORLDVIEW
 70
     1
  9
$SHADEDGE
 70
     3
  9
$SHADEDIF
 70
    70
  9
$TILEMODE
 70
     1
  9
$MAXACTVP
 70
    64
  9
$PINSBASE
 10
0.0
 20
0.0
 30
0.0
  9
$PLIMCHECK
 70
     0
  9
$PEXTMIN
 10
1.000000000000000E+20
 20
1.000000000000000E+20
 30
1.000000000000000E+20
  9
$PEXTMAX
 10
-1.000000000000000E+20
 20
-1.000000000000000E+20
 30
-1.000000000000000E+20
  9
$PLIMMIN
 10
0.0
 20
0.0
  9
$PLIMMAX
 10
12.0
 20
9.0
  9
$UNITMODE
 70
     0
  9
$VISRETAIN
 70
     1
  9
$PLINEGEN
 70
     0
  9
$PSLTSCALE
 70
     1
  9
$TREEDEPTH
 70
  3020
  9
$CMLSTYLE
  2
Standard
  9
$CMLJUST
 70
     0
  9
$CMLSCALE
 40
1.0
  9
$PROXYGRAPHICS
 70
     1
  9
$MEASUREMENT
 70
     0
  9
$CELWEIGHT
370
    -1
  9
$ENDCAPS
280
     0
  9
$JOINSTYLE
280
     0
  9
$LWDISPLAY
290
     0
  9
$INSUNITS
 70
     0
  9
$HYPERLINKBASE
  1

  9
$STYLESHEET
  1

  9
$XEDIT
290
     1
  9
$CEPSNTYPE
380
     0
  9
$PSTYLEMODE
290
     1
  9
$FINGERPRINTGUID
  2
{A018BD20-B29E-4E7F-8681-96A3BBC5018A}
  9
$VERSIONGUID
  2
{1A6CFEF6-2606-4C56-947E-6EC5BA295939}
  9
$EXTNAMES
290
     1
  9
$PSVPSCALE
 40
0.0
  9
$OLESTARTUP
290
     0
  0
ENDSEC
  0
SECTION
  2
CLASSES
  0
CLASS
  1
ACDBDICTIONARYWDFLT
  2
AcDbDictionaryWithDefault
  3
ObjectDBX Classes
 90
        0
280
     0
281
     0
  0
CLASS
  1
MATERIAL
  2
AcDbMaterial
  3
ObjectDBX Classes
 90
     1153
280
     0
281
     0
  0
CLASS
  1
VISUALSTYLE
  2
AcDbVisualStyle
  3
ObjectDBX Classes
 90
     4095
280
     0
281
     0
  0
CLASS
  1
SCALE
  2
AcDbScale
  3
ObjectDBX Classes
 90
     1153
280
     0
281
     0
  0
CLASS
  1
TABLESTYLE
  2
AcDbTableStyle
  3
ObjectDBX Classes
 90
     4095
280
     0
281
     0
  0
CLASS
  1
MLEADERSTYLE
  2
AcDbMLeaderStyle
  3
ACDB_MLEADERSTYLE_CLASS
 90
     4095
280
     0
281
     0
  0
CLASS
  1
SORTENTSTABLE
  2
AcDbSortentsTable
  3
ObjectDBX Classes
 90
        0
280
     0
281
     0
  0
CLASS
  1
DICTIONARYVAR
  2
AcDbDictionaryVar
  3
ObjectDBX Classes
 90
        0
280
     0
281
     0
  0
CLASS
  1
CELLSTYLEMAP
  2
AcDbCellStyleMap
  3
ObjectDBX Classes
 90
     1152
280
     0
281
     0
  0
CLASS
  1
ACDBPLACEHOLDER
  2
AcDbPlaceHolder
  3
ObjectDBX Classes
 90
        0
280
     0
281
     0
  0
CLASS
  1
LAYOUT
  2
AcDbLayout
  3
ObjectDBX Classes
 90
        0
280
     0
281
     0
  0
ENDSEC
  0
SECTION
  2
TABLES
  0
TABLE
  2
VPORT
  5
8
330
0
100
AcDbSymbolTable
 70
     1
  0
VPORT
  5
8B
330
8
100
AcDbSymbolTableRecord
100
AcDbViewportTableRecord
  2
*Active
 70
     0
 10
0.0
 20
0.0
 11
1.0
 21
1.0
 12
582.109085712944
 22
90.4991592812297
 13
0.0
 23
0.0
 14
1.0
 24
1.0
 15
0.0
 25
0.0
 16
0.0
 26
0.0
 36
1.0
 17
0.0
 27
0.0
 37
0.0
 40
561.3528050397528
 41
2.077302631578947
 42
50.0
 43
0.0
 44
0.0
 50
0.0
 51
0.0
 71
     0
 72
   100
 73
     1
 74
     1
 75
     0
 76
     0
 77
     0
 78
     0
281
     0
 65
     1
110
0.0
120
0.0
130
0.0
111
1.0
121
0.0
131
0.0
112
0.0
122
1.0
132
0.0
 79
     0
146
0.0
  0
ENDTAB
  0
TABLE
  2
LTYPE
  5
5
330
0
100
AcDbSymbolTable
 70
    26
  0
LTYPE
  5
5A
330
5
100
AcDbSymbolTableRecord
100
AcDbLinetypeTableRecord
  2
ByBlock
 70
     0
  3

 72
    65
 73
     0
 40
0.0
  0
LTYPE
  5
5B
330
5
100
AcDbSymbolTableRecord
100
AcDbLinetypeTableRecord
  2
ByLayer
 70
     0
  3

 72
    65
 73
     0
 40
0.0
  0
LTYPE
  5
5C
330
5
100
AcDbSymbolTableRecord
100
AcDbLinetypeTableRecord
  2
CONTINUOUS
 70
     0
  3
Solid-line
 72
    65
 73
     0
 40
0.0
  0
ENDTAB
  0
TABLE
  2
LAYER
  5
2
102
{ACAD_XDICTIONARY
360
4E7
102
}
330
0
100
AcDbSymbolTable
 70
     3
  0
LAYER
  5
54
102
{ACAD_XDICTIONARY
360
687
102
}
330
2
100
AcDbSymbolTableRecord
100
AcDbLayerTableRecord
  2
0
 70
     0
 62
     7
  6
CONTINUOUS
370
    -3
390
F
  0
LAYER
  5
4D2
330
2
100
AcDbSymbolTableRecord
100
AcDbLayerTableRecord
  2
Defpoints
 70
     0
 62
     7
  6
CONTINUOUS
290
     0
370
    -3
390
F
  0
ENDTAB
  0
TABLE
  2
STYLE
  5
3
330
0
100
AcDbSymbolTable
 70
     8
  0
STYLE
  5
55
330
3
100
AcDbSymbolTableRecord
100
AcDbTextStyleTableRecord
  2
STANDARD
 70
     0
 40
0.0
 41
1.0
 50
0.0
 71
     0
 42
0.2
  3
TXT
  4
BIGFONT
  0
STYLE
  5
4D3
330
3
100
AcDbSymbolTableRecord
100
AcDbTextStyleTableRecord
  2
高3.2
 70
     0
 40
3.2
 41
1.0
 50
0.0
 71
     0
 42
3.2
  3
txt.shx
  4
bigfont.shx
  0
STYLE
  5
4D4
330
3
100
AcDbSymbolTableRecord
100
AcDbTextStyleTableRecord
  2
高6.3
 70
     0
 40
6.299999999999998
 41
1.0
 50
0.0
 71
     0
 42
6.299999999999998
  3
txt.shx
  4
bigfont.shx
  0
STYLE
  5
4D6
330
3
100
AcDbSymbolTableRecord
100
AcDbTextStyleTableRecord
  2
高4.5
 70
     0
 40
4.5
 41
1.0
 50
0.0
 71
     0
 42
6.299999999999998
  3
txt.shx
  4
bigfont.shx
  0
STYLE
  5
4D7
330
3
100
AcDbSymbolTableRecord
100
AcDbTextStyleTableRecord
  2
高2
 70
     0
 40
2.0
 41
1.0
 50
0.0
 71
     0
 42
2.0
  3
txt.shx
  4
bigfont.shx
  0
ENDTAB
  0
TABLE
  2
VIEW
  5
6
330
0
100
AcDbSymbolTable
 70
     0
  0
ENDTAB
  0
TABLE
  2
UCS
  5
7
330
0
100
AcDbSymbolTable
 70
     0
  0
ENDTAB
  0
TABLE
  2
APPID
  5
9
330
0
100
AcDbSymbolTable
 70
    10
  0
APPID
  5
56
330
9
100
AcDbSymbolTableRecord
100
AcDbRegAppTableRecord
  2
ACAD
 70
     0
  0
APPID
  5
5D
330
9
100
AcDbSymbolTableRecord
100
AcDbRegAppTableRecord
  2
AcadAnnotative
 70
     0
  0
APPID
  5
4E2
330
9
100
AcDbSymbolTableRecord
100
AcDbRegAppTableRecord
  2
ACAD_DSTYLE_DIMJOGGED_JOGANGLE_SYMBOL
 70
     0
  0
APPID
  5
4E3
330
9
100
AcDbSymbolTableRecord
100
AcDbRegAppTableRecord
  2
ACAD_DSTYLE_DIMJAG
 70
     0
  0
APPID
  5
4E4
330
9
100
AcDbSymbolTableRecord
100
AcDbRegAppTableRecord
  2
ACAD_DSTYLE_DIMBREAK
 70
     0
  0
APPID
  5
4E5
330
9
100
AcDbSymbolTableRecord
100
AcDbRegAppTableRecord
  2
ACAD_DSTYLE_DIMTALN
 70
     0
  0
APPID
  5
63E
330
9
100
AcDbSymbolTableRecord
100
AcDbRegAppTableRecord
  2
ACAD_EXEMPT_FROM_CAD_STANDARDS
 70
     0
  0
APPID
  5
6CF
330
9
100
AcDbSymbolTableRecord
100
AcDbRegAppTableRecord
  2
ACAD_MLEADERVER
 70
     0
  0
APPID
  5
6D4
330
9
100
AcDbSymbolTableRecord
100
AcDbRegAppTableRecord
  2
ACAD_DSTYLE_DIMARC_LENGTH_SYMBOL
 70
     0
  0
APPID
  5
6D5
330
9
100
AcDbSymbolTableRecord
100
AcDbRegAppTableRecord
  2
ACAD_DSTYLE_DIMEXT_LENGTH
 70
     0
  0
ENDTAB
  0
TABLE
  2
DIMSTYLE
  5
A
330
0
100
AcDbSymbolTable
 70
    12
100
AcDbDimStyleTable
 71
     3
340
4D8
340
57
340
4E1
  0
DIMSTYLE
105
57
330
A
100
AcDbSymbolTableRecord
100
AcDbDimStyleTableRecord
  2
Standard
 70
     0
340
55
  0
DIMSTYLE
105
4D8
330
A
100
AcDbSymbolTableRecord
100
AcDbDimStyleTableRecord
  2
1：1
 70
     0
 41
2.5
 42
0.25
 43
0.2
 44
1.25
 73
     0
 74
     0
 77
     3
 78
     8
 79
     2
140
3.0
141
0.0
143
0.03937007874016
147
0.625
171
     3
172
     1
178
     4
179
     1
271
     2
272
     2
274
     3
283
     0
284
     8
288
     1
289
     0
340
55
341
442
342
442
1001
ACAD_DSTYLE_DIMARC_LENGTH_SYMBOL
1070
   379
1070
     2
1001
ACAD_DSTYLE_DIMEXT_LENGTH
1070
   378
1040
1.25
1001
ACAD_DSTYLE_DIMJOGGED_JOGANGLE_SYMBOL
1070
   384
1040
1.570796326794896
  0
DIMSTYLE
105
4E1
330
A
100
AcDbSymbolTableRecord
100
AcDbDimStyleTableRecord
  2
FREE
 70
     0
 41
2.5
 42
0.25
 43
0.2
 44
1.25
 73
     0
 74
     0
 77
     3
 78
     8
 79
     2
140
3.0
141
0.0
143
0.03937007874016
147
0.625
171
     3
172
     1
178
     4
179
     1
271
     2
272
     2
274
     3
283
     0
284
     8
288
     1
289
     0
340
55
341
442
342
442
1001
ACAD_DSTYLE_DIMBREAK
1070
   391
1040
3.75
1001
ACAD_DSTYLE_DIMJAG
1070
   388
1040
1.5
1001
ACAD_DSTYLE_DIMTALN
1070
   392
1070
     0
1001
ACAD_DSTYLE_DIMARC_LENGTH_SYMBOL
1070
   379
1070
     2
1001
ACAD_DSTYLE_DIMEXT_LENGTH
1070
   378
1040
1.25
1001
ACAD_DSTYLE_DIMJOGGED_JOGANGLE_SYMBOL
1070
   384
1040
1.570796326794896
  0
ENDTAB
  0
TABLE
  2
BLOCK_RECORD
  5
1
330
0
100
AcDbSymbolTable
 70
    29
  0
BLOCK_RECORD
  5
6B
102
{ACAD_XDICTIONARY
360
759
102
}
330
1
100
AcDbSymbolTableRecord
100
AcDbBlockTableRecord
  2
*Model_Space
340
6E
  0
BLOCK_RECORD
  5
67
330
1
100
AcDbSymbolTableRecord
100
AcDbBlockTableRecord
  2
*Paper_Space
340
6A
  0
BLOCK_RECORD
  5
442
330
1
100
AcDbSymbolTableRecord
100
AcDbBlockTableRecord
  2
_Open30
340
0
102
{BLKREFS
331
6FA
331
6FB
331
705
331
706
331
70E
331
70F
102
}
  0
BLOCK_RECORD
  5
628
330
1
100
AcDbSymbolTableRecord
100
AcDbBlockTableRecord
  2
*D25
340
0
  0
BLOCK_RECORD
  5
660
330
1
100
AcDbSymbolTableRecord
100
AcDbBlockTableRecord
  2
*D27
340
0
  0
BLOCK_RECORD
  5
675
330
1
100
AcDbSymbolTableRecord
100
AcDbBlockTableRecord
  2
*D28
340
0
  0
ENDTAB
  0
ENDSEC
  0
SECTION
  2
BLOCKS
  0
BLOCK
  5
6C
330
6B
100
AcDbEntity
  8
0
100
AcDbBlockBegin
  2
*Model_Space
 70
     0
 10
0.0
 20
0.0
 30
0.0
  3
*Model_Space
  1

  0
ENDBLK
  5
6D
330
6B
100
AcDbEntity
  8
0
100
AcDbBlockEnd
  0
BLOCK
  5
68
330
67
100
AcDbEntity
 67
     1
  8
0
100
AcDbBlockBegin
  2
*Paper_Space
 70
     0
 10
0.0
 20
0.0
 30
0.0
  3
*Paper_Space
  1

  0
ENDBLK
  5
69
330
67
100
AcDbEntity
 67
     1
  8
0
100
AcDbBlockEnd
  0
BLOCK
  5
443
330
442
100
AcDbEntity
  8
0
100
AcDbBlockBegin
  2
_Open30
 70
     0
 10
0.0
 20
0.0
 30
0.0
  3
_Open30
  1

  0
LINE
  5
444
330
442
100
AcDbEntity
  8
0
  6
ByBlock
 62
     0
370
    -2
100
AcDbLine
 10
-1.0
 20
0.267949
 30
0.0
 11
0.0
 21
0.0
 31
0.0
  0
LINE
  5
445
330
442
100
AcDbEntity
  8
0
  6
ByBlock
 62
     0
370
    -2
100
AcDbLine
 10
0.0
 20
0.0
 30
0.0
 11
-1.0
 21
-0.267949
 31
0.0
  0
LINE
  5
446
330
442
100
AcDbEntity
  8
0
  6
ByBlock
 62
     0
370
    -2
100
AcDbLine
 10
0.0
 20
0.0
 30
0.0
 11
-1.0
 21
0.0
 31
0.0
  0
ENDBLK
  5
447
330
442
100
AcDbEntity
  8
0
100
AcDbBlockEnd
  0
BLOCK
  5
629
330
628
100
AcDbEntity
  8
0
100
AcDbBlockBegin
  2
*D25
 70
     1
 10
0.0
 20
0.0
 30
0.0
  3
*D25
  1

  0
LINE
  5
6F7
330
628
100
AcDbEntity
  8
0
  6
Continuous
 62
     0
370
    -2
100
AcDbLine
 10
536.5981689999999
 20
183.583439
 30
0.0
 11
536.5981689999999
 21
196.3916874865387
 31
0.0
  0
LINE
  5
6F8
330
628
100
AcDbEntity
  8
0
  6
Continuous
 62
     0
370
    -2
100
AcDbLine
 10
460.111673
 20
183.583439
 30
0.0
 11
460.111673
 21
196.3916874865387
 31
0.0
  0
LINE
  5
6F9
330
628
100
AcDbEntity
  8
0
  6
Continuous
 62
     0
370
    -2
100
AcDbLine
 10
534.0981689999998
 20
195.1416874865387
 30
0.0
 11
462.611673
 21
195.1416874865387
 31
0.0
  0
INSERT
  5
6FA
330
628
100
AcDbEntity
  8
0
  6
Continuous
 62
     0
370
    -2
100
AcDbBlockReference
  2
_Open30
 10
536.5981689999999
 20
195.1416874865387
 30
0.0
 41
2.5
 42
2.5
 43
2.5
  0
INSERT
  5
6FB
330
628
100
AcDbEntity
  8
0
  6
Continuous
 62
     0
370
    -2
100
AcDbBlockReference
  2
_Open30
 10
460.111673
 20
195.1416874865387
 30
0.0
 41
2.5
 42
2.5
 43
2.5
 50
180.0
  0
MTEXT
  5
6FC
330
628
100
AcDbEntity
  8
0
  6
Continuous
 62
     4
100
AcDbMText
 10
495.7394077323272
 20
197.2666874865387
 30
0.0
 40
3.0
 41
0.0
 71
     5
 72
     1
  1
160
 73
     1
 44
1.0
1001
ACAD
1000
MTEXTBEGIN
1070
    73
1070
     1
1070
    44
1040
1.0
1070
    74
1070
     0
1000
MTEXTEND
  0
POINT
  5
6FD
330
628
100
AcDbEntity
  8
Defpoints
  6
Continuous
 62
     0
100
AcDbPoint
 10
536.5981689999999
 20
183.333439
 30
0.0
  0
POINT
  5
6FE
330
628
100
AcDbEntity
  8
Defpoints
  6
Continuous
 62
     0
100
AcDbPoint
 10
460.111673
 20
183.333439
 30
0.0
  0
POINT
  5
6FF
330
628
100
AcDbEntity
  8
Defpoints
  6
Continuous
 62
     0
100
AcDbPoint
 10
460.111673
 20
195.1416874865387
 30
0.0
  0
ENDBLK
  5
62A
330
628
100
AcDbEntity
  8
0
100
AcDbBlockEnd
  0
BLOCK
  5
661
330
660
100
AcDbEntity
  8
0
100
AcDbBlockBegin
  2
*D27
 70
     1
 10
0.0
 20
0.0
 30
0.0
  3
*D27
  1

  0
LINE
  5
702
330
660
100
AcDbEntity
  8
0
 62
     0
370
    -2
100
AcDbLine
 10
459.861673
 20
136.833439
 30
0.0
 11
431.885807
 21
136.833439
 31
0.0
  0
LINE
  5
703
330
660
100
AcDbEntity
  8
0
 62
     0
370
    -2
100
AcDbLine
 10
459.861673
 20
183.333439
 30
0.0
 11
431.885807
 21
183.333439
 31
0.0
  0
LINE
  5
704
330
660
100
AcDbEntity
  8
0
 62
     0
370
    -2
100
AcDbLine
 10
433.135807
 20
139.333439
 30
0.0
 11
433.135807
 21
180.833439
 31
0.0
  0
INSERT
  5
705
330
660
100
AcDbEntity
  8
0
 62
     0
370
    -2
100
AcDbBlockReference
  2
_Open30
 10
433.135807
 20
136.833439
 30
0.0
 41
2.5
 42
2.5
 43
2.5
 50
270.0
  0
INSERT
  5
706
330
660
100
AcDbEntity
  8
0
 62
     0
370
    -2
100
AcDbBlockReference
  2
_Open30
 10
433.135807
 20
183.333439
 30
0.0
 41
2.5
 42
2.5
 43
2.5
 50
90.0
  0
MTEXT
  5
707
330
660
100
AcDbEntity
  8
0
 62
     4
100
AcDbMText
 10
431.010807
 20
160.0834390000001
 30
0.0
 40
3.0
 41
0.0
 71
     5
 72
     1
  1
46.5
 11
0.0000000000000001
 21
1.0
 31
0.0
 73
     1
 44
1.0
1001
ACAD
1000
MTEXTBEGIN
1070
    73
1070
     1
1070
    44
1040
1.0
1070
    74
1070
     0
1000
MTEXTEND
  0
POINT
  5
708
330
660
100
AcDbEntity
  8
Defpoints
 62
     0
100
AcDbPoint
 10
460.111673
 20
136.833439
 30
0.0
  0
POINT
  5
709
330
660
100
AcDbEntity
  8
Defpoints
 62
     0
100
AcDbPoint
 10
460.111673
 20
183.333439
 30
0.0
  0
POINT
  5
70A
330
660
100
AcDbEntity
  8
Defpoints
 62
     0
100
AcDbPoint
 10
433.135807
 20
183.333439
 30
0.0
  0
ENDBLK
  5
662
330
660
100
AcDbEntity
  8
0
100
AcDbBlockEnd
  0
BLOCK
  5
676
330
675
100
AcDbEntity
  8
0
100
AcDbBlockBegin
  2
*D28
 70
     1
 10
0.0
 20
0.0
 30
0.0
  3
*D28
  1

  0
LINE
  5
70B
330
675
100
AcDbEntity
  8
0
 62
     0
370
    -2
100
AcDbLine
 10
319.146325
 20
159.833439
 30
0.0
 11
319.146325
 21
119.896375
 31
0.0
  0
LINE
  5
70C
330
675
100
AcDbEntity
  8
0
 62
     0
370
    -2
100
AcDbLine
 10
415.1463249999998
 20
159.833439
 30
0.0
 11
415.1463249999998
 21
119.896375
 31
0.0
  0
LINE
  5
70D
330
675
100
AcDbEntity
  8
0
 62
     0
370
    -2
100
AcDbLine
 10
321.646325
 20
121.146375
 30
0.0
 11
412.6463249999998
 21
121.146375
 31
0.0
  0
INSERT
  5
70E
330
675
100
AcDbEntity
  8
0
 62
     0
370
    -2
100
AcDbBlockReference
  2
_Open30
 10
319.146325
 20
121.146375
 30
0.0
 41
2.5
 42
2.5
 43
2.5
 50
180.0
  0
INSERT
  5
70F
330
675
100
AcDbEntity
  8
0
 62
     0
370
    -2
100
AcDbBlockReference
  2
_Open30
 10
415.1463249999998
 20
121.146375
 30
0.0
 41
2.5
 42
2.5
 43
2.5
  0
MTEXT
  5
710
330
675
100
AcDbEntity
  8
0
 62
     4
100
AcDbMText
 10
367.1463249999999
 20
123.271375
 30
0.0
 40
3.0
 41
0.0
 71
     5
 72
     1
  1
96
 73
     1
 44
1.0
1001
ACAD
1000
MTEXTBEGIN
1070
    73
1070
     1
1070
    44
1040
1.0
1070
    74
1070
     0
1000
MTEXTEND
  0
POINT
  5
711
330
675
100
AcDbEntity
  8
Defpoints
 62
     0
100
AcDbPoint
 10
319.146325
 20
160.083439
 30
0.0
  0
POINT
  5
712
330
675
100
AcDbEntity
  8
Defpoints
 62
     0
100
AcDbPoint
 10
415.1463249999998
 20
160.083439
 30
0.0
  0
POINT
  5
713
330
675
100
AcDbEntity
  8
Defpoints
 62
     0
100
AcDbPoint
 10
415.1463249999998
 20
121.146375
 30
0.0
  0
ENDBLK
  5
677
330
675
100
AcDbEntity
  8
0
100
AcDbBlockEnd
  0
ENDSEC
  0
SECTION
  2
ENTITIES
  0
TEXT
  5
BB
330
6B
100
AcDbEntity
  8
0
 62
     3
100
AcDbText
 10
623.886752
 20
-14.858506
 30
0.0
 40
3.2
  1
FREE
  7
高3.2
100
AcDbText
  0
LINE
  5
BC
330
6B
100
AcDbEntity
  8
0
 62
     7
100
AcDbLine
 10
421.7241859147523
 20
89.05328742722748
 30
0.0
 11
458.5712878802999
 21
89.05328742722748
 31
0.0
  0
LINE
  5
BD
330
6B
100
AcDbEntity
  8
0
 62
     3
100
AcDbLine
 10
689.8856030000001
 20
20.245029
 30
0.0
 11
638.286239
 21
20.245029
 31
0.0
  0
TEXT
  5
BE
330
6B
100
AcDbEntity
  8
0
 62
     3
100
AcDbText
 10
643.4435872259013
 20
14.801114
 30
0.0
 40
4.5
  1
コード
  7
高4.5
100
AcDbText
  0
LINE
  5
BF
330
6B
100
AcDbEntity
  8
0
 62
     3
100
AcDbLine
 10
664.286239
 20
14.245029
 30
0.0
 11
664.286239
 21
20.245029
 31
0.0
  0
LINE
  5
C0
330
6B
100
AcDbEntity
  8
0
 62
     3
100
AcDbLine
 10
638.286239
 20
14.245029
 30
0.0
 11
638.286239
 21
20.245029
 31
0.0
  0
LINE
  5
C3
330
6B
100
AcDbEntity
  8
0
 62
     3
100
AcDbLine
 10
664.286275
 20
-8.818114999999997
 30
0.0
 11
664.2862750000001
 21
14.181885
 31
0.0
  0
LINE
  5
C5
330
6B
100
AcDbEntity
  8
0
 62
     3
100
AcDbLine
 10
611.2326659999999
 20
-15.818115
 30
0.0
 11
611.2326659999999
 21
-1.818115
 31
0.0
  0
TEXT
  5
C7
330
6B
100
AcDbEntity
  8
0
 62
     3
100
AcDbText
 10
640.2965929999997
 20
10.387001
 30
0.0
 40
2.0
  1
A
 41
0.7
100
AcDbText
  0
TEXT
  5
C8
330
6B
100
AcDbEntity
  8
0
 62
     3
100
AcDbText
 10
642.8318799999998
 20
10.387001
 30
0.0
 40
2.0
  1
P
 41
0.7
100
AcDbText
  0
TEXT
  5
C9
330
6B
100
AcDbEntity
  8
0
 62
     3
100
AcDbText
 10
645.367166
 20
10.387001
 30
0.0
 40
2.0
  1
P
 41
0.7
100
AcDbText
  0
TEXT
  5
CA
330
6B
100
AcDbEntity
  8
0
 62
     3
100
AcDbText
 10
647.9024519999998
 20
10.387001
 30
0.0
 40
2.0
  1
D
 41
0.7
100
AcDbText
  0
TEXT
  5
CB
330
6B
100
AcDbEntity
  8
0
 62
     3
100
AcDbText
 10
653.2711349999998
 20
10.387001
 30
0.0
 40
2.0
  1
C
 41
0.7
100
AcDbText
  0
TEXT
  5
CC
330
6B
100
AcDbEntity
  8
0
 62
     3
100
AcDbText
 10
655.806421
 20
10.387001
 30
0.0
 40
2.0
  1
H
 41
0.7
100
AcDbText
  0
TEXT
  5
CD
330
6B
100
AcDbEntity
  8
0
 62
     3
100
AcDbText
 10
658.341708
 20
10.387001
 30
0.0
 40
2.0
  1
C
 41
0.7
100
AcDbText
  0
TEXT
  5
CE
330
6B
100
AcDbEntity
  8
0
 62
     3
100
AcDbText
 10
660.8769940000001
 20
10.387001
 30
0.0
 40
2.0
  1
K
 41
0.7
100
AcDbText
  0
TEXT
  5
CF
330
6B
100
AcDbEntity
  8
0
 62
     3
100
AcDbText
 10
666.5509599999998
 20
10.387001
 30
0.0
 40
2.0
  1
DESN
 41
1.216762999999998
100
AcDbText
  0
TEXT
  5
D0
330
6B
100
AcDbEntity
  8
0
 62
     3
100
AcDbText
 10
581.5446019999998
 20
-18.959497
 30
0.0
 40
2.0
  1
NICHIDO IND.CO.LTD
 41
1.274876
100
AcDbText
  0
LINE
  5
D1
330
6B
100
AcDbEntity
  8
0
 62
     3
100
AcDbLine
 10
591.9276309999998
 20
14.181885
 30
0.0
 11
591.9276309999998
 21
-8.818114999999997
 31
0.0
  0
LINE
  5
D2
330
6B
100
AcDbEntity
  8
0
 62
     3
100
AcDbLine
 10
638.2862750000001
 20
14.181885
 30
0.0
 11
638.2862750000001
 21
-25.483838
 31
0.0
  0
LINE
  5
D7
330
6B
100
AcDbEntity
  8
0
 62
     3
100
AcDbLine
 10
651.286275
 20
14.181885
 30
0.0
 11
651.286275
 21
-15.818115
 31
0.0
  0
TEXT
  5
D8
330
6B
100
AcDbEntity
  8
0
 62
     3
100
AcDbText
 10
639.39872
 20
-14.953428
 30
0.0
 40
3.2
  1
作成日
 41
1.017225999999998
100
AcDbText
  0
LINE
  5
D9
330
6B
100
AcDbEntity
  8
0
 62
     3
100
AcDbLine
 10
689.985639
 20
14.181885
 30
0.0
 11
578.682196
 21
14.181885
 31
0.0
  0
LINE
  5
DA
330
6B
100
AcDbEntity
  8
0
 62
     3
100
AcDbLine
 10
677.286275
 20
-8.818114999999997
 30
0.0
 11
677.286275
 21
14.181885
 31
0.0
  0
TEXT
  5
DB
330
6B
100
AcDbEntity
  8
0
 62
     3
100
AcDbText
 10
680.610079
 20
10.47282
 30
0.0
 40
1.8
  1
D
 41
0.666667
100
AcDbText
  0
TEXT
  5
DC
330
6B
100
AcDbEntity
  8
0
 62
     3
100
AcDbText
 10
683.426707
 20
10.47282
 30
0.0
 40
1.8
  1
E
 41
0.666667
100
AcDbText
  0
TEXT
  5
DD
330
6B
100
AcDbEntity
  8
0
 62
     3
100
AcDbText
 10
686.2433349999998
 20
10.47282
 30
0.0
 40
1.8
  1
F
 41
0.666667
100
AcDbText
  0
TEXT
  5
DE
330
6B
100
AcDbEntity
  8
0
 62
     3
100
AcDbText
 10
680.610079
 20
6.480266
 30
0.0
 40
3.2
  1
製図
 41
1.076369
100
AcDbText
  0
LINE
  5
DF
330
6B
100
AcDbEntity
  8
0
 62
     3
100
AcDbLine
 10
578.682196
 20
14.181885
 30
0.0
 11
578.682196
 21
-25.483838
 31
0.0
  0
TEXT
  5
E0
330
6B
100
AcDbEntity
  8
0
 62
     3
100
AcDbText
 10
580.0588489999999
 20
-25.151372
 30
0.0
 40
5.0
  1
日動工業株式会社
 41
0.833333
100
AcDbText
  0
LINE
  5
E1
330
6B
100
AcDbEntity
  8
0
 62
     3
100
AcDbLine
 10
621.5645999999999
 20
-1.818115
 30
0.0
 11
621.5646
 21
-25.483838
 31
0.0
  0
LINE
  5
E2
330
6B
100
AcDbEntity
  8
0
 62
     3
100
AcDbLine
 10
621.5646
 20
-20.650976
 30
0.0
 11
638.2862750000001
 21
-20.650976
 31
0.0
  0
TEXT
  5
E3
330
6B
100
AcDbEntity
  8
0
 62
     3
100
AcDbText
 10
622.151202
 20
-19.834546
 30
0.0
 40
3.2
  1
出図コード
 41
0.8356860000000001
100
AcDbText
  0
LINE
  5
F5
330
6B
100
AcDbEntity
  8
0
 62
     3
100
AcDbLine
 10
578.682196
 20
-15.818115
 30
0.0
 11
689.985639
 21
-15.818115
 31
0.0
  0
LINE
  5
F7
330
6B
100
AcDbEntity
  8
0
 62
     3
100
AcDbLine
 10
578.682196
 20
5.181885000000001
 30
0.0
 11
689.985639
 21
5.181885
 31
0.0
  0
LINE
  5
FD
330
6B
100
AcDbEntity
  8
0
 62
     3
100
AcDbLine
 10
578.682196
 20
-1.818115
 30
0.0
 11
638.2862750000001
 21
-1.818115
 31
0.0
  0
LINE
  5
103
330
6B
100
AcDbEntity
  8
0
 62
     3
100
AcDbLine
 10
578.682196
 20
-8.818114999999995
 30
0.0
 11
689.985639
 21
-8.818114999999997
 31
0.0
  0
LINE
  5
107
330
6B
100
AcDbEntity
  8
0
 62
     3
100
AcDbLine
 10
689.985639
 20
248.571523
 30
0.0
 11
689.985639
 21
-25.48383800000002
 31
0.0
  0
LINE
  5
108
330
6B
100
AcDbEntity
  8
0
 62
     3
100
AcDbLine
 10
299.985639
 20
248.571523
 30
0.0
 11
299.985639
 21
-25.483838
 31
0.0
  0
LINE
  5
109
330
6B
100
AcDbEntity
  8
0
 62
     3
100
AcDbLine
 10
689.985639
 20
-25.483838
 30
0.0
 11
299.985639
 21
-25.483838
 31
0.0
  0
TEXT
  5
10C
330
6B
100
AcDbEntity
  8
0
 62
     3
100
AcDbText
 10
622.018654
 20
-25.09148799629623
 30
0.0
 40
3.2
  1
ZK-A3X
 41
0.8112849999999999
100
AcDbText
  0
LINE
  5
10D
330
6B
100
AcDbEntity
  8
0
 62
     2
100
AcDbLine
 10
477.760528
 20
251.011526
 30
0.0
 11
478.383025
 21
250.686571
 31
0.0
  0
LINE
  5
10E
330
6B
100
AcDbEntity
  8
0
 62
     2
100
AcDbLine
 10
477.760528
 20
245.682054
 30
0.0
 11
478.383025
 21
246.007008
 31
0.0
  0
LINE
  5
10F
330
6B
100
AcDbEntity
  8
0
 62
     2
100
AcDbLine
 10
478.383025
 20
250.686571
 30
0.0
 11
478.383025
 21
246.007008
 31
0.0
  0
LINE
  5
110
330
6B
100
AcDbEntity
  8
0
 62
     2
100
AcDbLine
 10
479.9594789999998
 20
245.682054
 30
0.0
 11
479.336982
 21
246.007008
 31
0.0
  0
LINE
  5
111
330
6B
100
AcDbEntity
  8
0
 62
     2
100
AcDbLine
 10
479.336982
 20
248.859663
 30
0.0
 11
479.336982
 21
246.007008
 31
0.0
  0
LINE
  5
112
330
6B
100
AcDbEntity
  8
0
 62
     2
100
AcDbLine
 10
483.590711
 20
251.011526
 30
0.0
 11
482.968214
 21
250.686571
 31
0.0
  0
LINE
  5
113
330
6B
100
AcDbEntity
  8
0
 62
     2
100
AcDbLine
 10
481.391761
 20
251.011526
 30
0.0
 11
482.0142579999998
 21
250.686571
 31
0.0
  0
LINE
  5
114
330
6B
100
AcDbEntity
  8
0
 62
     2
100
AcDbLine
 10
482.0142579999998
 20
250.686571
 30
0.0
 11
482.0142579999998
 21
248.62609
 31
0.0
  0
LINE
  5
115
330
6B
100
AcDbEntity
  8
0
 62
     2
100
AcDbLine
 10
482.968214
 20
250.686571
 30
0.0
 11
482.968214
 21
245.379823
 31
0.0
  0
LINE
  5
116
330
6B
100
AcDbEntity
  8
0
 62
     2
100
AcDbLine
 10
483.898279
 20
251.011522
 30
0.0
 11
484.520774
 21
250.686563
 31
0.0
  0
LINE
  5
117
330
6B
100
AcDbEntity
  8
0
 62
     2
100
AcDbLine
 10
483.8981669999998
 20
245.682125
 30
0.0
 11
484.5206759999999
 21
246.007058
 31
0.0
  0
LINE
  5
118
330
6B
100
AcDbEntity
  8
0
 62
     2
100
AcDbLine
 10
484.520774
 20
250.686563
 30
0.0
 11
484.520774
 21
246.007058
 31
0.0
  0
LINE
  5
119
330
6B
100
AcDbEntity
  8
0
 62
     2
100
AcDbLine
 10
486.654759
 20
251.011488
 30
0.0
 11
486.032258
 21
250.686542
 31
0.0
  0
LINE
  5
11A
330
6B
100
AcDbEntity
  8
0
 62
     2
100
AcDbLine
 10
486.032258
 20
250.686542
 30
0.0
 11
486.032258
 21
246.007037
 31
0.0
  0
LINE
  5
11B
330
6B
100
AcDbEntity
  8
0
 62
     2
100
AcDbLine
 10
486.654759
 20
245.682091
 30
0.0
 11
486.032258
 21
246.007037
 31
0.0
  0
LINE
  5
11C
330
6B
100
AcDbEntity
  8
0
 62
     2
100
AcDbLine
 10
491.92655
 20
251.011429
 30
0.0
 11
492.5490459999998
 21
250.686473
 31
0.0
  0
LINE
  5
11D
330
6B
100
AcDbEntity
  8
0
 62
     2
100
AcDbLine
 10
492.5490459999998
 20
250.686473
 30
0.0
 11
492.5489639999998
 21
246.006967
 31
0.0
  0
LINE
  5
11E
330
6B
100
AcDbEntity
  8
0
 62
     2
100
AcDbLine
 10
491.926457
 20
245.682033
 30
0.0
 11
492.5489639999998
 21
246.006967
 31
0.0
  0
LINE
  5
11F
330
6B
100
AcDbEntity
  8
0
 62
     2
100
AcDbLine
 10
494.715494
 20
251.011429
 30
0.0
 11
494.0929979999999
 21
250.686473
 31
0.0
  0
LINE
  5
120
330
6B
100
AcDbEntity
  8
0
 62
     2
100
AcDbLine
 10
494.715587
 20
245.682033
 30
0.0
 11
494.09308
 21
246.006967
 31
0.0
  0
LINE
  5
121
330
6B
100
AcDbEntity
  8
0
 62
     2
100
AcDbLine
 10
495.006534
 20
251.011429
 30
0.0
 11
495.62903
 21
250.686473
 31
0.0
  0
LINE
  5
122
330
6B
100
AcDbEntity
  8
0
 62
     2
100
AcDbLine
 10
495.006441
 20
245.682033
 30
0.0
 11
495.628948
 21
246.006967
 31
0.0
  0
LINE
  5
123
330
6B
100
AcDbEntity
  8
0
 62
     2
100
AcDbLine
 10
497.795478
 20
251.011429
 30
0.0
 11
497.172982
 21
250.686473
 31
0.0
  0
LINE
  5
124
330
6B
100
AcDbEntity
  8
0
 62
     2
100
AcDbLine
 10
497.172982
 20
250.686473
 30
0.0
 11
497.1730639999998
 21
246.006967
 31
0.0
  0
LINE
  5
125
330
6B
100
AcDbEntity
  8
0
 62
     2
100
AcDbLine
 10
497.7955709999998
 20
245.682033
 30
0.0
 11
497.1730639999998
 21
246.006967
 31
0.0
  0
LINE
  5
126
330
6B
100
AcDbEntity
  8
0
 62
     2
100
AcDbLine
 10
495.628994
 20
248.647711
 30
0.0
 11
494.093034
 21
248.647711
 31
0.0
  0
LINE
  5
127
330
6B
100
AcDbEntity
  8
0
 62
     2
100
AcDbLine
 10
495.628984
 20
248.045868
 30
0.0
 11
494.093044
 21
248.045868
 31
0.0
  0
LINE
  5
128
330
6B
100
AcDbEntity
  8
0
 62
     2
100
AcDbLine
 10
495.62903
 20
250.686473
 30
0.0
 11
495.628994
 21
248.647711
 31
0.0
  0
LINE
  5
129
330
6B
100
AcDbEntity
  8
0
 62
     2
100
AcDbLine
 10
495.628984
 20
248.045868
 30
0.0
 11
495.628948
 21
246.006967
 31
0.0
  0
LINE
  5
12A
330
6B
100
AcDbEntity
  8
0
 62
     2
100
AcDbLine
 10
494.0929979999999
 20
250.686473
 30
0.0
 11
494.093034
 21
248.647711
 31
0.0
  0
LINE
  5
12B
330
6B
100
AcDbEntity
  8
0
 62
     2
100
AcDbLine
 10
494.093044
 20
248.045868
 30
0.0
 11
494.09308
 21
246.006967
 31
0.0
  0
LINE
  5
12C
330
6B
100
AcDbEntity
  8
0
 62
     2
100
AcDbLine
 10
498.091134
 20
251.011429
 30
0.0
 11
498.7136299999998
 21
250.686473
 31
0.0
  0
LINE
  5
12D
330
6B
100
AcDbEntity
  8
0
 62
     2
100
AcDbLine
 10
498.7136299999998
 20
250.686473
 30
0.0
 11
498.713548
 21
246.006967
 31
0.0
  0
LINE
  5
12E
330
6B
100
AcDbEntity
  8
0
 62
     2
100
AcDbLine
 10
498.0910409999999
 20
245.682033
 30
0.0
 11
498.713548
 21
246.006967
 31
0.0
  0
LINE
  5
12F
330
6B
100
AcDbEntity
  8
0
 62
     2
100
AcDbLine
 10
500.8475769999998
 20
251.011429
 30
0.0
 11
500.2250809999998
 21
250.686473
 31
0.0
  0
LINE
  5
130
330
6B
100
AcDbEntity
  8
0
 62
     2
100
AcDbLine
 10
500.2250809999998
 20
250.686473
 30
0.0
 11
500.2251629999998
 21
246.006967
 31
0.0
  0
LINE
  5
131
330
6B
100
AcDbEntity
  8
0
 62
     2
100
AcDbLine
 10
500.84767
 20
245.682033
 30
0.0
 11
500.2251629999998
 21
246.006967
 31
0.0
  0
LINE
  5
132
330
6B
100
AcDbEntity
  8
0
 62
     2
100
AcDbLine
 10
501.1538049999998
 20
251.011429
 30
0.0
 11
501.776301
 21
250.686473
 31
0.0
  0
LINE
  5
133
330
6B
100
AcDbEntity
  8
0
 62
     2
100
AcDbLine
 10
501.776301
 20
250.686473
 30
0.0
 11
501.7762199999999
 21
246.006967
 31
0.0
  0
LINE
  5
134
330
6B
100
AcDbEntity
  8
0
 62
     2
100
AcDbLine
 10
501.1537119999998
 20
245.682033
 30
0.0
 11
501.7762199999999
 21
246.006967
 31
0.0
  0
ARC
  5
135
330
6B
100
AcDbEntity
  8
0
 62
     2
100
AcDbCircle
 10
489.938105
 20
248.360204
 30
0.0
 40
2.980408
100
AcDbArc
 50
97.701524
 51
270.0
  0
ARC
  5
136
330
6B
100
AcDbEntity
  8
0
 62
     2
100
AcDbCircle
 10
508.338964
 20
248.330265
 30
0.0
 40
3.012775999999998
100
AcDbArc
 50
0.31425
 51
69.00558199999998
  0
ARC
  5
137
330
6B
100
AcDbEntity
  8
0
 62
     2
100
AcDbCircle
 10
508.997071
 20
248.330265
 30
0.0
 40
3.012775999999998
100
AcDbArc
 50
110.994418
 51
148.116611
  0
ARC
  5
138
330
6B
100
AcDbEntity
  8
0
 62
     2
100
AcDbCircle
 10
508.338964
 20
248.363314
 30
0.0
 40
3.012775999999998
100
AcDbArc
 50
290.994418
 51
359.68575
  0
ARC
  5
139
330
6B
100
AcDbEntity
  8
0
 62
     2
100
AcDbCircle
 10
508.997071
 20
248.363314
 30
0.0
 40
3.012775999999998
100
AcDbArc
 50
211.883389
 51
249.005582
  0
ARC
  5
13A
330
6B
100
AcDbEntity
  8
0
 62
     2
100
AcDbCircle
 10
508.668017
 20
249.579369
 30
0.0
 40
1.734386999999999
100
AcDbArc
 50
64.365172
 51
115.634828
  0
ARC
  5
13B
330
6B
100
AcDbEntity
  8
0
 62
     2
100
AcDbCircle
 10
508.668017
 20
247.11421
 30
0.0
 40
1.734386999999999
100
AcDbArc
 50
244.365172
 51
295.634828
  0
ARC
  5
13C
330
6B
100
AcDbEntity
  8
0
 62
     2
100
AcDbCircle
 10
508.668017
 20
249.612314
 30
0.0
 40
0.8512219999999999
100
AcDbArc
 50
19.486606
 51
160.513394
  0
ARC
  5
13D
330
6B
100
AcDbEntity
  8
0
 62
     2
100
AcDbCircle
 10
508.668017
 20
247.081265
 30
0.0
 40
0.8512219999999999
100
AcDbArc
 50
199.4866059999999
 51
340.513394
  0
ARC
  5
13E
330
6B
100
AcDbEntity
  8
0
 62
     3
100
AcDbCircle
 10
501.8930570000001
 20
216.592418
 30
0.0
 40
37.20000000000001
100
AcDbArc
 50
69.50571500000001
 51
81.689988
  0
ARC
  5
13F
330
6B
100
AcDbEntity
  8
0
 62
     3
100
AcDbCircle
 10
501.8930570000001
 20
280.101161
 30
0.0
 40
37.20000000000001
100
AcDbArc
 50
278.310012
 51
290.494285
  0
ARC
  5
140
330
6B
100
AcDbEntity
  8
0
 62
     3
100
AcDbCircle
 10
513.76192
 20
248.34679
 30
0.0
 40
3.299999999999998
100
AcDbArc
 50
290.494285
 51
69.50571500000001
  0
ARC
  5
141
330
6B
100
AcDbEntity
  8
0
 62
     3
100
AcDbCircle
 10
474.76192
 20
248.34679
 30
0.0
 40
3.299999999999998
100
AcDbArc
 50
110.494285
 51
249.505715
  0
ARC
  5
142
330
6B
100
AcDbEntity
  8
0
 62
     3
100
AcDbCircle
 10
486.630783
 20
216.592418
 30
0.0
 40
37.20000000000001
100
AcDbArc
 50
98.31001200000001
 51
110.494285
  0
ARC
  5
143
330
6B
100
AcDbEntity
  8
0
 62
     3
100
AcDbCircle
 10
486.630783
 20
280.101161
 30
0.0
 40
37.20000000000001
100
AcDbArc
 50
249.505715
 51
261.689988
  0
ARC
  5
144
330
6B
100
AcDbEntity
  8
0
 62
     3
100
AcDbCircle
 10
494.26192
 20
164.34679
 30
0.0
 40
90.0
100
AcDbArc
 50
81.689988
 51
98.31001200000001
  0
ARC
  5
145
330
6B
100
AcDbEntity
  8
0
 62
     3
100
AcDbCircle
 10
494.26192
 20
332.34679
 30
0.0
 40
90.0
100
AcDbArc
 50
261.689988
 51
278.310012
  0
ARC
  5
146
330
6B
100
AcDbEntity
  8
0
 62
     3
100
AcDbCircle
 10
494.26192
 20
164.34679
 30
0.0
 40
89.1
100
AcDbArc
 50
81.689988
 51
98.31001200000001
  0
ARC
  5
147
330
6B
100
AcDbEntity
  8
0
 62
     3
100
AcDbCircle
 10
494.26192
 20
332.34679
 30
0.0
 40
89.1
100
AcDbArc
 50
261.689988
 51
278.310012
  0
ARC
  5
148
330
6B
100
AcDbEntity
  8
0
 62
     3
100
AcDbCircle
 10
501.8930570000001
 20
280.101161
 30
0.0
 40
36.3
100
AcDbArc
 50
278.310012
 51
290.494285
  0
ARC
  5
149
330
6B
100
AcDbEntity
  8
0
 62
     3
100
AcDbCircle
 10
501.8930570000001
 20
216.592418
 30
0.0
 40
36.3
100
AcDbArc
 50
69.50571500000001
 51
81.689988
  0
ARC
  5
14A
330
6B
100
AcDbEntity
  8
0
 62
     3
100
AcDbCircle
 10
513.76192
 20
248.34679
 30
0.0
 40
2.399999999999999
100
AcDbArc
 50
290.494285
 51
69.50571500000001
  0
ARC
  5
14B
330
6B
100
AcDbEntity
  8
0
 62
     3
100
AcDbCircle
 10
474.76192
 20
248.34679
 30
0.0
 40
2.399999999999999
100
AcDbArc
 50
110.494285
 51
249.505715
  0
ARC
  5
14C
330
6B
100
AcDbEntity
  8
0
 62
     3
100
AcDbCircle
 10
486.630783
 20
216.592418
 30
0.0
 40
36.3
100
AcDbArc
 50
98.31001200000001
 51
110.494285
  0
ARC
  5
14D
330
6B
100
AcDbEntity
  8
0
 62
     3
100
AcDbCircle
 10
486.630783
 20
280.101161
 30
0.0
 40
36.3
100
AcDbArc
 50
249.505715
 51
261.689988
  0
LINE
  5
14E
330
6B
100
AcDbEntity
  8
0
 62
     2
100
AcDbLine
 10
500.847579
 20
245.379823
 30
0.0
 11
498.091133
 21
245.379823
 31
0.0
  0
LINE
  5
14F
330
6B
100
AcDbEntity
  8
0
 62
     2
100
AcDbLine
 10
500.847579
 20
245.682054
 30
0.0
 11
500.847579
 21
245.379823
 31
0.0
  0
LINE
  5
150
330
6B
100
AcDbEntity
  8
0
 62
     2
100
AcDbLine
 10
497.795479
 20
251.313615
 30
0.0
 11
495.006533
 21
251.313615
 31
0.0
  0
LINE
  5
151
330
6B
100
AcDbEntity
  8
0
 62
     2
100
AcDbLine
 10
497.795479
 20
251.313615
 30
0.0
 11
497.795479
 21
251.011526
 31
0.0
  0
LINE
  5
152
330
6B
100
AcDbEntity
  8
0
 62
     2
100
AcDbLine
 10
497.795479
 20
245.682054
 30
0.0
 11
497.795479
 21
245.379682
 31
0.0
  0
LINE
  5
153
330
6B
100
AcDbEntity
  8
0
 62
     2
100
AcDbLine
 10
497.795479
 20
245.379682
 30
0.0
 11
495.006533
 21
245.379682
 31
0.0
  0
LINE
  5
154
330
6B
100
AcDbEntity
  8
0
 62
     2
100
AcDbLine
 10
500.847579
 20
251.313756
 30
0.0
 11
500.847579
 21
251.011526
 31
0.0
  0
LINE
  5
155
330
6B
100
AcDbEntity
  8
0
 62
     2
100
AcDbLine
 10
500.847579
 20
251.313756
 30
0.0
 11
498.091133
 21
251.313756
 31
0.0
  0
LINE
  5
156
330
6B
100
AcDbEntity
  8
0
 62
     2
100
AcDbLine
 10
498.091133
 20
251.313756
 30
0.0
 11
498.091133
 21
251.011526
 31
0.0
  0
LINE
  5
157
330
6B
100
AcDbEntity
  8
0
 62
     2
100
AcDbLine
 10
501.1538039999998
 20
245.682054
 30
0.0
 11
501.1538039999998
 21
245.379823
 31
0.0
  0
LINE
  5
158
330
6B
100
AcDbEntity
  8
0
 62
     2
100
AcDbLine
 10
503.988519
 20
245.379823
 30
0.0
 11
501.1538039999998
 21
245.379823
 31
0.0
  0
LINE
  5
159
330
6B
100
AcDbEntity
  8
0
 62
     2
100
AcDbLine
 10
503.287753
 20
250.359799
 30
0.0
 11
503.287753
 21
246.33378
 31
0.0
  0
LINE
  5
15A
330
6B
100
AcDbEntity
  8
0
 62
     2
100
AcDbLine
 10
503.287753
 20
246.33378
 30
0.0
 11
503.5592509999998
 21
246.33378
 31
0.0
  0
ARC
  5
15B
330
6B
100
AcDbEntity
  8
0
 62
     2
100
AcDbCircle
 10
502.170986
 20
248.34679
 30
0.0
 40
2.445299
100
AcDbArc
 50
304.591955
 51
55.408045
  0
LINE
  5
15C
330
6B
100
AcDbEntity
  8
0
 62
     2
100
AcDbLine
 10
503.988519
 20
251.313756
 30
0.0
 11
501.1538039999998
 21
251.313756
 31
0.0
  0
LINE
  5
15D
330
6B
100
AcDbEntity
  8
0
 62
     2
100
AcDbLine
 10
501.1538039999998
 20
251.313756
 30
0.0
 11
501.1538039999998
 21
251.011526
 31
0.0
  0
LINE
  5
15E
330
6B
100
AcDbEntity
  8
0
 62
     2
100
AcDbLine
 10
498.091133
 20
245.682054
 30
0.0
 11
498.091133
 21
245.379823
 31
0.0
  0
LINE
  5
15F
330
6B
100
AcDbEntity
  8
0
 62
     2
100
AcDbLine
 10
503.287753
 20
250.359799
 30
0.0
 11
503.5592509999998
 21
250.359799
 31
0.0
  0
LINE
  5
160
330
6B
100
AcDbEntity
  8
0
 62
     2
100
AcDbLine
 10
486.6546669999998
 20
245.682054
 30
0.0
 11
486.654662
 21
245.379795
 31
0.0
  0
LINE
  5
161
330
6B
100
AcDbEntity
  8
0
 62
     2
100
AcDbLine
 10
483.898217
 20
245.379852
 30
0.0
 11
486.654662
 21
245.379803
 31
0.0
  0
LINE
  5
162
330
6B
100
AcDbEntity
  8
0
 62
     2
100
AcDbLine
 10
477.760528
 20
245.379823
 30
0.0
 11
479.9594789999998
 21
245.379823
 31
0.0
  0
ARC
  5
163
330
6B
100
AcDbEntity
  8
0
 62
     2
100
AcDbCircle
 10
470.643467
 20
248.416656
 30
0.0
 40
21.019379
100
AcDbArc
 50
353.866006
 51
357.694034
  0
LINE
  5
164
330
6B
100
AcDbEntity
  8
0
 62
     2
100
AcDbLine
 10
490.2385809999998
 20
247.576131
 30
0.0
 11
491.6458259999997
 21
247.570924
 31
0.0
  0
LINE
  5
1A7
330
6B
100
AcDbEntity
  8
0
 62
     2
100
AcDbLine
 10
490.244265
 20
249.112152
 30
0.0
 11
491.6515089999998
 21
249.106945
 31
0.0
  0
ARC
  5
1A8
330
6B
100
AcDbEntity
  8
0
 62
     2
100
AcDbCircle
 10
470.643467
 20
248.416656
 30
0.0
 40
21.019379
100
AcDbArc
 50
1.881965999999999
 51
5.709994
  0
LINE
  5
1A9
330
6B
100
AcDbEntity
  8
0
 62
     2
100
AcDbLine
 10
486.654766
 20
251.313728
 30
0.0
 11
486.6547599999998
 21
251.011526
 31
0.0
  0
LINE
  5
1AA
330
6B
100
AcDbEntity
  8
0
 62
     2
100
AcDbLine
 10
483.89832
 20
251.313784
 30
0.0
 11
486.654766
 21
251.313736
 31
0.0
  0
LINE
  5
1AB
330
6B
100
AcDbEntity
  8
0
 62
     2
100
AcDbLine
 10
483.898222
 20
245.682054
 30
0.0
 11
483.898217
 21
245.379852
 31
0.0
  0
LINE
  5
1AC
330
6B
100
AcDbEntity
  8
0
 62
     2
100
AcDbLine
 10
483.89832
 20
251.313784
 30
0.0
 11
483.898315
 21
251.011526
 31
0.0
  0
LINE
  5
1AD
330
6B
100
AcDbEntity
  8
0
 62
     2
100
AcDbLine
 10
479.9594789999998
 20
245.682054
 30
0.0
 11
479.9594789999998
 21
245.379823
 31
0.0
  0
LINE
  5
1AE
330
6B
100
AcDbEntity
  8
0
 62
     2
100
AcDbLine
 10
479.336982
 20
248.859663
 30
0.0
 11
481.511882
 21
245.379823
 31
0.0
  0
LINE
  5
1AF
330
6B
100
AcDbEntity
  8
0
 62
     2
100
AcDbLine
 10
481.511882
 20
245.379823
 30
0.0
 11
482.968214
 21
245.379823
 31
0.0
  0
LINE
  5
1B0
330
6B
100
AcDbEntity
  8
0
 62
     2
100
AcDbLine
 10
483.590711
 20
251.313756
 30
0.0
 11
483.590711
 21
251.011526
 31
0.0
  0
LINE
  5
1B1
330
6B
100
AcDbEntity
  8
0
 62
     2
100
AcDbLine
 10
481.391761
 20
251.313756
 30
0.0
 11
483.590711
 21
251.313756
 31
0.0
  0
LINE
  5
1B2
330
6B
100
AcDbEntity
  8
0
 62
     2
100
AcDbLine
 10
481.391761
 20
251.313756
 30
0.0
 11
481.391761
 21
251.011526
 31
0.0
  0
LINE
  5
1B3
330
6B
100
AcDbEntity
  8
0
 62
     2
100
AcDbLine
 10
482.0142579999998
 20
248.62609
 30
0.0
 11
480.2504769999998
 21
251.313756
 31
0.0
  0
LINE
  5
1B4
330
6B
100
AcDbEntity
  8
0
 62
     2
100
AcDbLine
 10
477.760528
 20
251.313756
 30
0.0
 11
480.2504769999998
 21
251.313756
 31
0.0
  0
LINE
  5
1B5
330
6B
100
AcDbEntity
  8
0
 62
     2
100
AcDbLine
 10
491.9265489999999
 20
251.313615
 30
0.0
 11
494.715495
 21
251.313615
 31
0.0
  0
LINE
  5
1B6
330
6B
100
AcDbEntity
  8
0
 62
     2
100
AcDbLine
 10
491.9265489999999
 20
251.011526
 30
0.0
 11
491.9265489999999
 21
251.313615
 31
0.0
  0
LINE
  5
1B7
330
6B
100
AcDbEntity
  8
0
 62
     2
100
AcDbLine
 10
491.9265489999999
 20
245.379682
 30
0.0
 11
491.9265489999999
 21
245.682054
 31
0.0
  0
LINE
  5
1B8
330
6B
100
AcDbEntity
  8
0
 62
     2
100
AcDbLine
 10
491.9265489999999
 20
245.379682
 30
0.0
 11
494.715495
 21
245.379682
 31
0.0
  0
LINE
  5
1B9
330
6B
100
AcDbEntity
  8
0
 62
     2
100
AcDbLine
 10
495.006533
 20
245.682054
 30
0.0
 11
495.006533
 21
245.379682
 31
0.0
  0
LINE
  5
1BA
330
6B
100
AcDbEntity
  8
0
 62
     2
100
AcDbLine
 10
494.715495
 20
245.682054
 30
0.0
 11
494.715495
 21
245.379682
 31
0.0
  0
LINE
  5
1BB
330
6B
100
AcDbEntity
  8
0
 62
     2
100
AcDbLine
 10
494.715495
 20
251.011526
 30
0.0
 11
494.715495
 21
251.313615
 31
0.0
  0
LINE
  5
1BC
330
6B
100
AcDbEntity
  8
0
 62
     2
100
AcDbLine
 10
495.006533
 20
251.011526
 30
0.0
 11
495.006533
 21
251.313615
 31
0.0
  0
LINE
  5
1BD
330
6B
100
AcDbEntity
  8
0
 62
     2
100
AcDbLine
 10
477.760528
 20
245.682054
 30
0.0
 11
477.760528
 21
245.379823
 31
0.0
  0
LINE
  5
1BE
330
6B
100
AcDbEntity
  8
0
 62
     2
100
AcDbLine
 10
477.760528
 20
251.313756
 30
0.0
 11
477.760528
 21
251.011526
 31
0.0
  0
ARC
  5
1BF
330
6B
100
AcDbEntity
  8
0
 62
     2
100
AcDbCircle
 10
504.288519
 20
248.969287
 30
0.0
 40
2.344468999999999
100
AcDbArc
 50
17.308749
 51
23.765071
  0
ARC
  5
1C0
330
6B
100
AcDbEntity
  8
0
 62
     2
100
AcDbCircle
 10
502.290986
 20
248.34679
 30
0.0
 40
4.436751
100
AcDbArc
 50
342.691251
 51
17.308566
  0
ARC
  5
1C1
330
6B
100
AcDbEntity
  8
0
 62
     2
100
AcDbCircle
 10
504.288519
 20
247.724293
 30
0.0
 40
2.344468999999999
100
AcDbArc
 50
336.234929
 51
342.691251
  0
ARC
  5
1C2
330
6B
100
AcDbEntity
  8
0
 62
     2
100
AcDbCircle
 10
503.988519
 20
248.969287
 30
0.0
 40
2.344468999999999
100
AcDbArc
 50
17.308749
 51
90.0
  0
ARC
  5
1C3
330
6B
100
AcDbEntity
  8
0
 62
     2
100
AcDbCircle
 10
501.990986
 20
248.34679
 30
0.0
 40
4.436751
100
AcDbArc
 50
342.691251
 51
17.308566
  0
ARC
  5
1C4
330
6B
100
AcDbEntity
  8
0
 62
     2
100
AcDbCircle
 10
503.988519
 20
247.724293
 30
0.0
 40
2.344468999999999
100
AcDbArc
 50
270.0
 51
342.691251
  0
ARC
  5
1C5
330
6B
100
AcDbEntity
  8
0
 62
     2
100
AcDbCircle
 10
489.5257469999998
 20
248.34679
 30
0.0
 40
2.966965999999998
100
AcDbArc
 50
46.75287999999999
 51
89.749998
  0
ARC
  5
1C6
330
6B
100
AcDbEntity
  8
0
 62
     2
100
AcDbCircle
 10
489.5257469999998
 20
248.34679
 30
0.0
 40
2.966965999999998
100
AcDbArc
 50
273.976333
 51
312.82312
  0
ARC
  5
1C7
330
6B
100
AcDbEntity
  8
0
 62
     2
100
AcDbCircle
 10
505.871187
 20
248.300987
 30
0.0
 40
3.936983999999998
100
AcDbArc
 50
0.6665840000000001
 51
23.903928
  0
ARC
  5
1C8
330
6B
100
AcDbEntity
  8
0
 62
     2
100
AcDbCircle
 10
511.464848
 20
248.300987
 30
0.0
 40
3.936983999999998
100
AcDbArc
 50
156.096072
 51
179.333416
  0
ARC
  5
1C9
330
6B
100
AcDbEntity
  8
0
 62
     2
100
AcDbCircle
 10
505.871187
 20
248.392592
 30
0.0
 40
3.936983999999998
100
AcDbArc
 50
336.096072
 51
359.333416
  0
ARC
  5
1CA
330
6B
100
AcDbEntity
  8
0
 62
     2
100
AcDbCircle
 10
511.464848
 20
248.392592
 30
0.0
 40
3.936983999999998
100
AcDbArc
 50
180.666584
 51
203.903928
  0
LINE
  5
1CB
330
6B
100
AcDbEntity
  8
0
 62
     3
100
AcDbLine
 10
518.6423639999998
 20
248.571523
 30
0.0
 11
689.985639
 21
248.571523
 31
0.0
  0
LINE
  5
1CC
330
6B
100
AcDbEntity
  8
0
 62
     3
100
AcDbLine
 10
470.088329
 20
248.571523
 30
0.0
 11
299.985639
 21
248.571523
 31
0.0
  0
TEXT
  5
1CD
330
6B
100
AcDbEntity
  8
0
 62
     3
100
AcDbText
 10
580.499593
 20
10.351411
 30
0.0
 40
2.0
  1
CONPONENTS
 41
0.5331600000000001
100
AcDbText
  0
TEXT
  5
1CE
330
6B
100
AcDbEntity
  8
0
 62
     3
100
AcDbText
 10
580.1498669999999
 20
-8.580766
 30
0.0
 40
3.0
  1
材
 41
0.833333
100
AcDbText
  0
TEXT
  5
1CF
330
6B
100
AcDbEntity
  8
0
 62
     3
100
AcDbText
 10
587.685509
 20
-8.580766
 30
0.0
 40
3.0
  1
質
 41
0.833333
100
AcDbText
  0
TEXT
  5
1D0
330
6B
100
AcDbEntity
  8
0
 62
     3
100
AcDbText
 10
580.2379369999998
 20
2.043759
 30
0.0
 40
2.0
  1
MODEL
 41
1.031072999999999
100
AcDbText
  0
TEXT
  5
1D1
330
6B
100
AcDbEntity
  8
0
 62
     3
100
AcDbText
 10
580.1498669999999
 20
-4.898457999999998
 30
0.0
 40
2.0
  1
MATERIAL
 41
0.659278
100
AcDbText
  0
TEXT
  5
1D2
330
6B
100
AcDbEntity
  8
0
 62
     3
100
AcDbText
 10
611.4571469999998
 20
-8.580766
 30
0.0
 40
3.0
  1
備
 41
0.833333
100
AcDbText
  0
TEXT
  5
1D3
330
6B
100
AcDbEntity
  8
0
 62
     3
100
AcDbText
 10
618.190149
 20
-8.580766
 30
0.0
 40
3.0
  1
考
 41
0.833333
100
AcDbText
  0
TEXT
  5
1D4
330
6B
100
AcDbEntity
  8
0
 62
     3
100
AcDbText
 10
611.8754696440846
 20
-4.898457999999998
 30
0.0
 40
2.0
  1
REMARKS
 41
0.675794
100
AcDbText
  0
TEXT
  5
1D5
330
6B
100
AcDbEntity
  8
0
 62
     3
100
AcDbText
 10
581.7395959999998
 20
-11.818578
 30
0.0
 40
2.0
  1
3AD
 41
1.42614
100
AcDbText
  0
TEXT
  5
1D6
330
6B
100
AcDbEntity
  8
0
 62
     3
100
AcDbText
 10
591.0505749999998
 20
-11.652845
 30
0.0
 40
2.0
  1
ANGLE
 41
1.669883999999998
100
AcDbText
  0
TEXT
  5
1D7
330
6B
100
AcDbEntity
  8
0
 62
     3
100
AcDbText
 10
611.984462
 20
-12.029686
 30
0.0
 40
2.0
  1
SCALE
 41
0.7719630000000001
100
AcDbText
  0
TEXT
  5
1D8
330
6B
100
AcDbEntity
  8
0
 62
     3
100
AcDbText
 10
581.425725
 20
-15.818115
 30
0.0
 40
3.0
  1
第
 41
0.833333
100
AcDbText
  0
TEXT
  5
1D9
330
6B
100
AcDbEntity
  8
0
 62
     3
100
AcDbText
 10
589.2125749999999
 20
-15.818115
 30
0.0
 40
3.0
  1
三
 41
0.833333
100
AcDbText
  0
TEXT
  5
1DA
330
6B
100
AcDbEntity
  8
0
 62
     3
100
AcDbText
 10
596.999425
 20
-15.818115
 30
0.0
 40
3.0
  1
角
 41
0.833333
100
AcDbText
  0
TEXT
  5
1DB
330
6B
100
AcDbEntity
  8
0
 62
     3
100
AcDbText
 10
604.786275
 20
-15.818115
 30
0.0
 40
3.0
  1
法
 41
0.833333
100
AcDbText
  0
TEXT
  5
1DC
330
6B
100
AcDbEntity
  8
0
 62
     3
100
AcDbText
 10
611.8476669999998
 20
-15.52968599999999
 30
0.0
 40
3.0
  1
尺
 41
0.833333
100
AcDbText
  0
TEXT
  5
1DD
330
6B
100
AcDbEntity
  8
0
 62
     3
100
AcDbText
 10
618.580669
 20
-15.52968599999999
 30
0.0
 40
3.0
  1
度
 41
0.833333
100
AcDbText
  0
TEXT
  5
1DE
330
6B
100
AcDbEntity
  8
0
 62
     3
100
AcDbText
 10
641.16394
 20
6.639613999999999
 30
0.0
 40
3.0
  1
承認
 41
1.089472999999999
100
AcDbText
  0
TEXT
  5
1DF
330
6B
100
AcDbEntity
  8
0
 62
     3
100
AcDbText
 10
654.40682
 20
6.581885
 30
0.0
 40
3.0
  1
検図
 41
0.931761
100
AcDbText
  0
TEXT
  5
1E0
330
6B
100
AcDbEntity
  8
0
 62
     3
100
AcDbText
 10
667.4072169999998
 20
6.581885
 30
0.0
 40
3.0
  1
設
 41
0.833333
100
AcDbText
  0
TEXT
  5
1E1
330
6B
100
AcDbEntity
  8
0
 62
     3
100
AcDbText
 10
671.8970849999998
 20
6.581885
 30
0.0
 40
3.0
  1
計
 41
0.833333
100
AcDbText
  0
TEXT
  5
1E2
330
6B
100
AcDbEntity
  8
0
 62
     3
100
AcDbText
 10
580.5697
 20
6.754436999999998
 30
0.0
 40
3.0
  1
品
 41
0.833333
100
AcDbText
  0
TEXT
  5
1E3
330
6B
100
AcDbEntity
  8
0
 62
     3
100
AcDbText
 10
588.1053419999998
 20
6.754436999999998
 30
0.0
 40
3.0
  1
名
 41
0.833333
100
AcDbText
  0
TEXT
  5
1E4
330
6B
100
AcDbEntity
  8
0
 62
     3
100
AcDbText
 10
580.2379369999998
 20
-1.474790868897423
 30
0.0
 40
3.0
  1
型
 41
0.833333
100
AcDbText
  0
TEXT
  5
1E5
330
6B
100
AcDbEntity
  8
0
 62
     3
100
AcDbText
 10
587.786028
 20
-1.474790868897423
 30
0.0
 40
3.0
  1
式
 41
0.833333
100
AcDbText
  0
TEXT
  5
1ED
330
6B
100
AcDbEntity
  8
0
 62
     3
100
AcDbText
 10
421.7241859147523
 20
89.722699
 30
0.0
 40
4.5
  1
主　　仕　　様
  7
高4.5
100
AcDbText
  0
TEXT
  5
1EE
330
6B
100
AcDbEntity
  8
0
 62
     3
100
AcDbText
 10
401.307141
 20
81.67304900000003
 30
0.0
 40
3.2
  1
型　　式
  7
高3.2
100
AcDbText
  0
TEXT
  5
1EF
330
6B
100
AcDbEntity
  8
0
 62
     3
100
AcDbText
 10
597.164644
 20
6.141494
 30
0.0
 40
4.5
  1
コンバーター
  7
高4.5
100
AcDbText
  0
TEXT
  5
1F0
330
6B
100
AcDbEntity
  8
0
 62
     3
100
AcDbText
 10
654.321556
 20
-15.007917
 30
0.0
 40
3.2
  1
2008.10.03
  7
高3.2
100
AcDbText
  0
LINE
  5
1F1
330
6B
100
AcDbEntity
  8
0
 62
     3
100
AcDbLine
 10
399.39189
 20
87.50400799999999
 30
0.0
 11
486.8328067358523
 21
87.50400799999999
 31
0.0
  0
LINE
  5
1F8
330
6B
100
AcDbEntity
  8
0
 62
     3
100
AcDbLine
 10
287.583715
 20
115.016162
 30
0.0
 11
284.985639
 21
113.516162
 31
0.0
  0
LINE
  5
1F9
330
6B
100
AcDbEntity
  8
0
 62
     3
100
AcDbLine
 10
287.583715
 20
115.016162
 30
0.0
 11
284.985639
 21
116.516162
 31
0.0
  0
LINE
  5
1FA
330
6B
100
AcDbEntity
  8
0
 62
     3
100
AcDbLine
 10
284.985639
 20
113.516162
 30
0.0
 11
284.985639
 21
116.516162
 31
0.0
  0
TEXT
  5
1FB
330
6B
100
AcDbEntity
  8
0
 62
     3
100
AcDbText
 10
401.307141
 20
75.173049
 30
0.0
 40
3.2
  1
定格入力電圧
  7
高3.2
100
AcDbText
  0
TEXT
  5
1FC
330
6B
100
AcDbEntity
  8
0
 62
     3
100
AcDbText
 10
401.307141
 20
68.673049
 30
0.0
 40
3.2
  1
入力電圧動作範囲
  7
高3.2
100
AcDbText
  0
TEXT
  5
1FD
330
6B
100
AcDbEntity
  8
0
 62
     3
100
AcDbText
 10
401.307141
 20
62.173049
 30
0.0
 40
3.2
  1
定格出力電圧
  7
高3.2
100
AcDbText
  0
TEXT
  5
1FE
330
6B
100
AcDbEntity
  8
0
 62
     3
100
AcDbText
 10
401.307141
 20
55.304067
 30
0.0
 40
3.2
  1
連続運転定格値
  7
高3.2
100
AcDbText
  0
TEXT
  5
1FF
330
6B
100
AcDbEntity
  8
0
 62
     3
100
AcDbText
 10
401.307141
 20
49.173049
 30
0.0
 40
3.2
  1
瞬間最大出力電流
  7
高3.2
100
AcDbText
  0
TEXT
  5
200
330
6B
100
AcDbEntity
  8
0
 62
     3
100
AcDbText
 10
401.307141
 20
42.673049
 30
0.0
 40
3.2
  1
冷却方式
  7
高3.2
100
AcDbText
  0
TEXT
  5
201
330
6B
100
AcDbEntity
  8
0
 62
     3
100
AcDbText
 10
401.307141
 20
36.173049
 30
0.0
 40
3.2
  1
出力電力（定格）
  7
高3.2
100
AcDbText
  0
TEXT
  5
202
330
6B
100
AcDbEntity
  8
0
 62
     3
100
AcDbText
 10
401.307141
 20
29.673049
 30
0.0
 40
3.2
  1
待機電流
  7
高3.2
100
AcDbText
  0
LINE
  5
203
330
6B
100
AcDbEntity
  8
0
 62
     7
100
AcDbLine
 10
399.39189
 20
55.004008
 30
0.0
 11
486.8328067358523
 21
55.00400799999997
 31
0.0
  0
LINE
  5
204
330
6B
100
AcDbEntity
  8
0
 62
     7
100
AcDbLine
 10
399.39189
 20
61.50400799999999
 30
0.0
 11
486.8328067358523
 21
61.50400799999999
 31
0.0
  0
LINE
  5
205
330
6B
100
AcDbEntity
  8
0
 62
     7
100
AcDbLine
 10
399.39189
 20
68.004008
 30
0.0
 11
486.8328067358523
 21
68.00400799999998
 31
0.0
  0
LINE
  5
206
330
6B
100
AcDbEntity
  8
0
 62
     7
100
AcDbLine
 10
399.39189
 20
74.504008
 30
0.0
 11
486.8328067358523
 21
74.504008
 31
0.0
  0
LINE
  5
207
330
6B
100
AcDbEntity
  8
0
 62
     7
100
AcDbLine
 10
399.39189
 20
81.004008
 30
0.0
 11
486.8328067358523
 21
81.00400799999999
 31
0.0
  0
LINE
  5
208
330
6B
100
AcDbEntity
  8
0
 62
     3
100
AcDbLine
 10
399.39189
 20
-9.995991999999999
 30
0.0
 11
486.8328067358523
 21
-9.995991999999999
 31
0.0
  0
TEXT
  5
209
330
6B
100
AcDbEntity
  8
0
 62
     3
100
AcDbText
 10
401.307141
 20
-9.326950999999999
 30
0.0
 40
3.2
  1
質　　量
  7
高3.2
100
AcDbText
  0
TEXT
  5
20A
330
6B
100
AcDbEntity
  8
0
 62
     3
100
AcDbText
 10
401.307141
 20
23.173049
 30
0.0
 40
3.2
  1
全負荷変換効率
  7
高3.2
100
AcDbText
  0
TEXT
  5
20B
330
6B
100
AcDbEntity
  8
0
 62
     3
100
AcDbText
 10
401.307141
 20
16.673049
 30
0.0
 40
3.2
  1
出力電圧調整範囲
  7
高3.2
100
AcDbText
  0
TEXT
  5
20C
330
6B
100
AcDbEntity
  8
0
 62
     3
100
AcDbText
 10
401.307141
 20
10.173049
 30
0.0
 40
3.2
  1
出力電圧変動率
  7
高3.2
100
AcDbText
  0
TEXT
  5
20D
330
6B
100
AcDbEntity
  8
0
 62
     3
100
AcDbText
 10
401.307141
 20
3.673048999999998
 30
0.0
 40
3.2
  1
入出力絶縁方法
  7
高3.2
100
AcDbText
  0
TEXT
  5
20E
330
6B
100
AcDbEntity
  8
0
 62
     3
100
AcDbText
 10
401.307141
 20
-2.826950999999998
 30
0.0
 40
3.2
  1
使用温度範囲
  7
高3.2
100
AcDbText
  0
TEXT
  5
20F
330
6B
100
AcDbEntity
  8
0
 62
     3
100
AcDbText
 10
435.8000791029746
 20
75.173049
 30
0.0
 40
3.2
  1
DC24V
  7
高3.2
100
AcDbText
  0
TEXT
  5
210
330
6B
100
AcDbEntity
  8
0
 62
     3
100
AcDbText
 10
435.8000791029746
 20
68.673049
 30
0.0
 40
3.2
  1
DC20～30V
  7
高3.2
100
AcDbText
  0
TEXT
  5
211
330
6B
100
AcDbEntity
  8
0
 62
     3
100
AcDbText
 10
435.8000791029746
 20
61.804067
 30
0.0
 40
3.2
  1
DC13.8V
  7
高3.2
100
AcDbText
  0
TEXT
  5
212
330
6B
100
AcDbEntity
  8
0
 62
     3
100
AcDbText
 10
435.8000791029746
 20
29.673049
 30
0.0
 40
3.2
  1
30～40mA
  7
高3.2
100
AcDbText
  0
TEXT
  5
213
330
6B
100
AcDbEntity
  8
0
 62
     3
100
AcDbText
 10
435.8000791029746
 20
23.173049
 30
0.0
 40
3.2
  1
80％以上
  7
高3.2
100
AcDbText
  0
TEXT
  5
214
330
6B
100
AcDbEntity
  8
0
 62
     3
100
AcDbText
 10
435.8000791029746
 20
16.673049
 30
0.0
 40
3.2
  1
DC12～15V(初期設
  7
高3.2
100
AcDbText
  0
TEXT
  5
215
330
6B
100
AcDbEntity
  8
0
 62
     3
100
AcDbText
 10
435.8000791029746
 20
10.173049
 30
0.0
 40
3.2
  1
-0.8～＋0.2
  7
高3.2
100
AcDbText
  0
TEXT
  5
216
330
6B
100
AcDbEntity
  8
0
 62
     3
100
AcDbText
 10
435.8000791029746
 20
3.673048999999998
 30
0.0
 40
3.2
  1
ダイオード
  7
高3.2
100
AcDbText
  0
TEXT
  5
217
330
6B
100
AcDbEntity
  8
0
 62
     3
100
AcDbText
 10
435.8000791029746
 20
-2.826950999999998
 30
0.0
 40
3.2
  1
－20℃～50℃
  7
高3.2
100
AcDbText
  0
LINE
  5
218
330
6B
100
AcDbEntity
  8
0
 62
     3
100
AcDbLine
 10
399.39189
 20
-9.995991999999999
 30
0.0
 11
399.39189
 21
87.50400799999999
 31
0.0
  0
LINE
  5
219
330
6B
100
AcDbEntity
  8
0
 62
     3
100
AcDbLine
 10
433.8848291029746
 20
87.50400799999999
 30
0.0
 11
433.8848291029746
 21
-9.995991999999999
 31
0.0
  0
LINE
  5
21A
330
6B
100
AcDbEntity
  8
0
 62
     3
100
AcDbLine
 10
486.8328067358523
 20
87.50400799999999
 30
0.0
 11
486.8328067358523
 21
-9.995991999999999
 31
0.0
  0
LINE
  5
21B
330
6B
100
AcDbEntity
  8
0
 62
     7
100
AcDbLine
 10
399.39189
 20
16.004008
 30
0.0
 11
486.8328067358523
 21
16.004008
 31
0.0
  0
LINE
  5
21C
330
6B
100
AcDbEntity
  8
0
 62
     7
100
AcDbLine
 10
399.39189
 20
48.504008
 30
0.0
 11
486.8328067358523
 21
48.504008
 31
0.0
  0
LINE
  5
21D
330
6B
100
AcDbEntity
  8
0
 62
     7
100
AcDbLine
 10
399.39189
 20
42.00400799999999
 30
0.0
 11
486.8328067358523
 21
42.00400799999999
 31
0.0
  0
LINE
  5
21E
330
6B
100
AcDbEntity
  8
0
 62
     7
100
AcDbLine
 10
399.39189
 20
35.504008
 30
0.0
 11
486.8328067358523
 21
35.504008
 31
0.0
  0
LINE
  5
21F
330
6B
100
AcDbEntity
  8
0
 62
     7
100
AcDbLine
 10
399.39189
 20
29.004008
 30
0.0
 11
486.8328067358523
 21
29.004008
 31
0.0
  0
LINE
  5
220
330
6B
100
AcDbEntity
  8
0
 62
     7
100
AcDbLine
 10
399.39189
 20
22.504008
 30
0.0
 11
486.8328067358523
 21
22.504008
 31
0.0
  0
LINE
  5
221
330
6B
100
AcDbEntity
  8
0
 62
     7
100
AcDbLine
 10
399.39189
 20
9.504008
 30
0.0
 11
486.8328067358523
 21
9.504008
 31
0.0
  0
LINE
  5
222
330
6B
100
AcDbEntity
  8
0
 62
     7
100
AcDbLine
 10
399.39189
 20
3.004008
 30
0.0
 11
486.8328067358523
 21
3.004007999999998
 31
0.0
  0
LINE
  5
223
330
6B
100
AcDbEntity
  8
0
 62
     7
100
AcDbLine
 10
399.39189
 20
-3.495991999999998
 30
0.0
 11
486.8328067358523
 21
-3.495991999999998
 31
0.0
  0
TEXT
  5
224
330
6B
100
AcDbEntity
  8
0
 62
     3
100
AcDbText
 10
435.8000791029746
 20
81.67304900000003
 30
0.0
 40
3.2
  1
BU-12A
  7
高3.2
100
AcDbText
  0
TEXT
  5
225
330
6B
100
AcDbEntity
  8
0
 62
     3
100
AcDbText
 10
435.8000791029746
 20
55.67304899999999
 30
0.0
 40
3.2
  1
10A
  7
高3.2
100
AcDbText
  0
TEXT
  5
226
330
6B
100
AcDbEntity
  8
0
 62
     3
100
AcDbText
 10
435.8000791029746
 20
49.173049
 30
0.0
 40
3.2
  1
12A
  7
高3.2
100
AcDbText
  0
TEXT
  5
227
330
6B
100
AcDbEntity
  8
0
 62
     3
100
AcDbText
 10
435.8000791029746
 20
42.673049
 30
0.0
 40
3.2
  1
ヒートシンク放射冷却,FAN
  7
高3.2
100
AcDbText
  0
TEXT
  5
228
330
6B
100
AcDbEntity
  8
0
 62
     3
100
AcDbText
 10
435.8000791029746
 20
36.173049
 30
0.0
 40
3.2
  1
165.6W
  7
高3.2
100
AcDbText
  0
TEXT
  5
229
330
6B
100
AcDbEntity
  8
0
 62
     3
100
AcDbText
 10
435.8000791029746
 20
-9.326950999999999
 30
0.0
 40
3.2
  1
約0.85kg
  7
高3.2
100
AcDbText
  0
TEXT
  5
22A
330
6B
100
AcDbEntity
  8
0
 62
     3
100
AcDbText
 10
595.5211259999998
 20
-1.306738999999998
 30
0.0
 40
4.5
  1
BU-12A
  7
高4.5
100
AcDbText
  0
TEXT
  5
22B
330
6B
100
AcDbEntity
  8
0
 62
     3
100
AcDbText
 10
644.5993226744083
 20
-24.808748
 30
0.0
 40
6.299999999999998
  1
BU-12A
  7
高6.3
100
AcDbText
  0
TEXT
  5
22C
330
6B
100
AcDbEntity
  8
0
 62
     3
100
AcDbText
 10
665.5790299999998
 20
14.743385
 30
0.0
 40
4.5
  1
6313
  7
高4.5
100
AcDbText
  0
TEXT
  5
22D
330
6B
100
AcDbEntity
  8
0
 62
     3
100
AcDbText
 10
579.672775
 20
27.586213
 30
0.0
 40
4.5
  1
バックアップ回路内蔵
  7
高4.5
100
AcDbText
  0
TEXT
  5
22E
330
6B
100
AcDbEntity
  8
0
 62
     3
100
AcDbText
 10
580.118252
 20
22.685961
 30
0.0
 40
4.5
  1
ACC入力付き
  7
高4.5
100
AcDbText
  0
LINE
  5
22F
330
6B
100
AcDbEntity
  8
0
 62
     3
100
AcDbLine
 10
409.8009959999997
 20
183.333439
 30
0.0
 11
324.491655
 21
183.333439
 31
0.0
  0
LINE
  5
230
330
6B
100
AcDbEntity
  8
0
 62
     3
100
AcDbLine
 10
460.111673
 20
136.833439
 30
0.0
 11
485.5700549999999
 21
136.833439
 31
0.0
  0
LINE
  5
231
330
6B
100
AcDbEntity
  8
0
 62
     3
100
AcDbLine
 10
413.146325
 20
132.333439
 30
0.0
 11
413.146325
 21
145.833439
 31
0.0
  0
LINE
  5
232
330
6B
100
AcDbEntity
  8
0
 62
     3
100
AcDbLine
 10
321.146325
 20
132.333439
 30
0.0
 11
321.146325
 21
145.833439
 31
0.0
  0
LINE
  5
233
330
6B
100
AcDbEntity
  8
0
 62
     3
100
AcDbLine
 10
321.146325
 20
132.333439
 30
0.0
 11
413.146325
 21
132.333439
 31
0.0
  0
LINE
  5
234
330
6B
100
AcDbEntity
  8
0
 62
     3
100
AcDbLine
 10
328.146325
 20
141.333439
 30
0.0
 11
360.607977
 21
141.333439
 31
0.0
  0
ARC
  5
235
330
6B
100
AcDbEntity
  8
0
 62
     3
100
AcDbCircle
 10
323.552575
 20
160.083439
 30
0.0
 40
91.59375
100
AcDbArc
 50
348.004644
 51
13.21298
  0
ARC
  5
236
330
6B
100
AcDbEntity
  8
0
 62
     3
100
AcDbCircle
 10
410.740075
 20
160.083439
 30
0.0
 40
91.59375
100
AcDbArc
 50
166.78702
 51
191.995356
  0
LINE
  5
237
330
6B
100
AcDbEntity
  8
0
 62
     3
100
AcDbLine
 10
327.146325
 20
146.833439
 30
0.0
 11
322.146325
 21
146.833439
 31
0.0
  0
LINE
  5
238
330
6B
100
AcDbEntity
  8
0
 62
     3
100
AcDbLine
 10
406.146325
 20
141.333439
 30
0.0
 11
406.146325
 21
145.833439
 31
0.0
  0
LINE
  5
239
330
6B
100
AcDbEntity
  8
0
 62
     3
100
AcDbLine
 10
328.146325
 20
141.333439
 30
0.0
 11
328.146325
 21
145.833439
 31
0.0
  0
LINE
  5
23A
330
6B
100
AcDbEntity
  8
0
 62
     3
100
AcDbLine
 10
407.1463249999998
 20
146.833439
 30
0.0
 11
412.1463249999997
 21
146.833439
 31
0.0
  0
CIRCLE
  5
23B
330
6B
100
AcDbEntity
  8
0
 62
     3
100
AcDbCircle
 10
367.146325
 20
154.833439
 30
0.0
 40
15.0
  0
LINE
  5
23C
330
6B
100
AcDbEntity
  8
0
 62
     3
100
AcDbLine
 10
373.684673
 20
141.333439
 30
0.0
 11
406.146325
 21
141.333439
 31
0.0
  0
CIRCLE
  5
23D
330
6B
100
AcDbEntity
  8
0
 62
     3
100
AcDbCircle
 10
339.646325
 20
167.033439
 30
0.0
 40
5.5
  0
CIRCLE
  5
23E
330
6B
100
AcDbEntity
  8
0
 62
     3
100
AcDbCircle
 10
339.646325
 20
148.033439
 30
0.0
 40
5.5
  0
LINE
  5
23F
330
6B
100
AcDbEntity
  8
0
 62
     3
100
AcDbLine
 10
401.146325
 20
146.333439
 30
0.0
 11
387.146325
 21
146.333439
 31
0.0
  0
LINE
  5
240
330
6B
100
AcDbEntity
  8
0
 62
     3
100
AcDbLine
 10
401.146325
 20
165.333439
 30
0.0
 11
387.146325
 21
165.333439
 31
0.0
  0
LINE
  5
241
330
6B
100
AcDbEntity
  8
0
 62
     3
100
AcDbLine
 10
401.146325
 20
165.333439
 30
0.0
 11
401.146325
 21
146.333439
 31
0.0
  0
LINE
  5
242
330
6B
100
AcDbEntity
  8
0
 62
     3
100
AcDbLine
 10
387.146325
 20
165.333439
 30
0.0
 11
387.146325
 21
146.333439
 31
0.0
  0
ARC
  5
243
330
6B
100
AcDbEntity
  8
0
 62
     3
100
AcDbCircle
 10
412.1463249999997
 20
145.833439
 30
0.0
 40
1.0
100
AcDbArc
 50
0.0
 51
90.0
  0
ARC
  5
244
330
6B
100
AcDbEntity
  8
0
 62
     3
100
AcDbCircle
 10
407.1463249999998
 20
145.833439
 30
0.0
 40
1.0
100
AcDbArc
 50
90.0
 51
180.0
  0
ARC
  5
245
330
6B
100
AcDbEntity
  8
0
 62
     3
100
AcDbCircle
 10
327.146325
 20
145.833439
 30
0.0
 40
1.0
100
AcDbArc
 50
0.0
 51
90.0
  0
ARC
  5
246
330
6B
100
AcDbEntity
  8
0
 62
     3
100
AcDbCircle
 10
322.146325
 20
145.833439
 30
0.0
 40
1.0
100
AcDbArc
 50
90.0
 51
180.0
  0
ARC
  5
247
330
6B
100
AcDbEntity
  8
0
 62
     3
100
AcDbCircle
 10
409.8009959999997
 20
180.333439
 30
0.0
 40
3.0
100
AcDbArc
 50
13.21298
 51
90.0
  0
ARC
  5
248
330
6B
100
AcDbEntity
  8
0
 62
     3
100
AcDbCircle
 10
324.491655
 20
180.333439
 30
0.0
 40
3.0
100
AcDbArc
 50
90.0
 51
166.78702
  0
LINE
  5
249
330
6B
100
AcDbEntity
  8
0
 62
     3
100
AcDbLine
 10
460.111673
 20
183.333439
 30
0.0
 11
483.334353
 21
183.333439
 31
0.0
  0
LINE
  5
24A
330
6B
100
AcDbEntity
  8
0
 62
     3
100
AcDbLine
 10
490.767186
 20
183.333439
 30
0.0
 11
536.5981689999999
 21
183.333439
 31
0.0
  0
LINE
  5
24B
330
6B
100
AcDbEntity
  8
0
 62
     3
100
AcDbLine
 10
493.002888
 20
136.833439
 30
0.0
 11
536.5981689999999
 21
136.833439
 31
0.0
  0
LINE
  5
24C
330
6B
100
AcDbEntity
  8
0
 62
     3
100
AcDbLine
 10
460.111673
 20
136.833439
 30
0.0
 11
460.111673
 21
183.333439
 31
0.0
  0
LINE
  5
24D
330
6B
100
AcDbEntity
  8
0
 62
     3
100
AcDbLine
 10
536.5981689999999
 20
136.833439
 30
0.0
 11
536.5981689999999
 21
183.333439
 31
0.0
  0
LINE
  5
24E
330
6B
100
AcDbEntity
  8
0
 62
     3
100
AcDbLine
 10
610.498377
 20
137.833439
 30
0.0
 11
610.498377
 21
141.333439
 31
0.0
  0
LINE
  5
24F
330
6B
100
AcDbEntity
  8
0
 62
     3
100
AcDbLine
 10
617.4983769999998
 20
137.833439
 30
0.0
 11
617.4983769999998
 21
141.333439
 31
0.0
  0
LINE
  5
250
330
6B
100
AcDbEntity
  8
0
 62
     3
100
AcDbLine
 10
567.9983769999998
 20
132.333439
 30
0.0
 11
567.9983769999998
 21
145.833439
 31
0.0
  0
ARC
  5
251
330
6B
100
AcDbEntity
  8
0
 62
     3
100
AcDbCircle
 10
568.998377
 20
145.833439
 30
0.0
 40
1.0
100
AcDbArc
 50
90.0
 51
180.0
  0
LINE
  5
252
330
6B
100
AcDbEntity
  8
0
 62
     3
100
AcDbLine
 10
659.998377
 20
132.333439
 30
0.0
 11
659.998377
 21
145.833439
 31
0.0
  0
LINE
  5
253
330
6B
100
AcDbEntity
  8
0
 62
     3
100
AcDbLine
 10
656.6530479999999
 20
183.333439
 30
0.0
 11
571.343707
 21
183.333439
 31
0.0
  0
LINE
  5
254
330
6B
100
AcDbEntity
  8
0
 62
     3
100
AcDbLine
 10
617.4983769999998
 20
137.833439
 30
0.0
 11
610.498377
 21
137.833439
 31
0.0
  0
LINE
  5
255
330
6B
100
AcDbEntity
  8
0
 62
     3
100
AcDbLine
 10
574.998377
 20
141.333439
 30
0.0
 11
610.498377
 21
141.333439
 31
0.0
  0
LINE
  5
256
330
6B
100
AcDbEntity
  8
0
 62
     3
100
AcDbLine
 10
617.4983769999998
 20
141.333439
 30
0.0
 11
652.998377
 21
141.333439
 31
0.0
  0
LINE
  5
257
330
6B
100
AcDbEntity
  8
0
 62
     3
100
AcDbLine
 10
573.998377
 20
146.833439
 30
0.0
 11
568.998377
 21
146.833439
 31
0.0
  0
ARC
  5
258
330
6B
100
AcDbEntity
  8
0
 62
     3
100
AcDbCircle
 10
573.998377
 20
145.833439
 30
0.0
 40
1.0
100
AcDbArc
 50
0.0
 51
90.0
  0
LINE
  5
259
330
6B
100
AcDbEntity
  8
0
 62
     3
100
AcDbLine
 10
653.998377
 20
146.833439
 30
0.0
 11
658.9983769999999
 21
146.833439
 31
0.0
  0
ARC
  5
25A
330
6B
100
AcDbEntity
  8
0
 62
     3
100
AcDbCircle
 10
658.9983769999999
 20
145.833439
 30
0.0
 40
1.0
100
AcDbArc
 50
0.0
 51
90.0
  0
LINE
  5
25B
330
6B
100
AcDbEntity
  8
0
 62
     3
100
AcDbLine
 10
567.9983769999998
 20
132.333439
 30
0.0
 11
659.998377
 21
132.333439
 31
0.0
  0
ARC
  5
25C
330
6B
100
AcDbEntity
  8
0
 62
     3
100
AcDbCircle
 10
570.404627
 20
160.083439
 30
0.0
 40
91.59375
100
AcDbArc
 50
348.004644
 51
13.21298
  0
ARC
  5
25D
330
6B
100
AcDbEntity
  8
0
 62
     3
100
AcDbCircle
 10
657.592127
 20
160.083439
 30
0.0
 40
91.59375
100
AcDbArc
 50
166.78702
 51
191.995356
  0
LINE
  5
25E
330
6B
100
AcDbEntity
  8
0
 62
     3
100
AcDbLine
 10
652.998377
 20
141.333439
 30
0.0
 11
652.998377
 21
145.833439
 31
0.0
  0
ARC
  5
25F
330
6B
100
AcDbEntity
  8
0
 62
     3
100
AcDbCircle
 10
653.998377
 20
145.833439
 30
0.0
 40
1.0
100
AcDbArc
 50
90.0
 51
180.0
  0
LINE
  5
260
330
6B
100
AcDbEntity
  8
0
 62
     3
100
AcDbLine
 10
574.998377
 20
141.333439
 30
0.0
 11
574.998377
 21
145.833439
 31
0.0
  0
ARC
  5
261
330
6B
100
AcDbEntity
  8
0
 62
     3
100
AcDbCircle
 10
656.6530479999999
 20
180.333439
 30
0.0
 40
3.0
100
AcDbArc
 50
13.21298
 51
90.0
  0
ARC
  5
262
330
6B
100
AcDbEntity
  8
0
 62
     3
100
AcDbCircle
 10
571.343707
 20
180.333439
 30
0.0
 40
3.0
100
AcDbArc
 50
90.0
 51
166.78702
  0
LINE
  5
263
330
6B
100
AcDbEntity
  8
0
 62
     3
100
AcDbLine
 10
523.5424799999998
 20
120.051403
 30
0.0
 11
523.5424799999998
 21
125.051403
 31
0.0
  0
LINE
  5
264
330
6B
100
AcDbEntity
  8
0
 62
     3
100
AcDbLine
 10
503.5424799999998
 20
120.051403
 30
0.0
 11
503.5424799999998
 21
125.051403
 31
0.0
  0
LINE
  5
265
330
6B
100
AcDbEntity
  8
0
 62
     3
100
AcDbLine
 10
503.5424799999998
 20
125.051403
 30
0.0
 11
523.5424799999998
 21
125.051403
 31
0.0
  0
LINE
  5
266
330
6B
100
AcDbEntity
  8
0
 62
     3
100
AcDbLine
 10
503.5424799999998
 20
120.051403
 30
0.0
 11
523.5424799999998
 21
120.051403
 31
0.0
  0
LINE
  5
267
330
6B
100
AcDbEntity
  8
0
 62
     7
100
AcDbLine
 10
321.146325
 20
133.333439
 30
0.0
 11
413.146325
 21
133.333439
 31
0.0
  0
CIRCLE
  5
268
330
6B
100
AcDbEntity
  8
0
 62
     7
100
AcDbCircle
 10
409.646325
 20
142.833439
 30
0.0
 40
2.5
  0
CIRCLE
  5
269
330
6B
100
AcDbEntity
  8
0
 62
     7
100
AcDbCircle
 10
324.646325
 20
142.833439
 30
0.0
 40
2.5
  0
CIRCLE
  5
26A
330
6B
100
AcDbEntity
  8
0
 62
     7
100
AcDbCircle
 10
409.646325
 20
180.333439
 30
0.0
 40
2.5
  0
CIRCLE
  5
26B
330
6B
100
AcDbEntity
  8
0
 62
     7
100
AcDbCircle
 10
324.646325
 20
180.333439
 30
0.0
 40
2.5
  0
LINE
  5
26C
330
6B
100
AcDbEntity
  8
0
 62
     7
100
AcDbLine
 10
370.646325
 20
137.833439
 30
0.0
 11
363.646325
 21
137.833439
 31
0.0
  0
LINE
  5
26D
330
6B
100
AcDbEntity
  8
0
 62
     7
100
AcDbLine
 10
370.646325
 20
137.833439
 30
0.0
 11
370.646325
 21
140.247487
 31
0.0
  0
LINE
  5
26E
330
6B
100
AcDbEntity
  8
0
 62
     7
100
AcDbLine
 10
363.646325
 20
137.833439
 30
0.0
 11
363.646325
 21
140.247487
 31
0.0
  0
LINE
  5
26F
330
6B
100
AcDbEntity
  8
0
 62
     7
100
AcDbLine
 10
368.278931
 20
174.833439
 30
0.0
 11
366.013719
 21
174.833439
 31
0.0
  0
LINE
  5
270
330
6B
100
AcDbEntity
  8
0
 62
     7
100
AcDbLine
 10
369.268896
 20
173.974749
 30
0.0
 11
369.896325
 21
169.579201
 31
0.0
  0
LINE
  5
271
330
6B
100
AcDbEntity
  8
0
 62
     7
100
AcDbLine
 10
365.023754
 20
173.974749
 30
0.0
 11
364.396325
 21
169.579201
 31
0.0
  0
LINE
  5
272
330
6B
100
AcDbEntity
  8
0
 62
     7
100
AcDbLine
 10
324.646325
 20
167.033439
 30
0.0
 11
334.146325
 21
167.033439
 31
0.0
  0
LINE
  5
273
330
6B
100
AcDbEntity
  8
0
 62
     7
100
AcDbLine
 10
389.896325
 20
148.033439
 30
0.0
 11
398.396325
 21
148.033439
 31
0.0
  0
CIRCLE
  5
274
330
6B
100
AcDbEntity
  8
0
 62
     7
100
AcDbCircle
 10
339.646325
 20
167.033439
 30
0.0
 40
3.5
  0
CIRCLE
  5
275
330
6B
100
AcDbEntity
  8
0
 62
     7
100
AcDbCircle
 10
339.646325
 20
148.033439
 30
0.0
 40
3.5
  0
LINE
  5
276
330
6B
100
AcDbEntity
  8
0
 62
     7
100
AcDbLine
 10
398.396325
 20
163.0334389999999
 30
0.0
 11
389.896325
 21
163.0334389999999
 31
0.0
  0
ARC
  5
277
330
6B
100
AcDbEntity
  8
0
 62
     7
100
AcDbCircle
 10
370.771325
 20
155.533439
 30
0.0
 40
28.625
100
AcDbArc
 50
344.810713
 51
15.189287
  0
ARC
  5
278
330
6B
100
AcDbEntity
  8
0
 62
     7
100
AcDbCircle
 10
417.5213249999997
 20
155.533439
 30
0.0
 40
28.625
100
AcDbArc
 50
164.810713
 51
195.189287
  0
LINE
  5
279
330
6B
100
AcDbEntity
  8
0
 62
     7
100
AcDbLine
 10
390.646325
 20
159.114685
 30
0.0
 11
397.646325
 21
159.114685
 31
0.0
  0
LINE
  5
27A
330
6B
100
AcDbEntity
  8
0
 62
     7
100
AcDbLine
 10
398.396325
 20
163.0334389999999
 30
0.0
 11
397.646325
 21
159.114685
 31
0.0
  0
LINE
  5
27B
330
6B
100
AcDbEntity
  8
0
 62
     7
100
AcDbLine
 10
397.646325
 20
159.114685
 30
0.0
 11
398.396325
 21
148.033439
 31
0.0
  0
LINE
  5
27C
330
6B
100
AcDbEntity
  8
0
 62
     7
100
AcDbLine
 10
389.896325
 20
163.0334389999999
 30
0.0
 11
390.646325
 21
159.114685
 31
0.0
  0
LINE
  5
27D
330
6B
100
AcDbEntity
  8
0
 62
     7
100
AcDbLine
 10
390.646325
 20
159.114685
 30
0.0
 11
389.896325
 21
148.033439
 31
0.0
  0
LINE
  5
27E
330
6B
100
AcDbEntity
  8
0
 62
     7
100
AcDbLine
 10
324.646325
 20
148.033439
 30
0.0
 11
334.146325
 21
148.033439
 31
0.0
  0
LINE
  5
27F
330
6B
100
AcDbEntity
  8
0
 62
     7
100
AcDbLine
 10
381.146325
 20
149.533439
 30
0.0
 11
381.146325
 21
149.448274
 31
0.0
  0
LINE
  5
280
330
6B
100
AcDbEntity
  8
0
 62
     7
100
AcDbLine
 10
382.146325
 20
149.533439
 30
0.0
 11
382.146325
 21
165.533439
 31
0.0
  0
LINE
  5
281
330
6B
100
AcDbEntity
  8
0
 62
     7
100
AcDbLine
 10
383.146325
 20
165.533439
 30
0.0
 11
383.146325
 21
149.533439
 31
0.0
  0
LINE
  5
282
330
6B
100
AcDbEntity
  8
0
 62
     7
100
AcDbLine
 10
384.146325
 20
165.533439
 30
0.0
 11
384.146325
 21
149.533439
 31
0.0
  0
LINE
  5
283
330
6B
100
AcDbEntity
  8
0
 62
     7
100
AcDbLine
 10
385.146325
 20
165.533439
 30
0.0
 11
385.146325
 21
149.533439
 31
0.0
  0
LINE
  5
284
330
6B
100
AcDbEntity
  8
0
 62
     7
100
AcDbLine
 10
386.146325
 20
165.533439
 30
0.0
 11
386.146325
 21
149.533439
 31
0.0
  0
LINE
  5
285
330
6B
100
AcDbEntity
  8
0
 62
     7
100
AcDbLine
 10
402.146325
 20
149.533439
 30
0.0
 11
402.146325
 21
161.802194
 31
0.0
  0
LINE
  5
286
330
6B
100
AcDbEntity
  8
0
 62
     7
100
AcDbLine
 10
403.1463249999998
 20
149.533439
 30
0.0
 11
403.1463249999998
 21
161.802194
 31
0.0
  0
LINE
  5
287
330
6B
100
AcDbEntity
  8
0
 62
     7
100
AcDbLine
 10
404.1463249999997
 20
149.533439
 30
0.0
 11
404.1463249999997
 21
161.802194
 31
0.0
  0
LINE
  5
288
330
6B
100
AcDbEntity
  8
0
 62
     7
100
AcDbLine
 10
405.146325
 20
149.533439
 30
0.0
 11
405.146325
 21
161.802194
 31
0.0
  0
LINE
  5
289
330
6B
100
AcDbEntity
  8
0
 62
     7
100
AcDbLine
 10
406.146325
 20
149.533439
 30
0.0
 11
406.146325
 21
161.802194
 31
0.0
  0
LINE
  5
28A
330
6B
100
AcDbEntity
  8
0
 62
     7
100
AcDbLine
 10
407.1463249999998
 20
149.533439
 30
0.0
 11
407.1463249999998
 21
165.533439
 31
0.0
  0
LINE
  5
28B
330
6B
100
AcDbEntity
  8
0
 62
     7
100
AcDbLine
 10
408.1463249999997
 20
149.533439
 30
0.0
 11
408.1463249999997
 21
165.533439
 31
0.0
  0
LINE
  5
28C
330
6B
100
AcDbEntity
  8
0
 62
     7
100
AcDbLine
 10
409.146325
 20
149.533439
 30
0.0
 11
409.146325
 21
165.533439
 31
0.0
  0
LINE
  5
28D
330
6B
100
AcDbEntity
  8
0
 62
     7
100
AcDbLine
 10
381.146325
 20
160.218604
 30
0.0
 11
381.146325
 21
165.533439
 31
0.0
  0
LINE
  5
28E
330
6B
100
AcDbEntity
  8
0
 62
     7
100
AcDbLine
 10
380.146325
 20
162.316754
 30
0.0
 11
380.146325
 21
165.533439
 31
0.0
  0
LINE
  5
28F
330
6B
100
AcDbEntity
  8
0
 62
     7
100
AcDbLine
 10
379.146325
 20
163.833439
 30
0.0
 11
379.146325
 21
165.533439
 31
0.0
  0
LINE
  5
290
330
6B
100
AcDbEntity
  8
0
 62
     7
100
AcDbLine
 10
378.146325
 20
165.031478
 30
0.0
 11
378.146325
 21
165.533439
 31
0.0
  0
LINE
  5
291
330
6B
100
AcDbEntity
  8
0
 62
     7
100
AcDbLine
 10
356.146325
 20
165.533439
 30
0.0
 11
356.146325
 21
165.031478
 31
0.0
  0
LINE
  5
292
330
6B
100
AcDbEntity
  8
0
 62
     7
100
AcDbLine
 10
355.146325
 20
165.533439
 30
0.0
 11
355.146325
 21
163.833439
 31
0.0
  0
LINE
  5
293
330
6B
100
AcDbEntity
  8
0
 62
     7
100
AcDbLine
 10
354.146325
 20
165.533439
 30
0.0
 11
354.146325
 21
162.316754
 31
0.0
  0
LINE
  5
294
330
6B
100
AcDbEntity
  8
0
 62
     7
100
AcDbLine
 10
353.146325
 20
165.533439
 30
0.0
 11
353.146325
 21
160.218604
 31
0.0
  0
LINE
  5
295
330
6B
100
AcDbEntity
  8
0
 62
     7
100
AcDbLine
 10
352.146325
 20
165.533439
 30
0.0
 11
352.146325
 21
149.533439
 31
0.0
  0
LINE
  5
296
330
6B
100
AcDbEntity
  8
0
 62
     7
100
AcDbLine
 10
351.146325
 20
165.533439
 30
0.0
 11
351.146325
 21
149.533439
 31
0.0
  0
LINE
  5
297
330
6B
100
AcDbEntity
  8
0
 62
     7
100
AcDbLine
 10
350.146325
 20
165.533439
 30
0.0
 11
350.146325
 21
149.533439
 31
0.0
  0
LINE
  5
298
330
6B
100
AcDbEntity
  8
0
 62
     7
100
AcDbLine
 10
349.146325
 20
165.533439
 30
0.0
 11
349.146325
 21
149.533439
 31
0.0
  0
LINE
  5
299
330
6B
100
AcDbEntity
  8
0
 62
     7
100
AcDbLine
 10
348.146325
 20
165.533439
 30
0.0
 11
348.146325
 21
149.533439
 31
0.0
  0
LINE
  5
29A
330
6B
100
AcDbEntity
  8
0
 62
     7
100
AcDbLine
 10
347.146325
 20
165.533439
 30
0.0
 11
347.146325
 21
149.533439
 31
0.0
  0
LINE
  5
29B
330
6B
100
AcDbEntity
  8
0
 62
     7
100
AcDbLine
 10
346.146325
 20
165.533439
 30
0.0
 11
346.146325
 21
149.533439
 31
0.0
  0
LINE
  5
29C
330
6B
100
AcDbEntity
  8
0
 62
     7
100
AcDbLine
 10
345.146325
 20
165.533439
 30
0.0
 11
345.146325
 21
149.533439
 31
0.0
  0
LINE
  5
29D
330
6B
100
AcDbEntity
  8
0
 62
     7
100
AcDbLine
 10
344.146325
 20
163.871162
 30
0.0
 11
344.146325
 21
151.195717
 31
0.0
  0
LINE
  5
29E
330
6B
100
AcDbEntity
  8
0
 62
     7
100
AcDbLine
 10
343.146325
 20
162.790799
 30
0.0
 11
343.146325
 21
152.27608
 31
0.0
  0
LINE
  5
29F
330
6B
100
AcDbEntity
  8
0
 62
     7
100
AcDbLine
 10
342.146325
 20
162.13446
 30
0.0
 11
342.146325
 21
152.932419
 31
0.0
  0
LINE
  5
2A0
330
6B
100
AcDbEntity
  8
0
 62
     7
100
AcDbLine
 10
341.146325
 20
161.741937
 30
0.0
 11
341.146325
 21
153.324942
 31
0.0
  0
LINE
  5
2A1
330
6B
100
AcDbEntity
  8
0
 62
     7
100
AcDbLine
 10
340.146325
 20
161.5562139999999
 30
0.0
 11
340.146325
 21
153.510665
 31
0.0
  0
LINE
  5
2A2
330
6B
100
AcDbEntity
  8
0
 62
     7
100
AcDbLine
 10
339.146325
 20
161.5562139999999
 30
0.0
 11
339.146325
 21
153.510665
 31
0.0
  0
LINE
  5
2A3
330
6B
100
AcDbEntity
  8
0
 62
     7
100
AcDbLine
 10
338.146325
 20
161.741937
 30
0.0
 11
338.146325
 21
153.324942
 31
0.0
  0
LINE
  5
2A4
330
6B
100
AcDbEntity
  8
0
 62
     7
100
AcDbLine
 10
337.146325
 20
162.13446
 30
0.0
 11
337.146325
 21
152.932419
 31
0.0
  0
LINE
  5
2A5
330
6B
100
AcDbEntity
  8
0
 62
     7
100
AcDbLine
 10
336.146325
 20
162.790799
 30
0.0
 11
336.146325
 21
152.27608
 31
0.0
  0
LINE
  5
2A6
330
6B
100
AcDbEntity
  8
0
 62
     7
100
AcDbLine
 10
335.146325
 20
163.871162
 30
0.0
 11
335.146325
 21
151.195717
 31
0.0
  0
LINE
  5
2A7
330
6B
100
AcDbEntity
  8
0
 62
     7
100
AcDbLine
 10
334.146325
 20
149.533439
 30
0.0
 11
334.146325
 21
165.533439
 31
0.0
  0
LINE
  5
2A8
330
6B
100
AcDbEntity
  8
0
 62
     7
100
AcDbLine
 10
333.146325
 20
149.533439
 30
0.0
 11
333.146325
 21
165.533439
 31
0.0
  0
LINE
  5
2A9
330
6B
100
AcDbEntity
  8
0
 62
     7
100
AcDbLine
 10
332.146325
 20
149.533439
 30
0.0
 11
332.146325
 21
165.533439
 31
0.0
  0
LINE
  5
2AA
330
6B
100
AcDbEntity
  8
0
 62
     7
100
AcDbLine
 10
331.146325
 20
149.533439
 30
0.0
 11
331.146325
 21
165.533439
 31
0.0
  0
LINE
  5
2AB
330
6B
100
AcDbEntity
  8
0
 62
     7
100
AcDbLine
 10
330.146325
 20
149.533439
 30
0.0
 11
330.146325
 21
165.533439
 31
0.0
  0
LINE
  5
2AC
330
6B
100
AcDbEntity
  8
0
 62
     7
100
AcDbLine
 10
329.146325
 20
149.533439
 30
0.0
 11
329.146325
 21
165.533439
 31
0.0
  0
LINE
  5
2AD
330
6B
100
AcDbEntity
  8
0
 62
     7
100
AcDbLine
 10
328.146325
 20
149.533439
 30
0.0
 11
328.146325
 21
165.533439
 31
0.0
  0
LINE
  5
2AE
330
6B
100
AcDbEntity
  8
0
 62
     7
100
AcDbLine
 10
327.146325
 20
149.533439
 30
0.0
 11
327.146325
 21
165.533439
 31
0.0
  0
LINE
  5
2AF
330
6B
100
AcDbEntity
  8
0
 62
     7
100
AcDbLine
 10
326.146325
 20
149.533439
 30
0.0
 11
326.146325
 21
165.533439
 31
0.0
  0
LINE
  5
2B0
330
6B
100
AcDbEntity
  8
0
 62
     7
100
AcDbLine
 10
325.146325
 20
149.533439
 30
0.0
 11
325.146325
 21
165.533439
 31
0.0
  0
LINE
  5
2B1
330
6B
100
AcDbEntity
  8
0
 62
     7
100
AcDbLine
 10
353.146325
 20
149.533439
 30
0.0
 11
353.146325
 21
149.448274
 31
0.0
  0
LINE
  5
2B2
330
6B
100
AcDbEntity
  8
0
 62
     7
100
AcDbLine
 10
401.146325
 20
148.033439
 30
0.0
 11
410.146325
 21
148.033439
 31
0.0
  0
LINE
  5
2B3
330
6B
100
AcDbEntity
  8
0
 62
     7
100
AcDbLine
 10
380.5164410000001
 20
148.033439
 30
0.0
 11
387.146325
 21
148.033439
 31
0.0
  0
LINE
  5
2B4
330
6B
100
AcDbEntity
  8
0
 62
     7
100
AcDbLine
 10
345.146325
 20
148.033439
 30
0.0
 11
353.776209
 21
148.033439
 31
0.0
  0
LINE
  5
2B5
330
6B
100
AcDbEntity
  8
0
 62
     7
100
AcDbLine
 10
345.146325
 20
167.033439
 30
0.0
 11
358.419355
 21
167.033439
 31
0.0
  0
LINE
  5
2B6
330
6B
100
AcDbEntity
  8
0
 62
     7
100
AcDbLine
 10
375.8732950000001
 20
167.033439
 30
0.0
 11
410.146325
 21
167.033439
 31
0.0
  0
LINE
  5
2B7
330
6B
100
AcDbEntity
  8
0
 62
     7
100
AcDbLine
 10
406.746325
 20
133.333439
 30
0.0
 11
406.746325
 21
132.333439
 31
0.0
  0
LINE
  5
2B8
330
6B
100
AcDbEntity
  8
0
 62
     7
100
AcDbLine
 10
402.546325
 20
133.333439
 30
0.0
 11
402.546325
 21
132.333439
 31
0.0
  0
LINE
  5
2B9
330
6B
100
AcDbEntity
  8
0
 62
     7
100
AcDbLine
 10
331.746325
 20
132.333439
 30
0.0
 11
331.746325
 21
133.333439
 31
0.0
  0
LINE
  5
2BA
330
6B
100
AcDbEntity
  8
0
 62
     7
100
AcDbLine
 10
327.546325
 20
132.333439
 30
0.0
 11
327.546325
 21
133.333439
 31
0.0
  0
CIRCLE
  5
2BB
330
6B
100
AcDbEntity
  8
0
 62
     7
100
AcDbCircle
 10
400.1463249999998
 20
171.833439
 30
0.0
 40
1.5
  0
CIRCLE
  5
2BC
330
6B
100
AcDbEntity
  8
0
 62
     7
100
AcDbCircle
 10
388.146325
 20
171.833439
 30
0.0
 40
1.5
  0
TEXT
  5
2BD
330
6B
100
AcDbEntity
  8
0
 62
     7
100
AcDbText
 10
383.674808
 20
174.836035
 30
0.0
 40
1.6
  1
POWER
100
AcDbText
  0
TEXT
  5
2BE
330
6B
100
AcDbEntity
  8
0
 62
     7
100
AcDbText
 10
396.558262
 20
177.140884
 30
0.0
 40
1.6
  1
OVER
100
AcDbText
  0
TEXT
  5
2BF
330
6B
100
AcDbEntity
  8
0
 62
     7
100
AcDbText
 10
396.508132
 20
174.78593
 30
0.0
 40
1.6
  1
LOAD
100
AcDbText
  0
TEXT
  5
2C0
330
6B
100
AcDbEntity
  8
0
 62
     7
100
AcDbText
 10
333.315316
 20
179.025744
 30
0.0
 40
1.6
  1
DC OUTPUT
100
AcDbText
  0
TEXT
  5
2C1
330
6B
100
AcDbEntity
  8
0
 62
     7
100
AcDbText
 10
360.619357
 20
155.862165
 30
0.0
 40
3.0
  1
DC12V
100
AcDbText
  0
TEXT
  5
2C2
330
6B
100
AcDbEntity
  8
0
 62
     7
100
AcDbText
 10
361.045306
 20
151.999622
 30
0.0
 40
2.0
  1
SOCKET
100
AcDbText
  0
TEXT
  5
2C3
330
6B
100
AcDbEntity
  8
0
 62
     7
100
AcDbText
 10
402.5014569999998
 20
163.11382
 30
0.0
 40
1.6
  1
ON
100
AcDbText
  0
LINE
  5
2C4
330
6B
100
AcDbEntity
  8
0
 62
     7
100
AcDbLine
 10
358.218102
 20
175.298262
 30
0.0
 11
353.387451
 21
173.743398
 31
0.0
  0
LINE
  5
2C5
330
6B
100
AcDbEntity
  8
0
 62
     7
100
AcDbLine
 10
358.441472
 20
174.216311
 30
0.0
 11
353.548787
 21
172.64148
 31
0.0
  0
ARC
  5
2C6
330
6B
100
AcDbEntity
  8
0
 62
     7
100
AcDbCircle
 10
357.737514
 20
174.635011
 30
0.0
 40
0.819064
100
AcDbArc
 50
329.25669
 51
54.07311600000001
  0
ARC
  5
2C7
330
6B
100
AcDbEntity
  8
0
 62
     7
100
AcDbCircle
 10
352.66866
 20
172.886472
 30
0.0
 40
0.7002030000000002
100
AcDbArc
 50
139.582881
 51
243.7469240000001
  0
ARC
  5
2C8
330
6B
100
AcDbEntity
  8
0
 62
     7
100
AcDbCircle
 10
351.920283
 20
172.731969
 30
0.0
 40
0.645439
100
AcDbArc
 50
312.813763
 51
70.51604300000002
  0
ARC
  5
2C9
330
6B
100
AcDbEntity
  8
0
 62
     7
100
AcDbCircle
 10
352.331687
 20
172.956681
 30
0.0
 40
0.97675
100
AcDbArc
 50
334.293207
 51
43.66077299999999
  0
ARC
  5
2CA
330
6B
100
AcDbEntity
  8
0
 62
     7
100
AcDbCircle
 10
352.765984
 20
173.089636
 30
0.0
 40
0.902012
100
AcDbArc
 50
330.208764
 51
46.450652
  0
LINE
  5
2CB
330
6B
100
AcDbEntity
  8
0
 62
     7
100
AcDbLine
 10
353.038307
 20
173.631017
 30
0.0
 11
352.135565
 21
173.340447
 31
0.0
  0
LINE
  5
2CC
330
6B
100
AcDbEntity
  8
0
 62
     7
100
AcDbLine
 10
353.211763
 20
172.533
 30
0.0
 11
352.358935
 21
172.258496
 31
0.0
  0
LINE
  5
2E8
330
6B
100
AcDbEntity
  8
0
 62
     7
100
AcDbLine
 10
356.721916
 20
176.040425
 30
0.0
 11
353.519673
 21
171.663453
 31
0.0
  0
LINE
  5
2E9
330
6B
100
AcDbEntity
  8
0
 62
     7
100
AcDbLine
 10
353.766
 20
176.204561
 30
0.0
 11
356.749285
 21
171.909658
 31
0.0
  0
LINE
  5
2EA
330
6B
100
AcDbEntity
  8
0
 62
     7
100
AcDbLine
 10
460.111673
 20
132.333439
 30
0.0
 11
460.111673
 21
136.833439
 31
0.0
  0
LINE
  5
2EB
330
6B
100
AcDbEntity
  8
0
 62
     7
100
AcDbLine
 10
535.598169
 20
136.833439
 30
0.0
 11
535.598169
 21
183.333439
 31
0.0
  0
LINE
  5
2EC
330
6B
100
AcDbEntity
  8
0
 62
     7
100
AcDbLine
 10
461.111673
 20
136.833439
 30
0.0
 11
461.111673
 21
183.333439
 31
0.0
  0
LINE
  5
2ED
330
6B
100
AcDbEntity
  8
0
 62
     7
100
AcDbLine
 10
459.111673
 20
133.333439
 30
0.0
 11
459.111673
 21
146.833439
 31
0.0
  0
LINE
  5
2EE
330
6B
100
AcDbEntity
  8
0
 62
     7
100
AcDbLine
 10
459.111673
 20
146.833439
 30
0.0
 11
460.111673
 21
146.833439
 31
0.0
  0
LINE
  5
2EF
330
6B
100
AcDbEntity
  8
0
 62
     7
100
AcDbLine
 10
459.111673
 20
133.333439
 30
0.0
 11
449.111673
 21
133.333439
 31
0.0
  0
LINE
  5
2F0
330
6B
100
AcDbEntity
  8
0
 62
     7
100
AcDbLine
 10
460.111673
 20
132.333439
 30
0.0
 11
449.111673
 21
132.333439
 31
0.0
  0
LINE
  5
2F1
330
6B
100
AcDbEntity
  8
0
 62
     7
100
AcDbLine
 10
449.111673
 20
132.333439
 30
0.0
 11
449.111673
 21
133.333439
 31
0.0
  0
LINE
  5
2F2
330
6B
100
AcDbEntity
  8
0
 62
     7
100
AcDbLine
 10
536.5981689999999
 20
132.333439
 30
0.0
 11
536.5981689999999
 21
136.833439
 31
0.0
  0
LINE
  5
2F3
330
6B
100
AcDbEntity
  8
0
 62
     7
100
AcDbLine
 10
537.5981689999998
 20
133.333439
 30
0.0
 11
537.5981689999998
 21
146.833439
 31
0.0
  0
LINE
  5
2F4
330
6B
100
AcDbEntity
  8
0
 62
     7
100
AcDbLine
 10
547.598169
 20
132.333439
 30
0.0
 11
547.598169
 21
133.333439
 31
0.0
  0
LINE
  5
2F5
330
6B
100
AcDbEntity
  8
0
 62
     7
100
AcDbLine
 10
537.5981689999998
 20
133.333439
 30
0.0
 11
547.598169
 21
133.333439
 31
0.0
  0
LINE
  5
2F6
330
6B
100
AcDbEntity
  8
0
 62
     7
100
AcDbLine
 10
536.5981689999999
 20
132.333439
 30
0.0
 11
547.598169
 21
132.333439
 31
0.0
  0
LINE
  5
2F7
330
6B
100
AcDbEntity
  8
0
 62
     7
100
AcDbLine
 10
536.5981689999999
 20
146.833439
 30
0.0
 11
537.5981689999998
 21
146.833439
 31
0.0
  0
LINE
  5
2F8
330
6B
100
AcDbEntity
  8
0
 62
     7
100
AcDbLine
 10
460.111673
 20
172.533439
 30
0.0
 11
440.111673
 21
172.533439
 31
0.0
  0
LINE
  5
2F9
330
6B
100
AcDbEntity
  8
0
 62
     7
100
AcDbLine
 10
452.3288169999998
 20
142.533439
 30
0.0
 11
440.111673
 21
142.533439
 31
0.0
  0
LINE
  5
2FA
330
6B
100
AcDbEntity
  8
0
 62
     7
100
AcDbLine
 10
452.1116730000001
 20
153.533439
 30
0.0
 11
440.111673
 21
153.533439
 31
0.0
  0
LINE
  5
2FB
330
6B
100
AcDbEntity
  8
0
 62
     7
100
AcDbLine
 10
452.1116730000001
 20
161.533439
 30
0.0
 11
440.111673
 21
161.533439
 31
0.0
  0
LINE
  5
2FC
330
6B
100
AcDbEntity
  8
0
 62
     7
100
AcDbLine
 10
440.111673
 20
142.533439
 30
0.0
 11
440.111673
 21
153.533439
 31
0.0
  0
LINE
  5
2FD
330
6B
100
AcDbEntity
  8
0
 62
     7
100
AcDbLine
 10
440.111673
 20
161.533439
 30
0.0
 11
440.111673
 21
172.533439
 31
0.0
  0
LINE
  5
2FE
330
6B
100
AcDbEntity
  8
0
 62
     7
100
AcDbLine
 10
452.1116730000001
 20
143.833439
 30
0.0
 11
452.1116730000001
 21
165.833439
 31
0.0
  0
ARC
  5
2FF
330
6B
100
AcDbEntity
  8
0
 62
     7
100
AcDbCircle
 10
456.1116730000001
 20
165.833439
 30
0.0
 40
4.0
100
AcDbArc
 50
0.0
 51
180.0
  0
ARC
  5
300
330
6B
100
AcDbEntity
  8
0
 62
     7
100
AcDbCircle
 10
456.1116730000001
 20
143.833439
 30
0.0
 40
4.0
100
AcDbArc
 50
180.0
 51
318.590378
  0
LINE
  5
301
330
6B
100
AcDbEntity
  8
0
 62
     7
100
AcDbLine
 10
460.111673
 20
165.333439
 30
0.0
 11
458.111673
 21
165.333439
 31
0.0
  0
LINE
  5
302
330
6B
100
AcDbEntity
  8
0
 62
     7
100
AcDbLine
 10
459.111673
 20
146.333439
 30
0.0
 11
458.111673
 21
146.333439
 31
0.0
  0
LINE
  5
303
330
6B
100
AcDbEntity
  8
0
 62
     7
100
AcDbLine
 10
458.111673
 20
146.333439
 30
0.0
 11
458.111673
 21
165.333439
 31
0.0
  0
ARC
  5
304
330
6B
100
AcDbEntity
  8
0
 62
     7
100
AcDbCircle
 10
460.9319639999998
 20
156.153835
 30
0.0
 40
7.435253999999998
100
AcDbArc
 50
112.291156
 51
156.533192
  0
ARC
  5
305
330
6B
100
AcDbEntity
  8
0
 62
     7
100
AcDbCircle
 10
431.821181
 20
144.805917
 30
0.0
 40
26.487862
100
AcDbArc
 50
6.998832000000001
 51
32.69731800000001
  0
LINE
  5
306
330
6B
100
AcDbEntity
  8
0
 62
     7
100
AcDbLine
 10
535.598169
 20
162.333439
 30
0.0
 11
487.971119
 21
162.333439
 31
0.0
  0
LINE
  5
307
330
6B
100
AcDbEntity
  8
0
 62
     7
100
AcDbLine
 10
535.598169
 20
167.833439
 30
0.0
 11
485.6958249999998
 21
167.833439
 31
0.0
  0
LINE
  5
308
330
6B
100
AcDbEntity
  8
0
 62
     7
100
AcDbLine
 10
535.598169
 20
159.533439
 30
0.0
 11
489.4586249999998
 21
159.533439
 31
0.0
  0
LINE
  5
309
330
6B
100
AcDbEntity
  8
0
 62
     7
100
AcDbLine
 10
535.598169
 20
156.733439
 30
0.0
 11
491.003744
 21
156.733439
 31
0.0
  0
LINE
  5
30A
330
6B
100
AcDbEntity
  8
0
 62
     7
100
AcDbLine
 10
535.598169
 20
153.933439
 30
0.0
 11
492.4884849999998
 21
153.933439
 31
0.0
  0
LINE
  5
30B
330
6B
100
AcDbEntity
  8
0
 62
     7
100
AcDbLine
 10
535.598169
 20
151.133439
 30
0.0
 11
493.7937299999998
 21
151.133439
 31
0.0
  0
LINE
  5
30C
330
6B
100
AcDbEntity
  8
0
 62
     7
100
AcDbLine
 10
535.598169
 20
148.333439
 30
0.0
 11
494.793911
 21
148.333439
 31
0.0
  0
LINE
  5
30D
330
6B
100
AcDbEntity
  8
0
 62
     7
100
AcDbLine
 10
535.598169
 20
145.533439
 30
0.0
 11
495.3509019999998
 21
145.533439
 31
0.0
  0
LINE
  5
30E
330
6B
100
AcDbEntity
  8
0
 62
     7
100
AcDbLine
 10
535.598169
 20
161.333439
 30
0.0
 11
488.488231
 21
161.333439
 31
0.0
  0
LINE
  5
30F
330
6B
100
AcDbEntity
  8
0
 62
     7
100
AcDbLine
 10
535.598169
 20
158.533439
 30
0.0
 11
490.010001
 21
158.533439
 31
0.0
  0
LINE
  5
310
330
6B
100
AcDbEntity
  8
0
 62
     7
100
AcDbLine
 10
535.598169
 20
155.733439
 30
0.0
 11
491.54705
 21
155.733439
 31
0.0
  0
LINE
  5
311
330
6B
100
AcDbEntity
  8
0
 62
     7
100
AcDbLine
 10
535.598169
 20
152.933439
 30
0.0
 11
492.9815759999998
 21
152.933439
 31
0.0
  0
LINE
  5
312
330
6B
100
AcDbEntity
  8
0
 62
     7
100
AcDbLine
 10
535.598169
 20
150.133439
 30
0.0
 11
494.192795
 21
150.133439
 31
0.0
  0
LINE
  5
313
330
6B
100
AcDbEntity
  8
0
 62
     7
100
AcDbLine
 10
535.598169
 20
147.333439
 30
0.0
 11
495.0514159999998
 21
147.333439
 31
0.0
  0
CIRCLE
  5
314
330
6B
100
AcDbEntity
  8
0
 62
     7
100
AcDbCircle
 10
525.5981689999998
 20
165.083439
 30
0.0
 40
1.5
  0
CIRCLE
  5
315
330
6B
100
AcDbEntity
  8
0
 62
     7
100
AcDbCircle
 10
518.098169
 20
165.083439
 30
0.0
 40
1.5
  0
CIRCLE
  5
316
330
6B
100
AcDbEntity
  8
0
 62
     7
100
AcDbCircle
 10
510.598169
 20
165.083439
 30
0.0
 40
1.5
  0
LINE
  5
33B
330
6B
100
AcDbEntity
  8
0
 62
     7
100
AcDbLine
 10
478.2629929999997
 20
167.833439
 30
0.0
 11
461.111673
 21
167.833439
 31
0.0
  0
LINE
  5
33C
330
6B
100
AcDbEntity
  8
0
 62
     7
100
AcDbLine
 10
487.91807
 20
145.533439
 30
0.0
 11
461.111673
 21
145.533439
 31
0.0
  0
LINE
  5
33D
330
6B
100
AcDbEntity
  8
0
 62
     7
100
AcDbLine
 10
487.6185839999997
 20
147.333439
 30
0.0
 11
461.111673
 21
147.333439
 31
0.0
  0
LINE
  5
33E
330
6B
100
AcDbEntity
  8
0
 62
     7
100
AcDbLine
 10
487.3610789999998
 20
148.333439
 30
0.0
 11
461.111673
 21
148.333439
 31
0.0
  0
LINE
  5
33F
330
6B
100
AcDbEntity
  8
0
 62
     7
100
AcDbLine
 10
486.759962
 20
150.133439
 30
0.0
 11
461.111673
 21
150.133439
 31
0.0
  0
LINE
  5
340
330
6B
100
AcDbEntity
  8
0
 62
     7
100
AcDbLine
 10
486.360898
 20
151.133439
 30
0.0
 11
461.111673
 21
151.133439
 31
0.0
  0
LINE
  5
341
330
6B
100
AcDbEntity
  8
0
 62
     7
100
AcDbLine
 10
485.548744
 20
152.933439
 30
0.0
 11
461.111673
 21
152.933439
 31
0.0
  0
LINE
  5
342
330
6B
100
AcDbEntity
  8
0
 62
     7
100
AcDbLine
 10
485.055653
 20
153.933439
 30
0.0
 11
461.111673
 21
153.933439
 31
0.0
  0
LINE
  5
343
330
6B
100
AcDbEntity
  8
0
 62
     7
100
AcDbLine
 10
484.114218
 20
155.733439
 30
0.0
 11
461.111673
 21
155.733439
 31
0.0
  0
LINE
  5
344
330
6B
100
AcDbEntity
  8
0
 62
     7
100
AcDbLine
 10
483.570912
 20
156.733439
 30
0.0
 11
461.111673
 21
156.733439
 31
0.0
  0
LINE
  5
345
330
6B
100
AcDbEntity
  8
0
 62
     7
100
AcDbLine
 10
482.5771679999999
 20
158.533439
 30
0.0
 11
461.111673
 21
158.533439
 31
0.0
  0
LINE
  5
346
330
6B
100
AcDbEntity
  8
0
 62
     7
100
AcDbLine
 10
482.0257929999998
 20
159.533439
 30
0.0
 11
461.111673
 21
159.533439
 31
0.0
  0
LINE
  5
347
330
6B
100
AcDbEntity
  8
0
 62
     7
100
AcDbLine
 10
481.055399
 20
161.333439
 30
0.0
 11
461.111673
 21
161.333439
 31
0.0
  0
LINE
  5
348
330
6B
100
AcDbEntity
  8
0
 62
     7
100
AcDbLine
 10
480.538287
 20
162.333439
 30
0.0
 11
461.111673
 21
162.333439
 31
0.0
  0
LINE
  5
349
330
6B
100
AcDbEntity
  8
0
 62
     7
100
AcDbLine
 10
368.278931
 20
173.833439
 30
0.0
 11
366.013719
 21
173.833439
 31
0.0
  0
LINE
  5
34A
330
6B
100
AcDbEntity
  8
0
 62
     7
100
AcDbLine
 10
368.421673
 20
172.833439
 30
0.0
 11
365.870977
 21
172.833439
 31
0.0
  0
LINE
  5
34B
330
6B
100
AcDbEntity
  8
0
 62
     7
100
AcDbLine
 10
368.564415
 20
171.833439
 30
0.0
 11
365.728236
 21
171.833439
 31
0.0
  0
LINE
  5
34C
330
6B
100
AcDbEntity
  8
0
 62
     7
100
AcDbLine
 10
368.707156
 20
170.833439
 30
0.0
 11
365.585494
 21
170.833439
 31
0.0
  0
ARC
  5
34D
330
6B
100
AcDbEntity
  8
0
 62
     7
100
AcDbCircle
 10
368.278931
 20
173.833439
 30
0.0
 40
1.0
100
AcDbArc
 50
8.123632
 51
90.0
  0
ARC
  5
34E
330
6B
100
AcDbEntity
  8
0
 62
     7
100
AcDbCircle
 10
366.013719
 20
173.833439
 30
0.0
 40
1.0
100
AcDbArc
 50
90.0
 51
171.876368
  0
LINE
  5
34F
330
6B
100
AcDbEntity
  8
0
 62
     7
100
AcDbLine
 10
369.646325
 20
138.833439
 30
0.0
 11
369.646325
 21
140.04324
 31
0.0
  0
LINE
  5
350
330
6B
100
AcDbEntity
  8
0
 62
     7
100
AcDbLine
 10
364.646325
 20
138.833439
 30
0.0
 11
364.646325
 21
140.04324
 31
0.0
  0
LINE
  5
351
330
6B
100
AcDbEntity
  8
0
 62
     7
100
AcDbLine
 10
369.646325
 20
138.833439
 30
0.0
 11
364.646325
 21
138.833439
 31
0.0
  0
LINE
  5
352
330
6B
100
AcDbEntity
  8
0
 62
     7
100
AcDbLine
 10
599.998377
 20
149.533439
 30
0.0
 11
599.998377
 21
149.448274
 31
0.0
  0
LINE
  5
353
330
6B
100
AcDbEntity
  8
0
 62
     7
100
AcDbLine
 10
567.9983769999998
 20
133.333439
 30
0.0
 11
659.998377
 21
133.333439
 31
0.0
  0
CIRCLE
  5
354
330
6B
100
AcDbEntity
  8
0
 62
     7
100
AcDbCircle
 10
656.498377
 20
142.833439
 30
0.0
 40
2.5
  0
CIRCLE
  5
355
330
6B
100
AcDbEntity
  8
0
 62
     7
100
AcDbCircle
 10
571.4983769999999
 20
142.833439
 30
0.0
 40
2.5
  0
CIRCLE
  5
356
330
6B
100
AcDbEntity
  8
0
 62
     7
100
AcDbCircle
 10
656.498377
 20
180.333439
 30
0.0
 40
2.5
  0
CIRCLE
  5
357
330
6B
100
AcDbEntity
  8
0
 62
     7
100
AcDbCircle
 10
571.4983769999999
 20
180.333439
 30
0.0
 40
2.5
  0
LINE
  5
358
330
6B
100
AcDbEntity
  8
0
 62
     7
100
AcDbLine
 10
574.3983769999998
 20
132.333439
 30
0.0
 11
574.3983769999998
 21
133.333439
 31
0.0
  0
LINE
  5
359
330
6B
100
AcDbEntity
  8
0
 62
     7
100
AcDbLine
 10
578.5983769999997
 20
132.333439
 30
0.0
 11
578.5983769999997
 21
133.333439
 31
0.0
  0
LINE
  5
35A
330
6B
100
AcDbEntity
  8
0
 62
     7
100
AcDbLine
 10
649.3983769999998
 20
133.333439
 30
0.0
 11
649.3983769999998
 21
132.333439
 31
0.0
  0
LINE
  5
35B
330
6B
100
AcDbEntity
  8
0
 62
     7
100
AcDbLine
 10
653.5983769999997
 20
133.333439
 30
0.0
 11
653.5983769999997
 21
132.333439
 31
0.0
  0
LINE
  5
35C
330
6B
100
AcDbEntity
  8
0
 62
     7
100
AcDbLine
 10
653.998377
 20
161.056676
 30
0.0
 11
617.9983769999998
 21
161.056676
 31
0.0
  0
LINE
  5
35D
330
6B
100
AcDbEntity
  8
0
 62
     7
100
AcDbLine
 10
653.998377
 20
178.333439
 30
0.0
 11
617.9983769999998
 21
178.333439
 31
0.0
  0
ARC
  5
35E
330
6B
100
AcDbEntity
  8
0
 62
     7
100
AcDbCircle
 10
593.998377
 20
161.056676
 30
0.0
 40
18.0
100
AcDbArc
 50
309.594068
 51
50.40593199999999
  0
LINE
  5
35F
330
6B
100
AcDbEntity
  8
0
 62
     7
100
AcDbLine
 10
617.9983769999998
 20
178.333439
 30
0.0
 11
617.9983769999998
 21
161.056676
 31
0.0
  0
LINE
  5
360
330
6B
100
AcDbEntity
  8
0
 62
     7
100
AcDbLine
 10
653.998377
 20
178.333439
 30
0.0
 11
653.998377
 21
161.056676
 31
0.0
  0
LINE
  5
361
330
6B
100
AcDbEntity
  8
0
 62
     7
100
AcDbLine
 10
635.998377
 20
161.056676
 30
0.0
 11
635.998377
 21
178.333439
 31
0.0
  0
LINE
  5
362
330
6B
100
AcDbEntity
  8
0
 62
     7
100
AcDbLine
 10
653.998377
 20
165.333439
 30
0.0
 11
617.9983769999998
 21
165.333439
 31
0.0
  0
LINE
  5
363
330
6B
100
AcDbEntity
  8
0
 62
     7
100
AcDbLine
 10
645.998377
 20
165.333439
 30
0.0
 11
645.998377
 21
178.333439
 31
0.0
  0
LINE
  5
364
330
6B
100
AcDbEntity
  8
0
 62
     7
100
AcDbLine
 10
643.998377
 20
165.333439
 30
0.0
 11
643.998377
 21
178.333439
 31
0.0
  0
LINE
  5
365
330
6B
100
AcDbEntity
  8
0
 62
     7
100
AcDbLine
 10
636.998377
 20
165.333439
 30
0.0
 11
636.998377
 21
178.333439
 31
0.0
  0
LINE
  5
366
330
6B
100
AcDbEntity
  8
0
 62
     7
100
AcDbLine
 10
634.998377
 20
165.333439
 30
0.0
 11
634.998377
 21
178.333439
 31
0.0
  0
LINE
  5
367
330
6B
100
AcDbEntity
  8
0
 62
     7
100
AcDbLine
 10
627.998377
 20
165.333439
 30
0.0
 11
627.998377
 21
178.333439
 31
0.0
  0
LINE
  5
368
330
6B
100
AcDbEntity
  8
0
 62
     7
100
AcDbLine
 10
625.9983769999998
 20
165.333439
 30
0.0
 11
625.9983769999998
 21
178.333439
 31
0.0
  0
LINE
  5
369
330
6B
100
AcDbEntity
  8
0
 62
     7
100
AcDbLine
 10
652.998377
 20
165.333439
 30
0.0
 11
652.998377
 21
178.333439
 31
0.0
  0
LINE
  5
36A
330
6B
100
AcDbEntity
  8
0
 62
     7
100
AcDbLine
 10
618.998377
 20
165.333439
 30
0.0
 11
618.998377
 21
178.333439
 31
0.0
  0
CIRCLE
  5
36B
330
6B
100
AcDbEntity
  8
0
 62
     7
100
AcDbCircle
 10
649.498377
 20
171.833439
 30
0.0
 40
2.5
  0
CIRCLE
  5
36C
330
6B
100
AcDbEntity
  8
0
 62
     7
100
AcDbCircle
 10
640.498377
 20
171.833439
 30
0.0
 40
2.5
  0
CIRCLE
  5
36D
330
6B
100
AcDbEntity
  8
0
 62
     7
100
AcDbCircle
 10
631.498377
 20
171.833439
 30
0.0
 40
2.5
  0
CIRCLE
  5
36E
330
6B
100
AcDbEntity
  8
0
 62
     7
100
AcDbCircle
 10
622.498377
 20
171.833439
 30
0.0
 40
2.5
  0
LINE
  5
36F
330
6B
100
AcDbEntity
  8
0
 62
     7
100
AcDbLine
 10
652.998377
 20
176.833439
 30
0.0
 11
645.998377
 21
176.833439
 31
0.0
  0
LINE
  5
370
330
6B
100
AcDbEntity
  8
0
 62
     7
100
AcDbLine
 10
652.998377
 20
166.833439
 30
0.0
 11
645.998377
 21
166.833439
 31
0.0
  0
LINE
  5
371
330
6B
100
AcDbEntity
  8
0
 62
     7
100
AcDbLine
 10
652.998377
 20
175.833439
 30
0.0
 11
645.998377
 21
175.833439
 31
0.0
  0
LINE
  5
372
330
6B
100
AcDbEntity
  8
0
 62
     7
100
AcDbLine
 10
652.998377
 20
167.833439
 30
0.0
 11
645.998377
 21
167.833439
 31
0.0
  0
LINE
  5
373
330
6B
100
AcDbEntity
  8
0
 62
     7
100
AcDbLine
 10
625.9983769999998
 20
167.833439
 30
0.0
 11
618.998377
 21
167.833439
 31
0.0
  0
LINE
  5
374
330
6B
100
AcDbEntity
  8
0
 62
     7
100
AcDbLine
 10
625.9983769999998
 20
175.833439
 30
0.0
 11
618.998377
 21
175.833439
 31
0.0
  0
LINE
  5
375
330
6B
100
AcDbEntity
  8
0
 62
     7
100
AcDbLine
 10
634.998377
 20
175.833439
 30
0.0
 11
627.998377
 21
175.833439
 31
0.0
  0
LINE
  5
376
330
6B
100
AcDbEntity
  8
0
 62
     7
100
AcDbLine
 10
634.998377
 20
167.833439
 30
0.0
 11
627.998377
 21
167.833439
 31
0.0
  0
LINE
  5
377
330
6B
100
AcDbEntity
  8
0
 62
     7
100
AcDbLine
 10
643.998377
 20
167.833439
 30
0.0
 11
636.998377
 21
167.833439
 31
0.0
  0
LINE
  5
378
330
6B
100
AcDbEntity
  8
0
 62
     7
100
AcDbLine
 10
643.998377
 20
175.833439
 30
0.0
 11
636.998377
 21
175.833439
 31
0.0
  0
LINE
  5
379
330
6B
100
AcDbEntity
  8
0
 62
     7
100
AcDbLine
 10
643.998377
 20
166.833439
 30
0.0
 11
636.998377
 21
166.833439
 31
0.0
  0
LINE
  5
37A
330
6B
100
AcDbEntity
  8
0
 62
     7
100
AcDbLine
 10
643.998377
 20
176.833439
 30
0.0
 11
636.998377
 21
176.833439
 31
0.0
  0
LINE
  5
37B
330
6B
100
AcDbEntity
  8
0
 62
     7
100
AcDbLine
 10
625.9983769999998
 20
176.833439
 30
0.0
 11
618.998377
 21
176.833439
 31
0.0
  0
LINE
  5
37C
330
6B
100
AcDbEntity
  8
0
 62
     7
100
AcDbLine
 10
625.9983769999998
 20
166.833439
 30
0.0
 11
618.998377
 21
166.833439
 31
0.0
  0
LINE
  5
37D
330
6B
100
AcDbEntity
  8
0
 62
     7
100
AcDbLine
 10
634.998377
 20
166.833439
 30
0.0
 11
627.998377
 21
166.833439
 31
0.0
  0
LINE
  5
37E
330
6B
100
AcDbEntity
  8
0
 62
     7
100
AcDbLine
 10
634.998377
 20
176.833439
 30
0.0
 11
627.998377
 21
176.833439
 31
0.0
  0
CIRCLE
  5
37F
330
6B
100
AcDbEntity
  8
0
 62
     7
100
AcDbCircle
 10
637.185252
 20
156.876205
 30
0.0
 40
1.0
  0
CIRCLE
  5
380
330
6B
100
AcDbEntity
  8
0
 62
     7
100
AcDbCircle
 10
637.337113
 20
154.313199
 30
0.0
 40
1.0
  0
CIRCLE
  5
381
330
6B
100
AcDbEntity
  8
0
 62
     7
100
AcDbCircle
 10
634.7027709999998
 20
156.876205
 30
0.0
 40
1.0
  0
CIRCLE
  5
382
330
6B
100
AcDbEntity
  8
0
 62
     7
100
AcDbCircle
 10
634.674873
 20
154.289754
 30
0.0
 40
1.0
  0
ARC
  5
383
330
6B
100
AcDbEntity
  8
0
 62
     7
100
AcDbCircle
 10
635.998377
 20
155.555354
 30
0.0
 40
5.501322
100
AcDbArc
 50
223.356347
 51
316.643653
  0
LINE
  5
384
330
6B
100
AcDbEntity
  8
0
 62
     7
100
AcDbLine
 10
638.998377
 20
158.555354
 30
0.0
 11
638.998377
 21
152.555354
 31
0.0
  0
LINE
  5
385
330
6B
100
AcDbEntity
  8
0
 62
     7
100
AcDbLine
 10
632.998377
 20
158.555354
 30
0.0
 11
632.998377
 21
152.555354
 31
0.0
  0
LINE
  5
386
330
6B
100
AcDbEntity
  8
0
 62
     7
100
AcDbLine
 10
536.5981689999999
 20
155.555354
 30
0.0
 11
550.44452
 21
155.555354
 31
0.0
  0
LINE
  5
387
330
6B
100
AcDbEntity
  8
0
 62
     7
100
AcDbLine
 10
638.998377
 20
158.555354
 30
0.0
 11
632.998377
 21
158.555354
 31
0.0
  0
LINE
  5
388
330
6B
100
AcDbEntity
  8
0
 62
     7
100
AcDbLine
 10
632.998377
 20
152.555354
 30
0.0
 11
638.998377
 21
152.555354
 31
0.0
  0
LINE
  5
389
330
6B
100
AcDbEntity
  8
0
 62
     7
100
AcDbLine
 10
639.998377
 20
159.332197
 30
0.0
 11
639.998377
 21
151.77851
 31
0.0
  0
LINE
  5
38A
330
6B
100
AcDbEntity
  8
0
 62
     7
100
AcDbLine
 10
631.998377
 20
151.77851
 30
0.0
 11
631.998377
 21
159.332197
 31
0.0
  0
ARC
  5
38B
330
6B
100
AcDbEntity
  8
0
 62
     7
100
AcDbCircle
 10
635.998377
 20
155.555354
 30
0.0
 40
5.501322
100
AcDbArc
 50
43.35634699999999
 51
136.643653
  0
LINE
  5
38C
330
6B
100
AcDbEntity
  8
0
 62
     7
100
AcDbLine
 10
536.5981689999999
 20
157.555354
 30
0.0
 11
550.44452
 21
157.555354
 31
0.0
  0
LINE
  5
38D
330
6B
100
AcDbEntity
  8
0
 62
     7
100
AcDbLine
 10
536.5981689999999
 20
153.555354
 30
0.0
 11
550.44452
 21
153.555354
 31
0.0
  0
LINE
  5
38E
330
6B
100
AcDbEntity
  8
0
 62
     7
100
AcDbLine
 10
536.5981689999999
 20
156.555354
 30
0.0
 11
550.44452
 21
156.555354
 31
0.0
  0
LINE
  5
38F
330
6B
100
AcDbEntity
  8
0
 62
     7
100
AcDbLine
 10
536.5981689999999
 20
154.555354
 30
0.0
 11
550.44452
 21
154.555354
 31
0.0
  0
LINE
  5
390
330
6B
100
AcDbEntity
  8
0
 62
     7
100
AcDbLine
 10
617.9983769999998
 20
161.056676
 30
0.0
 11
653.998377
 21
161.056676
 31
0.0
  0
CIRCLE
  5
391
330
6B
100
AcDbEntity
  8
0
 62
     7
100
AcDbCircle
 10
578.998377
 20
176.056676
 30
0.0
 40
2.5
  0
CIRCLE
  5
392
330
6B
100
AcDbEntity
  8
0
 62
     7
100
AcDbCircle
 10
608.9983769999999
 20
176.056676
 30
0.0
 40
2.5
  0
CIRCLE
  5
393
330
6B
100
AcDbEntity
  8
0
 62
     7
100
AcDbCircle
 10
608.9983769999999
 20
146.056676
 30
0.0
 40
2.5
  0
CIRCLE
  5
394
330
6B
100
AcDbEntity
  8
0
 62
     7
100
AcDbCircle
 10
578.998377
 20
146.056676
 30
0.0
 40
2.5
  0
ARC
  5
395
330
6B
100
AcDbEntity
  8
0
 62
     7
100
AcDbCircle
 10
593.998377
 20
161.056676
 30
0.0
 40
10.0
100
AcDbArc
 50
77.457603
 51
162.542397
  0
LINE
  5
396
330
6B
100
AcDbEntity
  8
0
 62
     7
100
AcDbLine
 10
539.598169
 20
178.333439
 30
0.0
 11
536.5981689999999
 21
178.333439
 31
0.0
  0
LINE
  5
397
330
6B
100
AcDbEntity
  8
0
 62
     7
100
AcDbLine
 10
539.598169
 20
165.333439
 30
0.0
 11
536.5981689999999
 21
165.333439
 31
0.0
  0
LINE
  5
398
330
6B
100
AcDbEntity
  8
0
 62
     7
100
AcDbLine
 10
539.598169
 20
178.333439
 30
0.0
 11
542.5981689999998
 21
175.333439
 31
0.0
  0
LINE
  5
399
330
6B
100
AcDbEntity
  8
0
 62
     7
100
AcDbLine
 10
542.5981689999998
 20
175.333439
 30
0.0
 11
542.5981689999998
 21
168.333439
 31
0.0
  0
LINE
  5
39A
330
6B
100
AcDbEntity
  8
0
 62
     7
100
AcDbLine
 10
542.5981689999998
 20
168.333439
 30
0.0
 11
539.598169
 21
165.333439
 31
0.0
  0
LINE
  5
39B
330
6B
100
AcDbEntity
  8
0
 62
     7
100
AcDbLine
 10
540.610846
 20
121.051403
 30
0.0
 11
550.44452
 21
121.051403
 31
0.0
  0
LINE
  5
39C
330
6B
100
AcDbEntity
  8
0
 62
     7
100
AcDbLine
 10
544.415489
 20
120.051403
 30
0.0
 11
550.44452
 21
120.051403
 31
0.0
  0
LINE
  5
39D
330
6B
100
AcDbEntity
  8
0
 62
     7
100
AcDbLine
 10
483.012334
 20
122.051403
 30
0.0
 11
503.5424799999998
 21
122.051403
 31
0.0
  0
LINE
  5
39E
330
6B
100
AcDbEntity
  8
0
 62
     7
100
AcDbLine
 10
547.379578
 20
119.051403
 30
0.0
 11
550.44452
 21
119.051403
 31
0.0
  0
LINE
  5
39F
330
6B
100
AcDbEntity
  8
0
 62
     7
100
AcDbLine
 10
483.012334
 20
123.051403
 30
0.0
 11
503.5424799999998
 21
123.051403
 31
0.0
  0
LINE
  5
3A0
330
6B
100
AcDbEntity
  8
0
 62
     7
100
AcDbLine
 10
557.44452
 20
128.051403
 30
0.0
 11
557.44452
 21
138.554822
 31
0.0
  0
LINE
  5
3A1
330
6B
100
AcDbEntity
  8
0
 62
     7
100
AcDbLine
 10
558.44452
 20
128.051403
 30
0.0
 11
558.44452
 21
139.115617
 31
0.0
  0
LINE
  5
3A2
330
6B
100
AcDbEntity
  8
0
 62
     7
100
AcDbLine
 10
556.44452
 20
128.051403
 30
0.0
 11
556.44452
 21
137.957419
 31
0.0
  0
LINE
  5
3A3
330
6B
100
AcDbEntity
  8
0
 62
     7
100
AcDbLine
 10
559.44452
 20
128.051403
 30
0.0
 11
559.44452
 21
139.040013
 31
0.0
  0
LINE
  5
3A4
330
6B
100
AcDbEntity
  8
0
 62
     7
100
AcDbLine
 10
555.4445199999999
 20
128.051403
 30
0.0
 11
555.4445199999999
 21
137.9147129999999
 31
0.0
  0
ARC
  5
3A5
330
6B
100
AcDbEntity
  8
0
 62
     7
100
AcDbCircle
 10
550.44452
 20
148.555354
 30
0.0
 40
5.0
100
AcDbArc
 50
0.0
 51
90.0
  0
ARC
  5
3A6
330
6B
100
AcDbEntity
  8
0
 62
     7
100
AcDbCircle
 10
550.44452
 20
128.051403
 30
0.0
 40
5.0
100
AcDbArc
 50
270.0
 51
0.0
  0
ARC
  5
3A7
330
6B
100
AcDbEntity
  8
0
 62
     7
100
AcDbCircle
 10
550.44452
 20
148.555354
 30
0.0
 40
6.0
100
AcDbArc
 50
0.0
 51
90.0
  0
ARC
  5
3A8
330
6B
100
AcDbEntity
  8
0
 62
     7
100
AcDbCircle
 10
550.44452
 20
128.051403
 30
0.0
 40
6.0
100
AcDbArc
 50
270.0
 51
0.0
  0
ARC
  5
3A9
330
6B
100
AcDbEntity
  8
0
 62
     7
100
AcDbCircle
 10
550.44452
 20
148.555354
 30
0.0
 40
7.0
100
AcDbArc
 50
0.0
 51
90.0
  0
ARC
  5
3AA
330
6B
100
AcDbEntity
  8
0
 62
     7
100
AcDbCircle
 10
550.44452
 20
128.051403
 30
0.0
 40
7.0
100
AcDbArc
 50
270.0
 51
0.0
  0
ARC
  5
3AB
330
6B
100
AcDbEntity
  8
0
 62
     7
100
AcDbCircle
 10
550.44452
 20
148.555354
 30
0.0
 40
8.0
100
AcDbArc
 50
0.0
 51
90.0
  0
ARC
  5
3AC
330
6B
100
AcDbEntity
  8
0
 62
     7
100
AcDbCircle
 10
550.44452
 20
128.051403
 30
0.0
 40
8.0
100
AcDbArc
 50
270.0
 51
0.0
  0
ARC
  5
3AD
330
6B
100
AcDbEntity
  8
0
 62
     7
100
AcDbCircle
 10
550.44452
 20
148.555354
 30
0.0
 40
9.0
100
AcDbArc
 50
0.0
 51
90.0
  0
ARC
  5
3AE
330
6B
100
AcDbEntity
  8
0
 62
     7
100
AcDbCircle
 10
550.44452
 20
128.051403
 30
0.0
 40
9.0
100
AcDbArc
 50
270.0
 51
0.0
  0
LINE
  5
3AF
330
6B
100
AcDbEntity
  8
0
 62
     7
100
AcDbLine
 10
483.012334
 20
117.051403
 30
0.0
 11
519.890175
 21
117.051403
 31
0.0
  0
LINE
  5
3B0
330
6B
100
AcDbEntity
  8
0
 62
     7
100
AcDbLine
 10
483.012334
 20
116.051403
 30
0.0
 11
519.890175
 21
116.051403
 31
0.0
  0
LINE
  5
3B1
330
6B
100
AcDbEntity
  8
0
 62
     7
100
AcDbLine
 10
483.012334
 20
111.051403
 30
0.0
 11
517.219087
 21
111.051403
 31
0.0
  0
LINE
  5
3B2
330
6B
100
AcDbEntity
  8
0
 62
     7
100
AcDbLine
 10
483.012334
 20
110.051403
 30
0.0
 11
517.219087
 21
110.051403
 31
0.0
  0
LINE
  5
3B3
330
6B
100
AcDbEntity
  8
0
 62
     7
100
AcDbLine
 10
483.012334
 20
105.051403
 30
0.0
 11
515.348525
 21
105.051403
 31
0.0
  0
LINE
  5
3B4
330
6B
100
AcDbEntity
  8
0
 62
     7
100
AcDbLine
 10
483.012334
 20
104.051403
 30
0.0
 11
515.348525
 21
104.051403
 31
0.0
  0
LINE
  5
3B5
330
6B
100
AcDbEntity
  8
0
 62
     7
100
AcDbLine
 10
533.1885269999998
 20
120.695974
 30
0.0
 11
526.9590509999998
 21
118.342287
 31
0.0
  0
LINE
  5
3B6
330
6B
100
AcDbEntity
  8
0
 62
     7
100
AcDbLine
 10
532.343153
 20
117.234496
 30
0.0
 11
528.7165499999998
 21
114.686552
 31
0.0
  0
LINE
  5
3B7
330
6B
100
AcDbEntity
  8
0
 62
     7
100
AcDbLine
 10
532.645432
 20
114.014856
 30
0.0
 11
529.3810449999998
 21
110.800495
 31
0.0
  0
LINE
  5
3B8
330
6B
100
AcDbEntity
  8
0
 62
     7
100
AcDbLine
 10
533.541971
 20
119.760518
 30
0.0
 11
527.312494
 21
117.406832
 31
0.0
  0
LINE
  5
3B9
330
6B
100
AcDbEntity
  8
0
 62
     7
100
AcDbLine
 10
532.9180259999998
 20
116.416254
 30
0.0
 11
529.291423
 21
113.868309
 31
0.0
  0
LINE
  5
3BA
330
6B
100
AcDbEntity
  8
0
 62
     7
100
AcDbLine
 10
533.3470580000001
 20
113.302311
 30
0.0
 11
530.0826709999999
 21
110.087949
 31
0.0
  0
LINE
  5
3BB
330
6B
100
AcDbEntity
  8
0
 62
     7
100
AcDbLine
 10
523.5424799999998
 20
123.051403
 30
0.0
 11
550.44452
 21
123.051403
 31
0.0
  0
LINE
  5
3BC
330
6B
100
AcDbEntity
  8
0
 62
     7
100
AcDbLine
 10
523.5424799999998
 20
122.051403
 30
0.0
 11
550.44452
 21
122.051403
 31
0.0
  0
ARC
  5
3BD
330
6B
100
AcDbEntity
  8
0
 62
     7
100
AcDbCircle
 10
515.348525
 20
125.051403
 30
0.0
 40
20.0
100
AcDbArc
 50
270.0
 51
314.557604
  0
ARC
  5
3BE
330
6B
100
AcDbEntity
  8
0
 62
     7
100
AcDbCircle
 10
517.219087
 20
131.051403
 30
0.0
 40
20.0
100
AcDbArc
 50
270.0
 51
305.090749
  0
ARC
  5
3BF
330
6B
100
AcDbEntity
  8
0
 62
     7
100
AcDbCircle
 10
519.890175
 20
137.051403
 30
0.0
 40
20.0
100
AcDbArc
 50
270.0
 51
290.698097
  0
ARC
  5
3C0
330
6B
100
AcDbEntity
  8
0
 62
     7
100
AcDbCircle
 10
515.348525
 20
125.051403
 30
0.0
 40
21.0
100
AcDbArc
 50
270.0
 51
314.557604
  0
ARC
  5
3C1
330
6B
100
AcDbEntity
  8
0
 62
     7
100
AcDbCircle
 10
517.219087
 20
131.051403
 30
0.0
 40
21.0
100
AcDbArc
 50
270.0
 51
305.090749
  0
ARC
  5
3C2
330
6B
100
AcDbEntity
  8
0
 62
     7
100
AcDbCircle
 10
519.890175
 20
137.051403
 30
0.0
 40
21.0
100
AcDbArc
 50
270.0
 51
290.698097
  0
ARC
  5
3C3
330
6B
100
AcDbEntity
  8
0
 62
     7
100
AcDbCircle
 10
547.379578
 20
99.05140299999999
 30
0.0
 40
21.0
100
AcDbArc
 50
90.0
 51
134.557604
  0
ARC
  5
3C4
330
6B
100
AcDbEntity
  8
0
 62
     7
100
AcDbCircle
 10
544.415489
 20
100.051403
 30
0.0
 40
21.0
100
AcDbArc
 50
90.0
 51
125.090749
  0
ARC
  5
3C5
330
6B
100
AcDbEntity
  8
0
 62
     7
100
AcDbCircle
 10
540.610846
 20
101.051403
 30
0.0
 40
21.0
100
AcDbArc
 50
90.0
 51
110.698097
  0
ARC
  5
3C6
330
6B
100
AcDbEntity
  8
0
 62
     7
100
AcDbCircle
 10
540.610846
 20
101.051403
 30
0.0
 40
20.0
100
AcDbArc
 50
90.0
 51
110.698097
  0
ARC
  5
3C7
330
6B
100
AcDbEntity
  8
0
 62
     7
100
AcDbCircle
 10
544.415489
 20
100.051403
 30
0.0
 40
20.0
100
AcDbArc
 50
90.0
 51
125.090749
  0
ARC
  5
3C8
330
6B
100
AcDbEntity
  8
0
 62
     7
100
AcDbCircle
 10
547.379578
 20
99.05140299999999
 30
0.0
 40
20.0
100
AcDbArc
 50
90.0
 51
134.557604
  0
TEXT
  5
3C9
330
6B
100
AcDbEntity
  8
0
 62
     7
100
AcDbText
 10
506.1143139999998
 20
126.96051
 30
0.0
 40
3.2
  1
ヒューズ
  7
高3.2
100
AcDbText
  0
TEXT
  5
3CA
330
6B
100
AcDbEntity
  8
0
 62
     7
100
AcDbText
 10
618.748026
 20
162.382853
 30
0.0
 40
1.6
  1
イルミＭＡＸ５０ｍＡ
 41
0.869444
100
AcDbText
  0
TEXT
  5
3CB
330
6B
100
AcDbEntity
  8
0
 62
     7
100
AcDbText
 10
637.9570519999998
 20
162.256371
 30
0.0
 40
2.0
  1
バックアップ
100
AcDbText
  0
LINE
  5
3DE
330
6B
100
AcDbEntity
  8
0
 62
     7
100
AcDbLine
 10
559.44452
 20
140.619461
 30
0.0
 11
559.44452
 21
148.555354
 31
0.0
  0
LINE
  5
3DF
330
6B
100
AcDbEntity
  8
0
 62
     7
100
AcDbLine
 10
558.44452
 20
140.664728
 30
0.0
 11
558.44452
 21
148.555354
 31
0.0
  0
LINE
  5
3E0
330
6B
100
AcDbEntity
  8
0
 62
     7
100
AcDbLine
 10
557.44452
 20
140.094306
 30
0.0
 11
557.44452
 21
148.555354
 31
0.0
  0
LINE
  5
3E1
330
6B
100
AcDbEntity
  8
0
 62
     7
100
AcDbLine
 10
556.44452
 20
139.50465
 30
0.0
 11
556.44452
 21
148.555354
 31
0.0
  0
LINE
  5
3E2
330
6B
100
AcDbEntity
  8
0
 62
     7
100
AcDbLine
 10
555.4445199999999
 20
139.490872
 30
0.0
 11
555.4445199999999
 21
148.555354
 31
0.0
  0
LINE
  5
3E3
330
6B
100
AcDbEntity
  8
0
 62
     7
100
AcDbLine
 10
584.458985
 20
164.056676
 30
0.0
 11
576.2501379999998
 21
164.056676
 31
0.0
  0
LINE
  5
3E4
330
6B
100
AcDbEntity
  8
0
 62
     7
100
AcDbLine
 10
584.458985
 20
158.056676
 30
0.0
 11
576.2501379999998
 21
158.056676
 31
0.0
  0
LINE
  5
3E5
330
6B
100
AcDbEntity
  8
0
 62
     7
100
AcDbLine
 10
601.366149
 20
154.29532
 30
0.0
 11
605.4705730000002
 21
147.18625
 31
0.0
  0
LINE
  5
3E6
330
6B
100
AcDbEntity
  8
0
 62
     7
100
AcDbLine
 10
596.1699969999998
 20
151.29532
 30
0.0
 11
600.2744209999998
 21
144.18625
 31
0.0
  0
LINE
  5
3E7
330
6B
100
AcDbEntity
  8
0
 62
     7
100
AcDbLine
 10
596.1699969999998
 20
170.818031
 30
0.0
 11
600.2744209999998
 21
177.927102
 31
0.0
  0
LINE
  5
3E8
330
6B
100
AcDbEntity
  8
0
 62
     7
100
AcDbLine
 10
601.366149
 20
167.818031
 30
0.0
 11
605.4705730000002
 21
174.927102
 31
0.0
  0
ARC
  5
3E9
330
6B
100
AcDbEntity
  8
0
 62
     7
100
AcDbCircle
 10
593.998377
 20
161.056676
 30
0.0
 40
18.0
100
AcDbArc
 50
189.5940679999999
 51
290.405932
  0
ARC
  5
3EA
330
6B
100
AcDbEntity
  8
0
 62
     7
100
AcDbCircle
 10
593.998377
 20
161.056676
 30
0.0
 40
18.0
100
AcDbArc
 50
69.594068
 51
170.405932
  0
ARC
  5
3EB
330
6B
100
AcDbEntity
  8
0
 62
     7
100
AcDbCircle
 10
593.998377
 20
161.056676
 30
0.0
 40
10.0
100
AcDbArc
 50
197.457603
 51
282.542397
  0
ARC
  5
3EC
330
6B
100
AcDbEntity
  8
0
 62
     7
100
AcDbCircle
 10
593.998377
 20
161.056676
 30
0.0
 40
10.0
100
AcDbArc
 50
317.457603
 51
42.54239699999998
  0
LINE
  5
3ED
330
6B
100
AcDbEntity
  8
0
 62
     7
100
AcDbLine
 10
483.012334
 20
123.051403
 30
0.0
 11
483.012334
 21
122.051403
 31
0.0
  0
LINE
  5
3EE
330
6B
100
AcDbEntity
  8
0
 62
     7
100
AcDbLine
 10
483.012334
 20
117.051403
 30
0.0
 11
483.012334
 21
116.051403
 31
0.0
  0
LINE
  5
3EF
330
6B
100
AcDbEntity
  8
0
 62
     7
100
AcDbLine
 10
483.012334
 20
111.051403
 30
0.0
 11
483.012334
 21
110.051403
 31
0.0
  0
LINE
  5
3F0
330
6B
100
AcDbEntity
  8
0
 62
     7
100
AcDbLine
 10
483.012334
 20
105.051403
 30
0.0
 11
483.012334
 21
104.051403
 31
0.0
  0
LINE
  5
3F1
330
6B
100
AcDbEntity
  8
0
 62
     7
100
AcDbLine
 10
483.012334
 20
122.801403
 30
0.0
 11
479.3552369999998
 21
122.801403
 31
0.0
  0
LINE
  5
3F2
330
6B
100
AcDbEntity
  8
0
 62
     7
100
AcDbLine
 10
483.012334
 20
122.301403
 30
0.0
 11
479.3552369999998
 21
122.301403
 31
0.0
  0
LINE
  5
3F3
330
6B
100
AcDbEntity
  8
0
 62
     7
100
AcDbLine
 10
479.3552369999998
 20
122.801403
 30
0.0
 11
479.3552369999998
 21
122.301403
 31
0.0
  0
LINE
  5
3F4
330
6B
100
AcDbEntity
  8
0
 62
     7
100
AcDbLine
 10
483.012334
 20
116.301403
 30
0.0
 11
479.3552369999998
 21
116.301403
 31
0.0
  0
LINE
  5
3F5
330
6B
100
AcDbEntity
  8
0
 62
     7
100
AcDbLine
 10
483.012334
 20
116.801403
 30
0.0
 11
479.3552369999998
 21
116.801403
 31
0.0
  0
LINE
  5
3F6
330
6B
100
AcDbEntity
  8
0
 62
     7
100
AcDbLine
 10
479.3552369999998
 20
116.801403
 30
0.0
 11
479.3552369999998
 21
116.301403
 31
0.0
  0
LINE
  5
3F7
330
6B
100
AcDbEntity
  8
0
 62
     7
100
AcDbLine
 10
483.012334
 20
110.301403
 30
0.0
 11
479.3552369999998
 21
110.301403
 31
0.0
  0
LINE
  5
3F8
330
6B
100
AcDbEntity
  8
0
 62
     7
100
AcDbLine
 10
483.012334
 20
110.801403
 30
0.0
 11
479.3552369999998
 21
110.801403
 31
0.0
  0
LINE
  5
3F9
330
6B
100
AcDbEntity
  8
0
 62
     7
100
AcDbLine
 10
479.3552369999998
 20
110.801403
 30
0.0
 11
479.3552369999998
 21
110.301403
 31
0.0
  0
LINE
  5
3FA
330
6B
100
AcDbEntity
  8
0
 62
     7
100
AcDbLine
 10
483.012334
 20
104.301403
 30
0.0
 11
479.3552369999998
 21
104.301403
 31
0.0
  0
LINE
  5
3FB
330
6B
100
AcDbEntity
  8
0
 62
     7
100
AcDbLine
 10
483.012334
 20
104.801403
 30
0.0
 11
479.3552369999998
 21
104.801403
 31
0.0
  0
LINE
  5
3FC
330
6B
100
AcDbEntity
  8
0
 62
     7
100
AcDbLine
 10
479.3552369999998
 20
104.801403
 30
0.0
 11
479.3552369999998
 21
104.301403
 31
0.0
  0
TEXT
  5
3FD
330
6B
100
AcDbEntity
  8
0
 62
     3
100
AcDbText
 10
478.6141578683588
 20
123.977374
 30
0.0
 40
3.2
  1
赤＋24V
  7
高3.2
100
AcDbText
  0
TEXT
  5
3FE
330
6B
100
AcDbEntity
  8
0
 62
     3
100
AcDbText
 10
478.6141578683588
 20
117.783378
 30
0.0
 40
3.2
  1
黒－24V
  7
高3.2
100
AcDbText
  0
TEXT
  5
3FF
330
6B
100
AcDbEntity
  8
0
 62
     3
100
AcDbText
 10
478.6141578683588
 20
111.766355
 30
0.0
 40
3.2
  1
青ACC24V
  7
高3.2
100
AcDbText
  0
LINE
  5
405
330
6B
100
AcDbEntity
  8
0
 62
     7
100
AcDbLine
 10
336.751172
 20
171.709772
 30
0.0
 11
322.560593
 21
194.867456
 31
0.0
  0
LINE
  5
406
330
6B
100
AcDbEntity
  8
0
 62
     7
100
AcDbLine
 10
322.560593
 20
194.867456
 30
0.0
 11
306.060593
 21
194.867456
 31
0.0
  0
TEXT
  5
407
330
6B
100
AcDbEntity
  8
0
 62
     4
100
AcDbText
 10
308.8105930000001
 20
195.867456
 30
0.0
 40
3.2
  1
出力端子
  7
高3.2
100
AcDbText
  0
LINE
  5
40D
330
6B
100
AcDbEntity
  8
0
 62
     7
100
AcDbLine
 10
361.612336
 20
168.775281
 30
0.0
 11
351.826049
 21
196.696547
 31
0.0
  0
LINE
  5
40E
330
6B
100
AcDbEntity
  8
0
 62
     7
100
AcDbLine
 10
351.826049
 20
196.696547
 30
0.0
 11
327.076049
 21
196.696547
 31
0.0
  0
TEXT
  5
40F
330
6B
100
AcDbEntity
  8
0
 62
     4
100
AcDbText
 10
329.826049
 20
197.696547
 30
0.0
 40
3.2
  1
シガーソケット
  7
高3.2
100
AcDbText
  0
LINE
  5
415
330
6B
100
AcDbEntity
  8
0
 62
     7
100
AcDbLine
 10
401.4052759999998
 20
172.648941
 30
0.0
 11
409.340801
 21
194.664224
 31
0.0
  0
LINE
  5
416
330
6B
100
AcDbEntity
  8
0
 62
     7
100
AcDbLine
 10
409.340801
 20
194.664224
 30
0.0
 11
428.5908009999998
 21
194.664224
 31
0.0
  0
TEXT
  5
417
330
6B
100
AcDbEntity
  8
0
 62
     4
100
AcDbText
 10
412.0908009999998
 20
195.664224
 30
0.0
 40
3.2
  1
警告ランプ
  7
高3.2
100
AcDbText
  0
LINE
  5
41D
330
6B
100
AcDbEntity
  8
0
 62
     7
100
AcDbLine
 10
394.911305
 20
165.333439
 30
0.0
 11
399.992114
 21
201.980588
 31
0.0
  0
LINE
  5
41E
330
6B
100
AcDbEntity
  8
0
 62
     7
100
AcDbLine
 10
399.992114
 20
201.980588
 30
0.0
 11
421.9921139999998
 21
201.980588
 31
0.0
  0
TEXT
  5
41F
330
6B
100
AcDbEntity
  8
0
 62
     4
100
AcDbText
 10
402.742114
 20
202.980588
 30
0.0
 40
3.2
  1
電源スイッチ
  7
高3.2
100
AcDbText
  0
LINE
  5
425
330
6B
100
AcDbEntity
  8
0
 62
     7
100
AcDbLine
 10
388.592616
 20
173.265509
 30
0.0
 11
394.301608
 21
207.874326
 31
0.0
  0
LINE
  5
426
330
6B
100
AcDbEntity
  8
0
 62
     7
100
AcDbLine
 10
394.301608
 20
207.874326
 30
0.0
 11
413.551608
 21
207.874326
 31
0.0
  0
TEXT
  5
427
330
6B
100
AcDbEntity
  8
0
 62
     4
100
AcDbText
 10
397.051608
 20
208.874326
 30
0.0
 40
3.2
  1
電源ランプ
  7
高3.2
100
AcDbText
  0
LINE
  5
42D
330
6B
100
AcDbEntity
  8
0
 62
     7
100
AcDbLine
 10
644.8733279999999
 20
178.006349
 30
0.0
 11
652.8088529999998
 21
200.021632
 31
0.0
  0
LINE
  5
42E
330
6B
100
AcDbEntity
  8
0
 62
     7
100
AcDbLine
 10
652.8088529999998
 20
200.021632
 30
0.0
 11
685.8088529999998
 21
200.021632
 31
0.0
  0
TEXT
  5
42F
330
6B
100
AcDbEntity
  8
0
 62
     4
100
AcDbText
 10
651.5204282442121
 20
201.021632
 30
0.0
 40
3.2
  1
バックアップ出力端子
  7
高3.2
100
AcDbText
  0
LINE
  5
435
330
6B
100
AcDbEntity
  8
0
 62
     7
100
AcDbLine
 10
626.1487080000001
 20
178.092392
 30
0.0
 11
611.958129
 21
201.250077
 31
0.0
  0
LINE
  5
436
330
6B
100
AcDbEntity
  8
0
 62
     7
100
AcDbLine
 10
611.958129
 20
201.250077
 30
0.0
 11
587.2081289999998
 21
201.250077
 31
0.0
  0
TEXT
  5
437
330
6B
100
AcDbEntity
  8
0
 62
     4
100
AcDbText
 10
589.9581289999998
 20
202.250077
 30
0.0
 40
3.2
  1
イルミ出力端子
  7
高3.2
100
AcDbText
  0
LINE
  5
43D
330
6B
100
AcDbEntity
  8
0
 62
     7
100
AcDbLine
 10
593.472067
 20
174.354868
 30
0.0
 11
579.2814879999999
 21
197.512552
 31
0.0
  0
LINE
  5
43E
330
6B
100
AcDbEntity
  8
0
 62
     7
100
AcDbLine
 10
579.2814879999999
 20
197.512552
 30
0.0
 11
560.0314879999998
 21
197.512552
 31
0.0
  0
TEXT
  5
43F
330
6B
100
AcDbEntity
  8
0
 62
     4
100
AcDbText
 10
562.7814879999998
 20
198.512552
 30
0.0
 40
3.2
  1
冷却ファン
  7
高3.2
100
AcDbText
  0
TEXT
  5
440
330
6B
100
AcDbEntity
  8
0
 62
     3
100
AcDbText
 10
478.6141578683588
 20
105.57236
 30
0.0
 40
3.2
  1
ダイダイ　イルミ24V
  7
高3.2
100
AcDbText
  0
TEXT
  5
51C
330
6B
100
AcDbEntity
  8
0
 62
     3
100
AcDbText
 10
677.485639
 20
239.071523
 30
0.0
 40
3.2
  1
担　当
  7
高3.2
100
AcDbText
  0
TEXT
  5
51D
330
6B
100
AcDbEntity
  8
0
 62
     3
100
AcDbText
 10
633.4856389999998
 20
239.071523
 30
0.0
 40
3.2
  1
変更・追記内容
  7
高3.2
100
AcDbText
  0
TEXT
  5
51E
330
6B
100
AcDbEntity
  8
0
 62
     3
100
AcDbText
 10
608.5991540003392
 20
234.4009844900917
 30
0.0
 40
2.0
  1
1
  7
高2
100
AcDbText
  0
TEXT
  5
51F
330
6B
100
AcDbEntity
  8
0
 62
     3
100
AcDbText
 10
608.2906425235818
 20
229.2311677778188
 30
0.0
 40
2.0
  1
2
  7
高2
100
AcDbText
  0
TEXT
  5
520
330
6B
100
AcDbEntity
  8
0
 62
     3
100
AcDbText
 10
615.4856389999999
 20
239.071523
 30
0.0
 40
3.2
  1
日　付
  7
高3.2
100
AcDbText
  0
TEXT
  5
521
330
6B
100
AcDbEntity
  8
0
 62
     3
100
AcDbText
 10
615.4856389999999
 20
244.071523
 30
0.0
 40
3.2
  1
図　　　　面　　　　略　　　　歴
  7
高3.2
100
AcDbText
  0
TEXT
  5
522
330
6B
100
AcDbEntity
  8
0
 62
     3
100
AcDbText
 10
605.485639
 20
239.071523
 30
0.0
 40
3.2
  1
記号
  7
高3.2
100
AcDbText
  0
LINE
  5
523
330
6B
100
AcDbEntity
  8
0
 62
     7
100
AcDbLine
 10
608.985639
 20
232.3624190000001
 30
0.0
 11
607.085639
 21
229.071523
 31
0.0
  0
LINE
  5
524
330
6B
100
AcDbEntity
  8
0
 62
     7
100
AcDbLine
 10
608.985639
 20
232.3624190000001
 30
0.0
 11
610.8856389999998
 21
229.071523
 31
0.0
  0
LINE
  5
525
330
6B
100
AcDbEntity
  8
0
 62
     7
100
AcDbLine
 10
607.085639
 20
229.071523
 30
0.0
 11
610.8856389999998
 21
229.071523
 31
0.0
  0
LINE
  5
526
330
6B
100
AcDbEntity
  8
0
 62
     7
100
AcDbLine
 10
608.985639
 20
237.3624200000001
 30
0.0
 11
607.085639
 21
234.071523
 31
0.0
  0
LINE
  5
527
330
6B
100
AcDbEntity
  8
0
 62
     7
100
AcDbLine
 10
608.985639
 20
237.3624200000001
 30
0.0
 11
610.8856389999998
 21
234.071523
 31
0.0
  0
LINE
  5
528
330
6B
100
AcDbEntity
  8
0
 62
     7
100
AcDbLine
 10
607.085639
 20
234.071523
 30
0.0
 11
610.8856389999998
 21
234.071523
 31
0.0
  0
LINE
  5
529
330
6B
100
AcDbEntity
  8
0
 62
     3
100
AcDbLine
 10
603.9856389999998
 20
243.571523
 30
0.0
 11
689.985639
 21
243.571523
 31
0.0
  0
LINE
  5
52A
330
6B
100
AcDbEntity
  8
0
 62
     3
100
AcDbLine
 10
603.9856389999998
 20
238.571523
 30
0.0
 11
689.985639
 21
238.571523
 31
0.0
  0
LINE
  5
52B
330
6B
100
AcDbEntity
  8
0
 62
     7
100
AcDbLine
 10
603.9856389999998
 20
233.571523
 30
0.0
 11
689.985639
 21
233.571523
 31
0.0
  0
LINE
  5
52C
330
6B
100
AcDbEntity
  8
0
 62
     3
100
AcDbLine
 10
603.9856389999998
 20
228.571523
 30
0.0
 11
689.985639
 21
228.571523
 31
0.0
  0
LINE
  5
52D
330
6B
100
AcDbEntity
  8
0
 62
     7
100
AcDbLine
 10
675.985639
 20
228.571523
 30
0.0
 11
675.985639
 21
243.571523
 31
0.0
  0
LINE
  5
52E
330
6B
100
AcDbEntity
  8
0
 62
     7
100
AcDbLine
 10
631.9856389999999
 20
228.571523
 30
0.0
 11
631.9856389999999
 21
243.571523
 31
0.0
  0
LINE
  5
52F
330
6B
100
AcDbEntity
  8
0
 62
     7
100
AcDbLine
 10
613.985639
 20
228.571523
 30
0.0
 11
613.985639
 21
243.571523
 31
0.0
  0
LINE
  5
530
330
6B
100
AcDbEntity
  8
0
 62
     3
100
AcDbLine
 10
603.9856389999998
 20
228.571523
 30
0.0
 11
603.9856389999998
 21
248.571523
 31
0.0
  0
LINE
  5
753
330
6B
100
AcDbEntity
  8
0
  6
Continuous
100
AcDbLine
 10
536.5981689999999
 20
183.583439
 30
0.0
 11
536.5981689999999
 21
196.3916874865387
 31
0.0
  0
LINE
  5
754
330
6B
100
AcDbEntity
  8
0
  6
Continuous
100
AcDbLine
 10
460.111673
 20
183.583439
 30
0.0
 11
460.111673
 21
196.3916874865387
 31
0.0
  0
LINE
  5
755
330
6B
100
AcDbEntity
  8
0
  6
Continuous
100
AcDbLine
 10
534.0981689999998
 20
195.1416874865387
 30
0.0
 11
462.611673
 21
195.1416874865387
 31
0.0
  0
LINE
  5
75B
330
6B
100
AcDbEntity
  8
0
 62
     7
100
AcDbLine
 10
591.9701629999998
 20
175.780164
 30
0.0
 11
593.472067
 21
174.354868
 31
0.0
  0
LINE
  5
75C
330
6B
100
AcDbEntity
  8
0
 62
     7
100
AcDbLine
 10
593.472067
 20
174.354868
 30
0.0
 11
592.8840280000001
 21
176.340163
 31
0.0
  0
LINE
  5
75D
330
6B
100
AcDbEntity
  8
0
 62
     7
100
AcDbLine
 10
624.6468029999999
 20
179.517688
 30
0.0
 11
626.1487080000001
 21
178.092392
 31
0.0
  0
LINE
  5
75E
330
6B
100
AcDbEntity
  8
0
 62
     7
100
AcDbLine
 10
626.1487080000001
 20
178.092392
 30
0.0
 11
625.5606679999998
 21
180.077687
 31
0.0
  0
LINE
  5
75F
330
6B
100
AcDbEntity
  8
0
 62
     7
100
AcDbLine
 10
645.047378
 20
180.069573
 30
0.0
 11
644.8733279999999
 21
178.006349
 31
0.0
  0
LINE
  5
760
330
6B
100
AcDbEntity
  8
0
 62
     7
100
AcDbLine
 10
644.8733279999999
 20
178.006349
 30
0.0
 11
646.0556719999998
 21
179.706128
 31
0.0
  0
LINE
  5
761
330
6B
100
AcDbEntity
  8
0
 62
     7
100
AcDbLine
 10
388.38938
 20
175.3260629999999
 30
0.0
 11
388.592616
 21
173.265509
 31
0.0
  0
LINE
  5
762
330
6B
100
AcDbEntity
  8
0
 62
     7
100
AcDbLine
 10
388.592616
 20
173.265509
 30
0.0
 11
389.446885
 21
175.151619
 31
0.0
  0
LINE
  5
763
330
6B
100
AcDbEntity
  8
0
 62
     7
100
AcDbLine
 10
394.65514
 20
167.388084
 30
0.0
 11
394.911305
 21
165.333439
 31
0.0
  0
LINE
  5
764
330
6B
100
AcDbEntity
  8
0
 62
     7
100
AcDbLine
 10
394.911305
 20
165.333439
 30
0.0
 11
395.716782
 21
167.240897
 31
0.0
  0
LINE
  5
765
330
6B
100
AcDbEntity
  8
0
 62
     7
100
AcDbLine
 10
401.5793259999998
 20
174.712165
 30
0.0
 11
401.4052759999998
 21
172.648941
 31
0.0
  0
LINE
  5
766
330
6B
100
AcDbEntity
  8
0
 62
     7
100
AcDbLine
 10
401.4052759999998
 20
172.648941
 30
0.0
 11
402.5876199999998
 21
174.34872
 31
0.0
  0
LINE
  5
767
330
6B
100
AcDbEntity
  8
0
 62
     7
100
AcDbLine
 10
360.445067
 20
170.485449
 30
0.0
 11
361.612336
 21
168.775281
 31
0.0
  0
LINE
  5
768
330
6B
100
AcDbEntity
  8
0
 62
     7
100
AcDbLine
 10
361.612336
 20
168.775281
 30
0.0
 11
361.456535
 21
170.839964
 31
0.0
  0
LINE
  5
769
330
6B
100
AcDbEntity
  8
0
 62
     7
100
AcDbLine
 10
335.249267
 20
173.135068
 30
0.0
 11
336.751172
 21
171.709772
 31
0.0
  0
LINE
  5
76A
330
6B
100
AcDbEntity
  8
0
 62
     7
100
AcDbLine
 10
336.751172
 20
171.709772
 30
0.0
 11
336.163133
 21
173.695067
 31
0.0
  0
LINE
  5
76B
330
6B
100
AcDbEntity
  8
0
 62
     7
100
AcDbLine
 10
553.896295
 20
139.546993
 30
0.0
 11
554.8414629999999
 21
138.355993
 31
0.0
  0
LINE
  5
76C
330
6B
100
AcDbEntity
  8
0
 62
     7
100
AcDbLine
 10
554.8414629999999
 20
138.355993
 30
0.0
 11
555.88055
 21
137.818699
 31
0.0
  0
LINE
  5
76D
330
6B
100
AcDbEntity
  8
0
 62
     7
100
AcDbLine
 10
555.88055
 20
137.818699
 30
0.0
 11
557.40549
 21
138.5288159999999
 31
0.0
  0
LINE
  5
76E
330
6B
100
AcDbEntity
  8
0
 62
     7
100
AcDbLine
 10
557.40549
 20
138.5288159999999
 30
0.0
 11
558.9329639999998
 21
139.201776
 31
0.0
  0
LINE
  5
76F
330
6B
100
AcDbEntity
  8
0
 62
     7
100
AcDbLine
 10
558.9329639999998
 20
139.201776
 30
0.0
 11
559.853369
 21
138.727476
 31
0.0
  0
LINE
  5
770
330
6B
100
AcDbEntity
  8
0
 62
     7
100
AcDbLine
 10
559.853369
 20
138.727476
 30
0.0
 11
560.703364
 21
137.737341
 31
0.0
  0
LINE
  5
771
330
6B
100
AcDbEntity
  8
0
 62
     7
100
AcDbLine
 10
553.928836
 20
141.108157
 30
0.0
 11
554.874004
 21
139.917157
 31
0.0
  0
LINE
  5
772
330
6B
100
AcDbEntity
  8
0
 62
     7
100
AcDbLine
 10
554.874004
 20
139.917157
 30
0.0
 11
555.91309
 21
139.379863
 31
0.0
  0
LINE
  5
773
330
6B
100
AcDbEntity
  8
0
 62
     7
100
AcDbLine
 10
555.91309
 20
139.379863
 30
0.0
 11
557.4380309999997
 21
140.08998
 31
0.0
  0
LINE
  5
774
330
6B
100
AcDbEntity
  8
0
 62
     7
100
AcDbLine
 10
557.4380309999997
 20
140.08998
 30
0.0
 11
558.965505
 21
140.76294
 31
0.0
  0
LINE
  5
775
330
6B
100
AcDbEntity
  8
0
 62
     7
100
AcDbLine
 10
558.965505
 20
140.76294
 30
0.0
 11
559.8859089999998
 21
140.28864
 31
0.0
  0
LINE
  5
776
330
6B
100
AcDbEntity
  8
0
 62
     7
100
AcDbLine
 10
559.8859089999998
 20
140.28864
 30
0.0
 11
560.735904
 21
139.298505
 31
0.0
  0
LINE
  5
777
330
6B
100
AcDbEntity
  8
0
 62
     7
100
AcDbLine
 10
493.864173
 20
186.819431
 30
0.0
 11
491.423861
 21
184.095249
 31
0.0
  0
LINE
  5
778
330
6B
100
AcDbEntity
  8
0
 62
     7
100
AcDbLine
 10
491.423861
 20
184.095249
 30
0.0
 11
489.1572769999998
 21
181.352651
 31
0.0
  0
LINE
  5
779
330
6B
100
AcDbEntity
  8
0
 62
     7
100
AcDbLine
 10
489.1572769999998
 20
181.352651
 30
0.0
 11
487.238149
 21
178.573221
 31
0.0
  0
LINE
  5
77A
330
6B
100
AcDbEntity
  8
0
 62
     7
100
AcDbLine
 10
487.238149
 20
178.573221
 30
0.0
 11
485.840203
 21
175.738544
 31
0.0
  0
LINE
  5
77B
330
6B
100
AcDbEntity
  8
0
 62
     7
100
AcDbLine
 10
485.840203
 20
175.738544
 30
0.0
 11
485.1371669999998
 21
172.830204
 31
0.0
  0
LINE
  5
77C
330
6B
100
AcDbEntity
  8
0
 62
     7
100
AcDbLine
 10
485.1371669999998
 20
172.830204
 30
0.0
 11
485.940407
 21
167.046501
 31
0.0
  0
LINE
  5
77D
330
6B
100
AcDbEntity
  8
0
 62
     7
100
AcDbLine
 10
485.940407
 20
167.046501
 30
0.0
 11
488.637449
 21
161.051355
 31
0.0
  0
LINE
  5
77E
330
6B
100
AcDbEntity
  8
0
 62
     7
100
AcDbLine
 10
488.637449
 20
161.051355
 30
0.0
 11
491.953765
 21
154.969179
 31
0.0
  0
LINE
  5
77F
330
6B
100
AcDbEntity
  8
0
 62
     7
100
AcDbLine
 10
491.953765
 20
154.969179
 30
0.0
 11
494.6148299999999
 21
148.924383
 31
0.0
  0
LINE
  5
780
330
6B
100
AcDbEntity
  8
0
 62
     7
100
AcDbLine
 10
494.6148299999999
 20
148.924383
 30
0.0
 11
495.3461169999997
 21
143.041381
 31
0.0
  0
LINE
  5
781
330
6B
100
AcDbEntity
  8
0
 62
     7
100
AcDbLine
 10
495.3461169999997
 20
143.041381
 30
0.0
 11
494.7814049999998
 21
140.574248
 31
0.0
  0
LINE
  5
782
330
6B
100
AcDbEntity
  8
0
 62
     7
100
AcDbLine
 10
494.7814049999998
 20
140.574248
 30
0.0
 11
493.736934
 21
138.149967
 31
0.0
  0
LINE
  5
783
330
6B
100
AcDbEntity
  8
0
 62
     7
100
AcDbLine
 10
493.736934
 20
138.149967
 30
0.0
 11
492.3326419999998
 21
135.757824
 31
0.0
  0
LINE
  5
784
330
6B
100
AcDbEntity
  8
0
 62
     7
100
AcDbLine
 10
492.3326419999998
 20
135.757824
 30
0.0
 11
490.6884699999998
 21
133.387107
 31
0.0
  0
LINE
  5
785
330
6B
100
AcDbEntity
  8
0
 62
     7
100
AcDbLine
 10
490.6884699999998
 20
133.387107
 30
0.0
 11
488.9243579999998
 21
131.027104
 31
0.0
  0
LINE
  5
786
330
6B
100
AcDbEntity
  8
0
 62
     7
100
AcDbLine
 10
486.431341
 20
186.819431
 30
0.0
 11
483.991029
 21
184.095249
 31
0.0
  0
LINE
  5
787
330
6B
100
AcDbEntity
  8
0
 62
     7
100
AcDbLine
 10
483.991029
 20
184.095249
 30
0.0
 11
481.724445
 21
181.352651
 31
0.0
  0
LINE
  5
788
330
6B
100
AcDbEntity
  8
0
 62
     7
100
AcDbLine
 10
481.724445
 20
181.352651
 30
0.0
 11
479.805316
 21
178.573221
 31
0.0
  0
LINE
  5
789
330
6B
100
AcDbEntity
  8
0
 62
     7
100
AcDbLine
 10
479.805316
 20
178.573221
 30
0.0
 11
478.40737
 21
175.738544
 31
0.0
  0
LINE
  5
78A
330
6B
100
AcDbEntity
  8
0
 62
     7
100
AcDbLine
 10
478.40737
 20
175.738544
 30
0.0
 11
477.7043349999998
 21
172.830204
 31
0.0
  0
LINE
  5
78B
330
6B
100
AcDbEntity
  8
0
 62
     7
100
AcDbLine
 10
477.7043349999998
 20
172.830204
 30
0.0
 11
478.5075749999998
 21
167.046501
 31
0.0
  0
LINE
  5
78C
330
6B
100
AcDbEntity
  8
0
 62
     7
100
AcDbLine
 10
478.5075749999998
 20
167.046501
 30
0.0
 11
481.204616
 21
161.051355
 31
0.0
  0
LINE
  5
78D
330
6B
100
AcDbEntity
  8
0
 62
     7
100
AcDbLine
 10
481.204616
 20
161.051355
 30
0.0
 11
484.520933
 21
154.969179
 31
0.0
  0
LINE
  5
78E
330
6B
100
AcDbEntity
  8
0
 62
     7
100
AcDbLine
 10
484.520933
 20
154.969179
 30
0.0
 11
487.181998
 21
148.924383
 31
0.0
  0
LINE
  5
78F
330
6B
100
AcDbEntity
  8
0
 62
     7
100
AcDbLine
 10
487.181998
 20
148.924383
 30
0.0
 11
487.9132849999998
 21
143.041381
 31
0.0
  0
LINE
  5
790
330
6B
100
AcDbEntity
  8
0
 62
     7
100
AcDbLine
 10
487.9132849999998
 20
143.041381
 30
0.0
 11
487.348573
 21
140.574248
 31
0.0
  0
LINE
  5
791
330
6B
100
AcDbEntity
  8
0
 62
     7
100
AcDbLine
 10
487.348573
 20
140.574248
 30
0.0
 11
486.3041009999998
 21
138.149967
 31
0.0
  0
LINE
  5
792
330
6B
100
AcDbEntity
  8
0
 62
     7
100
AcDbLine
 10
486.3041009999998
 20
138.149967
 30
0.0
 11
484.8998099999998
 21
135.757824
 31
0.0
  0
LINE
  5
793
330
6B
100
AcDbEntity
  8
0
 62
     7
100
AcDbLine
 10
484.8998099999998
 20
135.757824
 30
0.0
 11
483.2556379999998
 21
133.387107
 31
0.0
  0
LINE
  5
794
330
6B
100
AcDbEntity
  8
0
 62
     7
100
AcDbLine
 10
483.2556379999998
 20
133.387107
 30
0.0
 11
481.4915259999998
 21
131.027104
 31
0.0
  0
LINE
  5
795
330
6B
100
AcDbEntity
  8
0
 62
     7
100
AcDbLine
 10
350.760534
 20
176.771076
 30
0.0
 11
351.612292
 21
176.189979
 31
0.0
  0
LINE
  5
796
330
6B
100
AcDbEntity
  8
0
 62
     7
100
AcDbLine
 10
351.612292
 20
176.189979
 30
0.0
 11
352.249614
 21
175.488021
 31
0.0
  0
LINE
  5
797
330
6B
100
AcDbEntity
  8
0
 62
     7
100
AcDbLine
 10
352.249614
 20
175.488021
 30
0.0
 11
352.53269
 21
174.551363
 31
0.0
  0
LINE
  5
798
330
6B
100
AcDbEntity
  8
0
 62
     7
100
AcDbLine
 10
352.53269
 20
174.551363
 30
0.0
 11
352.586936
 21
173.485732
 31
0.0
  0
LINE
  5
799
330
6B
100
AcDbEntity
  8
0
 62
     7
100
AcDbLine
 10
351.941529
 20
176.890828
 30
0.0
 11
352.31407
 21
176.318977
 31
0.0
  0
LINE
  5
79A
330
6B
100
AcDbEntity
  8
0
 62
     7
100
AcDbLine
 10
352.31407
 20
176.318977
 30
0.0
 11
352.591931
 21
175.710417
 31
0.0
  0
LINE
  5
79B
330
6B
100
AcDbEntity
  8
0
 62
     7
100
AcDbLine
 10
352.591931
 20
175.710417
 30
0.0
 11
352.676156
 21
175.339356
 31
0.0
  0
LINE
  5
79C
330
6B
100
AcDbEntity
  8
0
 62
     7
100
AcDbLine
 10
352.676156
 20
175.339356
 30
0.0
 11
352.711742
 21
174.957691
 31
0.0
  0
LINE
  5
79D
330
6B
100
AcDbEntity
  8
0
 62
     7
100
AcDbLine
 10
352.711742
 20
174.957691
 30
0.0
 11
352.683817
 21
174.219577
 31
0.0
  0
LINE
  5
79E
330
6B
100
AcDbEntity
  8
0
 62
     7
100
AcDbLine
 10
352.683817
 20
174.219577
 30
0.0
 11
352.586936
 21
173.485732
 31
0.0
  0
LINE
  5
79F
330
6B
100
AcDbEntity
  8
0
 62
     7
100
AcDbLine
 10
353.824273
 20
177.814627
 30
0.0
 11
353.132773
 21
177.416442
 31
0.0
  0
LINE
  5
7A0
330
6B
100
AcDbEntity
  8
0
 62
     7
100
AcDbLine
 10
353.132773
 20
177.416442
 30
0.0
 11
352.728858
 21
176.925042
 31
0.0
  0
LINE
  5
7A1
330
6B
100
AcDbEntity
  8
0
 62
     7
100
AcDbLine
 10
352.728858
 20
176.925042
 30
0.0
 11
352.808322
 21
176.199961
 31
0.0
  0
LINE
  5
7A2
330
6B
100
AcDbEntity
  8
0
 62
     7
100
AcDbLine
 10
352.808322
 20
176.199961
 30
0.0
 11
353.036943
 21
175.385376
 31
0.0
  0
LINE
  5
7A3
330
6B
100
AcDbEntity
  8
0
 62
     7
100
AcDbLine
 10
353.036943
 20
175.385376
 30
0.0
 11
352.9877620000001
 21
174.623069
 31
0.0
  0
LINE
  5
7A4
330
6B
100
AcDbEntity
  8
0
 62
     7
100
AcDbLine
 10
352.9877620000001
 20
174.623069
 30
0.0
 11
352.7459740000002
 21
173.897033
 31
0.0
  0
LINE
  5
7A5
330
6B
100
AcDbEntity
  8
0
 62
     7
100
AcDbLine
 10
352.7459740000002
 20
173.897033
 30
0.0
 11
352.666438
 21
173.6908709999999
 31
0.0
  0
LINE
  5
7A6
330
6B
100
AcDbEntity
  8
0
 62
     7
100
AcDbLine
 10
352.666438
 20
173.6908709999999
 30
0.0
 11
352.586936
 21
173.485732
 31
0.0
  0
LINE
  5
7A7
330
6B
100
AcDbEntity
  8
0
 62
     2
100
AcDbLine
 10
490.244265
 20
249.112152
 30
0.0
 11
490.217654
 21
249.282535
 31
0.0
  0
LINE
  5
7A8
330
6B
100
AcDbEntity
  8
0
 62
     2
100
AcDbLine
 10
490.217654
 20
249.282535
 30
0.0
 11
490.1856949999998
 21
249.445684
 31
0.0
  0
LINE
  5
7A9
330
6B
100
AcDbEntity
  8
0
 62
     2
100
AcDbLine
 10
490.1856949999998
 20
249.445684
 30
0.0
 11
490.1486349999998
 21
249.60034
 31
0.0
  0
LINE
  5
7AA
330
6B
100
AcDbEntity
  8
0
 62
     2
100
AcDbLine
 10
490.1486349999998
 20
249.60034
 30
0.0
 11
490.106761
 21
249.745307
 31
0.0
  0
LINE
  5
7AB
330
6B
100
AcDbEntity
  8
0
 62
     2
100
AcDbLine
 10
490.106761
 20
249.745307
 30
0.0
 11
490.0603959999998
 21
249.879463
 31
0.0
  0
LINE
  5
7AC
330
6B
100
AcDbEntity
  8
0
 62
     2
100
AcDbLine
 10
490.0603959999998
 20
249.879463
 30
0.0
 11
490.009898
 21
250.001773
 31
0.0
  0
LINE
  5
7AD
330
6B
100
AcDbEntity
  8
0
 62
     2
100
AcDbLine
 10
490.009898
 20
250.001773
 30
0.0
 11
489.955657
 21
250.111291
 31
0.0
  0
LINE
  5
7AE
330
6B
100
AcDbEntity
  8
0
 62
     2
100
AcDbLine
 10
489.955657
 20
250.111291
 30
0.0
 11
489.898094
 21
250.20717
 31
0.0
  0
LINE
  5
7AF
330
6B
100
AcDbEntity
  8
0
 62
     2
100
AcDbLine
 10
489.898094
 20
250.20717
 30
0.0
 11
489.837653
 21
250.288669
 31
0.0
  0
LINE
  5
7B0
330
6B
100
AcDbEntity
  8
0
 62
     2
100
AcDbLine
 10
489.837653
 20
250.288669
 30
0.0
 11
489.7748009999999
 21
250.355159
 31
0.0
  0
LINE
  5
7B1
330
6B
100
AcDbEntity
  8
0
 62
     2
100
AcDbLine
 10
489.7748009999999
 20
250.355159
 30
0.0
 11
489.710024
 21
250.406125
 31
0.0
  0
LINE
  5
7B2
330
6B
100
AcDbEntity
  8
0
 62
     2
100
AcDbLine
 10
489.710024
 20
250.406125
 30
0.0
 11
489.643822
 21
250.441173
 31
0.0
  0
LINE
  5
7B3
330
6B
100
AcDbEntity
  8
0
 62
     2
100
AcDbLine
 10
489.643822
 20
250.441173
 30
0.0
 11
489.5767079999997
 21
250.460033
 31
0.0
  0
LINE
  5
7B4
330
6B
100
AcDbEntity
  8
0
 62
     2
100
AcDbLine
 10
489.5767079999997
 20
250.460033
 30
0.0
 11
489.5091999999998
 21
250.462558
 31
0.0
  0
LINE
  5
7B5
330
6B
100
AcDbEntity
  8
0
 62
     2
100
AcDbLine
 10
489.5091999999998
 20
250.462558
 30
0.0
 11
489.44182
 21
250.44873
 31
0.0
  0
LINE
  5
7B6
330
6B
100
AcDbEntity
  8
0
 62
     2
100
AcDbLine
 10
489.44182
 20
250.44873
 30
0.0
 11
489.3750879999998
 21
250.418655
 31
0.0
  0
LINE
  5
7B7
330
6B
100
AcDbEntity
  8
0
 62
     2
100
AcDbLine
 10
489.3750879999998
 20
250.418655
 30
0.0
 11
489.309521
 21
250.372565
 31
0.0
  0
LINE
  5
7B8
330
6B
100
AcDbEntity
  8
0
 62
     2
100
AcDbLine
 10
489.309521
 20
250.372565
 30
0.0
 11
489.245625
 21
250.310817
 31
0.0
  0
LINE
  5
7B9
330
6B
100
AcDbEntity
  8
0
 62
     2
100
AcDbLine
 10
489.245625
 20
250.310817
 30
0.0
 11
489.183895
 21
250.233888
 31
0.0
  0
LINE
  5
7BA
330
6B
100
AcDbEntity
  8
0
 62
     2
100
AcDbLine
 10
489.183895
 20
250.233888
 30
0.0
 11
489.124807
 21
250.142373
 31
0.0
  0
LINE
  5
7BB
330
6B
100
AcDbEntity
  8
0
 62
     2
100
AcDbLine
 10
489.124807
 20
250.142373
 30
0.0
 11
489.0688179999998
 21
250.036979
 31
0.0
  0
LINE
  5
7BC
330
6B
100
AcDbEntity
  8
0
 62
     2
100
AcDbLine
 10
489.0688179999998
 20
250.036979
 30
0.0
 11
489.016361
 21
249.918521
 31
0.0
  0
LINE
  5
7BD
330
6B
100
AcDbEntity
  8
0
 62
     2
100
AcDbLine
 10
489.016361
 20
249.918521
 30
0.0
 11
488.967841
 21
249.787914
 31
0.0
  0
LINE
  5
7BE
330
6B
100
AcDbEntity
  8
0
 62
     2
100
AcDbLine
 10
488.967841
 20
249.787914
 30
0.0
 11
488.923633
 21
249.646168
 31
0.0
  0
LINE
  5
7BF
330
6B
100
AcDbEntity
  8
0
 62
     2
100
AcDbLine
 10
488.923633
 20
249.646168
 30
0.0
 11
488.8840799999998
 21
249.494378
 31
0.0
  0
LINE
  5
7C0
330
6B
100
AcDbEntity
  8
0
 62
     2
100
AcDbLine
 10
488.8840799999998
 20
249.494378
 30
0.0
 11
488.849486
 21
249.333718
 31
0.0
  0
LINE
  5
7C1
330
6B
100
AcDbEntity
  8
0
 62
     2
100
AcDbLine
 10
488.849486
 20
249.333718
 30
0.0
 11
488.820119
 21
249.16543
 31
0.0
  0
LINE
  5
7C2
330
6B
100
AcDbEntity
  8
0
 62
     2
100
AcDbLine
 10
488.820119
 20
249.16543
 30
0.0
 11
488.796207
 21
248.990814
 31
0.0
  0
LINE
  5
7C3
330
6B
100
AcDbEntity
  8
0
 62
     2
100
AcDbLine
 10
488.796207
 20
248.990814
 30
0.0
 11
488.7779329999998
 21
248.81122
 31
0.0
  0
LINE
  5
7C4
330
6B
100
AcDbEntity
  8
0
 62
     2
100
AcDbLine
 10
488.7779329999998
 20
248.81122
 30
0.0
 11
488.76544
 21
248.628036
 31
0.0
  0
LINE
  5
7C5
330
6B
100
AcDbEntity
  8
0
 62
     2
100
AcDbLine
 10
488.76544
 20
248.628036
 30
0.0
 11
488.758823
 21
248.442678
 31
0.0
  0
LINE
  5
7C6
330
6B
100
AcDbEntity
  8
0
 62
     2
100
AcDbLine
 10
488.758823
 20
248.442678
 30
0.0
 11
488.7581349999998
 21
248.256579
 31
0.0
  0
LINE
  5
7C7
330
6B
100
AcDbEntity
  8
0
 62
     2
100
AcDbLine
 10
488.7581349999998
 20
248.256579
 30
0.0
 11
488.7633799999998
 21
248.071177
 31
0.0
  0
LINE
  5
7C8
330
6B
100
AcDbEntity
  8
0
 62
     2
100
AcDbLine
 10
488.7633799999998
 20
248.071177
 30
0.0
 11
488.774517
 21
247.887906
 31
0.0
  0
LINE
  5
7C9
330
6B
100
AcDbEntity
  8
0
 62
     2
100
AcDbLine
 10
488.774517
 20
247.887906
 30
0.0
 11
488.791461
 21
247.708182
 31
0.0
  0
LINE
  5
7CA
330
6B
100
AcDbEntity
  8
0
 62
     2
100
AcDbLine
 10
488.791461
 20
247.708182
 30
0.0
 11
488.814081
 21
247.533394
 31
0.0
  0
LINE
  5
7CB
330
6B
100
AcDbEntity
  8
0
 62
     2
100
AcDbLine
 10
488.814081
 20
247.533394
 30
0.0
 11
488.842201
 21
247.364893
 31
0.0
  0
LINE
  5
7CC
330
6B
100
AcDbEntity
  8
0
 62
     2
100
AcDbLine
 10
488.842201
 20
247.364893
 30
0.0
 11
488.875605
 21
247.203981
 31
0.0
  0
LINE
  5
7CD
330
6B
100
AcDbEntity
  8
0
 62
     2
100
AcDbLine
 10
488.875605
 20
247.203981
 30
0.0
 11
488.9140339999998
 21
247.051903
 31
0.0
  0
LINE
  5
7CE
330
6B
100
AcDbEntity
  8
0
 62
     2
100
AcDbLine
 10
488.9140339999998
 20
247.051903
 30
0.0
 11
488.957192
 21
246.909833
 31
0.0
  0
LINE
  5
7CF
330
6B
100
AcDbEntity
  8
0
 62
     2
100
AcDbLine
 10
488.957192
 20
246.909833
 30
0.0
 11
489.004744
 21
246.778871
 31
0.0
  0
LINE
  5
7D0
330
6B
100
AcDbEntity
  8
0
 62
     2
100
AcDbLine
 10
489.004744
 20
246.778871
 30
0.0
 11
489.056323
 21
246.660028
 31
0.0
  0
LINE
  5
7D1
330
6B
100
AcDbEntity
  8
0
 62
     2
100
AcDbLine
 10
489.056323
 20
246.660028
 30
0.0
 11
489.11153
 21
246.554222
 31
0.0
  0
LINE
  5
7D2
330
6B
100
AcDbEntity
  8
0
 62
     2
100
AcDbLine
 10
489.11153
 20
246.554222
 30
0.0
 11
489.16994
 21
246.462272
 31
0.0
  0
LINE
  5
7D3
330
6B
100
AcDbEntity
  8
0
 62
     2
100
AcDbLine
 10
489.16994
 20
246.462272
 30
0.0
 11
489.231099
 21
246.384889
 31
0.0
  0
LINE
  5
7D4
330
6B
100
AcDbEntity
  8
0
 62
     2
100
AcDbLine
 10
489.231099
 20
246.384889
 30
0.0
 11
489.294536
 21
246.32267
 31
0.0
  0
LINE
  5
7D5
330
6B
100
AcDbEntity
  8
0
 62
     2
100
AcDbLine
 10
489.294536
 20
246.32267
 30
0.0
 11
489.3597599999998
 21
246.276096
 31
0.0
  0
LINE
  5
7D6
330
6B
100
AcDbEntity
  8
0
 62
     2
100
AcDbLine
 10
489.3597599999998
 20
246.276096
 30
0.0
 11
489.4262669999998
 21
246.245528
 31
0.0
  0
LINE
  5
7D7
330
6B
100
AcDbEntity
  8
0
 62
     2
100
AcDbLine
 10
489.4262669999998
 20
246.245528
 30
0.0
 11
489.493543
 21
246.231201
 31
0.0
  0
LINE
  5
7D8
330
6B
100
AcDbEntity
  8
0
 62
     2
100
AcDbLine
 10
489.493543
 20
246.231201
 30
0.0
 11
489.5610679999998
 21
246.233227
 31
0.0
  0
LINE
  5
7D9
330
6B
100
AcDbEntity
  8
0
 62
     2
100
AcDbLine
 10
489.5610679999998
 20
246.233227
 30
0.0
 11
489.62832
 21
246.25159
 31
0.0
  0
LINE
  5
7DA
330
6B
100
AcDbEntity
  8
0
 62
     2
100
AcDbLine
 10
489.62832
 20
246.25159
 30
0.0
 11
489.6947789999998
 21
246.286147
 31
0.0
  0
LINE
  5
7DB
330
6B
100
AcDbEntity
  8
0
 62
     2
100
AcDbLine
 10
489.6947789999998
 20
246.286147
 30
0.0
 11
489.759932
 21
246.336632
 31
0.0
  0
LINE
  5
7DC
330
6B
100
AcDbEntity
  8
0
 62
     2
100
AcDbLine
 10
489.759932
 20
246.336632
 30
0.0
 11
489.823274
 21
246.402655
 31
0.0
  0
LINE
  5
7DD
330
6B
100
AcDbEntity
  8
0
 62
     2
100
AcDbLine
 10
489.823274
 20
246.402655
 30
0.0
 11
489.884317
 21
246.483705
 31
0.0
  0
LINE
  5
7DE
330
6B
100
AcDbEntity
  8
0
 62
     2
100
AcDbLine
 10
489.884317
 20
246.483705
 30
0.0
 11
489.9425879999998
 21
246.579155
 31
0.0
  0
LINE
  5
7DF
330
6B
100
AcDbEntity
  8
0
 62
     2
100
AcDbLine
 10
489.9425879999998
 20
246.579155
 30
0.0
 11
489.997637
 21
246.688269
 31
0.0
  0
LINE
  5
7E0
330
6B
100
AcDbEntity
  8
0
 62
     2
100
AcDbLine
 10
489.997637
 20
246.688269
 30
0.0
 11
490.0490389999998
 21
246.810201
 31
0.0
  0
LINE
  5
7E1
330
6B
100
AcDbEntity
  8
0
 62
     2
100
AcDbLine
 10
490.0490389999998
 20
246.810201
 30
0.0
 11
490.0963959999998
 21
246.944011
 31
0.0
  0
LINE
  5
7E2
330
6B
100
AcDbEntity
  8
0
 62
     2
100
AcDbLine
 10
490.0963959999998
 20
246.944011
 30
0.0
 11
490.1393419999998
 21
247.088664
 31
0.0
  0
LINE
  5
7E3
330
6B
100
AcDbEntity
  8
0
 62
     2
100
AcDbLine
 10
490.1393419999998
 20
247.088664
 30
0.0
 11
490.177545
 21
247.243041
 31
0.0
  0
LINE
  5
7E4
330
6B
100
AcDbEntity
  8
0
 62
     2
100
AcDbLine
 10
490.177545
 20
247.243041
 30
0.0
 11
490.2107110000001
 21
247.40595
 31
0.0
  0
LINE
  5
7E5
330
6B
100
AcDbEntity
  8
0
 62
     2
100
AcDbLine
 10
490.2107110000001
 20
247.40595
 30
0.0
 11
490.2385809999998
 21
247.576131
 31
0.0
  0
LINE
  5
7E6
330
6B
100
AcDbEntity
  8
0
100
AcDbLine
 10
319.146325
 20
159.833439
 30
0.0
 11
319.146325
 21
119.896375
 31
0.0
  0
LINE
  5
7E7
330
6B
100
AcDbEntity
  8
0
100
AcDbLine
 10
415.1463249999998
 20
159.833439
 30
0.0
 11
415.1463249999998
 21
119.896375
 31
0.0
  0
LINE
  5
7E8
330
6B
100
AcDbEntity
  8
0
100
AcDbLine
 10
321.646325
 20
121.146375
 30
0.0
 11
412.6463249999998
 21
121.146375
 31
0.0
  0
LINE
  5
7EC
330
6B
100
AcDbEntity
  8
0
100
AcDbLine
 10
459.861673
 20
136.833439
 30
0.0
 11
431.885807
 21
136.833439
 31
0.0
  0
LINE
  5
7ED
330
6B
100
AcDbEntity
  8
0
100
AcDbLine
 10
459.861673
 20
183.333439
 30
0.0
 11
431.885807
 21
183.333439
 31
0.0
  0
LINE
  5
7EE
330
6B
100
AcDbEntity
  8
0
100
AcDbLine
 10
433.135807
 20
139.333439
 30
0.0
 11
433.135807
 21
180.833439
 31
0.0
  0
TEXT
  5
7F2
330
6B
100
AcDbEntity
  8
0
  6
Continuous
 62
     4
100
AcDbText
 10
492.4894077323272
 20
195.7666874865387
 30
0.0
 40
3.0
  1
160
100
AcDbText
  0
LINE
  5
7F3
330
6B
100
AcDbEntity
  8
0
  6
ByBlock
 62
     0
370
    -2
100
AcDbLine
 10
462.611673
 20
194.4718149865387
 30
0.0
 11
460.111673
 21
195.1416874865387
 31
0.0
  0
LINE
  5
7F4
330
6B
100
AcDbEntity
  8
0
  6
ByBlock
 62
     0
370
    -2
100
AcDbLine
 10
460.111673
 20
195.1416874865387
 30
0.0
 11
462.611673
 21
195.8115599865387
 31
0.0
  0
LINE
  5
7F5
330
6B
100
AcDbEntity
  8
0
  6
ByBlock
 62
     0
370
    -2
100
AcDbLine
 10
460.111673
 20
195.1416874865387
 30
0.0
 11
462.611673
 21
195.1416874865387
 31
0.0
  0
LINE
  5
7F6
330
6B
100
AcDbEntity
  8
0
  6
ByBlock
 62
     0
370
    -2
100
AcDbLine
 10
534.0981689999998
 20
195.8115599865387
 30
0.0
 11
536.5981689999999
 21
195.1416874865387
 31
0.0
  0
LINE
  5
7F7
330
6B
100
AcDbEntity
  8
0
  6
ByBlock
 62
     0
370
    -2
100
AcDbLine
 10
536.5981689999999
 20
195.1416874865387
 30
0.0
 11
534.0981689999998
 21
194.4718149865387
 31
0.0
  0
LINE
  5
7F8
330
6B
100
AcDbEntity
  8
0
  6
ByBlock
 62
     0
370
    -2
100
AcDbLine
 10
536.5981689999999
 20
195.1416874865387
 30
0.0
 11
534.0981689999998
 21
195.1416874865387
 31
0.0
  0
TEXT
  5
7F9
330
6B
100
AcDbEntity
  8
0
  6
Continuous
 62
     4
100
AcDbText
 10
364.646325
 20
121.771375
 30
0.0
 40
3.0
  1
96
100
AcDbText
  0
LINE
  5
7FA
330
6B
100
AcDbEntity
  8
0
  6
ByBlock
 62
     0
370
    -2
100
AcDbLine
 10
412.6463249999998
 20
121.8162475
 30
0.0
 11
415.1463249999998
 21
121.146375
 31
0.0
  0
LINE
  5
7FB
330
6B
100
AcDbEntity
  8
0
  6
ByBlock
 62
     0
370
    -2
100
AcDbLine
 10
415.1463249999998
 20
121.146375
 30
0.0
 11
412.6463249999998
 21
120.4765025
 31
0.0
  0
LINE
  5
7FC
330
6B
100
AcDbEntity
  8
0
  6
ByBlock
 62
     0
370
    -2
100
AcDbLine
 10
415.1463249999998
 20
121.146375
 30
0.0
 11
412.6463249999998
 21
121.146375
 31
0.0
  0
LINE
  5
7FD
330
6B
100
AcDbEntity
  8
0
  6
ByBlock
 62
     0
370
    -2
100
AcDbLine
 10
321.646325
 20
120.4765025
 30
0.0
 11
319.146325
 21
121.146375
 31
0.0
  0
LINE
  5
7FE
330
6B
100
AcDbEntity
  8
0
  6
ByBlock
 62
     0
370
    -2
100
AcDbLine
 10
319.146325
 20
121.146375
 30
0.0
 11
321.646325
 21
121.8162475
 31
0.0
  0
LINE
  5
7FF
330
6B
100
AcDbEntity
  8
0
  6
ByBlock
 62
     0
370
    -2
100
AcDbLine
 10
319.146325
 20
121.146375
 30
0.0
 11
321.646325
 21
121.146375
 31
0.0
  0
TEXT
  5
800
330
6B
100
AcDbEntity
  8
0
  6
Continuous
 62
     4
100
AcDbText
 10
432.5108069999999
 20
155.5834390000001
 30
0.0
 40
3.0
  1
46.5
 50
90.0
100
AcDbText
  0
LINE
  5
801
330
6B
100
AcDbEntity
  8
0
  6
ByBlock
 62
     0
370
    -2
100
AcDbLine
 10
432.4659345
 20
180.833439
 30
0.0
 11
433.135807
 21
183.333439
 31
0.0
  0
LINE
  5
802
330
6B
100
AcDbEntity
  8
0
  6
ByBlock
 62
     0
370
    -2
100
AcDbLine
 10
433.135807
 20
183.333439
 30
0.0
 11
433.8056795
 21
180.833439
 31
0.0
  0
LINE
  5
803
330
6B
100
AcDbEntity
  8
0
  6
ByBlock
 62
     0
370
    -2
100
AcDbLine
 10
433.135807
 20
183.333439
 30
0.0
 11
433.135807
 21
180.833439
 31
0.0
  0
LINE
  5
804
330
6B
100
AcDbEntity
  8
0
  6
ByBlock
 62
     0
370
    -2
100
AcDbLine
 10
433.8056795
 20
139.333439
 30
0.0
 11
433.135807
 21
136.833439
 31
0.0
  0
LINE
  5
805
330
6B
100
AcDbEntity
  8
0
  6
ByBlock
 62
     0
370
    -2
100
AcDbLine
 10
433.135807
 20
136.833439
 30
0.0
 11
432.4659345
 21
139.333439
 31
0.0
  0
LINE
  5
806
330
6B
100
AcDbEntity
  8
0
  6
ByBlock
 62
     0
370
    -2
100
AcDbLine
 10
433.135807
 20
136.833439
 30
0.0
 11
433.135807
 21
139.333439
 31
0.0
  0
ENDSEC
  0
SECTION
  2
OBJECTS
  0
DICTIONARY
  5
C
330
0
100
AcDbDictionary
281
     1
  3
ACAD_2007HEADERVARS_RT
350
80A
  3
ACAD_COLOR
350
62
  3
ACAD_GROUP
350
D
  3
ACAD_LAYOUT
350
61
  3
ACAD_MATERIAL
350
10
  3
ACAD_MLEADERSTYLE
350
65
  3
ACAD_MLINESTYLE
350
5E
  3
ACAD_PLOTSETTINGS
350
60
  3
ACAD_PLOTSTYLENAME
350
E
  3
ACAD_SCALELIST
350
42
  3
ACAD_TABLESTYLE
350
63
  3
ACAD_VISUALSTYLE
350
29
  3
ACDB_RECOMPOSE_DATA
350
808
  3
AcDbVariableDictionary
350
68B
  3
DWGPROPS
350
809
  0
DICTIONARY
  5
4E7
330
2
100
AcDbDictionary
280
     1
281
     1
  3
ACAD_LAYERSTATES
360
4E8
  0
DICTIONARY
  5
687
330
54
100
AcDbDictionary
280
     1
281
     1
  3
ADSK_XREC_LAYER_RECONCILED
360
688
  0
DICTIONARY
  5
759
330
6B
100
AcDbDictionary
280
     1
281
     1
  3
ACAD_SORTENTS
360
75A
  0
DICTIONARY
  5
80A
102
{ACAD_REACTORS
330
C
102
}
330
C
100
AcDbDictionary
281
     1
  3
DIMARCSYM
350
80C
  3
DIMFXL
350
80B
  3
DIMJOGANG
350
80D
  0
DICTIONARY
  5
62
102
{ACAD_REACTORS
330
C
102
}
330
C
100
AcDbDictionary
281
     1
  0
DICTIONARY
  5
D
102
{ACAD_REACTORS
330
C
102
}
330
C
100
AcDbDictionary
281
     1
  0
DICTIONARY
  5
61
102
{ACAD_REACTORS
330
C
102
}
330
C
100
AcDbDictionary
281
     1
  3
Model
350
6E
  3
レイアウト1
350
6A
  0
DICTIONARY
  5
10
102
{ACAD_REACTORS
330
C
102
}
330
C
100
AcDbDictionary
281
     1
  3
ByBlock
350
19
  3
ByLayer
350
11
  3
Global
350
21
  0
DICTIONARY
  5
65
102
{ACAD_REACTORS
330
C
102
}
330
C
100
AcDbDictionary
281
     1
  3
Standard
350
66
  0
DICTIONARY
  5
5E
102
{ACAD_REACTORS
330
C
102
}
330
C
100
AcDbDictionary
281
     1
  3
Standard
350
5F
  0
DICTIONARY
  5
60
102
{ACAD_REACTORS
330
C
102
}
330
C
100
AcDbDictionary
281
     1
  0
ACDBDICTIONARYWDFLT
  5
E
102
{ACAD_REACTORS
330
C
102
}
330
C
100
AcDbDictionary
281
     1
  3
Normal
350
F
100
AcDbDictionaryWithDefault
340
F
  0
DICTIONARY
  5
42
102
{ACAD_REACTORS
330
C
102
}
330
C
100
AcDbDictionary
281
     1
  3
A0
350
43
  3
A1
350
44
  3
A2
350
45
  3
A3
350
46
  3
A4
350
47
  3
A5
350
48
  3
A6
350
49
  3
A7
350
4A
  3
A8
350
4B
  3
A9
350
4C
  3
B0
350
4D
  3
B1
350
4E
  3
B2
350
4F
  3
B3
350
50
  3
B4
350
51
  3
B5
350
52
  3
B6
350
53
  0
DICTIONARY
  5
63
102
{ACAD_REACTORS
330
C
102
}
330
C
100
AcDbDictionary
281
     1
  3
Standard
350
64
  0
DICTIONARY
  5
29
102
{ACAD_REACTORS
330
C
102
}
330
C
100
AcDbDictionary
281
     1
  3
2dWireframe
350
2F
  3
3dWireframe
350
4E6
  3
Basic
350
2E
  3
Brighten
350
35
  3
ColorChange
350
39
  3
Conceptual
350
32
  3
Dim
350
34
  3
EdgeColorOff
350
41
  3
Facepattern
350
38
  3
Flat
350
2A
  3
FlatWithEdges
350
2B
  3
Gouraud
350
2C
  3
GouraudWithEdges
350
2D
  3
Hidden
350
31
  3
JitterOff
350
3F
  3
Linepattern
350
37
  3
OverhangOff
350
40
  3
Realistic
350
33
  3
Shaded
350
3E
  3
Shaded with edges
350
3D
  3
Shades of Gray
350
3A
  3
Sketchy
350
3B
  3
Thicken
350
36
  3
Wireframe
350
30
  3
X-Ray
350
3C
  0
XRECORD
  5
808
102
{ACAD_REACTORS
330
C
102
}
330
C
100
AcDbXrecord
280
     1
 90
        1
330
64
  0
DICTIONARY
  5
68B
102
{ACAD_REACTORS
330
C
102
}
330
C
100
AcDbDictionary
281
     1
  3
CANNOSCALE
350
68E
  3
CMLEADERSTYLE
350
68D
  3
CTABLESTYLE
350
68C
  3
DIMASSOC
350
691
  3
INDEXCTL
350
690
  3
SORTENTS
350
68F
  3
XCLIPFRAME
350
714
  0
XRECORD
  5
809
102
{ACAD_REACTORS
330
C
102
}
330
C
100
AcDbXrecord
280
     1
  1
DWGPROPS COOKIE
  2

  3

  4

  6

  7

  8
imamura
  9

300
=
301
=
302
=
303
=
304
=
305
=
306
=
307
=
308
=
309
=
 40
0.0321100462962963
 41
2456311.553654988
 42
2456850.441227847
  1

 90
        0
  0
DICTIONARY
  5
4E8
102
{ACAD_REACTORS
330
4E7
102
}
330
4E7
100
AcDbDictionary
281
     1
  0
XRECORD
  5
688
102
{ACAD_REACTORS
330
687
102
}
330
687
100
AcDbXrecord
280
     1
290
     1
  0
SORTENTSTABLE
  5
75A
102
{ACAD_REACTORS
330
759
102
}
330
759
100
AcDbSortentsTable
330
6B
331
340
  5
3C9
331
260
  5
2B9
331
351
  5
3EC
331
141
  5
15B
331
762
  5
7D1
331
152
  5
1AE
331
362
  5
3FD
331
773
  5
790
331
163
  5
1BF
331
373
  5
427
331
1AC
  5
212
331
784
  5
3C2
331
7AC
  5
1C6
331
51C
  5
7E5
331
26C
  5
2C5
331
795
  5
373
331
7BD
  5
1D7
331
27D
  5
2F1
331
52D
  5
7F9
331
7A6
  5
36C
331
1CE
  5
234
331
28E
  5
302
331
37F
  5
51D
331
29F
  5
313
331
1DF
  5
245
331
390
  5
52E
331
2B0
  5
348
331
11F
  5
139
331
3A1
  5
763
331
2C1
  5
359
331
130
  5
14A
331
3B2
  5
774
331
3C3
  5
785
331
20B
  5
264
331
7C3
  5
1DD
331
1FA
  5
253
331
10E
  5
128
331
FD
  5
121
331
1BD
  5
223
331
21C
  5
275
331
7F6
  5
800
331
3E5
  5
7A1
331
2F5
  5
384
331
22D
  5
286
331
7E5
  5
20C
331
306
  5
395
331
23E
  5
297
331
24F
  5
2A8
331
7D4
  5
1FB
331
3F0
  5
7AC
331
250
  5
2A9
331
341
  5
3CA
331
261
  5
2BA
331
352
  5
3ED
331
142
  5
15C
331
763
  5
7CB
331
153
  5
1AF
331
363
  5
3FE
331
774
  5
791
331
164
  5
1C0
331
C3
  5
E3
331
374
  5
42D
331
1AD
  5
213
331
785
  5
3C3
331
7AD
  5
1C7
331
51D
  5
7E6
331
26D
  5
2C6
331
796
  5
374
331
7BE
  5
1D8
331
52E
  5
7FA
331
27E
  5
2F2
331
1BE
  5
224
331
28F
  5
303
331
7A7
  5
1C1
331
380
  5
51E
331
2A0
  5
314
331
1E0
  5
246
331
10F
  5
129
331
391
  5
52F
331
2B1
  5
349
331
3A2
  5
764
331
2C2
  5
35A
331
131
  5
14B
331
3B3
  5
775
331
1FB
  5
254
331
3C4
  5
786
331
20C
  5
265
331
21D
  5
276
331
7D5
  5
1FC
331
7F7
  5
801
331
3E6
  5
7A2
331
2F6
  5
385
331
22E
  5
287
331
7E6
  5
CF
331
307
  5
396
331
23F
  5
298
331
7C4
  5
1DE
331
120
  5
13A
331
1CF
  5
235
331
7F8
  5
802
331
308
  5
397
331
240
  5
299
331
3F1
  5
7AD
331
251
  5
2AA
331
342
  5
3CB
331
262
  5
2BB
331
753
  5
7FD
331
143
  5
15D
331
353
  5
3EE
331
764
  5
7CC
331
154
  5
1B0
331
775
  5
792
331
364
  5
3FF
331
435
  5
7DC
331
375
  5
42E
331
1AE
  5
214
331
786
  5
3A6
331
7AE
  5
1C8
331
51E
  5
7E7
331
26E
  5
2C7
331
797
  5
375
331
7BF
  5
1D9
331
52F
  5
7FB
331
290
  5
304
331
1D0
  5
236
331
381
  5
51F
331
2A1
  5
315
331
1E1
  5
247
331
110
  5
12A
331
392
  5
530
331
2B2
  5
34A
331
121
  5
13B
331
3A3
  5
765
331
2C3
  5
35B
331
3B4
  5
776
331
1FC
  5
255
331
3C5
  5
787
331
20D
  5
266
331
7C5
  5
1DF
331
132
  5
14C
331
27F
  5
2F3
331
1BF
  5
225
331
21E
  5
277
331
3E7
  5
7A3
331
2F7
  5
386
331
22F
  5
288
331
7E7
  5
D0
331
7D6
  5
1FD
331
3E8
  5
7A4
331
2F8
  5
387
331
230
  5
289
331
7E8
  5
D1
331
309
  5
398
331
241
  5
29A
331
7F9
  5
DC
331
3F2
  5
7AE
331
252
  5
2AB
331
343
  5
3DE
331
263
  5
2BC
331
754
  5
7FE
331
144
  5
15E
331
354
  5
3EF
331
765
  5
7C6
331
155
  5
1B1
331
365
  5
405
331
425
  5
7D2
331
C5
  5
F5
331
776
  5
793
331
436
  5
7DD
331
1AF
  5
215
331
376
  5
42F
331
787
  5
3A7
331
51F
  5
7E8
331
26F
  5
2C8
331
798
  5
376
331
280
  5
2F4
331
1C0
  5
226
331
7AF
  5
1C9
331
291
  5
305
331
382
  5
520
331
2A2
  5
316
331
1E2
  5
248
331
111
  5
12B
331
393
  5
753
331
2B3
  5
34B
331
122
  5
13C
331
3A4
  5
766
331
2C4
  5
35C
331
133
  5
14D
331
3B5
  5
777
331
3C6
  5
788
331
20E
  5
267
331
7C6
  5
1E0
331
21F
  5
278
331
7D7
  5
1FE
331
1FD
  5
256
331
1D1
  5
237
331
2E8
  5
377
331
220
  5
279
331
7D8
  5
1FF
331
3E9
  5
7A5
331
2F9
  5
388
331
231
  5
28A
331
30A
  5
399
331
242
  5
29B
331
7FA
  5
D9
331
3F3
  5
7AF
331
253
  5
2AC
331
344
  5
3DF
331
755
  5
7FF
331
145
  5
15F
331
415
  5
7C8
331
355
  5
3F0
331
766
  5
7C7
331
156
  5
1B2
331
264
  5
2BD
331
426
  5
7D3
331
366
  5
406
331
377
  5
435
331
437
  5
7DE
331
D7
  5
112
331
788
  5
3A8
331
7B0
  5
1CA
331
1B0
  5
216
331
777
  5
3B5
331
520
  5
7E9
331
799
  5
36D
331
1C1
  5
227
331
292
  5
306
331
1D2
  5
238
331
383
  5
521
331
2A3
  5
33B
331
1E3
  5
249
331
112
  5
12C
331
281
  5
2F5
331
270
  5
2C9
331
394
  5
754
331
2B4
  5
34C
331
3A5
  5
767
331
2C5
  5
35D
331
134
  5
14E
331
3B6
  5
778
331
3C7
  5
789
331
20F
  5
268
331
7C7
  5
1E1
331
1FE
  5
257
331
123
  5
13D
331
3C8
  5
78A
331
210
  5
269
331
7C8
  5
1E2
331
2E9
  5
378
331
221
  5
27A
331
7D9
  5
200
331
3EA
  5
7A6
331
2FA
  5
389
331
232
  5
28B
331
30B
  5
39A
331
243
  5
29C
331
7FB
  5
DA
331
3F4
  5
7B0
331
254
  5
2AD
331
405
  5
7BE
331
345
  5
3E0
331
265
  5
2BE
331
416
  5
7C9
331
356
  5
3F1
331
767
  5
7C1
331
157
  5
1B3
331
367
  5
407
331
146
  5
160
331
427
  5
7D4
331
778
  5
3B6
331
1B1
  5
217
331
D8
  5
113
331
789
  5
3A9
331
7B1
  5
1CB
331
C7
  5
F7
331
521
  5
7EA
331
79A
  5
36E
331
1C2
  5
228
331
293
  5
307
331
1D3
  5
239
331
BB
  5
DD
331
282
  5
2F6
331
271
  5
2CA
331
384
  5
522
331
2A4
  5
33C
331
1E4
  5
24A
331
395
  5
755
331
2B5
  5
34D
331
124
  5
13E
331
3A6
  5
768
331
2C6
  5
35E
331
3B7
  5
779
331
1FF
  5
258
331
135
  5
14F
331
113
  5
12D
331
3B8
  5
77A
331
200
  5
259
331
3C9
  5
78B
331
211
  5
26A
331
7C9
  5
1E3
331
2EA
  5
379
331
222
  5
27B
331
7DA
  5
201
331
3EB
  5
7A7
331
2FB
  5
38A
331
233
  5
28C
331
30C
  5
39B
331
244
  5
29D
331
7FC
  5
DB
331
3F5
  5
7B1
331
255
  5
2AE
331
406
  5
7BF
331
346
  5
3E1
331
266
  5
2BF
331
417
  5
7CA
331
357
  5
3F2
331
147
  5
161
331
768
  5
7C2
331
368
  5
40D
331
158
  5
1B4
331
779
  5
3B7
331
1B2
  5
218
331
D9
  5
114
331
78A
  5
3AA
331
7B2
  5
1CC
331
522
  5
7EB
331
272
  5
2CB
331
C8
  5
FD
331
79B
  5
36F
331
283
  5
2F7
331
294
  5
308
331
1D4
  5
23A
331
BC
  5
DE
331
103
  5
122
331
1C3
  5
229
331
385
  5
523
331
2A5
  5
33D
331
1E5
  5
24B
331
396
  5
756
331
2B6
  5
34E
331
125
  5
13F
331
3A7
  5
769
331
2C7
  5
35F
331
136
  5
150
331
114
  5
12E
331
3A8
  5
76A
331
2C8
  5
360
331
1F0
  5
24F
331
3B9
  5
77B
331
201
  5
25A
331
3CA
  5
78C
331
212
  5
26B
331
7CA
  5
1E4
331
2EB
  5
37A
331
223
  5
27C
331
7DB
  5
202
331
3EC
  5
7A8
331
2FC
  5
38B
331
234
  5
28D
331
30D
  5
39C
331
245
  5
29E
331
7FD
  5
D2
331
3F6
  5
7B2
331
256
  5
2AF
331
407
  5
7C0
331
347
  5
3E2
331
267
  5
2C0
331
358
  5
3F3
331
148
  5
162
331
769
  5
7BC
331
159
  5
1B5
331
369
  5
40E
331
77A
  5
3B8
331
1B3
  5
219
331
DA
  5
115
331
78B
  5
3AB
331
7B3
  5
1CD
331
523
  5
7EC
331
273
  5
2CC
331
C9
  5
103
331
7EC
  5
BB
331
79C
  5
370
331
284
  5
2F8
331
295
  5
309
331
1D5
  5
23B
331
386
  5
524
331
2A6
  5
33E
331
115
  5
12F
331
BD
  5
DF
331
1C4
  5
22A
331
397
  5
757
331
2B7
  5
34F
331
137
  5
151
331
126
  5
140
331
530
  5
7FC
331
398
  5
758
331
2B8
  5
350
331
3A9
  5
76B
331
2C9
  5
361
331
1F1
  5
250
331
138
  5
152
331
3BA
  5
77C
331
202
  5
25B
331
3CB
  5
78D
331
213
  5
26C
331
7CB
  5
1E5
331
2EC
  5
37B
331
224
  5
27D
331
7DC
  5
203
331
3ED
  5
7A9
331
2FD
  5
38C
331
235
  5
28E
331
30E
  5
39D
331
246
  5
29F
331
7FE
  5
D7
331
3F7
  5
7B3
331
257
  5
2B0
331
348
  5
3E3
331
359
  5
3F4
331
149
  5
163
331
76A
  5
7BD
331
15A
  5
1B6
331
36A
  5
40F
331
77B
  5
3B9
331
1B4
  5
21A
331
DB
  5
116
331
78C
  5
3AC
331
7B4
  5
1CE
331
524
  5
7ED
331
79D
  5
371
331
1C5
  5
22B
331
274
  5
2E8
331
CA
  5
107
331
296
  5
30A
331
1D6
  5
23C
331
BE
  5
E0
331
387
  5
525
331
2A7
  5
33F
331
116
  5
130
331
285
  5
2F9
331
7ED
  5
BC
331
127
  5
141
331
388
  5
526
331
2A8
  5
340
331
399
  5
75B
331
2B9
  5
351
331
128
  5
142
331
3AA
  5
76C
331
2CA
  5
362
331
139
  5
153
331
3BB
  5
77D
331
203
  5
25C
331
214
  5
26D
331
7CC
  5
1ED
331
2ED
  5
37C
331
225
  5
27E
331
7DD
  5
204
331
3EE
  5
7AA
331
2FE
  5
38D
331
236
  5
28F
331
30F
  5
39E
331
247
  5
2A0
331
7FF
  5
D8
331
3F8
  5
7B4
331
258
  5
2B1
331
349
  5
3E4
331
35A
  5
3F5
331
14A
  5
164
331
76B
  5
794
331
15B
  5
1B7
331
36B
  5
415
331
77C
  5
3BA
331
CB
  5
108
331
1B5
  5
21B
331
DC
  5
117
331
78D
  5
3AD
331
275
  5
2E9
331
525
  5
7EE
331
F5
  5
11F
331
7B5
  5
1CF
331
79E
  5
372
331
286
  5
2FA
331
297
  5
30B
331
1D7
  5
23D
331
BF
  5
E1
331
1C6
  5
22C
331
7EE
  5
BD
331
117
  5
131
331
440
  5
7E4
331
378
  5
436
331
298
  5
30C
331
1D8
  5
23E
331
389
  5
527
331
2A9
  5
341
331
118
  5
132
331
39A
  5
75C
331
2BA
  5
352
331
129
  5
143
331
3AB
  5
76D
331
2CB
  5
363
331
13A
  5
154
331
3BC
  5
77E
331
204
  5
25D
331
215
  5
26E
331
7CD
  5
1EE
331
3DE
  5
79A
331
2EE
  5
37D
331
226
  5
27F
331
7DE
  5
205
331
3EF
  5
7AB
331
2FF
  5
38E
331
237
  5
290
331
310
  5
39F
331
248
  5
2A1
331
800
  5
CE
331
3F9
  5
7B5
331
259
  5
2B2
331
34A
  5
3E5
331
75B
  5
7DF
331
14B
  5
1A7
331
35B
  5
3F6
331
76C
  5
795
331
15C
  5
1B8
331
36C
  5
416
331
77D
  5
3BB
331
CC
  5
109
331
43D
  5
7E1
331
1B6
  5
21C
331
78E
  5
3AE
331
7B6
  5
1D0
331
DD
  5
118
331
526
  5
7F2
331
79F
  5
365
331
1C7
  5
22D
331
107
  5
123
331
287
  5
2FB
331
276
  5
2EA
331
7A0
  5
366
331
1C8
  5
22E
331
288
  5
2FC
331
379
  5
437
331
299
  5
30D
331
1D9
  5
23F
331
108
  5
124
331
38A
  5
528
331
2AA
  5
342
331
119
  5
133
331
39B
  5
75D
331
2BB
  5
353
331
12A
  5
144
331
3AC
  5
76E
331
2CC
  5
364
331
13B
  5
155
331
3BD
  5
77F
331
205
  5
25E
331
216
  5
26F
331
7CE
  5
1EF
331
3DF
  5
79B
331
2EF
  5
37E
331
227
  5
280
331
7DF
  5
206
331
300
  5
38F
331
238
  5
291
331
311
  5
3A0
331
249
  5
2A2
331
3FA
  5
7B6
331
25A
  5
2B3
331
34B
  5
3E6
331
75C
  5
7E0
331
14C
  5
1A8
331
35C
  5
3F7
331
76D
  5
796
331
15D
  5
1B9
331
36D
  5
417
331
42D
  5
7D7
331
CD
  5
10C
331
43E
  5
7E2
331
DE
  5
119
331
1B7
  5
21D
331
77E
  5
3BC
331
78F
  5
3AF
331
277
  5
2EB
331
527
  5
7F3
331
F7
  5
120
331
7B7
  5
1D1
331
801
  5
CB
331
1B8
  5
21E
331
790
  5
3B0
331
7B8
  5
1D2
331
528
  5
7F4
331
278
  5
2EC
331
7A1
  5
367
331
1C9
  5
22F
331
289
  5
2FD
331
37A
  5
43D
331
29A
  5
30E
331
1DA
  5
240
331
109
  5
125
331
38B
  5
529
331
2AB
  5
343
331
11A
  5
134
331
39C
  5
75E
331
2BC
  5
354
331
12B
  5
145
331
3AD
  5
76F
331
13C
  5
156
331
3BE
  5
780
331
206
  5
25F
331
217
  5
270
331
7CF
  5
1F0
331
3E0
  5
79C
331
2F0
  5
37F
331
228
  5
281
331
7E0
  5
207
331
301
  5
390
331
239
  5
292
331
312
  5
3A1
331
24A
  5
2A3
331
3FB
  5
7B7
331
33B
  5
3C4
331
34C
  5
3E7
331
75D
  5
7DA
331
14D
  5
1A9
331
41D
  5
7CD
331
35D
  5
3F8
331
76E
  5
797
331
15E
  5
1BA
331
36E
  5
41D
331
42E
  5
7D8
331
CE
  5
10D
331
77F
  5
3BD
331
43F
  5
7E3
331
DF
  5
11A
331
1A7
  5
20D
331
25B
  5
2B4
331
802
  5
CC
331
1A8
  5
20E
331
780
  5
3BE
331
7A8
  5
1C2
331
268
  5
2C1
331
1B9
  5
21F
331
E0
  5
11B
331
791
  5
3B1
331
7B9
  5
1D3
331
529
  5
7F5
331
279
  5
2ED
331
7A2
  5
368
331
1CA
  5
230
331
28A
  5
2FE
331
37B
  5
43E
331
29B
  5
30F
331
1DB
  5
241
331
38C
  5
52A
331
2AC
  5
344
331
11B
  5
135
331
39D
  5
75F
331
2BD
  5
355
331
12C
  5
146
331
3AE
  5
770
331
3BF
  5
781
331
207
  5
260
331
218
  5
271
331
7D0
  5
1F1
331
7F2
  5
806
331
3E1
  5
79D
331
2F1
  5
380
331
229
  5
282
331
7E1
  5
208
331
302
  5
391
331
313
  5
3A2
331
24B
  5
2A4
331
803
  5
CD
331
23A
  5
293
331
3FC
  5
7B8
331
33C
  5
3C5
331
40D
  5
7C3
331
34D
  5
3E8
331
75E
  5
7DB
331
14E
  5
1AA
331
41E
  5
7CE
331
35E
  5
3F9
331
76F
  5
798
331
36F
  5
41E
331
42F
  5
7D9
331
CF
  5
10E
331
15F
  5
1BB
331
25C
  5
2B5
331
13D
  5
157
331
770
  5
799
331
160
  5
1BC
331
370
  5
41F
331
1A9
  5
20F
331
D0
  5
10F
331
781
  5
3BF
331
7A9
  5
1C3
331
269
  5
2C2
331
1BA
  5
220
331
E1
  5
11C
331
792
  5
3B2
331
7BA
  5
1D4
331
52A
  5
7F6
331
27A
  5
2EE
331
7A3
  5
369
331
1CB
  5
231
331
28B
  5
2FF
331
37C
  5
43F
331
29C
  5
310
331
38D
  5
52B
331
2AD
  5
345
331
1ED
  5
24C
331
11C
  5
136
331
39E
  5
760
331
2BE
  5
356
331
12D
  5
147
331
3AF
  5
771
331
3C0
  5
782
331
208
  5
261
331
7C0
  5
1DA
331
219
  5
272
331
7D1
  5
1F8
331
7F3
  5
803
331
3E2
  5
79E
331
2F2
  5
381
331
22A
  5
283
331
7E2
  5
209
331
303
  5
392
331
314
  5
3A3
331
24C
  5
2A5
331
804
  5
C3
331
23B
  5
294
331
3FD
  5
7B9
331
33D
  5
3C6
331
40E
  5
7C4
331
34E
  5
3E9
331
75F
  5
7D5
331
14F
  5
1AB
331
41F
  5
7CF
331
35F
  5
3FA
331
25D
  5
2B6
331
13E
  5
158
331
1DC
  5
242
331
760
  5
7D6
331
150
  5
1AC
331
360
  5
3FB
331
771
  5
78E
331
161
  5
1BD
331
C0
  5
E2
331
371
  5
425
331
1AA
  5
210
331
D1
  5
110
331
782
  5
3C0
331
7AA
  5
1C4
331
26A
  5
2C3
331
1BB
  5
221
331
E2
  5
11D
331
793
  5
3B3
331
7BB
  5
1D5
331
52B
  5
7F7
331
27B
  5
2EF
331
7A4
  5
36A
331
28C
  5
300
331
37D
  5
440
331
29D
  5
311
331
1DD
  5
243
331
38E
  5
52C
331
2AE
  5
346
331
1EE
  5
24D
331
11D
  5
137
331
39F
  5
761
331
2BF
  5
357
331
12E
  5
148
331
3B0
  5
772
331
1F8
  5
251
331
3C1
  5
783
331
209
  5
262
331
7C1
  5
1DB
331
21A
  5
273
331
7D2
  5
1F9
331
7F4
  5
804
331
3E3
  5
79F
331
2F3
  5
382
331
22B
  5
284
331
7E3
  5
20A
331
304
  5
393
331
23C
  5
295
331
315
  5
3A4
331
24D
  5
2A6
331
3FE
  5
7BA
331
33E
  5
3C7
331
25E
  5
2B7
331
40F
  5
7C5
331
34F
  5
3EA
331
805
  5
C5
331
13F
  5
159
331
10C
  5
126
331
1CC
  5
232
331
350
  5
3EB
331
140
  5
15A
331
761
  5
7D0
331
151
  5
1AD
331
361
  5
3FC
331
772
  5
78F
331
162
  5
1BE
331
372
  5
426
331
1AB
  5
211
331
D2
  5
111
331
783
  5
3C1
331
7AB
  5
1C5
331
26B
  5
2C4
331
1BC
  5
222
331
E3
  5
11E
331
794
  5
3B4
331
52C
  5
7F8
331
27C
  5
2F0
331
7A5
  5
36B
331
28D
  5
301
331
1CD
  5
233
331
7BC
  5
1D6
331
37E
  5
51C
331
29E
  5
312
331
1DE
  5
244
331
38F
  5
52D
331
2AF
  5
347
331
1EF
  5
24E
331
11E
  5
138
331
3A0
  5
762
331
2C0
  5
358
331
12F
  5
149
331
3B1
  5
773
331
3C2
  5
784
331
20A
  5
263
331
7C2
  5
1DC
331
21B
  5
274
331
7D3
  5
1FA
331
7F5
  5
805
331
3E4
  5
7A0
331
2F4
  5
383
331
22C
  5
285
331
7E4
  5
20B
331
305
  5
394
331
23D
  5
296
331
316
  5
3A5
331
24E
  5
2A7
331
3FF
  5
7BB
331
33F
  5
3C8
331
25F
  5
2B8
331
806
  5
C7
331
1F9
  5
252
331
10D
  5
127
  0
XRECORD
  5
80C
102
{ACAD_REACTORS
330
80A
102
}
330
80A
100
AcDbXrecord
280
     1
 70
     2
  0
XRECORD
  5
80B
102
{ACAD_REACTORS
330
80A
102
}
330
80A
100
AcDbXrecord
280
     1
 40
1.25
  0
XRECORD
  5
80D
102
{ACAD_REACTORS
330
80A
102
}
330
80A
100
AcDbXrecord
280
     1
 40
1.570796326794896
  0
LAYOUT
  5
6E
102
{ACAD_XDICTIONARY
360
841
102
}
102
{ACAD_REACTORS
330
61
102
}
330
61
100
AcDbPlotSettings
  1

  2
FX DP 205
  4

  6

 40
0.0
 41
0.0
 42
0.0
 43
0.0
 44
0.0
 45
0.0
 46
0.0
 47
0.0
 48
0.0
 49
0.0
140
0.0
141
0.0
142
1.0
143
1.0
 70
  1712
 72
     0
 73
     0
 74
     0
  7

 75
     0
147
1.0
148
0.0
149
0.0
100
AcDbLayout
  1
Model
 70
     1
 71
     0
 10
0.0
 20
0.0
 11
12.0
 21
9.0
 12
0.0
 22
0.0
 32
0.0
 14
0.0
 24
0.0
 34
0.0
 15
0.0
 25
0.0
 35
0.0
146
0.0
 13
0.0
 23
0.0
 33
0.0
 16
1.0
 26
0.0
 36
0.0
 17
0.0
 27
1.0
 37
0.0
 76
     0
330
6B
331
8B
  0
LAYOUT
  5
6A
102
{ACAD_XDICTIONARY
360
83F
102
}
102
{ACAD_REACTORS
330
61
102
}
330
61
100
AcDbPlotSettings
  1

  2
FX DP 205
  4

  6

 40
0.0
 41
0.0
 42
0.0
 43
0.0
 44
0.0
 45
0.0
 46
0.0
 47
0.0
 48
0.0
 49
0.0
140
0.0
141
0.0
142
1.0
143
1.0
 70
   688
 72
     0
 73
     0
 74
     5
  7

 75
    16
147
1.0
148
0.0
149
0.0
100
AcDbLayout
  1
レイアウト1
 70
     1
 71
     1
 10
0.0
 20
0.0
 11
12.0
 21
9.0
 12
0.0
 22
0.0
 32
0.0
 14
1.000000000000000E+20
 24
1.000000000000000E+20
 34
1.000000000000000E+20
 15
-1.000000000000000E+20
 25
-1.000000000000000E+20
 35
-1.000000000000000E+20
146
0.0
 13
0.0
 23
0.0
 33
0.0
 16
1.0
 26
0.0
 36
0.0
 17
0.0
 27
1.0
 37
0.0
 76
     0
330
67
  0
MATERIAL
  5
19
102
{ACAD_XDICTIONARY
360
1A
102
}
102
{ACAD_REACTORS
330
10
102
}
330
10
100
AcDbMaterial
  1
ByBlock
 72
     0
 43
0.0208333333333333
 43
0.0
 43
0.0
 43
0.0
 43
0.0
 43
0.0208333333333333
 43
0.0
 43
0.0
 43
0.0
 43
0.0
 43
1.0
 43
0.0
 43
0.0
 43
0.0
 43
0.0
 43
1.0
 77
     0
 47
0.0208333333333333
 47
0.0
 47
0.0
 47
0.0
 47
0.0
 47
0.0208333333333333
 47
0.0
 47
0.0
 47
0.0
 47
0.0
 47
1.0
 47
0.0
 47
0.0
 47
0.0
 47
0.0
 47
1.0
171
     0
 49
0.0208333333333333
 49
0.0
 49
0.0
 49
0.0
 49
0.0
 49
0.0208333333333333
 49
0.0
 49
0.0
 49
0.0
 49
0.0
 49
1.0
 49
0.0
 49
0.0
 49
0.0
 49
0.0
 49
1.0
175
     0
142
0.0208333333333333
142
0.0
142
0.0
142
0.0
142
0.0
142
0.0208333333333333
142
0.0
142
0.0
142
0.0
142
0.0
142
1.0
142
0.0
142
0.0
142
0.0
142
0.0
142
1.0
179
     0
144
0.0208333333333333
144
0.0
144
0.0
144
0.0
144
0.0
144
0.0208333333333333
144
0.0
144
0.0
144
0.0
144
0.0
144
1.0
144
0.0
144
0.0
144
0.0
144
0.0
144
1.0
147
0.0208333333333333
147
0.0
147
0.0
147
0.0
147
0.0
147
0.0208333333333333
147
0.0
147
0.0
147
0.0
147
0.0
147
1.0
147
0.0
147
0.0
147
0.0
147
0.0
147
1.0
  0
MATERIAL
  5
11
102
{ACAD_XDICTIONARY
360
12
102
}
102
{ACAD_REACTORS
330
10
102
}
330
10
100
AcDbMaterial
  1
ByLayer
 72
     0
 43
0.0208333333333333
 43
0.0
 43
0.0
 43
0.0
 43
0.0
 43
0.0208333333333333
 43
0.0
 43
0.0
 43
0.0
 43
0.0
 43
1.0
 43
0.0
 43
0.0
 43
0.0
 43
0.0
 43
1.0
 77
     0
 47
0.0208333333333333
 47
0.0
 47
0.0
 47
0.0
 47
0.0
 47
0.0208333333333333
 47
0.0
 47
0.0
 47
0.0
 47
0.0
 47
1.0
 47
0.0
 47
0.0
 47
0.0
 47
0.0
 47
1.0
171
     0
 49
0.0208333333333333
 49
0.0
 49
0.0
 49
0.0
 49
0.0
 49
0.0208333333333333
 49
0.0
 49
0.0
 49
0.0
 49
0.0
 49
1.0
 49
0.0
 49
0.0
 49
0.0
 49
0.0
 49
1.0
175
     0
142
0.0208333333333333
142
0.0
142
0.0
142
0.0
142
0.0
142
0.0208333333333333
142
0.0
142
0.0
142
0.0
142
0.0
142
1.0
142
0.0
142
0.0
142
0.0
142
0.0
142
1.0
179
     0
144
0.0208333333333333
144
0.0
144
0.0
144
0.0
144
0.0
144
0.0208333333333333
144
0.0
144
0.0
144
0.0
144
0.0
144
1.0
144
0.0
144
0.0
144
0.0
144
0.0
144
1.0
147
0.0208333333333333
147
0.0
147
0.0
147
0.0
147
0.0
147
0.0208333333333333
147
0.0
147
0.0
147
0.0
147
0.0
147
1.0
147
0.0
147
0.0
147
0.0
147
0.0
147
1.0
  0
MATERIAL
  5
21
102
{ACAD_XDICTIONARY
360
22
102
}
102
{ACAD_REACTORS
330
10
102
}
330
10
100
AcDbMaterial
  1
Global
 72
     0
 43
0.0208333333333333
 43
0.0
 43
0.0
 43
0.0
 43
0.0
 43
0.0208333333333333
 43
0.0
 43
0.0
 43
0.0
 43
0.0
 43
1.0
 43
0.0
 43
0.0
 43
0.0
 43
0.0
 43
1.0
 77
     0
 47
0.0208333333333333
 47
0.0
 47
0.0
 47
0.0
 47
0.0
 47
0.0208333333333333
 47
0.0
 47
0.0
 47
0.0
 47
0.0
 47
1.0
 47
0.0
 47
0.0
 47
0.0
 47
0.0
 47
1.0
171
     0
 49
0.0208333333333333
 49
0.0
 49
0.0
 49
0.0
 49
0.0
 49
0.0208333333333333
 49
0.0
 49
0.0
 49
0.0
 49
0.0
 49
1.0
 49
0.0
 49
0.0
 49
0.0
 49
0.0
 49
1.0
175
     0
142
0.0208333333333333
142
0.0
142
0.0
142
0.0
142
0.0
142
0.0208333333333333
142
0.0
142
0.0
142
0.0
142
0.0
142
1.0
142
0.0
142
0.0
142
0.0
142
0.0
142
1.0
179
     0
144
0.0208333333333333
144
0.0
144
0.0
144
0.0
144
0.0
144
0.0208333333333333
144
0.0
144
0.0
144
0.0
144
0.0
144
1.0
144
0.0
144
0.0
144
0.0
144
0.0
144
1.0
147
0.0208333333333333
147
0.0
147
0.0
147
0.0
147
0.0
147
0.0208333333333333
147
0.0
147
0.0
147
0.0
147
0.0
147
1.0
147
0.0
147
0.0
147
0.0
147
0.0
147
1.0
  0
MLEADERSTYLE
  5
66
102
{ACAD_REACTORS
330
65
102
}
330
65
100
AcDbMLeaderStyle
170
     2
171
     1
172
     0
 90
        2
 40
0.0
 41
0.0
173
     1
 91
-1056964608
340
5A
 92
       -2
290
     1
 42
0.09
291
     1
 43
0.36
  3
Standard
 44
0.18
300

342
55
174
     1
178
     6
175
     1
176
     0
 93
-1056964608
 45
0.18
292
     0
297
     0
 46
0.18
 94
-1056964608
 47
1.0
 49
1.0
140
1.0
293
     1
141
0.0
294
     1
177
     0
142
1.0
295
     0
296
     0
143
0.125
1001
ACAD_MLEADERVER
1070
     2
  0
MLINESTYLE
  5
5F
102
{ACAD_REACTORS
330
5E
102
}
330
5E
100
AcDbMlineStyle
  2
STANDARD
 70
     0
  3

 62
   256
 51
90.0
 52
90.0
 71
     2
 49
0.5
 62
   256
  6
BYLAYER
 49
-0.5
 62
   256
  6
BYLAYER
  0
ACDBPLACEHOLDER
  5
F
102
{ACAD_REACTORS
330
E
102
}
330
E
  0
SCALE
  5
43
102
{ACAD_REACTORS
330
42
102
}
330
42
100
AcDbScale
 70
     0
300
1:1
140
1.0
141
1.0
290
     1
  0
SCALE
  5
44
102
{ACAD_REACTORS
330
42
102
}
330
42
100
AcDbScale
 70
     0
300
1/128" = 1'-0"
140
0.0078125
141
12.0
290
     0
  0
SCALE
  5
45
102
{ACAD_REACTORS
330
42
102
}
330
42
100
AcDbScale
 70
     0
300
1/64" = 1'-0"
140
0.015625
141
12.0
290
     0
  0
SCALE
  5
46
102
{ACAD_REACTORS
330
42
102
}
330
42
100
AcDbScale
 70
     0
300
1/32" = 1'-0"
140
0.03125
141
12.0
290
     0
  0
SCALE
  5
47
102
{ACAD_REACTORS
330
42
102
}
330
42
100
AcDbScale
 70
     0
300
1/16" = 1'-0"
140
0.0625
141
12.0
290
     0
  0
SCALE
  5
48
102
{ACAD_REACTORS
330
42
102
}
330
42
100
AcDbScale
 70
     0
300
3/32" = 1'-0"
140
0.09375
141
12.0
290
     0
  0
SCALE
  5
49
102
{ACAD_REACTORS
330
42
102
}
330
42
100
AcDbScale
 70
     0
300
1/8" = 1'-0"
140
0.125
141
12.0
290
     0
  0
SCALE
  5
4A
102
{ACAD_REACTORS
330
42
102
}
330
42
100
AcDbScale
 70
     0
300
3/16" = 1'-0"
140
0.1875
141
12.0
290
     0
  0
SCALE
  5
4B
102
{ACAD_REACTORS
330
42
102
}
330
42
100
AcDbScale
 70
     0
300
1/4" = 1'-0"
140
0.25
141
12.0
290
     0
  0
SCALE
  5
4C
102
{ACAD_REACTORS
330
42
102
}
330
42
100
AcDbScale
 70
     0
300
3/8" = 1'-0"
140
0.375
141
12.0
290
     0
  0
SCALE
  5
4D
102
{ACAD_REACTORS
330
42
102
}
330
42
100
AcDbScale
 70
     0
300
1/2" = 1'-0"
140
0.5
141
12.0
290
     0
  0
SCALE
  5
4E
102
{ACAD_REACTORS
330
42
102
}
330
42
100
AcDbScale
 70
     0
300
3/4" = 1'-0"
140
0.75
141
12.0
290
     0
  0
SCALE
  5
4F
102
{ACAD_REACTORS
330
42
102
}
330
42
100
AcDbScale
 70
     0
300
1" = 1'-0"
140
1.0
141
12.0
290
     0
  0
SCALE
  5
50
102
{ACAD_REACTORS
330
42
102
}
330
42
100
AcDbScale
 70
     0
300
1-1/2" = 1'-0"
140
1.5
141
12.0
290
     0
  0
SCALE
  5
51
102
{ACAD_REACTORS
330
42
102
}
330
42
100
AcDbScale
 70
     0
300
3" = 1'-0"
140
3.0
141
12.0
290
     0
  0
SCALE
  5
52
102
{ACAD_REACTORS
330
42
102
}
330
42
100
AcDbScale
 70
     0
300
6" = 1'-0"
140
6.0
141
12.0
290
     0
  0
SCALE
  5
53
102
{ACAD_REACTORS
330
42
102
}
330
42
100
AcDbScale
 70
     0
300
1'-0" = 1'-0"
140
12.0
141
12.0
290
     0
  0
TABLESTYLE
  5
64
102
{ACAD_XDICTIONARY
360
693
102
}
102
{ACAD_REACTORS
330
63
102
}
330
63
100
AcDbTableStyle
  3
Standard
 70
     0
 71
     0
 40
0.06
 41
0.06
280
     0
281
     0
  7
STANDARD
140
0.18
170
     2
 62
     0
 63
     7
283
     0
274
    -2
284
     1
 64
     0
275
    -2
285
     1
 65
     0
276
    -2
286
     1
 66
     0
277
    -2
287
     1
 67
     0
278
    -2
288
     1
 68
     0
279
    -2
289
     1
 69
     0
  7
STANDARD
140
0.25
170
     5
 62
     0
 63
     7
283
     0
274
    -2
284
     1
 64
     0
275
    -2
285
     1
 65
     0
276
    -2
286
     1
 66
     0
277
    -2
287
     1
 67
     0
278
    -2
288
     1
 68
     0
279
    -2
289
     1
 69
     0
  7
STANDARD
140
0.18
170
     5
 62
     0
 63
     7
283
     0
274
    -2
284
     1
 64
     0
275
    -2
285
     1
 65
     0
276
    -2
286
     1
 66
     0
277
    -2
287
     1
 67
     0
278
    -2
288
     1
 68
     0
279
    -2
289
     1
 69
     0
  0
VISUALSTYLE
  5
2F
102
{ACAD_XDICTIONARY
360
818
102
}
102
{ACAD_REACTORS
330
29
102
}
330
29
100
AcDbVisualStyle
  2

 70
     4
 71
     0
 72
     2
 73
     0
 90
        0
 40
-0.6
 41
-30.0
 62
     5
 63
     7
 74
     1
 91
        4
 64
     7
 65
   257
 75
     1
175
     1
 42
1.0
 92
        0
 66
   257
 43
1.0
 76
     1
 77
     6
 78
     2
 67
     7
 79
     5
170
     0
171
     0
290
     0
174
     0
 93
        1
 44
0.0
173
     0
291
     0
 45
0.0
1001
ACAD
1000
AcDbSavedByObjectVersion
1070
     0
  0
VISUALSTYLE
  5
4E6
102
{ACAD_XDICTIONARY
360
843
102
}
102
{ACAD_REACTORS
330
29
102
}
330
29
100
AcDbVisualStyle
  2

 70
     5
 71
     0
 72
     2
 73
     1
 90
        0
 40
-0.6
 41
-30.0
 62
     5
 63
     7
 74
     1
 91
        4
 64
     7
 65
   257
 75
     1
175
     1
 42
1.0
 92
        0
 66
   257
 43
1.0
 76
     1
 77
     6
 78
     2
 67
     7
 79
     5
170
     0
171
     0
290
     0
174
     0
 93
        1
 44
0.0
173
     0
291
     0
 45
0.0
1001
ACAD
1000
AcDbSavedByObjectVersion
1070
     0
  0
VISUALSTYLE
  5
2E
102
{ACAD_XDICTIONARY
360
816
102
}
102
{ACAD_REACTORS
330
29
102
}
330
29
100
AcDbVisualStyle
  2

 70
     7
 71
     1
 72
     0
 73
     1
 90
        0
 40
-0.6
 41
-30.0
 62
     5
 63
     7
 74
     0
 91
        4
 64
     7
 65
   257
 75
     1
175
     1
 42
1.0
 92
        8
 66
     7
 43
1.0
 76
     1
 77
     6
 78
     2
 67
     7
 79
     5
170
     0
171
     0
290
     0
174
     0
 93
        1
 44
0.0
173
     0
291
     1
 45
0.0
1001
ACAD
1000
AcDbSavedByObjectVersion
1070
     0
  0
VISUALSTYLE
  5
35
102
{ACAD_XDICTIONARY
360
824
102
}
102
{ACAD_REACTORS
330
29
102
}
330
29
100
AcDbVisualStyle
  2

 70
    12
 71
     2
 72
     2
 73
     0
 90
        0
 40
-0.6
 41
-30.0
 62
     5
 63
     7
 74
     1
 91
        4
 64
     7
 65
   257
 75
     1
175
     1
 42
1.0
 92
        8
 66
     7
 43
1.0
 76
     1
 77
     6
 78
     2
 67
     7
 79
     5
170
     0
171
     0
290
     0
174
     0
 93
        1
 44
50.0
173
     0
291
     1
 45
0.0
1001
ACAD
1000
AcDbSavedByObjectVersion
1070
     0
  0
VISUALSTYLE
  5
39
102
{ACAD_XDICTIONARY
360
82C
102
}
102
{ACAD_REACTORS
330
29
102
}
330
29
100
AcDbVisualStyle
  2

 70
    16
 71
     2
 72
     2
 73
     3
 90
        0
 40
-0.6
 41
-30.0
 62
     5
 63
     8
 74
     1
 91
        4
 64
     7
 65
   257
 75
     1
175
     1
 42
1.0
 92
        8
 66
     8
 43
1.0
 76
     1
 77
     6
 78
     2
 67
     7
 79
     5
170
     0
171
     0
290
     0
174
     0
 93
        1
 44
0.0
173
     0
291
     1
 45
0.0
1001
ACAD
1000
AcDbSavedByObjectVersion
1070
     0
  0
VISUALSTYLE
  5
32
102
{ACAD_XDICTIONARY
360
81E
102
}
102
{ACAD_REACTORS
330
29
102
}
330
29
100
AcDbVisualStyle
  2

 70
     9
 71
     3
 72
     2
 73
     0
 90
        0
 40
-0.6
 41
-30.0
 62
     5
 63
     7
 74
     2
 91
        2
 64
     7
 65
   257
 75
     1
175
     1
 42
179.0
 92
        8
 66
     7
 43
1.0
 76
     1
 77
     6
 78
     2
 67
     7
 79
     3
170
     0
171
     0
290
     0
174
     0
 93
        1
 44
0.0
173
     0
291
     0
 45
0.0
1001
ACAD
1000
AcDbSavedByObjectVersion
1070
     0
  0
VISUALSTYLE
  5
34
102
{ACAD_XDICTIONARY
360
822
102
}
102
{ACAD_REACTORS
330
29
102
}
330
29
100
AcDbVisualStyle
  2

 70
    11
 71
     2
 72
     2
 73
     0
 90
        0
 40
-0.6
 41
-30.0
 62
     5
 63
     7
 74
     1
 91
        4
 64
     7
 65
   257
 75
     1
175
     1
 42
1.0
 92
        8
 66
     7
 43
1.0
 76
     1
 77
     6
 78
     2
 67
     7
 79
     5
170
     0
171
     0
290
     0
174
     0
 93
        1
 44
-50.0
173
     0
291
     1
 45
0.0
1001
ACAD
1000
AcDbSavedByObjectVersion
1070
     0
  0
VISUALSTYLE
  5
41
102
{ACAD_XDICTIONARY
360
83C
102
}
102
{ACAD_REACTORS
330
29
102
}
330
29
100
AcDbVisualStyle
  2

 70
    22
 71
     2
 72
     2
 73
     0
 90
        0
 40
-0.6
 41
-30.0
 62
     5
 63
     7
 74
     1
 91
        4
 64
     7
 65
   257
 75
     1
175
     1
 42
1.0
 92
        8
 66
     7
 43
1.0
 76
     1
 77
     6
 78
     2
 67
     7
 79
     5
170
     0
171
     0
290
     0
174
     0
 93
        1
 44
0.0
173
     0
291
     1
 45
0.0
1001
ACAD
1000
AcDbSavedByObjectVersion
1070
     0
  0
VISUALSTYLE
  5
38
102
{ACAD_XDICTIONARY
360
82A
102
}
102
{ACAD_REACTORS
330
29
102
}
330
29
100
AcDbVisualStyle
  2

 70
    15
 71
     2
 72
     2
 73
     0
 90
        0
 40
-0.6
 41
-30.0
 62
     5
 63
     7
 74
     1
 91
        4
 64
     7
 65
   257
 75
     1
175
     1
 42
1.0
 92
        8
 66
     7
 43
1.0
 76
     1
 77
     6
 78
     2
 67
     7
 79
     5
170
     0
171
     0
290
     0
174
     0
 93
        1
 44
0.0
173
     0
291
     1
 45
0.0
1001
ACAD
1000
AcDbSavedByObjectVersion
1070
     0
  0
VISUALSTYLE
  5
2A
102
{ACAD_XDICTIONARY
360
80E
102
}
102
{ACAD_REACTORS
330
29
102
}
330
29
100
AcDbVisualStyle
  2

 70
     0
 71
     2
 72
     1
 73
     1
 90
        2
 40
-0.6
 41
30.0
 62
     5
 63
     7
 74
     0
 91
        0
 64
     7
 65
   257
 75
     1
175
     1
 42
1.0
 92
        8
 66
     7
 43
1.0
 76
     1
 77
     6
 78
     2
 67
     7
 79
     5
170
     0
171
     0
290
     0
174
     0
 93
       13
 44
0.0
173
     0
291
     1
 45
0.0
1001
ACAD
1000
AcDbSavedByObjectVersion
1070
     0
  0
VISUALSTYLE
  5
2B
102
{ACAD_XDICTIONARY
360
810
102
}
102
{ACAD_REACTORS
330
29
102
}
330
29
100
AcDbVisualStyle
  2

 70
     1
 71
     2
 72
     1
 73
     1
 90
        2
 40
-0.6
 41
30.0
 62
     5
 63
     7
 74
     1
 91
        0
 64
     7
 65
   257
 75
     1
175
     1
 42
1.0
 92
        0
 66
   257
 43
1.0
 76
     1
 77
     6
 78
     2
 67
     7
 79
     5
170
     0
171
     0
290
     0
174
     0
 93
       13
 44
0.0
173
     0
291
     1
 45
0.0
1001
ACAD
1000
AcDbSavedByObjectVersion
1070
     0
  0
VISUALSTYLE
  5
2C
102
{ACAD_XDICTIONARY
360
812
102
}
102
{ACAD_REACTORS
330
29
102
}
330
29
100
AcDbVisualStyle
  2

 70
     2
 71
     2
 72
     2
 73
     1
 90
        2
 40
-0.6
 41
30.0
 62
     5
 63
     7
 74
     0
 91
        0
 64
     7
 65
   257
 75
     1
175
     1
 42
1.0
 92
        0
 66
     7
 43
1.0
 76
     1
 77
     6
 78
     2
 67
     7
 79
     5
170
     0
171
     0
290
     0
174
     0
 93
       13
 44
0.0
173
     0
291
     1
 45
0.0
1001
ACAD
1000
AcDbSavedByObjectVersion
1070
     0
  0
VISUALSTYLE
  5
2D
102
{ACAD_XDICTIONARY
360
814
102
}
102
{ACAD_REACTORS
330
29
102
}
330
29
100
AcDbVisualStyle
  2

 70
     3
 71
     2
 72
     2
 73
     1
 90
        2
 40
-0.6
 41
30.0
 62
     5
 63
     7
 74
     1
 91
        0
 64
     7
 65
   257
 75
     1
175
     1
 42
1.0
 92
        0
 66
   257
 43
1.0
 76
     1
 77
     6
 78
     2
 67
     7
 79
     5
170
     0
171
     0
290
     0
174
     0
 93
       13
 44
0.0
173
     0
291
     1
 45
0.0
1001
ACAD
1000
AcDbSavedByObjectVersion
1070
     0
  0
VISUALSTYLE
  5
31
102
{ACAD_XDICTIONARY
360
81C
102
}
102
{ACAD_REACTORS
330
29
102
}
330
29
100
AcDbVisualStyle
  2

 70
     6
 71
     1
 72
     2
 73
     2
 90
        0
 40
-0.6
 41
-30.0
 62
     5
 63
     7
 74
     2
 91
        2
 64
     7
 65
   257
 75
     2
175
     1
 42
40.0
 92
        0
 66
   257
 43
1.0
 76
     1
 77
     6
 78
     2
 67
     7
 79
     3
170
     0
171
     0
290
     0
174
     0
 93
        1
 44
0.0
173
     0
291
     0
 45
0.0
1001
ACAD
1000
AcDbSavedByObjectVersion
1070
     0
  0
VISUALSTYLE
  5
3F
102
{ACAD_XDICTIONARY
360
838
102
}
102
{ACAD_REACTORS
330
29
102
}
330
29
100
AcDbVisualStyle
  2

 70
    20
 71
     2
 72
     2
 73
     0
 90
        0
 40
-0.6
 41
-30.0
 62
     5
 63
     7
 74
     1
 91
        4
 64
     7
 65
   257
 75
     1
175
     1
 42
1.0
 92
       10
 66
     7
 43
1.0
 76
     1
 77
     6
 78
     2
 67
     7
 79
     5
170
     0
171
     0
290
     0
174
     0
 93
        1
 44
0.0
173
     0
291
     1
 45
0.0
1001
ACAD
1000
AcDbSavedByObjectVersion
1070
     0
  0
VISUALSTYLE
  5
37
102
{ACAD_XDICTIONARY
360
828
102
}
102
{ACAD_REACTORS
330
29
102
}
330
29
100
AcDbVisualStyle
  2

 70
    14
 71
     2
 72
     2
 73
     0
 90
        0
 40
-0.6
 41
-30.0
 62
     5
 63
     7
 74
     1
 91
        4
 64
     7
 65
   257
 75
     7
175
     7
 42
1.0
 92
        8
 66
     7
 43
1.0
 76
     1
 77
     6
 78
     2
 67
     7
 79
     5
170
     0
171
     0
290
     0
174
     0
 93
        1
 44
0.0
173
     0
291
     1
 45
0.0
1001
ACAD
1000
AcDbSavedByObjectVersion
1070
     0
  0
VISUALSTYLE
  5
40
102
{ACAD_XDICTIONARY
360
83A
102
}
102
{ACAD_REACTORS
330
29
102
}
330
29
100
AcDbVisualStyle
  2

 70
    21
 71
     2
 72
     2
 73
     0
 90
        0
 40
-0.6
 41
-30.0
 62
     5
 63
     7
 74
     1
 91
        4
 64
     7
 65
   257
 75
     1
175
     1
 42
1.0
 92
        9
 66
     7
 43
1.0
 76
     1
 77
     6
 78
     2
 67
     7
 79
     5
170
     0
171
     0
290
     0
174
     0
 93
        1
 44
0.0
173
     0
291
     1
 45
0.0
1001
ACAD
1000
AcDbSavedByObjectVersion
1070
     0
  0
VISUALSTYLE
  5
33
102
{ACAD_XDICTIONARY
360
820
102
}
102
{ACAD_REACTORS
330
29
102
}
330
29
100
AcDbVisualStyle
  2

 70
     8
 71
     2
 72
     3
 73
     0
 90
        2
 40
-0.6
 41
30.0
 62
     5
 63
     7
 74
     0
 91
        0
 64
     7
 65
   257
 75
     1
175
     1
 42
1.0
 92
        8
 66
   257
 43
1.0
 76
     1
 77
     6
 78
     2
 67
     7
 79
     3
170
     0
171
     0
290
     0
174
     0
 93
       13
 44
0.0
173
     0
291
     0
 45
0.0
1001
ACAD
1000
AcDbSavedByObjectVersion
1070
     0
  0
VISUALSTYLE
  5
3E
102
{ACAD_XDICTIONARY
360
836
102
}
102
{ACAD_REACTORS
330
29
102
}
330
29
100
AcDbVisualStyle
  2

 70
    27
 71
     2
 72
     2
 73
     1
 90
        2
 40
-0.6
 41
30.0
 62
     5
 63
     7
 74
     0
 91
        4
 64
     7
 65
   257
 75
     1
175
     1
 42
1.0
 92
        8
 66
   257
 43
1.0
 76
     1
 77
     6
 78
     2
 67
     8
 79
     3
170
     0
171
     0
290
     0
174
     0
 93
        5
 44
0.0
173
     0
291
     0
 45
0.0
1001
ACAD
1000
AcDbSavedByObjectVersion
1070
     0
  0
VISUALSTYLE
  5
3D
102
{ACAD_XDICTIONARY
360
834
102
}
102
{ACAD_REACTORS
330
29
102
}
330
29
100
AcDbVisualStyle
  2

 70
    26
 71
     2
 72
     2
 73
     1
 90
        2
 40
-0.6
 41
30.0
 62
     5
 63
     7
 74
     1
 91
       10
 64
     7
 65
   257
 75
     2
175
     1
 42
1.0
 92
        8
 66
   257
 43
1.0
 76
     1
 77
     6
 78
     2
 67
     7
 79
     3
170
     0
171
     0
290
     0
174
     0
 93
        5
 44
0.0
173
     0
291
     0
 45
0.0
1001
ACAD
1000
AcDbSavedByObjectVersion
1070
     0
  0
VISUALSTYLE
  5
3A
102
{ACAD_XDICTIONARY
360
82E
102
}
102
{ACAD_REACTORS
330
29
102
}
330
29
100
AcDbVisualStyle
  2

 70
    23
 71
     2
 72
     2
 73
     3
 90
        0
 40
-0.6
 41
-30.0
 62
     5
 63
     7
 74
     2
 91
        2
 64
     7
 65
     7
 75
     1
175
     1
 42
40.0
 92
        8
 66
     7
 43
1.0
 76
     1
 77
     6
 78
     2
 67
     7
 79
     3
170
     0
171
     0
290
     0
174
     0
 93
        1
 44
0.0
173
     0
291
     0
 45
0.0
1001
ACAD
1000
AcDbSavedByObjectVersion
1070
     0
  0
VISUALSTYLE
  5
3B
102
{ACAD_XDICTIONARY
360
830
102
}
102
{ACAD_REACTORS
330
29
102
}
330
29
100
AcDbVisualStyle
  2

 70
    24
 71
     1
 72
     2
 73
     2
 90
        0
 40
-0.6
 41
-30.0
 62
     5
 63
     7
 74
     2
 91
        2
 64
     7
 65
     7
 75
     1
175
     1
 42
40.0
 92
       11
 66
     7
 43
1.0
 76
     1
 77
     6
 78
     2
 67
     7
 79
     6
170
     0
171
     0
290
     0
174
     0
 93
        1
 44
0.0
173
     0
291
     0
 45
0.0
1001
ACAD
1000
AcDbSavedByObjectVersion
1070
     0
  0
VISUALSTYLE
  5
36
102
{ACAD_XDICTIONARY
360
826
102
}
102
{ACAD_REACTORS
330
29
102
}
330
29
100
AcDbVisualStyle
  2

 70
    13
 71
     2
 72
     2
 73
     0
 90
        0
 40
-0.6
 41
-30.0
 62
     5
 63
     7
 74
     1
 91
        4
 64
     7
 65
   257
 75
     1
175
     1
 42
1.0
 92
       12
 66
     7
 43
1.0
 76
     1
 77
     6
 78
     2
 67
     7
 79
     5
170
     0
171
     0
290
     0
174
     0
 93
        1
 44
0.0
173
     0
291
     1
 45
0.0
1001
ACAD
1000
AcDbSavedByObjectVersion
1070
     0
  0
VISUALSTYLE
  5
30
102
{ACAD_XDICTIONARY
360
81A
102
}
102
{ACAD_REACTORS
330
29
102
}
330
29
100
AcDbVisualStyle
  2

 70
     5
 71
     0
 72
     2
 73
     0
 90
        0
 40
-0.6
 41
-30.0
 62
     5
 63
     7
 74
     1
 91
        4
 64
     7
 65
   257
 75
     1
175
     1
 42
1.0
 92
        0
 66
   257
 43
1.0
 76
     1
 77
     6
 78
     2
 67
     7
 79
     3
170
     0
171
     0
290
     0
174
     0
 93
        1
 44
0.0
173
     0
291
     0
 45
0.0
1001
ACAD
1000
AcDbSavedByObjectVersion
1070
     0
  0
VISUALSTYLE
  5
3C
102
{ACAD_XDICTIONARY
360
832
102
}
102
{ACAD_REACTORS
330
29
102
}
330
29
100
AcDbVisualStyle
  2

 70
    25
 71
     2
 72
     2
 73
     1
 90
        1
 40
0.5
 41
-30.0
 62
     5
 63
     7
 74
     1
 91
        0
 64
     7
 65
   257
 75
     1
175
     1
 42
1.0
 92
        8
 66
     7
 43
1.0
 76
     1
 77
     6
 78
     2
 67
     7
 79
     3
170
     0
171
     0
290
     0
174
     0
 93
       13
 44
0.0
173
     0
291
     0
 45
0.0
1001
ACAD
1000
AcDbSavedByObjectVersion
1070
     0
  0
DICTIONARYVAR
  5
68E
102
{ACAD_REACTORS
330
68B
102
}
330
68B
100
DictionaryVariables
280
     0
  1
1:1
  0
DICTIONARYVAR
  5
68D
102
{ACAD_REACTORS
330
68B
102
}
330
68B
100
DictionaryVariables
280
     0
  1
STANDARD
  0
DICTIONARYVAR
  5
68C
102
{ACAD_REACTORS
330
68B
102
}
330
68B
100
DictionaryVariables
280
     0
  1
STANDARD
  0
DICTIONARYVAR
  5
691
102
{ACAD_REACTORS
330
68B
102
}
330
68B
100
DictionaryVariables
280
     0
  1
1
  0
DICTIONARYVAR
  5
690
102
{ACAD_REACTORS
330
68B
102
}
330
68B
100
DictionaryVariables
280
     0
  1
0
  0
DICTIONARYVAR
  5
68F
102
{ACAD_REACTORS
330
68B
102
}
330
68B
100
DictionaryVariables
280
     0
  1
127
  0
DICTIONARYVAR
  5
714
102
{ACAD_REACTORS
330
68B
102
}
330
68B
100
DictionaryVariables
280
     0
  1
2
  0
DICTIONARY
  5
841
330
6E
100
AcDbDictionary
280
     1
281
     1
  3
ACAD_XREC_ROUNDTRIP
360
842
  0
DICTIONARY
  5
83F
330
6A
100
AcDbDictionary
280
     1
281
     1
  3
ACAD_XREC_ROUNDTRIP
360
840
  0
DICTIONARY
  5
1A
330
19
100
AcDbDictionary
280
     1
281
     1
  3
ACAD_XREC_ROUNDTRIP
360
69C
  3
BUMPTILE
360
1C
  3
DIFFUSETILE
360
1B
  3
OPACITYTILE
360
1F
  3
REFLECTIONTILE
360
1E
  3
REFRACTIONTILE
360
20
  3
SPECULARTILE
360
1D
  0
DICTIONARY
  5
12
330
11
100
AcDbDictionary
280
     1
281
     1
  3
ACAD_XREC_ROUNDTRIP
360
69B
  3
BUMPTILE
360
14
  3
DIFFUSETILE
360
13
  3
OPACITYTILE
360
17
  3
REFLECTIONTILE
360
16
  3
REFRACTIONTILE
360
18
  3
SPECULARTILE
360
15
  0
DICTIONARY
  5
22
330
21
100
AcDbDictionary
280
     1
281
     1
  3
ACAD_XREC_ROUNDTRIP
360
69D
  3
BUMPTILE
360
24
  3
DIFFUSETILE
360
23
  3
OPACITYTILE
360
27
  3
REFLECTIONTILE
360
26
  3
REFRACTIONTILE
360
28
  3
SPECULARTILE
360
25
  0
DICTIONARY
  5
693
330
64
100
AcDbDictionary
280
     1
281
     1
  3
ACAD_ROUNDTRIP_2008_TABLESTYLE_CELLSTYLEMAP
360
807
  3
ACAD_XREC_ROUNDTRIP
360
83E
  0
DICTIONARY
  5
818
330
2F
100
AcDbDictionary
280
     1
281
     1
  3
ACAD_XREC_ROUNDTRIP
360
819
  0
DICTIONARY
  5
843
330
4E6
100
AcDbDictionary
280
     1
281
     1
  3
ACAD_XREC_ROUNDTRIP
360
844
  0
DICTIONARY
  5
816
330
2E
100
AcDbDictionary
280
     1
281
     1
  3
ACAD_XREC_ROUNDTRIP
360
817
  0
DICTIONARY
  5
824
330
35
100
AcDbDictionary
280
     1
281
     1
  3
ACAD_XREC_ROUNDTRIP
360
825
  0
DICTIONARY
  5
82C
330
39
100
AcDbDictionary
280
     1
281
     1
  3
ACAD_XREC_ROUNDTRIP
360
82D
  0
DICTIONARY
  5
81E
330
32
100
AcDbDictionary
280
     1
281
     1
  3
ACAD_XREC_ROUNDTRIP
360
81F
  0
DICTIONARY
  5
822
330
34
100
AcDbDictionary
280
     1
281
     1
  3
ACAD_XREC_ROUNDTRIP
360
823
  0
DICTIONARY
  5
83C
330
41
100
AcDbDictionary
280
     1
281
     1
  3
ACAD_XREC_ROUNDTRIP
360
83D
  0
DICTIONARY
  5
82A
330
38
100
AcDbDictionary
280
     1
281
     1
  3
ACAD_XREC_ROUNDTRIP
360
82B
  0
DICTIONARY
  5
80E
330
2A
100
AcDbDictionary
280
     1
281
     1
  3
ACAD_XREC_ROUNDTRIP
360
80F
  0
DICTIONARY
  5
810
330
2B
100
AcDbDictionary
280
     1
281
     1
  3
ACAD_XREC_ROUNDTRIP
360
811
  0
DICTIONARY
  5
812
330
2C
100
AcDbDictionary
280
     1
281
     1
  3
ACAD_XREC_ROUNDTRIP
360
813
  0
DICTIONARY
  5
814
330
2D
100
AcDbDictionary
280
     1
281
     1
  3
ACAD_XREC_ROUNDTRIP
360
815
  0
DICTIONARY
  5
81C
330
31
100
AcDbDictionary
280
     1
281
     1
  3
ACAD_XREC_ROUNDTRIP
360
81D
  0
DICTIONARY
  5
838
330
3F
100
AcDbDictionary
280
     1
281
     1
  3
ACAD_XREC_ROUNDTRIP
360
839
  0
DICTIONARY
  5
828
330
37
100
AcDbDictionary
280
     1
281
     1
  3
ACAD_XREC_ROUNDTRIP
360
829
  0
DICTIONARY
  5
83A
330
40
100
AcDbDictionary
280
     1
281
     1
  3
ACAD_XREC_ROUNDTRIP
360
83B
  0
DICTIONARY
  5
820
330
33
100
AcDbDictionary
280
     1
281
     1
  3
ACAD_XREC_ROUNDTRIP
360
821
  0
DICTIONARY
  5
836
330
3E
100
AcDbDictionary
280
     1
281
     1
  3
ACAD_XREC_ROUNDTRIP
360
837
  0
DICTIONARY
  5
834
330
3D
100
AcDbDictionary
280
     1
281
     1
  3
ACAD_XREC_ROUNDTRIP
360
835
  0
DICTIONARY
  5
82E
330
3A
100
AcDbDictionary
280
     1
281
     1
  3
ACAD_XREC_ROUNDTRIP
360
82F
  0
DICTIONARY
  5
830
330
3B
100
AcDbDictionary
280
     1
281
     1
  3
ACAD_XREC_ROUNDTRIP
360
831
  0
DICTIONARY
  5
826
330
36
100
AcDbDictionary
280
     1
281
     1
  3
ACAD_XREC_ROUNDTRIP
360
827
  0
DICTIONARY
  5
81A
330
30
100
AcDbDictionary
280
     1
281
     1
  3
ACAD_XREC_ROUNDTRIP
360
81B
  0
DICTIONARY
  5
832
330
3C
100
AcDbDictionary
280
     1
281
     1
  3
ACAD_XREC_ROUNDTRIP
360
833
  0
XRECORD
  5
842
102
{ACAD_REACTORS
330
841
102
}
330
841
100
AcDbXrecord
280
     1
102
SHADEPLOT
 70
     0
102
SHADEPLOTRESLEVEL
 70
     2
102
SHADEPLOTCUSTOMDPI
 70
   300
  0
XRECORD
  5
840
102
{ACAD_REACTORS
330
83F
102
}
330
83F
100
AcDbXrecord
280
     1
102
SHADEPLOT
 70
     0
102
SHADEPLOTRESLEVEL
 70
     2
102
SHADEPLOTCUSTOMDPI
 70
   300
  0
XRECORD
  5
69C
102
{ACAD_REACTORS
330
1A
102
}
330
1A
100
AcDbXrecord
280
     1
102
MATERIAL
148
0.0
149
0.0
149
0.0
 93
        0
 94
      127
282
     0
 72
     0
 77
     0
171
     0
175
     0
179
     0
273
     0
  0
XRECORD
  5
1C
102
{ACAD_REACTORS
330
1A
102
}
330
1A
100
AcDbXrecord
280
     1
270
     1
271
     1
  0
XRECORD
  5
1B
102
{ACAD_REACTORS
330
1A
102
}
330
1A
100
AcDbXrecord
280
     1
270
     1
271
     1
  0
XRECORD
  5
1F
102
{ACAD_REACTORS
330
1A
102
}
330
1A
100
AcDbXrecord
280
     1
270
     1
271
     1
  0
XRECORD
  5
1E
102
{ACAD_REACTORS
330
1A
102
}
330
1A
100
AcDbXrecord
280
     1
270
     1
271
     1
  0
XRECORD
  5
20
102
{ACAD_REACTORS
330
1A
102
}
330
1A
100
AcDbXrecord
280
     1
270
     1
271
     1
  0
XRECORD
  5
1D
102
{ACAD_REACTORS
330
1A
102
}
330
1A
100
AcDbXrecord
280
     1
270
     1
271
     1
  0
XRECORD
  5
69B
102
{ACAD_REACTORS
330
12
102
}
330
12
100
AcDbXrecord
280
     1
102
MATERIAL
148
0.0
149
0.0
149
0.0
 93
        0
 94
      127
282
     0
 72
     0
 77
     0
171
     0
175
     0
179
     0
273
     0
  0
XRECORD
  5
14
102
{ACAD_REACTORS
330
12
102
}
330
12
100
AcDbXrecord
280
     1
270
     1
271
     1
  0
XRECORD
  5
13
102
{ACAD_REACTORS
330
12
102
}
330
12
100
AcDbXrecord
280
     1
270
     1
271
     1
  0
XRECORD
  5
17
102
{ACAD_REACTORS
330
12
102
}
330
12
100
AcDbXrecord
280
     1
270
     1
271
     1
  0
XRECORD
  5
16
102
{ACAD_REACTORS
330
12
102
}
330
12
100
AcDbXrecord
280
     1
270
     1
271
     1
  0
XRECORD
  5
18
102
{ACAD_REACTORS
330
12
102
}
330
12
100
AcDbXrecord
280
     1
270
     1
271
     1
  0
XRECORD
  5
15
102
{ACAD_REACTORS
330
12
102
}
330
12
100
AcDbXrecord
280
     1
270
     1
271
     1
  0
XRECORD
  5
69D
102
{ACAD_REACTORS
330
22
102
}
330
22
100
AcDbXrecord
280
     1
102
MATERIAL
148
0.0
149
0.0
149
0.0
 93
        0
 94
      127
282
     0
 72
     0
 77
     0
171
     0
175
     0
179
     0
273
     0
  0
XRECORD
  5
24
102
{ACAD_REACTORS
330
22
102
}
330
22
100
AcDbXrecord
280
     1
270
     1
271
     1
  0
XRECORD
  5
23
102
{ACAD_REACTORS
330
22
102
}
330
22
100
AcDbXrecord
280
     1
270
     1
271
     1
  0
XRECORD
  5
27
102
{ACAD_REACTORS
330
22
102
}
330
22
100
AcDbXrecord
280
     1
270
     1
271
     1
  0
XRECORD
  5
26
102
{ACAD_REACTORS
330
22
102
}
330
22
100
AcDbXrecord
280
     1
270
     1
271
     1
  0
XRECORD
  5
28
102
{ACAD_REACTORS
330
22
102
}
330
22
100
AcDbXrecord
280
     1
270
     1
271
     1
  0
XRECORD
  5
25
102
{ACAD_REACTORS
330
22
102
}
330
22
100
AcDbXrecord
280
     1
270
     1
271
     1
  0
CELLSTYLEMAP
  5
807
102
{ACAD_REACTORS
330
693
102
}
330
693
100
AcDbCellStyleMap
 90
        3
300
CELLSTYLE
  1
TABLEFORMAT_BEGIN
 90
        5
170
     1
 91
        0
 92
    32768
 62
   257
 93
        1
300
CONTENTFORMAT
  1
CONTENTFORMAT_BEGIN
 90
        0
 91
        0
 92
      512
 93
        0
300

 40
0.0
140
1.0
 94
        5
 62
     0
340
55
144
0.25
309
CONTENTFORMAT_END
171
     1
301
MARGIN
  1
CELLMARGIN_BEGIN
 40
0.06
 40
0.06
 40
0.06
 40
0.06
 40
0.18
 40
0.18
309
CELLMARGIN_END
 94
        6
 95
        1
302
GRIDFORMAT
  1
GRIDFORMAT_BEGIN
 90
        0
 91
        1
 62
     0
 92
       -2
340
0
 93
        0
 40
0.045
309
GRIDFORMAT_END
 95
        2
302
GRIDFORMAT
  1
GRIDFORMAT_BEGIN
 90
        0
 91
        1
 62
     0
 92
       -2
340
0
 93
        0
 40
0.045
309
GRIDFORMAT_END
 95
        4
302
GRIDFORMAT
  1
GRIDFORMAT_BEGIN
 90
        0
 91
        1
 62
     0
 92
       -2
340
0
 93
        0
 40
0.045
309
GRIDFORMAT_END
 95
        8
302
GRIDFORMAT
  1
GRIDFORMAT_BEGIN
 90
        0
 91
        1
 62
     0
 92
       -2
340
0
 93
        0
 40
0.045
309
GRIDFORMAT_END
 95
       16
302
GRIDFORMAT
  1
GRIDFORMAT_BEGIN
 90
        0
 91
        1
 62
     0
 92
       -2
340
0
 93
        0
 40
0.045
309
GRIDFORMAT_END
 95
       32
302
GRIDFORMAT
  1
GRIDFORMAT_BEGIN
 90
        0
 91
        1
 62
     0
 92
       -2
340
0
 93
        0
 40
0.045
309
GRIDFORMAT_END
309
TABLEFORMAT_END
  1
CELLSTYLE_BEGIN
 90
        1
 91
        1
300
_TITLE
309
CELLSTYLE_END
300
CELLSTYLE
  1
TABLEFORMAT_BEGIN
 90
        5
170
     1
 91
        0
 92
        0
 62
   257
 93
        1
300
CONTENTFORMAT
  1
CONTENTFORMAT_BEGIN
 90
        0
 91
        0
 92
      512
 93
        0
300

 40
0.0
140
1.0
 94
        5
 62
     0
340
55
144
0.18
309
CONTENTFORMAT_END
171
     1
301
MARGIN
  1
CELLMARGIN_BEGIN
 40
0.06
 40
0.06
 40
0.06
 40
0.06
 40
0.18
 40
0.18
309
CELLMARGIN_END
 94
        6
 95
        1
302
GRIDFORMAT
  1
GRIDFORMAT_BEGIN
 90
        0
 91
        1
 62
     0
 92
       -2
340
0
 93
        0
 40
0.045
309
GRIDFORMAT_END
 95
        2
302
GRIDFORMAT
  1
GRIDFORMAT_BEGIN
 90
        0
 91
        1
 62
     0
 92
       -2
340
0
 93
        0
 40
0.045
309
GRIDFORMAT_END
 95
        4
302
GRIDFORMAT
  1
GRIDFORMAT_BEGIN
 90
        0
 91
        1
 62
     0
 92
       -2
340
0
 93
        0
 40
0.045
309
GRIDFORMAT_END
 95
        8
302
GRIDFORMAT
  1
GRIDFORMAT_BEGIN
 90
        0
 91
        1
 62
     0
 92
       -2
340
0
 93
        0
 40
0.045
309
GRIDFORMAT_END
 95
       16
302
GRIDFORMAT
  1
GRIDFORMAT_BEGIN
 90
        0
 91
        1
 62
     0
 92
       -2
340
0
 93
        0
 40
0.045
309
GRIDFORMAT_END
 95
       32
302
GRIDFORMAT
  1
GRIDFORMAT_BEGIN
 90
        0
 91
        1
 62
     0
 92
       -2
340
0
 93
        0
 40
0.045
309
GRIDFORMAT_END
309
TABLEFORMAT_END
  1
CELLSTYLE_BEGIN
 90
        2
 91
        1
300
_HEADER
309
CELLSTYLE_END
300
CELLSTYLE
  1
TABLEFORMAT_BEGIN
 90
        5
170
     1
 91
        0
 92
        0
 62
   257
 93
        1
300
CONTENTFORMAT
  1
CONTENTFORMAT_BEGIN
 90
        0
 91
        0
 92
      512
 93
        0
300

 40
0.0
140
1.0
 94
        2
 62
     0
340
55
144
0.18
309
CONTENTFORMAT_END
171
     1
301
MARGIN
  1
CELLMARGIN_BEGIN
 40
0.06
 40
0.06
 40
0.06
 40
0.06
 40
0.18
 40
0.18
309
CELLMARGIN_END
 94
        6
 95
        1
302
GRIDFORMAT
  1
GRIDFORMAT_BEGIN
 90
        0
 91
        1
 62
     0
 92
       -2
340
0
 93
        0
 40
0.045
309
GRIDFORMAT_END
 95
        2
302
GRIDFORMAT
  1
GRIDFORMAT_BEGIN
 90
        0
 91
        1
 62
     0
 92
       -2
340
0
 93
        0
 40
0.045
309
GRIDFORMAT_END
 95
        4
302
GRIDFORMAT
  1
GRIDFORMAT_BEGIN
 90
        0
 91
        1
 62
     0
 92
       -2
340
0
 93
        0
 40
0.045
309
GRIDFORMAT_END
 95
        8
302
GRIDFORMAT
  1
GRIDFORMAT_BEGIN
 90
        0
 91
        1
 62
     0
 92
       -2
340
0
 93
        0
 40
0.045
309
GRIDFORMAT_END
 95
       16
302
GRIDFORMAT
  1
GRIDFORMAT_BEGIN
 90
        0
 91
        1
 62
     0
 92
       -2
340
0
 93
        0
 40
0.045
309
GRIDFORMAT_END
 95
       32
302
GRIDFORMAT
  1
GRIDFORMAT_BEGIN
 90
        0
 91
        1
 62
     0
 92
       -2
340
0
 93
        0
 40
0.045
309
GRIDFORMAT_END
309
TABLEFORMAT_END
  1
CELLSTYLE_BEGIN
 90
        3
 91
        2
300
_DATA
309
CELLSTYLE_END
  0
XRECORD
  5
83E
102
{ACAD_REACTORS
330
693
102
}
330
693
100
AcDbXrecord
280
     1
102
ACAD_ROUNDTRIP_PRE2007_TABLESTYLE
 90
      512
 91
        0
  1

 92
      512
 93
        0
  2

 94
      512
 95
        0
  3

  0
XRECORD
  5
819
102
{ACAD_REACTORS
330
818
102
}
330
818
100
AcDbXrecord
280
     1
102
RTVSPropertyOp0
 70
     1
102
RTVSPropertyOp1
 70
     1
102
RTVSPropertyOp2
 70
     1
102
RTVSPropertyOp3
 70
     1
102
RTVSPropertyOp4
 70
     1
102
RTVSPropertyOp5
 70
     1
102
RTVSPropertyOp6
 70
     1
102
RTVSPropertyOp7
 70
     1
102
RTVSPropertyOp8
 70
     1
102
RTVSPropertyOp9
 70
     1
102
RTVSPropertyOp10
 70
     1
102
RTVSPropertyOp11
 70
     1
102
RTVSPropertyOp12
 70
     1
102
RTVSPropertyOp13
 70
     1
102
RTVSPropertyOp14
 70
     1
102
RTVSPropertyOp15
 70
     1
102
RTVSPropertyOp16
 70
     1
102
RTVSPropertyOp17
 70
     1
102
RTVSPropertyOp18
 70
     1
102
RTVSPropertyOp19
 70
     1
102
RTVSPropertyOp20
 70
     1
102
RTVSPropertyOp21
 70
     1
102
RTVSPropertyOp22
 70
     1
102
RTVSPropertyOp23
 70
     1
102
RTVSPropertyOp24
 70
     1
102
RTVSPropertyOp25
 70
     1
102
RTVSPropertyOp26
 70
     1
102
RTVSPropertyOp27
 70
     1
102
RTVSPropertyOp28
 70
     1
102
RTVSPropertyOp29
 70
     1
102
RTVSPropertyOp30
 70
     1
102
RTVSPropertyOp31
 70
     1
102
RTVSPropertyOp32
 70
     1
  0
XRECORD
  5
844
102
{ACAD_REACTORS
330
843
102
}
330
843
100
AcDbXrecord
280
     1
102
RTVSPropertyOp0
 70
     1
102
RTVSPropertyOp1
 70
     1
102
RTVSPropertyOp2
 70
     1
102
RTVSPropertyOp3
 70
     1
102
RTVSPropertyOp4
 70
     1
102
RTVSPropertyOp5
 70
     1
102
RTVSPropertyOp6
 70
     1
102
RTVSPropertyOp7
 70
     1
102
RTVSPropertyOp8
 70
     1
102
RTVSPropertyOp9
 70
     1
102
RTVSPropertyOp10
 70
     1
102
RTVSPropertyOp11
 70
     1
102
RTVSPropertyOp12
 70
     1
102
RTVSPropertyOp13
 70
     1
102
RTVSPropertyOp14
 70
     1
102
RTVSPropertyOp15
 70
     1
102
RTVSPropertyOp16
 70
     1
102
RTVSPropertyOp17
 70
     1
102
RTVSPropertyOp18
 70
     1
102
RTVSPropertyOp19
 70
     1
102
RTVSPropertyOp20
 70
     1
102
RTVSPropertyOp21
 70
     1
102
RTVSPropertyOp22
 70
     1
102
RTVSPropertyOp23
 70
     1
102
RTVSPropertyOp24
 70
     1
102
RTVSPropertyOp25
 70
     1
102
RTVSPropertyOp26
 70
     1
102
RTVSPropertyOp27
 70
     1
102
RTVSPropertyOp28
 70
     1
102
RTVSPropertyOp29
 70
     1
102
RTVSPropertyOp30
 70
     1
102
RTVSPropertyOp31
 70
     1
102
RTVSPropertyOp32
 70
     1
  0
XRECORD
  5
817
102
{ACAD_REACTORS
330
816
102
}
330
816
100
AcDbXrecord
280
     1
102
RTVSPropertyOp0
 70
     1
102
RTVSPropertyOp1
 70
     1
102
RTVSPropertyOp2
 70
     1
102
RTVSPropertyOp3
 70
     1
102
RTVSPropertyOp4
 70
     1
102
RTVSPropertyOp5
 70
     1
102
RTVSPropertyOp6
 70
     1
102
RTVSPropertyOp7
 70
     1
102
RTVSPropertyOp8
 70
     1
102
RTVSPropertyOp9
 70
     1
102
RTVSPropertyOp10
 70
     1
102
RTVSPropertyOp11
 70
     1
102
RTVSPropertyOp12
 70
     1
102
RTVSPropertyOp13
 70
     1
102
RTVSPropertyOp14
 70
     1
102
RTVSPropertyOp15
 70
     1
102
RTVSPropertyOp16
 70
     1
102
RTVSPropertyOp17
 70
     1
102
RTVSPropertyOp18
 70
     1
102
RTVSPropertyOp19
 70
     1
102
RTVSPropertyOp20
 70
     1
102
RTVSPropertyOp21
 70
     1
102
RTVSPropertyOp22
 70
     1
102
RTVSPropertyOp23
 70
     1
102
RTVSPropertyOp24
 70
     1
102
RTVSPropertyOp25
 70
     1
102
RTVSPropertyOp26
 70
     1
102
RTVSPropertyOp27
 70
     1
102
RTVSPropertyOp28
 70
     1
102
RTVSPropertyOp29
 70
     1
102
RTVSPropertyOp30
 70
     1
102
RTVSPropertyOp31
 70
     1
102
RTVSPropertyOp32
 70
     1
  0
XRECORD
  5
825
102
{ACAD_REACTORS
330
824
102
}
330
824
100
AcDbXrecord
280
     1
102
RTVSPropertyOp0
 70
     1
102
RTVSPropertyOp1
 70
     1
102
RTVSPropertyOp2
 70
     1
102
RTVSPropertyOp3
 70
     1
102
RTVSPropertyOp4
 70
     1
102
RTVSPropertyOp5
 70
     1
102
RTVSPropertyOp6
 70
     1
102
RTVSPropertyOp7
 70
     1
102
RTVSPropertyOp8
 70
     1
102
RTVSPropertyOp9
 70
     1
102
RTVSPropertyOp10
 70
     1
102
RTVSPropertyOp11
 70
     1
102
RTVSPropertyOp12
 70
     1
102
RTVSPropertyOp13
 70
     1
102
RTVSPropertyOp14
 70
     1
102
RTVSPropertyOp15
 70
     1
102
RTVSPropertyOp16
 70
     1
102
RTVSPropertyOp17
 70
     1
102
RTVSPropertyOp18
 70
     1
102
RTVSPropertyOp19
 70
     1
102
RTVSPropertyOp20
 70
     1
102
RTVSPropertyOp21
 70
     1
102
RTVSPropertyOp22
 70
     1
102
RTVSPropertyOp23
 70
     1
102
RTVSPropertyOp24
 70
     1
102
RTVSPropertyOp25
 70
     1
102
RTVSPropertyOp26
 70
     1
102
RTVSPropertyOp27
 70
     1
102
RTVSPropertyOp28
 70
     1
102
RTVSPropertyOp29
 70
     1
102
RTVSPropertyOp30
 70
     1
102
RTVSPropertyOp31
 70
     1
102
RTVSPropertyOp32
 70
     1
  0
XRECORD
  5
82D
102
{ACAD_REACTORS
330
82C
102
}
330
82C
100
AcDbXrecord
280
     1
102
RTVSPropertyOp0
 70
     1
102
RTVSPropertyOp1
 70
     1
102
RTVSPropertyOp2
 70
     1
102
RTVSPropertyOp3
 70
     1
102
RTVSPropertyOp4
 70
     1
102
RTVSPropertyOp5
 70
     1
102
RTVSPropertyOp6
 70
     1
102
RTVSPropertyOp7
 70
     1
102
RTVSPropertyOp8
 70
     1
102
RTVSPropertyOp9
 70
     1
102
RTVSPropertyOp10
 70
     1
102
RTVSPropertyOp11
 70
     1
102
RTVSPropertyOp12
 70
     1
102
RTVSPropertyOp13
 70
     1
102
RTVSPropertyOp14
 70
     1
102
RTVSPropertyOp15
 70
     1
102
RTVSPropertyOp16
 70
     1
102
RTVSPropertyOp17
 70
     1
102
RTVSPropertyOp18
 70
     1
102
RTVSPropertyOp19
 70
     1
102
RTVSPropertyOp20
 70
     1
102
RTVSPropertyOp21
 70
     1
102
RTVSPropertyOp22
 70
     1
102
RTVSPropertyOp23
 70
     1
102
RTVSPropertyOp24
 70
     1
102
RTVSPropertyOp25
 70
     1
102
RTVSPropertyOp26
 70
     1
102
RTVSPropertyOp27
 70
     1
102
RTVSPropertyOp28
 70
     1
102
RTVSPropertyOp29
 70
     1
102
RTVSPropertyOp30
 70
     1
102
RTVSPropertyOp31
 70
     1
102
RTVSPropertyOp32
 70
     1
  0
XRECORD
  5
81F
102
{ACAD_REACTORS
330
81E
102
}
330
81E
100
AcDbXrecord
280
     1
102
RTVSPropertyOp0
 70
     1
102
RTVSPropertyOp1
 70
     1
102
RTVSPropertyOp2
 70
     1
102
RTVSPropertyOp3
 70
     1
102
RTVSPropertyOp4
 70
     1
102
RTVSPropertyOp5
 70
     1
102
RTVSPropertyOp6
 70
     1
102
RTVSPropertyOp7
 70
     1
102
RTVSPropertyOp8
 70
     1
102
RTVSPropertyOp9
 70
     1
102
RTVSPropertyOp10
 70
     1
102
RTVSPropertyOp11
 70
     1
102
RTVSPropertyOp12
 70
     1
102
RTVSPropertyOp13
 70
     1
102
RTVSPropertyOp14
 70
     1
102
RTVSPropertyOp15
 70
     1
102
RTVSPropertyOp16
 70
     1
102
RTVSPropertyOp17
 70
     1
102
RTVSPropertyOp18
 70
     1
102
RTVSPropertyOp19
 70
     1
102
RTVSPropertyOp20
 70
     1
102
RTVSPropertyOp21
 70
     1
102
RTVSPropertyOp22
 70
     1
102
RTVSPropertyOp23
 70
     1
102
RTVSPropertyOp24
 70
     1
102
RTVSPropertyOp25
 70
     1
102
RTVSPropertyOp26
 70
     1
102
RTVSPropertyOp27
 70
     1
102
RTVSPropertyOp28
 70
     1
102
RTVSPropertyOp29
 70
     1
102
RTVSPropertyOp30
 70
     1
102
RTVSPropertyOp31
 70
     1
102
RTVSPropertyOp32
 70
     1
  0
XRECORD
  5
823
102
{ACAD_REACTORS
330
822
102
}
330
822
100
AcDbXrecord
280
     1
102
RTVSPropertyOp0
 70
     1
102
RTVSPropertyOp1
 70
     1
102
RTVSPropertyOp2
 70
     1
102
RTVSPropertyOp3
 70
     1
102
RTVSPropertyOp4
 70
     1
102
RTVSPropertyOp5
 70
     1
102
RTVSPropertyOp6
 70
     1
102
RTVSPropertyOp7
 70
     1
102
RTVSPropertyOp8
 70
     1
102
RTVSPropertyOp9
 70
     1
102
RTVSPropertyOp10
 70
     1
102
RTVSPropertyOp11
 70
     1
102
RTVSPropertyOp12
 70
     1
102
RTVSPropertyOp13
 70
     1
102
RTVSPropertyOp14
 70
     1
102
RTVSPropertyOp15
 70
     1
102
RTVSPropertyOp16
 70
     1
102
RTVSPropertyOp17
 70
     1
102
RTVSPropertyOp18
 70
     1
102
RTVSPropertyOp19
 70
     1
102
RTVSPropertyOp20
 70
     1
102
RTVSPropertyOp21
 70
     1
102
RTVSPropertyOp22
 70
     1
102
RTVSPropertyOp23
 70
     1
102
RTVSPropertyOp24
 70
     1
102
RTVSPropertyOp25
 70
     1
102
RTVSPropertyOp26
 70
     1
102
RTVSPropertyOp27
 70
     1
102
RTVSPropertyOp28
 70
     1
102
RTVSPropertyOp29
 70
     1
102
RTVSPropertyOp30
 70
     1
102
RTVSPropertyOp31
 70
     1
102
RTVSPropertyOp32
 70
     1
  0
XRECORD
  5
83D
102
{ACAD_REACTORS
330
83C
102
}
330
83C
100
AcDbXrecord
280
     1
102
RTVSPropertyOp0
 70
     0
102
RTVSPropertyOp1
 70
     0
102
RTVSPropertyOp2
 70
     0
102
RTVSPropertyOp3
 70
     0
102
RTVSPropertyOp4
 70
     0
102
RTVSPropertyOp5
 70
     0
102
RTVSPropertyOp6
 70
     0
102
RTVSPropertyOp7
 70
     0
102
RTVSPropertyOp8
 70
     0
102
RTVSPropertyOp9
 70
     0
102
RTVSPropertyOp10
 70
     0
102
RTVSPropertyOp11
 70
     0
102
RTVSPropertyOp12
 70
     0
102
RTVSPropertyOp13
 70
     0
102
RTVSPropertyOp14
 70
     2
102
RTVSPropertyOp15
 70
     0
102
RTVSPropertyOp16
 70
     0
102
RTVSPropertyOp17
 70
     0
102
RTVSPropertyOp18
 70
     0
102
RTVSPropertyOp19
 70
     0
102
RTVSPropertyOp20
 70
     0
102
RTVSPropertyOp21
 70
     0
102
RTVSPropertyOp22
 70
     0
102
RTVSPropertyOp23
 70
     0
102
RTVSPropertyOp24
 70
     0
102
RTVSPropertyOp25
 70
     0
102
RTVSPropertyOp26
 70
     0
102
RTVSPropertyOp27
 70
     0
102
RTVSPropertyOp28
 70
     0
102
RTVSPropertyOp29
 70
     0
102
RTVSPropertyOp30
 70
     0
102
RTVSPropertyOp31
 70
     0
102
RTVSPropertyOp32
 70
     0
  0
XRECORD
  5
82B
102
{ACAD_REACTORS
330
82A
102
}
330
82A
100
AcDbXrecord
280
     1
102
RTVSPropertyOp0
 70
     1
102
RTVSPropertyOp1
 70
     1
102
RTVSPropertyOp2
 70
     1
102
RTVSPropertyOp3
 70
     1
102
RTVSPropertyOp4
 70
     1
102
RTVSPropertyOp5
 70
     1
102
RTVSPropertyOp6
 70
     1
102
RTVSPropertyOp7
 70
     1
102
RTVSPropertyOp8
 70
     1
102
RTVSPropertyOp9
 70
     1
102
RTVSPropertyOp10
 70
     1
102
RTVSPropertyOp11
 70
     1
102
RTVSPropertyOp12
 70
     1
102
RTVSPropertyOp13
 70
     1
102
RTVSPropertyOp14
 70
     1
102
RTVSPropertyOp15
 70
     1
102
RTVSPropertyOp16
 70
     1
102
RTVSPropertyOp17
 70
     1
102
RTVSPropertyOp18
 70
     1
102
RTVSPropertyOp19
 70
     1
102
RTVSPropertyOp20
 70
     1
102
RTVSPropertyOp21
 70
     1
102
RTVSPropertyOp22
 70
     1
102
RTVSPropertyOp23
 70
     1
102
RTVSPropertyOp24
 70
     1
102
RTVSPropertyOp25
 70
     1
102
RTVSPropertyOp26
 70
     1
102
RTVSPropertyOp27
 70
     1
102
RTVSPropertyOp28
 70
     1
102
RTVSPropertyOp29
 70
     1
102
RTVSPropertyOp30
 70
     1
102
RTVSPropertyOp31
 70
     1
102
RTVSPropertyOp32
 70
     1
  0
XRECORD
  5
80F
102
{ACAD_REACTORS
330
80E
102
}
330
80E
100
AcDbXrecord
280
     1
102
RTVSPropertyOp0
 70
     1
102
RTVSPropertyOp1
 70
     1
102
RTVSPropertyOp2
 70
     1
102
RTVSPropertyOp3
 70
     1
102
RTVSPropertyOp4
 70
     1
102
RTVSPropertyOp5
 70
     1
102
RTVSPropertyOp6
 70
     1
102
RTVSPropertyOp7
 70
     1
102
RTVSPropertyOp8
 70
     1
102
RTVSPropertyOp9
 70
     1
102
RTVSPropertyOp10
 70
     1
102
RTVSPropertyOp11
 70
     1
102
RTVSPropertyOp12
 70
     1
102
RTVSPropertyOp13
 70
     1
102
RTVSPropertyOp14
 70
     1
102
RTVSPropertyOp15
 70
     1
102
RTVSPropertyOp16
 70
     1
102
RTVSPropertyOp17
 70
     1
102
RTVSPropertyOp18
 70
     1
102
RTVSPropertyOp19
 70
     1
102
RTVSPropertyOp20
 70
     1
102
RTVSPropertyOp21
 70
     1
102
RTVSPropertyOp22
 70
     1
102
RTVSPropertyOp23
 70
     1
102
RTVSPropertyOp24
 70
     1
102
RTVSPropertyOp25
 70
     1
102
RTVSPropertyOp26
 70
     1
102
RTVSPropertyOp27
 70
     1
102
RTVSPropertyOp28
 70
     1
102
RTVSPropertyOp29
 70
     1
102
RTVSPropertyOp30
 70
     1
102
RTVSPropertyOp31
 70
     1
102
RTVSPropertyOp32
 70
     1
  0
XRECORD
  5
811
102
{ACAD_REACTORS
330
810
102
}
330
810
100
AcDbXrecord
280
     1
102
RTVSPropertyOp0
 70
     1
102
RTVSPropertyOp1
 70
     1
102
RTVSPropertyOp2
 70
     1
102
RTVSPropertyOp3
 70
     1
102
RTVSPropertyOp4
 70
     1
102
RTVSPropertyOp5
 70
     1
102
RTVSPropertyOp6
 70
     1
102
RTVSPropertyOp7
 70
     1
102
RTVSPropertyOp8
 70
     1
102
RTVSPropertyOp9
 70
     1
102
RTVSPropertyOp10
 70
     1
102
RTVSPropertyOp11
 70
     1
102
RTVSPropertyOp12
 70
     1
102
RTVSPropertyOp13
 70
     1
102
RTVSPropertyOp14
 70
     1
102
RTVSPropertyOp15
 70
     1
102
RTVSPropertyOp16
 70
     1
102
RTVSPropertyOp17
 70
     1
102
RTVSPropertyOp18
 70
     1
102
RTVSPropertyOp19
 70
     1
102
RTVSPropertyOp20
 70
     1
102
RTVSPropertyOp21
 70
     1
102
RTVSPropertyOp22
 70
     1
102
RTVSPropertyOp23
 70
     1
102
RTVSPropertyOp24
 70
     1
102
RTVSPropertyOp25
 70
     1
102
RTVSPropertyOp26
 70
     1
102
RTVSPropertyOp27
 70
     1
102
RTVSPropertyOp28
 70
     1
102
RTVSPropertyOp29
 70
     1
102
RTVSPropertyOp30
 70
     1
102
RTVSPropertyOp31
 70
     1
102
RTVSPropertyOp32
 70
     1
  0
XRECORD
  5
813
102
{ACAD_REACTORS
330
812
102
}
330
812
100
AcDbXrecord
280
     1
102
RTVSPropertyOp0
 70
     1
102
RTVSPropertyOp1
 70
     1
102
RTVSPropertyOp2
 70
     1
102
RTVSPropertyOp3
 70
     1
102
RTVSPropertyOp4
 70
     1
102
RTVSPropertyOp5
 70
     1
102
RTVSPropertyOp6
 70
     1
102
RTVSPropertyOp7
 70
     1
102
RTVSPropertyOp8
 70
     1
102
RTVSPropertyOp9
 70
     1
102
RTVSPropertyOp10
 70
     1
102
RTVSPropertyOp11
 70
     1
102
RTVSPropertyOp12
 70
     1
102
RTVSPropertyOp13
 70
     1
102
RTVSPropertyOp14
 70
     1
102
RTVSPropertyOp15
 70
     1
102
RTVSPropertyOp16
 70
     1
102
RTVSPropertyOp17
 70
     1
102
RTVSPropertyOp18
 70
     1
102
RTVSPropertyOp19
 70
     1
102
RTVSPropertyOp20
 70
     1
102
RTVSPropertyOp21
 70
     1
102
RTVSPropertyOp22
 70
     1
102
RTVSPropertyOp23
 70
     1
102
RTVSPropertyOp24
 70
     1
102
RTVSPropertyOp25
 70
     1
102
RTVSPropertyOp26
 70
     1
102
RTVSPropertyOp27
 70
     1
102
RTVSPropertyOp28
 70
     1
102
RTVSPropertyOp29
 70
     1
102
RTVSPropertyOp30
 70
     1
102
RTVSPropertyOp31
 70
     1
102
RTVSPropertyOp32
 70
     1
  0
XRECORD
  5
815
102
{ACAD_REACTORS
330
814
102
}
330
814
100
AcDbXrecord
280
     1
102
RTVSPropertyOp0
 70
     1
102
RTVSPropertyOp1
 70
     1
102
RTVSPropertyOp2
 70
     1
102
RTVSPropertyOp3
 70
     1
102
RTVSPropertyOp4
 70
     1
102
RTVSPropertyOp5
 70
     1
102
RTVSPropertyOp6
 70
     1
102
RTVSPropertyOp7
 70
     1
102
RTVSPropertyOp8
 70
     1
102
RTVSPropertyOp9
 70
     1
102
RTVSPropertyOp10
 70
     1
102
RTVSPropertyOp11
 70
     1
102
RTVSPropertyOp12
 70
     1
102
RTVSPropertyOp13
 70
     1
102
RTVSPropertyOp14
 70
     1
102
RTVSPropertyOp15
 70
     1
102
RTVSPropertyOp16
 70
     1
102
RTVSPropertyOp17
 70
     1
102
RTVSPropertyOp18
 70
     1
102
RTVSPropertyOp19
 70
     1
102
RTVSPropertyOp20
 70
     1
102
RTVSPropertyOp21
 70
     1
102
RTVSPropertyOp22
 70
     1
102
RTVSPropertyOp23
 70
     1
102
RTVSPropertyOp24
 70
     1
102
RTVSPropertyOp25
 70
     1
102
RTVSPropertyOp26
 70
     1
102
RTVSPropertyOp27
 70
     1
102
RTVSPropertyOp28
 70
     1
102
RTVSPropertyOp29
 70
     1
102
RTVSPropertyOp30
 70
     1
102
RTVSPropertyOp31
 70
     1
102
RTVSPropertyOp32
 70
     1
  0
XRECORD
  5
81D
102
{ACAD_REACTORS
330
81C
102
}
330
81C
100
AcDbXrecord
280
     1
102
RTVSPropertyOp0
 70
     1
102
RTVSPropertyOp1
 70
     1
102
RTVSPropertyOp2
 70
     1
102
RTVSPropertyOp3
 70
     1
102
RTVSPropertyOp4
 70
     1
102
RTVSPropertyOp5
 70
     1
102
RTVSPropertyOp6
 70
     1
102
RTVSPropertyOp7
 70
     1
102
RTVSPropertyOp8
 70
     1
102
RTVSPropertyOp9
 70
     1
102
RTVSPropertyOp10
 70
     1
102
RTVSPropertyOp11
 70
     1
102
RTVSPropertyOp12
 70
     1
102
RTVSPropertyOp13
 70
     1
102
RTVSPropertyOp14
 70
     1
102
RTVSPropertyOp15
 70
     1
102
RTVSPropertyOp16
 70
     1
102
RTVSPropertyOp17
 70
     1
102
RTVSPropertyOp18
 70
     1
102
RTVSPropertyOp19
 70
     1
102
RTVSPropertyOp20
 70
     1
102
RTVSPropertyOp21
 70
     1
102
RTVSPropertyOp22
 70
     1
102
RTVSPropertyOp23
 70
     1
102
RTVSPropertyOp24
 70
     1
102
RTVSPropertyOp25
 70
     1
102
RTVSPropertyOp26
 70
     1
102
RTVSPropertyOp27
 70
     1
102
RTVSPropertyOp28
 70
     1
102
RTVSPropertyOp29
 70
     1
102
RTVSPropertyOp30
 70
     1
102
RTVSPropertyOp31
 70
     1
102
RTVSPropertyOp32
 70
     1
  0
XRECORD
  5
839
102
{ACAD_REACTORS
330
838
102
}
330
838
100
AcDbXrecord
280
     1
102
RTVSPropertyOp0
 70
     0
102
RTVSPropertyOp1
 70
     0
102
RTVSPropertyOp2
 70
     0
102
RTVSPropertyOp3
 70
     0
102
RTVSPropertyOp4
 70
     0
102
RTVSPropertyOp5
 70
     0
102
RTVSPropertyOp6
 70
     0
102
RTVSPropertyOp7
 70
     0
102
RTVSPropertyOp8
 70
     0
102
RTVSPropertyOp9
 70
     0
102
RTVSPropertyOp10
 70
     0
102
RTVSPropertyOp11
 70
     0
102
RTVSPropertyOp12
 70
     0
102
RTVSPropertyOp13
 70
     0
102
RTVSPropertyOp14
 70
     2
102
RTVSPropertyOp15
 70
     0
102
RTVSPropertyOp16
 70
     0
102
RTVSPropertyOp17
 70
     0
102
RTVSPropertyOp18
 70
     0
102
RTVSPropertyOp19
 70
     0
102
RTVSPropertyOp20
 70
     0
102
RTVSPropertyOp21
 70
     0
102
RTVSPropertyOp22
 70
     0
102
RTVSPropertyOp23
 70
     0
102
RTVSPropertyOp24
 70
     0
102
RTVSPropertyOp25
 70
     0
102
RTVSPropertyOp26
 70
     0
102
RTVSPropertyOp27
 70
     0
102
RTVSPropertyOp28
 70
     0
102
RTVSPropertyOp29
 70
     0
102
RTVSPropertyOp30
 70
     0
102
RTVSPropertyOp31
 70
     0
102
RTVSPropertyOp32
 70
     0
  0
XRECORD
  5
829
102
{ACAD_REACTORS
330
828
102
}
330
828
100
AcDbXrecord
280
     1
102
RTVSPropertyOp0
 70
     1
102
RTVSPropertyOp1
 70
     1
102
RTVSPropertyOp2
 70
     1
102
RTVSPropertyOp3
 70
     1
102
RTVSPropertyOp4
 70
     1
102
RTVSPropertyOp5
 70
     1
102
RTVSPropertyOp6
 70
     1
102
RTVSPropertyOp7
 70
     1
102
RTVSPropertyOp8
 70
     1
102
RTVSPropertyOp9
 70
     1
102
RTVSPropertyOp10
 70
     1
102
RTVSPropertyOp11
 70
     1
102
RTVSPropertyOp12
 70
     1
102
RTVSPropertyOp13
 70
     1
102
RTVSPropertyOp14
 70
     1
102
RTVSPropertyOp15
 70
     1
102
RTVSPropertyOp16
 70
     1
102
RTVSPropertyOp17
 70
     1
102
RTVSPropertyOp18
 70
     1
102
RTVSPropertyOp19
 70
     1
102
RTVSPropertyOp20
 70
     1
102
RTVSPropertyOp21
 70
     1
102
RTVSPropertyOp22
 70
     1
102
RTVSPropertyOp23
 70
     1
102
RTVSPropertyOp24
 70
     1
102
RTVSPropertyOp25
 70
     1
102
RTVSPropertyOp26
 70
     1
102
RTVSPropertyOp27
 70
     1
102
RTVSPropertyOp28
 70
     1
102
RTVSPropertyOp29
 70
     1
102
RTVSPropertyOp30
 70
     1
102
RTVSPropertyOp31
 70
     1
102
RTVSPropertyOp32
 70
     1
  0
XRECORD
  5
83B
102
{ACAD_REACTORS
330
83A
102
}
330
83A
100
AcDbXrecord
280
     1
102
RTVSPropertyOp0
 70
     0
102
RTVSPropertyOp1
 70
     0
102
RTVSPropertyOp2
 70
     0
102
RTVSPropertyOp3
 70
     0
102
RTVSPropertyOp4
 70
     0
102
RTVSPropertyOp5
 70
     0
102
RTVSPropertyOp6
 70
     0
102
RTVSPropertyOp7
 70
     0
102
RTVSPropertyOp8
 70
     0
102
RTVSPropertyOp9
 70
     0
102
RTVSPropertyOp10
 70
     0
102
RTVSPropertyOp11
 70
     0
102
RTVSPropertyOp12
 70
     0
102
RTVSPropertyOp13
 70
     0
102
RTVSPropertyOp14
 70
     2
102
RTVSPropertyOp15
 70
     0
102
RTVSPropertyOp16
 70
     0
102
RTVSPropertyOp17
 70
     0
102
RTVSPropertyOp18
 70
     0
102
RTVSPropertyOp19
 70
     0
102
RTVSPropertyOp20
 70
     0
102
RTVSPropertyOp21
 70
     0
102
RTVSPropertyOp22
 70
     0
102
RTVSPropertyOp23
 70
     0
102
RTVSPropertyOp24
 70
     0
102
RTVSPropertyOp25
 70
     0
102
RTVSPropertyOp26
 70
     0
102
RTVSPropertyOp27
 70
     0
102
RTVSPropertyOp28
 70
     0
102
RTVSPropertyOp29
 70
     0
102
RTVSPropertyOp30
 70
     0
102
RTVSPropertyOp31
 70
     0
102
RTVSPropertyOp32
 70
     0
  0
XRECORD
  5
821
102
{ACAD_REACTORS
330
820
102
}
330
820
100
AcDbXrecord
280
     1
102
RTVSPropertyOp0
 70
     1
102
RTVSPropertyOp1
 70
     1
102
RTVSPropertyOp2
 70
     1
102
RTVSPropertyOp3
 70
     1
102
RTVSPropertyOp4
 70
     1
102
RTVSPropertyOp5
 70
     1
102
RTVSPropertyOp6
 70
     1
102
RTVSPropertyOp7
 70
     1
102
RTVSPropertyOp8
 70
     1
102
RTVSPropertyOp9
 70
     1
102
RTVSPropertyOp10
 70
     1
102
RTVSPropertyOp11
 70
     1
102
RTVSPropertyOp12
 70
     1
102
RTVSPropertyOp13
 70
     1
102
RTVSPropertyOp14
 70
     1
102
RTVSPropertyOp15
 70
     1
102
RTVSPropertyOp16
 70
     1
102
RTVSPropertyOp17
 70
     1
102
RTVSPropertyOp18
 70
     1
102
RTVSPropertyOp19
 70
     1
102
RTVSPropertyOp20
 70
     1
102
RTVSPropertyOp21
 70
     1
102
RTVSPropertyOp22
 70
     1
102
RTVSPropertyOp23
 70
     1
102
RTVSPropertyOp24
 70
     1
102
RTVSPropertyOp25
 70
     1
102
RTVSPropertyOp26
 70
     1
102
RTVSPropertyOp27
 70
     1
102
RTVSPropertyOp28
 70
     1
102
RTVSPropertyOp29
 70
     1
102
RTVSPropertyOp30
 70
     1
102
RTVSPropertyOp31
 70
     1
102
RTVSPropertyOp32
 70
     1
  0
XRECORD
  5
837
102
{ACAD_REACTORS
330
836
102
}
330
836
100
AcDbXrecord
280
     1
102
RTVSPropertyOp0
 70
     1
102
RTVSPropertyOp1
 70
     1
102
RTVSPropertyOp2
 70
     1
102
RTVSPropertyOp3
 70
     1
102
RTVSPropertyOp4
 70
     1
102
RTVSPropertyOp5
 70
     1
102
RTVSPropertyOp6
 70
     1
102
RTVSPropertyOp7
 70
     1
102
RTVSPropertyOp8
 70
     1
102
RTVSPropertyOp9
 70
     1
102
RTVSPropertyOp10
 70
     1
102
RTVSPropertyOp11
 70
     1
102
RTVSPropertyOp12
 70
     1
102
RTVSPropertyOp13
 70
     1
102
RTVSPropertyOp14
 70
     1
102
RTVSPropertyOp15
 70
     1
102
RTVSPropertyOp16
 70
     1
102
RTVSPropertyOp17
 70
     1
102
RTVSPropertyOp18
 70
     1
102
RTVSPropertyOp19
 70
     1
102
RTVSPropertyOp20
 70
     1
102
RTVSPropertyOp21
 70
     1
102
RTVSPropertyOp22
 70
     1
102
RTVSPropertyOp23
 70
     1
102
RTVSPropertyOp24
 70
     1
102
RTVSPropertyOp25
 70
     1
102
RTVSPropertyOp26
 70
     1
102
RTVSPropertyOp27
 70
     1
102
RTVSPropertyOp28
 70
     1
102
RTVSPropertyOp29
 70
     1
102
RTVSPropertyOp30
 70
     1
102
RTVSPropertyOp31
 70
     1
102
RTVSPropertyOp32
 70
     1
  0
XRECORD
  5
835
102
{ACAD_REACTORS
330
834
102
}
330
834
100
AcDbXrecord
280
     1
102
RTVSPropertyOp0
 70
     1
102
RTVSPropertyOp1
 70
     1
102
RTVSPropertyOp2
 70
     1
102
RTVSPropertyOp3
 70
     1
102
RTVSPropertyOp4
 70
     1
102
RTVSPropertyOp5
 70
     1
102
RTVSPropertyOp6
 70
     1
102
RTVSPropertyOp7
 70
     1
102
RTVSPropertyOp8
 70
     1
102
RTVSPropertyOp9
 70
     1
102
RTVSPropertyOp10
 70
     1
102
RTVSPropertyOp11
 70
     1
102
RTVSPropertyOp12
 70
     1
102
RTVSPropertyOp13
 70
     1
102
RTVSPropertyOp14
 70
     1
102
RTVSPropertyOp15
 70
     1
102
RTVSPropertyOp16
 70
     1
102
RTVSPropertyOp17
 70
     1
102
RTVSPropertyOp18
 70
     1
102
RTVSPropertyOp19
 70
     1
102
RTVSPropertyOp20
 70
     1
102
RTVSPropertyOp21
 70
     1
102
RTVSPropertyOp22
 70
     1
102
RTVSPropertyOp23
 70
     1
102
RTVSPropertyOp24
 70
     1
102
RTVSPropertyOp25
 70
     1
102
RTVSPropertyOp26
 70
     1
102
RTVSPropertyOp27
 70
     1
102
RTVSPropertyOp28
 70
     1
102
RTVSPropertyOp29
 70
     1
102
RTVSPropertyOp30
 70
     1
102
RTVSPropertyOp31
 70
     1
102
RTVSPropertyOp32
 70
     1
  0
XRECORD
  5
82F
102
{ACAD_REACTORS
330
82E
102
}
330
82E
100
AcDbXrecord
280
     1
102
RTVSPropertyOp0
 70
     1
102
RTVSPropertyOp1
 70
     1
102
RTVSPropertyOp2
 70
     1
102
RTVSPropertyOp3
 70
     1
102
RTVSPropertyOp4
 70
     1
102
RTVSPropertyOp5
 70
     1
102
RTVSPropertyOp6
 70
     1
102
RTVSPropertyOp7
 70
     1
102
RTVSPropertyOp8
 70
     1
102
RTVSPropertyOp9
 70
     1
102
RTVSPropertyOp10
 70
     1
102
RTVSPropertyOp11
 70
     1
102
RTVSPropertyOp12
 70
     1
102
RTVSPropertyOp13
 70
     1
102
RTVSPropertyOp14
 70
     1
102
RTVSPropertyOp15
 70
     1
102
RTVSPropertyOp16
 70
     1
102
RTVSPropertyOp17
 70
     1
102
RTVSPropertyOp18
 70
     1
102
RTVSPropertyOp19
 70
     1
102
RTVSPropertyOp20
 70
     1
102
RTVSPropertyOp21
 70
     1
102
RTVSPropertyOp22
 70
     1
102
RTVSPropertyOp23
 70
     1
102
RTVSPropertyOp24
 70
     1
102
RTVSPropertyOp25
 70
     1
102
RTVSPropertyOp26
 70
     1
102
RTVSPropertyOp27
 70
     1
102
RTVSPropertyOp28
 70
     1
102
RTVSPropertyOp29
 70
     1
102
RTVSPropertyOp30
 70
     1
102
RTVSPropertyOp31
 70
     1
102
RTVSPropertyOp32
 70
     1
  0
XRECORD
  5
831
102
{ACAD_REACTORS
330
830
102
}
330
830
100
AcDbXrecord
280
     1
102
RTVSPropertyOp0
 70
     1
102
RTVSPropertyOp1
 70
     1
102
RTVSPropertyOp2
 70
     1
102
RTVSPropertyOp3
 70
     1
102
RTVSPropertyOp4
 70
     1
102
RTVSPropertyOp5
 70
     1
102
RTVSPropertyOp6
 70
     1
102
RTVSPropertyOp7
 70
     1
102
RTVSPropertyOp8
 70
     1
102
RTVSPropertyOp9
 70
     1
102
RTVSPropertyOp10
 70
     1
102
RTVSPropertyOp11
 70
     1
102
RTVSPropertyOp12
 70
     1
102
RTVSPropertyOp13
 70
     1
102
RTVSPropertyOp14
 70
     1
102
RTVSPropertyOp15
 70
     1
102
RTVSPropertyOp16
 70
     1
102
RTVSPropertyOp17
 70
     1
102
RTVSPropertyOp18
 70
     1
102
RTVSPropertyOp19
 70
     1
102
RTVSPropertyOp20
 70
     1
102
RTVSPropertyOp21
 70
     1
102
RTVSPropertyOp22
 70
     1
102
RTVSPropertyOp23
 70
     1
102
RTVSPropertyOp24
 70
     1
102
RTVSPropertyOp25
 70
     1
102
RTVSPropertyOp26
 70
     1
102
RTVSPropertyOp27
 70
     1
102
RTVSPropertyOp28
 70
     1
102
RTVSPropertyOp29
 70
     1
102
RTVSPropertyOp30
 70
     1
102
RTVSPropertyOp31
 70
     1
102
RTVSPropertyOp32
 70
     1
  0
XRECORD
  5
827
102
{ACAD_REACTORS
330
826
102
}
330
826
100
AcDbXrecord
280
     1
102
RTVSPropertyOp0
 70
     1
102
RTVSPropertyOp1
 70
     1
102
RTVSPropertyOp2
 70
     1
102
RTVSPropertyOp3
 70
     1
102
RTVSPropertyOp4
 70
     1
102
RTVSPropertyOp5
 70
     1
102
RTVSPropertyOp6
 70
     1
102
RTVSPropertyOp7
 70
     1
102
RTVSPropertyOp8
 70
     1
102
RTVSPropertyOp9
 70
     1
102
RTVSPropertyOp10
 70
     1
102
RTVSPropertyOp11
 70
     1
102
RTVSPropertyOp12
 70
     1
102
RTVSPropertyOp13
 70
     1
102
RTVSPropertyOp14
 70
     1
102
RTVSPropertyOp15
 70
     1
102
RTVSPropertyOp16
 70
     1
102
RTVSPropertyOp17
 70
     1
102
RTVSPropertyOp18
 70
     1
102
RTVSPropertyOp19
 70
     1
102
RTVSPropertyOp20
 70
     1
102
RTVSPropertyOp21
 70
     1
102
RTVSPropertyOp22
 70
     1
102
RTVSPropertyOp23
 70
     1
102
RTVSPropertyOp24
 70
     1
102
RTVSPropertyOp25
 70
     1
102
RTVSPropertyOp26
 70
     1
102
RTVSPropertyOp27
 70
     1
102
RTVSPropertyOp28
 70
     1
102
RTVSPropertyOp29
 70
     1
102
RTVSPropertyOp30
 70
     1
102
RTVSPropertyOp31
 70
     1
102
RTVSPropertyOp32
 70
     1
  0
XRECORD
  5
81B
102
{ACAD_REACTORS
330
81A
102
}
330
81A
100
AcDbXrecord
280
     1
102
RTVSPropertyOp0
 70
     1
102
RTVSPropertyOp1
 70
     1
102
RTVSPropertyOp2
 70
     1
102
RTVSPropertyOp3
 70
     1
102
RTVSPropertyOp4
 70
     1
102
RTVSPropertyOp5
 70
     1
102
RTVSPropertyOp6
 70
     1
102
RTVSPropertyOp7
 70
     1
102
RTVSPropertyOp8
 70
     1
102
RTVSPropertyOp9
 70
     1
102
RTVSPropertyOp10
 70
     1
102
RTVSPropertyOp11
 70
     1
102
RTVSPropertyOp12
 70
     1
102
RTVSPropertyOp13
 70
     1
102
RTVSPropertyOp14
 70
     1
102
RTVSPropertyOp15
 70
     1
102
RTVSPropertyOp16
 70
     1
102
RTVSPropertyOp17
 70
     1
102
RTVSPropertyOp18
 70
     1
102
RTVSPropertyOp19
 70
     1
102
RTVSPropertyOp20
 70
     1
102
RTVSPropertyOp21
 70
     1
102
RTVSPropertyOp22
 70
     1
102
RTVSPropertyOp23
 70
     1
102
RTVSPropertyOp24
 70
     1
102
RTVSPropertyOp25
 70
     1
102
RTVSPropertyOp26
 70
     1
102
RTVSPropertyOp27
 70
     1
102
RTVSPropertyOp28
 70
     1
102
RTVSPropertyOp29
 70
     1
102
RTVSPropertyOp30
 70
     1
102
RTVSPropertyOp31
 70
     1
102
RTVSPropertyOp32
 70
     1
  0
XRECORD
  5
833
102
{ACAD_REACTORS
330
832
102
}
330
832
100
AcDbXrecord
280
     1
102
RTVSPropertyOp0
 70
     1
102
RTVSPropertyOp1
 70
     1
102
RTVSPropertyOp2
 70
     1
102
RTVSPropertyOp3
 70
     1
102
RTVSPropertyOp4
 70
     1
102
RTVSPropertyOp5
 70
     1
102
RTVSPropertyOp6
 70
     1
102
RTVSPropertyOp7
 70
     1
102
RTVSPropertyOp8
 70
     1
102
RTVSPropertyOp9
 70
     1
102
RTVSPropertyOp10
 70
     1
102
RTVSPropertyOp11
 70
     1
102
RTVSPropertyOp12
 70
     1
102
RTVSPropertyOp13
 70
     1
102
RTVSPropertyOp14
 70
     1
102
RTVSPropertyOp15
 70
     1
102
RTVSPropertyOp16
 70
     1
102
RTVSPropertyOp17
 70
     1
102
RTVSPropertyOp18
 70
     1
102
RTVSPropertyOp19
 70
     1
102
RTVSPropertyOp20
 70
     1
102
RTVSPropertyOp21
 70
     1
102
RTVSPropertyOp22
 70
     1
102
RTVSPropertyOp23
 70
     1
102
RTVSPropertyOp24
 70
     1
102
RTVSPropertyOp25
 70
     1
102
RTVSPropertyOp26
 70
     1
102
RTVSPropertyOp27
 70
     1
102
RTVSPropertyOp28
 70
     1
102
RTVSPropertyOp29
 70
     1
102
RTVSPropertyOp30
 70
     1
102
RTVSPropertyOp31
 70
     1
102
RTVSPropertyOp32
 70
     1
  0
ENDSEC
  0
EOF
