  0
SECTION
  2
HEADER
  9
$ACADVER
  1
AC1015
  9
$ACADMAINTVER
 70
    20
  9
$DWGCODEPAGE
  3
ANSI_932
  9
$INSBASE
 10
0.0
 20
0.0
 30
0.0
  9
$EXTMIN
 10
-733.1311630224194
 20
-237.7849867503893
 30
0.0
  9
$EXTMAX
 10
132.3469705217699
 20
150.7293563475698
 30
0.0
  9
$LIMMIN
 10
-233.474999
 20
-131.992165
  9
$LIMMAX
 10
171.549996
 20
145.031426
  9
$ORTHOMODE
 70
     1
  9
$REGENMODE
 70
     1
  9
$FILLMODE
 70
     1
  9
$QTEXTMODE
 70
     0
  9
$MIRRTEXT
 70
     0
  9
$LTSCALE
 40
6.750383
  9
$ATTMODE
 70
     1
  9
$TEXTSIZE
 40
3.2
  9
$TRACEWID
 40
0.05
  9
$TEXTSTYLE
  7
高3.2
  9
$CLAYER
  8
0
  9
$CELTYPE
  6
ByLayer
  9
$CECOLOR
 62
   256
  9
$CELTSCALE
 40
1.0
  9
$DISPSILH
 70
     0
  9
$DIMSCALE
 40
1.0
  9
$DIMASZ
 40
2.5
  9
$DIMEXO
 40
0.25
  9
$DIMDLI
 40
0.2
  9
$DIMRND
 40
0.0
  9
$DIMDLE
 40
0.0
  9
$DIMEXE
 40
1.25
  9
$DIMTP
 40
0.0
  9
$DIMTM
 40
0.0
  9
$DIMTXT
 40
3.0
  9
$DIMCEN
 40
0.0
  9
$DIMTSZ
 40
0.0
  9
$DIMTOL
 70
     0
  9
$DIMLIM
 70
     0
  9
$DIMTIH
 70
     0
  9
$DIMTOH
 70
     0
  9
$DIMSE1
 70
     0
  9
$DIMSE2
 70
     0
  9
$DIMTAD
 70
     3
  9
$DIMZIN
 70
     8
  9
$DIMBLK
  1
Open30
  9
$DIMASO
 70
     1
  9
$DIMSHO
 70
     1
  9
$DIMPOST
  1

  9
$DIMAPOST
  1

  9
$DIMALT
 70
     0
  9
$DIMALTD
 70
     3
  9
$DIMALTF
 40
0.03937007874016
  9
$DIMLFAC
 40
1.0
  9
$DIMTOFL
 70
     1
  9
$DIMTVP
 40
0.0
  9
$DIMTIX
 70
     0
  9
$DIMSOXD
 70
     0
  9
$DIMSAH
 70
     0
  9
$DIMBLK1
  1

  9
$DIMBLK2
  1

  9
$DIMSTYLE
  2
FREE
  9
$DIMCLRD
 70
     0
  9
$DIMCLRE
 70
     0
  9
$DIMCLRT
 70
     4
  9
$DIMTFAC
 40
1.0
  9
$DIMGAP
 40
0.625
  9
$DIMJUST
 70
     0
  9
$DIMSD1
 70
     0
  9
$DIMSD2
 70
     0
  9
$DIMTOLJ
 70
     0
  9
$DIMTZIN
 70
     8
  9
$DIMALTZ
 70
     0
  9
$DIMALTTZ
 70
     0
  9
$DIMUPT
 70
     1
  9
$DIMDEC
 70
     2
  9
$DIMTDEC
 70
     2
  9
$DIMALTU
 70
     2
  9
$DIMALTTD
 70
     3
  9
$DIMTXSTY
  7
STANDARD
  9
$DIMAUNIT
 70
     0
  9
$DIMADEC
 70
     1
  9
$DIMALTRND
 40
0.0
  9
$DIMAZIN
 70
     2
  9
$DIMDSEP
 70
    46
  9
$DIMATFIT
 70
     0
  9
$DIMFRAC
 70
     0
  9
$DIMLDRBLK
  1
Open30
  9
$DIMLUNIT
 70
     2
  9
$DIMLWD
 70
    -2
  9
$DIMLWE
 70
    -2
  9
$DIMTMOVE
 70
     0
  9
$LUNITS
 70
     2
  9
$LUPREC
 70
     4
  9
$SKETCHINC
 40
0.1
  9
$FILLETRAD
 40
0.0
  9
$AUNITS
 70
     0
  9
$AUPREC
 70
     0
  9
$MENU
  1
.
  9
$ELEVATION
 40
0.0
  9
$PELEVATION
 40
0.0
  9
$THICKNESS
 40
0.0
  9
$LIMCHECK
 70
     0
  9
$CHAMFERA
 40
0.0
  9
$CHAMFERB
 40
0.0
  9
$CHAMFERC
 40
0.0
  9
$CHAMFERD
 40
0.0
  9
$SKPOLY
 70
     0
  9
$TDCREATE
 40
2456321.712170104
  9
$TDUCREATE
 40
2456321.337170104
  9
$TDUPDATE
 40
2459793.735568785
  9
$TDUUPDATE
 40
2459793.360568785
  9
$TDINDWG
 40
0.0660593287
  9
$TDUSRTIMER
 40
0.0660591898
  9
$USRTIMER
 70
     1
  9
$ANGBASE
 50
0.0
  9
$ANGDIR
 70
     0
  9
$PDMODE
 70
     0
  9
$PDSIZE
 40
0.0
  9
$PLINEWID
 40
0.0
  9
$SPLFRAME
 70
     0
  9
$SPLINETYPE
 70
     6
  9
$SPLINESEGS
 70
     8
  9
$HANDSEED
  5
1535
  9
$SURFTAB1
 70
     6
  9
$SURFTAB2
 70
     6
  9
$SURFTYPE
 70
     6
  9
$SURFU
 70
     6
  9
$SURFV
 70
     6
  9
$UCSBASE
  2

  9
$UCSNAME
  2

  9
$UCSORG
 10
0.0
 20
0.0
 30
0.0
  9
$UCSXDIR
 10
1.0
 20
0.0
 30
0.0
  9
$UCSYDIR
 10
0.0
 20
1.0
 30
0.0
  9
$UCSORTHOREF
  2

  9
$UCSORTHOVIEW
 70
     0
  9
$UCSORGTOP
 10
0.0
 20
0.0
 30
0.0
  9
$UCSORGBOTTOM
 10
0.0
 20
0.0
 30
0.0
  9
$UCSORGLEFT
 10
0.0
 20
0.0
 30
0.0
  9
$UCSORGRIGHT
 10
0.0
 20
0.0
 30
0.0
  9
$UCSORGFRONT
 10
0.0
 20
0.0
 30
0.0
  9
$UCSORGBACK
 10
0.0
 20
0.0
 30
0.0
  9
$PUCSBASE
  2

  9
$PUCSNAME
  2

  9
$PUCSORG
 10
0.0
 20
0.0
 30
0.0
  9
$PUCSXDIR
 10
1.0
 20
0.0
 30
0.0
  9
$PUCSYDIR
 10
0.0
 20
1.0
 30
0.0
  9
$PUCSORTHOREF
  2

  9
$PUCSORTHOVIEW
 70
     0
  9
$PUCSORGTOP
 10
0.0
 20
0.0
 30
0.0
  9
$PUCSORGBOTTOM
 10
0.0
 20
0.0
 30
0.0
  9
$PUCSORGLEFT
 10
0.0
 20
0.0
 30
0.0
  9
$PUCSORGRIGHT
 10
0.0
 20
0.0
 30
0.0
  9
$PUCSORGFRONT
 10
0.0
 20
0.0
 30
0.0
  9
$PUCSORGBACK
 10
0.0
 20
0.0
 30
0.0
  9
$USERI1
 70
     0
  9
$USERI2
 70
     0
  9
$USERI3
 70
     0
  9
$USERI4
 70
     0
  9
$USERI5
 70
     0
  9
$USERR1
 40
0.0
  9
$USERR2
 40
0.0
  9
$USERR3
 40
0.0
  9
$USERR4
 40
0.0
  9
$USERR5
 40
0.0
  9
$WORLDVIEW
 70
     1
  9
$SHADEDGE
 70
     3
  9
$SHADEDIF
 70
    70
  9
$TILEMODE
 70
     1
  9
$MAXACTVP
 70
    64
  9
$PINSBASE
 10
0.0
 20
0.0
 30
0.0
  9
$PLIMCHECK
 70
     0
  9
$PEXTMIN
 10
1.000000000000000E+20
 20
1.000000000000000E+20
 30
1.000000000000000E+20
  9
$PEXTMAX
 10
-1.000000000000000E+20
 20
-1.000000000000000E+20
 30
-1.000000000000000E+20
  9
$PLIMMIN
 10
0.0
 20
0.0
  9
$PLIMMAX
 10
12.0
 20
9.0
  9
$UNITMODE
 70
     0
  9
$VISRETAIN
 70
     1
  9
$PLINEGEN
 70
     0
  9
$PSLTSCALE
 70
     1
  9
$TREEDEPTH
 70
  3020
  9
$CMLSTYLE
  2
Standard
  9
$CMLJUST
 70
     0
  9
$CMLSCALE
 40
1.0
  9
$PROXYGRAPHICS
 70
     1
  9
$MEASUREMENT
 70
     0
  9
$CELWEIGHT
370
    -1
  9
$ENDCAPS
280
     0
  9
$JOINSTYLE
280
     0
  9
$LWDISPLAY
290
     0
  9
$INSUNITS
 70
     0
  9
$HYPERLINKBASE
  1

  9
$STYLESHEET
  1

  9
$XEDIT
290
     1
  9
$CEPSNTYPE
380
     0
  9
$PSTYLEMODE
290
     1
  9
$FINGERPRINTGUID
  2
{041D9D8A-A252-4080-A9D3-F744BB55F3B2}
  9
$VERSIONGUID
  2
{88931457-6704-4C68-AC69-9B2489A17644}
  9
$EXTNAMES
290
     1
  9
$PSVPSCALE
 40
0.0
  9
$OLESTARTUP
290
     0
  0
ENDSEC
  0
SECTION
  2
CLASSES
  0
CLASS
  1
ACDBDICTIONARYWDFLT
  2
AcDbDictionaryWithDefault
  3
ObjectDBX Classes
 90
        0
280
     0
281
     0
  0
CLASS
  1
MATERIAL
  2
AcDbMaterial
  3
ObjectDBX Classes
 90
     1153
280
     0
281
     0
  0
CLASS
  1
VISUALSTYLE
  2
AcDbVisualStyle
  3
ObjectDBX Classes
 90
     4095
280
     0
281
     0
  0
CLASS
  1
SCALE
  2
AcDbScale
  3
ObjectDBX Classes
 90
     1153
280
     0
281
     0
  0
CLASS
  1
TABLESTYLE
  2
AcDbTableStyle
  3
ObjectDBX Classes
 90
     4095
280
     0
281
     0
  0
CLASS
  1
MLEADERSTYLE
  2
AcDbMLeaderStyle
  3
ACDB_MLEADERSTYLE_CLASS
 90
     4095
280
     0
281
     0
  0
CLASS
  1
SORTENTSTABLE
  2
AcDbSortentsTable
  3
ObjectDBX Classes
 90
        0
280
     0
281
     0
  0
CLASS
  1
DICTIONARYVAR
  2
AcDbDictionaryVar
  3
ObjectDBX Classes
 90
        0
280
     0
281
     0
  0
CLASS
  1
CELLSTYLEMAP
  2
AcDbCellStyleMap
  3
ObjectDBX Classes
 90
     1152
280
     0
281
     0
  0
CLASS
  1
ACDBPLACEHOLDER
  2
AcDbPlaceHolder
  3
ObjectDBX Classes
 90
        0
280
     0
281
     0
  0
CLASS
  1
LAYOUT
  2
AcDbLayout
  3
ObjectDBX Classes
 90
        0
280
     0
281
     0
  0
CLASS
  1
AEC_REFEDIT_STATUS_TRACKER
  2
AecDbRefEditStatusTracker
  3
AecArchBase60|Product Desc: Autodesk Architectural Desktop 2007 |Company: Autodesk,Inc. |WEB Address: www.autodesk.com
 90
      129
280
     0
281
     0
  0
CLASS
  1
NPOCOLLECTION
  2
AcDbImpNonPersistentObjectsCollection
  3
ObjectDBX Classes
 90
     1153
280
     0
281
     0
  0
ENDSEC
  0
SECTION
  2
TABLES
  0
TABLE
  2
VPORT
  5
8
330
0
100
AcDbSymbolTable
 70
     1
  0
VPORT
  5
8C
330
8
100
AcDbSymbolTableRecord
100
AcDbViewportTableRecord
  2
*Active
 70
     0
 10
0.0
 20
0.0
 11
1.0
 21
1.0
 12
-471.6259470580422
 22
9.919435902889858
 13
0.0
 23
0.0
 14
1.0
 24
1.0
 15
0.0
 25
0.0
 16
0.0
 26
0.0
 36
1.0
 17
0.0
 27
0.0
 37
0.0
 40
592.4811371051203
 41
1.140902872777017
 42
50.0
 43
0.0
 44
0.0
 50
0.0
 51
0.0
 71
     0
 72
   100
 73
     1
 74
     1
 75
     0
 76
     0
 77
     0
 78
     0
281
     0
 65
     1
110
0.0
120
0.0
130
0.0
111
1.0
121
0.0
131
0.0
112
0.0
122
1.0
132
0.0
 79
     0
146
0.0
  0
ENDTAB
  0
TABLE
  2
LTYPE
  5
5
330
0
100
AcDbSymbolTable
 70
     6
  0
LTYPE
  5
5A
330
5
100
AcDbSymbolTableRecord
100
AcDbLinetypeTableRecord
  2
ByBlock
 70
     0
  3

 72
    65
 73
     0
 40
0.0
  0
LTYPE
  5
5B
330
5
100
AcDbSymbolTableRecord
100
AcDbLinetypeTableRecord
  2
ByLayer
 70
     0
  3

 72
    65
 73
     0
 40
0.0
  0
LTYPE
  5
5C
330
5
100
AcDbSymbolTableRecord
100
AcDbLinetypeTableRecord
  2
CONTINUOUS
 70
     0
  3
Solid-line
 72
    65
 73
     0
 40
0.0
  0
LTYPE
  5
78
330
5
100
AcDbSymbolTableRecord
100
AcDbLinetypeTableRecord
  2
DASHED
 70
     0
  3
DASHED
 72
    65
 73
     2
 40
0.75
 49
0.5
 74
     0
 49
-0.25
 74
     0
  0
LTYPE
  5
81
330
5
100
AcDbSymbolTableRecord
100
AcDbLinetypeTableRecord
  2
HIDDEN
 70
     0
  3
HIDDEN
 72
    65
 73
     2
 40
0.375
 49
0.25
 74
     0
 49
-0.125
 74
     0
  0
LTYPE
  5
84
330
5
100
AcDbSymbolTableRecord
100
AcDbLinetypeTableRecord
  2
PHANTOM
 70
     0
  3
PHANTOM
 72
    65
 73
     6
 40
2.5
 49
1.25
 74
     0
 49
-0.25
 74
     0
 49
0.25
 74
     0
 49
-0.25
 74
     0
 49
0.25
 74
     0
 49
-0.25
 74
     0
  0
ENDTAB
  0
TABLE
  2
LAYER
  5
2
102
{ACAD_XDICTIONARY
360
4AD
102
}
330
0
100
AcDbSymbolTable
 70
     2
  0
LAYER
  5
54
102
{ACAD_XDICTIONARY
360
B38
102
}
330
2
100
AcDbSymbolTableRecord
100
AcDbLayerTableRecord
  2
0
 70
     0
 62
     7
  6
CONTINUOUS
370
    -3
390
F
  0
LAYER
  5
6A2
330
2
100
AcDbSymbolTableRecord
100
AcDbLayerTableRecord
  2
Defpoints
 70
     0
 62
     7
  6
CONTINUOUS
290
     0
370
    -3
390
F
  0
ENDTAB
  0
TABLE
  2
STYLE
  5
3
330
0
100
AcDbSymbolTable
 70
     6
  0
STYLE
  5
55
330
3
100
AcDbSymbolTableRecord
100
AcDbTextStyleTableRecord
  2
STANDARD
 70
     0
 40
0.0
 41
1.0
 50
0.0
 71
     0
 42
0.2
  3
TXT
  4
BIGFONT
  0
STYLE
  5
4A2
330
3
100
AcDbSymbolTableRecord
100
AcDbTextStyleTableRecord
  2
高3.2
 70
     0
 40
3.2
 41
1.0
 50
0.0
 71
     0
 42
3.2
  3
txt.shx
  4
bigfont.shx
  0
STYLE
  5
4A3
330
3
100
AcDbSymbolTableRecord
100
AcDbTextStyleTableRecord
  2
高6.3
 70
     0
 40
6.299999999999998
 41
1.0
 50
0.0
 71
     0
 42
6.299999999999998
  3
txt.shx
  4
bigfont.shx
  0
STYLE
  5
4A4
330
3
100
AcDbSymbolTableRecord
100
AcDbTextStyleTableRecord
  2
高2.5
 70
     0
 40
2.5
 41
1.0
 50
0.0
 71
     0
 42
0.2
  3
txt.shx
  4
bigfont.shx
  0
STYLE
  5
4A5
330
3
100
AcDbSymbolTableRecord
100
AcDbTextStyleTableRecord
  2
高4.5
 70
     0
 40
4.5
 41
1.0
 50
0.0
 71
     0
 42
6.299999999999998
  3
txt.shx
  4
bigfont.shx
  0
STYLE
  5
4A6
330
3
100
AcDbSymbolTableRecord
100
AcDbTextStyleTableRecord
  2
高2
 70
     0
 40
2.0
 41
1.0
 50
0.0
 71
     0
 42
6.299999999999998
  3
txt.shx
  4
bigfont.shx
  0
ENDTAB
  0
TABLE
  2
VIEW
  5
6
330
0
100
AcDbSymbolTable
 70
     0
  0
ENDTAB
  0
TABLE
  2
UCS
  5
7
330
0
100
AcDbSymbolTable
 70
     0
  0
ENDTAB
  0
TABLE
  2
APPID
  5
9
330
0
100
AcDbSymbolTable
 70
    10
  0
APPID
  5
56
330
9
100
AcDbSymbolTableRecord
100
AcDbRegAppTableRecord
  2
ACAD
 70
     0
  0
APPID
  5
5D
330
9
100
AcDbSymbolTableRecord
100
AcDbRegAppTableRecord
  2
AcadAnnotative
 70
     0
  0
APPID
  5
4AC
330
9
100
AcDbSymbolTableRecord
100
AcDbRegAppTableRecord
  2
ACAD_DSTYLE_DIMJOGGED_JOGANGLE_SYMBOL
 70
     0
  0
APPID
  5
82D
330
9
100
AcDbSymbolTableRecord
100
AcDbRegAppTableRecord
  2
ACAD_DSTYLE_DIMJAG
 70
     0
  0
APPID
  5
82E
330
9
100
AcDbSymbolTableRecord
100
AcDbRegAppTableRecord
  2
ACAD_DSTYLE_DIMBREAK
 70
     0
  0
APPID
  5
82F
330
9
100
AcDbSymbolTableRecord
100
AcDbRegAppTableRecord
  2
ACAD_DSTYLE_DIMTALN
 70
     0
  0
APPID
  5
988
330
9
100
AcDbSymbolTableRecord
100
AcDbRegAppTableRecord
  2
ACAD_EXEMPT_FROM_CAD_STANDARDS
 70
     0
  0
APPID
  5
B7E
330
9
100
AcDbSymbolTableRecord
100
AcDbRegAppTableRecord
  2
ACAD_MLEADERVER
 70
     0
  0
APPID
  5
B83
330
9
100
AcDbSymbolTableRecord
100
AcDbRegAppTableRecord
  2
ACAD_DSTYLE_DIMARC_LENGTH_SYMBOL
 70
     0
  0
APPID
  5
B84
330
9
100
AcDbSymbolTableRecord
100
AcDbRegAppTableRecord
  2
ACAD_DSTYLE_DIMEXT_LENGTH
 70
     0
  0
ENDTAB
  0
TABLE
  2
DIMSTYLE
  5
A
330
0
100
AcDbSymbolTable
 70
     4
100
AcDbDimStyleTable
 71
     1
340
82C
  0
DIMSTYLE
105
57
330
A
100
AcDbSymbolTableRecord
100
AcDbDimStyleTableRecord
  2
Standard
 70
     0
340
55
  0
DIMSTYLE
105
82C
330
A
100
AcDbSymbolTableRecord
100
AcDbDimStyleTableRecord
  2
FREE
 70
     0
 41
2.5
 42
0.25
 43
0.2
 44
1.25
 73
     0
 74
     0
 77
     3
 78
     8
 79
     2
140
3.0
141
0.0
143
0.03937007874016
147
0.625
171
     3
172
     1
178
     4
179
     1
271
     2
272
     2
274
     3
283
     0
284
     8
288
     1
289
     0
340
55
341
3C7
342
3C7
1001
ACAD_DSTYLE_DIMBREAK
1070
   391
1040
3.75
1001
ACAD_DSTYLE_DIMJAG
1070
   388
1040
1.5
1001
ACAD_DSTYLE_DIMTALN
1070
   392
1070
     0
1001
ACAD_DSTYLE_DIMARC_LENGTH_SYMBOL
1070
   379
1070
     2
1001
ACAD_DSTYLE_DIMEXT_LENGTH
1070
   378
1040
1.25
1001
ACAD_DSTYLE_DIMJOGGED_JOGANGLE_SYMBOL
1070
   384
1040
1.570796326794896
  0
DIMSTYLE
105
C38
102
{ACAD_REACTORS
330
D0B
330
D0A
330
D09
330
D08
330
D07
330
D06
330
D05
330
D04
102
}
330
A
100
AcDbSymbolTableRecord
100
AcDbDimStyleTableRecord
  2
1：1
 70
     0
 41
2.5
 42
0.25
 43
0.2
 44
1.25
 73
     0
 74
     0
 77
     3
 78
     8
 79
     2
140
3.0
141
0.0
143
0.03937007874016
147
0.625
171
     3
172
     1
178
     4
179
     1
271
     2
272
     2
274
     3
283
     0
284
     8
288
     1
289
     0
340
55
341
3C7
342
3C7
1001
ACAD_DSTYLE_DIMARC_LENGTH_SYMBOL
1070
   379
1070
     2
1001
ACAD_DSTYLE_DIMEXT_LENGTH
1070
   378
1040
1.25
1001
ACAD_DSTYLE_DIMJOGGED_JOGANGLE_SYMBOL
1070
   384
1040
1.570796326794896
  0
ENDTAB
  0
TABLE
  2
BLOCK_RECORD
  5
1
330
0
100
AcDbSymbolTable
 70
    27
  0
BLOCK_RECORD
  5
6B
102
{ACAD_XDICTIONARY
360
A92
102
}
330
1
100
AcDbSymbolTableRecord
100
AcDbBlockTableRecord
  2
*Model_Space
340
6E
  0
BLOCK_RECORD
  5
67
330
1
100
AcDbSymbolTableRecord
100
AcDbBlockTableRecord
  2
*Paper_Space
340
6A
  0
BLOCK_RECORD
  5
3C7
330
1
100
AcDbSymbolTableRecord
100
AcDbBlockTableRecord
  2
_Open30
340
0
102
{BLKREFS
331
B92
331
B93
331
B9D
331
B9E
331
BA6
331
BA7
331
BAF
331
BB0
331
BB8
331
BB9
331
BC1
331
BC2
331
BCA
331
BCB
331
BD1
331
BD2
331
BDC
331
BDD
331
BE8
331
BE9
331
BF4
331
BF5
331
C02
331
C03
331
C10
331
C11
331
C1A
331
C1B
331
C25
331
C26
331
C31
331
C32
331
124C
331
124D
331
1255
331
1256
331
125E
331
125F
331
1269
331
126A
331
1274
331
1275
331
127B
331
127C
331
1283
331
1284
331
128C
331
128D
102
}
  0
BLOCK_RECORD
  5
6A3
330
1
100
AcDbSymbolTableRecord
100
AcDbBlockTableRecord
  2
*D1
340
0
  0
BLOCK_RECORD
  5
6AE
330
1
100
AcDbSymbolTableRecord
100
AcDbBlockTableRecord
  2
*D2
340
0
  0
BLOCK_RECORD
  5
6BB
330
1
100
AcDbSymbolTableRecord
100
AcDbBlockTableRecord
  2
*D3
340
0
  0
BLOCK_RECORD
  5
6C8
330
1
100
AcDbSymbolTableRecord
100
AcDbBlockTableRecord
  2
*D4
340
0
  0
BLOCK_RECORD
  5
6D5
330
1
100
AcDbSymbolTableRecord
100
AcDbBlockTableRecord
  2
*D5
340
0
  0
BLOCK_RECORD
  5
6E2
330
1
100
AcDbSymbolTableRecord
100
AcDbBlockTableRecord
  2
*D6
340
0
  0
BLOCK_RECORD
  5
6EF
330
1
100
AcDbSymbolTableRecord
100
AcDbBlockTableRecord
  2
*D7
340
0
  0
BLOCK_RECORD
  5
6FC
330
1
100
AcDbSymbolTableRecord
100
AcDbBlockTableRecord
  2
*D8
340
0
  0
BLOCK_RECORD
  5
BD7
330
1
100
AcDbSymbolTableRecord
100
AcDbBlockTableRecord
  2
*D9
340
0
  0
BLOCK_RECORD
  5
BE3
330
1
100
AcDbSymbolTableRecord
100
AcDbBlockTableRecord
  2
*D10
340
0
  0
BLOCK_RECORD
  5
BEF
330
1
100
AcDbSymbolTableRecord
100
AcDbBlockTableRecord
  2
*D11
340
0
  0
BLOCK_RECORD
  5
BFB
330
1
100
AcDbSymbolTableRecord
100
AcDbBlockTableRecord
  2
*D12
340
0
  0
BLOCK_RECORD
  5
C09
330
1
100
AcDbSymbolTableRecord
100
AcDbBlockTableRecord
  2
*D13
340
0
  0
BLOCK_RECORD
  5
C17
330
1
100
AcDbSymbolTableRecord
100
AcDbBlockTableRecord
  2
*D14
340
0
  0
BLOCK_RECORD
  5
C20
330
1
100
AcDbSymbolTableRecord
100
AcDbBlockTableRecord
  2
*D15
340
0
  0
BLOCK_RECORD
  5
C2C
330
1
100
AcDbSymbolTableRecord
100
AcDbBlockTableRecord
  2
*D16
340
0
  0
BLOCK_RECORD
  5
11E8
330
1
100
AcDbSymbolTableRecord
100
AcDbBlockTableRecord
  2
*D18
340
0
  0
BLOCK_RECORD
  5
11F4
330
1
100
AcDbSymbolTableRecord
100
AcDbBlockTableRecord
  2
*D19
340
0
  0
BLOCK_RECORD
  5
1200
330
1
100
AcDbSymbolTableRecord
100
AcDbBlockTableRecord
  2
*D20
340
0
  0
BLOCK_RECORD
  5
120C
330
1
100
AcDbSymbolTableRecord
100
AcDbBlockTableRecord
  2
*D21
340
0
  0
BLOCK_RECORD
  5
121A
330
1
100
AcDbSymbolTableRecord
100
AcDbBlockTableRecord
  2
*D22
340
0
  0
BLOCK_RECORD
  5
1228
330
1
100
AcDbSymbolTableRecord
100
AcDbBlockTableRecord
  2
*D23
340
0
  0
BLOCK_RECORD
  5
1231
330
1
100
AcDbSymbolTableRecord
100
AcDbBlockTableRecord
  2
*D24
340
0
  0
BLOCK_RECORD
  5
123D
330
1
100
AcDbSymbolTableRecord
100
AcDbBlockTableRecord
  2
*D25
340
0
  0
ENDTAB
  0
ENDSEC
  0
SECTION
  2
BLOCKS
  0
BLOCK
  5
6C
330
6B
100
AcDbEntity
  8
0
100
AcDbBlockBegin
  2
*Model_Space
 70
     0
 10
0.0
 20
0.0
 30
0.0
  3
*Model_Space
  1

  0
ENDBLK
  5
6D
330
6B
100
AcDbEntity
  8
0
100
AcDbBlockEnd
  0
BLOCK
  5
68
330
67
100
AcDbEntity
 67
     1
  8
0
100
AcDbBlockBegin
  2
*Paper_Space
 70
     0
 10
0.0
 20
0.0
 30
0.0
  3
*Paper_Space
  1

  0
ENDBLK
  5
69
330
67
100
AcDbEntity
 67
     1
  8
0
100
AcDbBlockEnd
  0
BLOCK
  5
3C8
330
3C7
100
AcDbEntity
  8
0
100
AcDbBlockBegin
  2
_Open30
 70
     0
 10
0.0
 20
0.0
 30
0.0
  3
_Open30
  1

  0
LINE
  5
3C9
330
3C7
100
AcDbEntity
  8
0
  6
ByBlock
 62
     0
370
    -2
100
AcDbLine
 10
-1.0
 20
0.267949
 30
0.0
 11
0.0
 21
0.0
 31
0.0
  0
LINE
  5
3CA
330
3C7
100
AcDbEntity
  8
0
  6
ByBlock
 62
     0
370
    -2
100
AcDbLine
 10
0.0
 20
0.0
 30
0.0
 11
-1.0
 21
-0.267949
 31
0.0
  0
LINE
  5
3CB
330
3C7
100
AcDbEntity
  8
0
  6
ByBlock
 62
     0
370
    -2
100
AcDbLine
 10
0.0
 20
0.0
 30
0.0
 11
-1.0
 21
0.0
 31
0.0
  0
ENDBLK
  5
3CC
330
3C7
100
AcDbEntity
  8
0
100
AcDbBlockEnd
  0
BLOCK
  5
6A4
330
6A3
100
AcDbEntity
  8
0
100
AcDbBlockBegin
  2
*D1
 70
     1
 10
0.0
 20
0.0
 30
0.0
  3
*D1
  1

  0
LINE
  5
BD0
330
6A3
100
AcDbEntity
  8
0
 62
     0
370
    -2
100
AcDbLine
 10
-643.0884539507301
 20
60.55223167974332
 30
0.0
 11
-655.293083094109
 21
82.3707333047775
 31
0.0
  0
INSERT
  5
BD1
330
6A3
100
AcDbEntity
  8
0
 62
     0
370
    -2
100
AcDbBlockReference
  2
_Open30
 10
-641.8679910224193
 20
58.37038149226038
 30
0.0
 41
2.5
 42
2.5
 43
2.5
 50
299.2213677935005
  0
INSERT
  5
BD2
330
6A3
100
AcDbEntity
  8
0
 62
     0
370
    -2
100
AcDbBlockReference
  2
_Open30
 10
-656.5135460224195
 20
84.55258349226051
 30
0.0
 41
2.5
 42
2.5
 43
2.5
 50
119.2213677935005
  0
MTEXT
  5
BD3
102
{ACAD_XDICTIONARY
360
152F
102
}
330
6A3
100
AcDbEntity
  8
0
 62
     4
100
AcDbMText
 10
-647.3361958630588
 20
72.49887598132454
 30
0.0
 40
3.0
 41
0.0
 71
     5
 72
     1
  1
\U+220530
 11
0.488185171324277
 21
-0.8727400749931712
 31
0.0
 73
     1
 44
1.0
1001
ACAD
1000
MTEXTBEGIN
1070
    73
1070
     1
1070
    44
1040
1.0
1070
    74
1070
     0
1000
MTEXTEND
  0
POINT
  5
BD4
330
6A3
100
AcDbEntity
  8
Defpoints
 62
     0
100
AcDbPoint
 10
-656.5135460224195
 20
84.55258349226051
 30
0.0
  0
POINT
  5
BD5
330
6A3
100
AcDbEntity
  8
Defpoints
 62
     0
100
AcDbPoint
 10
-641.8679910224193
 20
58.37038149226038
 30
0.0
  0
ENDBLK
  5
6A5
330
6A3
100
AcDbEntity
  8
0
100
AcDbBlockEnd
  0
BLOCK
  5
6AF
330
6AE
100
AcDbEntity
  8
0
100
AcDbBlockBegin
  2
*D2
 70
     1
 10
0.0
 20
0.0
 30
0.0
  3
*D2
  1

  0
LINE
  5
BC7
330
6AE
100
AcDbEntity
  8
0
 62
     0
370
    -2
100
AcDbLine
 10
-649.4407690224193
 20
46.46148249226043
 30
0.0
 11
-688.5872510224193
 21
46.46148249226044
 31
0.0
  0
LINE
  5
BC8
330
6AE
100
AcDbEntity
  8
0
 62
     0
370
    -2
100
AcDbLine
 10
-641.3176860224192
 20
101.1486184922604
 30
0.0
 11
-688.5872510224193
 21
101.1486184922604
 31
0.0
  0
LINE
  5
BC9
330
6AE
100
AcDbEntity
  8
0
 62
     0
370
    -2
100
AcDbLine
 10
-687.3372510224193
 20
48.96148249226044
 30
0.0
 11
-687.3372510224193
 21
98.64861849226041
 31
0.0
  0
INSERT
  5
BCA
330
6AE
100
AcDbEntity
  8
0
 62
     0
370
    -2
100
AcDbBlockReference
  2
_Open30
 10
-687.3372510224193
 20
46.46148249226043
 30
0.0
 41
2.5
 42
2.5
 43
2.5
 50
270.0
  0
INSERT
  5
BCB
330
6AE
100
AcDbEntity
  8
0
 62
     0
370
    -2
100
AcDbBlockReference
  2
_Open30
 10
-687.3372510224193
 20
101.1486184922604
 30
0.0
 41
2.5
 42
2.5
 43
2.5
 50
90.0
  0
MTEXT
  5
BCC
330
6AE
100
AcDbEntity
  8
0
 62
     4
100
AcDbMText
 10
-689.4622510224193
 20
73.80505049226032
 30
0.0
 40
3.0
 41
0.0
 71
     5
 72
     1
  1
53
 11
0.0000000000000001
 21
1.0
 31
0.0
 73
     1
 44
1.0
1001
ACAD
1000
MTEXTBEGIN
1070
    73
1070
     1
1070
    44
1040
1.0
1070
    74
1070
     0
1000
MTEXTEND
  0
POINT
  5
BCD
330
6AE
100
AcDbEntity
  8
Defpoints
 62
     0
100
AcDbPoint
 10
-649.1907690224193
 20
46.46148249226043
 30
0.0
  0
POINT
  5
BCE
330
6AE
100
AcDbEntity
  8
Defpoints
 62
     0
100
AcDbPoint
 10
-641.0676860224192
 20
101.1486184922604
 30
0.0
  0
POINT
  5
BCF
330
6AE
100
AcDbEntity
  8
Defpoints
 62
     0
100
AcDbPoint
 10
-687.3372510224193
 20
101.1486184922604
 30
0.0
  0
ENDBLK
  5
6B0
330
6AE
100
AcDbEntity
  8
0
100
AcDbBlockEnd
  0
BLOCK
  5
6BC
330
6BB
100
AcDbEntity
  8
0
100
AcDbBlockBegin
  2
*D3
 70
     1
 10
0.0
 20
0.0
 30
0.0
  3
*D3
  1

  0
LINE
  5
BBE
330
6BB
100
AcDbEntity
  8
0
 62
     0
370
    -2
100
AcDbLine
 10
-365.9438830224193
 20
70.76298149226042
 30
0.0
 11
-354.6673450224193
 21
70.76298149226042
 31
0.0
  0
LINE
  5
BBF
330
6BB
100
AcDbEntity
  8
0
 62
     0
370
    -2
100
AcDbLine
 10
-366.9413830224194
 20
80.76298149226042
 30
0.0
 11
-354.6673450224193
 21
80.76298149226042
 31
0.0
  0
LINE
  5
BC0
330
6BB
100
AcDbEntity
  8
0
 62
     0
370
    -2
100
AcDbLine
 10
-355.9173450224193
 20
73.26298149226042
 30
0.0
 11
-355.9173450224193
 21
78.26298149226042
 31
0.0
  0
INSERT
  5
BC1
330
6BB
100
AcDbEntity
  8
0
 62
     0
370
    -2
100
AcDbBlockReference
  2
_Open30
 10
-355.9173450224193
 20
70.76298149226042
 30
0.0
 41
2.5
 42
2.5
 43
2.5
 50
270.0
  0
INSERT
  5
BC2
330
6BB
100
AcDbEntity
  8
0
 62
     0
370
    -2
100
AcDbBlockReference
  2
_Open30
 10
-355.9173450224193
 20
80.76298149226042
 30
0.0
 41
2.5
 42
2.5
 43
2.5
 50
90.0
  0
MTEXT
  5
BC3
330
6BB
100
AcDbEntity
  8
0
 62
     4
100
AcDbMText
 10
-358.0423450224193
 20
75.76298149226037
 30
0.0
 40
3.0
 41
0.0
 71
     5
 72
     1
  1
10
 11
0.0000000000000001
 21
1.0
 31
0.0
 73
     1
 44
1.0
1001
ACAD
1000
MTEXTBEGIN
1070
    73
1070
     1
1070
    44
1040
1.0
1070
    74
1070
     0
1000
MTEXTEND
  0
POINT
  5
BC4
330
6BB
100
AcDbEntity
  8
Defpoints
 62
     0
100
AcDbPoint
 10
-366.1938830224193
 20
70.76298149226042
 30
0.0
  0
POINT
  5
BC5
330
6BB
100
AcDbEntity
  8
Defpoints
 62
     0
100
AcDbPoint
 10
-367.1913830224194
 20
80.76298149226042
 30
0.0
  0
POINT
  5
BC6
330
6BB
100
AcDbEntity
  8
Defpoints
 62
     0
100
AcDbPoint
 10
-355.9173450224193
 20
80.76298149226042
 30
0.0
  0
ENDBLK
  5
6BD
330
6BB
100
AcDbEntity
  8
0
100
AcDbBlockEnd
  0
BLOCK
  5
6C9
330
6C8
100
AcDbEntity
  8
0
100
AcDbBlockBegin
  2
*D4
 70
     1
 10
0.0
 20
0.0
 30
0.0
  3
*D4
  1

  0
LINE
  5
BB5
330
6C8
100
AcDbEntity
  8
0
 62
     0
370
    -2
100
AcDbLine
 10
-367.5963400224193
 20
-8.701107507739568
 30
0.0
 11
-356.6218430224193
 21
-8.701107507739569
 31
0.0
  0
LINE
  5
BB6
330
6C8
100
AcDbEntity
  8
0
 62
     0
370
    -2
100
AcDbLine
 10
-367.5963400224193
 20
15.29889249226043
 30
0.0
 11
-356.6218430224193
 21
15.29889249226043
 31
0.0
  0
LINE
  5
BB7
330
6C8
100
AcDbEntity
  8
0
 62
     0
370
    -2
100
AcDbLine
 10
-357.8718430224193
 20
-6.20110750773957
 30
0.0
 11
-357.8718430224193
 21
12.79889249226043
 31
0.0
  0
INSERT
  5
BB8
330
6C8
100
AcDbEntity
  8
0
 62
     0
370
    -2
100
AcDbBlockReference
  2
_Open30
 10
-357.8718430224193
 20
-8.701107507739569
 30
0.0
 41
2.5
 42
2.5
 43
2.5
 50
270.0
  0
INSERT
  5
BB9
330
6C8
100
AcDbEntity
  8
0
 62
     0
370
    -2
100
AcDbBlockReference
  2
_Open30
 10
-357.8718430224193
 20
15.29889249226043
 30
0.0
 41
2.5
 42
2.5
 43
2.5
 50
90.0
  0
MTEXT
  5
BBA
330
6C8
100
AcDbEntity
  8
0
 62
     4
100
AcDbMText
 10
-359.9968430224193
 20
3.298892492260371
 30
0.0
 40
3.0
 41
0.0
 71
     5
 72
     1
  1
24
 11
0.0000000000000001
 21
1.0
 31
0.0
 73
     1
 44
1.0
1001
ACAD
1000
MTEXTBEGIN
1070
    73
1070
     1
1070
    44
1040
1.0
1070
    74
1070
     0
1000
MTEXTEND
  0
POINT
  5
BBB
330
6C8
100
AcDbEntity
  8
Defpoints
 62
     0
100
AcDbPoint
 10
-367.8463400224193
 20
-8.701107507739568
 30
0.0
  0
POINT
  5
BBC
330
6C8
100
AcDbEntity
  8
Defpoints
 62
     0
100
AcDbPoint
 10
-367.8463400224193
 20
15.29889249226043
 30
0.0
  0
POINT
  5
BBD
330
6C8
100
AcDbEntity
  8
Defpoints
 62
     0
100
AcDbPoint
 10
-357.8718430224193
 20
15.29889249226043
 30
0.0
  0
ENDBLK
  5
6CA
330
6C8
100
AcDbEntity
  8
0
100
AcDbBlockEnd
  0
BLOCK
  5
6D6
330
6D5
100
AcDbEntity
  8
0
100
AcDbBlockBegin
  2
*D5
 70
     1
 10
0.0
 20
0.0
 30
0.0
  3
*D5
  1

  0
LINE
  5
BAC
330
6D5
100
AcDbEntity
  8
0
 62
     0
370
    -2
100
AcDbLine
 10
-674.1636580224193
 20
8.285888492260427
 30
0.0
 11
-674.1636580224193
 21
28.40010349226043
 31
0.0
  0
LINE
  5
BAD
330
6D5
100
AcDbEntity
  8
0
 62
     0
370
    -2
100
AcDbLine
 10
-612.1281060224194
 20
8.016330492260429
 30
0.0
 11
-612.1281060224194
 21
28.40010349226043
 31
0.0
  0
LINE
  5
BAE
330
6D5
100
AcDbEntity
  8
0
 62
     0
370
    -2
100
AcDbLine
 10
-671.6636580224193
 20
27.15010349226043
 30
0.0
 11
-614.6281060224193
 21
27.15010349226043
 31
0.0
  0
INSERT
  5
BAF
330
6D5
100
AcDbEntity
  8
0
 62
     0
370
    -2
100
AcDbBlockReference
  2
_Open30
 10
-674.1636580224193
 20
27.15010349226043
 30
0.0
 41
2.5
 42
2.5
 43
2.5
 50
180.0
  0
INSERT
  5
BB0
330
6D5
100
AcDbEntity
  8
0
 62
     0
370
    -2
100
AcDbBlockReference
  2
_Open30
 10
-612.1281060224194
 20
27.15010349226043
 30
0.0
 41
2.5
 42
2.5
 43
2.5
  0
MTEXT
  5
BB1
330
6D5
100
AcDbEntity
  8
0
 62
     4
100
AcDbMText
 10
-643.1458820224193
 20
29.27510349226043
 30
0.0
 40
3.0
 41
0.0
 71
     5
 72
     1
  1
65
 73
     1
 44
1.0
1001
ACAD
1000
MTEXTBEGIN
1070
    73
1070
     1
1070
    44
1040
1.0
1070
    74
1070
     0
1000
MTEXTEND
  0
POINT
  5
BB2
330
6D5
100
AcDbEntity
  8
Defpoints
 62
     0
100
AcDbPoint
 10
-674.1636580224193
 20
8.035888492260427
 30
0.0
  0
POINT
  5
BB3
330
6D5
100
AcDbEntity
  8
Defpoints
 62
     0
100
AcDbPoint
 10
-612.1281060224194
 20
7.766330492260429
 30
0.0
  0
POINT
  5
BB4
330
6D5
100
AcDbEntity
  8
Defpoints
 62
     0
100
AcDbPoint
 10
-612.1281060224194
 20
27.15010349226043
 30
0.0
  0
ENDBLK
  5
6D7
330
6D5
100
AcDbEntity
  8
0
100
AcDbBlockEnd
  0
BLOCK
  5
6E3
330
6E2
100
AcDbEntity
  8
0
100
AcDbBlockBegin
  2
*D6
 70
     1
 10
0.0
 20
0.0
 30
0.0
  3
*D6
  1

  0
LINE
  5
BA3
330
6E2
100
AcDbEntity
  8
0
 62
     0
370
    -2
100
AcDbLine
 10
-612.1281060224194
 20
8.016330492260429
 30
0.0
 11
-612.1281060224194
 21
28.40010349226043
 31
0.0
  0
LINE
  5
BA4
330
6E2
100
AcDbEntity
  8
0
 62
     0
370
    -2
100
AcDbLine
 10
-366.3463400224193
 20
14.04889249226043
 30
0.0
 11
-366.3463400224193
 21
28.40010349226043
 31
0.0
  0
LINE
  5
BA5
330
6E2
100
AcDbEntity
  8
0
 62
     0
370
    -2
100
AcDbLine
 10
-609.6281060224193
 20
27.15010349226043
 30
0.0
 11
-368.8463400224193
 21
27.15010349226043
 31
0.0
  0
INSERT
  5
BA6
330
6E2
100
AcDbEntity
  8
0
 62
     0
370
    -2
100
AcDbBlockReference
  2
_Open30
 10
-612.1281060224194
 20
27.15010349226043
 30
0.0
 41
2.5
 42
2.5
 43
2.5
 50
180.0
  0
INSERT
  5
BA7
330
6E2
100
AcDbEntity
  8
0
 62
     0
370
    -2
100
AcDbBlockReference
  2
_Open30
 10
-366.3463400224193
 20
27.15010349226043
 30
0.0
 41
2.5
 42
2.5
 43
2.5
  0
MTEXT
  5
BA8
330
6E2
100
AcDbEntity
  8
0
 62
     4
100
AcDbMText
 10
-489.2372230224193
 20
29.27510349226043
 30
0.0
 40
3.0
 41
0.0
 71
     5
 72
     1
  1
L寸法
 73
     1
 44
1.0
1001
ACAD
1000
MTEXTBEGIN
1070
    73
1070
     1
1070
    44
1040
1.0
1070
    74
1070
     0
1000
MTEXTEND
  0
POINT
  5
BA9
330
6E2
100
AcDbEntity
  8
Defpoints
 62
     0
100
AcDbPoint
 10
-612.1281060224194
 20
7.766330492260429
 30
0.0
  0
POINT
  5
BAA
330
6E2
100
AcDbEntity
  8
Defpoints
 62
     0
100
AcDbPoint
 10
-366.3463400224193
 20
13.79889249226043
 30
0.0
  0
POINT
  5
BAB
330
6E2
100
AcDbEntity
  8
Defpoints
 62
     0
100
AcDbPoint
 10
-366.3463400224193
 20
27.15010349226043
 30
0.0
  0
ENDBLK
  5
6E4
330
6E2
100
AcDbEntity
  8
0
100
AcDbBlockEnd
  0
BLOCK
  5
6F0
330
6EF
100
AcDbEntity
  8
0
100
AcDbBlockBegin
  2
*D7
 70
     1
 10
0.0
 20
0.0
 30
0.0
  3
*D7
  1

  0
LINE
  5
B98
330
6EF
100
AcDbEntity
  8
0
 62
     0
370
    -2
100
AcDbLine
 10
-446.2184080224193
 20
-4.248287507739568
 30
0.0
 11
-438.1890633273746
 21
-4.248287507739571
 31
0.0
  0
LINE
  5
B99
330
6EF
100
AcDbEntity
  8
0
 62
     0
370
    -2
100
AcDbLine
 10
-445.9860770224192
 20
10.84124449226043
 30
0.0
 11
-438.1890633273746
 21
10.84124449226043
 31
0.0
  0
LINE
  5
B9A
330
6EF
100
AcDbEntity
  8
0
 62
     0
370
    -2
100
AcDbLine
 10
-439.4390633273746
 20
13.34124449226043
 30
0.0
 11
-439.4390633273746
 21
15.84124449226043
 31
0.0
  0
LINE
  5
B9B
330
6EF
100
AcDbEntity
  8
0
 62
     0
370
    -2
100
AcDbLine
 10
-439.4390633273746
 20
-6.74828750773957
 30
0.0
 11
-439.4390633273746
 21
-14.49828750773957
 31
0.0
  0
LINE
  5
B9C
330
6EF
100
AcDbEntity
  8
0
 62
     0
370
    -2
100
AcDbLine
 10
-439.4390633273746
 20
10.84124449226043
 30
0.0
 11
-439.4390633273746
 21
-4.24828750773957
 31
0.0
  0
INSERT
  5
B9D
330
6EF
100
AcDbEntity
  8
0
 62
     0
370
    -2
100
AcDbBlockReference
  2
_Open30
 10
-439.4390633273746
 20
10.84124449226043
 30
0.0
 41
2.5
 42
2.5
 43
2.5
 50
270.0
  0
INSERT
  5
B9E
330
6EF
100
AcDbEntity
  8
0
 62
     0
370
    -2
100
AcDbBlockReference
  2
_Open30
 10
-439.4390633273746
 20
-4.24828750773957
 30
0.0
 41
2.5
 42
2.5
 43
2.5
 50
90.0
  0
MTEXT
  5
B9F
330
6EF
100
AcDbEntity
  8
0
 62
     4
100
AcDbMText
 10
-441.5640633273746
 20
-11.87328750773964
 30
0.0
 40
3.0
 41
0.0
 71
     5
 72
     1
  1
15
 11
0.0000000000000001
 21
1.0
 31
0.0
 73
     1
 44
1.0
1001
ACAD
1000
MTEXTBEGIN
1070
    73
1070
     1
1070
    44
1040
1.0
1070
    74
1070
     0
1000
MTEXTEND
  0
POINT
  5
BA0
330
6EF
100
AcDbEntity
  8
Defpoints
 62
     0
100
AcDbPoint
 10
-446.4684080224192
 20
-4.248287507739568
 30
0.0
  0
POINT
  5
BA1
330
6EF
100
AcDbEntity
  8
Defpoints
 62
     0
100
AcDbPoint
 10
-446.2360770224193
 20
10.84124449226043
 30
0.0
  0
POINT
  5
BA2
330
6EF
100
AcDbEntity
  8
Defpoints
 62
     0
100
AcDbPoint
 10
-439.4390633273746
 20
10.84124449226043
 30
0.0
  0
ENDBLK
  5
6F1
330
6EF
100
AcDbEntity
  8
0
100
AcDbBlockEnd
  0
BLOCK
  5
6FD
330
6FC
100
AcDbEntity
  8
0
100
AcDbBlockBegin
  2
*D8
 70
     1
 10
0.0
 20
0.0
 30
0.0
  3
*D8
  1

  0
LINE
  5
B8D
330
6FC
100
AcDbEntity
  8
0
 62
     0
370
    -2
100
AcDbLine
 10
-489.9836430224193
 20
70.01521249226043
 30
0.0
 11
-482.5771630224192
 21
70.01521249226043
 31
0.0
  0
LINE
  5
B8E
330
6FC
100
AcDbEntity
  8
0
 62
     0
370
    -2
100
AcDbLine
 10
-490.2605110224192
 20
73.01521249226043
 30
0.0
 11
-482.5771630224192
 21
73.01521249226043
 31
0.0
  0
LINE
  5
B8F
330
6FC
100
AcDbEntity
  8
0
 62
     0
370
    -2
100
AcDbLine
 10
-483.8271630224192
 20
67.51521249226043
 30
0.0
 11
-483.8271630224192
 21
65.01521249226043
 31
0.0
  0
LINE
  5
B90
330
6FC
100
AcDbEntity
  8
0
 62
     0
370
    -2
100
AcDbLine
 10
-483.8271630224192
 20
75.51521249226043
 30
0.0
 11
-483.8271630224192
 21
84.26521249226043
 31
0.0
  0
LINE
  5
B91
330
6FC
100
AcDbEntity
  8
0
 62
     0
370
    -2
100
AcDbLine
 10
-483.8271630224192
 20
70.01521249226043
 30
0.0
 11
-483.8271630224192
 21
73.01521249226043
 31
0.0
  0
INSERT
  5
B92
330
6FC
100
AcDbEntity
  8
0
 62
     0
370
    -2
100
AcDbBlockReference
  2
_Open30
 10
-483.8271630224192
 20
70.01521249226043
 30
0.0
 41
2.5
 42
2.5
 43
2.5
 50
90.0
  0
INSERT
  5
B93
330
6FC
100
AcDbEntity
  8
0
 62
     0
370
    -2
100
AcDbBlockReference
  2
_Open30
 10
-483.8271630224192
 20
73.01521249226043
 30
0.0
 41
2.5
 42
2.5
 43
2.5
 50
270.0
  0
MTEXT
  5
B94
330
6FC
100
AcDbEntity
  8
0
 62
     4
100
AcDbMText
 10
-485.9521630224192
 20
81.14021249226034
 30
0.0
 40
3.0
 41
0.0
 71
     5
 72
     1
  1
2t
 11
0.0000000000000001
 21
1.0
 31
0.0
 73
     1
 44
1.0
1001
ACAD
1000
MTEXTBEGIN
1070
    73
1070
     1
1070
    44
1040
1.0
1070
    74
1070
     0
1000
MTEXTEND
  0
POINT
  5
B95
330
6FC
100
AcDbEntity
  8
Defpoints
 62
     0
100
AcDbPoint
 10
-490.2336430224194
 20
70.01521249226043
 30
0.0
  0
POINT
  5
B96
330
6FC
100
AcDbEntity
  8
Defpoints
 62
     0
100
AcDbPoint
 10
-490.5105110224193
 20
73.01521249226043
 30
0.0
  0
POINT
  5
B97
330
6FC
100
AcDbEntity
  8
Defpoints
 62
     0
100
AcDbPoint
 10
-483.8271630224192
 20
73.01521249226043
 30
0.0
  0
ENDBLK
  5
6FE
330
6FC
100
AcDbEntity
  8
0
100
AcDbBlockEnd
  0
BLOCK
  5
BD8
330
BD7
100
AcDbEntity
  8
0
100
AcDbBlockBegin
  2
*D9
 70
     1
 10
0.0
 20
0.0
 30
0.0
  3
*D9
  1

  0
LINE
  5
BD9
330
BD7
100
AcDbEntity
  8
0
 62
     0
370
    -2
100
AcDbLine
 10
-304.380102276051
 20
74.45435414718531
 30
0.0
 11
-293.103563276051
 21
74.45435414718531
 31
0.0
  0
LINE
  5
BDA
330
BD7
100
AcDbEntity
  8
0
 62
     0
370
    -2
100
AcDbLine
 10
-305.3776022760509
 20
84.45435414718531
 30
0.0
 11
-293.103563276051
 21
84.45435414718531
 31
0.0
  0
LINE
  5
BDB
330
BD7
100
AcDbEntity
  8
0
 62
     0
370
    -2
100
AcDbLine
 10
-294.353563276051
 20
76.95435414718531
 30
0.0
 11
-294.353563276051
 21
81.95435414718531
 31
0.0
  0
INSERT
  5
BDC
330
BD7
100
AcDbEntity
  8
0
 62
     0
370
    -2
100
AcDbBlockReference
  2
_Open30
 10
-294.353563276051
 20
74.45435414718531
 30
0.0
 41
2.5
 42
2.5
 43
2.5
 50
270.0
  0
INSERT
  5
BDD
330
BD7
100
AcDbEntity
  8
0
 62
     0
370
    -2
100
AcDbBlockReference
  2
_Open30
 10
-294.353563276051
 20
84.45435414718531
 30
0.0
 41
2.5
 42
2.5
 43
2.5
 50
90.0
  0
MTEXT
  5
BDE
330
BD7
100
AcDbEntity
  8
0
 62
     4
100
AcDbMText
 10
-296.478563276051
 20
79.45435414718525
 30
0.0
 40
3.0
 41
0.0
 71
     5
 72
     1
  1
10
 11
0.0000000000000001
 21
1.0
 31
0.0
 73
     1
 44
1.0
1001
ACAD
1000
MTEXTBEGIN
1070
    73
1070
     1
1070
    44
1040
1.0
1070
    74
1070
     0
1000
MTEXTEND
  0
POINT
  5
BDF
330
BD7
100
AcDbEntity
  8
Defpoints
 62
     0
100
AcDbPoint
 10
-304.630102276051
 20
74.45435414718531
 30
0.0
  0
POINT
  5
BE0
330
BD7
100
AcDbEntity
  8
Defpoints
 62
     0
100
AcDbPoint
 10
-305.6276022760509
 20
84.45435414718531
 30
0.0
  0
POINT
  5
BE1
330
BD7
100
AcDbEntity
  8
Defpoints
 62
     0
100
AcDbPoint
 10
-294.353563276051
 20
84.45435414718531
 30
0.0
  0
ENDBLK
  5
BE2
330
BD7
100
AcDbEntity
  8
0
100
AcDbBlockEnd
  0
BLOCK
  5
BE4
330
BE3
100
AcDbEntity
  8
0
100
AcDbBlockBegin
  2
*D10
 70
     1
 10
0.0
 20
0.0
 30
0.0
  3
*D10
  1

  0
LINE
  5
BE5
330
BE3
100
AcDbEntity
  8
0
 62
     0
370
    -2
100
AcDbLine
 10
-306.032558276051
 20
-25.0097348528147
 30
0.0
 11
-295.0580612760509
 21
-25.0097348528147
 31
0.0
  0
LINE
  5
BE6
330
BE3
100
AcDbEntity
  8
0
 62
     0
370
    -2
100
AcDbLine
 10
-306.032558276051
 20
-1.009734852814689
 30
0.0
 11
-295.0580612760509
 21
-1.009734852814692
 31
0.0
  0
LINE
  5
BE7
330
BE3
100
AcDbEntity
  8
0
 62
     0
370
    -2
100
AcDbLine
 10
-296.3080612760509
 20
-22.5097348528147
 30
0.0
 11
-296.3080612760509
 21
-3.509734852814692
 31
0.0
  0
INSERT
  5
BE8
330
BE3
100
AcDbEntity
  8
0
 62
     0
370
    -2
100
AcDbBlockReference
  2
_Open30
 10
-296.3080612760509
 20
-25.0097348528147
 30
0.0
 41
2.5
 42
2.5
 43
2.5
 50
270.0
  0
INSERT
  5
BE9
330
BE3
100
AcDbEntity
  8
0
 62
     0
370
    -2
100
AcDbBlockReference
  2
_Open30
 10
-296.3080612760509
 20
-1.009734852814692
 30
0.0
 41
2.5
 42
2.5
 43
2.5
 50
90.0
  0
MTEXT
  5
BEA
330
BE3
100
AcDbEntity
  8
0
 62
     4
100
AcDbMText
 10
-298.4330612760508
 20
-13.00973485281474
 30
0.0
 40
3.0
 41
0.0
 71
     5
 72
     1
  1
24
 11
0.0000000000000001
 21
1.0
 31
0.0
 73
     1
 44
1.0
1001
ACAD
1000
MTEXTBEGIN
1070
    73
1070
     1
1070
    44
1040
1.0
1070
    74
1070
     0
1000
MTEXTEND
  0
POINT
  5
BEB
330
BE3
100
AcDbEntity
  8
Defpoints
 62
     0
100
AcDbPoint
 10
-306.282558276051
 20
-25.0097348528147
 30
0.0
  0
POINT
  5
BEC
330
BE3
100
AcDbEntity
  8
Defpoints
 62
     0
100
AcDbPoint
 10
-306.282558276051
 20
-1.009734852814689
 30
0.0
  0
POINT
  5
BED
330
BE3
100
AcDbEntity
  8
Defpoints
 62
     0
100
AcDbPoint
 10
-296.3080612760509
 20
-1.009734852814692
 30
0.0
  0
ENDBLK
  5
BEE
330
BE3
100
AcDbEntity
  8
0
100
AcDbBlockEnd
  0
BLOCK
  5
BF0
330
BEF
100
AcDbEntity
  8
0
100
AcDbBlockBegin
  2
*D11
 70
     1
 10
0.0
 20
0.0
 30
0.0
  3
*D11
  1

  0
LINE
  5
BF1
330
BEF
100
AcDbEntity
  8
0
 62
     0
370
    -2
100
AcDbLine
 10
-550.5643242760509
 20
-8.292296852814686
 30
0.0
 11
-550.5643242760509
 21
12.09147614718531
 31
0.0
  0
LINE
  5
BF2
330
BEF
100
AcDbEntity
  8
0
 62
     0
370
    -2
100
AcDbLine
 10
-304.782558276051
 20
-2.259734852814688
 30
0.0
 11
-304.782558276051
 21
12.09147614718531
 31
0.0
  0
LINE
  5
BF3
330
BEF
100
AcDbEntity
  8
0
 62
     0
370
    -2
100
AcDbLine
 10
-548.0643242760509
 20
10.84147614718531
 30
0.0
 11
-307.2825582760509
 21
10.84147614718531
 31
0.0
  0
INSERT
  5
BF4
330
BEF
100
AcDbEntity
  8
0
 62
     0
370
    -2
100
AcDbBlockReference
  2
_Open30
 10
-550.5643242760509
 20
10.84147614718531
 30
0.0
 41
2.5
 42
2.5
 43
2.5
 50
180.0
  0
INSERT
  5
BF5
330
BEF
100
AcDbEntity
  8
0
 62
     0
370
    -2
100
AcDbBlockReference
  2
_Open30
 10
-304.782558276051
 20
10.84147614718531
 30
0.0
 41
2.5
 42
2.5
 43
2.5
  0
MTEXT
  5
BF6
330
BEF
100
AcDbEntity
  8
0
 62
     4
100
AcDbMText
 10
-427.6734412760509
 20
12.96647614718531
 30
0.0
 40
3.0
 41
0.0
 71
     5
 72
     1
  1
L寸法
 73
     1
 44
1.0
1001
ACAD
1000
MTEXTBEGIN
1070
    73
1070
     1
1070
    44
1040
1.0
1070
    74
1070
     0
1000
MTEXTEND
  0
POINT
  5
BF7
330
BEF
100
AcDbEntity
  8
Defpoints
 62
     0
100
AcDbPoint
 10
-550.5643242760509
 20
-8.542296852814686
 30
0.0
  0
POINT
  5
BF8
330
BEF
100
AcDbEntity
  8
Defpoints
 62
     0
100
AcDbPoint
 10
-304.782558276051
 20
-2.509734852814688
 30
0.0
  0
POINT
  5
BF9
330
BEF
100
AcDbEntity
  8
Defpoints
 62
     0
100
AcDbPoint
 10
-304.782558276051
 20
10.84147614718531
 30
0.0
  0
ENDBLK
  5
BFA
330
BEF
100
AcDbEntity
  8
0
100
AcDbBlockEnd
  0
BLOCK
  5
BFC
330
BFB
100
AcDbEntity
  8
0
100
AcDbBlockBegin
  2
*D12
 70
     1
 10
0.0
 20
0.0
 30
0.0
  3
*D12
  1

  0
LINE
  5
BFD
330
BFB
100
AcDbEntity
  8
0
 62
     0
370
    -2
100
AcDbLine
 10
-384.654626276051
 20
-20.55691585281469
 30
0.0
 11
-375.6100827901123
 21
-20.55691585281469
 31
0.0
  0
LINE
  5
BFE
330
BFB
100
AcDbEntity
  8
0
 62
     0
370
    -2
100
AcDbLine
 10
-384.4222952760509
 20
-5.467382852814688
 30
0.0
 11
-375.6100827901123
 21
-5.467382852814691
 31
0.0
  0
LINE
  5
BFF
330
BFB
100
AcDbEntity
  8
0
 62
     0
370
    -2
100
AcDbLine
 10
-376.8600827901123
 20
-2.967382852814691
 30
0.0
 11
-376.8600827901123
 21
-0.4673828528146914
 31
0.0
  0
LINE
  5
C00
330
BFB
100
AcDbEntity
  8
0
 62
     0
370
    -2
100
AcDbLine
 10
-376.8600827901123
 20
-23.05691585281469
 30
0.0
 11
-376.8600827901123
 21
-31.18191585281463
 31
0.0
  0
LINE
  5
C01
330
BFB
100
AcDbEntity
  8
0
 62
     0
370
    -2
100
AcDbLine
 10
-376.8600827901123
 20
-5.467382852814691
 30
0.0
 11
-376.8600827901123
 21
-20.55691585281469
 31
0.0
  0
INSERT
  5
C02
330
BFB
100
AcDbEntity
  8
0
 62
     0
370
    -2
100
AcDbBlockReference
  2
_Open30
 10
-376.8600827901123
 20
-5.467382852814691
 30
0.0
 41
2.5
 42
2.5
 43
2.5
 50
270.0
  0
INSERT
  5
C03
330
BFB
100
AcDbEntity
  8
0
 62
     0
370
    -2
100
AcDbBlockReference
  2
_Open30
 10
-376.8600827901123
 20
-20.55691585281469
 30
0.0
 41
2.5
 42
2.5
 43
2.5
 50
90.0
  0
MTEXT
  5
C04
330
BFB
100
AcDbEntity
  8
0
 62
     4
100
AcDbMText
 10
-378.9850827901123
 20
-28.55691585281469
 30
0.0
 40
3.0
 41
0.0
 71
     5
 72
     1
  1
15
 11
0.0000000000000001
 21
1.0
 31
0.0
 73
     1
 44
1.0
1001
ACAD
1000
MTEXTBEGIN
1070
    73
1070
     1
1070
    44
1040
1.0
1070
    74
1070
     0
1000
MTEXTEND
  0
POINT
  5
C05
330
BFB
100
AcDbEntity
  8
Defpoints
 62
     0
100
AcDbPoint
 10
-384.904626276051
 20
-20.55691585281469
 30
0.0
  0
POINT
  5
C06
330
BFB
100
AcDbEntity
  8
Defpoints
 62
     0
100
AcDbPoint
 10
-384.6722952760509
 20
-5.467382852814688
 30
0.0
  0
POINT
  5
C07
330
BFB
100
AcDbEntity
  8
Defpoints
 62
     0
100
AcDbPoint
 10
-376.8600827901123
 20
-5.467382852814691
 30
0.0
  0
ENDBLK
  5
C08
330
BFB
100
AcDbEntity
  8
0
100
AcDbBlockEnd
  0
BLOCK
  5
C0A
330
C09
100
AcDbEntity
  8
0
100
AcDbBlockBegin
  2
*D13
 70
     1
 10
0.0
 20
0.0
 30
0.0
  3
*D13
  1

  0
LINE
  5
C0B
330
C09
100
AcDbEntity
  8
0
 62
     0
370
    -2
100
AcDbLine
 10
-428.4198622760508
 20
73.70658514718532
 30
0.0
 11
-421.0133812760508
 21
73.70658514718532
 31
0.0
  0
LINE
  5
C0C
330
C09
100
AcDbEntity
  8
0
 62
     0
370
    -2
100
AcDbLine
 10
-428.696729276051
 20
76.70658514718532
 30
0.0
 11
-421.0133812760508
 21
76.70658514718532
 31
0.0
  0
LINE
  5
C0D
330
C09
100
AcDbEntity
  8
0
 62
     0
370
    -2
100
AcDbLine
 10
-422.2633812760508
 20
71.20658514718532
 30
0.0
 11
-422.2633812760508
 21
68.70658514718532
 31
0.0
  0
LINE
  5
C0E
330
C09
100
AcDbEntity
  8
0
 62
     0
370
    -2
100
AcDbLine
 10
-422.2633812760508
 20
79.20658514718532
 30
0.0
 11
-422.2633812760508
 21
87.95658514718532
 31
0.0
  0
LINE
  5
C0F
330
C09
100
AcDbEntity
  8
0
 62
     0
370
    -2
100
AcDbLine
 10
-422.2633812760508
 20
73.70658514718532
 30
0.0
 11
-422.2633812760508
 21
76.70658514718532
 31
0.0
  0
INSERT
  5
C10
330
C09
100
AcDbEntity
  8
0
 62
     0
370
    -2
100
AcDbBlockReference
  2
_Open30
 10
-422.2633812760508
 20
73.70658514718532
 30
0.0
 41
2.5
 42
2.5
 43
2.5
 50
90.0
  0
INSERT
  5
C11
330
C09
100
AcDbEntity
  8
0
 62
     0
370
    -2
100
AcDbBlockReference
  2
_Open30
 10
-422.2633812760508
 20
76.70658514718532
 30
0.0
 41
2.5
 42
2.5
 43
2.5
 50
270.0
  0
MTEXT
  5
C12
330
C09
100
AcDbEntity
  8
0
 62
     4
100
AcDbMText
 10
-424.3883812760508
 20
84.83158514718525
 30
0.0
 40
3.0
 41
0.0
 71
     5
 72
     1
  1
2t
 11
0.0000000000000001
 21
1.0
 31
0.0
 73
     1
 44
1.0
1001
ACAD
1000
MTEXTBEGIN
1070
    73
1070
     1
1070
    44
1040
1.0
1070
    74
1070
     0
1000
MTEXTEND
  0
POINT
  5
C13
330
C09
100
AcDbEntity
  8
Defpoints
 62
     0
100
AcDbPoint
 10
-428.6698622760509
 20
73.70658514718532
 30
0.0
  0
POINT
  5
C14
330
C09
100
AcDbEntity
  8
Defpoints
 62
     0
100
AcDbPoint
 10
-428.946729276051
 20
76.70658514718532
 30
0.0
  0
POINT
  5
C15
330
C09
100
AcDbEntity
  8
Defpoints
 62
     0
100
AcDbPoint
 10
-422.2633812760508
 20
76.70658514718532
 30
0.0
  0
ENDBLK
  5
C16
330
C09
100
AcDbEntity
  8
0
100
AcDbBlockEnd
  0
BLOCK
  5
C18
330
C17
100
AcDbEntity
  8
0
100
AcDbBlockBegin
  2
*D14
 70
     1
 10
0.0
 20
0.0
 30
0.0
  3
*D14
  1

  0
LINE
  5
C19
330
C17
100
AcDbEntity
  8
0
 62
     0
370
    -2
100
AcDbLine
 10
-590.8608222103896
 20
55.73356456831266
 30
0.0
 11
-612.3170913417127
 21
95.28895072605797
 31
0.0
  0
INSERT
  5
C1A
330
C17
100
AcDbEntity
  8
0
 62
     0
370
    -2
100
AcDbBlockReference
  2
_Open30
 10
-589.6688072760512
 20
53.53604314718523
 30
0.0
 41
2.5
 42
2.5
 43
2.5
 50
298.4770020669826
  0
INSERT
  5
C1B
330
C17
100
AcDbEntity
  8
0
 62
     0
370
    -2
100
AcDbBlockReference
  2
_Open30
 10
-613.5091062760511
 20
97.48647214718538
 30
0.0
 41
2.5
 42
2.5
 43
2.5
 50
118.4770020669826
  0
MTEXT
  5
C1C
102
{ACAD_XDICTIONARY
360
1531
102
}
330
C17
100
AcDbEntity
  8
0
 62
     4
100
AcDbMText
 10
-599.721063568093
 20
76.52447034137299
 30
0.0
 40
3.0
 41
0.0
 71
     5
 72
     1
  1
\U+220550
 11
0.476805973735393
 21
-0.8790085684509815
 31
0.0
 73
     1
 44
1.0
1001
ACAD
1000
MTEXTBEGIN
1070
    73
1070
     1
1070
    44
1040
1.0
1070
    74
1070
     0
1000
MTEXTEND
  0
POINT
  5
C1D
330
C17
100
AcDbEntity
  8
Defpoints
 62
     0
100
AcDbPoint
 10
-613.5091062760511
 20
97.48647214718538
 30
0.0
  0
POINT
  5
C1E
330
C17
100
AcDbEntity
  8
Defpoints
 62
     0
100
AcDbPoint
 10
-589.6688072760512
 20
53.53604314718523
 30
0.0
  0
ENDBLK
  5
C1F
330
C17
100
AcDbEntity
  8
0
100
AcDbBlockEnd
  0
BLOCK
  5
C21
330
C20
100
AcDbEntity
  8
0
100
AcDbBlockBegin
  2
*D15
 70
     1
 10
0.0
 20
0.0
 30
0.0
  3
*D15
  1

  0
LINE
  5
C22
330
C20
100
AcDbEntity
  8
0
 62
     0
370
    -2
100
AcDbLine
 10
-601.838956276051
 20
38.51125814718531
 30
0.0
 11
-649.4267492760508
 21
38.51125814718532
 31
0.0
  0
LINE
  5
C23
330
C20
100
AcDbEntity
  8
0
 62
     0
370
    -2
100
AcDbLine
 10
-592.2260052760508
 20
120.2481301471853
 30
0.0
 11
-649.4267492760508
 21
120.2481301471853
 31
0.0
  0
LINE
  5
C24
330
C20
100
AcDbEntity
  8
0
 62
     0
370
    -2
100
AcDbLine
 10
-648.1767492760508
 20
41.01125814718531
 30
0.0
 11
-648.1767492760508
 21
117.7481301471853
 31
0.0
  0
INSERT
  5
C25
330
C20
100
AcDbEntity
  8
0
 62
     0
370
    -2
100
AcDbBlockReference
  2
_Open30
 10
-648.1767492760508
 20
38.51125814718532
 30
0.0
 41
2.5
 42
2.5
 43
2.5
 50
270.0
  0
INSERT
  5
C26
330
C20
100
AcDbEntity
  8
0
 62
     0
370
    -2
100
AcDbBlockReference
  2
_Open30
 10
-648.1767492760508
 20
120.2481301471853
 30
0.0
 41
2.5
 42
2.5
 43
2.5
 50
90.0
  0
MTEXT
  5
C27
330
C20
100
AcDbEntity
  8
0
 62
     4
100
AcDbMText
 10
-650.3017492760508
 20
79.37969414718522
 30
0.0
 40
3.0
 41
0.0
 71
     5
 72
     1
  1
82
 11
0.0000000000000001
 21
1.0
 31
0.0
 73
     1
 44
1.0
1001
ACAD
1000
MTEXTBEGIN
1070
    73
1070
     1
1070
    44
1040
1.0
1070
    74
1070
     0
1000
MTEXTEND
  0
POINT
  5
C28
330
C20
100
AcDbEntity
  8
Defpoints
 62
     0
100
AcDbPoint
 10
-601.588956276051
 20
38.51125814718531
 30
0.0
  0
POINT
  5
C29
330
C20
100
AcDbEntity
  8
Defpoints
 62
     0
100
AcDbPoint
 10
-591.9760052760508
 20
120.2481301471853
 30
0.0
  0
POINT
  5
C2A
330
C20
100
AcDbEntity
  8
Defpoints
 62
     0
100
AcDbPoint
 10
-648.1767492760508
 20
120.2481301471853
 30
0.0
  0
ENDBLK
  5
C2B
330
C20
100
AcDbEntity
  8
0
100
AcDbBlockEnd
  0
BLOCK
  5
C2D
330
C2C
100
AcDbEntity
  8
0
100
AcDbBlockBegin
  2
*D16
 70
     1
 10
0.0
 20
0.0
 30
0.0
  3
*D16
  1

  0
LINE
  5
C2E
330
C2C
100
AcDbEntity
  8
0
 62
     0
370
    -2
100
AcDbLine
 10
-638.594006276051
 20
-12.89719185281469
 30
0.0
 11
-638.594006276051
 21
12.09147614718531
 31
0.0
  0
LINE
  5
C2F
330
C2C
100
AcDbEntity
  8
0
 62
     0
370
    -2
100
AcDbLine
 10
-550.6306802760508
 20
-8.382275852814688
 30
0.0
 11
-550.6306802760508
 21
12.09147614718531
 31
0.0
  0
LINE
  5
C30
330
C2C
100
AcDbEntity
  8
0
 62
     0
370
    -2
100
AcDbLine
 10
-636.0940062760509
 20
10.84147614718531
 30
0.0
 11
-553.1306802760508
 21
10.84147614718531
 31
0.0
  0
INSERT
  5
C31
330
C2C
100
AcDbEntity
  8
0
 62
     0
370
    -2
100
AcDbBlockReference
  2
_Open30
 10
-638.594006276051
 20
10.84147614718531
 30
0.0
 41
2.5
 42
2.5
 43
2.5
 50
180.0
  0
INSERT
  5
C32
330
C2C
100
AcDbEntity
  8
0
 62
     0
370
    -2
100
AcDbBlockReference
  2
_Open30
 10
-550.6306802760508
 20
10.84147614718531
 30
0.0
 41
2.5
 42
2.5
 43
2.5
  0
MTEXT
  5
C33
330
C2C
100
AcDbEntity
  8
0
 62
     4
100
AcDbMText
 10
-594.612343276051
 20
12.96647614718531
 30
0.0
 40
3.0
 41
0.0
 71
     5
 72
     1
  1
88
 73
     1
 44
1.0
1001
ACAD
1000
MTEXTBEGIN
1070
    73
1070
     1
1070
    44
1040
1.0
1070
    74
1070
     0
1000
MTEXTEND
  0
POINT
  5
C34
330
C2C
100
AcDbEntity
  8
Defpoints
 62
     0
100
AcDbPoint
 10
-638.594006276051
 20
-13.14719185281469
 30
0.0
  0
POINT
  5
C35
330
C2C
100
AcDbEntity
  8
Defpoints
 62
     0
100
AcDbPoint
 10
-550.6306802760508
 20
-8.632275852814688
 30
0.0
  0
POINT
  5
C36
330
C2C
100
AcDbEntity
  8
Defpoints
 62
     0
100
AcDbPoint
 10
-550.6306802760508
 20
10.84147614718531
 30
0.0
  0
ENDBLK
  5
C37
330
C2C
100
AcDbEntity
  8
0
100
AcDbBlockEnd
  0
BLOCK
  5
11E9
330
11E8
100
AcDbEntity
  8
0
100
AcDbBlockBegin
  2
*D18
 70
     1
 10
0.0
 20
0.0
 30
0.0
  3
*D18
  1

  0
LINE
  5
1249
330
11E8
100
AcDbEntity
  8
0
 62
     0
370
    -2
100
AcDbLine
 10
105.7859475217699
 20
74.62109644756992
 30
0.0
 11
117.06248652177
 21
74.62109644756992
 31
0.0
  0
LINE
  5
124A
330
11E8
100
AcDbEntity
  8
0
 62
     0
370
    -2
100
AcDbLine
 10
104.7884475217701
 20
84.62109644756992
 30
0.0
 11
117.06248652177
 21
84.62109644756992
 31
0.0
  0
LINE
  5
124B
330
11E8
100
AcDbEntity
  8
0
 62
     0
370
    -2
100
AcDbLine
 10
115.81248652177
 20
77.12109644756992
 30
0.0
 11
115.81248652177
 21
82.12109644756992
 31
0.0
  0
INSERT
  5
124C
330
11E8
100
AcDbEntity
  8
0
 62
     0
370
    -2
100
AcDbBlockReference
  2
_Open30
 10
115.81248652177
 20
74.62109644756992
 30
0.0
 41
2.5
 42
2.5
 43
2.5
 50
270.0
  0
INSERT
  5
124D
330
11E8
100
AcDbEntity
  8
0
 62
     0
370
    -2
100
AcDbBlockReference
  2
_Open30
 10
115.81248652177
 20
84.62109644756992
 30
0.0
 41
2.5
 42
2.5
 43
2.5
 50
90.0
  0
MTEXT
  5
124E
330
11E8
100
AcDbEntity
  8
0
 62
     4
100
AcDbMText
 10
113.6874865217699
 20
79.62109644756996
 30
0.0
 40
3.0
 41
0.0
 71
     5
 72
     1
  1
10
 11
0.0000000000000001
 21
1.0
 31
0.0
 73
     1
 44
1.0
1001
ACAD
1000
MTEXTBEGIN
1070
    73
1070
     1
1070
    44
1040
1.0
1070
    74
1070
     0
1000
MTEXTEND
  0
POINT
  5
124F
330
11E8
100
AcDbEntity
  8
Defpoints
 62
     0
100
AcDbPoint
 10
105.53594752177
 20
74.62109644756992
 30
0.0
  0
POINT
  5
1250
330
11E8
100
AcDbEntity
  8
Defpoints
 62
     0
100
AcDbPoint
 10
104.5384475217701
 20
84.62109644756992
 30
0.0
  0
POINT
  5
1251
330
11E8
100
AcDbEntity
  8
Defpoints
 62
     0
100
AcDbPoint
 10
115.81248652177
 20
84.62109644756992
 30
0.0
  0
ENDBLK
  5
11EA
330
11E8
100
AcDbEntity
  8
0
100
AcDbBlockEnd
  0
BLOCK
  5
11F5
330
11F4
100
AcDbEntity
  8
0
100
AcDbBlockBegin
  2
*D19
 70
     1
 10
0.0
 20
0.0
 30
0.0
  3
*D19
  1

  0
LINE
  5
1252
330
11F4
100
AcDbEntity
  8
0
 62
     0
370
    -2
100
AcDbLine
 10
104.13349152177
 20
-24.84299255243008
 30
0.0
 11
115.1079885217701
 21
-24.84299255243008
 31
0.0
  0
LINE
  5
1253
330
11F4
100
AcDbEntity
  8
0
 62
     0
370
    -2
100
AcDbLine
 10
104.13349152177
 20
-0.8429925524300756
 30
0.0
 11
115.1079885217701
 21
-0.8429925524300788
 31
0.0
  0
LINE
  5
1254
330
11F4
100
AcDbEntity
  8
0
 62
     0
370
    -2
100
AcDbLine
 10
113.8579885217701
 20
-22.34299255243008
 30
0.0
 11
113.8579885217701
 21
-3.342992552430078
 31
0.0
  0
INSERT
  5
1255
330
11F4
100
AcDbEntity
  8
0
 62
     0
370
    -2
100
AcDbBlockReference
  2
_Open30
 10
113.8579885217701
 20
-24.84299255243008
 30
0.0
 41
2.5
 42
2.5
 43
2.5
 50
270.0
  0
INSERT
  5
1256
330
11F4
100
AcDbEntity
  8
0
 62
     0
370
    -2
100
AcDbBlockReference
  2
_Open30
 10
113.8579885217701
 20
-0.8429925524300784
 30
0.0
 41
2.5
 42
2.5
 43
2.5
 50
90.0
  0
MTEXT
  5
1257
330
11F4
100
AcDbEntity
  8
0
 62
     4
100
AcDbMText
 10
111.7329885217701
 20
-12.84299255243006
 30
0.0
 40
3.0
 41
0.0
 71
     5
 72
     1
  1
24
 11
0.0000000000000001
 21
1.0
 31
0.0
 73
     1
 44
1.0
1001
ACAD
1000
MTEXTBEGIN
1070
    73
1070
     1
1070
    44
1040
1.0
1070
    74
1070
     0
1000
MTEXTEND
  0
POINT
  5
1258
330
11F4
100
AcDbEntity
  8
Defpoints
 62
     0
100
AcDbPoint
 10
103.88349152177
 20
-24.84299255243008
 30
0.0
  0
POINT
  5
1259
330
11F4
100
AcDbEntity
  8
Defpoints
 62
     0
100
AcDbPoint
 10
103.88349152177
 20
-0.8429925524300756
 30
0.0
  0
POINT
  5
125A
330
11F4
100
AcDbEntity
  8
Defpoints
 62
     0
100
AcDbPoint
 10
113.8579885217701
 20
-0.8429925524300784
 30
0.0
  0
ENDBLK
  5
11F6
330
11F4
100
AcDbEntity
  8
0
100
AcDbBlockEnd
  0
BLOCK
  5
1201
330
1200
100
AcDbEntity
  8
0
100
AcDbBlockBegin
  2
*D20
 70
     1
 10
0.0
 20
0.0
 30
0.0
  3
*D20
  1

  0
LINE
  5
125B
330
1200
100
AcDbEntity
  8
0
 62
     0
370
    -2
100
AcDbLine
 10
-140.3982744782299
 20
-8.125554552430074
 30
0.0
 11
-140.3982744782299
 21
12.25821844756993
 31
0.0
  0
LINE
  5
125C
330
1200
100
AcDbEntity
  8
0
 62
     0
370
    -2
100
AcDbLine
 10
105.38349152177
 20
-2.092992552430075
 30
0.0
 11
105.38349152177
 21
12.25821844756993
 31
0.0
  0
LINE
  5
125D
330
1200
100
AcDbEntity
  8
0
 62
     0
370
    -2
100
AcDbLine
 10
-137.8982744782299
 20
11.00821844756993
 30
0.0
 11
102.88349152177
 21
11.00821844756993
 31
0.0
  0
INSERT
  5
125E
330
1200
100
AcDbEntity
  8
0
 62
     0
370
    -2
100
AcDbBlockReference
  2
_Open30
 10
-140.3982744782299
 20
11.00821844756993
 30
0.0
 41
2.5
 42
2.5
 43
2.5
 50
180.0
  0
INSERT
  5
125F
330
1200
100
AcDbEntity
  8
0
 62
     0
370
    -2
100
AcDbBlockReference
  2
_Open30
 10
105.38349152177
 20
11.00821844756993
 30
0.0
 41
2.5
 42
2.5
 43
2.5
  0
MTEXT
  5
1260
330
1200
100
AcDbEntity
  8
0
 62
     4
100
AcDbMText
 10
-17.50739147822997
 20
13.13321844756993
 30
0.0
 40
3.0
 41
0.0
 71
     5
 72
     1
  1
L寸法
 73
     1
 44
1.0
1001
ACAD
1000
MTEXTBEGIN
1070
    73
1070
     1
1070
    44
1040
1.0
1070
    74
1070
     0
1000
MTEXTEND
  0
POINT
  5
1261
330
1200
100
AcDbEntity
  8
Defpoints
 62
     0
100
AcDbPoint
 10
-140.3982744782299
 20
-8.375554552430074
 30
0.0
  0
POINT
  5
1262
330
1200
100
AcDbEntity
  8
Defpoints
 62
     0
100
AcDbPoint
 10
105.38349152177
 20
-2.342992552430075
 30
0.0
  0
POINT
  5
1263
330
1200
100
AcDbEntity
  8
Defpoints
 62
     0
100
AcDbPoint
 10
105.38349152177
 20
11.00821844756993
 30
0.0
  0
ENDBLK
  5
1202
330
1200
100
AcDbEntity
  8
0
100
AcDbBlockEnd
  0
BLOCK
  5
120D
330
120C
100
AcDbEntity
  8
0
100
AcDbBlockBegin
  2
*D21
 70
     1
 10
0.0
 20
0.0
 30
0.0
  3
*D21
  1

  0
LINE
  5
1264
330
120C
100
AcDbEntity
  8
0
 62
     0
370
    -2
100
AcDbLine
 10
25.51142352176993
 20
-20.39017355243007
 30
0.0
 11
34.55596700770865
 21
-20.39017355243007
 31
0.0
  0
LINE
  5
1265
330
120C
100
AcDbEntity
  8
0
 62
     0
370
    -2
100
AcDbLine
 10
25.74375452177009
 20
-5.300640552430081
 30
0.0
 11
34.55596700770866
 21
-5.300640552430085
 31
0.0
  0
LINE
  5
1266
330
120C
100
AcDbEntity
  8
0
 62
     0
370
    -2
100
AcDbLine
 10
33.30596700770866
 20
-2.800640552430084
 30
0.0
 11
33.30596700770866
 21
-0.3006405524300846
 31
0.0
  0
LINE
  5
1267
330
120C
100
AcDbEntity
  8
0
 62
     0
370
    -2
100
AcDbLine
 10
33.30596700770865
 20
-22.89017355243007
 30
0.0
 11
33.30596700770865
 21
-31.01517355243009
 31
0.0
  0
LINE
  5
1268
330
120C
100
AcDbEntity
  8
0
 62
     0
370
    -2
100
AcDbLine
 10
33.30596700770866
 20
-5.300640552430084
 30
0.0
 11
33.30596700770865
 21
-20.39017355243007
 31
0.0
  0
INSERT
  5
1269
330
120C
100
AcDbEntity
  8
0
 62
     0
370
    -2
100
AcDbBlockReference
  2
_Open30
 10
33.30596700770866
 20
-5.300640552430084
 30
0.0
 41
2.5
 42
2.5
 43
2.5
 50
270.0
  0
INSERT
  5
126A
330
120C
100
AcDbEntity
  8
0
 62
     0
370
    -2
100
AcDbBlockReference
  2
_Open30
 10
33.30596700770865
 20
-20.39017355243007
 30
0.0
 41
2.5
 42
2.5
 43
2.5
 50
90.0
  0
MTEXT
  5
126B
330
120C
100
AcDbEntity
  8
0
 62
     4
100
AcDbMText
 10
31.18096700770866
 20
-28.39017355243008
 30
0.0
 40
3.0
 41
0.0
 71
     5
 72
     1
  1
15
 11
0.0000000000000001
 21
1.0
 31
0.0
 73
     1
 44
1.0
1001
ACAD
1000
MTEXTBEGIN
1070
    73
1070
     1
1070
    44
1040
1.0
1070
    74
1070
     0
1000
MTEXTEND
  0
POINT
  5
126C
330
120C
100
AcDbEntity
  8
Defpoints
 62
     0
100
AcDbPoint
 10
25.26142352176993
 20
-20.39017355243007
 30
0.0
  0
POINT
  5
126D
330
120C
100
AcDbEntity
  8
Defpoints
 62
     0
100
AcDbPoint
 10
25.49375452177009
 20
-5.300640552430081
 30
0.0
  0
POINT
  5
126E
330
120C
100
AcDbEntity
  8
Defpoints
 62
     0
100
AcDbPoint
 10
33.30596700770866
 20
-5.300640552430084
 30
0.0
  0
ENDBLK
  5
120E
330
120C
100
AcDbEntity
  8
0
100
AcDbBlockEnd
  0
BLOCK
  5
121B
330
121A
100
AcDbEntity
  8
0
100
AcDbBlockBegin
  2
*D22
 70
     1
 10
0.0
 20
0.0
 30
0.0
  3
*D22
  1

  0
LINE
  5
126F
330
121A
100
AcDbEntity
  8
0
 62
     0
370
    -2
100
AcDbLine
 10
-18.25381247822992
 20
73.87332744756992
 30
0.0
 11
-10.84733147822993
 21
73.87332744756992
 31
0.0
  0
LINE
  5
1270
330
121A
100
AcDbEntity
  8
0
 62
     0
370
    -2
100
AcDbLine
 10
-18.53067947823007
 20
76.87332744756992
 30
0.0
 11
-10.84733147822993
 21
76.87332744756992
 31
0.0
  0
LINE
  5
1271
330
121A
100
AcDbEntity
  8
0
 62
     0
370
    -2
100
AcDbLine
 10
-12.09733147822993
 20
71.37332744756992
 30
0.0
 11
-12.09733147822993
 21
68.87332744756992
 31
0.0
  0
LINE
  5
1272
330
121A
100
AcDbEntity
  8
0
 62
     0
370
    -2
100
AcDbLine
 10
-12.09733147822993
 20
79.37332744756992
 30
0.0
 11
-12.09733147822993
 21
88.12332744756991
 31
0.0
  0
LINE
  5
1273
330
121A
100
AcDbEntity
  8
0
 62
     0
370
    -2
100
AcDbLine
 10
-12.09733147822993
 20
73.87332744756992
 30
0.0
 11
-12.09733147822993
 21
76.87332744756992
 31
0.0
  0
INSERT
  5
1274
330
121A
100
AcDbEntity
  8
0
 62
     0
370
    -2
100
AcDbBlockReference
  2
_Open30
 10
-12.09733147822993
 20
73.87332744756992
 30
0.0
 41
2.5
 42
2.5
 43
2.5
 50
90.0
  0
INSERT
  5
1275
330
121A
100
AcDbEntity
  8
0
 62
     0
370
    -2
100
AcDbBlockReference
  2
_Open30
 10
-12.09733147822993
 20
76.87332744756992
 30
0.0
 41
2.5
 42
2.5
 43
2.5
 50
270.0
  0
MTEXT
  5
1276
330
121A
100
AcDbEntity
  8
0
 62
     4
100
AcDbMText
 10
-14.22233147822994
 20
84.99832744756991
 30
0.0
 40
3.0
 41
0.0
 71
     5
 72
     1
  1
2t
 11
0.0000000000000001
 21
1.0
 31
0.0
 73
     1
 44
1.0
1001
ACAD
1000
MTEXTBEGIN
1070
    73
1070
     1
1070
    44
1040
1.0
1070
    74
1070
     0
1000
MTEXTEND
  0
POINT
  5
1277
330
121A
100
AcDbEntity
  8
Defpoints
 62
     0
100
AcDbPoint
 10
-18.50381247822992
 20
73.87332744756992
 30
0.0
  0
POINT
  5
1278
330
121A
100
AcDbEntity
  8
Defpoints
 62
     0
100
AcDbPoint
 10
-18.78067947823007
 20
76.87332744756992
 30
0.0
  0
POINT
  5
1279
330
121A
100
AcDbEntity
  8
Defpoints
 62
     0
100
AcDbPoint
 10
-12.09733147822993
 20
76.87332744756992
 30
0.0
  0
ENDBLK
  5
121C
330
121A
100
AcDbEntity
  8
0
100
AcDbBlockEnd
  0
BLOCK
  5
1229
330
1228
100
AcDbEntity
  8
0
100
AcDbBlockBegin
  2
*D23
 70
     1
 10
0.0
 20
0.0
 30
0.0
  3
*D23
  1

  0
LINE
  5
127A
330
1228
100
AcDbEntity
  8
0
 62
     0
370
    -2
100
AcDbLine
 10
-180.6947724125688
 20
55.90030686869731
 30
0.0
 11
-202.1510415438917
 21
95.45569302644254
 31
0.0
  0
INSERT
  5
127B
330
1228
100
AcDbEntity
  8
0
 62
     0
370
    -2
100
AcDbBlockReference
  2
_Open30
 10
-179.5027574782302
 20
53.70278544756985
 30
0.0
 41
2.5
 42
2.5
 43
2.5
 50
298.4770020669826
  0
INSERT
  5
127C
330
1228
100
AcDbEntity
  8
0
 62
     0
370
    -2
100
AcDbBlockReference
  2
_Open30
 10
-203.3430564782302
 20
97.65321444756999
 30
0.0
 41
2.5
 42
2.5
 43
2.5
 50
118.4770020669826
  0
MTEXT
  5
127D
102
{ACAD_XDICTIONARY
360
1533
102
}
330
1228
100
AcDbEntity
  8
0
 62
     4
100
AcDbMText
 10
-189.5550137702719
 20
76.6912126417576
 30
0.0
 40
3.0
 41
0.0
 71
     5
 72
     1
  1
\U+220550
 11
0.476805973735393
 21
-0.8790085684509815
 31
0.0
 73
     1
 44
1.0
1001
ACAD
1000
MTEXTBEGIN
1070
    73
1070
     1
1070
    44
1040
1.0
1070
    74
1070
     0
1000
MTEXTEND
  0
POINT
  5
127E
330
1228
100
AcDbEntity
  8
Defpoints
 62
     0
100
AcDbPoint
 10
-203.3430564782302
 20
97.65321444756999
 30
0.0
  0
POINT
  5
127F
330
1228
100
AcDbEntity
  8
Defpoints
 62
     0
100
AcDbPoint
 10
-179.5027574782302
 20
53.70278544756985
 30
0.0
  0
ENDBLK
  5
122A
330
1228
100
AcDbEntity
  8
0
100
AcDbBlockEnd
  0
BLOCK
  5
1232
330
1231
100
AcDbEntity
  8
0
100
AcDbBlockBegin
  2
*D24
 70
     1
 10
0.0
 20
0.0
 30
0.0
  3
*D24
  1

  0
LINE
  5
1280
330
1231
100
AcDbEntity
  8
0
 62
     0
370
    -2
100
AcDbLine
 10
-191.67290647823
 20
38.67800044756993
 30
0.0
 11
-239.2606994782299
 21
38.67800044756993
 31
0.0
  0
LINE
  5
1281
330
1231
100
AcDbEntity
  8
0
 62
     0
370
    -2
100
AcDbLine
 10
-182.0599554782299
 20
120.4148724475699
 30
0.0
 11
-239.2606994782298
 21
120.4148724475699
 31
0.0
  0
LINE
  5
1282
330
1231
100
AcDbEntity
  8
0
 62
     0
370
    -2
100
AcDbLine
 10
-238.0106994782299
 20
41.17800044756993
 30
0.0
 11
-238.0106994782299
 21
117.9148724475699
 31
0.0
  0
INSERT
  5
1283
330
1231
100
AcDbEntity
  8
0
 62
     0
370
    -2
100
AcDbBlockReference
  2
_Open30
 10
-238.0106994782299
 20
38.67800044756993
 30
0.0
 41
2.5
 42
2.5
 43
2.5
 50
270.0
  0
INSERT
  5
1284
330
1231
100
AcDbEntity
  8
0
 62
     0
370
    -2
100
AcDbBlockReference
  2
_Open30
 10
-238.0106994782299
 20
120.4148724475699
 30
0.0
 41
2.5
 42
2.5
 43
2.5
 50
90.0
  0
MTEXT
  5
1285
330
1231
100
AcDbEntity
  8
0
 62
     4
100
AcDbMText
 10
-240.1356994782299
 20
79.54643644756989
 30
0.0
 40
3.0
 41
0.0
 71
     5
 72
     1
  1
82
 11
0.0000000000000001
 21
1.0
 31
0.0
 73
     1
 44
1.0
1001
ACAD
1000
MTEXTBEGIN
1070
    73
1070
     1
1070
    44
1040
1.0
1070
    74
1070
     0
1000
MTEXTEND
  0
POINT
  5
1286
330
1231
100
AcDbEntity
  8
Defpoints
 62
     0
100
AcDbPoint
 10
-191.42290647823
 20
38.67800044756993
 30
0.0
  0
POINT
  5
1287
330
1231
100
AcDbEntity
  8
Defpoints
 62
     0
100
AcDbPoint
 10
-181.8099554782299
 20
120.4148724475699
 30
0.0
  0
POINT
  5
1288
330
1231
100
AcDbEntity
  8
Defpoints
 62
     0
100
AcDbPoint
 10
-238.0106994782299
 20
120.4148724475699
 30
0.0
  0
ENDBLK
  5
1233
330
1231
100
AcDbEntity
  8
0
100
AcDbBlockEnd
  0
BLOCK
  5
123E
330
123D
100
AcDbEntity
  8
0
100
AcDbBlockBegin
  2
*D25
 70
     1
 10
0.0
 20
0.0
 30
0.0
  3
*D25
  1

  0
LINE
  5
1289
330
123D
100
AcDbEntity
  8
0
 62
     0
370
    -2
100
AcDbLine
 10
-228.4279564782301
 20
-12.73044955243007
 30
0.0
 11
-228.4279564782301
 21
12.25821844756993
 31
0.0
  0
LINE
  5
128A
330
123D
100
AcDbEntity
  8
0
 62
     0
370
    -2
100
AcDbLine
 10
-140.4646304782299
 20
-8.215533552430073
 30
0.0
 11
-140.4646304782299
 21
12.25821844756993
 31
0.0
  0
LINE
  5
128B
330
123D
100
AcDbEntity
  8
0
 62
     0
370
    -2
100
AcDbLine
 10
-225.92795647823
 20
11.00821844756993
 30
0.0
 11
-142.9646304782298
 21
11.00821844756993
 31
0.0
  0
INSERT
  5
128C
330
123D
100
AcDbEntity
  8
0
 62
     0
370
    -2
100
AcDbBlockReference
  2
_Open30
 10
-228.4279564782301
 20
11.00821844756993
 30
0.0
 41
2.5
 42
2.5
 43
2.5
 50
180.0
  0
INSERT
  5
128D
330
123D
100
AcDbEntity
  8
0
 62
     0
370
    -2
100
AcDbBlockReference
  2
_Open30
 10
-140.4646304782299
 20
11.00821844756993
 30
0.0
 41
2.5
 42
2.5
 43
2.5
  0
MTEXT
  5
128E
330
123D
100
AcDbEntity
  8
0
 62
     4
100
AcDbMText
 10
-184.4462934782299
 20
13.13321844756993
 30
0.0
 40
3.0
 41
0.0
 71
     5
 72
     1
  1
88
 73
     1
 44
1.0
1001
ACAD
1000
MTEXTBEGIN
1070
    73
1070
     1
1070
    44
1040
1.0
1070
    74
1070
     0
1000
MTEXTEND
  0
POINT
  5
128F
330
123D
100
AcDbEntity
  8
Defpoints
 62
     0
100
AcDbPoint
 10
-228.4279564782301
 20
-12.98044955243007
 30
0.0
  0
POINT
  5
1290
330
123D
100
AcDbEntity
  8
Defpoints
 62
     0
100
AcDbPoint
 10
-140.4646304782299
 20
-8.465533552430073
 30
0.0
  0
POINT
  5
1291
330
123D
100
AcDbEntity
  8
Defpoints
 62
     0
100
AcDbPoint
 10
-140.4646304782299
 20
11.00821844756993
 30
0.0
  0
ENDBLK
  5
123F
330
123D
100
AcDbEntity
  8
0
100
AcDbBlockEnd
  0
ENDSEC
  0
SECTION
  2
ENTITIES
  0
LINE
  5
4D5
330
6B
100
AcDbEntity
  8
0
 62
     3
100
AcDbLine
 10
-517.6879330224193
 20
71.51521249226043
 30
0.0
 11
-517.6879330224193
 21
70.01521249226043
 31
0.0
  0
LINE
  5
4D6
330
6B
100
AcDbEntity
  8
0
 62
     3
100
AcDbLine
 10
-517.6879330224193
 20
71.51521249226043
 30
0.0
 11
-513.1879330224193
 21
71.51521249226043
 31
0.0
  0
LINE
  5
4D7
330
6B
100
AcDbEntity
  8
0
 62
     3
100
AcDbLine
 10
-513.1879330224193
 20
71.51521249226043
 30
0.0
 11
-508.6879330224192
 21
70.01521249226043
 31
0.0
  0
LINE
  5
4D8
330
6B
100
AcDbEntity
  8
0
 62
     3
100
AcDbLine
 10
-505.6879330224192
 20
70.01521249226043
 30
0.0
 11
-508.6879330224192
 21
70.01521249226043
 31
0.0
  0
LINE
  5
4D9
330
6B
100
AcDbEntity
  8
0
 62
     3
100
AcDbLine
 10
-517.6879330224193
 20
70.01521249226043
 30
0.0
 11
-520.7997000224191
 21
70.01521249226043
 31
0.0
  0
LINE
  5
4DA
330
6B
100
AcDbEntity
  8
0
 62
     3
100
AcDbLine
 10
-505.6879330224192
 20
71.51521249226043
 30
0.0
 11
-501.1879330224192
 21
71.51521249226043
 31
0.0
  0
LINE
  5
4DB
330
6B
100
AcDbEntity
  8
0
 62
     3
100
AcDbLine
 10
-505.6879330224192
 20
71.51521249226043
 30
0.0
 11
-505.6879330224192
 21
70.01521249226043
 31
0.0
  0
LINE
  5
4DC
330
6B
100
AcDbEntity
  8
0
 62
     3
100
AcDbLine
 10
-491.4191710224192
 20
73.01521249226043
 30
0.0
 11
-523.6775940224194
 21
73.01521249226043
 31
0.0
  0
LINE
  5
4DD
330
6B
100
AcDbEntity
  8
0
 62
     3
100
AcDbLine
 10
-523.7569560224193
 20
71.03822049226043
 30
0.0
 11
-520.6879330224193
 21
70.01521249226043
 31
0.0
  0
LINE
  5
4DE
330
6B
100
AcDbEntity
  8
0
 62
     3
100
AcDbLine
 10
-501.1879330224192
 20
71.51521249226043
 30
0.0
 11
-496.6879330224192
 21
70.01521249226043
 31
0.0
  0
LINE
  5
4DF
330
6B
100
AcDbEntity
  8
0
 62
     3
100
AcDbLine
 10
-496.6879330224192
 20
70.01521249226043
 30
0.0
 11
-492.4748570224192
 21
70.01521249226043
 31
0.0
  0
LINE
  5
4E0
330
6B
100
AcDbEntity
  8
0
 62
     3
100
AcDbLine
 10
-391.1700620224193
 20
72.28737149226043
 30
0.0
 11
-409.1047220224192
 21
72.28737149226043
 31
0.0
  0
ARC
  5
4E1
330
6B
100
AcDbEntity
  8
0
 62
     3
100
AcDbCircle
 10
-367.1913830224194
 20
80.01298149226043
 30
0.0
 40
0.75
100
AcDbArc
 50
0.0
 51
90.0
  0
LINE
  5
4E2
330
6B
100
AcDbEntity
  8
0
 62
     3
100
AcDbLine
 10
-375.4761930224193
 20
80.76298149226042
 30
0.0
 11
-367.1913830224194
 21
80.76298149226042
 31
0.0
  0
ARC
  5
4E3
330
6B
100
AcDbEntity
  8
0
 62
     3
100
AcDbCircle
 10
-375.4761930224193
 20
80.01298149226043
 30
0.0
 40
0.75
100
AcDbArc
 50
90.0
 51
178.3633029999999
  0
LINE
  5
4E4
330
6B
100
AcDbEntity
  8
0
  6
HIDDEN
 62
    15
100
AcDbLine
 10
-376.2258870224193
 20
79.03440249226044
 30
0.0
 11
-376.2257680224193
 21
79.03857249226041
 31
0.0
  0
LINE
  5
4E5
330
6B
100
AcDbEntity
  8
0
 62
     3
100
AcDbLine
 10
-390.8344120224193
 20
72.63798149226042
 30
0.0
 11
-390.8344120224193
 21
72.70403349226043
 31
0.0
  0
ARC
  5
4E6
330
6B
100
AcDbEntity
  8
0
 62
     3
100
AcDbCircle
 10
-390.0844120224192
 20
72.70403349226043
 30
0.0
 40
0.75
100
AcDbArc
 50
95.27473400000014
 51
180.0
  0
ARC
  5
4E7
330
6B
100
AcDbEntity
  8
0
 62
     3
100
AcDbCircle
 10
-391.2094120224193
 20
72.63798149226042
 30
0.0
 40
0.375
100
AcDbArc
 50
270.0
 51
0.0
  0
LINE
  5
4E8
330
6B
100
AcDbEntity
  8
0
 62
     3
100
AcDbLine
 10
-592.1682770224192
 20
72.28882449226043
 30
0.0
 11
-592.1682770224192
 21
70.78882449226043
 31
0.0
  0
LINE
  5
4E9
330
6B
100
AcDbEntity
  8
0
 62
     3
100
AcDbLine
 10
-588.6830780224193
 20
73.94734749226043
 30
0.0
 11
-602.6867550224193
 21
73.94734749226043
 31
0.0
  0
ARC
  5
4EA
330
6B
100
AcDbEntity
  8
0
 62
     3
100
AcDbCircle
 10
-588.6830780224193
 20
71.44734749226043
 30
0.0
 40
2.5
100
AcDbArc
 50
17.45760299999989
 51
90.0
  0
CIRCLE
  5
4EB
330
6B
100
AcDbEntity
  8
0
100
AcDbCircle
 10
-507.1912750224193
 20
69.96298149226041
 30
0.0
 40
16.957712
  0
LINE
  5
4EC
330
6B
100
AcDbEntity
  8
0
 62
     3
100
AcDbLine
 10
-586.2982300224192
 20
70.69734749226043
 30
0.0
 11
-602.6867550224193
 21
68.99958049226042
 31
0.0
  0
LINE
  5
4ED
330
6B
100
AcDbEntity
  8
0
 62
     3
100
AcDbLine
 10
-366.1938830224193
 20
70.76298149226042
 30
0.0
 11
-366.4413830224193
 21
80.01298149226043
 31
0.0
  0
LINE
  5
4EE
330
6B
100
AcDbEntity
  8
0
 62
     3
100
AcDbLine
 10
-381.9385500224194
 20
76.55487149226043
 30
0.0
 11
-376.2358920224193
 21
79.53642749226045
 31
0.0
  0
LINE
  5
4EF
330
6B
100
AcDbEntity
  8
0
 62
     3
100
AcDbLine
 10
-603.1909600224194
 20
74.49616949226044
 30
0.0
 11
-602.6713020224192
 21
73.93052649226044
 31
0.0
  0
LINE
  5
4F0
330
6B
100
AcDbEntity
  8
0
 62
     3
100
AcDbLine
 10
-603.1909600224194
 20
68.49616949226042
 30
0.0
 11
-602.6713020224192
 21
69.00321149226043
 31
0.0
  0
LINE
  5
4F1
330
6B
100
AcDbEntity
  8
0
 62
     3
100
AcDbLine
 10
-602.6867550224193
 20
73.94734749226043
 30
0.0
 11
-602.6867550224193
 21
69.00093949226043
 31
0.0
  0
LINE
  5
4F2
330
6B
100
AcDbEntity
  8
0
 62
     3
100
AcDbLine
 10
-381.9385500224194
 20
77.53521249226044
 30
0.0
 11
-385.9215770224194
 21
77.53521249226044
 31
0.0
  0
LINE
  5
4F3
330
6B
100
AcDbEntity
  8
0
 62
     3
100
AcDbLine
 10
-385.9215770224194
 20
74.76537949226042
 30
0.0
 11
-385.9215770224194
 21
77.53521249226044
 31
0.0
  0
LINE
  5
4F4
330
6B
100
AcDbEntity
  8
0
 62
     3
100
AcDbLine
 10
-381.9385500224194
 20
77.53521249226044
 30
0.0
 11
-381.9385500224194
 21
76.00262949226041
 31
0.0
  0
LINE
  5
4F5
330
6B
100
AcDbEntity
  8
0
 62
     3
100
AcDbLine
 10
-391.0763780224194
 20
72.28737149226043
 30
0.0
 11
-391.0763780224194
 21
70.76298149226042
 31
0.0
  0
LINE
  5
4F6
330
6B
100
AcDbEntity
  8
0
 62
     3
100
AcDbLine
 10
-376.2715220224194
 20
77.76298149226042
 30
0.0
 11
-390.1533600224194
 21
73.45085749226043
 31
0.0
  0
LINE
  5
4F7
330
6B
100
AcDbEntity
  8
0
 62
     3
100
AcDbLine
 10
-376.2258870224193
 20
80.03440249226043
 30
0.0
 11
-376.2475030224193
 21
77.77044249226044
 31
0.0
  0
LINE
  5
4F8
330
6B
100
AcDbEntity
  8
0
 62
     3
100
AcDbLine
 10
-621.4294500224192
 20
76.46179149226043
 30
0.0
 11
-617.6464040224192
 21
76.46179149226043
 31
0.0
  0
LINE
  5
4F9
330
6B
100
AcDbEntity
  8
0
 62
     3
100
AcDbLine
 10
-618.5193750224192
 20
66.46179149226043
 30
0.0
 11
-617.6464040224192
 21
66.46179149226043
 31
0.0
  0
ARC
  5
4FA
330
6B
100
AcDbEntity
  8
0
 62
     3
100
AcDbCircle
 10
-618.5637390224193
 20
61.46148249226043
 30
0.0
 40
5.0
100
AcDbArc
 50
90.0
 51
136.0903720000011
  0
LINE
  5
4FB
330
6B
100
AcDbEntity
  8
0
 62
     3
100
AcDbLine
 10
-624.9703190224193
 20
64.89969349226043
 30
0.0
 11
-633.3412080224193
 21
56.20397849226042
 31
0.0
  0
LINE
  5
4FC
330
6B
100
AcDbEntity
  8
0
 62
     3
100
AcDbLine
 10
-616.1463210224193
 20
76.99616949226044
 30
0.0
 11
-616.1463210224193
 21
65.99616949226042
 31
0.0
  0
ARC
  5
4FD
330
6B
100
AcDbEntity
  8
0
 62
     3
100
AcDbCircle
 10
-614.1463210224193
 20
65.99616949226042
 30
0.0
 40
2.0
100
AcDbArc
 50
180.0
 51
270.0
  0
ARC
  5
4FE
330
6B
100
AcDbEntity
  8
0
 62
     3
100
AcDbCircle
 10
-614.1463210224193
 20
76.99616949226044
 30
0.0
 40
2.0
100
AcDbArc
 50
90.0
 51
180.0
  0
LINE
  5
4FF
330
6B
100
AcDbEntity
  8
0
 62
     3
100
AcDbLine
 10
-616.1080340224192
 20
77.29798549226043
 30
0.0
 11
-617.6080340224192
 21
76.76572749226044
 31
0.0
  0
LINE
  5
500
330
6B
100
AcDbEntity
  8
0
 62
     3
100
AcDbLine
 10
-617.6463210224193
 20
66.24019649226042
 30
0.0
 11
-617.6463210224193
 21
76.75214149226042
 31
0.0
  0
LINE
  5
501
330
6B
100
AcDbEntity
  8
0
 62
     3
100
AcDbLine
 10
-605.1463210224193
 20
63.99616949226043
 30
0.0
 11
-614.1463210224193
 21
63.99616949226043
 31
0.0
  0
LINE
  5
502
330
6B
100
AcDbEntity
  8
0
 62
     3
100
AcDbLine
 10
-605.1463210224193
 20
78.99616949226043
 30
0.0
 11
-614.1463210224193
 21
78.99616949226043
 31
0.0
  0
LINE
  5
503
330
6B
100
AcDbEntity
  8
0
 62
     3
100
AcDbLine
 10
-612.3463210224192
 20
66.29616949226043
 30
0.0
 11
-612.3463210224192
 21
76.69616949226043
 31
0.0
  0
LINE
  5
504
330
6B
100
AcDbEntity
  8
0
 62
     3
100
AcDbLine
 10
-608.1463210224193
 20
66.29616949226043
 30
0.0
 11
-612.3463210224192
 21
66.29616949226043
 31
0.0
  0
ARC
  5
505
330
6B
100
AcDbEntity
  8
0
 62
     3
100
AcDbCircle
 10
-605.1463210224193
 20
65.99616949226042
 30
0.0
 40
2.0
100
AcDbArc
 50
270.0
 51
0.0
  0
LINE
  5
506
330
6B
100
AcDbEntity
  8
0
 62
     3
100
AcDbLine
 10
-603.1463210224193
 20
65.99616949226042
 30
0.0
 11
-603.1463210224193
 21
68.39616949226043
 31
0.0
  0
LINE
  5
507
330
6B
100
AcDbEntity
  8
0
 62
     3
100
AcDbLine
 10
-603.1463210224193
 20
76.99616949226044
 30
0.0
 11
-603.1463210224193
 21
74.59616949226044
 31
0.0
  0
ARC
  5
508
330
6B
100
AcDbEntity
  8
0
 62
     3
100
AcDbCircle
 10
-605.1463210224193
 20
76.99616949226044
 30
0.0
 40
2.0
100
AcDbArc
 50
0.0
 51
90.0
  0
LINE
  5
509
330
6B
100
AcDbEntity
  8
0
 62
     3
100
AcDbLine
 10
-608.1463210224193
 20
76.69616949226043
 30
0.0
 11
-612.3463210224192
 21
76.69616949226043
 31
0.0
  0
LINE
  5
50A
330
6B
100
AcDbEntity
  8
0
 62
     3
100
AcDbLine
 10
-603.1463210224193
 20
68.39616949226043
 30
0.0
 11
-608.1463210224193
 21
68.39616949226043
 31
0.0
  0
LINE
  5
50B
330
6B
100
AcDbEntity
  8
0
 62
     3
100
AcDbLine
 10
-603.1463210224193
 20
74.59616949226044
 30
0.0
 11
-608.1463210224193
 21
74.59616949226044
 31
0.0
  0
ARC
  5
50C
330
6B
100
AcDbEntity
  8
0
 62
     3
100
AcDbCircle
 10
-649.1907690224193
 20
71.46148249226043
 30
0.0
 40
22.0
100
AcDbArc
 50
101.7204239999995
 51
316.090372000001
  0
ARC
  5
50D
330
6B
100
AcDbEntity
  8
0
 62
     3
100
AcDbCircle
 10
-649.5761950224192
 20
71.49616949226043
 30
0.0
 40
21.890875
100
AcDbArc
 50
82.24429899999973
 51
100.7510630000001
  0
LINE
  5
50E
330
6B
100
AcDbEntity
  8
0
 62
     3
100
AcDbLine
 10
-616.1080340224192
 20
65.69435349226043
 30
0.0
 11
-617.6080340224192
 21
66.22661149226043
 31
0.0
  0
LINE
  5
50F
330
6B
100
AcDbEntity
  8
0
 62
     3
100
AcDbLine
 10
-618.0941610224192
 20
70.89393349226043
 30
0.0
 11
-620.0552950224192
 21
68.99180149226044
 31
0.0
  0
LINE
  5
510
330
6B
100
AcDbEntity
  8
0
 62
     3
100
AcDbLine
 10
-620.1828390224193
 20
73.04740049226044
 30
0.0
 11
-622.1439730224192
 21
71.14526949226044
 31
0.0
  0
ARC
  5
511
330
6B
100
AcDbEntity
  8
0
 62
     3
100
AcDbCircle
 10
-621.0996340224193
 20
70.06853549226042
 30
0.0
 40
1.5
100
AcDbArc
 50
134.1250050000002
 51
314.1250050000002
  0
ARC
  5
512
330
6B
100
AcDbEntity
  8
0
 62
     3
100
AcDbCircle
 10
-619.1385000224193
 20
71.97066749226043
 30
0.0
 40
1.5
100
AcDbArc
 50
314.1250050000002
 51
134.1250050000002
  0
ARC
  5
513
330
6B
100
AcDbEntity
  8
0
 62
     3
100
AcDbCircle
 10
-626.4111890224192
 20
66.28673949226044
 30
0.0
 40
2.0
100
AcDbArc
 50
316.090372000001
 51
136.0903780000009
  0
LINE
  5
514
330
6B
100
AcDbEntity
  8
0
 62
     3
100
AcDbLine
 10
-639.3766450224193
 20
94.11177349226042
 30
0.0
 11
-641.4498680224193
 21
92.28630049226044
 31
0.0
  0
LINE
  5
515
330
6B
100
AcDbEntity
  8
0
 62
     3
100
AcDbLine
 10
-641.3591640224192
 20
96.36335549226044
 30
0.0
 11
-643.4323860224193
 21
94.5378824922604
 31
0.0
  0
ARC
  5
516
330
6B
100
AcDbEntity
  8
0
 62
     3
100
AcDbCircle
 10
-640.3679050224193
 20
95.23756449226043
 30
0.0
 40
1.5
100
AcDbArc
 50
311.3639260000009
 51
131.363922999999
  0
ARC
  5
517
330
6B
100
AcDbEntity
  8
0
 62
     3
100
AcDbCircle
 10
-642.4411270224193
 20
93.41209149226044
 30
0.0
 40
1.5
100
AcDbArc
 50
131.3639260000008
 51
311.3639260000009
  0
LINE
  5
518
330
6B
100
AcDbEntity
  8
0
 62
     3
100
AcDbLine
 10
-637.8153530224192
 20
97.01395749226044
 30
0.0
 11
-640.4397120224192
 21
100.8188904922604
 31
0.0
  0
ARC
  5
519
330
6B
100
AcDbEntity
  8
0
 62
     3
100
AcDbCircle
 10
-641.0676860224192
 20
100.3857604922604
 30
0.0
 40
0.7628580000000002
100
AcDbArc
 50
34.59502199999948
 51
201.9794969999995
  0
LINE
  5
51A
330
6B
100
AcDbEntity
  8
0
 62
     3
100
AcDbLine
 10
-644.7579710224194
 20
87.37491949226043
 30
0.0
 11
-638.3023920224193
 21
93.05905849226043
 31
0.0
  0
LINE
  5
51B
330
6B
100
AcDbEntity
  8
0
 62
     3
100
AcDbLine
 10
-641.4141820224194
 20
98.31350549226044
 30
0.0
 11
-644.9797080224192
 21
95.17405949226043
 31
0.0
  0
LINE
  5
51C
330
6B
100
AcDbEntity
  8
0
  6
HIDDEN
 62
    15
100
AcDbLine
 10
-643.7496760224194
 20
88.26272349226043
 30
0.0
 11
-644.0961080224192
 21
87.95769049226043
 31
0.0
  0
ARC
  5
51D
330
6B
100
AcDbEntity
  8
0
 62
     3
100
AcDbCircle
 10
-645.3101280224192
 20
95.5493234922604
 30
0.0
 40
0.5
100
AcDbArc
 50
259.9426090000011
 51
311.3639260000009
  0
ARC
  5
51E
330
6B
100
AcDbEntity
  8
0
 62
     3
100
AcDbCircle
 10
-640.2849100224194
 20
95.31064049226044
 30
0.0
 40
3.0
100
AcDbArc
 50
311.3639260000009
 51
34.59502199999948
  0
LINE
  5
51F
330
6B
100
AcDbEntity
  8
0
 62
     3
100
AcDbLine
 10
-625.0316230224192
 20
74.92940549226045
 30
0.0
 11
-638.3842500224193
 21
61.05863849226043
 31
0.0
  0
ARC
  5
520
330
6B
100
AcDbEntity
  8
0
 62
     3
100
AcDbCircle
 10
-649.1907690224193
 20
71.46148249226043
 30
0.0
 40
15.0
100
AcDbArc
 50
84.5958139999991
 51
316.090372000001
  0
ARC
  5
521
330
6B
100
AcDbEntity
  8
0
 62
     3
100
AcDbCircle
 10
-647.4013290224193
 20
90.37702949226043
 30
0.0
 40
4.0
100
AcDbArc
 50
264.5958139999991
 51
311.3639260000009
  0
ARC
  5
522
330
6B
100
AcDbEntity
  8
0
 62
     3
100
AcDbCircle
 10
-621.4294500224192
 20
71.46179149226043
 30
0.0
 40
5.0
100
AcDbArc
 50
90.0
 51
136.0903720000011
  0
LINE
  5
523
330
6B
100
AcDbEntity
  8
0
  6
HIDDEN
 62
    15
100
AcDbLine
 10
-625.0316230224192
 20
74.92940549226045
 30
0.0
 11
-624.3643030224193
 21
75.62261949226044
 31
0.0
  0
LINE
  5
524
330
6B
100
AcDbEntity
  8
0
 62
     3
100
AcDbLine
 10
-627.8520580224193
 20
67.67378549226044
 30
0.0
 11
-629.9493240224193
 21
69.82087649226044
 31
0.0
  0
LINE
  5
525
330
6B
100
AcDbEntity
  8
0
 62
     3
100
AcDbLine
 10
-632.0375020224194
 20
63.32592749226042
 30
0.0
 11
-634.0469610224192
 21
65.56423349226043
 31
0.0
  0
LINE
  5
526
330
6B
100
AcDbEntity
  8
0
 62
     3
100
AcDbLine
 10
-649.5761950224192
 20
86.45652949226045
 30
0.0
 11
-649.5761950224192
 21
89.45735549226043
 31
0.0
  0
LINE
  5
527
330
6B
100
AcDbEntity
  8
0
 62
     3
100
AcDbLine
 10
-641.4141820224194
 20
98.31350549226044
 30
0.0
 11
-640.9194000224194
 21
98.70942149226044
 31
0.0
  0
LINE
  5
528
330
6B
100
AcDbEntity
  8
0
 62
     3
100
AcDbLine
 10
-641.7750970224192
 20
100.1002424922604
 30
0.0
 11
-640.9194000224194
 21
98.70942149226044
 31
0.0
  0
ARC
  5
529
330
6B
100
AcDbEntity
  8
0
 62
     3
100
AcDbCircle
 10
-649.1907690224193
 20
71.46148249226043
 30
0.0
 40
25.0
100
AcDbArc
 50
95.95313600000149
 51
316.090372000001
  0
LINE
  5
52A
330
6B
100
AcDbEntity
  8
0
 62
     3
100
AcDbLine
 10
-622.1659120224193
 20
64.92909749226043
 30
0.0
 11
-631.1799040224192
 21
54.12340949226043
 31
0.0
  0
LINE
  5
52B
330
6B
100
AcDbEntity
  8
0
 62
     3
100
AcDbLine
 10
-645.3974450224193
 20
95.0570064922604
 30
0.0
 11
-651.7836430224194
 21
96.32665949226044
 31
0.0
  0
ARC
  5
52C
330
6B
100
AcDbEntity
  8
0
 62
     3
100
AcDbCircle
 10
-649.1907690224193
 20
71.46148249226043
 30
0.0
 40
18.5
100
AcDbArc
 50
83.35525899999987
 51
316.090372000001
  0
LINE
  5
52D
330
6B
100
AcDbEntity
  8
0
 62
     3
100
AcDbLine
 10
-627.8520580224193
 20
67.67378549226044
 30
0.0
 11
-635.8627290224193
 21
58.63130849226043
 31
0.0
  0
ARC
  5
52E
330
6B
100
AcDbEntity
  8
0
 62
     3
100
AcDbCircle
 10
-646.8202730224192
 20
91.51015249226043
 30
0.0
 40
1.688324
100
AcDbArc
 50
263.256823000001
 51
83.25682300000094
  0
LINE
  5
52F
330
6B
100
AcDbEntity
  8
0
 62
     3
100
AcDbLine
 10
-629.1578220224192
 20
60.54969849226043
 30
0.0
 11
-627.1567240224193
 21
58.63905649226043
 31
0.0
  0
LINE
  5
530
330
6B
100
AcDbEntity
  8
0
 62
     3
100
AcDbLine
 10
-625.0570290224193
 20
64.80961949226042
 30
0.0
 11
-623.5343830224193
 21
63.24930849226042
 31
0.0
  0
LINE
  5
531
330
6B
100
AcDbEntity
  8
0
 62
     3
100
AcDbLine
 10
-653.4900040224194
 20
89.45499749226042
 30
0.0
 11
-652.6062950224193
 21
86.06744649226042
 31
0.0
  0
LINE
  5
532
330
6B
100
AcDbEntity
  8
0
 62
     3
100
AcDbLine
 10
-654.4698520224193
 20
92.81871249226043
 30
0.0
 11
-655.3095020224193
 21
95.70114249226042
 31
0.0
  0
LINE
  5
533
330
6B
100
AcDbEntity
  8
0
 62
     3
100
AcDbLine
 10
-608.1463210224193
 20
66.29616949226043
 30
0.0
 11
-608.1463210224193
 21
76.69616949226043
 31
0.0
  0
LINE
  5
534
330
6B
100
AcDbEntity
  8
0
 62
     3
100
AcDbLine
 10
-603.1463210224193
 20
71.49616949226043
 30
0.0
 11
-608.1463210224193
 21
71.49616949226043
 31
0.0
  0
LINE
  5
535
330
6B
100
AcDbEntity
  8
0
  6
DASHED
100
AcDbLine
 10
-547.6062610224191
 20
-1.953521507739568
 30
0.0
 11
-547.6062610224191
 21
8.54647849226043
 31
0.0
  0
LINE
  5
536
330
6B
100
AcDbEntity
  8
0
  6
DASHED
100
AcDbLine
 10
-500.3562610224192
 20
8.54647849226043
 30
0.0
 11
-500.3562610224192
 21
-1.953521507739568
 31
0.0
  0
LINE
  5
537
330
6B
100
AcDbEntity
  8
0
  6
DASHED
100
AcDbLine
 10
-495.8562610224192
 20
8.54647849226043
 30
0.0
 11
-495.8562610224192
 21
-1.953521507739568
 31
0.0
  0
LINE
  5
538
330
6B
100
AcDbEntity
  8
0
  6
DASHED
100
AcDbLine
 10
-498.1062610224192
 20
8.54647849226043
 30
0.0
 11
-498.1062610224192
 21
-1.953521507739568
 31
0.0
  0
LINE
  5
539
330
6B
100
AcDbEntity
  8
0
 62
     3
100
AcDbLine
 10
-533.8031710224193
 20
10.84124449226043
 30
0.0
 11
-554.5837020224191
 21
10.84124449226043
 31
0.0
  0
LINE
  5
53A
330
6B
100
AcDbEntity
  8
0
 62
     3
100
AcDbLine
 10
-391.3571230224193
 20
-4.248287507739568
 30
0.0
 11
-390.6563870224193
 21
-4.248287507739568
 31
0.0
  0
LINE
  5
53B
330
6B
100
AcDbEntity
  8
0
 62
     3
100
AcDbLine
 10
-391.3571230224193
 20
10.84124449226043
 30
0.0
 11
-390.6563870224193
 21
10.84124449226043
 31
0.0
  0
LINE
  5
53C
330
6B
100
AcDbEntity
  8
0
  6
DASHED
100
AcDbLine
 10
-501.8562610224193
 20
3.33732349226043
 30
0.0
 11
-501.8562610224193
 21
-1.953521507739568
 31
0.0
  0
LINE
  5
53D
330
6B
100
AcDbEntity
  8
0
  6
DASHED
100
AcDbLine
 10
-500.3562610224192
 20
-1.953521507739568
 30
0.0
 11
-495.8562610224192
 21
-1.953521507739568
 31
0.0
  0
LINE
  5
53E
330
6B
100
AcDbEntity
  8
0
  6
DASHED
100
AcDbLine
 10
-500.3562610224192
 20
8.54647849226043
 30
0.0
 11
-495.8562610224192
 21
8.54647849226043
 31
0.0
  0
LINE
  5
53F
330
6B
100
AcDbEntity
  8
0
  6
DASHED
100
AcDbLine
 10
-505.6062610224192
 20
8.54647849226043
 30
0.0
 11
-505.6062610224192
 21
-1.953521507739568
 31
0.0
  0
LINE
  5
540
330
6B
100
AcDbEntity
  8
0
  6
DASHED
100
AcDbLine
 10
-503.3562610224192
 20
8.54647849226043
 30
0.0
 11
-503.3562610224192
 21
3.98191749226043
 31
0.0
  0
LINE
  5
541
330
6B
100
AcDbEntity
  8
0
 62
     3
100
AcDbLine
 10
-370.8463400224193
 20
-1.201107507739569
 30
0.0
 11
-370.8463400224193
 21
7.798892492260431
 31
0.0
  0
ARC
  5
542
330
6B
100
AcDbEntity
  8
0
 62
     3
100
AcDbCircle
 10
-367.8463400224193
 20
13.79889249226043
 30
0.0
 40
1.5
100
AcDbArc
 50
0.0
 51
90.0
  0
ARC
  5
543
330
6B
100
AcDbEntity
  8
0
 62
     3
100
AcDbCircle
 10
-367.8463400224193
 20
-7.201107507739568
 30
0.0
 40
1.5
100
AcDbArc
 50
270.0
 51
0.0
  0
LINE
  5
544
330
6B
100
AcDbEntity
  8
0
 62
     3
100
AcDbLine
 10
-370.0963400224193
 20
-4.201107507739568
 30
0.0
 11
-370.0963400224193
 21
-3.826107507739568
 31
0.0
  0
LINE
  5
545
330
6B
100
AcDbEntity
  8
0
 62
     3
100
AcDbLine
 10
-370.0963400224193
 20
10.79889249226043
 30
0.0
 11
-370.0963400224193
 21
10.42389249226043
 31
0.0
  0
ARC
  5
546
330
6B
100
AcDbEntity
  8
0
 62
     3
100
AcDbCircle
 10
-370.4713400224193
 20
10.79889249226043
 30
0.0
 40
0.375
100
AcDbArc
 50
0.0
 51
90.0
  0
ARC
  5
547
330
6B
100
AcDbEntity
  8
0
 62
     3
100
AcDbCircle
 10
-370.4713400224193
 20
-4.201107507739568
 30
0.0
 40
0.375
100
AcDbArc
 50
270.0
 51
0.0
  0
LINE
  5
548
330
6B
100
AcDbEntity
  8
0
 62
     3
100
AcDbLine
 10
-371.9713400224193
 20
11.17389249226043
 30
0.0
 11
-370.4713400224193
 21
11.17389249226043
 31
0.0
  0
LINE
  5
549
330
6B
100
AcDbEntity
  8
0
 62
     3
100
AcDbLine
 10
-371.9713400224193
 20
-4.576107507739568
 30
0.0
 11
-370.4713400224193
 21
-4.576107507739568
 31
0.0
  0
LINE
  5
54A
330
6B
100
AcDbEntity
  8
0
 62
     3
100
AcDbLine
 10
-372.3463400224193
 20
-4.201107507739568
 30
0.0
 11
-372.3463400224193
 21
-2.701107507739568
 31
0.0
  0
LINE
  5
54B
330
6B
100
AcDbEntity
  8
0
 62
     3
100
AcDbLine
 10
-372.3463400224193
 20
10.79889249226043
 30
0.0
 11
-372.3463400224193
 21
9.298892492260431
 31
0.0
  0
ARC
  5
54C
330
6B
100
AcDbEntity
  8
0
 62
     3
100
AcDbCircle
 10
-371.9713400224193
 20
10.79889249226043
 30
0.0
 40
0.375
100
AcDbArc
 50
90.0
 51
180.0
  0
ARC
  5
54D
330
6B
100
AcDbEntity
  8
0
 62
     3
100
AcDbCircle
 10
-371.9713400224193
 20
-4.201107507739568
 30
0.0
 40
0.375
100
AcDbArc
 50
180.0
 51
270.0
  0
LINE
  5
54E
330
6B
100
AcDbEntity
  8
0
 62
     3
100
AcDbLine
 10
-367.0963400224193
 20
1.048892492260429
 30
0.0
 11
-370.0963400224193
 21
1.048892492260429
 31
0.0
  0
LINE
  5
54F
330
6B
100
AcDbEntity
  8
0
 62
     3
100
AcDbLine
 10
-367.0963400224193
 20
5.54889249226043
 30
0.0
 11
-370.0963400224193
 21
5.54889249226043
 31
0.0
  0
LINE
  5
550
330
6B
100
AcDbEntity
  8
0
 62
     3
100
AcDbLine
 10
-370.0963400224193
 20
10.42389249226043
 30
0.0
 11
-370.0963400224193
 21
5.54889249226043
 31
0.0
  0
LINE
  5
551
330
6B
100
AcDbEntity
  8
0
 62
     3
100
AcDbLine
 10
-370.0963400224193
 20
1.048892492260429
 30
0.0
 11
-370.0963400224193
 21
-3.826107507739568
 31
0.0
  0
LINE
  5
552
330
6B
100
AcDbEntity
  8
0
 62
     3
100
AcDbLine
 10
-384.5304980224193
 20
-1.201107507739569
 30
0.0
 11
-385.0987880224193
 21
-1.201107507739569
 31
0.0
  0
LINE
  5
553
330
6B
100
AcDbEntity
  8
0
 62
     3
100
AcDbLine
 10
-384.5304980224193
 20
7.798892492260431
 30
0.0
 11
-385.0987880224193
 21
7.798892492260431
 31
0.0
  0
LINE
  5
554
330
6B
100
AcDbEntity
  8
0
 62
     3
100
AcDbLine
 10
-373.0987880224193
 20
-0.8261075077395695
 30
0.0
 11
-373.0987880224193
 21
1.798892492260429
 31
0.0
  0
LINE
  5
555
330
6B
100
AcDbEntity
  8
0
 62
     3
100
AcDbLine
 10
-385.8487880224193
 20
-0.4511075077395696
 30
0.0
 11
-385.8487880224193
 21
7.048892492260431
 31
0.0
  0
LINE
  5
556
330
6B
100
AcDbEntity
  8
0
 62
     3
100
AcDbLine
 10
-378.7674820224193
 20
2.173892492260429
 30
0.0
 11
-381.3877810224194
 21
2.173892492260429
 31
0.0
  0
LINE
  5
557
330
6B
100
AcDbEntity
  8
0
 62
     3
100
AcDbLine
 10
-375.7457460224193
 20
4.42389249226043
 30
0.0
 11
-373.4737880224193
 21
4.42389249226043
 31
0.0
  0
LINE
  5
558
330
6B
100
AcDbEntity
  8
0
 62
     3
100
AcDbLine
 10
-374.3412660224194
 20
7.423892492260431
 30
0.0
 11
-374.3412660224194
 21
4.42389249226043
 31
0.0
  0
LINE
  5
559
330
6B
100
AcDbEntity
  8
0
 62
     3
100
AcDbLine
 10
-374.3412660224194
 20
-0.8261075077395695
 30
0.0
 11
-374.3412660224194
 21
2.173892492260429
 31
0.0
  0
LINE
  5
55A
330
6B
100
AcDbEntity
  8
0
 62
     3
100
AcDbLine
 10
-386.9737880224193
 20
8.548892492260431
 30
0.0
 11
-386.9737880224193
 21
-1.951107507739568
 31
0.0
  0
ARC
  5
55B
330
6B
100
AcDbEntity
  8
0
 62
     3
100
AcDbCircle
 10
-386.2237880224193
 20
-1.951107507739568
 30
0.0
 40
0.75
100
AcDbArc
 50
180.0
 51
270.0
  0
ARC
  5
55C
330
6B
100
AcDbEntity
  8
0
 62
     3
100
AcDbCircle
 10
-386.2237880224193
 20
8.548892492260431
 30
0.0
 40
0.75
100
AcDbArc
 50
90.0
 51
180.0
  0
ARC
  5
55D
330
6B
100
AcDbEntity
  8
0
 62
     3
100
AcDbCircle
 10
-385.0987880224193
 20
7.048892492260431
 30
0.0
 40
0.75
100
AcDbArc
 50
90.0
 51
180.0
  0
ARC
  5
55E
330
6B
100
AcDbEntity
  8
0
 62
     3
100
AcDbCircle
 10
-385.0987880224193
 20
-0.4511075077395696
 30
0.0
 40
0.75
100
AcDbArc
 50
180.0
 51
270.0
  0
ARC
  5
55F
330
6B
100
AcDbEntity
  8
0
 62
     3
100
AcDbCircle
 10
-367.0963400224193
 20
0.2988924922604308
 30
0.0
 40
0.75
100
AcDbArc
 50
0.0
 51
90.0
  0
ARC
  5
560
330
6B
100
AcDbEntity
  8
0
 62
     3
100
AcDbCircle
 10
-367.0963400224193
 20
6.298892492260431
 30
0.0
 40
0.75
100
AcDbArc
 50
270.0
 51
0.0
  0
LINE
  5
561
330
6B
100
AcDbEntity
  8
0
 62
     3
100
AcDbLine
 10
-374.6957460224194
 20
-8.701107507739568
 30
0.0
 11
-367.8463400224193
 21
-8.701107507739568
 31
0.0
  0
LINE
  5
562
330
6B
100
AcDbEntity
  8
0
 62
     3
100
AcDbLine
 10
-374.6207460224193
 20
15.29889249226043
 30
0.0
 11
-367.8463400224193
 21
15.29889249226043
 31
0.0
  0
LINE
  5
563
330
6B
100
AcDbEntity
  8
0
 62
     3
100
AcDbLine
 10
-376.1207460224193
 20
-6.420873507739568
 30
0.0
 11
-376.1207460224193
 21
-6.451107507739568
 31
0.0
  0
ARC
  5
564
330
6B
100
AcDbEntity
  8
0
 62
     3
100
AcDbCircle
 10
-374.6207460224193
 20
-7.201107507739568
 30
0.0
 40
1.5
100
AcDbArc
 50
180.0
 51
270.0
  0
LINE
  5
565
330
6B
100
AcDbEntity
  8
0
  6
HIDDEN
 62
    15
100
AcDbLine
 10
-376.1207460224193
 20
-6.451107507739568
 30
0.0
 11
-376.1207460224193
 21
-6.495873507739569
 31
0.0
  0
LINE
  5
566
330
6B
100
AcDbEntity
  8
0
 62
     3
100
AcDbLine
 10
-378.3924820224194
 20
7.798892492260431
 30
0.0
 11
-378.3924820224194
 21
9.298892492260431
 31
0.0
  0
LINE
  5
567
330
6B
100
AcDbEntity
  8
0
 62
     3
100
AcDbLine
 10
-378.3924820224194
 20
-1.201107507739569
 30
0.0
 11
-378.3924820224194
 21
-2.701107507739568
 31
0.0
  0
LINE
  5
568
330
6B
100
AcDbEntity
  8
0
 62
     3
100
AcDbLine
 10
-384.5304980224193
 20
-1.201107507739569
 30
0.0
 11
-378.3924820224194
 21
-1.201107507739569
 31
0.0
  0
LINE
  5
569
330
6B
100
AcDbEntity
  8
0
 62
     3
100
AcDbLine
 10
-372.7237880224194
 20
-1.201107507739569
 30
0.0
 11
-370.8463400224193
 21
-1.201107507739569
 31
0.0
  0
LINE
  5
56A
330
6B
100
AcDbEntity
  8
0
 62
     3
100
AcDbLine
 10
-384.5304980224193
 20
7.798892492260431
 30
0.0
 11
-378.3924820224194
 21
7.798892492260431
 31
0.0
  0
LINE
  5
56B
330
6B
100
AcDbEntity
  8
0
 62
     3
100
AcDbLine
 10
-372.7237880224194
 20
7.798892492260431
 30
0.0
 11
-370.8463400224193
 21
7.798892492260431
 31
0.0
  0
ARC
  5
56C
330
6B
100
AcDbEntity
  8
0
 62
     3
100
AcDbCircle
 10
-373.4737880224193
 20
1.798892492260429
 30
0.0
 40
0.375
100
AcDbArc
 50
0.0
 51
90.0
  0
LINE
  5
56D
330
6B
100
AcDbEntity
  8
0
 62
     3
100
AcDbLine
 10
-373.0987880224193
 20
7.423892492260431
 30
0.0
 11
-373.0987880224193
 21
4.79889249226043
 31
0.0
  0
ARC
  5
56E
330
6B
100
AcDbEntity
  8
0
 62
     3
100
AcDbCircle
 10
-373.4737880224193
 20
4.79889249226043
 30
0.0
 40
0.375
100
AcDbArc
 50
270.0
 51
0.0
  0
LINE
  5
56F
330
6B
100
AcDbEntity
  8
0
 62
     3
100
AcDbLine
 10
-375.7457460224193
 20
2.173892492260429
 30
0.0
 11
-373.4737880224193
 21
2.173892492260429
 31
0.0
  0
LINE
  5
570
330
6B
100
AcDbEntity
  8
0
 62
     3
100
AcDbLine
 10
-378.7674820224193
 20
4.42389249226043
 30
0.0
 11
-381.3877810224194
 21
4.42389249226043
 31
0.0
  0
LINE
  5
571
330
6B
100
AcDbEntity
  8
0
 62
     3
100
AcDbLine
 10
-373.0987880224193
 20
1.798892492260429
 30
0.0
 11
-373.0987880224193
 21
4.79889249226043
 31
0.0
  0
LINE
  5
572
330
6B
100
AcDbEntity
  8
0
 62
     3
100
AcDbLine
 10
-375.7457460224193
 20
2.173892492260429
 30
0.0
 11
-378.7674820224193
 21
2.173892492260429
 31
0.0
  0
LINE
  5
573
330
6B
100
AcDbEntity
  8
0
 62
     3
100
AcDbLine
 10
-375.7457460224193
 20
4.42389249226043
 30
0.0
 11
-378.7674820224193
 21
4.42389249226043
 31
0.0
  0
ARC
  5
574
330
6B
100
AcDbEntity
  8
0
 62
     3
100
AcDbCircle
 10
-374.6207460224193
 20
13.79889249226043
 30
0.0
 40
1.5
100
AcDbArc
 50
90.0
 51
180.0
  0
LINE
  5
575
330
6B
100
AcDbEntity
  8
0
  6
HIDDEN
 62
    15
100
AcDbLine
 10
-376.1207460224193
 20
13.04889249226043
 30
0.0
 11
-376.1207460224193
 21
13.09365849226043
 31
0.0
  0
LINE
  5
576
330
6B
100
AcDbEntity
  8
0
  6
HIDDEN
 62
    15
100
AcDbLine
 10
-374.6207460224193
 20
14.54889249226043
 30
0.0
 11
-374.6957460224194
 21
14.54889249226043
 31
0.0
  0
ARC
  5
577
330
6B
100
AcDbEntity
  8
0
 62
     3
100
AcDbCircle
 10
-389.9737880224193
 20
-4.916489507739568
 30
0.0
 40
0.75
100
AcDbArc
 50
180.0
 51
263.820121000001
  0
LINE
  5
578
330
6B
100
AcDbEntity
  8
0
  6
HIDDEN
 62
    15
100
AcDbLine
 10
-390.7237880224193
 20
-4.166489507739568
 30
0.0
 11
-390.7237880224193
 21
-4.170873507739568
 31
0.0
  0
ARC
  5
579
330
6B
100
AcDbEntity
  8
0
 62
     3
100
AcDbCircle
 10
-389.9737880224193
 20
11.58953249226043
 30
0.0
 40
0.75
100
AcDbArc
 50
95.99681099999862
 51
180.0
  0
LINE
  5
57A
330
6B
100
AcDbEntity
  8
0
  6
HIDDEN
 62
    15
100
AcDbLine
 10
-390.7237880224193
 20
10.83953249226043
 30
0.0
 11
-390.7237880224193
 21
10.84365849226043
 31
0.0
  0
ARC
  5
57B
330
6B
100
AcDbEntity
  8
0
 62
     3
100
AcDbCircle
 10
-372.7237880224194
 20
-0.8261075077395695
 30
0.0
 40
0.375
100
AcDbArc
 50
180.0
 51
270.0
  0
LINE
  5
57C
330
6B
100
AcDbEntity
  8
0
 62
     3
100
AcDbLine
 10
-373.9662660224194
 20
-1.201107507739569
 30
0.0
 11
-372.7237880224194
 21
-1.201107507739569
 31
0.0
  0
ARC
  5
57D
330
6B
100
AcDbEntity
  8
0
 62
     3
100
AcDbCircle
 10
-373.9662660224194
 20
-0.8261075077395695
 30
0.0
 40
0.375
100
AcDbArc
 50
180.0
 51
270.0
  0
ARC
  5
57E
330
6B
100
AcDbEntity
  8
0
 62
     3
100
AcDbCircle
 10
-372.7237880224194
 20
7.423892492260431
 30
0.0
 40
0.375
100
AcDbArc
 50
90.0
 51
180.0
  0
LINE
  5
57F
330
6B
100
AcDbEntity
  8
0
 62
     3
100
AcDbLine
 10
-373.9662660224194
 20
7.798892492260431
 30
0.0
 11
-372.7237880224194
 21
7.798892492260431
 31
0.0
  0
ARC
  5
580
330
6B
100
AcDbEntity
  8
0
 62
     3
100
AcDbCircle
 10
-373.9662660224194
 20
7.423892492260431
 30
0.0
 40
0.375
100
AcDbArc
 50
90.0
 51
180.0
  0
LINE
  5
581
330
6B
100
AcDbEntity
  8
0
 62
     3
100
AcDbLine
 10
-373.9662660224194
 20
-1.201107507739569
 30
0.0
 11
-376.1207460224193
 21
-1.201107507739569
 31
0.0
  0
LINE
  5
582
330
6B
100
AcDbEntity
  8
0
 62
     3
100
AcDbLine
 10
-373.9662660224194
 20
7.798892492260431
 30
0.0
 11
-376.1207460224193
 21
7.798892492260431
 31
0.0
  0
LINE
  5
583
330
6B
100
AcDbEntity
  8
0
  6
HIDDEN
 62
    15
100
AcDbLine
 10
-392.2237880224193
 20
-2.748287507739568
 30
0.0
 11
-392.1881470224193
 21
-2.748287507739568
 31
0.0
  0
LINE
  5
584
330
6B
100
AcDbEntity
  8
0
  6
HIDDEN
 62
    15
100
AcDbLine
 10
-392.2237880224193
 20
9.341244492260431
 30
0.0
 11
-392.1881470224193
 21
9.341244492260431
 31
0.0
  0
LINE
  5
585
330
6B
100
AcDbEntity
  8
0
 62
     3
100
AcDbLine
 10
-377.7873780224194
 20
-8.077584507739569
 30
0.0
 11
-374.6207460224193
 21
-8.701107507739568
 31
0.0
  0
LINE
  5
586
330
6B
100
AcDbEntity
  8
0
 62
     3
100
AcDbLine
 10
-377.7852130224193
 20
14.71338149226043
 30
0.0
 11
-374.9062080224192
 21
15.27147949226043
 31
0.0
  0
LINE
  5
587
330
6B
100
AcDbEntity
  8
0
 62
     3
100
AcDbLine
 10
-377.7873780224194
 20
-8.077584507739569
 30
0.0
 11
-390.0545260224193
 21
-5.662131507739569
 31
0.0
  0
LINE
  5
588
330
6B
100
AcDbEntity
  8
0
 62
     3
100
AcDbLine
 10
-377.7852130224193
 20
14.71338149226043
 30
0.0
 11
-390.0521430224193
 21
12.33542749226043
 31
0.0
  0
LINE
  5
589
330
6B
100
AcDbEntity
  8
0
 62
     3
100
AcDbLine
 10
-378.3924820224194
 20
-1.201107507739569
 30
0.0
 11
-378.3924820224194
 21
2.173892492260429
 31
0.0
  0
LINE
  5
58A
330
6B
100
AcDbEntity
  8
0
 62
     3
100
AcDbLine
 10
-378.3924820224194
 20
7.798892492260431
 30
0.0
 11
-378.3924820224194
 21
4.42389249226043
 31
0.0
  0
LINE
  5
58B
330
6B
100
AcDbEntity
  8
0
 62
     3
100
AcDbLine
 10
-585.0082010224192
 20
-3.621657507739568
 30
0.0
 11
-591.7856350224192
 21
0.8113944922604304
 31
0.0
  0
LINE
  5
58C
330
6B
100
AcDbEntity
  8
0
 62
     3
100
AcDbLine
 10
-585.0082010224192
 20
10.24444649226043
 30
0.0
 11
-591.7856350224192
 21
5.811394492260429
 31
0.0
  0
ARC
  5
58D
330
6B
100
AcDbEntity
  8
0
 62
     3
100
AcDbCircle
 10
-582.9554800224192
 20
-0.4833715077395695
 30
0.0
 40
3.75
100
AcDbArc
 50
236.811702000001
 51
270.0
  0
ARC
  5
58E
330
6B
100
AcDbEntity
  8
0
 62
     3
100
AcDbCircle
 10
-582.9554800224192
 20
7.106160492260429
 30
0.0
 40
3.75
100
AcDbArc
 50
90.0
 51
123.1882979999989
  0
LINE
  5
58F
330
6B
100
AcDbEntity
  8
0
 62
     3
100
AcDbLine
 10
-588.5404200224193
 20
0.8113944922604304
 30
0.0
 11
-602.5284600224193
 21
0.8113944922604304
 31
0.0
  0
LINE
  5
590
330
6B
100
AcDbEntity
  8
0
 62
     3
100
AcDbLine
 10
-588.5404200224193
 20
5.811394492260429
 30
0.0
 11
-602.5284600224193
 21
5.811394492260429
 31
0.0
  0
ARC
  5
591
330
6B
100
AcDbEntity
  8
0
 62
     3
100
AcDbCircle
 10
-586.5404200224193
 20
3.31139449226043
 30
0.0
 40
2.5
100
AcDbArc
 50
270.0
 51
90.0
  0
LINE
  5
592
330
6B
100
AcDbEntity
  8
0
 62
     3
100
AcDbLine
 10
-586.5404200224193
 20
0.8113944922604304
 30
0.0
 11
-589.0453700224193
 21
0.8113944922604304
 31
0.0
  0
LINE
  5
593
330
6B
100
AcDbEntity
  8
0
 62
     3
100
AcDbLine
 10
-586.5404200224193
 20
5.811394492260429
 30
0.0
 11
-589.0453700224193
 21
5.811394492260429
 31
0.0
  0
ARC
  5
594
330
6B
100
AcDbEntity
  8
0
 62
     2
100
AcDbCircle
 10
-552.6892800224193
 20
3.26567849226043
 30
0.0
 40
1.954384
100
AcDbArc
 50
296.4480559999986
 51
63.55194400000131
  0
ARC
  5
595
330
6B
100
AcDbEntity
  8
0
 62
     2
100
AcDbCircle
 10
-557.1789030224192
 20
-5.759592507739569
 30
0.0
 40
11.635073
100
AcDbArc
 50
63.55194400000131
 51
81.8382250000006
  0
ARC
  5
596
330
6B
100
AcDbEntity
  8
0
 62
     2
100
AcDbCircle
 10
-565.4077010224192
 20
-63.13461150773957
 30
0.0
 40
69.99678
100
AcDbArc
 50
81.8382250000006
 51
99.17448699999857
  0
ARC
  5
597
330
6B
100
AcDbEntity
  8
0
 62
     2
100
AcDbCircle
 10
-557.1789030224192
 20
-5.759592507739569
 30
0.0
 40
12.034673
100
AcDbArc
 50
63.55194400000131
 51
81.8382250000006
  0
ARC
  5
598
330
6B
100
AcDbEntity
  8
0
 62
     2
100
AcDbCircle
 10
-565.4264350224194
 20
-63.33437450773956
 30
0.0
 40
69.796915
100
AcDbArc
 50
81.73606200000069
 51
99.05376299999891
  0
ARC
  5
599
330
6B
100
AcDbEntity
  8
0
 62
     2
100
AcDbCircle
 10
-552.6892800224193
 20
3.26567849226043
 30
0.0
 40
1.554783999999999
100
AcDbArc
 50
296.4480559999986
 51
63.55194400000131
  0
ARC
  5
59A
330
6B
100
AcDbEntity
  8
0
 62
     2
100
AcDbCircle
 10
-557.1789030224192
 20
12.29094949226043
 30
0.0
 40
12.034673
100
AcDbArc
 50
278.1617749999994
 51
296.4480559999986
  0
ARC
  5
59B
330
6B
100
AcDbEntity
  8
0
 62
     2
100
AcDbCircle
 10
-565.4264350224194
 20
69.86573049226041
 30
0.0
 40
69.796915
100
AcDbArc
 50
260.9462370000011
 51
278.2639379999993
  0
ARC
  5
59C
330
6B
100
AcDbEntity
  8
0
 62
     2
100
AcDbCircle
 10
-557.1789030224192
 20
12.29094949226043
 30
0.0
 40
11.635073
100
AcDbArc
 50
278.1617749999994
 51
296.4480559999986
  0
ARC
  5
59D
330
6B
100
AcDbEntity
  8
0
 62
     2
100
AcDbCircle
 10
-565.4077010224192
 20
69.66596849226043
 30
0.0
 40
69.99678
100
AcDbArc
 50
260.8255130000014
 51
278.1617749999994
  0
ARC
  5
59E
330
6B
100
AcDbEntity
  8
0
 62
     2
100
AcDbCircle
 10
-573.8612900224193
 20
12.29094949226043
 30
0.0
 40
12.034673
100
AcDbArc
 50
243.5519440000013
 51
257.0019650000014
  0
ARC
  5
59F
330
6B
100
AcDbEntity
  8
0
 62
     2
100
AcDbCircle
 10
-573.8612900224193
 20
12.29094949226043
 30
0.0
 40
11.635073
100
AcDbArc
 50
243.5519440000013
 51
257.3477330000014
  0
ARC
  5
5A0
330
6B
100
AcDbEntity
  8
0
 62
     2
100
AcDbCircle
 10
-578.3509130224192
 20
3.26567849226043
 30
0.0
 40
1.554783999999999
100
AcDbArc
 50
116.4480559999987
 51
243.5519440000013
  0
ARC
  5
5A1
330
6B
100
AcDbEntity
  8
0
 62
     2
100
AcDbCircle
 10
-578.3509130224192
 20
3.26567849226043
 30
0.0
 40
1.954384
100
AcDbArc
 50
116.4480559999987
 51
243.5519440000013
  0
ARC
  5
5A2
330
6B
100
AcDbEntity
  8
0
 62
     2
100
AcDbCircle
 10
-573.8612900224193
 20
-5.759592507739569
 30
0.0
 40
11.635073
100
AcDbArc
 50
102.6522669999985
 51
116.4480559999987
  0
ARC
  5
5A3
330
6B
100
AcDbEntity
  8
0
 62
     2
100
AcDbCircle
 10
-573.8612900224193
 20
-5.759592507739569
 30
0.0
 40
12.034673
100
AcDbArc
 50
102.9980349999986
 51
116.4480559999987
  0
LINE
  5
5A4
330
6B
100
AcDbEntity
  8
0
 62
     3
100
AcDbLine
 10
-560.9554800224192
 20
-4.233371507739568
 30
0.0
 11
-534.2936900224192
 21
-4.233371507739568
 31
0.0
  0
LINE
  5
5A5
330
6B
100
AcDbEntity
  8
0
 62
     3
100
AcDbLine
 10
-603.0483020224193
 20
0.2964784922604304
 30
0.0
 11
-602.6044950224193
 21
0.7360794922604307
 31
0.0
  0
LINE
  5
5A6
330
6B
100
AcDbEntity
  8
0
 62
     3
100
AcDbLine
 10
-603.0483020224193
 20
6.296478492260431
 30
0.0
 11
-602.5693000224194
 21
5.768979492260428
 31
0.0
  0
LINE
  5
5A7
330
6B
100
AcDbEntity
  8
0
 62
     3
100
AcDbLine
 10
-560.9554800224192
 20
-4.233371507739568
 30
0.0
 11
-582.9554800224192
 21
-4.233371507739568
 31
0.0
  0
LINE
  5
5A8
330
6B
100
AcDbEntity
  8
0
 62
     3
100
AcDbLine
 10
-554.5837020224191
 20
10.84124449226043
 30
0.0
 11
-582.9554800224192
 21
10.84124449226043
 31
0.0
  0
LINE
  5
5A9
330
6B
100
AcDbEntity
  8
0
 62
     3
100
AcDbLine
 10
-409.8317620224192
 20
-4.248287507739568
 30
0.0
 11
-432.5039760224193
 21
-4.248287507739568
 31
0.0
  0
LINE
  5
5AA
330
6B
100
AcDbEntity
  8
0
 62
     3
100
AcDbLine
 10
-409.3440350224192
 20
10.84124449226043
 30
0.0
 11
-432.0162490224192
 21
10.84124449226043
 31
0.0
  0
LINE
  5
5AB
330
6B
100
AcDbEntity
  8
0
  6
DASHED
100
AcDbLine
 10
-545.3062610224193
 20
-1.953521507739568
 30
0.0
 11
-545.3062610224193
 21
8.54647849226043
 31
0.0
  0
LINE
  5
5AC
330
6B
100
AcDbEntity
  8
0
  6
DASHED
100
AcDbLine
 10
-543.0062610224194
 20
-1.953521507739568
 30
0.0
 11
-543.0062610224194
 21
8.54647849226043
 31
0.0
  0
LINE
  5
5AD
330
6B
100
AcDbEntity
  8
0
  6
DASHED
100
AcDbLine
 10
-540.7062610224193
 20
-1.953521507739568
 30
0.0
 11
-540.7062610224193
 21
8.54647849226043
 31
0.0
  0
LINE
  5
5AE
330
6B
100
AcDbEntity
  8
0
  6
DASHED
100
AcDbLine
 10
-538.4062610224192
 20
-1.953521507739568
 30
0.0
 11
-538.4062610224192
 21
8.54647849226043
 31
0.0
  0
LINE
  5
5AF
330
6B
100
AcDbEntity
  8
0
  6
DASHED
100
AcDbLine
 10
-536.1062610224193
 20
-1.953521507739568
 30
0.0
 11
-536.1062610224193
 21
8.54647849226043
 31
0.0
  0
LINE
  5
5B0
330
6B
100
AcDbEntity
  8
0
  6
DASHED
100
AcDbLine
 10
-547.6062610224191
 20
-1.953521507739568
 30
0.0
 11
-543.0062610224194
 21
-1.953521507739568
 31
0.0
  0
LINE
  5
5B1
330
6B
100
AcDbEntity
  8
0
  6
DASHED
100
AcDbLine
 10
-540.7062610224193
 20
-1.953521507739568
 30
0.0
 11
-536.1062610224193
 21
-1.953521507739568
 31
0.0
  0
LINE
  5
5B2
330
6B
100
AcDbEntity
  8
0
  6
DASHED
100
AcDbLine
 10
-540.7062610224193
 20
8.54647849226043
 30
0.0
 11
-536.1062610224193
 21
8.54647849226043
 31
0.0
  0
LINE
  5
5B3
330
6B
100
AcDbEntity
  8
0
  6
DASHED
100
AcDbLine
 10
-547.6062610224191
 20
8.54647849226043
 30
0.0
 11
-543.0062610224194
 21
8.54647849226043
 31
0.0
  0
ARC
  5
5B6
330
6B
100
AcDbEntity
  8
0
 62
     3
100
AcDbCircle
 10
-385.8711470224193
 20
3.29889249226043
 30
0.0
 40
4.622358999999998
100
AcDbArc
 50
283.2125340000015
 51
76.78746599999853
  0
LINE
  5
5B7
330
6B
100
AcDbEntity
  8
0
 62
     3
100
AcDbLine
 10
-390.7237880224193
 20
-4.916489507739568
 30
0.0
 11
-390.7237880224193
 21
11.58953249226043
 31
0.0
  0
LINE
  5
5B8
330
6B
100
AcDbEntity
  8
0
 62
     3
100
AcDbLine
 10
-366.3463400224193
 20
-7.201107507739568
 30
0.0
 11
-366.3463400224193
 21
0.2988924922604308
 31
0.0
  0
LINE
  5
5B9
330
6B
100
AcDbEntity
  8
0
 62
     3
100
AcDbLine
 10
-366.3463400224193
 20
6.298892492260431
 30
0.0
 11
-366.3463400224193
 21
13.79889249226043
 31
0.0
  0
LINE
  5
5BA
330
6B
100
AcDbEntity
  8
0
 62
     3
100
AcDbLine
 10
-376.1207460224193
 20
-7.201107507739568
 30
0.0
 11
-376.1207460224193
 21
2.173892492260429
 31
0.0
  0
LINE
  5
5BB
330
6B
100
AcDbEntity
  8
0
 62
     3
100
AcDbLine
 10
-376.1207460224193
 20
13.79889249226043
 30
0.0
 11
-376.1207460224193
 21
4.42389249226043
 31
0.0
  0
LINE
  5
5BC
330
6B
100
AcDbEntity
  8
0
 62
     3
100
AcDbLine
 10
-372.3463400224193
 20
-2.701107507739568
 30
0.0
 11
-390.7237880224193
 21
-2.701107507739568
 31
0.0
  0
LINE
  5
5BD
330
6B
100
AcDbEntity
  8
0
 62
     3
100
AcDbLine
 10
-372.3463400224193
 20
9.298892492260431
 30
0.0
 11
-390.7237880224193
 21
9.298892492260431
 31
0.0
  0
LINE
  5
5BE
330
6B
100
AcDbEntity
  8
0
 62
     3
100
AcDbLine
 10
-390.7237880224193
 20
-4.248287507739568
 30
0.0
 11
-502.2130270224193
 21
-4.248287507739568
 31
0.0
  0
LINE
  5
5BF
330
6B
100
AcDbEntity
  8
0
 62
     3
100
AcDbLine
 10
-504.2485790224192
 20
-4.248292507739568
 30
0.0
 11
-532.0804210224194
 21
-4.248292507739568
 31
0.0
  0
LINE
  5
5C0
330
6B
100
AcDbEntity
  8
0
 62
     3
100
AcDbLine
 10
-390.7237880224193
 20
10.84124449226043
 30
0.0
 11
-501.7483660224193
 21
10.84124449226043
 31
0.0
  0
LINE
  5
5C1
330
6B
100
AcDbEntity
  8
0
 62
     3
100
AcDbLine
 10
-503.7754480224192
 20
10.84124449226043
 30
0.0
 11
-531.6416460224193
 21
10.84124449226043
 31
0.0
  0
CIRCLE
  5
5C2
330
6B
100
AcDbEntity
  8
0
 62
     3
100
AcDbCircle
 10
-415.7237880224192
 20
3.29889249226043
 30
0.0
 40
2.0
  0
CIRCLE
  5
5C3
330
6B
100
AcDbEntity
  8
0
 62
     3
100
AcDbCircle
 10
-425.7237880224193
 20
3.29889249226043
 30
0.0
 40
2.0
  0
CIRCLE
  5
5C4
330
6B
100
AcDbEntity
  8
0
 62
     3
100
AcDbCircle
 10
-435.7237880224192
 20
3.29889249226043
 30
0.0
 40
2.0
  0
LINE
  5
5C5
330
6B
100
AcDbEntity
  8
0
  6
PHANTOM
100
AcDbLine
 10
-501.8562610224193
 20
-1.953521507739568
 30
0.0
 11
-503.3264290224193
 21
-1.953521507739568
 31
0.0
  0
TEXT
  5
5C6
330
6B
100
AcDbEntity
  8
0
100
AcDbText
 10
-487.1476790224192
 20
-1.513000507739568
 30
0.0
 40
2.027519999999999
  1
JAPAN
 50
90.00000300000001
 41
0.800781
100
AcDbText
  0
TEXT
  5
5C7
330
6B
100
AcDbEntity
  8
0
100
AcDbText
 10
-483.6747840224192
 20
-1.568228507739569
 30
0.0
 40
2.433024
  1
MULTI
 50
90.00000300000001
 41
0.8579799999999998
100
AcDbText
  0
TEXT
  5
5C8
330
6B
100
AcDbEntity
  8
0
100
AcDbText
 10
-477.8130810224192
 20
-2.185684507739568
 30
0.0
 40
2.2176
  1
PAT.TED
 50
90.00000300000001
 41
0.7317610000000001
100
AcDbText
  0
TEXT
  5
5C9
330
6B
100
AcDbEntity
  8
0
100
AcDbText
 10
-481.0557130224193
 20
-0.9042325077395696
 30
0.0
 40
2.433024
  1
HOOK
 50
90.00000300000001
 41
0.8262459999999999
100
AcDbText
  0
TEXT
  5
5CA
330
6B
100
AcDbEntity
  8
0
100
AcDbText
 10
-459.7298010224192
 20
0.8230674922604306
 30
0.0
 40
2.5344
  1
EP
 50
90.00000300000001
100
AcDbText
  0
LINE
  5
5CB
330
6B
100
AcDbEntity
  8
0
100
AcDbLine
 10
-486.6155370224192
 20
9.27225349226043
 30
0.0
 11
-486.6155370224192
 21
-2.696383507739569
 31
0.0
  0
LINE
  5
5CC
330
6B
100
AcDbEntity
  8
0
100
AcDbLine
 10
-480.6480340224192
 20
9.27225349226043
 30
0.0
 11
-480.6480340224192
 21
-2.696383507739569
 31
0.0
  0
LINE
  5
5CD
330
6B
100
AcDbEntity
  8
0
 62
     3
100
AcDbLine
 10
-490.0011030224193
 20
8.28225349226043
 30
0.0
 11
-490.0011030224193
 21
-1.706383507739569
 31
0.0
  0
ARC
  5
5CE
330
6B
100
AcDbEntity
  8
0
 62
     3
100
AcDbCircle
 10
-489.0111030224193
 20
8.28225349226043
 30
0.0
 40
0.99
100
AcDbArc
 50
90.0
 51
180.0
  0
LINE
  5
5CF
330
6B
100
AcDbEntity
  8
0
 62
     3
100
AcDbLine
 10
-443.4305500224192
 20
9.52225349226043
 30
0.0
 11
-489.0111030224193
 21
9.52225349226043
 31
0.0
  0
ARC
  5
5D0
330
6B
100
AcDbEntity
  8
0
 62
     3
100
AcDbCircle
 10
-489.0111030224193
 20
-1.706383507739569
 30
0.0
 40
0.99
100
AcDbArc
 50
180.0
 51
270.0
  0
LINE
  5
5D1
330
6B
100
AcDbEntity
  8
0
 62
     3
100
AcDbLine
 10
-443.4305500224192
 20
-2.696383507739569
 30
0.0
 11
-489.0111030224193
 21
-2.696383507739569
 31
0.0
  0
LINE
  5
5D2
330
6B
100
AcDbEntity
  8
0
100
AcDbLine
 10
-445.9896270224191
 20
9.27225349226043
 30
0.0
 11
-445.9896270224191
 21
-2.696383507739569
 31
0.0
  0
ARC
  5
5D3
330
6B
100
AcDbEntity
  8
0
 62
     3
100
AcDbCircle
 10
-443.4305500224192
 20
-1.706383507739569
 30
0.0
 40
0.99
100
AcDbArc
 50
270.0
 51
0.0
  0
LINE
  5
5D4
330
6B
100
AcDbEntity
  8
0
 62
     3
100
AcDbLine
 10
-442.4405500224192
 20
-1.706383507739569
 30
0.0
 11
-442.4405500224192
 21
8.28225349226043
 31
0.0
  0
ARC
  5
5D5
330
6B
100
AcDbEntity
  8
0
 62
     3
100
AcDbCircle
 10
-443.4305500224192
 20
8.28225349226043
 30
0.0
 40
0.99
100
AcDbArc
 50
0.0
 51
90.0
  0
TEXT
  5
5D6
330
6B
100
AcDbEntity
  8
0
100
AcDbText
 10
-471.7682010224192
 20
0.8230674922604306
 30
0.0
 40
2.5344
  1
TW
 50
90.00000300000001
 41
0.8571429999999999
100
AcDbText
  0
TEXT
  5
5D7
330
6B
100
AcDbEntity
  8
0
100
AcDbText
 10
-474.6949720224193
 20
0.6021924922604305
 30
0.0
 40
2.5344
  1
JP
 50
90.00000300000001
100
AcDbText
  0
TEXT
  5
5D8
330
6B
100
AcDbEntity
  8
0
100
AcDbText
 10
-468.7586010224192
 20
0.8230674922604306
 30
0.0
 40
2.5344
  1
KR
 50
90.00000300000001
100
AcDbText
  0
TEXT
  5
5D9
330
6B
100
AcDbEntity
  8
0
100
AcDbText
 10
-465.7490010224193
 20
0.8230674922604306
 30
0.0
 40
2.5344
  1
CN
 50
90.00000300000001
100
AcDbText
  0
TEXT
  5
5DA
330
6B
100
AcDbEntity
  8
0
100
AcDbText
 10
-462.7394010224191
 20
0.8230674922604306
 30
0.0
 40
2.5344
  1
HK
 50
90.00000300000001
100
AcDbText
  0
TEXT
  5
5DB
330
6B
100
AcDbEntity
  8
0
100
AcDbText
 10
-456.7202010224193
 20
0.8230674922604306
 30
0.0
 40
2.5344
  1
US
 50
90.00000300000001
100
AcDbText
  0
TEXT
  5
5DC
330
6B
100
AcDbEntity
  8
0
100
AcDbText
 10
-453.7106010224192
 20
0.8230674922604306
 30
0.0
 40
2.5344
  1
CA
 50
90.00000300000001
100
AcDbText
  0
TEXT
  5
5DD
330
6B
100
AcDbEntity
  8
0
100
AcDbText
 10
-450.7535620224192
 20
0.8230674922604306
 30
0.0
 40
2.5344
  1
AU
 50
90.00000300000001
100
AcDbText
  0
LINE
  5
5DE
330
6B
100
AcDbEntity
  8
0
  6
DASHED
100
AcDbLine
 10
-533.8062610224193
 20
-1.953521507739568
 30
0.0
 11
-533.8062610224193
 21
8.54647849226043
 31
0.0
  0
LINE
  5
5DF
330
6B
100
AcDbEntity
  8
0
  6
DASHED
100
AcDbLine
 10
-531.5062610224194
 20
-1.953521507739568
 30
0.0
 11
-531.5062610224194
 21
8.54647849226043
 31
0.0
  0
LINE
  5
5E0
330
6B
100
AcDbEntity
  8
0
  6
DASHED
100
AcDbLine
 10
-529.2062610224193
 20
-1.953521507739568
 30
0.0
 11
-529.2062610224193
 21
8.54647849226043
 31
0.0
  0
LINE
  5
5E1
330
6B
100
AcDbEntity
  8
0
  6
DASHED
100
AcDbLine
 10
-533.8062610224193
 20
-1.953521507739568
 30
0.0
 11
-529.2062610224193
 21
-1.953521507739568
 31
0.0
  0
LINE
  5
5E2
330
6B
100
AcDbEntity
  8
0
  6
DASHED
100
AcDbLine
 10
-533.8062610224193
 20
8.54647849226043
 30
0.0
 11
-529.2062610224193
 21
8.54647849226043
 31
0.0
  0
LINE
  5
5E3
330
6B
100
AcDbEntity
  8
0
  6
DASHED
100
AcDbLine
 10
-526.9062610224192
 20
-1.953521507739568
 30
0.0
 11
-526.9062610224192
 21
8.54647849226043
 31
0.0
  0
LINE
  5
5E4
330
6B
100
AcDbEntity
  8
0
  6
DASHED
100
AcDbLine
 10
-524.6062610224193
 20
-1.953521507739568
 30
0.0
 11
-524.6062610224193
 21
8.54647849226043
 31
0.0
  0
LINE
  5
5E5
330
6B
100
AcDbEntity
  8
0
  6
DASHED
100
AcDbLine
 10
-522.3062610224193
 20
-1.953521507739568
 30
0.0
 11
-522.3062610224193
 21
8.54647849226043
 31
0.0
  0
LINE
  5
5E6
330
6B
100
AcDbEntity
  8
0
  6
DASHED
100
AcDbLine
 10
-526.9062610224192
 20
-1.953521507739568
 30
0.0
 11
-522.3062610224193
 21
-1.953521507739568
 31
0.0
  0
LINE
  5
5E7
330
6B
100
AcDbEntity
  8
0
  6
DASHED
100
AcDbLine
 10
-526.9062610224192
 20
8.54647849226043
 30
0.0
 11
-522.3062610224193
 21
8.54647849226043
 31
0.0
  0
LINE
  5
5E8
330
6B
100
AcDbEntity
  8
0
  6
DASHED
100
AcDbLine
 10
-520.0062610224192
 20
-1.953521507739568
 30
0.0
 11
-520.0062610224192
 21
8.54647849226043
 31
0.0
  0
LINE
  5
5E9
330
6B
100
AcDbEntity
  8
0
  6
DASHED
100
AcDbLine
 10
-517.7062610224193
 20
-1.953521507739568
 30
0.0
 11
-517.7062610224193
 21
8.54647849226043
 31
0.0
  0
LINE
  5
5EA
330
6B
100
AcDbEntity
  8
0
  6
DASHED
100
AcDbLine
 10
-515.4062610224192
 20
-1.953521507739568
 30
0.0
 11
-515.4062610224192
 21
8.54647849226043
 31
0.0
  0
LINE
  5
5EB
330
6B
100
AcDbEntity
  8
0
  6
DASHED
100
AcDbLine
 10
-520.0062610224192
 20
-1.953521507739568
 30
0.0
 11
-515.4062610224192
 21
-1.953521507739568
 31
0.0
  0
LINE
  5
5EC
330
6B
100
AcDbEntity
  8
0
  6
DASHED
100
AcDbLine
 10
-520.0062610224192
 20
8.54647849226043
 30
0.0
 11
-515.4062610224192
 21
8.54647849226043
 31
0.0
  0
LINE
  5
5ED
330
6B
100
AcDbEntity
  8
0
  6
DASHED
100
AcDbLine
 10
-513.1062610224192
 20
-1.953521507739568
 30
0.0
 11
-513.1062610224192
 21
8.54647849226043
 31
0.0
  0
LINE
  5
5EE
330
6B
100
AcDbEntity
  8
0
  6
DASHED
100
AcDbLine
 10
-510.8062610224193
 20
-1.953521507739568
 30
0.0
 11
-510.8062610224193
 21
8.54647849226043
 31
0.0
  0
LINE
  5
5EF
330
6B
100
AcDbEntity
  8
0
  6
DASHED
100
AcDbLine
 10
-508.5062610224192
 20
-1.953521507739568
 30
0.0
 11
-508.5062610224192
 21
8.54647849226043
 31
0.0
  0
LINE
  5
5F0
330
6B
100
AcDbEntity
  8
0
  6
DASHED
100
AcDbLine
 10
-513.1062610224192
 20
-1.953521507739568
 30
0.0
 11
-508.5062610224192
 21
-1.953521507739568
 31
0.0
  0
LINE
  5
5F1
330
6B
100
AcDbEntity
  8
0
  6
DASHED
100
AcDbLine
 10
-513.1062610224192
 20
8.54647849226043
 30
0.0
 11
-508.5062610224192
 21
8.54647849226043
 31
0.0
  0
LINE
  5
5F2
330
6B
100
AcDbEntity
  8
0
100
AcDbLine
 10
-505.6062610224192
 20
8.54647849226043
 30
0.0
 11
-502.7966170224194
 21
8.54647849226043
 31
0.0
  0
LINE
  5
5F3
330
6B
100
AcDbEntity
  8
0
 62
     3
100
AcDbLine
 10
-603.1281060224194
 20
6.266330492260429
 30
0.0
 11
-602.6842990224194
 21
5.82672949226043
 31
0.0
  0
LINE
  5
5F4
330
6B
100
AcDbEntity
  8
0
 62
     3
100
AcDbLine
 10
-603.1281060224194
 20
0.2663304922604304
 30
0.0
 11
-602.6491040224192
 21
0.7938294922604305
 31
0.0
  0
LINE
  5
5F5
330
6B
100
AcDbEntity
  8
0
 62
     3
100
AcDbLine
 10
-602.6082630224192
 20
5.75141449226043
 30
0.0
 11
-602.6082630224192
 21
0.7514144922604304
 31
0.0
  0
LINE
  5
5F6
330
6B
100
AcDbEntity
  8
0
 62
     3
100
AcDbLine
 10
-616.1192100224192
 20
-2.233669507739568
 30
0.0
 11
-616.1192100224192
 21
8.766330492260431
 31
0.0
  0
ARC
  5
5F7
330
6B
100
AcDbEntity
  8
0
 62
     3
100
AcDbCircle
 10
-614.1192100224192
 20
8.766330492260431
 30
0.0
 40
2.0
100
AcDbArc
 50
90.0
 51
180.0
  0
ARC
  5
5F8
330
6B
100
AcDbEntity
  8
0
 62
     3
100
AcDbCircle
 10
-614.1192100224192
 20
-2.233669507739568
 30
0.0
 40
2.0
100
AcDbArc
 50
180.0
 51
270.0
  0
LINE
  5
5F9
330
6B
100
AcDbEntity
  8
0
 62
     3
100
AcDbLine
 10
-616.0809240224192
 20
-2.535485507739569
 30
0.0
 11
-617.5809240224192
 21
-2.003227507739568
 31
0.0
  0
LINE
  5
5FA
330
6B
100
AcDbEntity
  8
0
 62
     3
100
AcDbLine
 10
-605.1192100224191
 20
10.76633049226043
 30
0.0
 11
-614.1192100224192
 21
10.76633049226043
 31
0.0
  0
LINE
  5
5FB
330
6B
100
AcDbEntity
  8
0
 62
     3
100
AcDbLine
 10
-605.1192100224191
 20
-4.233669507739568
 30
0.0
 11
-614.1192100224192
 21
-4.233669507739568
 31
0.0
  0
LINE
  5
5FC
330
6B
100
AcDbEntity
  8
0
 62
     3
100
AcDbLine
 10
-616.0809240224192
 20
9.06814649226043
 30
0.0
 11
-617.5809240224192
 21
8.535888492260427
 31
0.0
  0
ARC
  5
5FD
330
6B
100
AcDbEntity
  8
0
 62
     3
100
AcDbCircle
 10
-605.1192100224191
 20
8.766330492260431
 30
0.0
 40
2.0
100
AcDbArc
 50
0.0
 51
90.0
  0
ARC
  5
5FE
330
6B
100
AcDbEntity
  8
0
 62
     3
100
AcDbCircle
 10
-605.1192100224191
 20
-2.233669507739568
 30
0.0
 40
2.0
100
AcDbArc
 50
270.0
 51
0.0
  0
LINE
  5
5FF
330
6B
100
AcDbEntity
  8
0
 62
     3
100
AcDbLine
 10
-674.1636580224193
 20
-1.503227507739568
 30
0.0
 11
-674.1636580224193
 21
8.035888492260427
 31
0.0
  0
LINE
  5
600
330
6B
100
AcDbEntity
  8
0
 62
     3
100
AcDbLine
 10
-673.6636580224192
 20
8.535888492260427
 30
0.0
 11
-617.5809240224192
 21
8.535888492260427
 31
0.0
  0
LINE
  5
601
330
6B
100
AcDbEntity
  8
0
 62
     3
100
AcDbLine
 10
-673.6636580224192
 20
-2.003227507739568
 30
0.0
 11
-617.5809240224192
 21
-2.003227507739568
 31
0.0
  0
ARC
  5
602
330
6B
100
AcDbEntity
  8
0
 62
     3
100
AcDbCircle
 10
-673.6636580224192
 20
8.035888492260427
 30
0.0
 40
0.5
100
AcDbArc
 50
90.0
 51
180.0
  0
ARC
  5
603
330
6B
100
AcDbEntity
  8
0
 62
     3
100
AcDbCircle
 10
-673.6636580224192
 20
-1.503227507739568
 30
0.0
 40
0.5
100
AcDbArc
 50
180.0
 51
270.0
  0
LINE
  5
604
330
6B
100
AcDbEntity
  8
0
 62
     3
100
AcDbLine
 10
-592.1682770224192
 20
72.28882449226043
 30
0.0
 11
-523.5533260224192
 21
72.28882449226043
 31
0.0
  0
LINE
  5
605
330
6B
100
AcDbEntity
  8
0
 62
     3
100
AcDbLine
 10
-592.1682770224192
 20
70.78882449226043
 30
0.0
 11
-524.0096830224192
 21
70.78882449226043
 31
0.0
  0
LINE
  5
606
330
6B
100
AcDbEntity
  8
0
 62
     3
100
AcDbLine
 10
-391.3424450224193
 20
72.28737149226043
 30
0.0
 11
-488.7722680224192
 21
72.28737149226043
 31
0.0
  0
LINE
  5
607
330
6B
100
AcDbEntity
  8
0
 62
     3
100
AcDbLine
 10
-366.1938830224193
 20
70.76298149226042
 30
0.0
 11
-488.7722680224192
 21
70.76298149226042
 31
0.0
  0
TEXT
  5
608
330
6B
100
AcDbEntity
  8
0
100
AcDbText
 10
-443.4002060224194
 20
-0.1025585077395696
 30
0.0
 40
2.027519999999999
  1
PA6
 50
90.00000300000001
 41
1.067708
100
AcDbText
  0
LINE
  5
609
330
6B
100
AcDbEntity
  8
0
 62
     3
100
AcDbLine
 10
-603.1192100224192
 20
8.766330492260431
 30
0.0
 11
-603.1192100224192
 21
-2.233669507739568
 31
0.0
  0
LINE
  5
60B
330
6B
100
AcDbEntity
  8
0
100
AcDbLine
 10
-424.9824280224193
 20
0.9021694922604304
 30
0.0
 11
-415.2958940224193
 21
-15.84719650773957
 31
0.0
  0
LINE
  5
60C
330
6B
100
AcDbEntity
  8
0
100
AcDbLine
 10
-415.2958940224193
 20
-15.84719650773957
 30
0.0
 11
-391.2333940224194
 21
-15.84719650773957
 31
0.0
  0
TEXT
  5
60D
330
6B
100
AcDbEntity
  8
0
 62
     4
100
AcDbText
 10
-411.8583940224192
 20
-14.59719550773957
 30
0.0
 40
4.0
  1
3-%%C4穴
 41
0.716146
100
AcDbText
  0
TEXT
  5
60E
330
6B
100
AcDbEntity
  8
0
 62
     3
100
AcDbText
 10
-411.4065120224193
 20
0.9780604922604306
 30
0.0
 40
4.5
  1
BH-500
 41
0.7306600000000003
100
AcDbText
  0
LINE
  5
621
330
6B
100
AcDbEntity
  8
0
100
AcDbLine
 10
-557.8608020224192
 20
72.28882449226043
 30
0.0
 11
-557.4570410224192
 21
92.63160649226042
 31
0.0
  0
CIRCLE
  5
622
330
6B
100
AcDbEntity
  8
0
100
AcDbCircle
 10
-557.3578210224193
 20
97.63062149226044
 30
0.0
 40
5.0
  0
TEXT
  5
623
330
6B
100
AcDbEntity
  8
0
 62
     4
100
AcDbText
 10
-558.4371965828315
 20
94.40905565946559
 30
0.0
 40
6.299999999999998
  1
1
  7
高6.3
100
AcDbText
  0
LINE
  5
625
330
6B
100
AcDbEntity
  8
0
100
AcDbLine
 10
-619.5379270224194
 20
76.46179149226043
 30
0.0
 11
-615.5079270224192
 21
91.80859449226041
 31
0.0
  0
CIRCLE
  5
626
330
6B
100
AcDbEntity
  8
0
100
AcDbCircle
 10
-614.2380040224193
 20
96.64463549226043
 30
0.0
 40
5.0
  0
TEXT
  5
627
330
6B
100
AcDbEntity
  8
0
 62
     4
100
AcDbText
 10
-616.2339182850506
 20
93.48000717630815
 30
0.0
 40
6.299999999999998
  1
2
  7
高6.3
100
AcDbText
  0
LINE
  5
62A
330
6B
100
AcDbEntity
  8
0
 62
     2
100
AcDbLine
 10
-562.4367160224193
 20
4.69440449226043
 30
0.0
 11
-562.6161710224192
 21
4.69440449226043
 31
0.0
  0
ARC
  5
62B
330
6B
100
AcDbEntity
  8
0
 62
     2
100
AcDbCircle
 10
-562.4367160224193
 20
4.459318492260432
 30
0.0
 40
0.235086
100
AcDbArc
 50
0.0
 51
90.0
  0
LINE
  5
62C
330
6B
100
AcDbEntity
  8
0
 62
     2
100
AcDbLine
 10
-562.2016290224193
 20
4.459318492260432
 30
0.0
 11
-562.2016290224193
 21
1.972068492260429
 31
0.0
  0
LINE
  5
62D
330
6B
100
AcDbEntity
  8
0
 62
     2
100
AcDbLine
 10
-560.4609140224193
 20
1.239891492260429
 30
0.0
 11
-562.6161710224192
 21
1.239891492260429
 31
0.0
  0
LINE
  5
62E
330
6B
100
AcDbEntity
  8
0
 62
     2
100
AcDbLine
 10
-560.4609140224193
 20
1.736982492260429
 30
0.0
 11
-560.4609140224193
 21
1.239891492260429
 31
0.0
  0
LINE
  5
62F
330
6B
100
AcDbEntity
  8
0
 62
     2
100
AcDbLine
 10
-560.6403690224192
 20
1.736982492260429
 30
0.0
 11
-560.4609140224193
 21
1.736982492260429
 31
0.0
  0
ARC
  5
630
330
6B
100
AcDbEntity
  8
0
 62
     2
100
AcDbCircle
 10
-560.6403690224192
 20
1.972068492260429
 30
0.0
 40
0.235086
100
AcDbArc
 50
180.0
 51
270.0
  0
LINE
  5
631
330
6B
100
AcDbEntity
  8
0
 62
     2
100
AcDbLine
 10
-563.0527530224193
 20
5.191401492260429
 30
0.0
 11
-565.0698290224193
 21
5.191401492260429
 31
0.0
  0
LINE
  5
632
330
6B
100
AcDbEntity
  8
0
 62
     2
100
AcDbLine
 10
-563.0527530224193
 20
5.191401492260429
 30
0.0
 11
-563.0527530224193
 21
4.691022492260429
 31
0.0
  0
LINE
  5
633
330
6B
100
AcDbEntity
  8
0
 62
     2
100
AcDbLine
 10
-563.2022990224193
 20
4.691022492260429
 30
0.0
 11
-563.0527530224193
 21
4.691022492260429
 31
0.0
  0
ARC
  5
634
330
6B
100
AcDbEntity
  8
0
 62
     2
100
AcDbCircle
 10
-563.1631170224193
 20
4.459224492260429
 30
0.0
 40
0.235086
100
AcDbArc
 50
99.59406799999896
 51
180.0
  0
LINE
  5
635
330
6B
100
AcDbEntity
  8
0
 62
     2
100
AcDbLine
 10
-563.3982040224192
 20
4.459224492260429
 30
0.0
 11
-563.3982040224192
 21
1.971974492260429
 31
0.0
  0
ARC
  5
636
330
6B
100
AcDbEntity
  8
0
 62
     2
100
AcDbCircle
 10
-563.1631170224193
 20
1.971974492260429
 30
0.0
 40
0.235086
100
AcDbArc
 50
180.0
 51
260.405932000001
  0
LINE
  5
637
330
6B
100
AcDbEntity
  8
0
 62
     2
100
AcDbLine
 10
-563.2022990224193
 20
1.740176492260429
 30
0.0
 11
-563.0527530224193
 21
1.740176492260429
 31
0.0
  0
LINE
  5
638
330
6B
100
AcDbEntity
  8
0
 62
     2
100
AcDbLine
 10
-563.0527530224193
 20
1.740176492260429
 30
0.0
 11
-563.0527530224193
 21
1.239797492260429
 31
0.0
  0
LINE
  5
639
330
6B
100
AcDbEntity
  8
0
 62
     2
100
AcDbLine
 10
-563.0527530224193
 20
1.239797492260429
 30
0.0
 11
-565.0698290224193
 21
1.239797492260429
 31
0.0
  0
ARC
  5
63A
330
6B
100
AcDbEntity
  8
0
 62
     2
100
AcDbCircle
 10
-560.6403690224192
 20
4.459318492260432
 30
0.0
 40
0.235086
100
AcDbArc
 50
90.0
 51
180.0
  0
LINE
  5
63B
330
6B
100
AcDbEntity
  8
0
 62
     2
100
AcDbLine
 10
-560.8754550224192
 20
4.459318492260432
 30
0.0
 11
-560.8754550224192
 21
1.972068492260429
 31
0.0
  0
LINE
  5
63C
330
6B
100
AcDbEntity
  8
0
 62
     2
100
AcDbLine
 10
-560.4609140224193
 20
5.191495492260429
 30
0.0
 11
-560.4609140224193
 21
4.69440449226043
 31
0.0
  0
LINE
  5
63D
330
6B
100
AcDbEntity
  8
0
 62
     2
100
AcDbLine
 10
-560.6403690224192
 20
4.69440449226043
 30
0.0
 11
-560.4609140224193
 21
4.69440449226043
 31
0.0
  0
LINE
  5
63E
330
6B
100
AcDbEntity
  8
0
 62
     2
100
AcDbLine
 10
-560.4609140224193
 20
5.191495492260429
 30
0.0
 11
-562.6161710224192
 21
5.191495492260429
 31
0.0
  0
LINE
  5
63F
330
6B
100
AcDbEntity
  8
0
 62
     2
100
AcDbLine
 10
-562.6161710224192
 20
5.191495492260429
 30
0.0
 11
-562.6161710224192
 21
4.69440449226043
 31
0.0
  0
LINE
  5
640
330
6B
100
AcDbEntity
  8
0
 62
     2
100
AcDbLine
 10
-560.0572480224192
 20
1.736982492260429
 30
0.0
 11
-560.0572480224192
 21
1.239891492260429
 31
0.0
  0
ARC
  5
641
330
6B
100
AcDbEntity
  8
0
 62
     2
100
AcDbCircle
 10
-559.8777920224192
 20
1.972068492260429
 30
0.0
 40
0.235086
100
AcDbArc
 50
270.0
 51
0.0
  0
LINE
  5
642
330
6B
100
AcDbEntity
  8
0
 62
     2
100
AcDbLine
 10
-559.8777920224192
 20
1.736982492260429
 30
0.0
 11
-560.0572480224192
 21
1.736982492260429
 31
0.0
  0
LINE
  5
643
330
6B
100
AcDbEntity
  8
0
 62
     2
100
AcDbLine
 10
-557.7300000224193
 20
1.239891492260429
 30
0.0
 11
-560.0572480224192
 21
1.239891492260429
 31
0.0
  0
LINE
  5
644
330
6B
100
AcDbEntity
  8
0
 62
     2
100
AcDbLine
 10
-559.6427060224193
 20
4.459318492260432
 30
0.0
 11
-559.6427060224193
 21
1.972068492260429
 31
0.0
  0
LINE
  5
645
330
6B
100
AcDbEntity
  8
0
 62
     2
100
AcDbLine
 10
-558.3165320224193
 20
4.556223492260429
 30
0.0
 11
-558.3165320224193
 21
1.875163492260429
 31
0.0
  0
LINE
  5
646
330
6B
100
AcDbEntity
  8
0
 62
     2
100
AcDbLine
 10
-558.3165320224193
 20
1.875163492260429
 30
0.0
 11
-558.1357320224192
 21
1.875163492260429
 31
0.0
  0
ARC
  5
647
330
6B
100
AcDbEntity
  8
0
 62
     2
100
AcDbCircle
 10
-559.0602240224193
 20
3.21569349226043
 30
0.0
 40
1.628406999999999
100
AcDbArc
 50
304.5919550000006
 51
55.40804499999937
  0
ARC
  5
648
330
6B
100
AcDbEntity
  8
0
 62
     2
100
AcDbCircle
 10
-557.7300000224193
 20
2.80115149226043
 30
0.0
 40
1.56126
100
AcDbArc
 50
270.0
 51
342.6912509999998
  0
ARC
  5
649
330
6B
100
AcDbEntity
  8
0
 62
     2
100
AcDbCircle
 10
-557.7300000224193
 20
3.63023549226043
 30
0.0
 40
1.56126
100
AcDbArc
 50
17.30874900000007
 51
90.0
  0
LINE
  5
64A
330
6B
100
AcDbEntity
  8
0
 62
     2
100
AcDbLine
 10
-557.7300000224193
 20
5.191495492260429
 30
0.0
 11
-560.0572480224192
 21
5.191495492260429
 31
0.0
  0
LINE
  5
64B
330
6B
100
AcDbEntity
  8
0
 62
     2
100
AcDbLine
 10
-560.0572480224192
 20
5.191495492260429
 30
0.0
 11
-560.0572480224192
 21
4.69440449226043
 31
0.0
  0
LINE
  5
64C
330
6B
100
AcDbEntity
  8
0
 62
     2
100
AcDbLine
 10
-559.8777920224192
 20
4.69440449226043
 30
0.0
 11
-560.0572480224192
 21
4.69440449226043
 31
0.0
  0
ARC
  5
64D
330
6B
100
AcDbEntity
  8
0
 62
     2
100
AcDbCircle
 10
-559.8777920224192
 20
4.459318492260432
 30
0.0
 40
0.235086
100
AcDbArc
 50
0.0
 51
90.0
  0
ARC
  5
64E
330
6B
100
AcDbEntity
  8
0
 62
     2
100
AcDbCircle
 10
-562.4367160224193
 20
1.972068492260429
 30
0.0
 40
0.235086
100
AcDbArc
 50
270.0
 51
0.0
  0
LINE
  5
64F
330
6B
100
AcDbEntity
  8
0
 62
     2
100
AcDbLine
 10
-562.4367160224193
 20
1.736982492260429
 30
0.0
 11
-562.6161710224192
 21
1.736982492260429
 31
0.0
  0
LINE
  5
650
330
6B
100
AcDbEntity
  8
0
 62
     2
100
AcDbLine
 10
-562.6161710224192
 20
1.736982492260429
 30
0.0
 11
-562.6161710224192
 21
1.239891492260429
 31
0.0
  0
LINE
  5
651
330
6B
100
AcDbEntity
  8
0
 62
     2
100
AcDbLine
 10
-558.3165320224193
 20
4.556223492260429
 30
0.0
 11
-558.1357320224192
 21
4.556223492260429
 31
0.0
  0
ARC
  5
652
330
6B
100
AcDbEntity
  8
0
 62
     2
100
AcDbCircle
 10
-559.0602240224193
 20
3.21569349226043
 30
0.0
 40
2.954581
100
AcDbArc
 50
342.6912509999998
 51
17.30856599999997
  0
ARC
  5
653
330
6B
100
AcDbEntity
  8
0
 62
     2
100
AcDbCircle
 10
-558.6158220224192
 20
3.46710549226043
 30
0.0
 40
2.802941
100
AcDbArc
 50
333.6752840000004
 51
19.69063499999966
  0
ARC
  5
654
330
6B
100
AcDbEntity
  8
0
 62
     2
100
AcDbCircle
 10
-552.2211370224193
 20
3.18519449226043
 30
0.0
 40
2.621769
100
AcDbArc
 50
149.3344129999993
 51
209.361467
  0
ARC
  5
655
330
6B
100
AcDbEntity
  8
0
 62
     2
100
AcDbCircle
 10
-554.3986680224191
 20
3.22268749226043
 30
0.0
 40
1.975802
100
AcDbArc
 50
210.35784
 51
143.0080790000007
  0
ARC
  5
656
330
6B
100
AcDbEntity
  8
0
 62
     2
100
AcDbCircle
 10
-556.5761990224192
 20
3.18519249226043
 30
0.0
 40
2.621769
100
AcDbArc
 50
330.3722729999993
 51
30.84052499999998
  0
ARC
  5
657
330
6B
100
AcDbEntity
  8
0
 62
     2
100
AcDbCircle
 10
-554.3973920224192
 20
4.452795492260429
 30
0.0
 40
0.105179
100
AcDbArc
 50
46.62177100000085
 51
138.5892689999997
  0
ARC
  5
658
330
6B
100
AcDbEntity
  8
0
 62
     2
100
AcDbCircle
 10
-554.3973920224192
 20
1.978591492260429
 30
0.0
 40
0.13434
100
AcDbArc
 50
215.9651230000005
 51
318.2218159999998
  0
LINE
  5
659
330
6B
100
AcDbEntity
  8
0
 62
     2
100
AcDbLine
 10
-571.3656720224194
 20
4.459306492260431
 30
0.0
 11
-571.3657160224193
 21
1.972057492260429
 31
0.0
  0
LINE
  5
65A
330
6B
100
AcDbEntity
  8
0
 62
     2
100
AcDbLine
 10
-571.1306330224194
 20
1.736966492260429
 30
0.0
 11
-570.9511780224192
 21
1.736963492260429
 31
0.0
  0
ARC
  5
65B
330
6B
100
AcDbEntity
  8
0
 62
     2
100
AcDbCircle
 10
-571.1306290224192
 20
1.972053492260429
 30
0.0
 40
0.235086
100
AcDbArc
 50
179.999
 51
269.9990000000003
  0
LINE
  5
65C
330
6B
100
AcDbEntity
  8
0
 62
     2
100
AcDbLine
 10
-570.9511780224192
 20
1.736963492260429
 30
0.0
 11
-570.9511870224194
 21
1.239872492260429
 31
0.0
  0
LINE
  5
65D
330
6B
100
AcDbEntity
  8
0
 62
     2
100
AcDbLine
 10
-573.1064440224193
 20
1.239910492260429
 30
0.0
 11
-570.9511870224194
 21
1.239872492260429
 31
0.0
  0
LINE
  5
65E
330
6B
100
AcDbEntity
  8
0
 62
     2
100
AcDbLine
 10
-576.2637510224192
 20
3.55723349226043
 30
0.0
 11
-576.2637510224192
 21
1.972068492260429
 31
0.0
  0
ARC
  5
65F
330
6B
100
AcDbEntity
  8
0
 62
     2
100
AcDbCircle
 10
-576.0286640224193
 20
1.972068492260429
 30
0.0
 40
0.235086
100
AcDbArc
 50
180.0
 51
270.0
  0
LINE
  5
660
330
6B
100
AcDbEntity
  8
0
 62
     2
100
AcDbLine
 10
-577.3135640224193
 20
1.239891492260429
 30
0.0
 11
-575.8492090224192
 21
1.239891492260429
 31
0.0
  0
ARC
  5
661
330
6B
100
AcDbEntity
  8
0
 62
     2
100
AcDbCircle
 10
-568.9993190224193
 20
3.21569349226043
 30
0.0
 40
1.975802
100
AcDbArc
 50
46.75287999999889
 51
312.8231200000005
  0
ARC
  5
662
330
6B
100
AcDbEntity
  8
0
 62
     2
100
AcDbCircle
 10
-581.5736600224193
 20
3.26221949226043
 30
0.0
 40
13.997507
100
AcDbArc
 50
353.866006
 51
357.694034
  0
LINE
  5
663
330
6B
100
AcDbEntity
  8
0
 62
     2
100
AcDbLine
 10
-568.5246190224193
 20
2.70248649226043
 30
0.0
 11
-567.5874880224194
 21
2.69901849226043
 31
0.0
  0
LINE
  5
665
330
6B
100
AcDbEntity
  8
0
 62
     2
100
AcDbLine
 10
-568.5208350224193
 20
3.72537349226043
 30
0.0
 11
-567.5837040224194
 21
3.72190649226043
 31
0.0
  0
ARC
  5
666
330
6B
100
AcDbEntity
  8
0
 62
     2
100
AcDbCircle
 10
-581.5736600224193
 20
3.26221949226043
 30
0.0
 40
13.997507
100
AcDbArc
 50
1.88196600000005
 51
5.709993999999976
  0
ARC
  5
667
330
6B
100
AcDbEntity
  8
0
 62
     2
100
AcDbCircle
 10
-571.1305860224192
 20
4.459302492260429
 30
0.0
 40
0.235086
100
AcDbArc
 50
89.99902800000048
 51
179.999
  0
LINE
  5
668
330
6B
100
AcDbEntity
  8
0
 62
     2
100
AcDbLine
 10
-570.9511180224193
 20
5.191476492260429
 30
0.0
 11
-570.9511270224193
 21
4.69438549226043
 31
0.0
  0
LINE
  5
669
330
6B
100
AcDbEntity
  8
0
 62
     2
100
AcDbLine
 10
-573.1063750224192
 20
5.191514492260429
 30
0.0
 11
-570.9511180224193
 21
5.191476492260429
 31
0.0
  0
LINE
  5
66A
330
6B
100
AcDbEntity
  8
0
 62
     2
100
AcDbLine
 10
-571.1305820224192
 20
4.694388492260429
 30
0.0
 11
-570.9511270224193
 21
4.69438549226043
 31
0.0
  0
ARC
  5
66B
330
6B
100
AcDbEntity
  8
0
 62
     2
100
AcDbCircle
 10
-572.9269500224193
 20
4.459321492260429
 30
0.0
 40
0.235086
100
AcDbArc
 50
359.999803
 51
89.99977399999876
  0
LINE
  5
66C
330
6B
100
AcDbEntity
  8
0
 62
     2
100
AcDbLine
 10
-572.6918640224194
 20
4.459320492260429
 30
0.0
 11
-572.6918720224192
 21
1.972071492260429
 31
0.0
  0
ARC
  5
66D
330
6B
100
AcDbEntity
  8
0
 62
     2
100
AcDbCircle
 10
-572.9269760224192
 20
1.97208449226043
 30
0.0
 40
0.235086
100
AcDbArc
 50
269.9990000000003
 51
359.999
  0
LINE
  5
66E
330
6B
100
AcDbEntity
  8
0
 62
     2
100
AcDbLine
 10
-573.1064350224193
 20
1.737001492260429
 30
0.0
 11
-573.1064440224193
 21
1.239910492260429
 31
0.0
  0
LINE
  5
66F
330
6B
100
AcDbEntity
  8
0
 62
     2
100
AcDbLine
 10
-572.9269800224192
 20
1.736998492260429
 30
0.0
 11
-573.1064350224193
 21
1.737001492260429
 31
0.0
  0
LINE
  5
670
330
6B
100
AcDbEntity
  8
0
 62
     2
100
AcDbLine
 10
-573.1063750224192
 20
5.191514492260429
 30
0.0
 11
-573.1063840224193
 21
4.69442349226043
 31
0.0
  0
LINE
  5
671
330
6B
100
AcDbEntity
  8
0
 62
     2
100
AcDbLine
 10
-572.9269290224192
 20
4.694420492260429
 30
0.0
 11
-573.1063840224193
 21
4.69442349226043
 31
0.0
  0
LINE
  5
672
330
6B
100
AcDbEntity
  8
0
 62
     2
100
AcDbLine
 10
-575.8492090224192
 20
1.736982492260429
 30
0.0
 11
-575.8492090224192
 21
1.239891492260429
 31
0.0
  0
LINE
  5
673
330
6B
100
AcDbEntity
  8
0
 62
     2
100
AcDbLine
 10
-576.0286640224193
 20
1.736982492260429
 30
0.0
 11
-575.8492090224192
 21
1.736982492260429
 31
0.0
  0
LINE
  5
674
330
6B
100
AcDbEntity
  8
0
 62
     2
100
AcDbLine
 10
-576.2637510224192
 20
3.55723349226043
 30
0.0
 11
-574.8154120224192
 21
1.239891492260429
 31
0.0
  0
LINE
  5
675
330
6B
100
AcDbEntity
  8
0
 62
     2
100
AcDbLine
 10
-574.8154120224192
 20
1.239891492260429
 30
0.0
 11
-573.8455920224192
 21
1.239891492260429
 31
0.0
  0
LINE
  5
676
330
6B
100
AcDbEntity
  8
0
 62
     2
100
AcDbLine
 10
-573.8455920224192
 20
4.321137492260429
 30
0.0
 11
-573.8455920224192
 21
1.239891492260429
 31
0.0
  0
ARC
  5
677
330
6B
100
AcDbEntity
  8
0
 62
     2
100
AcDbCircle
 10
-573.4723250224192
 20
4.321137492260429
 30
0.0
 40
0.373267
100
AcDbArc
 50
83.65142599999908
 51
180.0
  0
LINE
  5
678
330
6B
100
AcDbEntity
  8
0
 62
     2
100
AcDbLine
 10
-573.4310500224193
 20
5.191495492260429
 30
0.0
 11
-573.4310500224193
 21
4.69211549226043
 31
0.0
  0
LINE
  5
679
330
6B
100
AcDbEntity
  8
0
 62
     2
100
AcDbLine
 10
-574.8954050224194
 20
5.191495492260429
 30
0.0
 11
-573.4310500224193
 21
5.191495492260429
 31
0.0
  0
LINE
  5
67A
330
6B
100
AcDbEntity
  8
0
 62
     2
100
AcDbLine
 10
-574.8954050224194
 20
5.191495492260429
 30
0.0
 11
-574.8954050224194
 21
4.69440449226043
 31
0.0
  0
LINE
  5
67B
330
6B
100
AcDbEntity
  8
0
 62
     2
100
AcDbLine
 10
-574.8954050224194
 20
4.69440449226043
 30
0.0
 11
-574.7159500224192
 21
4.69440449226043
 31
0.0
  0
ARC
  5
67C
330
6B
100
AcDbEntity
  8
0
 62
     2
100
AcDbCircle
 10
-574.7159500224192
 20
4.459318492260432
 30
0.0
 40
0.235086
100
AcDbArc
 50
0.0
 51
90.0
  0
LINE
  5
67D
330
6B
100
AcDbEntity
  8
0
 62
     2
100
AcDbLine
 10
-574.4808630224192
 20
3.40168849226043
 30
0.0
 11
-574.4808630224192
 21
4.459318492260432
 31
0.0
  0
LINE
  5
67E
330
6B
100
AcDbEntity
  8
0
 62
     2
100
AcDbLine
 10
-574.4808630224192
 20
3.40168849226043
 30
0.0
 11
-575.6554240224192
 21
5.191495492260429
 31
0.0
  0
LINE
  5
67F
330
6B
100
AcDbEntity
  8
0
 62
     2
100
AcDbLine
 10
-577.3135640224193
 20
5.191495492260429
 30
0.0
 11
-575.6554240224192
 21
5.191495492260429
 31
0.0
  0
LINE
  5
680
330
6B
100
AcDbEntity
  8
0
 62
     2
100
AcDbLine
 10
-566.9352660224192
 20
1.971974492260429
 30
0.0
 11
-566.9352660224192
 21
4.459224492260429
 31
0.0
  0
LINE
  5
681
330
6B
100
AcDbEntity
  8
0
 62
     2
100
AcDbLine
 10
-567.2807170224192
 20
5.191401492260429
 30
0.0
 11
-565.2636410224192
 21
5.191401492260429
 31
0.0
  0
ARC
  5
682
330
6B
100
AcDbEntity
  8
0
 62
     2
100
AcDbCircle
 10
-567.1012620224193
 20
4.459224492260429
 30
0.0
 40
0.165996
100
AcDbArc
 50
0.0
 51
90.0
  0
LINE
  5
683
330
6B
100
AcDbEntity
  8
0
 62
     2
100
AcDbLine
 10
-567.1012620224193
 20
4.625220492260429
 30
0.0
 11
-567.2807170224192
 21
4.625220492260429
 31
0.0
  0
LINE
  5
684
330
6B
100
AcDbEntity
  8
0
 62
     2
100
AcDbLine
 10
-567.2807170224192
 20
4.625220492260429
 30
0.0
 11
-567.2807170224192
 21
5.191401492260429
 31
0.0
  0
ARC
  5
685
330
6B
100
AcDbEntity
  8
0
 62
     2
100
AcDbCircle
 10
-567.1012620224193
 20
1.971974492260429
 30
0.0
 40
0.165996
100
AcDbArc
 50
270.0
 51
0.0
  0
LINE
  5
686
330
6B
100
AcDbEntity
  8
0
 62
     2
100
AcDbLine
 10
-567.1012620224193
 20
1.805978492260429
 30
0.0
 11
-567.2807170224192
 21
1.805978492260429
 31
0.0
  0
LINE
  5
687
330
6B
100
AcDbEntity
  8
0
 62
     2
100
AcDbLine
 10
-567.2807170224192
 20
1.239797492260429
 30
0.0
 11
-567.2807170224192
 21
1.805978492260429
 31
0.0
  0
LINE
  5
688
330
6B
100
AcDbEntity
  8
0
 62
     2
100
AcDbLine
 10
-567.2807170224192
 20
1.239797492260429
 30
0.0
 11
-565.2636410224192
 21
1.239797492260429
 31
0.0
  0
ARC
  5
689
330
6B
100
AcDbEntity
  8
0
 62
     2
100
AcDbCircle
 10
-564.9594640224193
 20
4.459224492260429
 30
0.0
 40
0.235086
100
AcDbArc
 50
0.0
 51
80.40593200000104
  0
LINE
  5
68A
330
6B
100
AcDbEntity
  8
0
 62
     2
100
AcDbLine
 10
-564.9202830224193
 20
4.691022492260429
 30
0.0
 11
-565.0698290224193
 21
4.691022492260429
 31
0.0
  0
LINE
  5
68B
330
6B
100
AcDbEntity
  8
0
 62
     2
100
AcDbLine
 10
-564.7243780224194
 20
3.53323549226043
 30
0.0
 11
-564.7243780224194
 21
4.459224492260429
 31
0.0
  0
LINE
  5
68C
330
6B
100
AcDbEntity
  8
0
 62
     2
100
AcDbLine
 10
-564.7243780224194
 20
3.53323549226043
 30
0.0
 11
-565.6090920224193
 21
3.53323549226043
 31
0.0
  0
LINE
  5
68D
330
6B
100
AcDbEntity
  8
0
 62
     2
100
AcDbLine
 10
-564.7243780224194
 20
2.89796349226043
 30
0.0
 11
-565.6090920224193
 21
2.89796349226043
 31
0.0
  0
LINE
  5
68E
330
6B
100
AcDbEntity
  8
0
 62
     2
100
AcDbLine
 10
-564.7243780224194
 20
1.971974492260429
 30
0.0
 11
-564.7243780224194
 21
2.89796349226043
 31
0.0
  0
ARC
  5
68F
330
6B
100
AcDbEntity
  8
0
 62
     2
100
AcDbCircle
 10
-564.9594640224193
 20
1.971974492260429
 30
0.0
 40
0.235086
100
AcDbArc
 50
279.594067999999
 51
0.0
  0
LINE
  5
690
330
6B
100
AcDbEntity
  8
0
 62
     2
100
AcDbLine
 10
-564.9202830224193
 20
1.740176492260429
 30
0.0
 11
-565.0698290224193
 21
1.740176492260429
 31
0.0
  0
LINE
  5
691
330
6B
100
AcDbEntity
  8
0
 62
     2
100
AcDbLine
 10
-565.0698290224193
 20
1.740176492260429
 30
0.0
 11
-565.0698290224193
 21
1.239797492260429
 31
0.0
  0
LINE
  5
692
330
6B
100
AcDbEntity
  8
0
 62
     2
100
AcDbLine
 10
-565.2636410224192
 20
1.740176492260429
 30
0.0
 11
-565.2636410224192
 21
1.239797492260429
 31
0.0
  0
LINE
  5
693
330
6B
100
AcDbEntity
  8
0
 62
     2
100
AcDbLine
 10
-565.4131870224192
 20
1.740176492260429
 30
0.0
 11
-565.2636410224192
 21
1.740176492260429
 31
0.0
  0
ARC
  5
694
330
6B
100
AcDbEntity
  8
0
 62
     2
100
AcDbCircle
 10
-565.3740060224192
 20
1.971974492260429
 30
0.0
 40
0.235086
100
AcDbArc
 50
180.0
 51
260.405932000001
  0
LINE
  5
695
330
6B
100
AcDbEntity
  8
0
 62
     2
100
AcDbLine
 10
-565.6090920224193
 20
1.971974492260429
 30
0.0
 11
-565.6090920224193
 21
2.89796349226043
 31
0.0
  0
LINE
  5
696
330
6B
100
AcDbEntity
  8
0
 62
     2
100
AcDbLine
 10
-565.6090920224193
 20
3.53323549226043
 30
0.0
 11
-565.6090920224193
 21
4.459224492260429
 31
0.0
  0
ARC
  5
697
330
6B
100
AcDbEntity
  8
0
 62
     2
100
AcDbCircle
 10
-565.3740060224192
 20
4.459224492260429
 30
0.0
 40
0.235086
100
AcDbArc
 50
99.59406799999896
 51
180.0
  0
LINE
  5
698
330
6B
100
AcDbEntity
  8
0
 62
     2
100
AcDbLine
 10
-565.4131870224192
 20
4.691022492260429
 30
0.0
 11
-565.2636410224192
 21
4.691022492260429
 31
0.0
  0
LINE
  5
699
330
6B
100
AcDbEntity
  8
0
 62
     2
100
AcDbLine
 10
-565.2636410224192
 20
4.691022492260429
 30
0.0
 11
-565.2636410224192
 21
5.191401492260429
 31
0.0
  0
LINE
  5
69A
330
6B
100
AcDbEntity
  8
0
 62
     2
100
AcDbLine
 10
-565.0698290224193
 20
4.691022492260429
 30
0.0
 11
-565.0698290224193
 21
5.191401492260429
 31
0.0
  0
LINE
  5
69B
330
6B
100
AcDbEntity
  8
0
 62
     2
100
AcDbLine
 10
-577.3135640224193
 20
1.736982492260429
 30
0.0
 11
-577.3135640224193
 21
1.239891492260429
 31
0.0
  0
LINE
  5
69C
330
6B
100
AcDbEntity
  8
0
 62
     2
100
AcDbLine
 10
-576.8990220224193
 20
4.459318492260432
 30
0.0
 11
-576.8990220224193
 21
1.972068492260429
 31
0.0
  0
ARC
  5
69D
330
6B
100
AcDbEntity
  8
0
 62
     2
100
AcDbCircle
 10
-577.1341090224192
 20
1.972068492260429
 30
0.0
 40
0.235086
100
AcDbArc
 50
270.0
 51
0.0
  0
LINE
  5
69E
330
6B
100
AcDbEntity
  8
0
 62
     2
100
AcDbLine
 10
-577.1341090224192
 20
1.736982492260429
 30
0.0
 11
-577.3135640224193
 21
1.736982492260429
 31
0.0
  0
ARC
  5
69F
330
6B
100
AcDbEntity
  8
0
 62
     2
100
AcDbCircle
 10
-577.1341090224192
 20
4.459318492260432
 30
0.0
 40
0.235086
100
AcDbArc
 50
0.0
 51
90.0
  0
LINE
  5
6A0
330
6B
100
AcDbEntity
  8
0
 62
     2
100
AcDbLine
 10
-577.3135640224193
 20
5.191495492260429
 30
0.0
 11
-577.3135640224193
 21
4.69440449226043
 31
0.0
  0
LINE
  5
6A1
330
6B
100
AcDbEntity
  8
0
 62
     2
100
AcDbLine
 10
-577.1341090224192
 20
4.69440449226043
 30
0.0
 11
-577.3135640224193
 21
4.69440449226043
 31
0.0
  0
LINE
  5
9C4
330
6B
100
AcDbEntity
  8
0
 62
     3
100
AcDbLine
 10
-718.1311630224192
 20
144.0569424922604
 30
0.0
 11
-718.1311630224192
 21
-129.9430575077395
 31
0.0
  0
LINE
  5
9C5
330
6B
100
AcDbEntity
  8
0
 62
     3
100
AcDbLine
 10
-328.1311630224193
 20
-129.9430575077395
 30
0.0
 11
-328.1311630224193
 21
144.0569424922604
 31
0.0
  0
LINE
  5
9C7
330
6B
100
AcDbEntity
  8
0
 62
     3
100
AcDbLine
 10
-718.1311630224192
 20
-129.9430575077395
 30
0.0
 11
-328.1311630224193
 21
-129.9430575077395
 31
0.0
  0
LINE
  5
9C8
330
6B
100
AcDbEntity
  8
0
 62
     3
100
AcDbLine
 10
-540.3562735524193
 20
146.4969446322604
 30
0.0
 11
-539.7337765424192
 21
146.1719901522604
 31
0.0
  0
LINE
  5
9C9
330
6B
100
AcDbEntity
  8
0
 62
     3
100
AcDbLine
 10
-540.3562735524193
 20
141.1674725322604
 30
0.0
 11
-539.7337765424192
 21
141.4924270122604
 31
0.0
  0
LINE
  5
9CA
330
6B
100
AcDbEntity
  8
0
 62
     3
100
AcDbLine
 10
-539.7337765424192
 20
146.1719901522604
 30
0.0
 11
-539.7337765424192
 21
141.4924270122604
 31
0.0
  0
LINE
  5
9CB
330
6B
100
AcDbEntity
  8
0
 62
     3
100
AcDbLine
 10
-538.1573230824193
 20
141.1674725322604
 30
0.0
 11
-538.7798200924192
 21
141.4924270122604
 31
0.0
  0
LINE
  5
9CC
330
6B
100
AcDbEntity
  8
0
 62
     3
100
AcDbLine
 10
-538.7798200924192
 20
144.3450824622604
 30
0.0
 11
-538.7798200924192
 21
141.4924270122604
 31
0.0
  0
LINE
  5
9CD
330
6B
100
AcDbEntity
  8
0
 62
     3
100
AcDbLine
 10
-534.5260905424193
 20
146.4969446322604
 30
0.0
 11
-535.1485875424192
 21
146.1719901522604
 31
0.0
  0
LINE
  5
9CE
330
6B
100
AcDbEntity
  8
0
 62
     3
100
AcDbLine
 10
-536.7250410124194
 20
146.4969446322604
 30
0.0
 11
-536.1025440024193
 21
146.1719901522604
 31
0.0
  0
LINE
  5
9CF
330
6B
100
AcDbEntity
  8
0
 62
     3
100
AcDbLine
 10
-536.1025440024193
 20
146.1719901522604
 30
0.0
 11
-536.1025440024193
 21
144.1115086322604
 31
0.0
  0
LINE
  5
9D0
330
6B
100
AcDbEntity
  8
0
 62
     3
100
AcDbLine
 10
-535.1485875424192
 20
146.1719901522604
 30
0.0
 11
-535.1485875424192
 21
140.8652423222604
 31
0.0
  0
LINE
  5
9D1
330
6B
100
AcDbEntity
  8
0
 62
     3
100
AcDbLine
 10
-534.2185231024192
 20
146.4969408822604
 30
0.0
 11
-533.5960283424193
 21
146.1719821122603
 31
0.0
  0
LINE
  5
9D2
330
6B
100
AcDbEntity
  8
0
 62
     3
100
AcDbLine
 10
-534.2186344924193
 20
141.1675439222604
 30
0.0
 11
-533.5961261424194
 21
141.4924766722604
 31
0.0
  0
LINE
  5
9D3
330
6B
100
AcDbEntity
  8
0
 62
     3
100
AcDbLine
 10
-533.5960283424193
 20
146.1719821122603
 30
0.0
 11
-533.5960283424193
 21
141.4924766722604
 31
0.0
  0
LINE
  5
9D4
330
6B
100
AcDbEntity
  8
0
 62
     3
100
AcDbLine
 10
-531.4620425424192
 20
146.4969070622604
 30
0.0
 11
-532.0845441024194
 21
146.1719613022604
 31
0.0
  0
LINE
  5
9D5
330
6B
100
AcDbEntity
  8
0
 62
     3
100
AcDbLine
 10
-532.0845441024194
 20
146.1719613022604
 30
0.0
 11
-532.0845441024194
 21
141.4924558622604
 31
0.0
  0
LINE
  5
9D6
330
6B
100
AcDbEntity
  8
0
 62
     3
100
AcDbLine
 10
-531.4620425424192
 20
141.1675101022604
 30
0.0
 11
-532.0845441024194
 21
141.4924558622604
 31
0.0
  0
LINE
  5
9D7
330
6B
100
AcDbEntity
  8
0
 62
     3
100
AcDbLine
 10
-526.1902519124194
 20
146.4968484922603
 30
0.0
 11
-525.5677560324193
 21
146.1718918722604
 31
0.0
  0
LINE
  5
9D8
330
6B
100
AcDbEntity
  8
0
 62
     3
100
AcDbLine
 10
-525.5677560324193
 20
146.1718918722604
 30
0.0
 11
-525.5678377024194
 21
141.4923864222604
 31
0.0
  0
LINE
  5
9D9
330
6B
100
AcDbEntity
  8
0
 62
     3
100
AcDbLine
 10
-526.1903449324194
 20
141.1674515322604
 30
0.0
 11
-525.5678377024194
 21
141.4923864222604
 31
0.0
  0
LINE
  5
9DA
330
6B
100
AcDbEntity
  8
0
 62
     3
100
AcDbLine
 10
-523.4013076724193
 20
146.4968484922603
 30
0.0
 11
-524.0238035624193
 21
146.1718918722604
 31
0.0
  0
LINE
  5
9DB
330
6B
100
AcDbEntity
  8
0
 62
     3
100
AcDbLine
 10
-523.4012146624193
 20
141.1674515322604
 30
0.0
 11
-524.0237218924193
 21
141.4923864222604
 31
0.0
  0
LINE
  5
9DC
330
6B
100
AcDbEntity
  8
0
 62
     3
100
AcDbLine
 10
-523.1102678724194
 20
146.4968484922603
 30
0.0
 11
-522.4877719924193
 21
146.1718918722604
 31
0.0
  0
LINE
  5
9DD
330
6B
100
AcDbEntity
  8
0
 62
     3
100
AcDbLine
 10
-523.1103608924192
 20
141.1674515322604
 30
0.0
 11
-522.4878536624194
 21
141.4923864222604
 31
0.0
  0
LINE
  5
9DE
330
6B
100
AcDbEntity
  8
0
 62
     3
100
AcDbLine
 10
-520.3213236424192
 20
146.4968484922603
 30
0.0
 11
-520.9438195224192
 21
146.1718918722604
 31
0.0
  0
LINE
  5
9DF
330
6B
100
AcDbEntity
  8
0
 62
     3
100
AcDbLine
 10
-520.9438195224192
 20
146.1718918722604
 30
0.0
 11
-520.9437378524192
 21
141.4923864222604
 31
0.0
  0
LINE
  5
9E0
330
6B
100
AcDbEntity
  8
0
 62
     3
100
AcDbLine
 10
-520.3212306224193
 20
141.1674515322604
 30
0.0
 11
-520.9437378524192
 21
141.4923864222604
 31
0.0
  0
LINE
  5
9E1
330
6B
100
AcDbEntity
  8
0
 62
     3
100
AcDbLine
 10
-522.4878075724192
 20
144.1331302722604
 30
0.0
 11
-524.0237679824192
 21
144.1331302722604
 31
0.0
  0
LINE
  5
9E2
330
6B
100
AcDbEntity
  8
0
 62
     3
100
AcDbLine
 10
-522.4878180724194
 20
143.5312868922603
 30
0.0
 11
-524.0237574824192
 21
143.5312868922603
 31
0.0
  0
LINE
  5
9E3
330
6B
100
AcDbEntity
  8
0
 62
     3
100
AcDbLine
 10
-522.4877719924193
 20
146.1718918722604
 30
0.0
 11
-522.4878075724192
 21
144.1331302722604
 31
0.0
  0
LINE
  5
9E4
330
6B
100
AcDbEntity
  8
0
 62
     3
100
AcDbLine
 10
-522.4878180724194
 20
143.5312868922603
 30
0.0
 11
-522.4878536624194
 21
141.4923864222604
 31
0.0
  0
LINE
  5
9E5
330
6B
100
AcDbEntity
  8
0
 62
     3
100
AcDbLine
 10
-524.0238035624193
 20
146.1718918722604
 30
0.0
 11
-524.0237679824192
 21
144.1331302722604
 31
0.0
  0
LINE
  5
9E6
330
6B
100
AcDbEntity
  8
0
 62
     3
100
AcDbLine
 10
-524.0237574824192
 20
143.5312868922603
 30
0.0
 11
-524.0237218924193
 21
141.4923864222604
 31
0.0
  0
LINE
  5
9E7
330
6B
100
AcDbEntity
  8
0
 62
     3
100
AcDbLine
 10
-520.0256677524192
 20
146.4968484922603
 30
0.0
 11
-519.4031718624194
 21
146.1718918722604
 31
0.0
  0
LINE
  5
9E8
330
6B
100
AcDbEntity
  8
0
 62
     3
100
AcDbLine
 10
-519.4031718624194
 20
146.1718918722604
 30
0.0
 11
-519.4032535424192
 21
141.4923864222604
 31
0.0
  0
LINE
  5
9E9
330
6B
100
AcDbEntity
  8
0
 62
     3
100
AcDbLine
 10
-520.0257607724194
 20
141.1674515322604
 30
0.0
 11
-519.4032535424192
 21
141.4923864222604
 31
0.0
  0
LINE
  5
9EA
330
6B
100
AcDbEntity
  8
0
 62
     3
100
AcDbLine
 10
-517.2692245124193
 20
146.4968484922603
 30
0.0
 11
-517.8917204024193
 21
146.1718918722604
 31
0.0
  0
LINE
  5
9EB
330
6B
100
AcDbEntity
  8
0
 62
     3
100
AcDbLine
 10
-517.8917204024193
 20
146.1718918722604
 30
0.0
 11
-517.8916387224193
 21
141.4923864222604
 31
0.0
  0
LINE
  5
9EC
330
6B
100
AcDbEntity
  8
0
 62
     3
100
AcDbLine
 10
-517.2691314924192
 20
141.1674515322604
 30
0.0
 11
-517.8916387224193
 21
141.4923864222604
 31
0.0
  0
LINE
  5
9ED
330
6B
100
AcDbEntity
  8
0
 62
     3
100
AcDbLine
 10
-516.9629965624193
 20
146.4968484922603
 30
0.0
 11
-516.3405006724193
 21
146.1718918722604
 31
0.0
  0
LINE
  5
9EE
330
6B
100
AcDbEntity
  8
0
 62
     3
100
AcDbLine
 10
-516.3405006724193
 20
146.1718918722604
 30
0.0
 11
-516.3405823424191
 21
141.4923864222604
 31
0.0
  0
LINE
  5
9EF
330
6B
100
AcDbEntity
  8
0
 62
     3
100
AcDbLine
 10
-516.9630895724193
 20
141.1674515322604
 30
0.0
 11
-516.3405823424191
 21
141.4923864222604
 31
0.0
  0
ARC
  5
9F0
330
6B
100
AcDbEntity
  8
0
 62
     3
100
AcDbCircle
 10
-528.1786965824193
 20
143.8456225222604
 30
0.0
 40
2.98040844
100
AcDbArc
 50
97.70152351000369
 51
270.0
  0
ARC
  5
9F1
330
6B
100
AcDbEntity
  8
0
 62
     3
100
AcDbCircle
 10
-509.7778382424193
 20
143.8156844822604
 30
0.0
 40
3.012776259999998
100
AcDbArc
 50
0.3142502699992948
 51
69.00558244999635
  0
ARC
  5
9F2
330
6B
100
AcDbEntity
  8
0
 62
     3
100
AcDbCircle
 10
-509.1197306324193
 20
143.8156844822604
 30
0.0
 40
3.012776259999998
100
AcDbArc
 50
110.9944175500036
 51
148.1166110200014
  0
ARC
  5
9F3
330
6B
100
AcDbEntity
  8
0
 62
     3
100
AcDbCircle
 10
-509.7778382424193
 20
143.8487326822604
 30
0.0
 40
3.012776259999998
100
AcDbArc
 50
290.9944175500036
 51
359.6857497300007
  0
ARC
  5
9F4
330
6B
100
AcDbEntity
  8
0
 62
     3
100
AcDbCircle
 10
-509.1197306324193
 20
143.8487326822604
 30
0.0
 40
3.012776259999998
100
AcDbArc
 50
211.8833889799985
 51
249.0055824499964
  0
ARC
  5
9F5
330
6B
100
AcDbEntity
  8
0
 62
     3
100
AcDbCircle
 10
-509.4487844324193
 20
145.0647877122604
 30
0.0
 40
1.73438712
100
AcDbArc
 50
64.36517189999993
 51
115.6348281
  0
ARC
  5
9F6
330
6B
100
AcDbEntity
  8
0
 62
     3
100
AcDbCircle
 10
-509.4487844324193
 20
142.5996294522604
 30
0.0
 40
1.73438712
100
AcDbArc
 50
244.3651718999999
 51
295.6348281
  0
ARC
  5
9F7
330
6B
100
AcDbEntity
  8
0
 62
     3
100
AcDbCircle
 10
-509.4487844324193
 20
145.0977329722603
 30
0.0
 40
0.85122233
100
AcDbArc
 50
19.48660554000132
 51
160.5133944599986
  0
ARC
  5
9F8
330
6B
100
AcDbEntity
  8
0
 62
     3
100
AcDbCircle
 10
-509.4487844324193
 20
142.5996294522604
 30
0.0
 40
1.73438712
100
AcDbArc
 50
244.3651718999999
 51
295.6348281
  0
ARC
  5
9F9
330
6B
100
AcDbEntity
  8
0
 62
     3
100
AcDbCircle
 10
-509.4487844324193
 20
142.5666841922604
 30
0.0
 40
0.85122233
100
AcDbArc
 50
199.4866055400013
 51
340.5133944599987
  0
ARC
  5
9FA
330
6B
100
AcDbEntity
  8
0
 62
     3
100
AcDbCircle
 10
-516.2237451524194
 20
112.0778373822604
 30
0.0
 40
37.20000000000001
100
AcDbArc
 50
69.50571480000154
 51
81.68998807000383
  0
ARC
  5
9FB
330
6B
100
AcDbEntity
  8
0
 62
     3
100
AcDbCircle
 10
-516.2237451524194
 20
175.5865797822604
 30
0.0
 40
37.20000000000001
100
AcDbArc
 50
278.3100119299961
 51
290.4942851999985
  0
ARC
  5
9FC
330
6B
100
AcDbEntity
  8
0
 62
     3
100
AcDbCircle
 10
-504.3548821124193
 20
143.8322085822603
 30
0.0
 40
3.299999999999998
100
AcDbArc
 50
290.4942851999985
 51
69.50571480000154
  0
ARC
  5
9FD
330
6B
100
AcDbEntity
  8
0
 62
     3
100
AcDbCircle
 10
-543.3548821124193
 20
143.8322085822603
 30
0.0
 40
3.299999999999998
100
AcDbArc
 50
110.4942851999985
 51
249.5057148000015
  0
ARC
  5
9FE
330
6B
100
AcDbEntity
  8
0
 62
     3
100
AcDbCircle
 10
-531.4860190824194
 20
112.0778373822604
 30
0.0
 40
37.20000000000001
100
AcDbArc
 50
98.31001192999615
 51
110.4942851999985
  0
ARC
  5
9FF
330
6B
100
AcDbEntity
  8
0
 62
     3
100
AcDbCircle
 10
-531.4860190824194
 20
175.5865797822604
 30
0.0
 40
37.20000000000001
100
AcDbArc
 50
249.5057148000015
 51
261.6899880699974
  0
ARC
  5
A00
330
6B
100
AcDbEntity
  8
0
 62
     3
100
AcDbCircle
 10
-523.8548821124193
 20
59.83220858226037
 30
0.0
 40
89.99999981
100
AcDbArc
 50
81.68998807000383
 51
98.31001192999615
  0
ARC
  5
A01
330
6B
100
AcDbEntity
  8
0
 62
     3
100
AcDbCircle
 10
-523.8548821124193
 20
227.8322085822604
 30
0.0
 40
89.99999981
100
AcDbArc
 50
261.6899880699974
 51
278.3100119299961
  0
ARC
  5
A02
330
6B
100
AcDbEntity
  8
0
 62
     3
100
AcDbCircle
 10
-523.8548821124193
 20
59.83220858226037
 30
0.0
 40
89.09999981
100
AcDbArc
 50
81.68998807000383
 51
98.31001192999615
  0
ARC
  5
A03
330
6B
100
AcDbEntity
  8
0
 62
     3
100
AcDbCircle
 10
-523.8548821124193
 20
227.8322085822604
 30
0.0
 40
89.09999981
100
AcDbArc
 50
261.6899880699974
 51
278.3100119299961
  0
ARC
  5
A04
330
6B
100
AcDbEntity
  8
0
 62
     3
100
AcDbCircle
 10
-516.2237451524194
 20
175.5865797822604
 30
0.0
 40
36.3
100
AcDbArc
 50
278.3100119299961
 51
290.4942851999985
  0
ARC
  5
A05
330
6B
100
AcDbEntity
  8
0
 62
     3
100
AcDbCircle
 10
-516.2237451524194
 20
112.0778373822604
 30
0.0
 40
36.3
100
AcDbArc
 50
69.50571480000154
 51
81.68998807000383
  0
ARC
  5
A06
330
6B
100
AcDbEntity
  8
0
 62
     3
100
AcDbCircle
 10
-504.3548821124193
 20
143.8322085822603
 30
0.0
 40
2.399999999999999
100
AcDbArc
 50
290.4942851999985
 51
69.50571480000154
  0
ARC
  5
A07
330
6B
100
AcDbEntity
  8
0
 62
     3
100
AcDbCircle
 10
-543.3548821124193
 20
143.8322085822603
 30
0.0
 40
2.399999999999999
100
AcDbArc
 50
110.4942851999985
 51
249.5057148000015
  0
ARC
  5
A08
330
6B
100
AcDbEntity
  8
0
 62
     3
100
AcDbCircle
 10
-531.4860190824194
 20
112.0778373822604
 30
0.0
 40
36.3
100
AcDbArc
 50
98.31001192999615
 51
110.4942851999985
  0
ARC
  5
A09
330
6B
100
AcDbEntity
  8
0
 62
     3
100
AcDbCircle
 10
-531.4860190824194
 20
175.5865797822604
 30
0.0
 40
36.3
100
AcDbArc
 50
249.5057148000015
 51
261.6899880699974
  0
LINE
  5
A0A
330
6B
100
AcDbEntity
  8
0
 62
     3
100
AcDbLine
 10
-517.2692233924193
 20
140.8652423222604
 30
0.0
 11
-520.0256688724192
 21
140.8652423222604
 31
0.0
  0
LINE
  5
A0B
330
6B
100
AcDbEntity
  8
0
 62
     3
100
AcDbLine
 10
-517.2692233924193
 20
141.1674725322604
 30
0.0
 11
-517.2692233924193
 21
140.8652423222604
 31
0.0
  0
LINE
  5
A0C
330
6B
100
AcDbEntity
  8
0
 62
     3
100
AcDbLine
 10
-520.3213225224193
 20
146.7990338122604
 30
0.0
 11
-523.1102689924194
 21
146.7990338122604
 31
0.0
  0
LINE
  5
A0D
330
6B
100
AcDbEntity
  8
0
 62
     3
100
AcDbLine
 10
-520.3213225224193
 20
146.7990338122604
 30
0.0
 11
-520.3213225224193
 21
146.4969446322604
 31
0.0
  0
LINE
  5
A0E
330
6B
100
AcDbEntity
  8
0
 62
     3
100
AcDbLine
 10
-520.3213225224193
 20
141.1674725322604
 30
0.0
 11
-520.3213225224193
 21
140.8651013022604
 31
0.0
  0
LINE
  5
A0F
330
6B
100
AcDbEntity
  8
0
 62
     3
100
AcDbLine
 10
-520.3213225224193
 20
140.8651013022604
 30
0.0
 11
-523.1102689924194
 21
140.8651013022604
 31
0.0
  0
LINE
  5
A10
330
6B
100
AcDbEntity
  8
0
 62
     3
100
AcDbLine
 10
-517.2692233924193
 20
146.7991748422604
 30
0.0
 11
-517.2692233924193
 21
146.4969446322604
 31
0.0
  0
LINE
  5
A11
330
6B
100
AcDbEntity
  8
0
 62
     3
100
AcDbLine
 10
-517.2692233924193
 20
146.7991748422604
 30
0.0
 11
-520.0256688724192
 21
146.7991748422604
 31
0.0
  0
LINE
  5
A12
330
6B
100
AcDbEntity
  8
0
 62
     3
100
AcDbLine
 10
-520.0256688724192
 20
146.7991748422604
 30
0.0
 11
-520.0256688724192
 21
146.4969446322604
 31
0.0
  0
LINE
  5
A13
330
6B
100
AcDbEntity
  8
0
 62
     3
100
AcDbLine
 10
-516.9629976824193
 20
141.1674725322604
 30
0.0
 11
-516.9629976824193
 21
140.8652423222604
 31
0.0
  0
LINE
  5
A14
330
6B
100
AcDbEntity
  8
0
 62
     3
100
AcDbLine
 10
-514.1282825924194
 20
140.8652423222604
 30
0.0
 11
-516.9629976824193
 21
140.8652423222604
 31
0.0
  0
LINE
  5
A15
330
6B
100
AcDbEntity
  8
0
 62
     3
100
AcDbLine
 10
-514.8290492024194
 20
145.8452183822604
 30
0.0
 11
-514.8290492024194
 21
141.8191987822604
 31
0.0
  0
LINE
  5
A16
330
6B
100
AcDbEntity
  8
0
 62
     3
100
AcDbLine
 10
-514.8290492024194
 20
141.8191987822604
 30
0.0
 11
-514.5575506824193
 21
141.8191987822604
 31
0.0
  0
ARC
  5
A17
330
6B
100
AcDbEntity
  8
0
 62
     3
100
AcDbCircle
 10
-515.9458160224192
 20
143.8322085822603
 30
0.0
 40
2.44529939
100
AcDbArc
 50
304.591955269996
 51
55.40804473000399
  0
LINE
  5
A18
330
6B
100
AcDbEntity
  8
0
 62
     3
100
AcDbLine
 10
-514.1282825924194
 20
146.7991748422604
 30
0.0
 11
-516.9629976824193
 21
146.7991748422604
 31
0.0
  0
LINE
  5
A19
330
6B
100
AcDbEntity
  8
0
 62
     3
100
AcDbLine
 10
-516.9629976824193
 20
146.7991748422604
 30
0.0
 11
-516.9629976824193
 21
146.4969446322604
 31
0.0
  0
LINE
  5
A1A
330
6B
100
AcDbEntity
  8
0
 62
     3
100
AcDbLine
 10
-520.0256688724192
 20
141.1674725322604
 30
0.0
 11
-520.0256688724192
 21
140.8652423222604
 31
0.0
  0
LINE
  5
A1B
330
6B
100
AcDbEntity
  8
0
 62
     3
100
AcDbLine
 10
-514.8290492024194
 20
145.8452183822604
 30
0.0
 11
-514.5575506824193
 21
145.8452183822604
 31
0.0
  0
LINE
  5
A1C
330
6B
100
AcDbEntity
  8
0
 62
     3
100
AcDbLine
 10
-531.4621344424192
 20
141.1674725322604
 30
0.0
 11
-531.4621397124193
 21
140.8652140822604
 31
0.0
  0
LINE
  5
A1D
330
6B
100
AcDbEntity
  8
0
 62
     3
100
AcDbLine
 10
-534.2185851924194
 20
140.8652705722604
 30
0.0
 11
-531.4621397124193
 21
140.8652224622603
 31
0.0
  0
LINE
  5
A1E
330
6B
100
AcDbEntity
  8
0
 62
     3
100
AcDbLine
 10
-540.3562735524193
 20
140.8652423222604
 30
0.0
 11
-538.1573230824193
 21
140.8652423222604
 31
0.0
  0
ARC
  5
A1F
330
6B
100
AcDbEntity
  8
0
 62
     3
100
AcDbCircle
 10
-547.4733345224193
 20
143.9020751922604
 30
0.0
 40
21.01937947
100
AcDbArc
 50
353.8660061899999
 51
357.6940342600001
  0
LINE
  5
A20
330
6B
100
AcDbEntity
  8
0
 62
     3
100
AcDbLine
 10
-527.8782204324193
 20
143.0615499722604
 30
0.0
 11
-526.4709763124193
 21
143.0563430022604
 31
0.0
  0
LINE
  5
A22
330
6B
100
AcDbEntity
  8
0
 62
     3
100
AcDbLine
 10
-527.8725369824193
 20
144.5975710322603
 30
0.0
 11
-526.4652928624192
 21
144.5923640622604
 31
0.0
  0
ARC
  5
A23
330
6B
100
AcDbEntity
  8
0
 62
     3
100
AcDbCircle
 10
-547.4733345224193
 20
143.9020751922604
 30
0.0
 40
21.01937947
100
AcDbArc
 50
1.881965739999571
 51
5.709993809999575
  0
LINE
  5
A24
330
6B
100
AcDbEntity
  8
0
 62
     3
100
AcDbLine
 10
-531.4620361524194
 20
146.7991465922604
 30
0.0
 11
-531.4620414224192
 21
146.4969446322604
 31
0.0
  0
LINE
  5
A25
330
6B
100
AcDbEntity
  8
0
 62
     3
100
AcDbLine
 10
-534.2184816324194
 20
146.7992030822604
 30
0.0
 11
-531.4620361524194
 21
146.7991549722604
 31
0.0
  0
LINE
  5
A26
330
6B
100
AcDbEntity
  8
0
 62
     3
100
AcDbLine
 10
-534.2185799224194
 20
141.1674725322604
 30
0.0
 11
-534.2185851924194
 21
140.8652705722604
 31
0.0
  0
LINE
  5
A27
330
6B
100
AcDbEntity
  8
0
 62
     3
100
AcDbLine
 10
-534.2184816324194
 20
146.7992030822604
 30
0.0
 11
-534.2184869024192
 21
146.4969446322604
 31
0.0
  0
LINE
  5
A28
330
6B
100
AcDbEntity
  8
0
 62
     3
100
AcDbLine
 10
-538.1573230824193
 20
141.1674725322604
 30
0.0
 11
-538.1573230824193
 21
140.8652423222604
 31
0.0
  0
LINE
  5
A29
330
6B
100
AcDbEntity
  8
0
 62
     3
100
AcDbLine
 10
-538.7798200924192
 20
144.3450824622604
 30
0.0
 11
-536.6049200124193
 21
140.8652423222604
 31
0.0
  0
LINE
  5
A2A
330
6B
100
AcDbEntity
  8
0
 62
     3
100
AcDbLine
 10
-536.6049200124193
 20
140.8652423222604
 30
0.0
 11
-535.1485875424192
 21
140.8652423222604
 31
0.0
  0
LINE
  5
A2B
330
6B
100
AcDbEntity
  8
0
 62
     3
100
AcDbLine
 10
-534.5260905424193
 20
146.7991748422604
 30
0.0
 11
-534.5260905424193
 21
146.4969446322604
 31
0.0
  0
LINE
  5
A2C
330
6B
100
AcDbEntity
  8
0
 62
     3
100
AcDbLine
 10
-536.7250410124194
 20
146.7991748422604
 30
0.0
 11
-534.5260905424193
 21
146.7991748422604
 31
0.0
  0
LINE
  5
A2D
330
6B
100
AcDbEntity
  8
0
 62
     3
100
AcDbLine
 10
-536.7250410124194
 20
146.7991748422604
 30
0.0
 11
-536.7250410124194
 21
146.4969446322604
 31
0.0
  0
LINE
  5
A2E
330
6B
100
AcDbEntity
  8
0
 62
     3
100
AcDbLine
 10
-536.1025440024193
 20
144.1115086322604
 30
0.0
 11
-537.8663249424192
 21
146.7991748422604
 31
0.0
  0
LINE
  5
A2F
330
6B
100
AcDbEntity
  8
0
 62
     3
100
AcDbLine
 10
-540.3562735524193
 20
146.7991748422604
 30
0.0
 11
-537.8663249424192
 21
146.7991748422604
 31
0.0
  0
LINE
  5
A30
330
6B
100
AcDbEntity
  8
0
 62
     3
100
AcDbLine
 10
-526.1902530324192
 20
146.7990338122604
 30
0.0
 11
-523.4013065524193
 21
146.7990338122604
 31
0.0
  0
LINE
  5
A31
330
6B
100
AcDbEntity
  8
0
 62
     3
100
AcDbLine
 10
-526.1902530324192
 20
146.4969446322604
 30
0.0
 11
-526.1902530324192
 21
146.7990338122604
 31
0.0
  0
LINE
  5
A32
330
6B
100
AcDbEntity
  8
0
 62
     3
100
AcDbLine
 10
-526.1902530324192
 20
140.8651013022604
 30
0.0
 11
-526.1902530324192
 21
141.1674725322604
 31
0.0
  0
LINE
  5
A33
330
6B
100
AcDbEntity
  8
0
 62
     3
100
AcDbLine
 10
-526.1902530324192
 20
140.8651013022604
 30
0.0
 11
-523.4013065524193
 21
140.8651013022604
 31
0.0
  0
LINE
  5
A34
330
6B
100
AcDbEntity
  8
0
 62
     3
100
AcDbLine
 10
-523.1102689924194
 20
141.1674725322604
 30
0.0
 11
-523.1102689924194
 21
140.8651013022604
 31
0.0
  0
LINE
  5
A35
330
6B
100
AcDbEntity
  8
0
 62
     3
100
AcDbLine
 10
-523.4013065524193
 20
141.1674725322604
 30
0.0
 11
-523.4013065524193
 21
140.8651013022604
 31
0.0
  0
LINE
  5
A36
330
6B
100
AcDbEntity
  8
0
 62
     3
100
AcDbLine
 10
-523.4013065524193
 20
146.4969446322604
 30
0.0
 11
-523.4013065524193
 21
146.7990338122604
 31
0.0
  0
LINE
  5
A37
330
6B
100
AcDbEntity
  8
0
 62
     3
100
AcDbLine
 10
-523.1102689924194
 20
146.4969446322604
 30
0.0
 11
-523.1102689924194
 21
146.7990338122604
 31
0.0
  0
LINE
  5
A38
330
6B
100
AcDbEntity
  8
0
 62
     3
100
AcDbLine
 10
-540.3562735524193
 20
141.1674725322604
 30
0.0
 11
-540.3562735524193
 21
140.8652423222604
 31
0.0
  0
LINE
  5
A39
330
6B
100
AcDbEntity
  8
0
 62
     3
100
AcDbLine
 10
-540.3562735524193
 20
146.7991748422604
 30
0.0
 11
-540.3562735524193
 21
146.4969446322604
 31
0.0
  0
ARC
  5
A3A
330
6B
100
AcDbEntity
  8
0
 62
     3
100
AcDbCircle
 10
-513.8282825924193
 20
144.4547055922604
 30
0.0
 40
2.344469249999999
100
AcDbArc
 50
17.30874897999955
 51
23.76507095999893
  0
ARC
  5
A3B
330
6B
100
AcDbEntity
  8
0
 62
     3
100
AcDbCircle
 10
-515.8258160224193
 20
143.8322085822603
 30
0.0
 40
4.43675086
100
AcDbArc
 50
342.6912510200005
 51
17.30856644000122
  0
ARC
  5
A3C
330
6B
100
AcDbEntity
  8
0
 62
     3
100
AcDbCircle
 10
-513.8282825924193
 20
143.2097115722604
 30
0.0
 40
2.344469249999999
100
AcDbArc
 50
336.2349290399984
 51
342.6912510200005
  0
ARC
  5
A3D
330
6B
100
AcDbEntity
  8
0
 62
     3
100
AcDbCircle
 10
-514.1282825924194
 20
144.4547055922604
 30
0.0
 40
2.344469249999999
100
AcDbArc
 50
17.30874897999955
 51
90.0
  0
ARC
  5
A3E
330
6B
100
AcDbEntity
  8
0
 62
     3
100
AcDbCircle
 10
-516.1258160224194
 20
143.8322085822603
 30
0.0
 40
4.43675086
100
AcDbArc
 50
342.6912510200005
 51
17.30856644000122
  0
ARC
  5
A3F
330
6B
100
AcDbEntity
  8
0
 62
     3
100
AcDbCircle
 10
-514.1282825924194
 20
143.2097115722604
 30
0.0
 40
2.344469249999999
100
AcDbArc
 50
270.0
 51
342.6912510200005
  0
ARC
  5
A40
330
6B
100
AcDbEntity
  8
0
 62
     3
100
AcDbCircle
 10
-528.5910545624195
 20
143.8322085822603
 30
0.0
 40
2.966966259999998
100
AcDbArc
 50
46.75287961000178
 51
89.74999828999569
  0
ARC
  5
A41
330
6B
100
AcDbEntity
  8
0
 62
     3
100
AcDbCircle
 10
-528.5910545624195
 20
143.8322085822603
 30
0.0
 40
2.966966259999998
100
AcDbArc
 50
273.9763331499971
 51
312.8231203899991
  0
ARC
  5
A42
330
6B
100
AcDbEntity
  8
0
 62
     3
100
AcDbCircle
 10
-512.2456146324192
 20
143.7864064022605
 30
0.0
 40
3.936984289999998
100
AcDbArc
 50
0.6665840599997753
 51
23.90392827000101
  0
ARC
  5
A43
330
6B
100
AcDbEntity
  8
0
 62
     3
100
AcDbCircle
 10
-506.6519542424194
 20
143.7864064022605
 30
0.0
 40
3.936984289999998
100
AcDbArc
 50
156.096071729999
 51
179.3334159400002
  0
ARC
  5
A44
330
6B
100
AcDbEntity
  8
0
 62
     3
100
AcDbCircle
 10
-512.2456146324192
 20
143.8780107622603
 30
0.0
 40
3.936984289999998
100
AcDbArc
 50
336.096071729999
 51
359.3334159400003
  0
ARC
  5
A45
330
6B
100
AcDbEntity
  8
0
 62
     3
100
AcDbCircle
 10
-506.6519542424194
 20
143.8780107622603
 30
0.0
 40
3.936984289999998
100
AcDbArc
 50
180.6665840599997
 51
203.903928270001
  0
LINE
  5
A46
330
6B
100
AcDbEntity
  8
0
 62
     3
100
AcDbLine
 10
-499.4744378424194
 20
144.0569424922604
 30
0.0
 11
-328.1311630224193
 21
144.0569424922604
 31
0.0
  0
LINE
  5
A47
330
6B
100
AcDbEntity
  8
0
 62
     3
100
AcDbLine
 10
-548.0284725124192
 20
144.0569424922604
 30
0.0
 11
-718.1311630224192
 21
144.0569424922604
 31
0.0
  0
LINE
  5
A48
330
6B
100
AcDbEntity
  8
0
 62
     3
100
AcDbLine
 10
-730.5330868124194
 20
10.5015814422604
 30
0.0
 11
-733.1311630224194
 21
9.001581442260402
 31
0.0
  0
LINE
  5
A49
330
6B
100
AcDbEntity
  8
0
 62
     3
100
AcDbLine
 10
-730.5330868124194
 20
10.5015814422604
 30
0.0
 11
-733.1311630224194
 21
12.0015814422604
 31
0.0
  0
LINE
  5
A4A
330
6B
100
AcDbEntity
  8
0
 62
     3
100
AcDbLine
 10
-733.1311630224194
 20
9.001581442260402
 30
0.0
 11
-733.1311630224194
 21
12.0015814422604
 31
0.0
  0
LINE
  5
A4D
330
6B
100
AcDbEntity
  8
0
 62
     3
100
AcDbLine
 10
-380.1311630224193
 20
-129.9430575077395
 30
0.0
 11
-380.1311630224193
 21
-89.94305750773953
 31
0.0
  0
LINE
  5
A4E
330
6B
100
AcDbEntity
  8
0
 62
     3
100
AcDbLine
 10
-367.1311630224193
 20
-119.9430575077395
 30
0.0
 11
-367.1311630224193
 21
-91.94305750773954
 31
0.0
  0
LINE
  5
A4F
330
6B
100
AcDbEntity
  8
0
 62
     3
100
AcDbLine
 10
-407.1311630224192
 20
-119.9430575077395
 30
0.0
 11
-407.1311630224192
 21
-105.9430575077395
 31
0.0
  0
LINE
  5
A50
330
6B
100
AcDbEntity
  8
0
 62
     3
100
AcDbLine
 10
-397.1311630224193
 20
-105.9430575077395
 30
0.0
 11
-397.1311630224193
 21
-129.9430575077395
 31
0.0
  0
LINE
  5
A51
330
6B
100
AcDbEntity
  8
0
 62
     3
100
AcDbLine
 10
-426.1311630224192
 20
-89.94305750773953
 30
0.0
 11
-426.1311630224192
 21
-112.9430575077395
 31
0.0
  0
LINE
  5
A52
330
6B
100
AcDbEntity
  8
0
 62
     3
100
AcDbLine
 10
-367.1311630224193
 20
-91.94305750773954
 30
0.0
 11
-367.1311630224193
 21
-89.94305750773953
 31
0.0
  0
LINE
  5
A53
330
6B
100
AcDbEntity
  8
0
 62
     3
100
AcDbLine
 10
-354.1311630224193
 20
-112.9430575077395
 30
0.0
 11
-354.1311630224194
 21
-89.94305750773953
 31
0.0
  0
LINE
  5
A54
330
6B
100
AcDbEntity
  8
0
 62
     3
100
AcDbLine
 10
-328.1311630224193
 20
-89.94305750773953
 30
0.0
 11
-439.3765976624193
 21
-89.94305750773952
 31
0.0
  0
LINE
  5
A55
330
6B
100
AcDbEntity
  8
0
 62
     3
100
AcDbLine
 10
-328.1311630224193
 20
-98.94305750773957
 30
0.0
 11
-439.3765976624193
 21
-98.94305750773957
 31
0.0
  0
LINE
  5
A56
330
6B
100
AcDbEntity
  8
0
 62
     3
100
AcDbLine
 10
-328.1311630224193
 20
-112.9430575077395
 30
0.0
 11
-439.3765976624193
 21
-112.9430575077395
 31
0.0
  0
LINE
  5
A57
330
6B
100
AcDbEntity
  8
0
 62
     3
100
AcDbLine
 10
-328.1311630224193
 20
-119.9430575077395
 30
0.0
 11
-439.3765976624193
 21
-119.9430575077395
 31
0.0
  0
LINE
  5
A58
330
6B
100
AcDbEntity
  8
0
 62
     3
100
AcDbLine
 10
-341.1311630224194
 20
-112.9430575077395
 30
0.0
 11
-341.1311630224194
 21
-89.94305750773953
 31
0.0
  0
LINE
  5
A59
330
6B
100
AcDbEntity
  8
0
 62
     3
100
AcDbLine
 10
-439.3765976624193
 20
-89.94305750773952
 30
0.0
 11
-439.3765976624193
 21
-129.9430575077395
 31
0.0
  0
LINE
  5
A5A
330
6B
100
AcDbEntity
  8
0
 62
     3
100
AcDbLine
 10
-380.1311630224193
 20
-105.9430575077395
 30
0.0
 11
-439.3765976624193
 21
-105.9430575077396
 31
0.0
  0
LINE
  5
A5B
330
6B
100
AcDbEntity
  8
0
 62
     3
100
AcDbLine
 10
-396.8528380924195
 20
-125.1101962477395
 30
0.0
 11
-380.1311630224193
 21
-125.1101962477395
 31
0.0
  0
LINE
  5
A5C
330
6B
100
AcDbEntity
  8
0
 62
     3
100
AcDbLine
 10
-393.1311630224193
 20
-98.94305750773957
 30
0.0
 11
-385.1311630224193
 21
-98.94305750773957
 31
0.0
  0
TEXT
  5
A5E
330
6B
100
AcDbEntity
  8
0
 62
     3
100
AcDbText
 10
-424.9347943271669
 20
-110.6452431027556
 30
0.0
 40
2.5
  1
PA6
  7
高2.5
100
AcDbText
  0
TEXT
  5
A5F
330
6B
100
AcDbEntity
  8
0
 62
     3
100
AcDbText
 10
-424.6698865724696
 20
-97.63080798398169
 30
0.0
 40
4.5
  1
万能フッカー
  7
高4.5
100
AcDbText
1001
ACAD
1000
ACAD_MTEXT_DEFINED_HEIGHT_BEGIN
1070
    46
1040
0.0
1000
ACAD_MTEXT_DEFINED_HEIGHT_END
  0
TEXT
  5
A60
330
6B
100
AcDbEntity
  8
0
 62
     3
100
AcDbText
 10
-338.0655739289452
 20
-93.42936540903595
 30
0.0
 40
2.0
  1
DEF
  7
高2
100
AcDbText
  0
TEXT
  5
A61
330
6B
100
AcDbEntity
  8
0
 62
     3
100
AcDbText
 10
-352.0046722826535
 20
-93.42936540903606
 30
0.0
 40
2.0
  1
DESN
  7
高2
100
AcDbText
  0
TEXT
  5
A62
330
6B
100
AcDbEntity
  8
0
 62
     3
100
AcDbText
 10
-378.2590392226536
 20
-93.42936540903595
 30
0.0
 40
2.0
  1
APPD
  7
高2
100
AcDbText
  0
TEXT
  5
A63
330
6B
100
AcDbEntity
  8
0
 62
     3
100
AcDbText
 10
-365.1463031224194
 20
-93.42936540903592
 30
0.0
 40
2.0
  1
CHCK
  7
高2
100
AcDbText
  0
TEXT
  5
A64
330
6B
100
AcDbEntity
  8
0
 62
     3
100
AcDbText
 10
-406.2039973832666
 20
-115.7746586845088
 30
0.0
 40
2.0
  1
SCALE
 41
0.8
  7
高2
100
AcDbText
  0
TEXT
  5
A65
330
6B
100
AcDbEntity
  8
0
 62
     3
100
AcDbText
 10
-437.6920189593731
 20
-115.7746586845088
 30
0.0
 40
2.0
  1
3AD　ANGLE
 41
1.5
  7
高2
100
AcDbText
  0
TEXT
  5
A66
330
6B
100
AcDbEntity
  8
0
 62
     3
100
AcDbText
 10
-406.9345916924178
 20
-109.0231206155517
 30
0.0
 40
2.0
  1
REMARKS
 41
0.7
  7
高2
100
AcDbText
  0
TEXT
  5
A67
330
6B
100
AcDbEntity
  8
0
 62
     3
100
AcDbText
 10
-437.9089273124193
 20
-108.9430575077395
 30
0.0
 40
2.0
  1
MATERIAL
 41
0.7
  7
高2
100
AcDbText
  0
TEXT
  5
A68
330
6B
100
AcDbEntity
  8
0
 62
     3
100
AcDbText
 10
-437.3324401096652
 20
-101.9430575077395
 30
0.0
 40
2.0
  1
MODEL
  7
高2
100
AcDbText
  0
TEXT
  5
A69
330
6B
100
AcDbEntity
  8
0
 62
     3
100
AcDbText
 10
-437.695519228334
 20
-93.23603615714054
 30
0.0
 40
2.0
  1
CONPONENTS
 41
0.5
  7
高2
100
AcDbText
  0
TEXT
  5
A6A
330
6B
100
AcDbEntity
  8
0
 62
     3
100
AcDbText
 10
-424.9884037571671
 20
-104.8555763799276
 30
0.0
 40
4.5
  1
BH-500SH(-□□)
 41
0.8
  7
高4.5
100
AcDbText
  0
TEXT
  5
A6B
330
6B
100
AcDbEntity
  8
0
 62
     3
100
AcDbText
 10
-377.0661172918007
 20
-127.9045961123739
 30
0.0
 40
6.299999999999998
  1
BH-500SH
 41
0.9
  7
高6.3
100
AcDbText
1001
ACAD
1000
ACAD_MTEXT_DEFINED_HEIGHT_BEGIN
1070
    46
1040
0.0
1000
ACAD_MTEXT_DEFINED_HEIGHT_END
  0
TEXT
  5
A6C
330
6B
100
AcDbEntity
  8
0
 62
     3
100
AcDbText
 10
-363.5676532720897
 20
-118.8421683495065
 30
0.0
 40
3.2
  1
2005.8.30
  7
高3.2
100
AcDbText
1001
ACAD
1000
ACAD_MTEXT_DEFINED_HEIGHT_BEGIN
1070
    46
1040
0.0
1000
ACAD_MTEXT_DEFINED_HEIGHT_END
  0
TEXT
  5
A6D
330
6B
100
AcDbEntity
  8
0
 62
     3
100
AcDbText
 10
-394.7627201902766
 20
-118.8421405051717
 30
0.0
 40
3.2
  1
FREE
  7
高3.2
100
AcDbText
  0
TEXT
  5
A6E
330
6B
100
AcDbEntity
  8
0
 62
     3
100
AcDbText
 10
-396.2662361524195
 20
-129.1261793346036
 30
0.0
 40
3.2
  1
ZK-A3X
 41
0.8
  7
高3.2
100
AcDbText
  0
TEXT
  5
A6F
330
6B
100
AcDbEntity
  8
0
 62
     3
100
AcDbText
 10
-438.5458966224192
 20
-123.4184370855517
 30
0.0
 40
2.0
  1
NICHIDO IND.CO.LTD
 41
1.3
  7
高2
100
AcDbText
  0
TEXT
  5
A70
330
6B
100
AcDbEntity
  8
0
 62
     3
100
AcDbText
 10
-437.3643733574621
 20
-97.80252929985465
 30
0.0
 40
3.2
  1
品 名
  7
高3.2
100
AcDbText
1001
ACAD
1000
ACAD_MTEXT_DEFINED_HEIGHT_BEGIN
1070
    46
1040
0.0
1000
ACAD_MTEXT_DEFINED_HEIGHT_END
  0
TEXT
  5
A71
330
6B
100
AcDbEntity
  8
0
 62
     3
100
AcDbText
 10
-437.3643733574621
 20
-105.4430575077395
 30
0.0
 40
3.2
  1
型 式
  7
高3.2
100
AcDbText
1001
ACAD
1000
ACAD_MTEXT_DEFINED_HEIGHT_BEGIN
1070
    46
1040
3.064735913775954
1000
ACAD_MTEXT_DEFINED_HEIGHT_END
  0
TEXT
  5
A72
330
6B
100
AcDbEntity
  8
0
 62
     3
100
AcDbText
 10
-437.3643733574621
 20
-112.4430575077395
 30
0.0
 40
3.2
  1
材 質
  7
高3.2
100
AcDbText
1001
ACAD
1000
ACAD_MTEXT_DEFINED_HEIGHT_BEGIN
1070
    46
1040
0.0
1000
ACAD_MTEXT_DEFINED_HEIGHT_END
  0
TEXT
  5
A73
330
6B
100
AcDbEntity
  8
0
 62
     3
100
AcDbText
 10
-437.6694083074621
 20
-119.4756175154933
 30
0.0
 40
3.2
  1
第 三 角 法
  7
高3.2
100
AcDbText
1001
ACAD
1000
ACAD_MTEXT_DEFINED_HEIGHT_BEGIN
1070
    46
1040
0.0
1000
ACAD_MTEXT_DEFINED_HEIGHT_END
  0
TEXT
  5
A74
330
6B
100
AcDbEntity
  8
0
 62
     3
100
AcDbText
 10
-439.2628756999333
 20
-128.8025292998546
 30
0.0
 40
3.2
  1
日動工業株式会社
 41
1.199999999999999
  7
高3.2
100
AcDbText
1001
ACAD
1000
ACAD_MTEXT_DEFINED_HEIGHT_BEGIN
1070
    46
1040
0.0
1000
ACAD_MTEXT_DEFINED_HEIGHT_END
  0
TEXT
  5
A75
330
6B
100
AcDbEntity
  8
0
 62
     3
100
AcDbText
 10
-405.6272515004548
 20
-112.558478974572
 30
0.0
 40
3.2
  1
備考
  7
高3.2
100
AcDbText
1001
ACAD
1000
ACAD_MTEXT_DEFINED_HEIGHT_BEGIN
1070
    46
1040
0.0
1000
ACAD_MTEXT_DEFINED_HEIGHT_END
  0
TEXT
  5
A76
330
6B
100
AcDbEntity
  8
0
 62
     3
100
AcDbText
 10
-395.9781940534193
 20
-123.7968274821692
 30
0.0
 40
2.5
  1
出図コード
  7
高2.5
100
AcDbText
1001
ACAD
1000
ACAD_MTEXT_DEFINED_HEIGHT_BEGIN
1070
    46
1040
0.0
1000
ACAD_MTEXT_DEFINED_HEIGHT_END
  0
TEXT
  5
A77
330
6B
100
AcDbEntity
  8
0
 62
     3
100
AcDbText
 10
-405.7860176185421
 20
-119.4898225973266
 30
0.0
 40
3.2
  1
尺度
  7
高3.2
100
AcDbText
1001
ACAD
1000
ACAD_MTEXT_DEFINED_HEIGHT_BEGIN
1070
    46
1040
0.0
1000
ACAD_MTEXT_DEFINED_HEIGHT_END
  0
TEXT
  5
A78
330
6B
100
AcDbEntity
  8
0
 62
     3
100
AcDbText
 10
-378.6397561367635
 20
-118.3583441492091
 30
0.0
 40
3.2
  1
作成日
  7
高3.2
100
AcDbText
1001
ACAD
1000
ACAD_MTEXT_DEFINED_HEIGHT_BEGIN
1070
    46
1040
0.0
1000
ACAD_MTEXT_DEFINED_HEIGHT_END
  0
TEXT
  5
A79
330
6B
100
AcDbEntity
  8
0
 62
     3
100
AcDbText
 10
-378.7452821298996
 20
-97.80252929985465
 30
0.0
 40
3.2
  1
承 認
  7
高3.2
100
AcDbText
1001
ACAD
1000
ACAD_MTEXT_DEFINED_HEIGHT_BEGIN
1070
    46
1040
0.0
1000
ACAD_MTEXT_DEFINED_HEIGHT_END
  0
TEXT
  5
A7A
330
6B
100
AcDbEntity
  8
0
 62
     3
100
AcDbText
 10
-365.7452821298996
 20
-97.80252929985465
 30
0.0
 40
3.2
  1
検 図
  7
高3.2
100
AcDbText
1001
ACAD
1000
ACAD_MTEXT_DEFINED_HEIGHT_BEGIN
1070
    46
1040
0.0
1000
ACAD_MTEXT_DEFINED_HEIGHT_END
  0
TEXT
  5
A7B
330
6B
100
AcDbEntity
  8
0
 62
     3
100
AcDbText
 10
-352.7452821298996
 20
-97.80252929985465
 30
0.0
 40
3.2
  1
設 計
  7
高3.2
100
AcDbText
1001
ACAD
1000
ACAD_MTEXT_DEFINED_HEIGHT_BEGIN
1070
    46
1040
0.0
1000
ACAD_MTEXT_DEFINED_HEIGHT_END
  0
TEXT
  5
A7C
330
6B
100
AcDbEntity
  8
0
 62
     3
100
AcDbText
 10
-339.4446456098997
 20
-97.80252929985465
 30
0.0
 40
3.2
  1
製 図
  7
高3.2
100
AcDbText
1001
ACAD
1000
ACAD_MTEXT_DEFINED_HEIGHT_BEGIN
1070
    46
1040
0.0
1000
ACAD_MTEXT_DEFINED_HEIGHT_END
  0
TEXT
  5
A7D
330
6B
100
AcDbEntity
  8
0
 62
     3
100
AcDbText
 10
-340.6311630224193
 20
134.5569424922604
 30
0.0
 40
3.2
  1
担　当
  7
高3.2
100
AcDbText
  0
TEXT
  5
A7E
330
6B
100
AcDbEntity
  8
0
 62
     3
100
AcDbText
 10
-384.6311630224193
 20
134.5569424922604
 30
0.0
 40
3.2
  1
変更・追記内容
  7
高3.2
100
AcDbText
  0
TEXT
  5
A7F
330
6B
100
AcDbEntity
  8
0
 62
     3
100
AcDbText
 10
-409.5176480220801
 20
129.886403982352
 30
0.0
 40
2.0
  1
1
  7
高2
100
AcDbText
  0
TEXT
  5
A80
330
6B
100
AcDbEntity
  8
0
 62
     3
100
AcDbText
 10
-409.8261594988373
 20
124.7165872700792
 30
0.0
 40
2.0
  1
2
  7
高2
100
AcDbText
  0
TEXT
  5
A81
330
6B
100
AcDbEntity
  8
0
 62
     3
100
AcDbText
 10
-402.6311630224193
 20
134.5569424922604
 30
0.0
 40
3.2
  1
日　付
  7
高3.2
100
AcDbText
  0
TEXT
  5
A82
330
6B
100
AcDbEntity
  8
0
 62
     3
100
AcDbText
 10
-402.6311630224193
 20
139.5569424922604
 30
0.0
 40
3.2
  1
図　　　　面　　　　略　　　　歴
  7
高3.2
100
AcDbText
  0
TEXT
  5
A83
330
6B
100
AcDbEntity
  8
0
 62
     3
100
AcDbText
 10
-412.6311630224193
 20
134.5569424922604
 30
0.0
 40
3.2
  1
記号
  7
高3.2
100
AcDbText
  0
LINE
  5
A84
330
6B
100
AcDbEntity
  8
0
 62
     7
100
AcDbLine
 10
-409.1311630224192
 20
127.8478384922605
 30
0.0
 11
-411.0311630224193
 21
124.5569424922604
 31
0.0
  0
LINE
  5
A85
330
6B
100
AcDbEntity
  8
0
 62
     7
100
AcDbLine
 10
-409.1311630224192
 20
127.8478384922605
 30
0.0
 11
-407.2311630224193
 21
124.5569424922604
 31
0.0
  0
LINE
  5
A86
330
6B
100
AcDbEntity
  8
0
 62
     7
100
AcDbLine
 10
-411.0311630224193
 20
124.5569424922604
 30
0.0
 11
-407.2311630224193
 21
124.5569424922604
 31
0.0
  0
LINE
  5
A87
330
6B
100
AcDbEntity
  8
0
 62
     7
100
AcDbLine
 10
-409.1311630224192
 20
132.8478394922605
 30
0.0
 11
-411.0311630224193
 21
129.5569424922604
 31
0.0
  0
LINE
  5
A88
330
6B
100
AcDbEntity
  8
0
 62
     7
100
AcDbLine
 10
-409.1311630224192
 20
132.8478394922605
 30
0.0
 11
-407.2311630224193
 21
129.5569424922604
 31
0.0
  0
LINE
  5
A89
330
6B
100
AcDbEntity
  8
0
 62
     7
100
AcDbLine
 10
-411.0311630224193
 20
129.5569424922604
 30
0.0
 11
-407.2311630224193
 21
129.5569424922604
 31
0.0
  0
LINE
  5
A8A
330
6B
100
AcDbEntity
  8
0
 62
     3
100
AcDbLine
 10
-414.1311630224192
 20
139.0569424922604
 30
0.0
 11
-328.1311630224193
 21
139.0569424922604
 31
0.0
  0
LINE
  5
A8B
330
6B
100
AcDbEntity
  8
0
 62
     3
100
AcDbLine
 10
-414.1311630224192
 20
134.0569424922604
 30
0.0
 11
-328.1311630224193
 21
134.0569424922604
 31
0.0
  0
LINE
  5
A8C
330
6B
100
AcDbEntity
  8
0
 62
     7
100
AcDbLine
 10
-414.1311630224192
 20
129.0569424922604
 30
0.0
 11
-328.1311630224193
 21
129.0569424922604
 31
0.0
  0
LINE
  5
A8D
330
6B
100
AcDbEntity
  8
0
 62
     3
100
AcDbLine
 10
-414.1311630224192
 20
124.0569424922604
 30
0.0
 11
-328.1311630224193
 21
124.0569424922604
 31
0.0
  0
LINE
  5
A8E
330
6B
100
AcDbEntity
  8
0
 62
     7
100
AcDbLine
 10
-342.1311630224195
 20
124.0569424922604
 30
0.0
 11
-342.1311630224193
 21
139.0569424922604
 31
0.0
  0
LINE
  5
A8F
330
6B
100
AcDbEntity
  8
0
 62
     7
100
AcDbLine
 10
-386.1311630224193
 20
124.0569424922604
 30
0.0
 11
-386.1311630224193
 21
139.0569424922604
 31
0.0
  0
LINE
  5
A90
330
6B
100
AcDbEntity
  8
0
 62
     7
100
AcDbLine
 10
-404.1311630224193
 20
124.0569424922604
 30
0.0
 11
-404.1311630224193
 21
139.0569424922604
 31
0.0
  0
LINE
  5
A91
330
6B
100
AcDbEntity
  8
0
 62
     3
100
AcDbLine
 10
-414.1311630224192
 20
124.0569424922604
 30
0.0
 11
-414.1311630224192
 21
144.0569424922604
 31
0.0
  0
TEXT
  5
11A6
330
6B
100
AcDbEntity
  8
0
 62
     3
100
AcDbText
 10
-564.8824280224192
 20
-76.0142385077394
 30
0.0
 40
4.5
  1
-20℃～80℃
  7
高4.5
100
AcDbText
  0
TEXT
  5
11A7
330
6B
100
AcDbEntity
  8
0
 62
     3
100
AcDbText
 10
-599.8824280224193
 20
-76.0142385077394
 30
0.0
 40
4.5
  1
使用環境温度
  7
高4.5
100
AcDbText
  0
TEXT
  5
11A8
330
6B
100
AcDbEntity
  8
0
 62
     3
100
AcDbText
 10
-599.8824280224193
 20
-48.0142385077394
 30
0.0
 40
4.5
  1
型　　　式
  7
高4.5
100
AcDbText
  0
TEXT
  5
11A9
330
6B
100
AcDbEntity
  8
0
 62
     3
100
AcDbText
 10
-599.8824280224193
 20
-69.01423850773941
 30
0.0
 40
4.5
  1
耐　荷　重
  7
高4.5
100
AcDbText
  0
TEXT
  5
11AA
330
6B
100
AcDbEntity
  8
0
 62
     3
100
AcDbText
 10
-564.8824280224192
 20
-69.01423850773941
 30
0.0
 40
4.5
  1
10.0kg　(at25℃)
  7
高4.5
100
AcDbText
  0
TEXT
  5
11AB
330
6B
100
AcDbEntity
  8
0
 62
     3
100
AcDbText
 10
-564.8824280224192
 20
-48.0142385077394
 30
0.0
 40
4.5
  1
BH-500SH
  7
高4.5
100
AcDbText
  0
TEXT
  5
11AC
330
6B
100
AcDbEntity
  8
0
 62
     3
100
AcDbText
 10
-564.8824280224192
 20
-62.01423850773941
 30
0.0
 40
4.5
  1
%%C30～140
  7
高4.5
100
AcDbText
  0
TEXT
  5
11AD
330
6B
100
AcDbEntity
  8
0
 62
     3
100
AcDbText
 10
-599.8824280224193
 20
-62.01423850773941
 30
0.0
 40
4.5
  1
結　束　径
  7
高4.5
100
AcDbText
  0
TEXT
  5
11AE
330
6B
100
AcDbEntity
  8
0
 62
     3
100
AcDbText
 10
-599.8824280224193
 20
-55.01423850773941
 30
0.0
 40
4.5
  1
L　寸　法
  7
高4.5
100
AcDbText
  0
TEXT
  5
11AF
330
6B
100
AcDbEntity
  8
0
 62
     3
100
AcDbText
 10
-564.8824280224192
 20
-55.01423850773941
 30
0.0
 40
4.5
  1
500
  7
高4.5
100
AcDbText
  0
LINE
  5
11B0
330
6B
100
AcDbEntity
  8
0
 62
     3
100
AcDbLine
 10
-506.8824280224192
 20
-42.01423850773941
 30
0.0
 11
-601.8824280224192
 21
-42.01423850773941
 31
0.0
  0
LINE
  5
11B1
330
6B
100
AcDbEntity
  8
0
 62
     3
100
AcDbLine
 10
-601.8824280224192
 20
-42.01423850773941
 30
0.0
 11
-601.8824280224192
 21
-77.01423850773941
 31
0.0
  0
LINE
  5
11B2
330
6B
100
AcDbEntity
  8
0
 62
     3
100
AcDbLine
 10
-566.8824280224193
 20
-42.01423850773941
 30
0.0
 11
-566.8824280224193
 21
-77.01423850773941
 31
0.0
  0
LINE
  5
11B3
330
6B
100
AcDbEntity
  8
0
 62
     3
100
AcDbLine
 10
-506.8824280224192
 20
-42.01423850773941
 30
0.0
 11
-506.8824280224192
 21
-77.01423850773941
 31
0.0
  0
LINE
  5
11B4
330
6B
100
AcDbEntity
  8
0
100
AcDbLine
 10
-601.8824280224192
 20
-56.0142385077394
 30
0.0
 11
-506.8824280224192
 21
-56.0142385077394
 31
0.0
  0
LINE
  5
11B5
330
6B
100
AcDbEntity
  8
0
100
AcDbLine
 10
-506.8824280224192
 20
-63.01423850773929
 30
0.0
 11
-601.8824280224192
 21
-63.0142385077394
 31
0.0
  0
LINE
  5
11B6
330
6B
100
AcDbEntity
  8
0
100
AcDbLine
 10
-506.8824280224192
 20
-49.01423850773941
 30
0.0
 11
-601.8824280224192
 21
-49.01423850773941
 31
0.0
  0
LINE
  5
11B7
330
6B
100
AcDbEntity
  8
0
100
AcDbLine
 10
-601.8824280224192
 20
-70.01423850773941
 30
0.0
 11
-506.8824280224192
 21
-70.01423850773929
 31
0.0
  0
LINE
  5
11B8
330
6B
100
AcDbEntity
  8
0
 62
     3
100
AcDbLine
 10
-506.8824280224192
 20
-77.01423850773929
 30
0.0
 11
-601.8824280224192
 21
-77.01423850773941
 31
0.0
  0
TEXT
  5
11B9
330
6B
100
AcDbEntity
  8
0
 62
     3
100
AcDbText
 10
-707.6311630224193
 20
-129.4430575077395
 30
0.0
 40
3.2
  1
部品名
  7
高3.2
100
AcDbText
  0
TEXT
  5
11BA
330
6B
100
AcDbEntity
  8
0
 62
     3
100
AcDbText
 10
-716.6311630224193
 20
-129.4430575077395
 30
0.0
 40
3.2
  1
No.
  7
高3.2
100
AcDbText
  0
TEXT
  5
11BB
330
6B
100
AcDbEntity
  8
0
 62
     3
100
AcDbText
 10
-682.6311630224193
 20
-129.4430575077395
 30
0.0
 40
3.2
  1
個数
  7
高3.2
100
AcDbText
  0
TEXT
  5
11BC
330
6B
100
AcDbEntity
  8
0
 62
     3
100
AcDbText
 10
-682.6311630224193
 20
-124.4430575077395
 30
0.0
 40
3.2
  1
1
  7
高3.2
100
AcDbText
  0
TEXT
  5
11BD
330
6B
100
AcDbEntity
  8
0
 62
     3
100
AcDbText
 10
-682.6311630224193
 20
-119.4430575077395
 30
0.0
 40
3.2
  1
1
  7
高3.2
100
AcDbText
  0
TEXT
  5
11BE
330
6B
100
AcDbEntity
  8
0
 62
     3
100
AcDbText
 10
-707.6311630224193
 20
-119.4430575077395
 30
0.0
 40
3.2
  1
丸フック
  7
高3.2
100
AcDbText
  0
TEXT
  5
11BF
330
6B
100
AcDbEntity
  8
0
 62
     3
100
AcDbText
 10
-707.6311630224193
 20
-124.4430575077395
 30
0.0
 40
3.2
  1
連結ベルト
  7
高3.2
100
AcDbText
  0
TEXT
  5
11C0
330
6B
100
AcDbEntity
  8
0
 62
     3
100
AcDbText
 10
-716.6311630224193
 20
-124.4430575077395
 30
0.0
 40
3.2
  1
1
  7
高3.2
100
AcDbText
  0
TEXT
  5
11C1
330
6B
100
AcDbEntity
  8
0
 62
     3
100
AcDbText
 10
-716.6311630224193
 20
-119.4430575077395
 30
0.0
 40
3.2
  1
2
  7
高3.2
100
AcDbText
  0
LINE
  5
11C2
330
6B
100
AcDbEntity
  8
0
 62
     7
100
AcDbLine
 10
-709.1311630224192
 20
-114.9430575077395
 30
0.0
 11
-709.1311630224192
 21
-129.9430575077395
 31
0.0
  0
LINE
  5
11C3
330
6B
100
AcDbEntity
  8
0
 62
     7
100
AcDbLine
 10
-684.1311630224192
 20
-114.9430575077395
 30
0.0
 11
-684.1311630224192
 21
-129.9430575077395
 31
0.0
  0
LINE
  5
11C4
330
6B
100
AcDbEntity
  8
0
 62
     3
100
AcDbLine
 10
-675.1311630224193
 20
-114.9430575077395
 30
0.0
 11
-675.1311630224193
 21
-129.9430575077395
 31
0.0
  0
LINE
  5
11C5
330
6B
100
AcDbEntity
  8
0
 62
     7
100
AcDbLine
 10
-718.1311630224192
 20
-124.9430575077395
 30
0.0
 11
-675.1311630224193
 21
-124.9430575077395
 31
0.0
  0
LINE
  5
11C6
330
6B
100
AcDbEntity
  8
0
 62
     7
100
AcDbLine
 10
-718.1311630224192
 20
-119.9430575077395
 30
0.0
 11
-675.1311630224193
 21
-119.9430575077395
 31
0.0
  0
LINE
  5
11C7
330
6B
100
AcDbEntity
  8
0
 62
     3
100
AcDbLine
 10
-718.1311630224192
 20
-114.9430575077395
 30
0.0
 11
-675.1311630224193
 21
-114.9430575077395
 31
0.0
  0
LINE
  5
11C9
330
6B
100
AcDbEntity
  8
0
 62
     7
100
AcDbLine
 10
-328.1823880224193
 20
-83.94305750773952
 30
0.0
 11
-426.1311630224192
 21
-83.94305750773964
 31
0.0
  0
TEXT
  5
11CA
330
6B
100
AcDbEntity
  8
0
 62
     3
100
AcDbText
 10
-378.7322380224193
 20
-89.38697250773959
 30
0.0
 40
4.5
  1
サンド
  7
高4.5
100
AcDbText
  0
TEXT
  5
11CB
330
6B
100
AcDbEntity
  8
0
 62
     3
100
AcDbText
 10
-352.4889610224192
 20
-89.44470150773936
 30
0.0
 40
4.5
  1
29946
  7
高4.5
100
AcDbText
  0
LINE
  5
11CC
330
6B
100
AcDbEntity
  8
0
 62
     7
100
AcDbLine
 10
-328.1823880224193
 20
-77.94305750773952
 30
0.0
 11
-426.1311630224192
 21
-77.94305750773952
 31
0.0
  0
TEXT
  5
11CD
330
6B
100
AcDbEntity
  8
0
 62
     3
100
AcDbText
 10
-378.7322380224193
 20
-83.38697250773959
 30
0.0
 40
4.5
  1
オリーブグリーン
 41
0.5
  7
高4.5
100
AcDbText
  0
TEXT
  5
11CE
330
6B
100
AcDbEntity
  8
0
 62
     3
100
AcDbText
 10
-352.4889610224192
 20
-83.44470150773934
 30
0.0
 40
4.5
  1
29940
  7
高4.5
100
AcDbText
  0
LINE
  5
11CF
330
6B
100
AcDbEntity
  8
0
 62
     7
100
AcDbLine
 10
-328.1823880224193
 20
-71.94305750773953
 30
0.0
 11
-426.1311630224192
 21
-71.94305750773963
 31
0.0
  0
TEXT
  5
11D0
330
6B
100
AcDbEntity
  8
0
 62
     3
100
AcDbText
 10
-378.7322380224193
 20
-77.38697250773959
 30
0.0
 40
4.5
  1
グレー
  7
高4.5
100
AcDbText
  0
TEXT
  5
11D1
330
6B
100
AcDbEntity
  8
0
 62
     3
100
AcDbText
 10
-352.4889610224192
 20
-77.44470150773935
 30
0.0
 40
4.5
  1
29934
  7
高4.5
100
AcDbText
  0
LINE
  5
11D2
330
6B
100
AcDbEntity
  8
0
 62
     7
100
AcDbLine
 10
-328.1823880224193
 20
-65.94305750773952
 30
0.0
 11
-426.1311630224192
 21
-65.94305750773952
 31
0.0
  0
TEXT
  5
11D3
330
6B
100
AcDbEntity
  8
0
 62
     3
100
AcDbText
 10
-378.7322380224193
 20
-71.38697250773958
 30
0.0
 40
4.5
  1
ホワイト
  7
高4.5
100
AcDbText
  0
TEXT
  5
11D4
330
6B
100
AcDbEntity
  8
0
 62
     3
100
AcDbText
 10
-352.4889610224192
 20
-71.44470150773935
 30
0.0
 40
4.5
  1
29928
  7
高4.5
100
AcDbText
  0
LINE
  5
11D5
330
6B
100
AcDbEntity
  8
0
 62
     7
100
AcDbLine
 10
-328.1823880224193
 20
-59.94305750773953
 30
0.0
 11
-426.1311630224192
 21
-59.94305750773953
 31
0.0
  0
TEXT
  5
11D6
330
6B
100
AcDbEntity
  8
0
 62
     3
100
AcDbText
 10
-378.7322380224193
 20
-65.38697250773958
 30
0.0
 40
4.5
  1
ブラック
  7
高4.5
100
AcDbText
  0
TEXT
  5
11D7
330
6B
100
AcDbEntity
  8
0
 62
     3
100
AcDbText
 10
-352.4889610224192
 20
-65.44470150773936
 30
0.0
 40
4.5
  1
29922
  7
高4.5
100
AcDbText
  0
LINE
  5
11D8
330
6B
100
AcDbEntity
  8
0
 62
     7
100
AcDbLine
 10
-328.1823880224193
 20
-53.94305750773952
 30
0.0
 11
-426.1311630224192
 21
-53.94305750773952
 31
0.0
  0
TEXT
  5
11D9
330
6B
100
AcDbEntity
  8
0
 62
     3
100
AcDbText
 10
-378.7322380224193
 20
-59.38697250773959
 30
0.0
 40
4.5
  1
オレンジ
  7
高4.5
100
AcDbText
  0
TEXT
  5
11DA
330
6B
100
AcDbEntity
  8
0
 62
     3
100
AcDbText
 10
-352.4889610224192
 20
-59.44470150773935
 30
0.0
 40
4.5
  1
29630
  7
高4.5
100
AcDbText
  0
LINE
  5
11DB
330
6B
100
AcDbEntity
  8
0
 62
     3
100
AcDbLine
 10
-328.1823880224193
 20
-47.94305750773952
 30
0.0
 11
-426.1311630224192
 21
-47.94305750773952
 31
0.0
  0
TEXT
  5
11DC
330
6B
100
AcDbEntity
  8
0
 62
     3
100
AcDbText
 10
-378.7322380224193
 20
-53.38697250773958
 30
0.0
 40
4.5
  1
色
  7
高4.5
100
AcDbText
  0
TEXT
  5
11DD
330
6B
100
AcDbEntity
  8
0
 62
     3
100
AcDbText
 10
-352.4889610224192
 20
-53.44470150773935
 30
0.0
 40
4.5
  1
コード
  7
高4.5
100
AcDbText
  0
LINE
  5
11DE
330
6B
100
AcDbEntity
  8
0
100
AcDbLine
 10
-380.1311630224192
 20
-89.94305750773952
 30
0.0
 11
-380.1311630224192
 21
-47.94305750773952
 31
0.0
  0
LINE
  5
11DF
330
6B
100
AcDbEntity
  8
0
 62
     3
100
AcDbLine
 10
-426.1311630224192
 20
-89.94305750773952
 30
0.0
 11
-426.1311630224192
 21
-47.94305750773952
 31
0.0
  0
TEXT
  5
11E0
330
6B
100
AcDbEntity
  8
0
 62
     3
100
AcDbText
 10
-424.7322380224193
 20
-89.38697250773959
 30
0.0
 40
4.5
  1
BH-500SH-SN
 41
0.9
  7
高4.5
100
AcDbText
  0
TEXT
  5
11E1
330
6B
100
AcDbEntity
  8
0
 62
     3
100
AcDbText
 10
-424.7322380224193
 20
-83.38697250773959
 30
0.0
 40
4.5
  1
BH-500SH-OG
 41
0.9
  7
高4.5
100
AcDbText
  0
TEXT
  5
11E2
330
6B
100
AcDbEntity
  8
0
 62
     3
100
AcDbText
 10
-424.7322380224193
 20
-77.38697250773959
 30
0.0
 40
4.5
  1
BH-500SH-GY
 41
0.9
  7
高4.5
100
AcDbText
  0
TEXT
  5
11E3
330
6B
100
AcDbEntity
  8
0
 62
     3
100
AcDbText
 10
-424.7322380224193
 20
-71.38697250773958
 30
0.0
 40
4.5
  1
BH-500SH-WH
 41
0.9
  7
高4.5
100
AcDbText
  0
TEXT
  5
11E4
330
6B
100
AcDbEntity
  8
0
 62
     3
100
AcDbText
 10
-424.7322380224193
 20
-65.38697250773958
 30
0.0
 40
4.5
  1
BH-500SH-BK
 41
0.9
  7
高4.5
100
AcDbText
  0
TEXT
  5
11E5
330
6B
100
AcDbEntity
  8
0
 62
     3
100
AcDbText
 10
-424.7322380224193
 20
-59.38697250773959
 30
0.0
 40
4.5
  1
BH-500SH
 41
0.9
  7
高4.5
100
AcDbText
  0
TEXT
  5
11E6
330
6B
100
AcDbEntity
  8
0
 62
     3
100
AcDbText
 10
-424.7322380224193
 20
-53.38697250773958
 30
0.0
 40
4.5
  1
型番
  7
高4.5
100
AcDbText
  0
LINE
  5
11E7
330
6B
100
AcDbEntity
  8
0
100
AcDbLine
 10
-354.1311630224192
 20
-89.94305750773952
 30
0.0
 11
-354.1311630224192
 21
-47.94305750773952
 31
0.0
  0
TEXT
  5
1293
330
6B
100
AcDbEntity
  8
0
 62
     3
100
AcDbText
 10
-395.934794327167
 20
-110.6452431027556
 30
0.0
 40
2.5
  1
-
  7
高2.5
100
AcDbText
  0
LINE
  5
13EF
330
6B
100
AcDbEntity
  8
0
 62
     2
100
AcDbLine
 10
-568.5208350224193
 20
3.72537349226043
 30
0.0
 11
-568.5385560224192
 21
3.83883749226043
 31
0.0
  0
LINE
  5
13F0
330
6B
100
AcDbEntity
  8
0
 62
     2
100
AcDbLine
 10
-568.5385560224192
 20
3.83883749226043
 30
0.0
 11
-568.5598380224194
 21
3.94748449226043
 31
0.0
  0
LINE
  5
13F1
330
6B
100
AcDbEntity
  8
0
 62
     2
100
AcDbLine
 10
-568.5598380224194
 20
3.94748449226043
 30
0.0
 11
-568.5845170224192
 21
4.05047449226043
 31
0.0
  0
LINE
  5
13F2
330
6B
100
AcDbEntity
  8
0
 62
     2
100
AcDbLine
 10
-568.5845170224192
 20
4.05047449226043
 30
0.0
 11
-568.6124030224192
 21
4.147012492260429
 31
0.0
  0
LINE
  5
13F3
330
6B
100
AcDbEntity
  8
0
 62
     2
100
AcDbLine
 10
-568.6124030224192
 20
4.147012492260429
 30
0.0
 11
-568.6432790224194
 21
4.23635249226043
 31
0.0
  0
LINE
  5
13F4
330
6B
100
AcDbEntity
  8
0
 62
     2
100
AcDbLine
 10
-568.6432790224194
 20
4.23635249226043
 30
0.0
 11
-568.6769080224193
 21
4.31780249226043
 31
0.0
  0
LINE
  5
13F5
330
6B
100
AcDbEntity
  8
0
 62
     2
100
AcDbLine
 10
-568.6769080224193
 20
4.31780249226043
 30
0.0
 11
-568.7130280224192
 21
4.39073349226043
 31
0.0
  0
LINE
  5
13F6
330
6B
100
AcDbEntity
  8
0
 62
     2
100
AcDbLine
 10
-568.7130280224192
 20
4.39073349226043
 30
0.0
 11
-568.7513610224192
 21
4.45458249226043
 31
0.0
  0
LINE
  5
13F7
330
6B
100
AcDbEntity
  8
0
 62
     2
100
AcDbLine
 10
-568.7513610224192
 20
4.45458249226043
 30
0.0
 11
-568.7916110224192
 21
4.50885549226043
 31
0.0
  0
LINE
  5
13F8
330
6B
100
AcDbEntity
  8
0
 62
     2
100
AcDbLine
 10
-568.7916110224192
 20
4.50885549226043
 30
0.0
 11
-568.8334660224192
 21
4.553133492260429
 31
0.0
  0
LINE
  5
13F9
330
6B
100
AcDbEntity
  8
0
 62
     2
100
AcDbLine
 10
-568.8334660224192
 20
4.553133492260429
 30
0.0
 11
-568.8766040224193
 21
4.587073492260429
 31
0.0
  0
LINE
  5
13FA
330
6B
100
AcDbEntity
  8
0
 62
     2
100
AcDbLine
 10
-568.8766040224193
 20
4.587073492260429
 30
0.0
 11
-568.9206900224193
 21
4.61041349226043
 31
0.0
  0
LINE
  5
13FB
330
6B
100
AcDbEntity
  8
0
 62
     2
100
AcDbLine
 10
-568.9206900224193
 20
4.61041349226043
 30
0.0
 11
-568.9653830224194
 21
4.622972492260429
 31
0.0
  0
LINE
  5
13FC
330
6B
100
AcDbEntity
  8
0
 62
     2
100
AcDbLine
 10
-568.9653830224194
 20
4.622972492260429
 30
0.0
 11
-569.0103390224193
 21
4.624654492260432
 31
0.0
  0
LINE
  5
13FD
330
6B
100
AcDbEntity
  8
0
 62
     2
100
AcDbLine
 10
-569.0103390224193
 20
4.624654492260432
 30
0.0
 11
-569.0552100224192
 21
4.615445492260429
 31
0.0
  0
LINE
  5
13FE
330
6B
100
AcDbEntity
  8
0
 62
     2
100
AcDbLine
 10
-569.0552100224192
 20
4.615445492260429
 30
0.0
 11
-569.0996480224193
 21
4.59541749226043
 31
0.0
  0
LINE
  5
13FF
330
6B
100
AcDbEntity
  8
0
 62
     2
100
AcDbLine
 10
-569.0996480224193
 20
4.59541749226043
 30
0.0
 11
-569.1433120224193
 21
4.564724492260429
 31
0.0
  0
LINE
  5
1400
330
6B
100
AcDbEntity
  8
0
 62
     2
100
AcDbLine
 10
-569.1433120224193
 20
4.564724492260429
 30
0.0
 11
-569.1858620224193
 21
4.523604492260429
 31
0.0
  0
LINE
  5
1401
330
6B
100
AcDbEntity
  8
0
 62
     2
100
AcDbLine
 10
-569.1858620224193
 20
4.523604492260429
 30
0.0
 11
-569.2269700224193
 21
4.472375492260431
 31
0.0
  0
LINE
  5
1402
330
6B
100
AcDbEntity
  8
0
 62
     2
100
AcDbLine
 10
-569.2269700224193
 20
4.472375492260431
 30
0.0
 11
-569.2663190224192
 21
4.411432492260431
 31
0.0
  0
LINE
  5
1403
330
6B
100
AcDbEntity
  8
0
 62
     2
100
AcDbLine
 10
-569.2663190224192
 20
4.411432492260431
 30
0.0
 11
-569.3036040224193
 21
4.34124749226043
 31
0.0
  0
LINE
  5
1404
330
6B
100
AcDbEntity
  8
0
 62
     2
100
AcDbLine
 10
-569.3036040224193
 20
4.34124749226043
 30
0.0
 11
-569.3385370224192
 21
4.26236149226043
 31
0.0
  0
LINE
  5
1405
330
6B
100
AcDbEntity
  8
0
 62
     2
100
AcDbLine
 10
-569.3385370224192
 20
4.26236149226043
 30
0.0
 11
-569.3708480224192
 21
4.175386492260431
 31
0.0
  0
LINE
  5
1406
330
6B
100
AcDbEntity
  8
0
 62
     2
100
AcDbLine
 10
-569.3708480224192
 20
4.175386492260431
 30
0.0
 11
-569.4002870224193
 21
4.08099249226043
 31
0.0
  0
LINE
  5
1407
330
6B
100
AcDbEntity
  8
0
 62
     2
100
AcDbLine
 10
-569.4002870224193
 20
4.08099249226043
 30
0.0
 11
-569.4266270224193
 21
3.97991049226043
 31
0.0
  0
LINE
  5
1408
330
6B
100
AcDbEntity
  8
0
 62
     2
100
AcDbLine
 10
-569.4266270224193
 20
3.97991049226043
 30
0.0
 11
-569.4496640224192
 21
3.87292249226043
 31
0.0
  0
LINE
  5
1409
330
6B
100
AcDbEntity
  8
0
 62
     2
100
AcDbLine
 10
-569.4496640224192
 20
3.87292249226043
 30
0.0
 11
-569.4692210224193
 21
3.76085349226043
 31
0.0
  0
LINE
  5
140A
330
6B
100
AcDbEntity
  8
0
 62
     2
100
AcDbLine
 10
-569.4692210224193
 20
3.76085349226043
 30
0.0
 11
-569.4851450224192
 21
3.64457049226043
 31
0.0
  0
LINE
  5
140B
330
6B
100
AcDbEntity
  8
0
 62
     2
100
AcDbLine
 10
-569.4851450224192
 20
3.64457049226043
 30
0.0
 11
-569.4973140224192
 21
3.52497249226043
 31
0.0
  0
LINE
  5
140C
330
6B
100
AcDbEntity
  8
0
 62
     2
100
AcDbLine
 10
-569.4973140224192
 20
3.52497249226043
 30
0.0
 11
-569.5056330224192
 21
3.40298449226043
 31
0.0
  0
LINE
  5
140D
330
6B
100
AcDbEntity
  8
0
 62
     2
100
AcDbLine
 10
-569.5056330224192
 20
3.40298449226043
 30
0.0
 11
-569.5100400224194
 21
3.27954849226043
 31
0.0
  0
LINE
  5
140E
330
6B
100
AcDbEntity
  8
0
 62
     2
100
AcDbLine
 10
-569.5100400224194
 20
3.27954849226043
 30
0.0
 11
-569.5104980224193
 21
3.15561949226043
 31
0.0
  0
LINE
  5
140F
330
6B
100
AcDbEntity
  8
0
 62
     2
100
AcDbLine
 10
-569.5104980224193
 20
3.15561949226043
 30
0.0
 11
-569.5070060224193
 21
3.03215449226043
 31
0.0
  0
LINE
  5
1410
330
6B
100
AcDbEntity
  8
0
 62
     2
100
AcDbLine
 10
-569.5070060224193
 20
3.03215449226043
 30
0.0
 11
-569.4995890224192
 21
2.91010749226043
 31
0.0
  0
LINE
  5
1411
330
6B
100
AcDbEntity
  8
0
 62
     2
100
AcDbLine
 10
-569.4995890224192
 20
2.91010749226043
 30
0.0
 11
-569.4883050224192
 21
2.79042349226043
 31
0.0
  0
LINE
  5
1412
330
6B
100
AcDbEntity
  8
0
 62
     2
100
AcDbLine
 10
-569.4883050224192
 20
2.79042349226043
 30
0.0
 11
-569.4732420224193
 21
2.67402549226043
 31
0.0
  0
LINE
  5
1413
330
6B
100
AcDbEntity
  8
0
 62
     2
100
AcDbLine
 10
-569.4732420224193
 20
2.67402549226043
 30
0.0
 11
-569.4545160224192
 21
2.56181549226043
 31
0.0
  0
LINE
  5
1414
330
6B
100
AcDbEntity
  8
0
 62
     2
100
AcDbLine
 10
-569.4545160224192
 20
2.56181549226043
 30
0.0
 11
-569.4322710224192
 21
2.45465949226043
 31
0.0
  0
LINE
  5
1415
330
6B
100
AcDbEntity
  8
0
 62
     2
100
AcDbLine
 10
-569.4322710224192
 20
2.45465949226043
 30
0.0
 11
-569.4066800224192
 21
2.35338549226043
 31
0.0
  0
LINE
  5
1416
330
6B
100
AcDbEntity
  8
0
 62
     2
100
AcDbLine
 10
-569.4066800224192
 20
2.35338549226043
 30
0.0
 11
-569.3779400224192
 21
2.25877649226043
 31
0.0
  0
LINE
  5
1417
330
6B
100
AcDbEntity
  8
0
 62
     2
100
AcDbLine
 10
-569.3779400224192
 20
2.25877649226043
 30
0.0
 11
-569.3462730224194
 21
2.171564492260429
 31
0.0
  0
LINE
  5
1418
330
6B
100
AcDbEntity
  8
0
 62
     2
100
AcDbLine
 10
-569.3462730224194
 20
2.171564492260429
 30
0.0
 11
-569.3119250224192
 21
2.092422492260429
 31
0.0
  0
LINE
  5
1419
330
6B
100
AcDbEntity
  8
0
 62
     2
100
AcDbLine
 10
-569.3119250224192
 20
2.092422492260429
 30
0.0
 11
-569.2751600224193
 21
2.02196249226043
 31
0.0
  0
LINE
  5
141A
330
6B
100
AcDbEntity
  8
0
 62
     2
100
AcDbLine
 10
-569.2751600224193
 20
2.02196249226043
 30
0.0
 11
-569.2362640224192
 21
1.960730492260429
 31
0.0
  0
LINE
  5
141B
330
6B
100
AcDbEntity
  8
0
 62
     2
100
AcDbLine
 10
-569.2362640224192
 20
1.960730492260429
 30
0.0
 11
-569.1955350224193
 21
1.909198492260429
 31
0.0
  0
LINE
  5
141C
330
6B
100
AcDbEntity
  8
0
 62
     2
100
AcDbLine
 10
-569.1955350224193
 20
1.909198492260429
 30
0.0
 11
-569.1532910224192
 21
1.867764492260429
 31
0.0
  0
LINE
  5
141D
330
6B
100
AcDbEntity
  8
0
 62
     2
100
AcDbLine
 10
-569.1532910224192
 20
1.867764492260429
 30
0.0
 11
-569.1098560224193
 21
1.836749492260429
 31
0.0
  0
LINE
  5
141E
330
6B
100
AcDbEntity
  8
0
 62
     2
100
AcDbLine
 10
-569.1098560224193
 20
1.836749492260429
 30
0.0
 11
-569.0655670224193
 21
1.816393492260429
 31
0.0
  0
LINE
  5
141F
330
6B
100
AcDbEntity
  8
0
 62
     2
100
AcDbLine
 10
-569.0655670224193
 20
1.816393492260429
 30
0.0
 11
-569.0207650224192
 21
1.806852492260429
 31
0.0
  0
LINE
  5
1420
330
6B
100
AcDbEntity
  8
0
 62
     2
100
AcDbLine
 10
-569.0207650224192
 20
1.806852492260429
 30
0.0
 11
-568.9757980224193
 21
1.808201492260429
 31
0.0
  0
LINE
  5
1421
330
6B
100
AcDbEntity
  8
0
 62
     2
100
AcDbLine
 10
-568.9757980224193
 20
1.808201492260429
 30
0.0
 11
-568.9310130224193
 21
1.820430492260429
 31
0.0
  0
LINE
  5
1422
330
6B
100
AcDbEntity
  8
0
 62
     2
100
AcDbLine
 10
-568.9310130224193
 20
1.820430492260429
 30
0.0
 11
-568.8867550224194
 21
1.843442492260429
 31
0.0
  0
LINE
  5
1423
330
6B
100
AcDbEntity
  8
0
 62
     2
100
AcDbLine
 10
-568.8867550224194
 20
1.843442492260429
 30
0.0
 11
-568.8433680224193
 21
1.877062492260429
 31
0.0
  0
LINE
  5
1424
330
6B
100
AcDbEntity
  8
0
 62
     2
100
AcDbLine
 10
-568.8433680224193
 20
1.877062492260429
 30
0.0
 11
-568.8011860224192
 21
1.921029492260429
 31
0.0
  0
LINE
  5
1425
330
6B
100
AcDbEntity
  8
0
 62
     2
100
AcDbLine
 10
-568.8011860224192
 20
1.921029492260429
 30
0.0
 11
-568.7605360224194
 21
1.975003492260429
 31
0.0
  0
LINE
  5
1426
330
6B
100
AcDbEntity
  8
0
 62
     2
100
AcDbLine
 10
-568.7605360224194
 20
1.975003492260429
 30
0.0
 11
-568.7217310224192
 21
2.03856649226043
 31
0.0
  0
LINE
  5
1427
330
6B
100
AcDbEntity
  8
0
 62
     2
100
AcDbLine
 10
-568.7217310224192
 20
2.03856649226043
 30
0.0
 11
-568.6850720224192
 21
2.111228492260429
 31
0.0
  0
LINE
  5
1428
330
6B
100
AcDbEntity
  8
0
 62
     2
100
AcDbLine
 10
-568.6850720224192
 20
2.111228492260429
 30
0.0
 11
-568.6508420224193
 21
2.192428492260429
 31
0.0
  0
LINE
  5
1429
330
6B
100
AcDbEntity
  8
0
 62
     2
100
AcDbLine
 10
-568.6508420224193
 20
2.192428492260429
 30
0.0
 11
-568.6193060224193
 21
2.28153649226043
 31
0.0
  0
LINE
  5
142A
330
6B
100
AcDbEntity
  8
0
 62
     2
100
AcDbLine
 10
-568.6193060224193
 20
2.28153649226043
 30
0.0
 11
-568.5907060224192
 21
2.37786549226043
 31
0.0
  0
LINE
  5
142B
330
6B
100
AcDbEntity
  8
0
 62
     2
100
AcDbLine
 10
-568.5907060224192
 20
2.37786549226043
 30
0.0
 11
-568.5652650224191
 21
2.48067049226043
 31
0.0
  0
LINE
  5
142C
330
6B
100
AcDbEntity
  8
0
 62
     2
100
AcDbLine
 10
-568.5652650224191
 20
2.48067049226043
 30
0.0
 11
-568.5431790224193
 21
2.58915749226043
 31
0.0
  0
LINE
  5
142D
330
6B
100
AcDbEntity
  8
0
 62
     2
100
AcDbLine
 10
-568.5431790224193
 20
2.58915749226043
 30
0.0
 11
-568.5246190224193
 21
2.70248649226043
 31
0.0
  0
LINE
  5
142E
330
6B
100
AcDbEntity
  8
0
100
AcDbLine
 10
-619.5482830224192
 20
78.53231749226043
 30
0.0
 11
-619.5379270224194
 21
76.46179149226043
 31
0.0
  0
LINE
  5
142F
330
6B
100
AcDbEntity
  8
0
100
AcDbLine
 10
-619.5379270224194
 20
76.46179149226043
 30
0.0
 11
-618.5116330224192
 21
78.26009749226042
 31
0.0
  0
LINE
  5
1430
330
6B
100
AcDbEntity
  8
0
100
AcDbLine
 10
-558.3569070224192
 20
74.29906549226044
 30
0.0
 11
-557.8608020224192
 21
72.28882449226043
 31
0.0
  0
LINE
  5
1431
330
6B
100
AcDbEntity
  8
0
100
AcDbLine
 10
-557.8608020224192
 20
72.28882449226043
 30
0.0
 11
-557.2853210224192
 21
74.27779649226043
 31
0.0
  0
LINE
  5
1432
330
6B
100
AcDbEntity
  8
0
100
AcDbLine
 10
-423.1509680224193
 20
-0.9266235077395695
 30
0.0
 11
-424.9824280224193
 21
0.9021694922604304
 31
0.0
  0
LINE
  5
1433
330
6B
100
AcDbEntity
  8
0
100
AcDbLine
 10
-424.9824280224193
 20
0.9021694922604304
 30
0.0
 11
-424.3107330224193
 21
-1.597341507739568
 31
0.0
  0
LINE
  5
1434
330
6B
100
AcDbEntity
  8
0
100
AcDbLine
 10
-503.5524960224193
 20
13.82201749226043
 30
0.0
 11
-502.2391060224192
 21
11.71801149226043
 31
0.0
  0
LINE
  5
1435
330
6B
100
AcDbEntity
  8
0
100
AcDbLine
 10
-502.2391060224192
 20
11.71801149226043
 30
0.0
 11
-501.1738370224191
 21
9.63334049226043
 31
0.0
  0
LINE
  5
1436
330
6B
100
AcDbEntity
  8
0
100
AcDbLine
 10
-501.1738370224191
 20
9.63334049226043
 30
0.0
 11
-500.6048080224192
 21
7.587340492260429
 31
0.0
  0
LINE
  5
1437
330
6B
100
AcDbEntity
  8
0
100
AcDbLine
 10
-500.6048080224192
 20
7.587340492260429
 30
0.0
 11
-500.7801390224194
 21
5.599346492260429
 31
0.0
  0
LINE
  5
1438
330
6B
100
AcDbEntity
  8
0
100
AcDbLine
 10
-500.7801390224194
 20
5.599346492260429
 30
0.0
 11
-502.1460640224193
 21
3.10959149226043
 31
0.0
  0
LINE
  5
1439
330
6B
100
AcDbEntity
  8
0
100
AcDbLine
 10
-502.1460640224193
 20
3.10959149226043
 30
0.0
 11
-503.4481600224193
 21
0.6359334922604305
 31
0.0
  0
LINE
  5
143A
330
6B
100
AcDbEntity
  8
0
100
AcDbLine
 10
-503.4481600224193
 20
0.6359334922604305
 30
0.0
 11
-503.5077590224193
 21
-1.238643507739568
 31
0.0
  0
LINE
  5
143B
330
6B
100
AcDbEntity
  8
0
100
AcDbLine
 10
-503.5077590224193
 20
-1.238643507739568
 30
0.0
 11
-502.8295720224194
 21
-3.153459507739568
 31
0.0
  0
LINE
  5
143C
330
6B
100
AcDbEntity
  8
0
100
AcDbLine
 10
-502.8295720224194
 20
-3.153459507739568
 30
0.0
 11
-501.6595270224192
 21
-5.095099507739567
 31
0.0
  0
LINE
  5
143D
330
6B
100
AcDbEntity
  8
0
100
AcDbLine
 10
-501.6595270224192
 20
-5.095099507739567
 30
0.0
 11
-500.2435540224192
 21
-7.050152507739567
 31
0.0
  0
LINE
  5
143E
330
6B
100
AcDbEntity
  8
0
100
AcDbLine
 10
-505.5240800224193
 20
13.71793849226043
 30
0.0
 11
-504.2106900224192
 21
11.61393249226043
 31
0.0
  0
LINE
  5
143F
330
6B
100
AcDbEntity
  8
0
100
AcDbLine
 10
-504.2106900224192
 20
11.61393249226043
 30
0.0
 11
-503.1454210224192
 21
9.529261492260431
 31
0.0
  0
LINE
  5
1440
330
6B
100
AcDbEntity
  8
0
100
AcDbLine
 10
-503.1454210224192
 20
9.529261492260431
 30
0.0
 11
-502.5763920224192
 21
7.483261492260429
 31
0.0
  0
LINE
  5
1441
330
6B
100
AcDbEntity
  8
0
100
AcDbLine
 10
-502.5763920224192
 20
7.483261492260429
 30
0.0
 11
-502.7517230224193
 21
5.495267492260429
 31
0.0
  0
LINE
  5
1442
330
6B
100
AcDbEntity
  8
0
100
AcDbLine
 10
-502.7517230224193
 20
5.495267492260429
 30
0.0
 11
-504.1176480224192
 21
3.00551249226043
 31
0.0
  0
LINE
  5
1443
330
6B
100
AcDbEntity
  8
0
100
AcDbLine
 10
-504.1176480224192
 20
3.00551249226043
 30
0.0
 11
-505.4197440224193
 21
0.5318544922604307
 31
0.0
  0
LINE
  5
1444
330
6B
100
AcDbEntity
  8
0
100
AcDbLine
 10
-505.4197440224193
 20
0.5318544922604307
 30
0.0
 11
-505.4793430224193
 21
-1.342722507739569
 31
0.0
  0
LINE
  5
1445
330
6B
100
AcDbEntity
  8
0
100
AcDbLine
 10
-505.4793430224193
 20
-1.342722507739569
 30
0.0
 11
-504.8011560224193
 21
-3.257537507739568
 31
0.0
  0
LINE
  5
1446
330
6B
100
AcDbEntity
  8
0
100
AcDbLine
 10
-504.8011560224193
 20
-3.257537507739568
 30
0.0
 11
-503.6311110224192
 21
-5.19917850773957
 31
0.0
  0
LINE
  5
1447
330
6B
100
AcDbEntity
  8
0
100
AcDbLine
 10
-503.6311110224192
 20
-5.19917850773957
 30
0.0
 11
-502.2151380224193
 21
-7.154231507739569
 31
0.0
  0
LINE
  5
1448
330
6B
100
AcDbEntity
  8
0
100
AcDbLine
 10
-489.9836430224193
 20
70.01521249226043
 30
0.0
 11
-482.5771630224192
 21
70.01521249226043
 31
0.0
  0
LINE
  5
1449
330
6B
100
AcDbEntity
  8
0
100
AcDbLine
 10
-490.2605110224192
 20
73.01521249226043
 30
0.0
 11
-482.5771630224192
 21
73.01521249226043
 31
0.0
  0
LINE
  5
144A
330
6B
100
AcDbEntity
  8
0
100
AcDbLine
 10
-483.8271630224192
 20
67.51521249226043
 30
0.0
 11
-483.8271630224192
 21
65.01521249226043
 31
0.0
  0
LINE
  5
144B
330
6B
100
AcDbEntity
  8
0
100
AcDbLine
 10
-483.8271630224192
 20
75.51521249226043
 30
0.0
 11
-483.8271630224192
 21
84.26521249226043
 31
0.0
  0
LINE
  5
144C
330
6B
100
AcDbEntity
  8
0
100
AcDbLine
 10
-483.8271630224192
 20
70.01521249226043
 30
0.0
 11
-483.8271630224192
 21
73.01521249226043
 31
0.0
  0
LINE
  5
1450
330
6B
100
AcDbEntity
  8
0
100
AcDbLine
 10
-446.2184080224193
 20
-4.248287507739568
 30
0.0
 11
-438.1890633273746
 21
-4.248287507739571
 31
0.0
  0
LINE
  5
1451
330
6B
100
AcDbEntity
  8
0
100
AcDbLine
 10
-445.9860770224192
 20
10.84124449226043
 30
0.0
 11
-438.1890633273746
 21
10.84124449226043
 31
0.0
  0
LINE
  5
1452
330
6B
100
AcDbEntity
  8
0
100
AcDbLine
 10
-439.4390633273746
 20
13.34124449226043
 30
0.0
 11
-439.4390633273746
 21
15.84124449226043
 31
0.0
  0
LINE
  5
1453
330
6B
100
AcDbEntity
  8
0
100
AcDbLine
 10
-439.4390633273746
 20
-6.74828750773957
 30
0.0
 11
-439.4390633273746
 21
-14.49828750773957
 31
0.0
  0
LINE
  5
1454
330
6B
100
AcDbEntity
  8
0
100
AcDbLine
 10
-439.4390633273746
 20
10.84124449226043
 30
0.0
 11
-439.4390633273746
 21
-4.24828750773957
 31
0.0
  0
LINE
  5
1458
330
6B
100
AcDbEntity
  8
0
100
AcDbLine
 10
-612.1281060224194
 20
8.016330492260429
 30
0.0
 11
-612.1281060224194
 21
28.40010349226043
 31
0.0
  0
LINE
  5
1459
330
6B
100
AcDbEntity
  8
0
100
AcDbLine
 10
-366.3463400224193
 20
14.04889249226043
 30
0.0
 11
-366.3463400224193
 21
28.40010349226043
 31
0.0
  0
LINE
  5
145A
330
6B
100
AcDbEntity
  8
0
100
AcDbLine
 10
-609.6281060224193
 20
27.15010349226043
 30
0.0
 11
-368.8463400224193
 21
27.15010349226043
 31
0.0
  0
LINE
  5
145E
330
6B
100
AcDbEntity
  8
0
100
AcDbLine
 10
-674.1636580224193
 20
8.285888492260427
 30
0.0
 11
-674.1636580224193
 21
28.40010349226043
 31
0.0
  0
LINE
  5
145F
330
6B
100
AcDbEntity
  8
0
100
AcDbLine
 10
-612.1281060224194
 20
8.016330492260429
 30
0.0
 11
-612.1281060224194
 21
28.40010349226043
 31
0.0
  0
LINE
  5
1460
330
6B
100
AcDbEntity
  8
0
100
AcDbLine
 10
-671.6636580224193
 20
27.15010349226043
 30
0.0
 11
-614.6281060224193
 21
27.15010349226043
 31
0.0
  0
LINE
  5
1464
330
6B
100
AcDbEntity
  8
0
100
AcDbLine
 10
-367.5963400224193
 20
-8.701107507739568
 30
0.0
 11
-356.6218430224193
 21
-8.701107507739569
 31
0.0
  0
LINE
  5
1465
330
6B
100
AcDbEntity
  8
0
100
AcDbLine
 10
-367.5963400224193
 20
15.29889249226043
 30
0.0
 11
-356.6218430224193
 21
15.29889249226043
 31
0.0
  0
LINE
  5
1466
330
6B
100
AcDbEntity
  8
0
100
AcDbLine
 10
-357.8718430224193
 20
-6.20110750773957
 30
0.0
 11
-357.8718430224193
 21
12.79889249226043
 31
0.0
  0
LINE
  5
146A
330
6B
100
AcDbEntity
  8
0
100
AcDbLine
 10
-365.9438830224193
 20
70.76298149226042
 30
0.0
 11
-354.6673450224193
 21
70.76298149226042
 31
0.0
  0
LINE
  5
146B
330
6B
100
AcDbEntity
  8
0
100
AcDbLine
 10
-366.9413830224194
 20
80.76298149226042
 30
0.0
 11
-354.6673450224193
 21
80.76298149226042
 31
0.0
  0
LINE
  5
146C
330
6B
100
AcDbEntity
  8
0
100
AcDbLine
 10
-355.9173450224193
 20
73.26298149226042
 30
0.0
 11
-355.9173450224193
 21
78.26298149226042
 31
0.0
  0
LINE
  5
1470
330
6B
100
AcDbEntity
  8
0
100
AcDbLine
 10
-649.4407690224193
 20
46.46148249226043
 30
0.0
 11
-688.5872510224193
 21
46.46148249226044
 31
0.0
  0
LINE
  5
1471
330
6B
100
AcDbEntity
  8
0
100
AcDbLine
 10
-641.3176860224192
 20
101.1486184922604
 30
0.0
 11
-688.5872510224193
 21
101.1486184922604
 31
0.0
  0
LINE
  5
1472
330
6B
100
AcDbEntity
  8
0
100
AcDbLine
 10
-687.3372510224193
 20
48.96148249226044
 30
0.0
 11
-687.3372510224193
 21
98.64861849226041
 31
0.0
  0
LINE
  5
1476
330
6B
100
AcDbEntity
  8
0
100
AcDbLine
 10
-643.0884539507301
 20
60.55223167974332
 30
0.0
 11
-655.293083094109
 21
82.3707333047775
 31
0.0
  0
LINE
  5
147A
330
6B
100
AcDbEntity
  8
0
 62
     3
100
AcDbLine
 10
-527.8725369824193
 20
144.5975710322603
 30
0.0
 11
-527.8991477324192
 21
144.7679535522604
 31
0.0
  0
LINE
  5
147B
330
6B
100
AcDbEntity
  8
0
 62
     3
100
AcDbLine
 10
-527.8991477324192
 20
144.7679535522604
 30
0.0
 11
-527.9311065624192
 21
144.9311032422604
 31
0.0
  0
LINE
  5
147C
330
6B
100
AcDbEntity
  8
0
 62
     3
100
AcDbLine
 10
-527.9311065624192
 20
144.9311032422604
 30
0.0
 11
-527.9681664624193
 21
145.0857590422604
 31
0.0
  0
LINE
  5
147D
330
6B
100
AcDbEntity
  8
0
 62
     3
100
AcDbLine
 10
-527.9681664624193
 20
145.0857590422604
 30
0.0
 11
-528.0100409624195
 21
145.2307255422604
 31
0.0
  0
LINE
  5
147E
330
6B
100
AcDbEntity
  8
0
 62
     3
100
AcDbLine
 10
-528.0100409624195
 20
145.2307255422604
 30
0.0
 11
-528.0564063924193
 21
145.3648822322604
 31
0.0
  0
LINE
  5
147F
330
6B
100
AcDbEntity
  8
0
 62
     3
100
AcDbLine
 10
-528.0564063924193
 20
145.3648822322604
 30
0.0
 11
-528.1069043824193
 21
145.4871921322603
 31
0.0
  0
LINE
  5
1480
330
6B
100
AcDbEntity
  8
0
 62
     3
100
AcDbLine
 10
-528.1069043824193
 20
145.4871921322603
 30
0.0
 11
-528.1611446024193
 21
145.5967098722603
 31
0.0
  0
LINE
  5
1481
330
6B
100
AcDbEntity
  8
0
 62
     3
100
AcDbLine
 10
-528.1611446024193
 20
145.5967098722603
 30
0.0
 11
-528.2187078024192
 21
145.6925889222604
 31
0.0
  0
LINE
  5
1482
330
6B
100
AcDbEntity
  8
0
 62
     3
100
AcDbLine
 10
-528.2187078024192
 20
145.6925889222604
 30
0.0
 11
-528.2791490524194
 21
145.7740881922603
 31
0.0
  0
LINE
  5
1483
330
6B
100
AcDbEntity
  8
0
 62
     3
100
AcDbLine
 10
-528.2791490524194
 20
145.7740881922603
 30
0.0
 11
-528.3420011724192
 21
145.8405777322604
 31
0.0
  0
LINE
  5
1484
330
6B
100
AcDbEntity
  8
0
 62
     3
100
AcDbLine
 10
-528.3420011724192
 20
145.8405777322604
 30
0.0
 11
-528.4067783524193
 21
145.8915436122604
 31
0.0
  0
LINE
  5
1485
330
6B
100
AcDbEntity
  8
0
 62
     3
100
AcDbLine
 10
-528.4067783524193
 20
145.8915436122604
 30
0.0
 11
-528.4729798824193
 21
145.9265918922604
 31
0.0
  0
LINE
  5
1486
330
6B
100
AcDbEntity
  8
0
 62
     3
100
AcDbLine
 10
-528.4729798824193
 20
145.9265918922604
 30
0.0
 11
-528.5400940724192
 21
145.9454516622604
 31
0.0
  0
LINE
  5
1487
330
6B
100
AcDbEntity
  8
0
 62
     3
100
AcDbLine
 10
-528.5400940724192
 20
145.9454516622604
 30
0.0
 11
-528.6076021624193
 21
145.9479771622604
 31
0.0
  0
LINE
  5
1488
330
6B
100
AcDbEntity
  8
0
 62
     3
100
AcDbLine
 10
-528.6076021624193
 20
145.9479771622604
 30
0.0
 11
-528.6749823524193
 21
145.9341488522603
 31
0.0
  0
LINE
  5
1489
330
6B
100
AcDbEntity
  8
0
 62
     3
100
AcDbLine
 10
-528.6749823524193
 20
145.9341488522603
 30
0.0
 11
-528.7417138224192
 21
145.9040736222604
 31
0.0
  0
LINE
  5
148A
330
6B
100
AcDbEntity
  8
0
 62
     3
100
AcDbLine
 10
-528.7417138224192
 20
145.9040736222604
 30
0.0
 11
-528.8072807624192
 21
145.8579839522604
 31
0.0
  0
LINE
  5
148B
330
6B
100
AcDbEntity
  8
0
 62
     3
100
AcDbLine
 10
-528.8072807624192
 20
145.8579839522604
 30
0.0
 11
-528.8711764024193
 21
145.7962360722604
 31
0.0
  0
LINE
  5
148C
330
6B
100
AcDbEntity
  8
0
 62
     3
100
AcDbLine
 10
-528.8711764024193
 20
145.7962360722604
 30
0.0
 11
-528.9329068324192
 21
145.7193072822604
 31
0.0
  0
LINE
  5
148D
330
6B
100
AcDbEntity
  8
0
 62
     3
100
AcDbLine
 10
-528.9329068324192
 20
145.7193072822604
 30
0.0
 11
-528.9919949224192
 21
145.6277921822604
 31
0.0
  0
LINE
  5
148E
330
6B
100
AcDbEntity
  8
0
 62
     3
100
AcDbLine
 10
-528.9919949224192
 20
145.6277921822604
 30
0.0
 11
-529.0479839524192
 21
145.5223981522604
 31
0.0
  0
LINE
  5
148F
330
6B
100
AcDbEntity
  8
0
 62
     3
100
AcDbLine
 10
-529.0479839524192
 20
145.5223981522604
 30
0.0
 11
-529.1004411524193
 21
145.4039398222604
 31
0.0
  0
LINE
  5
1490
330
6B
100
AcDbEntity
  8
0
 62
     3
100
AcDbLine
 10
-529.1004411524193
 20
145.4039398222604
 30
0.0
 11
-529.1489610524194
 21
145.2733328122604
 31
0.0
  0
LINE
  5
1491
330
6B
100
AcDbEntity
  8
0
 62
     3
100
AcDbLine
 10
-529.1489610524194
 20
145.2733328122604
 30
0.0
 11
-529.1931686324192
 21
145.1315866622603
 31
0.0
  0
LINE
  5
1492
330
6B
100
AcDbEntity
  8
0
 62
     3
100
AcDbLine
 10
-529.1931686324192
 20
145.1315866622603
 30
0.0
 11
-529.2327221724193
 21
144.9797969922604
 31
0.0
  0
LINE
  5
1493
330
6B
100
AcDbEntity
  8
0
 62
     3
100
AcDbLine
 10
-529.2327221724193
 20
144.9797969922604
 30
0.0
 11
-529.2673159524192
 21
144.8191370522604
 31
0.0
  0
LINE
  5
1494
330
6B
100
AcDbEntity
  8
0
 62
     3
100
AcDbLine
 10
-529.2673159524192
 20
144.8191370522604
 30
0.0
 11
-529.2966825824192
 21
144.6508486622604
 31
0.0
  0
LINE
  5
1495
330
6B
100
AcDbEntity
  8
0
 62
     3
100
AcDbLine
 10
-529.2966825824192
 20
144.6508486622604
 30
0.0
 11
-529.3205950724193
 21
144.4762326022604
 31
0.0
  0
LINE
  5
1496
330
6B
100
AcDbEntity
  8
0
 62
     3
100
AcDbLine
 10
-529.3205950724193
 20
144.4762326022604
 30
0.0
 11
-529.3388685824193
 21
144.2966385722604
 31
0.0
  0
LINE
  5
1497
330
6B
100
AcDbEntity
  8
0
 62
     3
100
AcDbLine
 10
-529.3388685824193
 20
144.2966385722604
 30
0.0
 11
-529.3513618824192
 21
144.1134547322604
 31
0.0
  0
LINE
  5
1498
330
6B
100
AcDbEntity
  8
0
 62
     3
100
AcDbLine
 10
-529.3513618824192
 20
144.1134547322604
 30
0.0
 11
-529.3579783924193
 21
143.9280970122604
 31
0.0
  0
LINE
  5
1499
330
6B
100
AcDbEntity
  8
0
 62
     3
100
AcDbLine
 10
-529.3579783924193
 20
143.9280970122604
 30
0.0
 11
-529.3586669824192
 21
143.7419981122604
 31
0.0
  0
LINE
  5
149A
330
6B
100
AcDbEntity
  8
0
 62
     3
100
AcDbLine
 10
-529.3586669824192
 20
143.7419981122604
 30
0.0
 11
-529.3534223224193
 21
143.5565965022604
 31
0.0
  0
LINE
  5
149B
330
6B
100
AcDbEntity
  8
0
 62
     3
100
AcDbLine
 10
-529.3534223224193
 20
143.5565965022604
 30
0.0
 11
-529.3422849524192
 21
143.3733252322604
 31
0.0
  0
LINE
  5
149C
330
6B
100
AcDbEntity
  8
0
 62
     3
100
AcDbLine
 10
-529.3422849524192
 20
143.3733252322604
 30
0.0
 11
-529.3253409524193
 21
143.1936008922604
 31
0.0
  0
LINE
  5
149D
330
6B
100
AcDbEntity
  8
0
 62
     3
100
AcDbLine
 10
-529.3253409524193
 20
143.1936008922604
 30
0.0
 11
-529.3027213024194
 21
143.0188126622604
 31
0.0
  0
LINE
  5
149E
330
6B
100
AcDbEntity
  8
0
 62
     3
100
AcDbLine
 10
-529.3027213024194
 20
143.0188126622604
 30
0.0
 11
-529.2746008324193
 21
142.8503115622604
 31
0.0
  0
LINE
  5
149F
330
6B
100
AcDbEntity
  8
0
 62
     3
100
AcDbLine
 10
-529.2746008324193
 20
142.8503115622604
 30
0.0
 11
-529.2411969024193
 21
142.6894000222604
 31
0.0
  0
LINE
  5
14A0
330
6B
100
AcDbEntity
  8
0
 62
     3
100
AcDbLine
 10
-529.2411969024193
 20
142.6894000222604
 30
0.0
 11
-529.2027677024192
 21
142.5373218022604
 31
0.0
  0
LINE
  5
14A1
330
6B
100
AcDbEntity
  8
0
 62
     3
100
AcDbLine
 10
-529.2027677024192
 20
142.5373218022604
 30
0.0
 11
-529.1596102824192
 21
142.3952523922604
 31
0.0
  0
LINE
  5
14A2
330
6B
100
AcDbEntity
  8
0
 62
     3
100
AcDbLine
 10
-529.1596102824192
 20
142.3952523922604
 30
0.0
 11
-529.1120582124193
 21
142.2642899122604
 31
0.0
  0
LINE
  5
14A3
330
6B
100
AcDbEntity
  8
0
 62
     3
100
AcDbLine
 10
-529.1120582124193
 20
142.2642899122604
 30
0.0
 11
-529.0604790624192
 21
142.1454466322605
 31
0.0
  0
LINE
  5
14A4
330
6B
100
AcDbEntity
  8
0
 62
     3
100
AcDbLine
 10
-529.0604790624192
 20
142.1454466322605
 30
0.0
 11
-529.0052714924192
 21
142.0396411622604
 31
0.0
  0
LINE
  5
14A5
330
6B
100
AcDbEntity
  8
0
 62
     3
100
AcDbLine
 10
-529.0052714924192
 20
142.0396411622604
 30
0.0
 11
-528.9468622424193
 21
141.9476913022604
 31
0.0
  0
LINE
  5
14A6
330
6B
100
AcDbEntity
  8
0
 62
     3
100
AcDbLine
 10
-528.9468622424193
 20
141.9476913022604
 30
0.0
 11
-528.8857027824193
 21
141.8703078022604
 31
0.0
  0
LINE
  5
14A7
330
6B
100
AcDbEntity
  8
0
 62
     3
100
AcDbLine
 10
-528.8857027824193
 20
141.8703078022604
 30
0.0
 11
-528.8222658424192
 21
141.8080887822603
 31
0.0
  0
LINE
  5
14A8
330
6B
100
AcDbEntity
  8
0
 62
     3
100
AcDbLine
 10
-528.8222658424192
 20
141.8080887822603
 30
0.0
 11
-528.7570417624192
 21
141.7615151722603
 31
0.0
  0
LINE
  5
14A9
330
6B
100
AcDbEntity
  8
0
 62
     3
100
AcDbLine
 10
-528.7570417624192
 20
141.7615151722603
 30
0.0
 11
-528.6905346824194
 21
141.7309469422604
 31
0.0
  0
LINE
  5
14AA
330
6B
100
AcDbEntity
  8
0
 62
     3
100
AcDbLine
 10
-528.6905346824194
 20
141.7309469422604
 30
0.0
 11
-528.6232586724194
 21
141.7166203922604
 31
0.0
  0
LINE
  5
14AB
330
6B
100
AcDbEntity
  8
0
 62
     3
100
AcDbLine
 10
-528.6232586724194
 20
141.7166203922604
 30
0.0
 11
-528.5557337424193
 21
141.7186462522604
 31
0.0
  0
LINE
  5
14AC
330
6B
100
AcDbEntity
  8
0
 62
     3
100
AcDbLine
 10
-528.5557337424193
 20
141.7186462522604
 30
0.0
 11
-528.4884818224193
 21
141.7370088522603
 31
0.0
  0
LINE
  5
14AD
330
6B
100
AcDbEntity
  8
0
 62
     3
100
AcDbLine
 10
-528.4884818224193
 20
141.7370088522603
 30
0.0
 11
-528.4220227424192
 21
141.7715662722604
 31
0.0
  0
LINE
  5
14AE
330
6B
100
AcDbEntity
  8
0
 62
     3
100
AcDbLine
 10
-528.4220227424192
 20
141.7715662722604
 30
0.0
 11
-528.3568701824195
 21
141.8220514022604
 31
0.0
  0
LINE
  5
14AF
330
6B
100
AcDbEntity
  8
0
 62
     3
100
AcDbLine
 10
-528.3568701824195
 20
141.8220514022604
 30
0.0
 11
-528.2935277524193
 21
141.8880740022604
 31
0.0
  0
LINE
  5
14B0
330
6B
100
AcDbEntity
  8
0
 62
     3
100
AcDbLine
 10
-528.2935277524193
 20
141.8880740022604
 30
0.0
 11
-528.2324850524194
 21
141.9691237622604
 31
0.0
  0
LINE
  5
14B1
330
6B
100
AcDbEntity
  8
0
 62
     3
100
AcDbLine
 10
-528.2324850524194
 20
141.9691237622604
 30
0.0
 11
-528.1742139124193
 21
142.0645742122603
 31
0.0
  0
LINE
  5
14B2
330
6B
100
AcDbEntity
  8
0
 62
     3
100
AcDbLine
 10
-528.1742139124193
 20
142.0645742122603
 30
0.0
 11
-528.1191647324193
 21
142.1736875722604
 31
0.0
  0
LINE
  5
14B3
330
6B
100
AcDbEntity
  8
0
 62
     3
100
AcDbLine
 10
-528.1191647324193
 20
142.1736875722604
 30
0.0
 11
-528.0677630124194
 21
142.2956204322604
 31
0.0
  0
LINE
  5
14B4
330
6B
100
AcDbEntity
  8
0
 62
     3
100
AcDbLine
 10
-528.0677630124194
 20
142.2956204322604
 30
0.0
 11
-528.0204060724194
 21
142.4294303422604
 31
0.0
  0
LINE
  5
14B5
330
6B
100
AcDbEntity
  8
0
 62
     3
100
AcDbLine
 10
-528.0204060724194
 20
142.4294303422604
 30
0.0
 11
-527.9774599524194
 21
142.5740829922604
 31
0.0
  0
LINE
  5
14B6
330
6B
100
AcDbEntity
  8
0
 62
     3
100
AcDbLine
 10
-527.9774599524194
 20
142.5740829922604
 30
0.0
 11
-527.9392566024194
 21
142.7284603122604
 31
0.0
  0
LINE
  5
14B7
330
6B
100
AcDbEntity
  8
0
 62
     3
100
AcDbLine
 10
-527.9392566024194
 20
142.7284603122604
 30
0.0
 11
-527.9060913124193
 21
142.8913690422604
 31
0.0
  0
LINE
  5
14B8
330
6B
100
AcDbEntity
  8
0
 62
     3
100
AcDbLine
 10
-527.9060913124193
 20
142.8913690422604
 30
0.0
 11
-527.8782204324193
 21
143.0615499722604
 31
0.0
  0
TEXT
  5
14B9
330
6B
100
AcDbEntity
  8
0
 62
     4
100
AcDbText
 10
-484.4521630224192
 20
78.64021249226034
 30
0.0
 40
3.0
  1
2t
 50
90.0
100
AcDbText
  0
LINE
  5
14BA
330
6B
100
AcDbEntity
  8
0
  6
ByBlock
 62
     0
370
    -2
100
AcDbLine
 10
-483.1572905224192
 20
75.51521249226043
 30
0.0
 11
-483.8271630224192
 21
73.01521249226043
 31
0.0
  0
LINE
  5
14BB
330
6B
100
AcDbEntity
  8
0
  6
ByBlock
 62
     0
370
    -2
100
AcDbLine
 10
-483.8271630224192
 20
73.01521249226043
 30
0.0
 11
-484.4970355224192
 21
75.51521249226043
 31
0.0
  0
LINE
  5
14BC
330
6B
100
AcDbEntity
  8
0
  6
ByBlock
 62
     0
370
    -2
100
AcDbLine
 10
-483.8271630224192
 20
73.01521249226043
 30
0.0
 11
-483.8271630224192
 21
75.51521249226043
 31
0.0
  0
LINE
  5
14BD
330
6B
100
AcDbEntity
  8
0
  6
ByBlock
 62
     0
370
    -2
100
AcDbLine
 10
-484.4970355224192
 20
67.51521249226043
 30
0.0
 11
-483.8271630224192
 21
70.01521249226043
 31
0.0
  0
LINE
  5
14BE
330
6B
100
AcDbEntity
  8
0
  6
ByBlock
 62
     0
370
    -2
100
AcDbLine
 10
-483.8271630224192
 20
70.01521249226043
 30
0.0
 11
-483.1572905224192
 21
67.51521249226043
 31
0.0
  0
LINE
  5
14BF
330
6B
100
AcDbEntity
  8
0
  6
ByBlock
 62
     0
370
    -2
100
AcDbLine
 10
-483.8271630224192
 20
70.01521249226043
 30
0.0
 11
-483.8271630224192
 21
67.51521249226043
 31
0.0
  0
TEXT
  5
14C0
330
6B
100
AcDbEntity
  8
0
 62
     4
100
AcDbText
 10
-440.0640633273746
 20
-13.87328750773964
 30
0.0
 40
3.0
  1
15
 50
90.0
100
AcDbText
  0
LINE
  5
14C1
330
6B
100
AcDbEntity
  8
0
  6
ByBlock
 62
     0
370
    -2
100
AcDbLine
 10
-440.1089358273746
 20
-6.74828750773957
 30
0.0
 11
-439.4390633273746
 21
-4.24828750773957
 31
0.0
  0
LINE
  5
14C2
330
6B
100
AcDbEntity
  8
0
  6
ByBlock
 62
     0
370
    -2
100
AcDbLine
 10
-439.4390633273746
 20
-4.24828750773957
 30
0.0
 11
-438.7691908273746
 21
-6.74828750773957
 31
0.0
  0
LINE
  5
14C3
330
6B
100
AcDbEntity
  8
0
  6
ByBlock
 62
     0
370
    -2
100
AcDbLine
 10
-439.4390633273746
 20
-4.24828750773957
 30
0.0
 11
-439.4390633273746
 21
-6.74828750773957
 31
0.0
  0
LINE
  5
14C4
330
6B
100
AcDbEntity
  8
0
  6
ByBlock
 62
     0
370
    -2
100
AcDbLine
 10
-438.7691908273746
 20
13.34124449226043
 30
0.0
 11
-439.4390633273746
 21
10.84124449226043
 31
0.0
  0
LINE
  5
14C5
330
6B
100
AcDbEntity
  8
0
  6
ByBlock
 62
     0
370
    -2
100
AcDbLine
 10
-439.4390633273746
 20
10.84124449226043
 30
0.0
 11
-440.1089358273746
 21
13.34124449226043
 31
0.0
  0
LINE
  5
14C6
330
6B
100
AcDbEntity
  8
0
  6
ByBlock
 62
     0
370
    -2
100
AcDbLine
 10
-439.4390633273746
 20
10.84124449226043
 30
0.0
 11
-439.4390633273746
 21
13.34124449226043
 31
0.0
  0
TEXT
  5
14C7
330
6B
100
AcDbEntity
  8
0
 62
     4
100
AcDbText
 10
-493.9372230224193
 20
27.77510349226043
 30
0.0
 40
3.0
  1
L寸法
100
AcDbText
  0
LINE
  5
14C8
330
6B
100
AcDbEntity
  8
0
  6
ByBlock
 62
     0
370
    -2
100
AcDbLine
 10
-368.8463400224193
 20
27.81997599226043
 30
0.0
 11
-366.3463400224193
 21
27.15010349226043
 31
0.0
  0
LINE
  5
14C9
330
6B
100
AcDbEntity
  8
0
  6
ByBlock
 62
     0
370
    -2
100
AcDbLine
 10
-366.3463400224193
 20
27.15010349226043
 30
0.0
 11
-368.8463400224193
 21
26.48023099226043
 31
0.0
  0
LINE
  5
14CA
330
6B
100
AcDbEntity
  8
0
  6
ByBlock
 62
     0
370
    -2
100
AcDbLine
 10
-366.3463400224193
 20
27.15010349226043
 30
0.0
 11
-368.8463400224193
 21
27.15010349226043
 31
0.0
  0
LINE
  5
14CB
330
6B
100
AcDbEntity
  8
0
  6
ByBlock
 62
     0
370
    -2
100
AcDbLine
 10
-609.6281060224193
 20
26.48023099226043
 30
0.0
 11
-612.1281060224194
 21
27.15010349226043
 31
0.0
  0
LINE
  5
14CC
330
6B
100
AcDbEntity
  8
0
  6
ByBlock
 62
     0
370
    -2
100
AcDbLine
 10
-612.1281060224194
 20
27.15010349226043
 30
0.0
 11
-609.6281060224193
 21
27.81997599226043
 31
0.0
  0
LINE
  5
14CD
330
6B
100
AcDbEntity
  8
0
  6
ByBlock
 62
     0
370
    -2
100
AcDbLine
 10
-612.1281060224194
 20
27.15010349226043
 30
0.0
 11
-609.6281060224193
 21
27.15010349226043
 31
0.0
  0
TEXT
  5
14CE
330
6B
100
AcDbEntity
  8
0
 62
     4
100
AcDbText
 10
-645.6458820224193
 20
27.77510349226043
 30
0.0
 40
3.0
  1
65
100
AcDbText
  0
LINE
  5
14CF
330
6B
100
AcDbEntity
  8
0
  6
ByBlock
 62
     0
370
    -2
100
AcDbLine
 10
-614.6281060224193
 20
27.81997599226043
 30
0.0
 11
-612.1281060224194
 21
27.15010349226043
 31
0.0
  0
LINE
  5
14D0
330
6B
100
AcDbEntity
  8
0
  6
ByBlock
 62
     0
370
    -2
100
AcDbLine
 10
-612.1281060224194
 20
27.15010349226043
 30
0.0
 11
-614.6281060224193
 21
26.48023099226043
 31
0.0
  0
LINE
  5
14D1
330
6B
100
AcDbEntity
  8
0
  6
ByBlock
 62
     0
370
    -2
100
AcDbLine
 10
-612.1281060224194
 20
27.15010349226043
 30
0.0
 11
-614.6281060224193
 21
27.15010349226043
 31
0.0
  0
LINE
  5
14D2
330
6B
100
AcDbEntity
  8
0
  6
ByBlock
 62
     0
370
    -2
100
AcDbLine
 10
-671.6636580224193
 20
26.48023099226043
 30
0.0
 11
-674.1636580224193
 21
27.15010349226043
 31
0.0
  0
LINE
  5
14D3
330
6B
100
AcDbEntity
  8
0
  6
ByBlock
 62
     0
370
    -2
100
AcDbLine
 10
-674.1636580224193
 20
27.15010349226043
 30
0.0
 11
-671.6636580224193
 21
27.81997599226043
 31
0.0
  0
LINE
  5
14D4
330
6B
100
AcDbEntity
  8
0
  6
ByBlock
 62
     0
370
    -2
100
AcDbLine
 10
-674.1636580224193
 20
27.15010349226043
 30
0.0
 11
-671.6636580224193
 21
27.15010349226043
 31
0.0
  0
TEXT
  5
14D5
330
6B
100
AcDbEntity
  8
0
 62
     4
100
AcDbText
 10
-358.4968430224193
 20
0.7988924922603714
 30
0.0
 40
3.0
  1
24
 50
90.0
100
AcDbText
  0
LINE
  5
14D6
330
6B
100
AcDbEntity
  8
0
  6
ByBlock
 62
     0
370
    -2
100
AcDbLine
 10
-358.5417155224193
 20
12.79889249226043
 30
0.0
 11
-357.8718430224193
 21
15.29889249226043
 31
0.0
  0
LINE
  5
14D7
330
6B
100
AcDbEntity
  8
0
  6
ByBlock
 62
     0
370
    -2
100
AcDbLine
 10
-357.8718430224193
 20
15.29889249226043
 30
0.0
 11
-357.2019705224193
 21
12.79889249226043
 31
0.0
  0
LINE
  5
14D8
330
6B
100
AcDbEntity
  8
0
  6
ByBlock
 62
     0
370
    -2
100
AcDbLine
 10
-357.8718430224193
 20
15.29889249226043
 30
0.0
 11
-357.8718430224193
 21
12.79889249226043
 31
0.0
  0
LINE
  5
14D9
330
6B
100
AcDbEntity
  8
0
  6
ByBlock
 62
     0
370
    -2
100
AcDbLine
 10
-357.2019705224193
 20
-6.201107507739569
 30
0.0
 11
-357.8718430224193
 21
-8.701107507739569
 31
0.0
  0
LINE
  5
14DA
330
6B
100
AcDbEntity
  8
0
  6
ByBlock
 62
     0
370
    -2
100
AcDbLine
 10
-357.8718430224193
 20
-8.701107507739569
 30
0.0
 11
-358.5417155224193
 21
-6.201107507739569
 31
0.0
  0
LINE
  5
14DB
330
6B
100
AcDbEntity
  8
0
  6
ByBlock
 62
     0
370
    -2
100
AcDbLine
 10
-357.8718430224193
 20
-8.701107507739569
 30
0.0
 11
-357.8718430224193
 21
-6.201107507739569
 31
0.0
  0
TEXT
  5
14DC
330
6B
100
AcDbEntity
  8
0
 62
     4
100
AcDbText
 10
-356.5423450224193
 20
74.01298149226036
 30
0.0
 40
3.0
  1
10
 50
90.0
100
AcDbText
  0
LINE
  5
14DD
330
6B
100
AcDbEntity
  8
0
  6
ByBlock
 62
     0
370
    -2
100
AcDbLine
 10
-356.5872175224193
 20
78.26298149226042
 30
0.0
 11
-355.9173450224193
 21
80.76298149226042
 31
0.0
  0
LINE
  5
14DE
330
6B
100
AcDbEntity
  8
0
  6
ByBlock
 62
     0
370
    -2
100
AcDbLine
 10
-355.9173450224193
 20
80.76298149226042
 30
0.0
 11
-355.2474725224193
 21
78.26298149226042
 31
0.0
  0
LINE
  5
14DF
330
6B
100
AcDbEntity
  8
0
  6
ByBlock
 62
     0
370
    -2
100
AcDbLine
 10
-355.9173450224193
 20
80.76298149226042
 30
0.0
 11
-355.9173450224193
 21
78.26298149226042
 31
0.0
  0
LINE
  5
14E0
330
6B
100
AcDbEntity
  8
0
  6
ByBlock
 62
     0
370
    -2
100
AcDbLine
 10
-355.2474725224193
 20
73.26298149226042
 30
0.0
 11
-355.9173450224193
 21
70.76298149226042
 31
0.0
  0
LINE
  5
14E1
330
6B
100
AcDbEntity
  8
0
  6
ByBlock
 62
     0
370
    -2
100
AcDbLine
 10
-355.9173450224193
 20
70.76298149226042
 30
0.0
 11
-356.5872175224193
 21
73.26298149226042
 31
0.0
  0
LINE
  5
14E2
330
6B
100
AcDbEntity
  8
0
  6
ByBlock
 62
     0
370
    -2
100
AcDbLine
 10
-355.9173450224193
 20
70.76298149226042
 30
0.0
 11
-355.9173450224193
 21
73.26298149226042
 31
0.0
  0
TEXT
  5
14E3
330
6B
100
AcDbEntity
  8
0
 62
     4
100
AcDbText
 10
-687.9622510224193
 20
71.30505049226032
 30
0.0
 40
3.0
  1
53
 50
90.0
100
AcDbText
  0
LINE
  5
14E4
330
6B
100
AcDbEntity
  8
0
  6
ByBlock
 62
     0
370
    -2
100
AcDbLine
 10
-688.0071235224193
 20
98.64861849226041
 30
0.0
 11
-687.3372510224193
 21
101.1486184922604
 31
0.0
  0
LINE
  5
14E5
330
6B
100
AcDbEntity
  8
0
  6
ByBlock
 62
     0
370
    -2
100
AcDbLine
 10
-687.3372510224193
 20
101.1486184922604
 30
0.0
 11
-686.6673785224193
 21
98.64861849226041
 31
0.0
  0
LINE
  5
14E6
330
6B
100
AcDbEntity
  8
0
  6
ByBlock
 62
     0
370
    -2
100
AcDbLine
 10
-687.3372510224193
 20
101.1486184922604
 30
0.0
 11
-687.3372510224193
 21
98.64861849226041
 31
0.0
  0
LINE
  5
14E7
330
6B
100
AcDbEntity
  8
0
  6
ByBlock
 62
     0
370
    -2
100
AcDbLine
 10
-686.6673785224193
 20
48.96148249226044
 30
0.0
 11
-687.3372510224193
 21
46.46148249226043
 31
0.0
  0
LINE
  5
14E8
330
6B
100
AcDbEntity
  8
0
  6
ByBlock
 62
     0
370
    -2
100
AcDbLine
 10
-687.3372510224193
 20
46.46148249226043
 30
0.0
 11
-688.0071235224193
 21
48.96148249226044
 31
0.0
  0
LINE
  5
14E9
330
6B
100
AcDbEntity
  8
0
  6
ByBlock
 62
     0
370
    -2
100
AcDbLine
 10
-687.3372510224193
 20
46.46148249226043
 30
0.0
 11
-687.3372510224193
 21
48.96148249226044
 31
0.0
  0
TEXT
  5
14EA
330
6B
100
AcDbEntity
  8
0
 62
     4
100
AcDbText
 10
-650.4760003680146
 20
75.03937350556253
 30
0.0
 40
3.0
  1
\U+220530
 50
299.2213677935005
100
AcDbText
  0
LINE
  5
14EB
330
6B
100
AcDbEntity
  8
0
  6
ByBlock
 62
     0
370
    -2
100
AcDbLine
 10
-655.8777076699946
 20
82.04371148359966
 30
0.0
 11
-656.5135460224195
 21
84.55258349226051
 31
0.0
  0
LINE
  5
14EC
330
6B
100
AcDbEntity
  8
0
  6
ByBlock
 62
     0
370
    -2
100
AcDbLine
 10
-656.5135460224195
 20
84.55258349226051
 30
0.0
 11
-654.7084585182229
 21
82.6977551259555
 31
0.0
  0
LINE
  5
14ED
330
6B
100
AcDbEntity
  8
0
  6
ByBlock
 62
     0
370
    -2
100
AcDbLine
 10
-656.5135460224195
 20
84.55258349226051
 30
0.0
 11
-655.2930830941088
 21
82.37073330477759
 31
0.0
  0
LINE
  5
14EE
330
6B
100
AcDbEntity
  8
0
  6
ByBlock
 62
     0
370
    -2
100
AcDbLine
 10
-642.5038293748441
 20
60.87925350092123
 30
0.0
 11
-641.8679910224193
 21
58.37038149226038
 31
0.0
  0
LINE
  5
14EF
330
6B
100
AcDbEntity
  8
0
  6
ByBlock
 62
     0
370
    -2
100
AcDbLine
 10
-641.8679910224193
 20
58.37038149226038
 30
0.0
 11
-643.6730785266158
 21
60.22520985856538
 31
0.0
  0
LINE
  5
14F0
330
6B
100
AcDbEntity
  8
0
  6
ByBlock
 62
     0
370
    -2
100
AcDbLine
 10
-641.8679910224193
 20
58.37038149226038
 30
0.0
 11
-643.0884539507299
 21
60.55223167974331
 31
0.0
  0
ENDSEC
  0
SECTION
  2
OBJECTS
  0
DICTIONARY
  5
C
330
0
100
AcDbDictionary
281
     1
  3
ACAD_2007HEADERVARS_RT
350
14F4
  3
ACAD_COLOR
350
62
  3
ACAD_GROUP
350
D
  3
ACAD_LAYOUT
350
61
  3
ACAD_MATERIAL
350
10
  3
ACAD_MLEADERSTYLE
350
65
  3
ACAD_MLINESTYLE
350
5E
  3
ACAD_PLOTSETTINGS
350
60
  3
ACAD_PLOTSTYLENAME
350
E
  3
ACAD_SCALELIST
350
42
  3
ACAD_TABLESTYLE
350
63
  3
ACAD_VISUALSTYLE
350
29
  3
ACDB_RECOMPOSE_DATA
350
14F2
  3
AcDbVariableDictionary
350
B3A
  3
AEC_PROPERTY_SET_DEFS
350
F11
  3
DWGPROPS
350
14F3
  0
DICTIONARY
  5
4AD
330
2
100
AcDbDictionary
280
     1
281
     1
  3
ACAD_LAYERSTATES
360
4AE
  0
DICTIONARY
  5
B38
330
54
100
AcDbDictionary
280
     1
281
     1
  3
ADSK_XREC_LAYER_RECONCILED
360
B39
  0
DICTIONARY
  5
A92
330
6B
100
AcDbDictionary
280
     1
281
     1
  3
ACAD_SORTENTS
360
A93
  0
DICTIONARY
  5
152F
330
BD3
100
AcDbDictionary
280
     1
281
     1
  3
ACAD_MTEXT_RT
360
1530
  0
DICTIONARY
  5
1531
330
C1C
100
AcDbDictionary
280
     1
281
     1
  3
ACAD_MTEXT_RT
360
1532
  0
DICTIONARY
  5
1533
330
127D
100
AcDbDictionary
280
     1
281
     1
  3
ACAD_MTEXT_RT
360
1534
  0
DICTIONARY
  5
14F4
102
{ACAD_REACTORS
330
C
102
}
330
C
100
AcDbDictionary
281
     1
  3
DIMARCSYM
350
14F6
  3
DIMFXL
350
14F5
  3
DIMJOGANG
350
14F7
  0
DICTIONARY
  5
62
102
{ACAD_REACTORS
330
C
102
}
330
C
100
AcDbDictionary
281
     1
  0
DICTIONARY
  5
D
102
{ACAD_REACTORS
330
C
102
}
330
C
100
AcDbDictionary
281
     1
  0
DICTIONARY
  5
61
102
{ACAD_REACTORS
330
C
102
}
330
C
100
AcDbDictionary
281
     1
  3
Model
350
6E
  3
レイアウト1
350
6A
  0
DICTIONARY
  5
10
102
{ACAD_REACTORS
330
C
102
}
330
C
100
AcDbDictionary
281
     1
  3
ByBlock
350
19
  3
ByLayer
350
11
  3
Global
350
21
  0
DICTIONARY
  5
65
102
{ACAD_REACTORS
330
C
102
}
330
C
100
AcDbDictionary
281
     1
  3
Standard
350
66
  0
DICTIONARY
  5
5E
102
{ACAD_REACTORS
330
C
102
}
330
C
100
AcDbDictionary
281
     1
  3
Standard
350
5F
  0
DICTIONARY
  5
60
102
{ACAD_REACTORS
330
C
102
}
330
C
100
AcDbDictionary
281
     1
  0
ACDBDICTIONARYWDFLT
  5
E
102
{ACAD_REACTORS
330
C
102
}
330
C
100
AcDbDictionary
281
     1
  3
Normal
350
F
100
AcDbDictionaryWithDefault
340
F
  0
DICTIONARY
  5
42
102
{ACAD_REACTORS
330
C
102
}
330
C
100
AcDbDictionary
281
     1
  3
A0
350
43
  3
A1
350
44
  3
A2
350
45
  3
A3
350
46
  3
A4
350
47
  3
A5
350
48
  3
A6
350
49
  3
A7
350
4A
  3
A8
350
4B
  3
A9
350
4C
  3
B0
350
4D
  3
B1
350
4E
  3
B2
350
4F
  3
B3
350
50
  3
B4
350
51
  3
B5
350
52
  3
B6
350
53
  0
DICTIONARY
  5
63
102
{ACAD_REACTORS
330
C
102
}
330
C
100
AcDbDictionary
281
     1
  3
Standard
350
64
  0
DICTIONARY
  5
29
102
{ACAD_REACTORS
330
C
102
}
330
C
100
AcDbDictionary
281
     1
  3
2dWireframe
350
2F
  3
3dWireframe
350
830
  3
Basic
350
2E
  3
Brighten
350
35
  3
ColorChange
350
39
  3
Conceptual
350
32
  3
Dim
350
34
  3
EdgeColorOff
350
41
  3
Facepattern
350
38
  3
Flat
350
2A
  3
FlatWithEdges
350
2B
  3
Gouraud
350
2C
  3
GouraudWithEdges
350
2D
  3
Hidden
350
31
  3
JitterOff
350
3F
  3
Linepattern
350
37
  3
OverhangOff
350
40
  3
Realistic
350
33
  3
Shaded
350
3E
  3
Shaded with edges
350
3D
  3
Shades of Gray
350
3A
  3
Sketchy
350
3B
  3
Thicken
350
36
  3
Wireframe
350
30
  3
X-Ray
350
3C
  0
XRECORD
  5
14F2
102
{ACAD_REACTORS
330
C
102
}
330
C
100
AcDbXrecord
280
     1
 90
        1
330
64
  0
DICTIONARY
  5
B3A
102
{ACAD_REACTORS
330
C
102
}
330
C
100
AcDbDictionary
281
     1
  3
CANNOSCALE
350
B3D
  3
CMLEADERSTYLE
350
B3C
  3
CTABLESTYLE
350
B3B
  3
DIMASSOC
350
B40
  3
INDEXCTL
350
B3F
  3
SORTENTS
350
B3E
  3
XCLIPFRAME
350
1294
  0
DICTIONARY
  5
F11
102
{ACAD_REACTORS
330
C
102
}
330
C
100
AcDbDictionary
281
     1
  0
XRECORD
  5
14F3
102
{ACAD_REACTORS
330
C
102
}
330
C
100
AcDbXrecord
280
     1
  1
DWGPROPS COOKIE
  2

  3

  4

  6

  7

  8
imamura
  9

300
=
301
=
302
=
303
=
304
=
305
=
306
=
307
=
308
=
309
=
 40
0.0660591550925926
 41
2456321.712170104
 42
2459793.735568785
  1

 90
        0
  0
DICTIONARY
  5
4AE
102
{ACAD_REACTORS
330
4AD
102
}
330
4AD
100
AcDbDictionary
281
     1
  0
XRECORD
  5
B39
102
{ACAD_REACTORS
330
B38
102
}
330
B38
100
AcDbXrecord
280
     1
290
     1
  0
SORTENTSTABLE
  5
A93
102
{ACAD_REACTORS
330
A92
102
}
330
A92
100
AcDbSortentsTable
330
6B
331
14C1
  5
63C
331
A78
  5
5C8
331
A01
  5
4F4
331
11B5
  5
14BE
331
11B1
  5
14BA
331
574
  5
A1B
331
535
  5
9C6
331
4FE
  5
675
331
11AD
  5
14B6
331
570
  5
A17
331
531
  5
849
331
4FA
  5
671
331
11A9
  5
14B2
331
56C
  5
A13
331
52D
  5
845
331
4F6
  5
66D
331
568
  5
A0D
331
529
  5
841
331
4F2
  5
669
331
A3F
  5
574
331
A3B
  5
570
331
625
  5
13F6
331
5EE
  5
11C6
331
5AF
  5
A57
331
A37
  5
56C
331
660
  5
142F
331
621
  5
13F1
331
5EA
  5
11C2
331
5AB
  5
A53
331
A33
  5
568
331
1487
  5
522
331
11E4
  5
14EC
331
65C
  5
142B
331
5E6
  5
11BE
331
5A7
  5
A4F
331
140D
  5
1451
331
1444
  5
A62
331
1483
  5
51E
331
11E0
  5
14E8
331
658
  5
1427
331
5E2
  5
11BA
331
5A3
  5
A4B
331
1409
  5
144D
331
1440
  5
A5E
331
147F
  5
51A
331
1405
  5
1449
331
143C
  5
A6E
331
147B
  5
516
331
1401
  5
1445
331
1438
  5
A6A
331
14BD
  5
645
331
A74
  5
5C4
331
69E
  5
14AB
331
9FD
  5
4F0
331
14B9
  5
64B
331
A70
  5
5C0
331
69A
  5
14A7
331
9F9
  5
4EC
331
A6C
  5
5BC
331
14B5
  5
553
331
696
  5
14A3
331
9F5
  5
4E8
331
14F0
  5
5E8
331
A68
  5
5B8
331
14B1
  5
54E
331
692
  5
149F
331
9F1
  5
4E4
331
564
  5
A08
331
525
  5
69E
331
4EE
  5
665
331
560
  5
9F2
331
521
  5
69A
331
4EA
  5
661
331
55C
  5
9ED
331
51D
  5
696
331
4E6
  5
65D
331
558
  5
9E9
331
519
  5
692
331
4E2
  5
659
331
A2F
  5
564
331
A2B
  5
560
331
11DC
  5
14E4
331
654
  5
1423
331
5DE
  5
11B6
331
59F
  5
A46
331
A27
  5
55C
331
11D8
  5
14E0
331
650
  5
141F
331
5DA
  5
11B2
331
59B
  5
A42
331
A23
  5
558
331
11D4
  5
14DC
331
64C
  5
141B
331
60D
  5
11E7
331
5D6
  5
11AE
331
13FD
  5
1441
331
1434
  5
A66
331
597
  5
A3E
331
11D0
  5
14D8
331
648
  5
1417
331
609
  5
11E2
331
5D2
  5
11AA
331
13F9
  5
143D
331
1430
  5
13EF
331
593
  5
A3A
331
142C
  5
1470
331
146B
  5
607
331
13F5
  5
1439
331
1428
  5
146C
331
13F1
  5
1435
331
14EC
  5
5ED
331
A64
  5
5B4
331
14AD
  5
54A
331
68E
  5
149B
331
9ED
  5
4E0
331
14E8
  5
5FA
331
A60
  5
5B0
331
14A9
  5
546
331
68A
  5
1497
331
9E9
  5
4DC
331
14E4
  5
5FF
331
A5C
  5
5AD
331
14A5
  5
542
331
686
  5
1493
331
9E5
  5
4D8
331
14E0
  5
60C
331
A58
  5
5A9
331
14A1
  5
53C
331
682
  5
148F
331
9E1
  5
4D4
331
554
  5
9E5
331
4DE
  5
655
331
11CC
  5
14D4
331
58F
  5
A36
331
550
  5
9E1
331
4DA
  5
651
331
58B
  5
A32
331
54C
  5
9DD
331
515
  5
68E
331
4D6
  5
64D
331
548
  5
9D9
331
511
  5
68A
331
A1F
  5
512
331
A1B
  5
50E
331
644
  5
1413
331
5CE
  5
11A6
331
A56
  5
5A7
331
67F
  5
148C
331
640
  5
140F
331
5CA
  5
A84
331
A52
  5
5A3
331
67B
  5
1488
331
63C
  5
140B
331
605
  5
11DE
331
5C6
  5
A80
331
638
  5
1407
331
601
  5
11DA
331
5C2
  5
A7C
331
145F
  5
621
331
149E
  5
539
331
1424
  5
1468
331
149A
  5
535
331
1420
  5
1464
331
14DC
  5
615
331
9DD
  5
4D0
331
14D8
  5
61E
331
A8F
  5
5DF
331
9D9
  5
4CC
331
14D4
  5
625
331
A8B
  5
5DB
331
9D5
  5
4C8
331
A14
  5
507
331
14D0
  5
627
331
9D1
  5
4C4
331
A10
  5
503
331
11C4
  5
14CD
331
587
  5
A2E
331
11C0
  5
14C9
331
583
  5
A2A
331
544
  5
9D5
331
50D
  5
686
331
11BC
  5
14C5
331
57F
  5
A26
331
540
  5
9D1
331
509
  5
680
331
11B8
  5
14C1
331
57B
  5
A22
331
53C
  5
9CD
331
505
  5
67C
331
538
  5
9C9
331
501
  5
678
331
A4E
  5
581
331
677
  5
1484
331
A4A
  5
57F
331
673
  5
1480
331
634
  5
1403
331
5FD
  5
11D6
331
5BE
  5
A78
331
A46
  5
57B
331
66F
  5
147C
331
630
  5
13FF
331
5F9
  5
11D2
331
5BA
  5
A74
331
A42
  5
577
331
1496
  5
531
331
66B
  5
1478
331
62C
  5
13FB
331
5F5
  5
11CE
331
5B6
  5
A70
331
141C
  5
1460
331
1453
  5
637
331
1492
  5
52D
331
5F1
  5
11CA
331
5B2
  5
A5A
331
1418
  5
145C
331
148E
  5
529
331
1414
  5
1458
331
144B
  5
643
331
148A
  5
525
331
A87
  5
5D7
331
1410
  5
1454
331
14CC
  5
62E
331
A83
  5
5D3
331
A0C
  5
4FF
331
9CD
  5
4C0
331
14C8
  5
630
331
A7F
  5
5CF
331
A08
  5
4FB
331
9C9
  5
4BC
331
14C4
  5
639
331
A7B
  5
5CB
331
9C5
  5
4B8
331
A04
  5
4F7
331
14C0
  5
63F
331
A00
  5
4F3
331
11B4
  5
14BD
331
577
  5
A1E
331
11B0
  5
14B9
331
573
  5
A1A
331
534
  5
9C5
331
4FD
  5
674
331
11AC
  5
14B5
331
56F
  5
A16
331
530
  5
848
331
4F9
  5
670
331
11A8
  5
14B1
331
56B
  5
A12
331
52C
  5
844
331
4F5
  5
66C
331
528
  5
6A1
331
4F1
  5
668
331
A3E
  5
573
331
667
  5
1474
331
A3A
  5
56F
331
663
  5
1432
331
5ED
  5
11C5
331
5AE
  5
A56
331
A36
  5
56B
331
11E7
  5
14EF
331
65F
  5
142E
331
5E9
  5
11C1
331
5AA
  5
A52
331
A32
  5
567
331
1447
  5
A65
331
1486
  5
521
331
11E3
  5
14EB
331
65B
  5
142A
331
5E5
  5
11BD
331
5A6
  5
A4E
331
140C
  5
1450
331
1443
  5
A61
331
1482
  5
51D
331
5E1
  5
11B9
331
5A2
  5
A49
331
1408
  5
144C
331
143F
  5
A5D
331
147E
  5
519
331
1404
  5
1448
331
143B
  5
A6D
331
147A
  5
515
331
A77
  5
5C7
331
1400
  5
1444
331
14BC
  5
64A
331
A73
  5
5C3
331
69D
  5
14AA
331
9FC
  5
4EF
331
A6F
  5
5BF
331
14B8
  5
556
331
699
  5
14A6
331
9F8
  5
4EB
331
A6B
  5
5BB
331
14B4
  5
552
331
695
  5
14A2
331
9F4
  5
4E7
331
14B0
  5
54D
331
691
  5
149E
331
9F0
  5
4E3
331
567
  5
A0C
331
563
  5
A07
331
524
  5
69D
331
4ED
  5
664
331
55F
  5
9F1
331
520
  5
699
331
4E9
  5
660
331
55B
  5
9EC
331
51C
  5
695
331
4E5
  5
65C
331
518
  5
691
331
4E1
  5
658
331
A2E
  5
563
331
11DF
  5
14E7
331
657
  5
1426
331
A2A
  5
55F
331
11DB
  5
14E3
331
653
  5
1422
331
5DD
  5
11B5
331
59E
  5
A45
331
A26
  5
55B
331
11D7
  5
14DF
331
64F
  5
141E
331
5D9
  5
11B1
331
59A
  5
A41
331
A22
  5
557
331
1437
  5
A69
331
1476
  5
5E2
331
11D3
  5
14DB
331
64B
  5
141A
331
60C
  5
11E6
331
5D5
  5
11AD
331
596
  5
A3D
331
13FC
  5
1440
331
1433
  5
11E4
331
1472
  5
5F8
331
608
  5
11E1
331
5D1
  5
11A9
331
13F8
  5
143C
331
142F
  5
13F5
331
592
  5
A39
331
142B
  5
146F
331
146A
  5
606
331
13F4
  5
1438
331
14EF
  5
5E7
331
A67
  5
5B7
331
13F0
  5
1434
331
14EB
  5
5EC
331
A63
  5
5B3
331
14AC
  5
549
331
68D
  5
149A
331
9EC
  5
4DF
331
14E7
  5
5F9
331
A5F
  5
5AF
331
14A8
  5
545
331
689
  5
1496
331
9E8
  5
4DB
331
14E3
  5
605
331
A5B
  5
5AC
331
14A4
  5
541
331
685
  5
1492
331
9E4
  5
4D7
331
14A0
  5
53B
331
681
  5
148E
331
9E0
  5
4D3
331
557
  5
9E8
331
11CF
  5
14D7
331
553
  5
9E4
331
4DD
  5
654
331
11CB
  5
14D3
331
58E
  5
A35
331
54F
  5
9E0
331
4D9
  5
650
331
58A
  5
A31
331
54B
  5
9DC
331
514
  5
68D
331
4D5
  5
64C
331
510
  5
689
331
A1E
  5
511
331
647
  5
1416
331
A1A
  5
50D
331
643
  5
1412
331
5CD
  5
A87
331
A55
  5
5A6
331
67E
  5
148B
331
63F
  5
140E
331
5C9
  5
A83
331
1466
  5
618
331
A51
  5
584
331
67A
  5
1487
331
63B
  5
140A
331
604
  5
11DD
331
5C5
  5
A7F
331
600
  5
11D9
331
5C1
  5
A7B
331
1427
  5
146B
331
145E
  5
620
331
149D
  5
538
331
1423
  5
1467
331
145A
  5
62C
331
14DF
  5
614
331
1499
  5
534
331
14DB
  5
61B
331
9DC
  5
4CF
331
14D7
  5
61D
331
A8E
  5
5DE
331
9D8
  5
4CB
331
A17
  5
50A
331
14D3
  5
624
331
A8A
  5
5DA
331
9D4
  5
4C7
331
A13
  5
506
331
9D0
  5
4C3
331
11C7
  5
14D0
331
11C3
  5
14CC
331
586
  5
A2D
331
547
  5
9D8
331
11BF
  5
14C8
331
582
  5
A29
331
543
  5
9D4
331
50C
  5
685
331
11BB
  5
14C4
331
57E
  5
A25
331
53F
  5
9D0
331
508
  5
67F
331
57A
  5
A21
331
53B
  5
9CC
331
504
  5
67B
331
500
  5
677
331
A4D
  5
580
331
A91
  5
5E1
331
676
  5
1483
331
637
  5
1406
331
A49
  5
57E
331
672
  5
147F
331
633
  5
1402
331
5FC
  5
11D5
331
5BD
  5
A77
331
A45
  5
57A
331
66E
  5
147B
331
62F
  5
13FE
331
5F8
  5
11D1
331
5B9
  5
A73
331
A41
  5
576
331
141F
  5
1463
331
1495
  5
530
331
66A
  5
1477
331
62B
  5
13FA
331
5F4
  5
11CD
331
141B
  5
145F
331
1452
  5
636
331
1491
  5
52C
331
5F0
  5
11C9
331
5B1
  5
A59
331
1417
  5
145B
331
148D
  5
528
331
1413
  5
1457
331
144A
  5
642
331
1489
  5
524
331
14CF
  5
626
331
A86
  5
5D6
331
A0F
  5
502
331
14CB
  5
62D
331
A82
  5
5D2
331
A0B
  5
4FE
331
9CC
  5
4BF
331
14C7
  5
633
331
A7E
  5
5CE
331
9C8
  5
4BB
331
A07
  5
4FA
331
14C3
  5
63E
331
A7A
  5
5CA
331
9C4
  5
4B7
331
A03
  5
4F6
331
11B7
  5
14C0
331
11B3
  5
14BC
331
576
  5
A1D
331
537
  5
9C8
331
11AF
  5
14B8
331
572
  5
A19
331
533
  5
9C4
331
4FC
  5
673
331
11AB
  5
14B4
331
56E
  5
A15
331
52F
  5
847
331
4F8
  5
66F
331
56A
  5
A11
331
52B
  5
843
331
4F4
  5
66B
331
4F0
  5
667
331
A3D
  5
572
331
666
  5
1473
331
627
  5
13F8
331
A39
  5
56E
331
662
  5
1431
331
623
  5
13F3
331
5EC
  5
11C4
331
5AD
  5
A55
331
A35
  5
56A
331
11E6
  5
14EE
331
65E
  5
142D
331
5E8
  5
11C0
331
5A9
  5
A51
331
A31
  5
566
331
140F
  5
1453
331
1446
  5
A64
331
1485
  5
520
331
11E2
  5
14EA
331
65A
  5
1429
331
5E4
  5
11BC
331
5A5
  5
A4D
331
140B
  5
144F
331
1442
  5
A60
331
1481
  5
51C
331
5E0
  5
11B8
331
5A1
  5
A48
331
1407
  5
144B
331
143E
  5
A5C
331
147D
  5
518
331
1403
  5
1447
331
143A
  5
A6C
331
14BF
  5
647
331
A76
  5
5C6
331
9FF
  5
4F2
331
14BB
  5
649
331
A72
  5
5C2
331
69C
  5
14A9
331
9FB
  5
4EE
331
A6E
  5
5BE
331
14B7
  5
555
331
698
  5
14A5
331
9F7
  5
4EA
331
A6A
  5
5BA
331
14B3
  5
551
331
694
  5
14A1
331
9F3
  5
4E6
331
690
  5
149D
331
11A7
  5
14B0
331
566
  5
A0B
331
527
  5
6A0
331
562
  5
9F4
331
523
  5
69C
331
4EC
  5
663
331
55E
  5
9EF
331
51F
  5
698
331
4E8
  5
65F
331
55A
  5
9EB
331
51B
  5
694
331
4E4
  5
65B
331
4E0
  5
657
331
A2D
  5
562
331
1293
  5
14F0
331
11DE
  5
14E6
331
656
  5
1425
331
A29
  5
55E
331
11DA
  5
14E2
331
652
  5
1421
331
5DC
  5
11B4
331
59D
  5
A44
331
A25
  5
55A
331
11D6
  5
14DE
331
64E
  5
141D
331
5D8
  5
11B0
331
13FF
  5
1443
331
1436
  5
A68
331
599
  5
A40
331
11D2
  5
14DA
331
64A
  5
1419
331
60B
  5
11E5
331
5D4
  5
11AC
331
595
  5
A3C
331
13FB
  5
143F
331
1432
  5
11E3
331
1471
  5
5F4
331
5D0
  5
11A8
331
13F7
  5
143B
331
142E
  5
13F4
331
591
  5
A38
331
142A
  5
146E
331
13F3
  5
1437
331
14EE
  5
5E6
331
A66
  5
5B6
331
14AF
  5
54C
331
9EF
  5
4E2
331
14EA
  5
5F2
331
A62
  5
5B2
331
14AB
  5
548
331
68C
  5
1499
331
9EB
  5
4DE
331
14E6
  5
604
331
A5E
  5
5AE
331
14A7
  5
544
331
688
  5
1495
331
9E7
  5
4DA
331
14E2
  5
60E
331
A5A
  5
5AB
331
14A3
  5
540
331
684
  5
1491
331
9E3
  5
4D6
331
680
  5
148D
331
556
  5
9E7
331
11CE
  5
14D6
331
552
  5
9E3
331
4DC
  5
653
331
11CA
  5
14D2
331
58D
  5
A34
331
54E
  5
9DF
331
517
  5
690
331
4D8
  5
64F
331
589
  5
A30
331
54A
  5
9DB
331
513
  5
68C
331
A1D
  5
510
331
646
  5
1415
331
A19
  5
50C
331
642
  5
1411
331
5CC
  5
A86
331
A54
  5
5A5
331
67D
  5
148A
331
63E
  5
140D
331
607
  5
11E0
331
5C8
  5
A82
331
13EF
  5
1433
331
1465
  5
617
331
A50
  5
583
331
679
  5
1486
331
63A
  5
1409
331
603
  5
11DC
331
5C4
  5
A7E
331
5C0
  5
A7A
331
1426
  5
146A
331
149C
  5
537
331
1422
  5
1466
331
1459
  5
62B
331
14DE
  5
610
331
1498
  5
533
331
9DF
  5
4D2
331
14DA
  5
61A
331
9DB
  5
4CE
331
14D6
  5
61C
331
A8D
  5
5DD
331
9D7
  5
4CA
331
A16
  5
509
331
14D2
  5
623
331
A89
  5
5D9
331
9D3
  5
4C6
331
A12
  5
505
331
11C6
  5
14CF
331
11C2
  5
14CB
331
585
  5
A2C
331
546
  5
9D7
331
50F
  5
688
331
11BE
  5
14C7
331
581
  5
A28
331
542
  5
9D3
331
50B
  5
684
331
11BA
  5
14C3
331
57D
  5
A24
331
53E
  5
9CF
331
507
  5
67E
331
579
  5
A20
331
53A
  5
9CB
331
503
  5
67A
331
6A1
  5
14AE
331
A90
  5
5E0
331
675
  5
1482
331
636
  5
1405
331
5FF
  5
11D8
331
A48
  5
57D
331
671
  5
147E
331
632
  5
1401
331
5FB
  5
11D4
331
5BC
  5
A76
331
A44
  5
579
331
66D
  5
147A
331
62E
  5
13FD
331
5F7
  5
11D0
331
5B8
  5
A72
331
A40
  5
575
331
141E
  5
1462
331
1494
  5
52F
331
669
  5
1476
331
62A
  5
13F9
331
5F3
  5
11CC
331
141A
  5
145E
331
1451
  5
635
331
1490
  5
52B
331
5B0
  5
A58
331
1416
  5
145A
331
148C
  5
527
331
1412
  5
1456
331
1449
  5
641
331
1488
  5
523
331
14CE
  5
629
331
A85
  5
5D5
331
9CF
  5
4C2
331
A0E
  5
501
331
14CA
  5
632
331
A81
  5
5D1
331
A0A
  5
4FD
331
9CB
  5
4BE
331
14C6
  5
63B
331
A7D
  5
5CD
331
9C7
  5
4BA
331
A06
  5
4F9
331
14C2
  5
63D
331
A79
  5
5C9
331
A02
  5
4F5
331
11B6
  5
14BF
331
11B2
  5
14BB
331
575
  5
A1C
331
536
  5
9C7
331
4FF
  5
676
331
11AE
  5
14B7
331
571
  5
A18
331
532
  5
84A
331
4FB
  5
672
331
11AA
  5
14B3
331
56D
  5
A14
331
52E
  5
846
331
4F7
  5
66E
331
569
  5
A10
331
52A
  5
842
331
4F3
  5
66A
331
A3C
  5
571
331
665
  5
1472
331
626
  5
13F7
331
5EF
  5
11C7
331
A38
  5
56D
331
661
  5
1430
331
622
  5
13F2
331
5EB
  5
11C3
331
5AC
  5
A54
331
A34
  5
569
331
11E5
  5
14ED
331
65D
  5
142C
331
5E7
  5
11BF
331
5A8
  5
A50
331
A30
  5
565
331
140E
  5
1452
331
1445
  5
A63
331
1484
  5
51F
331
11E1
  5
14E9
331
659
  5
1428
331
5E3
  5
11BB
331
5A4
  5
A4C
331
140A
  5
144E
331
1441
  5
A5F
331
1480
  5
51B
331
5A0
  5
A47
331
1406
  5
144A
331
143D
  5
A6F
331
147C
  5
517
331
1402
  5
1446
331
1439
  5
A6B
331
14BE
  5
646
331
A75
  5
5C5
331
69F
  5
14AC
331
9FE
  5
4F1
331
14BA
  5
648
331
A71
  5
5C1
331
69B
  5
14A8
331
9FA
  5
4ED
331
A6D
  5
5BD
331
14B6
  5
554
331
697
  5
14A4
331
9F6
  5
4E9
331
A69
  5
5B9
331
14B2
  5
54F
331
693
  5
14A0
331
9F2
  5
4E5
331
11A6
  5
14AF
331
565
  5
A09
331
526
  5
69F
331
4EF
  5
666
331
561
  5
9F3
331
522
  5
69B
331
4EB
  5
662
331
55D
  5
9EE
331
51E
  5
697
331
4E7
  5
65E
331
559
  5
9EA
331
51A
  5
693
331
4E3
  5
65A
331
A2C
  5
561
331
11DD
  5
14E5
331
655
  5
1424
331
5DF
  5
11B7
331
A28
  5
55D
331
11D9
  5
14E1
331
651
  5
1420
331
5DB
  5
11B3
331
59C
  5
A43
331
A24
  5
559
331
11D5
  5
14DD
331
64D
  5
141C
331
60E
  5
1293
331
5D7
  5
11AF
331
13FE
  5
1442
331
1435
  5
A67
331
598
  5
A3F
331
A20
  5
513
331
11D1
  5
14D9
331
649
  5
1418
331
5D3
  5
11AB
331
594
  5
A3B
331
13FA
  5
143E
331
1431
  5
13F0
331
1470
  5
5F3
331
590
  5
A37
331
142D
  5
1471
331
146C
  5
608
331
13F6
  5
143A
331
1429
  5
146D
331
13F2
  5
1436
331
14ED
  5
5EE
331
A65
  5
5B5
331
14AE
  5
54B
331
68F
  5
149C
331
9EE
  5
4E1
331
14E9
  5
5FE
331
A61
  5
5B1
331
14AA
  5
547
331
68B
  5
1498
331
9EA
  5
4DD
331
14E5
  5
600
331
14A6
  5
543
331
687
  5
1494
331
9E6
  5
4D9
331
14E1
  5
60D
331
A59
  5
5AA
331
14A2
  5
53D
331
683
  5
1490
331
9E2
  5
4D5
331
555
  5
9E6
331
4DF
  5
656
331
11CD
  5
14D5
331
551
  5
9E2
331
4DB
  5
652
331
11C9
  5
14D1
331
58C
  5
A33
331
54D
  5
9DE
331
516
  5
68F
331
4D7
  5
64E
331
588
  5
A2F
331
549
  5
9DA
331
512
  5
68B
331
A1C
  5
50F
331
A57
  5
5A8
331
645
  5
1414
331
5CF
  5
11A7
331
A18
  5
50B
331
641
  5
1410
331
5CB
  5
A85
331
A53
  5
5A4
331
67C
  5
1489
331
63D
  5
140C
331
606
  5
11DF
331
5C7
  5
A81
331
1464
  5
616
331
678
  5
1485
331
639
  5
1408
331
602
  5
11DB
331
5C3
  5
A7D
331
1460
  5
622
331
149F
  5
53A
331
1425
  5
1469
331
149B
  5
536
331
1421
  5
1465
331
1458
  5
62A
331
14DD
  5
60F
331
9DE
  5
4D1
331
14D9
  5
619
331
9DA
  5
4CD
331
14D5
  5
61F
331
A8C
  5
5DC
331
9D6
  5
4C9
331
A15
  5
508
331
14D1
  5
628
331
A88
  5
5D8
331
9D2
  5
4C5
331
A11
  5
504
331
11C5
  5
14CE
331
11C1
  5
14CA
331
584
  5
A2B
331
545
  5
9D6
331
50E
  5
687
331
11BD
  5
14C6
331
580
  5
A27
331
541
  5
9D2
331
50A
  5
681
331
11B9
  5
14C2
331
57C
  5
A23
331
53D
  5
9CE
331
506
  5
67D
331
578
  5
A1F
331
539
  5
9CA
331
502
  5
679
331
A4F
  5
582
331
6A0
  5
14AD
331
674
  5
1481
331
635
  5
1404
331
5FE
  5
11D7
331
5BF
  5
A79
331
A47
  5
57C
331
670
  5
147D
331
631
  5
1400
331
5FA
  5
11D3
331
5BB
  5
A75
331
A43
  5
578
331
1497
  5
532
331
66C
  5
1479
331
62D
  5
13FC
331
5F6
  5
11CF
331
5B7
  5
A71
331
141D
  5
1461
331
1454
  5
638
331
1493
  5
52E
331
668
  5
1475
331
5F2
  5
11CB
331
5B3
  5
A5B
331
1419
  5
145D
331
1450
  5
634
331
148F
  5
52A
331
1415
  5
1459
331
144C
  5
644
331
148B
  5
526
331
1411
  5
1455
331
1448
  5
640
331
14CD
  5
62F
331
A84
  5
5D4
331
9CE
  5
4C1
331
A0D
  5
500
331
14C9
  5
631
331
A80
  5
5D0
331
A09
  5
4FC
331
9CA
  5
4BD
331
14C5
  5
63A
331
A7C
  5
5CC
331
A05
  5
4F8
  0
XRECORD
  5
1530
102
{ACAD_REACTORS
330
152F
102
}
330
152F
100
AcDbXrecord
280
     1
 40
2340.0
  1
\U+220530
  0
XRECORD
  5
1532
102
{ACAD_REACTORS
330
1531
102
}
330
1531
100
AcDbXrecord
280
     1
 40
2356.0
  1
\U+220550
  0
XRECORD
  5
1534
102
{ACAD_REACTORS
330
1533
102
}
330
1533
100
AcDbXrecord
280
     1
 40
2356.0
  1
\U+220550
  0
XRECORD
  5
14F6
102
{ACAD_REACTORS
330
14F4
102
}
330
14F4
100
AcDbXrecord
280
     1
 70
     2
  0
XRECORD
  5
14F5
102
{ACAD_REACTORS
330
14F4
102
}
330
14F4
100
AcDbXrecord
280
     1
 40
1.25
  0
XRECORD
  5
14F7
102
{ACAD_REACTORS
330
14F4
102
}
330
14F4
100
AcDbXrecord
280
     1
 40
1.570796326794896
  0
LAYOUT
  5
6E
102
{ACAD_XDICTIONARY
360
152B
102
}
102
{ACAD_REACTORS
330
61
102
}
330
61
100
AcDbPlotSettings
  1

  2
FX DP 205
  4

  6

 40
0.0
 41
0.0
 42
0.0
 43
0.0
 44
0.0
 45
0.0
 46
0.0
 47
0.0
 48
0.0
 49
0.0
140
0.0
141
0.0
142
1.0
143
1.0
 70
  1712
 72
     0
 73
     0
 74
     0
  7

 75
     0
147
1.0
148
0.0
149
0.0
100
AcDbLayout
  1
Model
 70
     1
 71
     0
 10
0.0
 20
0.0
 11
12.0
 21
9.0
 12
0.0
 22
0.0
 32
0.0
 14
0.0
 24
0.0
 34
0.0
 15
0.0
 25
0.0
 35
0.0
146
0.0
 13
0.0
 23
0.0
 33
0.0
 16
1.0
 26
0.0
 36
0.0
 17
0.0
 27
1.0
 37
0.0
 76
     0
330
6B
331
8C
  0
LAYOUT
  5
6A
102
{ACAD_XDICTIONARY
360
1529
102
}
102
{ACAD_REACTORS
330
61
102
}
330
61
100
AcDbPlotSettings
  1

  2
FX DP 205
  4

  6

 40
0.0
 41
0.0
 42
0.0
 43
0.0
 44
0.0
 45
0.0
 46
0.0
 47
0.0
 48
0.0
 49
0.0
140
0.0
141
0.0
142
1.0
143
1.0
 70
   688
 72
     0
 73
     0
 74
     5
  7

 75
    16
147
1.0
148
0.0
149
0.0
100
AcDbLayout
  1
レイアウト1
 70
     1
 71
     1
 10
0.0
 20
0.0
 11
12.0
 21
9.0
 12
0.0
 22
0.0
 32
0.0
 14
1.000000000000000E+20
 24
1.000000000000000E+20
 34
1.000000000000000E+20
 15
-1.000000000000000E+20
 25
-1.000000000000000E+20
 35
-1.000000000000000E+20
146
0.0
 13
0.0
 23
0.0
 33
0.0
 16
1.0
 26
0.0
 36
0.0
 17
0.0
 27
1.0
 37
0.0
 76
     0
330
67
  0
MATERIAL
  5
19
102
{ACAD_XDICTIONARY
360
1A
102
}
102
{ACAD_REACTORS
330
10
102
}
330
10
100
AcDbMaterial
  1
ByBlock
 72
     0
 43
0.0208333333333333
 43
0.0
 43
0.0
 43
0.0
 43
0.0
 43
0.0208333333333333
 43
0.0
 43
0.0
 43
0.0
 43
0.0
 43
1.0
 43
0.0
 43
0.0
 43
0.0
 43
0.0
 43
1.0
 77
     0
 47
0.0208333333333333
 47
0.0
 47
0.0
 47
0.0
 47
0.0
 47
0.0208333333333333
 47
0.0
 47
0.0
 47
0.0
 47
0.0
 47
1.0
 47
0.0
 47
0.0
 47
0.0
 47
0.0
 47
1.0
171
     0
 49
0.0208333333333333
 49
0.0
 49
0.0
 49
0.0
 49
0.0
 49
0.0208333333333333
 49
0.0
 49
0.0
 49
0.0
 49
0.0
 49
1.0
 49
0.0
 49
0.0
 49
0.0
 49
0.0
 49
1.0
175
     0
142
0.0208333333333333
142
0.0
142
0.0
142
0.0
142
0.0
142
0.0208333333333333
142
0.0
142
0.0
142
0.0
142
0.0
142
1.0
142
0.0
142
0.0
142
0.0
142
0.0
142
1.0
179
     0
144
0.0208333333333333
144
0.0
144
0.0
144
0.0
144
0.0
144
0.0208333333333333
144
0.0
144
0.0
144
0.0
144
0.0
144
1.0
144
0.0
144
0.0
144
0.0
144
0.0
144
1.0
147
0.0208333333333333
147
0.0
147
0.0
147
0.0
147
0.0
147
0.0208333333333333
147
0.0
147
0.0
147
0.0
147
0.0
147
1.0
147
0.0
147
0.0
147
0.0
147
0.0
147
1.0
  0
MATERIAL
  5
11
102
{ACAD_XDICTIONARY
360
12
102
}
102
{ACAD_REACTORS
330
10
102
}
330
10
100
AcDbMaterial
  1
ByLayer
 72
     0
 43
0.0208333333333333
 43
0.0
 43
0.0
 43
0.0
 43
0.0
 43
0.0208333333333333
 43
0.0
 43
0.0
 43
0.0
 43
0.0
 43
1.0
 43
0.0
 43
0.0
 43
0.0
 43
0.0
 43
1.0
 77
     0
 47
0.0208333333333333
 47
0.0
 47
0.0
 47
0.0
 47
0.0
 47
0.0208333333333333
 47
0.0
 47
0.0
 47
0.0
 47
0.0
 47
1.0
 47
0.0
 47
0.0
 47
0.0
 47
0.0
 47
1.0
171
     0
 49
0.0208333333333333
 49
0.0
 49
0.0
 49
0.0
 49
0.0
 49
0.0208333333333333
 49
0.0
 49
0.0
 49
0.0
 49
0.0
 49
1.0
 49
0.0
 49
0.0
 49
0.0
 49
0.0
 49
1.0
175
     0
142
0.0208333333333333
142
0.0
142
0.0
142
0.0
142
0.0
142
0.0208333333333333
142
0.0
142
0.0
142
0.0
142
0.0
142
1.0
142
0.0
142
0.0
142
0.0
142
0.0
142
1.0
179
     0
144
0.0208333333333333
144
0.0
144
0.0
144
0.0
144
0.0
144
0.0208333333333333
144
0.0
144
0.0
144
0.0
144
0.0
144
1.0
144
0.0
144
0.0
144
0.0
144
0.0
144
1.0
147
0.0208333333333333
147
0.0
147
0.0
147
0.0
147
0.0
147
0.0208333333333333
147
0.0
147
0.0
147
0.0
147
0.0
147
1.0
147
0.0
147
0.0
147
0.0
147
0.0
147
1.0
  0
MATERIAL
  5
21
102
{ACAD_XDICTIONARY
360
22
102
}
102
{ACAD_REACTORS
330
10
102
}
330
10
100
AcDbMaterial
  1
Global
 72
     0
 43
0.0208333333333333
 43
0.0
 43
0.0
 43
0.0
 43
0.0
 43
0.0208333333333333
 43
0.0
 43
0.0
 43
0.0
 43
0.0
 43
1.0
 43
0.0
 43
0.0
 43
0.0
 43
0.0
 43
1.0
 77
     0
 47
0.0208333333333333
 47
0.0
 47
0.0
 47
0.0
 47
0.0
 47
0.0208333333333333
 47
0.0
 47
0.0
 47
0.0
 47
0.0
 47
1.0
 47
0.0
 47
0.0
 47
0.0
 47
0.0
 47
1.0
171
     0
 49
0.0208333333333333
 49
0.0
 49
0.0
 49
0.0
 49
0.0
 49
0.0208333333333333
 49
0.0
 49
0.0
 49
0.0
 49
0.0
 49
1.0
 49
0.0
 49
0.0
 49
0.0
 49
0.0
 49
1.0
175
     0
142
0.0208333333333333
142
0.0
142
0.0
142
0.0
142
0.0
142
0.0208333333333333
142
0.0
142
0.0
142
0.0
142
0.0
142
1.0
142
0.0
142
0.0
142
0.0
142
0.0
142
1.0
179
     0
144
0.0208333333333333
144
0.0
144
0.0
144
0.0
144
0.0
144
0.0208333333333333
144
0.0
144
0.0
144
0.0
144
0.0
144
1.0
144
0.0
144
0.0
144
0.0
144
0.0
144
1.0
147
0.0208333333333333
147
0.0
147
0.0
147
0.0
147
0.0
147
0.0208333333333333
147
0.0
147
0.0
147
0.0
147
0.0
147
1.0
147
0.0
147
0.0
147
0.0
147
0.0
147
1.0
  0
MLEADERSTYLE
  5
66
102
{ACAD_REACTORS
330
65
102
}
330
65
100
AcDbMLeaderStyle
170
     2
171
     1
172
     0
 90
        2
 40
0.0
 41
0.0
173
     1
 91
-1056964608
340
5A
 92
       -2
290
     1
 42
0.09
291
     1
 43
0.36
  3
Standard
 44
0.18
300

342
55
174
     1
178
     6
175
     1
176
     0
 93
-1056964608
 45
0.18
292
     0
297
     0
 46
0.18
 94
-1056964608
 47
1.0
 49
1.0
140
1.0
293
     1
141
0.0
294
     1
177
     0
142
1.0
295
     0
296
     0
143
0.125
1001
ACAD_MLEADERVER
1070
     2
  0
MLINESTYLE
  5
5F
102
{ACAD_REACTORS
330
5E
102
}
330
5E
100
AcDbMlineStyle
  2
STANDARD
 70
     0
  3

 62
   256
 51
90.0
 52
90.0
 71
     2
 49
0.5
 62
   256
  6
BYLAYER
 49
-0.5
 62
   256
  6
BYLAYER
  0
ACDBPLACEHOLDER
  5
F
102
{ACAD_REACTORS
330
E
102
}
330
E
  0
SCALE
  5
43
102
{ACAD_REACTORS
330
42
102
}
330
42
100
AcDbScale
 70
     0
300
1:1
140
1.0
141
1.0
290
     1
  0
SCALE
  5
44
102
{ACAD_REACTORS
330
42
102
}
330
42
100
AcDbScale
 70
     0
300
1/128" = 1'-0"
140
0.0078125
141
12.0
290
     0
  0
SCALE
  5
45
102
{ACAD_REACTORS
330
42
102
}
330
42
100
AcDbScale
 70
     0
300
1/64" = 1'-0"
140
0.015625
141
12.0
290
     0
  0
SCALE
  5
46
102
{ACAD_REACTORS
330
42
102
}
330
42
100
AcDbScale
 70
     0
300
1/32" = 1'-0"
140
0.03125
141
12.0
290
     0
  0
SCALE
  5
47
102
{ACAD_REACTORS
330
42
102
}
330
42
100
AcDbScale
 70
     0
300
1/16" = 1'-0"
140
0.0625
141
12.0
290
     0
  0
SCALE
  5
48
102
{ACAD_REACTORS
330
42
102
}
330
42
100
AcDbScale
 70
     0
300
3/32" = 1'-0"
140
0.09375
141
12.0
290
     0
  0
SCALE
  5
49
102
{ACAD_REACTORS
330
42
102
}
330
42
100
AcDbScale
 70
     0
300
1/8" = 1'-0"
140
0.125
141
12.0
290
     0
  0
SCALE
  5
4A
102
{ACAD_REACTORS
330
42
102
}
330
42
100
AcDbScale
 70
     0
300
3/16" = 1'-0"
140
0.1875
141
12.0
290
     0
  0
SCALE
  5
4B
102
{ACAD_REACTORS
330
42
102
}
330
42
100
AcDbScale
 70
     0
300
1/4" = 1'-0"
140
0.25
141
12.0
290
     0
  0
SCALE
  5
4C
102
{ACAD_REACTORS
330
42
102
}
330
42
100
AcDbScale
 70
     0
300
3/8" = 1'-0"
140
0.375
141
12.0
290
     0
  0
SCALE
  5
4D
102
{ACAD_REACTORS
330
42
102
}
330
42
100
AcDbScale
 70
     0
300
1/2" = 1'-0"
140
0.5
141
12.0
290
     0
  0
SCALE
  5
4E
102
{ACAD_REACTORS
330
42
102
}
330
42
100
AcDbScale
 70
     0
300
3/4" = 1'-0"
140
0.75
141
12.0
290
     0
  0
SCALE
  5
4F
102
{ACAD_REACTORS
330
42
102
}
330
42
100
AcDbScale
 70
     0
300
1" = 1'-0"
140
1.0
141
12.0
290
     0
  0
SCALE
  5
50
102
{ACAD_REACTORS
330
42
102
}
330
42
100
AcDbScale
 70
     0
300
1-1/2" = 1'-0"
140
1.5
141
12.0
290
     0
  0
SCALE
  5
51
102
{ACAD_REACTORS
330
42
102
}
330
42
100
AcDbScale
 70
     0
300
3" = 1'-0"
140
3.0
141
12.0
290
     0
  0
SCALE
  5
52
102
{ACAD_REACTORS
330
42
102
}
330
42
100
AcDbScale
 70
     0
300
6" = 1'-0"
140
6.0
141
12.0
290
     0
  0
SCALE
  5
53
102
{ACAD_REACTORS
330
42
102
}
330
42
100
AcDbScale
 70
     0
300
1'-0" = 1'-0"
140
12.0
141
12.0
290
     0
  0
TABLESTYLE
  5
64
102
{ACAD_XDICTIONARY
360
B42
102
}
102
{ACAD_REACTORS
330
63
102
}
330
63
100
AcDbTableStyle
  3
Standard
 70
     0
 71
     0
 40
0.06
 41
0.06
280
     0
281
     0
  7
STANDARD
140
0.18
170
     2
 62
     0
 63
     7
283
     0
274
    -2
284
     1
 64
     0
275
    -2
285
     1
 65
     0
276
    -2
286
     1
 66
     0
277
    -2
287
     1
 67
     0
278
    -2
288
     1
 68
     0
279
    -2
289
     1
 69
     0
  7
STANDARD
140
0.25
170
     5
 62
     0
 63
     7
283
     0
274
    -2
284
     1
 64
     0
275
    -2
285
     1
 65
     0
276
    -2
286
     1
 66
     0
277
    -2
287
     1
 67
     0
278
    -2
288
     1
 68
     0
279
    -2
289
     1
 69
     0
  7
STANDARD
140
0.18
170
     5
 62
     0
 63
     7
283
     0
274
    -2
284
     1
 64
     0
275
    -2
285
     1
 65
     0
276
    -2
286
     1
 66
     0
277
    -2
287
     1
 67
     0
278
    -2
288
     1
 68
     0
279
    -2
289
     1
 69
     0
  0
VISUALSTYLE
  5
2F
102
{ACAD_XDICTIONARY
360
1502
102
}
102
{ACAD_REACTORS
330
29
102
}
330
29
100
AcDbVisualStyle
  2

 70
     4
 71
     0
 72
     2
 73
     0
 90
        0
 40
-0.6
 41
-30.0
 62
     5
 63
     7
 74
     1
 91
        4
 64
     7
 65
   257
 75
     1
175
     1
 42
1.0
 92
        0
 66
   257
 43
1.0
 76
     1
 77
     6
 78
     2
 67
     7
 79
     5
170
     0
171
     0
290
     0
174
     0
 93
        1
 44
0.0
173
     0
291
     0
 45
0.0
1001
ACAD
1000
AcDbSavedByObjectVersion
1070
     0
  0
VISUALSTYLE
  5
830
102
{ACAD_XDICTIONARY
360
152D
102
}
102
{ACAD_REACTORS
330
29
102
}
330
29
100
AcDbVisualStyle
  2

 70
     5
 71
     0
 72
     2
 73
     1
 90
        0
 40
-0.6
 41
-30.0
 62
     5
 63
     7
 74
     1
 91
        4
 64
     7
 65
   257
 75
     1
175
     1
 42
1.0
 92
        0
 66
   257
 43
1.0
 76
     1
 77
     6
 78
     2
 67
     7
 79
     5
170
     0
171
     0
290
     0
174
     0
 93
        1
 44
0.0
173
     0
291
     0
 45
0.0
1001
ACAD
1000
AcDbSavedByObjectVersion
1070
     0
  0
VISUALSTYLE
  5
2E
102
{ACAD_XDICTIONARY
360
1500
102
}
102
{ACAD_REACTORS
330
29
102
}
330
29
100
AcDbVisualStyle
  2

 70
     7
 71
     1
 72
     0
 73
     1
 90
        0
 40
-0.6
 41
-30.0
 62
     5
 63
     7
 74
     0
 91
        4
 64
     7
 65
   257
 75
     1
175
     1
 42
1.0
 92
        8
 66
     7
 43
1.0
 76
     1
 77
     6
 78
     2
 67
     7
 79
     5
170
     0
171
     0
290
     0
174
     0
 93
        1
 44
0.0
173
     0
291
     1
 45
0.0
1001
ACAD
1000
AcDbSavedByObjectVersion
1070
     0
  0
VISUALSTYLE
  5
35
102
{ACAD_XDICTIONARY
360
150E
102
}
102
{ACAD_REACTORS
330
29
102
}
330
29
100
AcDbVisualStyle
  2

 70
    12
 71
     2
 72
     2
 73
     0
 90
        0
 40
-0.6
 41
-30.0
 62
     5
 63
     7
 74
     1
 91
        4
 64
     7
 65
   257
 75
     1
175
     1
 42
1.0
 92
        8
 66
     7
 43
1.0
 76
     1
 77
     6
 78
     2
 67
     7
 79
     5
170
     0
171
     0
290
     0
174
     0
 93
        1
 44
50.0
173
     0
291
     1
 45
0.0
1001
ACAD
1000
AcDbSavedByObjectVersion
1070
     0
  0
VISUALSTYLE
  5
39
102
{ACAD_XDICTIONARY
360
1516
102
}
102
{ACAD_REACTORS
330
29
102
}
330
29
100
AcDbVisualStyle
  2

 70
    16
 71
     2
 72
     2
 73
     3
 90
        0
 40
-0.6
 41
-30.0
 62
     5
 63
     8
 74
     1
 91
        4
 64
     7
 65
   257
 75
     1
175
     1
 42
1.0
 92
        8
 66
     8
 43
1.0
 76
     1
 77
     6
 78
     2
 67
     7
 79
     5
170
     0
171
     0
290
     0
174
     0
 93
        1
 44
0.0
173
     0
291
     1
 45
0.0
1001
ACAD
1000
AcDbSavedByObjectVersion
1070
     0
  0
VISUALSTYLE
  5
32
102
{ACAD_XDICTIONARY
360
1508
102
}
102
{ACAD_REACTORS
330
29
102
}
330
29
100
AcDbVisualStyle
  2

 70
     9
 71
     3
 72
     2
 73
     0
 90
        0
 40
-0.6
 41
-30.0
 62
     5
 63
     7
 74
     2
 91
        2
 64
     7
 65
   257
 75
     1
175
     1
 42
179.0
 92
        8
 66
     7
 43
1.0
 76
     1
 77
     6
 78
     2
 67
     7
 79
     3
170
     0
171
     0
290
     0
174
     0
 93
        1
 44
0.0
173
     0
291
     0
 45
0.0
1001
ACAD
1000
AcDbSavedByObjectVersion
1070
     0
  0
VISUALSTYLE
  5
34
102
{ACAD_XDICTIONARY
360
150C
102
}
102
{ACAD_REACTORS
330
29
102
}
330
29
100
AcDbVisualStyle
  2

 70
    11
 71
     2
 72
     2
 73
     0
 90
        0
 40
-0.6
 41
-30.0
 62
     5
 63
     7
 74
     1
 91
        4
 64
     7
 65
   257
 75
     1
175
     1
 42
1.0
 92
        8
 66
     7
 43
1.0
 76
     1
 77
     6
 78
     2
 67
     7
 79
     5
170
     0
171
     0
290
     0
174
     0
 93
        1
 44
-50.0
173
     0
291
     1
 45
0.0
1001
ACAD
1000
AcDbSavedByObjectVersion
1070
     0
  0
VISUALSTYLE
  5
41
102
{ACAD_XDICTIONARY
360
1526
102
}
102
{ACAD_REACTORS
330
29
102
}
330
29
100
AcDbVisualStyle
  2

 70
    22
 71
     2
 72
     2
 73
     0
 90
        0
 40
-0.6
 41
-30.0
 62
     5
 63
     7
 74
     1
 91
        4
 64
     7
 65
   257
 75
     1
175
     1
 42
1.0
 92
        8
 66
     7
 43
1.0
 76
     1
 77
     6
 78
     2
 67
     7
 79
     5
170
     0
171
     0
290
     0
174
     0
 93
        1
 44
0.0
173
     0
291
     1
 45
0.0
1001
ACAD
1000
AcDbSavedByObjectVersion
1070
     0
  0
VISUALSTYLE
  5
38
102
{ACAD_XDICTIONARY
360
1514
102
}
102
{ACAD_REACTORS
330
29
102
}
330
29
100
AcDbVisualStyle
  2

 70
    15
 71
     2
 72
     2
 73
     0
 90
        0
 40
-0.6
 41
-30.0
 62
     5
 63
     7
 74
     1
 91
        4
 64
     7
 65
   257
 75
     1
175
     1
 42
1.0
 92
        8
 66
     7
 43
1.0
 76
     1
 77
     6
 78
     2
 67
     7
 79
     5
170
     0
171
     0
290
     0
174
     0
 93
        1
 44
0.0
173
     0
291
     1
 45
0.0
1001
ACAD
1000
AcDbSavedByObjectVersion
1070
     0
  0
VISUALSTYLE
  5
2A
102
{ACAD_XDICTIONARY
360
14F8
102
}
102
{ACAD_REACTORS
330
29
102
}
330
29
100
AcDbVisualStyle
  2

 70
     0
 71
     2
 72
     1
 73
     1
 90
        2
 40
-0.6
 41
30.0
 62
     5
 63
     7
 74
     0
 91
        0
 64
     7
 65
   257
 75
     1
175
     1
 42
1.0
 92
        8
 66
     7
 43
1.0
 76
     1
 77
     6
 78
     2
 67
     7
 79
     5
170
     0
171
     0
290
     0
174
     0
 93
       13
 44
0.0
173
     0
291
     1
 45
0.0
1001
ACAD
1000
AcDbSavedByObjectVersion
1070
     0
  0
VISUALSTYLE
  5
2B
102
{ACAD_XDICTIONARY
360
14FA
102
}
102
{ACAD_REACTORS
330
29
102
}
330
29
100
AcDbVisualStyle
  2

 70
     1
 71
     2
 72
     1
 73
     1
 90
        2
 40
-0.6
 41
30.0
 62
     5
 63
     7
 74
     1
 91
        0
 64
     7
 65
   257
 75
     1
175
     1
 42
1.0
 92
        0
 66
   257
 43
1.0
 76
     1
 77
     6
 78
     2
 67
     7
 79
     5
170
     0
171
     0
290
     0
174
     0
 93
       13
 44
0.0
173
     0
291
     1
 45
0.0
1001
ACAD
1000
AcDbSavedByObjectVersion
1070
     0
  0
VISUALSTYLE
  5
2C
102
{ACAD_XDICTIONARY
360
14FC
102
}
102
{ACAD_REACTORS
330
29
102
}
330
29
100
AcDbVisualStyle
  2

 70
     2
 71
     2
 72
     2
 73
     1
 90
        2
 40
-0.6
 41
30.0
 62
     5
 63
     7
 74
     0
 91
        0
 64
     7
 65
   257
 75
     1
175
     1
 42
1.0
 92
        0
 66
     7
 43
1.0
 76
     1
 77
     6
 78
     2
 67
     7
 79
     5
170
     0
171
     0
290
     0
174
     0
 93
       13
 44
0.0
173
     0
291
     1
 45
0.0
1001
ACAD
1000
AcDbSavedByObjectVersion
1070
     0
  0
VISUALSTYLE
  5
2D
102
{ACAD_XDICTIONARY
360
14FE
102
}
102
{ACAD_REACTORS
330
29
102
}
330
29
100
AcDbVisualStyle
  2

 70
     3
 71
     2
 72
     2
 73
     1
 90
        2
 40
-0.6
 41
30.0
 62
     5
 63
     7
 74
     1
 91
        0
 64
     7
 65
   257
 75
     1
175
     1
 42
1.0
 92
        0
 66
   257
 43
1.0
 76
     1
 77
     6
 78
     2
 67
     7
 79
     5
170
     0
171
     0
290
     0
174
     0
 93
       13
 44
0.0
173
     0
291
     1
 45
0.0
1001
ACAD
1000
AcDbSavedByObjectVersion
1070
     0
  0
VISUALSTYLE
  5
31
102
{ACAD_XDICTIONARY
360
1506
102
}
102
{ACAD_REACTORS
330
29
102
}
330
29
100
AcDbVisualStyle
  2

 70
     6
 71
     1
 72
     2
 73
     2
 90
        0
 40
-0.6
 41
-30.0
 62
     5
 63
     7
 74
     2
 91
        2
 64
     7
 65
   257
 75
     2
175
     1
 42
40.0
 92
        0
 66
   257
 43
1.0
 76
     1
 77
     6
 78
     2
 67
     7
 79
     3
170
     0
171
     0
290
     0
174
     0
 93
        1
 44
0.0
173
     0
291
     0
 45
0.0
1001
ACAD
1000
AcDbSavedByObjectVersion
1070
     0
  0
VISUALSTYLE
  5
3F
102
{ACAD_XDICTIONARY
360
1522
102
}
102
{ACAD_REACTORS
330
29
102
}
330
29
100
AcDbVisualStyle
  2

 70
    20
 71
     2
 72
     2
 73
     0
 90
        0
 40
-0.6
 41
-30.0
 62
     5
 63
     7
 74
     1
 91
        4
 64
     7
 65
   257
 75
     1
175
     1
 42
1.0
 92
       10
 66
     7
 43
1.0
 76
     1
 77
     6
 78
     2
 67
     7
 79
     5
170
     0
171
     0
290
     0
174
     0
 93
        1
 44
0.0
173
     0
291
     1
 45
0.0
1001
ACAD
1000
AcDbSavedByObjectVersion
1070
     0
  0
VISUALSTYLE
  5
37
102
{ACAD_XDICTIONARY
360
1512
102
}
102
{ACAD_REACTORS
330
29
102
}
330
29
100
AcDbVisualStyle
  2

 70
    14
 71
     2
 72
     2
 73
     0
 90
        0
 40
-0.6
 41
-30.0
 62
     5
 63
     7
 74
     1
 91
        4
 64
     7
 65
   257
 75
     7
175
     7
 42
1.0
 92
        8
 66
     7
 43
1.0
 76
     1
 77
     6
 78
     2
 67
     7
 79
     5
170
     0
171
     0
290
     0
174
     0
 93
        1
 44
0.0
173
     0
291
     1
 45
0.0
1001
ACAD
1000
AcDbSavedByObjectVersion
1070
     0
  0
VISUALSTYLE
  5
40
102
{ACAD_XDICTIONARY
360
1524
102
}
102
{ACAD_REACTORS
330
29
102
}
330
29
100
AcDbVisualStyle
  2

 70
    21
 71
     2
 72
     2
 73
     0
 90
        0
 40
-0.6
 41
-30.0
 62
     5
 63
     7
 74
     1
 91
        4
 64
     7
 65
   257
 75
     1
175
     1
 42
1.0
 92
        9
 66
     7
 43
1.0
 76
     1
 77
     6
 78
     2
 67
     7
 79
     5
170
     0
171
     0
290
     0
174
     0
 93
        1
 44
0.0
173
     0
291
     1
 45
0.0
1001
ACAD
1000
AcDbSavedByObjectVersion
1070
     0
  0
VISUALSTYLE
  5
33
102
{ACAD_XDICTIONARY
360
150A
102
}
102
{ACAD_REACTORS
330
29
102
}
330
29
100
AcDbVisualStyle
  2

 70
     8
 71
     2
 72
     3
 73
     0
 90
        2
 40
-0.6
 41
30.0
 62
     5
 63
     7
 74
     0
 91
        0
 64
     7
 65
   257
 75
     1
175
     1
 42
1.0
 92
        8
 66
   257
 43
1.0
 76
     1
 77
     6
 78
     2
 67
     7
 79
     3
170
     0
171
     0
290
     0
174
     0
 93
       13
 44
0.0
173
     0
291
     0
 45
0.0
1001
ACAD
1000
AcDbSavedByObjectVersion
1070
     0
  0
VISUALSTYLE
  5
3E
102
{ACAD_XDICTIONARY
360
1520
102
}
102
{ACAD_REACTORS
330
29
102
}
330
29
100
AcDbVisualStyle
  2

 70
    27
 71
     2
 72
     2
 73
     1
 90
        2
 40
-0.6
 41
30.0
 62
     5
 63
     7
 74
     0
 91
        4
 64
     7
 65
   257
 75
     1
175
     1
 42
1.0
 92
        8
 66
   257
 43
1.0
 76
     1
 77
     6
 78
     2
 67
     8
 79
     3
170
     0
171
     0
290
     0
174
     0
 93
        5
 44
0.0
173
     0
291
     0
 45
0.0
1001
ACAD
1000
AcDbSavedByObjectVersion
1070
     0
  0
VISUALSTYLE
  5
3D
102
{ACAD_XDICTIONARY
360
151E
102
}
102
{ACAD_REACTORS
330
29
102
}
330
29
100
AcDbVisualStyle
  2

 70
    26
 71
     2
 72
     2
 73
     1
 90
        2
 40
-0.6
 41
30.0
 62
     5
 63
     7
 74
     1
 91
       10
 64
     7
 65
   257
 75
     2
175
     1
 42
1.0
 92
        8
 66
   257
 43
1.0
 76
     1
 77
     6
 78
     2
 67
     7
 79
     3
170
     0
171
     0
290
     0
174
     0
 93
        5
 44
0.0
173
     0
291
     0
 45
0.0
1001
ACAD
1000
AcDbSavedByObjectVersion
1070
     0
  0
VISUALSTYLE
  5
3A
102
{ACAD_XDICTIONARY
360
1518
102
}
102
{ACAD_REACTORS
330
29
102
}
330
29
100
AcDbVisualStyle
  2

 70
    23
 71
     2
 72
     2
 73
     3
 90
        0
 40
-0.6
 41
-30.0
 62
     5
 63
     7
 74
     2
 91
        2
 64
     7
 65
     7
 75
     1
175
     1
 42
40.0
 92
        8
 66
     7
 43
1.0
 76
     1
 77
     6
 78
     2
 67
     7
 79
     3
170
     0
171
     0
290
     0
174
     0
 93
        1
 44
0.0
173
     0
291
     0
 45
0.0
1001
ACAD
1000
AcDbSavedByObjectVersion
1070
     0
  0
VISUALSTYLE
  5
3B
102
{ACAD_XDICTIONARY
360
151A
102
}
102
{ACAD_REACTORS
330
29
102
}
330
29
100
AcDbVisualStyle
  2

 70
    24
 71
     1
 72
     2
 73
     2
 90
        0
 40
-0.6
 41
-30.0
 62
     5
 63
     7
 74
     2
 91
        2
 64
     7
 65
     7
 75
     1
175
     1
 42
40.0
 92
       11
 66
     7
 43
1.0
 76
     1
 77
     6
 78
     2
 67
     7
 79
     6
170
     0
171
     0
290
     0
174
     0
 93
        1
 44
0.0
173
     0
291
     0
 45
0.0
1001
ACAD
1000
AcDbSavedByObjectVersion
1070
     0
  0
VISUALSTYLE
  5
36
102
{ACAD_XDICTIONARY
360
1510
102
}
102
{ACAD_REACTORS
330
29
102
}
330
29
100
AcDbVisualStyle
  2

 70
    13
 71
     2
 72
     2
 73
     0
 90
        0
 40
-0.6
 41
-30.0
 62
     5
 63
     7
 74
     1
 91
        4
 64
     7
 65
   257
 75
     1
175
     1
 42
1.0
 92
       12
 66
     7
 43
1.0
 76
     1
 77
     6
 78
     2
 67
     7
 79
     5
170
     0
171
     0
290
     0
174
     0
 93
        1
 44
0.0
173
     0
291
     1
 45
0.0
1001
ACAD
1000
AcDbSavedByObjectVersion
1070
     0
  0
VISUALSTYLE
  5
30
102
{ACAD_XDICTIONARY
360
1504
102
}
102
{ACAD_REACTORS
330
29
102
}
330
29
100
AcDbVisualStyle
  2

 70
     5
 71
     0
 72
     2
 73
     0
 90
        0
 40
-0.6
 41
-30.0
 62
     5
 63
     7
 74
     1
 91
        4
 64
     7
 65
   257
 75
     1
175
     1
 42
1.0
 92
        0
 66
   257
 43
1.0
 76
     1
 77
     6
 78
     2
 67
     7
 79
     3
170
     0
171
     0
290
     0
174
     0
 93
        1
 44
0.0
173
     0
291
     0
 45
0.0
1001
ACAD
1000
AcDbSavedByObjectVersion
1070
     0
  0
VISUALSTYLE
  5
3C
102
{ACAD_XDICTIONARY
360
151C
102
}
102
{ACAD_REACTORS
330
29
102
}
330
29
100
AcDbVisualStyle
  2

 70
    25
 71
     2
 72
     2
 73
     1
 90
        1
 40
0.5
 41
-30.0
 62
     5
 63
     7
 74
     1
 91
        0
 64
     7
 65
   257
 75
     1
175
     1
 42
1.0
 92
        8
 66
     7
 43
1.0
 76
     1
 77
     6
 78
     2
 67
     7
 79
     3
170
     0
171
     0
290
     0
174
     0
 93
       13
 44
0.0
173
     0
291
     0
 45
0.0
1001
ACAD
1000
AcDbSavedByObjectVersion
1070
     0
  0
DICTIONARYVAR
  5
B3D
102
{ACAD_REACTORS
330
B3A
102
}
330
B3A
100
DictionaryVariables
280
     0
  1
1:1
  0
DICTIONARYVAR
  5
B3C
102
{ACAD_REACTORS
330
B3A
102
}
330
B3A
100
DictionaryVariables
280
     0
  1
STANDARD
  0
DICTIONARYVAR
  5
B3B
102
{ACAD_REACTORS
330
B3A
102
}
330
B3A
100
DictionaryVariables
280
     0
  1
STANDARD
  0
DICTIONARYVAR
  5
B40
102
{ACAD_REACTORS
330
B3A
102
}
330
B3A
100
DictionaryVariables
280
     0
  1
1
  0
DICTIONARYVAR
  5
B3F
102
{ACAD_REACTORS
330
B3A
102
}
330
B3A
100
DictionaryVariables
280
     0
  1
0
  0
DICTIONARYVAR
  5
B3E
102
{ACAD_REACTORS
330
B3A
102
}
330
B3A
100
DictionaryVariables
280
     0
  1
127
  0
DICTIONARYVAR
  5
1294
102
{ACAD_REACTORS
330
B3A
102
}
330
B3A
100
DictionaryVariables
280
     0
  1
2
  0
DICTIONARY
  5
152B
330
6E
100
AcDbDictionary
280
     1
281
     1
  3
ACAD_XREC_ROUNDTRIP
360
152C
  0
DICTIONARY
  5
1529
330
6A
100
AcDbDictionary
280
     1
281
     1
  3
ACAD_XREC_ROUNDTRIP
360
152A
  0
DICTIONARY
  5
1A
330
19
100
AcDbDictionary
280
     1
281
     1
  3
ACAD_XREC_ROUNDTRIP
360
B4B
  3
BUMPTILE
360
1C
  3
DIFFUSETILE
360
1B
  3
OPACITYTILE
360
1F
  3
REFLECTIONTILE
360
1E
  3
REFRACTIONTILE
360
20
  3
SPECULARTILE
360
1D
  0
DICTIONARY
  5
12
330
11
100
AcDbDictionary
280
     1
281
     1
  3
ACAD_XREC_ROUNDTRIP
360
B4A
  3
BUMPTILE
360
14
  3
DIFFUSETILE
360
13
  3
OPACITYTILE
360
17
  3
REFLECTIONTILE
360
16
  3
REFRACTIONTILE
360
18
  3
SPECULARTILE
360
15
  0
DICTIONARY
  5
22
330
21
100
AcDbDictionary
280
     1
281
     1
  3
ACAD_XREC_ROUNDTRIP
360
B4C
  3
BUMPTILE
360
24
  3
DIFFUSETILE
360
23
  3
OPACITYTILE
360
27
  3
REFLECTIONTILE
360
26
  3
REFRACTIONTILE
360
28
  3
SPECULARTILE
360
25
  0
DICTIONARY
  5
B42
330
64
100
AcDbDictionary
280
     1
281
     1
  3
ACAD_ROUNDTRIP_2008_TABLESTYLE_CELLSTYLEMAP
360
14F1
  3
ACAD_XREC_ROUNDTRIP
360
1528
  0
DICTIONARY
  5
1502
330
2F
100
AcDbDictionary
280
     1
281
     1
  3
ACAD_XREC_ROUNDTRIP
360
1503
  0
DICTIONARY
  5
152D
330
830
100
AcDbDictionary
280
     1
281
     1
  3
ACAD_XREC_ROUNDTRIP
360
152E
  0
DICTIONARY
  5
1500
330
2E
100
AcDbDictionary
280
     1
281
     1
  3
ACAD_XREC_ROUNDTRIP
360
1501
  0
DICTIONARY
  5
150E
330
35
100
AcDbDictionary
280
     1
281
     1
  3
ACAD_XREC_ROUNDTRIP
360
150F
  0
DICTIONARY
  5
1516
330
39
100
AcDbDictionary
280
     1
281
     1
  3
ACAD_XREC_ROUNDTRIP
360
1517
  0
DICTIONARY
  5
1508
330
32
100
AcDbDictionary
280
     1
281
     1
  3
ACAD_XREC_ROUNDTRIP
360
1509
  0
DICTIONARY
  5
150C
330
34
100
AcDbDictionary
280
     1
281
     1
  3
ACAD_XREC_ROUNDTRIP
360
150D
  0
DICTIONARY
  5
1526
330
41
100
AcDbDictionary
280
     1
281
     1
  3
ACAD_XREC_ROUNDTRIP
360
1527
  0
DICTIONARY
  5
1514
330
38
100
AcDbDictionary
280
     1
281
     1
  3
ACAD_XREC_ROUNDTRIP
360
1515
  0
DICTIONARY
  5
14F8
330
2A
100
AcDbDictionary
280
     1
281
     1
  3
ACAD_XREC_ROUNDTRIP
360
14F9
  0
DICTIONARY
  5
14FA
330
2B
100
AcDbDictionary
280
     1
281
     1
  3
ACAD_XREC_ROUNDTRIP
360
14FB
  0
DICTIONARY
  5
14FC
330
2C
100
AcDbDictionary
280
     1
281
     1
  3
ACAD_XREC_ROUNDTRIP
360
14FD
  0
DICTIONARY
  5
14FE
330
2D
100
AcDbDictionary
280
     1
281
     1
  3
ACAD_XREC_ROUNDTRIP
360
14FF
  0
DICTIONARY
  5
1506
330
31
100
AcDbDictionary
280
     1
281
     1
  3
ACAD_XREC_ROUNDTRIP
360
1507
  0
DICTIONARY
  5
1522
330
3F
100
AcDbDictionary
280
     1
281
     1
  3
ACAD_XREC_ROUNDTRIP
360
1523
  0
DICTIONARY
  5
1512
330
37
100
AcDbDictionary
280
     1
281
     1
  3
ACAD_XREC_ROUNDTRIP
360
1513
  0
DICTIONARY
  5
1524
330
40
100
AcDbDictionary
280
     1
281
     1
  3
ACAD_XREC_ROUNDTRIP
360
1525
  0
DICTIONARY
  5
150A
330
33
100
AcDbDictionary
280
     1
281
     1
  3
ACAD_XREC_ROUNDTRIP
360
150B
  0
DICTIONARY
  5
1520
330
3E
100
AcDbDictionary
280
     1
281
     1
  3
ACAD_XREC_ROUNDTRIP
360
1521
  0
DICTIONARY
  5
151E
330
3D
100
AcDbDictionary
280
     1
281
     1
  3
ACAD_XREC_ROUNDTRIP
360
151F
  0
DICTIONARY
  5
1518
330
3A
100
AcDbDictionary
280
     1
281
     1
  3
ACAD_XREC_ROUNDTRIP
360
1519
  0
DICTIONARY
  5
151A
330
3B
100
AcDbDictionary
280
     1
281
     1
  3
ACAD_XREC_ROUNDTRIP
360
151B
  0
DICTIONARY
  5
1510
330
36
100
AcDbDictionary
280
     1
281
     1
  3
ACAD_XREC_ROUNDTRIP
360
1511
  0
DICTIONARY
  5
1504
330
30
100
AcDbDictionary
280
     1
281
     1
  3
ACAD_XREC_ROUNDTRIP
360
1505
  0
DICTIONARY
  5
151C
330
3C
100
AcDbDictionary
280
     1
281
     1
  3
ACAD_XREC_ROUNDTRIP
360
151D
  0
XRECORD
  5
152C
102
{ACAD_REACTORS
330
152B
102
}
330
152B
100
AcDbXrecord
280
     1
102
SHADEPLOT
 70
     0
102
SHADEPLOTRESLEVEL
 70
     2
102
SHADEPLOTCUSTOMDPI
 70
   300
  0
XRECORD
  5
152A
102
{ACAD_REACTORS
330
1529
102
}
330
1529
100
AcDbXrecord
280
     1
102
SHADEPLOT
 70
     0
102
SHADEPLOTRESLEVEL
 70
     2
102
SHADEPLOTCUSTOMDPI
 70
   300
  0
XRECORD
  5
B4B
102
{ACAD_REACTORS
330
1A
102
}
330
1A
100
AcDbXrecord
280
     1
102
MATERIAL
148
0.0
149
0.0
149
0.0
 93
        0
 94
      127
282
     0
 72
     0
 77
     0
171
     0
175
     0
179
     0
273
     0
  0
XRECORD
  5
1C
102
{ACAD_REACTORS
330
1A
102
}
330
1A
100
AcDbXrecord
280
     1
270
     1
271
     1
  0
XRECORD
  5
1B
102
{ACAD_REACTORS
330
1A
102
}
330
1A
100
AcDbXrecord
280
     1
270
     1
271
     1
  0
XRECORD
  5
1F
102
{ACAD_REACTORS
330
1A
102
}
330
1A
100
AcDbXrecord
280
     1
270
     1
271
     1
  0
XRECORD
  5
1E
102
{ACAD_REACTORS
330
1A
102
}
330
1A
100
AcDbXrecord
280
     1
270
     1
271
     1
  0
XRECORD
  5
20
102
{ACAD_REACTORS
330
1A
102
}
330
1A
100
AcDbXrecord
280
     1
270
     1
271
     1
  0
XRECORD
  5
1D
102
{ACAD_REACTORS
330
1A
102
}
330
1A
100
AcDbXrecord
280
     1
270
     1
271
     1
  0
XRECORD
  5
B4A
102
{ACAD_REACTORS
330
12
102
}
330
12
100
AcDbXrecord
280
     1
102
MATERIAL
148
0.0
149
0.0
149
0.0
 93
        0
 94
      127
282
     0
 72
     0
 77
     0
171
     0
175
     0
179
     0
273
     0
  0
XRECORD
  5
14
102
{ACAD_REACTORS
330
12
102
}
330
12
100
AcDbXrecord
280
     1
270
     1
271
     1
  0
XRECORD
  5
13
102
{ACAD_REACTORS
330
12
102
}
330
12
100
AcDbXrecord
280
     1
270
     1
271
     1
  0
XRECORD
  5
17
102
{ACAD_REACTORS
330
12
102
}
330
12
100
AcDbXrecord
280
     1
270
     1
271
     1
  0
XRECORD
  5
16
102
{ACAD_REACTORS
330
12
102
}
330
12
100
AcDbXrecord
280
     1
270
     1
271
     1
  0
XRECORD
  5
18
102
{ACAD_REACTORS
330
12
102
}
330
12
100
AcDbXrecord
280
     1
270
     1
271
     1
  0
XRECORD
  5
15
102
{ACAD_REACTORS
330
12
102
}
330
12
100
AcDbXrecord
280
     1
270
     1
271
     1
  0
XRECORD
  5
B4C
102
{ACAD_REACTORS
330
22
102
}
330
22
100
AcDbXrecord
280
     1
102
MATERIAL
148
0.0
149
0.0
149
0.0
 93
        0
 94
      127
282
     0
 72
     0
 77
     0
171
     0
175
     0
179
     0
273
     0
  0
XRECORD
  5
24
102
{ACAD_REACTORS
330
22
102
}
330
22
100
AcDbXrecord
280
     1
270
     1
271
     1
  0
XRECORD
  5
23
102
{ACAD_REACTORS
330
22
102
}
330
22
100
AcDbXrecord
280
     1
270
     1
271
     1
  0
XRECORD
  5
27
102
{ACAD_REACTORS
330
22
102
}
330
22
100
AcDbXrecord
280
     1
270
     1
271
     1
  0
XRECORD
  5
26
102
{ACAD_REACTORS
330
22
102
}
330
22
100
AcDbXrecord
280
     1
270
     1
271
     1
  0
XRECORD
  5
28
102
{ACAD_REACTORS
330
22
102
}
330
22
100
AcDbXrecord
280
     1
270
     1
271
     1
  0
XRECORD
  5
25
102
{ACAD_REACTORS
330
22
102
}
330
22
100
AcDbXrecord
280
     1
270
     1
271
     1
  0
CELLSTYLEMAP
  5
14F1
102
{ACAD_REACTORS
330
B42
102
}
330
B42
100
AcDbCellStyleMap
 90
        3
300
CELLSTYLE
  1
TABLEFORMAT_BEGIN
 90
        5
170
     1
 91
        0
 92
    32768
 62
   257
 93
        1
300
CONTENTFORMAT
  1
CONTENTFORMAT_BEGIN
 90
        0
 91
        0
 92
      512
 93
        0
300

 40
0.0
140
1.0
 94
        5
 62
     0
340
55
144
0.25
309
CONTENTFORMAT_END
171
     1
301
MARGIN
  1
CELLMARGIN_BEGIN
 40
0.06
 40
0.06
 40
0.06
 40
0.06
 40
0.18
 40
0.18
309
CELLMARGIN_END
 94
        6
 95
        1
302
GRIDFORMAT
  1
GRIDFORMAT_BEGIN
 90
        0
 91
        1
 62
     0
 92
       -2
340
0
 93
        0
 40
0.045
309
GRIDFORMAT_END
 95
        2
302
GRIDFORMAT
  1
GRIDFORMAT_BEGIN
 90
        0
 91
        1
 62
     0
 92
       -2
340
0
 93
        0
 40
0.045
309
GRIDFORMAT_END
 95
        4
302
GRIDFORMAT
  1
GRIDFORMAT_BEGIN
 90
        0
 91
        1
 62
     0
 92
       -2
340
0
 93
        0
 40
0.045
309
GRIDFORMAT_END
 95
        8
302
GRIDFORMAT
  1
GRIDFORMAT_BEGIN
 90
        0
 91
        1
 62
     0
 92
       -2
340
0
 93
        0
 40
0.045
309
GRIDFORMAT_END
 95
       16
302
GRIDFORMAT
  1
GRIDFORMAT_BEGIN
 90
        0
 91
        1
 62
     0
 92
       -2
340
0
 93
        0
 40
0.045
309
GRIDFORMAT_END
 95
       32
302
GRIDFORMAT
  1
GRIDFORMAT_BEGIN
 90
        0
 91
        1
 62
     0
 92
       -2
340
0
 93
        0
 40
0.045
309
GRIDFORMAT_END
309
TABLEFORMAT_END
  1
CELLSTYLE_BEGIN
 90
        1
 91
        1
300
_TITLE
309
CELLSTYLE_END
300
CELLSTYLE
  1
TABLEFORMAT_BEGIN
 90
        5
170
     1
 91
        0
 92
        0
 62
   257
 93
        1
300
CONTENTFORMAT
  1
CONTENTFORMAT_BEGIN
 90
        0
 91
        0
 92
      512
 93
        0
300

 40
0.0
140
1.0
 94
        5
 62
     0
340
55
144
0.18
309
CONTENTFORMAT_END
171
     1
301
MARGIN
  1
CELLMARGIN_BEGIN
 40
0.06
 40
0.06
 40
0.06
 40
0.06
 40
0.18
 40
0.18
309
CELLMARGIN_END
 94
        6
 95
        1
302
GRIDFORMAT
  1
GRIDFORMAT_BEGIN
 90
        0
 91
        1
 62
     0
 92
       -2
340
0
 93
        0
 40
0.045
309
GRIDFORMAT_END
 95
        2
302
GRIDFORMAT
  1
GRIDFORMAT_BEGIN
 90
        0
 91
        1
 62
     0
 92
       -2
340
0
 93
        0
 40
0.045
309
GRIDFORMAT_END
 95
        4
302
GRIDFORMAT
  1
GRIDFORMAT_BEGIN
 90
        0
 91
        1
 62
     0
 92
       -2
340
0
 93
        0
 40
0.045
309
GRIDFORMAT_END
 95
        8
302
GRIDFORMAT
  1
GRIDFORMAT_BEGIN
 90
        0
 91
        1
 62
     0
 92
       -2
340
0
 93
        0
 40
0.045
309
GRIDFORMAT_END
 95
       16
302
GRIDFORMAT
  1
GRIDFORMAT_BEGIN
 90
        0
 91
        1
 62
     0
 92
       -2
340
0
 93
        0
 40
0.045
309
GRIDFORMAT_END
 95
       32
302
GRIDFORMAT
  1
GRIDFORMAT_BEGIN
 90
        0
 91
        1
 62
     0
 92
       -2
340
0
 93
        0
 40
0.045
309
GRIDFORMAT_END
309
TABLEFORMAT_END
  1
CELLSTYLE_BEGIN
 90
        2
 91
        1
300
_HEADER
309
CELLSTYLE_END
300
CELLSTYLE
  1
TABLEFORMAT_BEGIN
 90
        5
170
     1
 91
        0
 92
        0
 62
   257
 93
        1
300
CONTENTFORMAT
  1
CONTENTFORMAT_BEGIN
 90
        0
 91
        0
 92
      512
 93
        0
300

 40
0.0
140
1.0
 94
        2
 62
     0
340
55
144
0.18
309
CONTENTFORMAT_END
171
     1
301
MARGIN
  1
CELLMARGIN_BEGIN
 40
0.06
 40
0.06
 40
0.06
 40
0.06
 40
0.18
 40
0.18
309
CELLMARGIN_END
 94
        6
 95
        1
302
GRIDFORMAT
  1
GRIDFORMAT_BEGIN
 90
        0
 91
        1
 62
     0
 92
       -2
340
0
 93
        0
 40
0.045
309
GRIDFORMAT_END
 95
        2
302
GRIDFORMAT
  1
GRIDFORMAT_BEGIN
 90
        0
 91
        1
 62
     0
 92
       -2
340
0
 93
        0
 40
0.045
309
GRIDFORMAT_END
 95
        4
302
GRIDFORMAT
  1
GRIDFORMAT_BEGIN
 90
        0
 91
        1
 62
     0
 92
       -2
340
0
 93
        0
 40
0.045
309
GRIDFORMAT_END
 95
        8
302
GRIDFORMAT
  1
GRIDFORMAT_BEGIN
 90
        0
 91
        1
 62
     0
 92
       -2
340
0
 93
        0
 40
0.045
309
GRIDFORMAT_END
 95
       16
302
GRIDFORMAT
  1
GRIDFORMAT_BEGIN
 90
        0
 91
        1
 62
     0
 92
       -2
340
0
 93
        0
 40
0.045
309
GRIDFORMAT_END
 95
       32
302
GRIDFORMAT
  1
GRIDFORMAT_BEGIN
 90
        0
 91
        1
 62
     0
 92
       -2
340
0
 93
        0
 40
0.045
309
GRIDFORMAT_END
309
TABLEFORMAT_END
  1
CELLSTYLE_BEGIN
 90
        3
 91
        2
300
_DATA
309
CELLSTYLE_END
  0
XRECORD
  5
1528
102
{ACAD_REACTORS
330
B42
102
}
330
B42
100
AcDbXrecord
280
     1
102
ACAD_ROUNDTRIP_PRE2007_TABLESTYLE
 90
      512
 91
        0
  1

 92
      512
 93
        0
  2

 94
      512
 95
        0
  3

  0
XRECORD
  5
1503
102
{ACAD_REACTORS
330
1502
102
}
330
1502
100
AcDbXrecord
280
     1
102
RTVSPropertyOp0
 70
     1
102
RTVSPropertyOp1
 70
     1
102
RTVSPropertyOp2
 70
     1
102
RTVSPropertyOp3
 70
     1
102
RTVSPropertyOp4
 70
     1
102
RTVSPropertyOp5
 70
     1
102
RTVSPropertyOp6
 70
     1
102
RTVSPropertyOp7
 70
     1
102
RTVSPropertyOp8
 70
     1
102
RTVSPropertyOp9
 70
     1
102
RTVSPropertyOp10
 70
     1
102
RTVSPropertyOp11
 70
     1
102
RTVSPropertyOp12
 70
     1
102
RTVSPropertyOp13
 70
     1
102
RTVSPropertyOp14
 70
     1
102
RTVSPropertyOp15
 70
     1
102
RTVSPropertyOp16
 70
     1
102
RTVSPropertyOp17
 70
     1
102
RTVSPropertyOp18
 70
     1
102
RTVSPropertyOp19
 70
     1
102
RTVSPropertyOp20
 70
     1
102
RTVSPropertyOp21
 70
     1
102
RTVSPropertyOp22
 70
     1
102
RTVSPropertyOp23
 70
     1
102
RTVSPropertyOp24
 70
     1
102
RTVSPropertyOp25
 70
     1
102
RTVSPropertyOp26
 70
     1
102
RTVSPropertyOp27
 70
     1
102
RTVSPropertyOp28
 70
     1
102
RTVSPropertyOp29
 70
     1
102
RTVSPropertyOp30
 70
     1
102
RTVSPropertyOp31
 70
     1
102
RTVSPropertyOp32
 70
     1
  0
XRECORD
  5
152E
102
{ACAD_REACTORS
330
152D
102
}
330
152D
100
AcDbXrecord
280
     1
102
RTVSPropertyOp0
 70
     1
102
RTVSPropertyOp1
 70
     1
102
RTVSPropertyOp2
 70
     1
102
RTVSPropertyOp3
 70
     1
102
RTVSPropertyOp4
 70
     1
102
RTVSPropertyOp5
 70
     1
102
RTVSPropertyOp6
 70
     1
102
RTVSPropertyOp7
 70
     1
102
RTVSPropertyOp8
 70
     1
102
RTVSPropertyOp9
 70
     1
102
RTVSPropertyOp10
 70
     1
102
RTVSPropertyOp11
 70
     1
102
RTVSPropertyOp12
 70
     1
102
RTVSPropertyOp13
 70
     1
102
RTVSPropertyOp14
 70
     1
102
RTVSPropertyOp15
 70
     1
102
RTVSPropertyOp16
 70
     1
102
RTVSPropertyOp17
 70
     1
102
RTVSPropertyOp18
 70
     1
102
RTVSPropertyOp19
 70
     1
102
RTVSPropertyOp20
 70
     1
102
RTVSPropertyOp21
 70
     1
102
RTVSPropertyOp22
 70
     1
102
RTVSPropertyOp23
 70
     1
102
RTVSPropertyOp24
 70
     1
102
RTVSPropertyOp25
 70
     1
102
RTVSPropertyOp26
 70
     1
102
RTVSPropertyOp27
 70
     1
102
RTVSPropertyOp28
 70
     1
102
RTVSPropertyOp29
 70
     1
102
RTVSPropertyOp30
 70
     1
102
RTVSPropertyOp31
 70
     1
102
RTVSPropertyOp32
 70
     1
  0
XRECORD
  5
1501
102
{ACAD_REACTORS
330
1500
102
}
330
1500
100
AcDbXrecord
280
     1
102
RTVSPropertyOp0
 70
     1
102
RTVSPropertyOp1
 70
     1
102
RTVSPropertyOp2
 70
     1
102
RTVSPropertyOp3
 70
     1
102
RTVSPropertyOp4
 70
     1
102
RTVSPropertyOp5
 70
     1
102
RTVSPropertyOp6
 70
     1
102
RTVSPropertyOp7
 70
     1
102
RTVSPropertyOp8
 70
     1
102
RTVSPropertyOp9
 70
     1
102
RTVSPropertyOp10
 70
     1
102
RTVSPropertyOp11
 70
     1
102
RTVSPropertyOp12
 70
     1
102
RTVSPropertyOp13
 70
     1
102
RTVSPropertyOp14
 70
     1
102
RTVSPropertyOp15
 70
     1
102
RTVSPropertyOp16
 70
     1
102
RTVSPropertyOp17
 70
     1
102
RTVSPropertyOp18
 70
     1
102
RTVSPropertyOp19
 70
     1
102
RTVSPropertyOp20
 70
     1
102
RTVSPropertyOp21
 70
     1
102
RTVSPropertyOp22
 70
     1
102
RTVSPropertyOp23
 70
     1
102
RTVSPropertyOp24
 70
     1
102
RTVSPropertyOp25
 70
     1
102
RTVSPropertyOp26
 70
     1
102
RTVSPropertyOp27
 70
     1
102
RTVSPropertyOp28
 70
     1
102
RTVSPropertyOp29
 70
     1
102
RTVSPropertyOp30
 70
     1
102
RTVSPropertyOp31
 70
     1
102
RTVSPropertyOp32
 70
     1
  0
XRECORD
  5
150F
102
{ACAD_REACTORS
330
150E
102
}
330
150E
100
AcDbXrecord
280
     1
102
RTVSPropertyOp0
 70
     1
102
RTVSPropertyOp1
 70
     1
102
RTVSPropertyOp2
 70
     1
102
RTVSPropertyOp3
 70
     1
102
RTVSPropertyOp4
 70
     1
102
RTVSPropertyOp5
 70
     1
102
RTVSPropertyOp6
 70
     1
102
RTVSPropertyOp7
 70
     1
102
RTVSPropertyOp8
 70
     1
102
RTVSPropertyOp9
 70
     1
102
RTVSPropertyOp10
 70
     1
102
RTVSPropertyOp11
 70
     1
102
RTVSPropertyOp12
 70
     1
102
RTVSPropertyOp13
 70
     1
102
RTVSPropertyOp14
 70
     1
102
RTVSPropertyOp15
 70
     1
102
RTVSPropertyOp16
 70
     1
102
RTVSPropertyOp17
 70
     1
102
RTVSPropertyOp18
 70
     1
102
RTVSPropertyOp19
 70
     1
102
RTVSPropertyOp20
 70
     1
102
RTVSPropertyOp21
 70
     1
102
RTVSPropertyOp22
 70
     1
102
RTVSPropertyOp23
 70
     1
102
RTVSPropertyOp24
 70
     1
102
RTVSPropertyOp25
 70
     1
102
RTVSPropertyOp26
 70
     1
102
RTVSPropertyOp27
 70
     1
102
RTVSPropertyOp28
 70
     1
102
RTVSPropertyOp29
 70
     1
102
RTVSPropertyOp30
 70
     1
102
RTVSPropertyOp31
 70
     1
102
RTVSPropertyOp32
 70
     1
  0
XRECORD
  5
1517
102
{ACAD_REACTORS
330
1516
102
}
330
1516
100
AcDbXrecord
280
     1
102
RTVSPropertyOp0
 70
     1
102
RTVSPropertyOp1
 70
     1
102
RTVSPropertyOp2
 70
     1
102
RTVSPropertyOp3
 70
     1
102
RTVSPropertyOp4
 70
     1
102
RTVSPropertyOp5
 70
     1
102
RTVSPropertyOp6
 70
     1
102
RTVSPropertyOp7
 70
     1
102
RTVSPropertyOp8
 70
     1
102
RTVSPropertyOp9
 70
     1
102
RTVSPropertyOp10
 70
     1
102
RTVSPropertyOp11
 70
     1
102
RTVSPropertyOp12
 70
     1
102
RTVSPropertyOp13
 70
     1
102
RTVSPropertyOp14
 70
     1
102
RTVSPropertyOp15
 70
     1
102
RTVSPropertyOp16
 70
     1
102
RTVSPropertyOp17
 70
     1
102
RTVSPropertyOp18
 70
     1
102
RTVSPropertyOp19
 70
     1
102
RTVSPropertyOp20
 70
     1
102
RTVSPropertyOp21
 70
     1
102
RTVSPropertyOp22
 70
     1
102
RTVSPropertyOp23
 70
     1
102
RTVSPropertyOp24
 70
     1
102
RTVSPropertyOp25
 70
     1
102
RTVSPropertyOp26
 70
     1
102
RTVSPropertyOp27
 70
     1
102
RTVSPropertyOp28
 70
     1
102
RTVSPropertyOp29
 70
     1
102
RTVSPropertyOp30
 70
     1
102
RTVSPropertyOp31
 70
     1
102
RTVSPropertyOp32
 70
     1
  0
XRECORD
  5
1509
102
{ACAD_REACTORS
330
1508
102
}
330
1508
100
AcDbXrecord
280
     1
102
RTVSPropertyOp0
 70
     1
102
RTVSPropertyOp1
 70
     1
102
RTVSPropertyOp2
 70
     1
102
RTVSPropertyOp3
 70
     1
102
RTVSPropertyOp4
 70
     1
102
RTVSPropertyOp5
 70
     1
102
RTVSPropertyOp6
 70
     1
102
RTVSPropertyOp7
 70
     1
102
RTVSPropertyOp8
 70
     1
102
RTVSPropertyOp9
 70
     1
102
RTVSPropertyOp10
 70
     1
102
RTVSPropertyOp11
 70
     1
102
RTVSPropertyOp12
 70
     1
102
RTVSPropertyOp13
 70
     1
102
RTVSPropertyOp14
 70
     1
102
RTVSPropertyOp15
 70
     1
102
RTVSPropertyOp16
 70
     1
102
RTVSPropertyOp17
 70
     1
102
RTVSPropertyOp18
 70
     1
102
RTVSPropertyOp19
 70
     1
102
RTVSPropertyOp20
 70
     1
102
RTVSPropertyOp21
 70
     1
102
RTVSPropertyOp22
 70
     1
102
RTVSPropertyOp23
 70
     1
102
RTVSPropertyOp24
 70
     1
102
RTVSPropertyOp25
 70
     1
102
RTVSPropertyOp26
 70
     1
102
RTVSPropertyOp27
 70
     1
102
RTVSPropertyOp28
 70
     1
102
RTVSPropertyOp29
 70
     1
102
RTVSPropertyOp30
 70
     1
102
RTVSPropertyOp31
 70
     1
102
RTVSPropertyOp32
 70
     1
  0
XRECORD
  5
150D
102
{ACAD_REACTORS
330
150C
102
}
330
150C
100
AcDbXrecord
280
     1
102
RTVSPropertyOp0
 70
     1
102
RTVSPropertyOp1
 70
     1
102
RTVSPropertyOp2
 70
     1
102
RTVSPropertyOp3
 70
     1
102
RTVSPropertyOp4
 70
     1
102
RTVSPropertyOp5
 70
     1
102
RTVSPropertyOp6
 70
     1
102
RTVSPropertyOp7
 70
     1
102
RTVSPropertyOp8
 70
     1
102
RTVSPropertyOp9
 70
     1
102
RTVSPropertyOp10
 70
     1
102
RTVSPropertyOp11
 70
     1
102
RTVSPropertyOp12
 70
     1
102
RTVSPropertyOp13
 70
     1
102
RTVSPropertyOp14
 70
     1
102
RTVSPropertyOp15
 70
     1
102
RTVSPropertyOp16
 70
     1
102
RTVSPropertyOp17
 70
     1
102
RTVSPropertyOp18
 70
     1
102
RTVSPropertyOp19
 70
     1
102
RTVSPropertyOp20
 70
     1
102
RTVSPropertyOp21
 70
     1
102
RTVSPropertyOp22
 70
     1
102
RTVSPropertyOp23
 70
     1
102
RTVSPropertyOp24
 70
     1
102
RTVSPropertyOp25
 70
     1
102
RTVSPropertyOp26
 70
     1
102
RTVSPropertyOp27
 70
     1
102
RTVSPropertyOp28
 70
     1
102
RTVSPropertyOp29
 70
     1
102
RTVSPropertyOp30
 70
     1
102
RTVSPropertyOp31
 70
     1
102
RTVSPropertyOp32
 70
     1
  0
XRECORD
  5
1527
102
{ACAD_REACTORS
330
1526
102
}
330
1526
100
AcDbXrecord
280
     1
102
RTVSPropertyOp0
 70
     0
102
RTVSPropertyOp1
 70
     0
102
RTVSPropertyOp2
 70
     0
102
RTVSPropertyOp3
 70
     0
102
RTVSPropertyOp4
 70
     0
102
RTVSPropertyOp5
 70
     0
102
RTVSPropertyOp6
 70
     0
102
RTVSPropertyOp7
 70
     0
102
RTVSPropertyOp8
 70
     0
102
RTVSPropertyOp9
 70
     0
102
RTVSPropertyOp10
 70
     0
102
RTVSPropertyOp11
 70
     0
102
RTVSPropertyOp12
 70
     0
102
RTVSPropertyOp13
 70
     0
102
RTVSPropertyOp14
 70
     2
102
RTVSPropertyOp15
 70
     0
102
RTVSPropertyOp16
 70
     0
102
RTVSPropertyOp17
 70
     0
102
RTVSPropertyOp18
 70
     0
102
RTVSPropertyOp19
 70
     0
102
RTVSPropertyOp20
 70
     0
102
RTVSPropertyOp21
 70
     0
102
RTVSPropertyOp22
 70
     0
102
RTVSPropertyOp23
 70
     0
102
RTVSPropertyOp24
 70
     0
102
RTVSPropertyOp25
 70
     0
102
RTVSPropertyOp26
 70
     0
102
RTVSPropertyOp27
 70
     0
102
RTVSPropertyOp28
 70
     0
102
RTVSPropertyOp29
 70
     0
102
RTVSPropertyOp30
 70
     0
102
RTVSPropertyOp31
 70
     0
102
RTVSPropertyOp32
 70
     0
  0
XRECORD
  5
1515
102
{ACAD_REACTORS
330
1514
102
}
330
1514
100
AcDbXrecord
280
     1
102
RTVSPropertyOp0
 70
     1
102
RTVSPropertyOp1
 70
     1
102
RTVSPropertyOp2
 70
     1
102
RTVSPropertyOp3
 70
     1
102
RTVSPropertyOp4
 70
     1
102
RTVSPropertyOp5
 70
     1
102
RTVSPropertyOp6
 70
     1
102
RTVSPropertyOp7
 70
     1
102
RTVSPropertyOp8
 70
     1
102
RTVSPropertyOp9
 70
     1
102
RTVSPropertyOp10
 70
     1
102
RTVSPropertyOp11
 70
     1
102
RTVSPropertyOp12
 70
     1
102
RTVSPropertyOp13
 70
     1
102
RTVSPropertyOp14
 70
     1
102
RTVSPropertyOp15
 70
     1
102
RTVSPropertyOp16
 70
     1
102
RTVSPropertyOp17
 70
     1
102
RTVSPropertyOp18
 70
     1
102
RTVSPropertyOp19
 70
     1
102
RTVSPropertyOp20
 70
     1
102
RTVSPropertyOp21
 70
     1
102
RTVSPropertyOp22
 70
     1
102
RTVSPropertyOp23
 70
     1
102
RTVSPropertyOp24
 70
     1
102
RTVSPropertyOp25
 70
     1
102
RTVSPropertyOp26
 70
     1
102
RTVSPropertyOp27
 70
     1
102
RTVSPropertyOp28
 70
     1
102
RTVSPropertyOp29
 70
     1
102
RTVSPropertyOp30
 70
     1
102
RTVSPropertyOp31
 70
     1
102
RTVSPropertyOp32
 70
     1
  0
XRECORD
  5
14F9
102
{ACAD_REACTORS
330
14F8
102
}
330
14F8
100
AcDbXrecord
280
     1
102
RTVSPropertyOp0
 70
     1
102
RTVSPropertyOp1
 70
     1
102
RTVSPropertyOp2
 70
     1
102
RTVSPropertyOp3
 70
     1
102
RTVSPropertyOp4
 70
     1
102
RTVSPropertyOp5
 70
     1
102
RTVSPropertyOp6
 70
     1
102
RTVSPropertyOp7
 70
     1
102
RTVSPropertyOp8
 70
     1
102
RTVSPropertyOp9
 70
     1
102
RTVSPropertyOp10
 70
     1
102
RTVSPropertyOp11
 70
     1
102
RTVSPropertyOp12
 70
     1
102
RTVSPropertyOp13
 70
     1
102
RTVSPropertyOp14
 70
     1
102
RTVSPropertyOp15
 70
     1
102
RTVSPropertyOp16
 70
     1
102
RTVSPropertyOp17
 70
     1
102
RTVSPropertyOp18
 70
     1
102
RTVSPropertyOp19
 70
     1
102
RTVSPropertyOp20
 70
     1
102
RTVSPropertyOp21
 70
     1
102
RTVSPropertyOp22
 70
     1
102
RTVSPropertyOp23
 70
     1
102
RTVSPropertyOp24
 70
     1
102
RTVSPropertyOp25
 70
     1
102
RTVSPropertyOp26
 70
     1
102
RTVSPropertyOp27
 70
     1
102
RTVSPropertyOp28
 70
     1
102
RTVSPropertyOp29
 70
     1
102
RTVSPropertyOp30
 70
     1
102
RTVSPropertyOp31
 70
     1
102
RTVSPropertyOp32
 70
     1
  0
XRECORD
  5
14FB
102
{ACAD_REACTORS
330
14FA
102
}
330
14FA
100
AcDbXrecord
280
     1
102
RTVSPropertyOp0
 70
     1
102
RTVSPropertyOp1
 70
     1
102
RTVSPropertyOp2
 70
     1
102
RTVSPropertyOp3
 70
     1
102
RTVSPropertyOp4
 70
     1
102
RTVSPropertyOp5
 70
     1
102
RTVSPropertyOp6
 70
     1
102
RTVSPropertyOp7
 70
     1
102
RTVSPropertyOp8
 70
     1
102
RTVSPropertyOp9
 70
     1
102
RTVSPropertyOp10
 70
     1
102
RTVSPropertyOp11
 70
     1
102
RTVSPropertyOp12
 70
     1
102
RTVSPropertyOp13
 70
     1
102
RTVSPropertyOp14
 70
     1
102
RTVSPropertyOp15
 70
     1
102
RTVSPropertyOp16
 70
     1
102
RTVSPropertyOp17
 70
     1
102
RTVSPropertyOp18
 70
     1
102
RTVSPropertyOp19
 70
     1
102
RTVSPropertyOp20
 70
     1
102
RTVSPropertyOp21
 70
     1
102
RTVSPropertyOp22
 70
     1
102
RTVSPropertyOp23
 70
     1
102
RTVSPropertyOp24
 70
     1
102
RTVSPropertyOp25
 70
     1
102
RTVSPropertyOp26
 70
     1
102
RTVSPropertyOp27
 70
     1
102
RTVSPropertyOp28
 70
     1
102
RTVSPropertyOp29
 70
     1
102
RTVSPropertyOp30
 70
     1
102
RTVSPropertyOp31
 70
     1
102
RTVSPropertyOp32
 70
     1
  0
XRECORD
  5
14FD
102
{ACAD_REACTORS
330
14FC
102
}
330
14FC
100
AcDbXrecord
280
     1
102
RTVSPropertyOp0
 70
     1
102
RTVSPropertyOp1
 70
     1
102
RTVSPropertyOp2
 70
     1
102
RTVSPropertyOp3
 70
     1
102
RTVSPropertyOp4
 70
     1
102
RTVSPropertyOp5
 70
     1
102
RTVSPropertyOp6
 70
     1
102
RTVSPropertyOp7
 70
     1
102
RTVSPropertyOp8
 70
     1
102
RTVSPropertyOp9
 70
     1
102
RTVSPropertyOp10
 70
     1
102
RTVSPropertyOp11
 70
     1
102
RTVSPropertyOp12
 70
     1
102
RTVSPropertyOp13
 70
     1
102
RTVSPropertyOp14
 70
     1
102
RTVSPropertyOp15
 70
     1
102
RTVSPropertyOp16
 70
     1
102
RTVSPropertyOp17
 70
     1
102
RTVSPropertyOp18
 70
     1
102
RTVSPropertyOp19
 70
     1
102
RTVSPropertyOp20
 70
     1
102
RTVSPropertyOp21
 70
     1
102
RTVSPropertyOp22
 70
     1
102
RTVSPropertyOp23
 70
     1
102
RTVSPropertyOp24
 70
     1
102
RTVSPropertyOp25
 70
     1
102
RTVSPropertyOp26
 70
     1
102
RTVSPropertyOp27
 70
     1
102
RTVSPropertyOp28
 70
     1
102
RTVSPropertyOp29
 70
     1
102
RTVSPropertyOp30
 70
     1
102
RTVSPropertyOp31
 70
     1
102
RTVSPropertyOp32
 70
     1
  0
XRECORD
  5
14FF
102
{ACAD_REACTORS
330
14FE
102
}
330
14FE
100
AcDbXrecord
280
     1
102
RTVSPropertyOp0
 70
     1
102
RTVSPropertyOp1
 70
     1
102
RTVSPropertyOp2
 70
     1
102
RTVSPropertyOp3
 70
     1
102
RTVSPropertyOp4
 70
     1
102
RTVSPropertyOp5
 70
     1
102
RTVSPropertyOp6
 70
     1
102
RTVSPropertyOp7
 70
     1
102
RTVSPropertyOp8
 70
     1
102
RTVSPropertyOp9
 70
     1
102
RTVSPropertyOp10
 70
     1
102
RTVSPropertyOp11
 70
     1
102
RTVSPropertyOp12
 70
     1
102
RTVSPropertyOp13
 70
     1
102
RTVSPropertyOp14
 70
     1
102
RTVSPropertyOp15
 70
     1
102
RTVSPropertyOp16
 70
     1
102
RTVSPropertyOp17
 70
     1
102
RTVSPropertyOp18
 70
     1
102
RTVSPropertyOp19
 70
     1
102
RTVSPropertyOp20
 70
     1
102
RTVSPropertyOp21
 70
     1
102
RTVSPropertyOp22
 70
     1
102
RTVSPropertyOp23
 70
     1
102
RTVSPropertyOp24
 70
     1
102
RTVSPropertyOp25
 70
     1
102
RTVSPropertyOp26
 70
     1
102
RTVSPropertyOp27
 70
     1
102
RTVSPropertyOp28
 70
     1
102
RTVSPropertyOp29
 70
     1
102
RTVSPropertyOp30
 70
     1
102
RTVSPropertyOp31
 70
     1
102
RTVSPropertyOp32
 70
     1
  0
XRECORD
  5
1507
102
{ACAD_REACTORS
330
1506
102
}
330
1506
100
AcDbXrecord
280
     1
102
RTVSPropertyOp0
 70
     1
102
RTVSPropertyOp1
 70
     1
102
RTVSPropertyOp2
 70
     1
102
RTVSPropertyOp3
 70
     1
102
RTVSPropertyOp4
 70
     1
102
RTVSPropertyOp5
 70
     1
102
RTVSPropertyOp6
 70
     1
102
RTVSPropertyOp7
 70
     1
102
RTVSPropertyOp8
 70
     1
102
RTVSPropertyOp9
 70
     1
102
RTVSPropertyOp10
 70
     1
102
RTVSPropertyOp11
 70
     1
102
RTVSPropertyOp12
 70
     1
102
RTVSPropertyOp13
 70
     1
102
RTVSPropertyOp14
 70
     1
102
RTVSPropertyOp15
 70
     1
102
RTVSPropertyOp16
 70
     1
102
RTVSPropertyOp17
 70
     1
102
RTVSPropertyOp18
 70
     1
102
RTVSPropertyOp19
 70
     1
102
RTVSPropertyOp20
 70
     1
102
RTVSPropertyOp21
 70
     1
102
RTVSPropertyOp22
 70
     1
102
RTVSPropertyOp23
 70
     1
102
RTVSPropertyOp24
 70
     1
102
RTVSPropertyOp25
 70
     1
102
RTVSPropertyOp26
 70
     1
102
RTVSPropertyOp27
 70
     1
102
RTVSPropertyOp28
 70
     1
102
RTVSPropertyOp29
 70
     1
102
RTVSPropertyOp30
 70
     1
102
RTVSPropertyOp31
 70
     1
102
RTVSPropertyOp32
 70
     1
  0
XRECORD
  5
1523
102
{ACAD_REACTORS
330
1522
102
}
330
1522
100
AcDbXrecord
280
     1
102
RTVSPropertyOp0
 70
     0
102
RTVSPropertyOp1
 70
     0
102
RTVSPropertyOp2
 70
     0
102
RTVSPropertyOp3
 70
     0
102
RTVSPropertyOp4
 70
     0
102
RTVSPropertyOp5
 70
     0
102
RTVSPropertyOp6
 70
     0
102
RTVSPropertyOp7
 70
     0
102
RTVSPropertyOp8
 70
     0
102
RTVSPropertyOp9
 70
     0
102
RTVSPropertyOp10
 70
     0
102
RTVSPropertyOp11
 70
     0
102
RTVSPropertyOp12
 70
     0
102
RTVSPropertyOp13
 70
     0
102
RTVSPropertyOp14
 70
     2
102
RTVSPropertyOp15
 70
     0
102
RTVSPropertyOp16
 70
     0
102
RTVSPropertyOp17
 70
     0
102
RTVSPropertyOp18
 70
     0
102
RTVSPropertyOp19
 70
     0
102
RTVSPropertyOp20
 70
     0
102
RTVSPropertyOp21
 70
     0
102
RTVSPropertyOp22
 70
     0
102
RTVSPropertyOp23
 70
     0
102
RTVSPropertyOp24
 70
     0
102
RTVSPropertyOp25
 70
     0
102
RTVSPropertyOp26
 70
     0
102
RTVSPropertyOp27
 70
     0
102
RTVSPropertyOp28
 70
     0
102
RTVSPropertyOp29
 70
     0
102
RTVSPropertyOp30
 70
     0
102
RTVSPropertyOp31
 70
     0
102
RTVSPropertyOp32
 70
     0
  0
XRECORD
  5
1513
102
{ACAD_REACTORS
330
1512
102
}
330
1512
100
AcDbXrecord
280
     1
102
RTVSPropertyOp0
 70
     1
102
RTVSPropertyOp1
 70
     1
102
RTVSPropertyOp2
 70
     1
102
RTVSPropertyOp3
 70
     1
102
RTVSPropertyOp4
 70
     1
102
RTVSPropertyOp5
 70
     1
102
RTVSPropertyOp6
 70
     1
102
RTVSPropertyOp7
 70
     1
102
RTVSPropertyOp8
 70
     1
102
RTVSPropertyOp9
 70
     1
102
RTVSPropertyOp10
 70
     1
102
RTVSPropertyOp11
 70
     1
102
RTVSPropertyOp12
 70
     1
102
RTVSPropertyOp13
 70
     1
102
RTVSPropertyOp14
 70
     1
102
RTVSPropertyOp15
 70
     1
102
RTVSPropertyOp16
 70
     1
102
RTVSPropertyOp17
 70
     1
102
RTVSPropertyOp18
 70
     1
102
RTVSPropertyOp19
 70
     1
102
RTVSPropertyOp20
 70
     1
102
RTVSPropertyOp21
 70
     1
102
RTVSPropertyOp22
 70
     1
102
RTVSPropertyOp23
 70
     1
102
RTVSPropertyOp24
 70
     1
102
RTVSPropertyOp25
 70
     1
102
RTVSPropertyOp26
 70
     1
102
RTVSPropertyOp27
 70
     1
102
RTVSPropertyOp28
 70
     1
102
RTVSPropertyOp29
 70
     1
102
RTVSPropertyOp30
 70
     1
102
RTVSPropertyOp31
 70
     1
102
RTVSPropertyOp32
 70
     1
  0
XRECORD
  5
1525
102
{ACAD_REACTORS
330
1524
102
}
330
1524
100
AcDbXrecord
280
     1
102
RTVSPropertyOp0
 70
     0
102
RTVSPropertyOp1
 70
     0
102
RTVSPropertyOp2
 70
     0
102
RTVSPropertyOp3
 70
     0
102
RTVSPropertyOp4
 70
     0
102
RTVSPropertyOp5
 70
     0
102
RTVSPropertyOp6
 70
     0
102
RTVSPropertyOp7
 70
     0
102
RTVSPropertyOp8
 70
     0
102
RTVSPropertyOp9
 70
     0
102
RTVSPropertyOp10
 70
     0
102
RTVSPropertyOp11
 70
     0
102
RTVSPropertyOp12
 70
     0
102
RTVSPropertyOp13
 70
     0
102
RTVSPropertyOp14
 70
     2
102
RTVSPropertyOp15
 70
     0
102
RTVSPropertyOp16
 70
     0
102
RTVSPropertyOp17
 70
     0
102
RTVSPropertyOp18
 70
     0
102
RTVSPropertyOp19
 70
     0
102
RTVSPropertyOp20
 70
     0
102
RTVSPropertyOp21
 70
     0
102
RTVSPropertyOp22
 70
     0
102
RTVSPropertyOp23
 70
     0
102
RTVSPropertyOp24
 70
     0
102
RTVSPropertyOp25
 70
     0
102
RTVSPropertyOp26
 70
     0
102
RTVSPropertyOp27
 70
     0
102
RTVSPropertyOp28
 70
     0
102
RTVSPropertyOp29
 70
     0
102
RTVSPropertyOp30
 70
     0
102
RTVSPropertyOp31
 70
     0
102
RTVSPropertyOp32
 70
     0
  0
XRECORD
  5
150B
102
{ACAD_REACTORS
330
150A
102
}
330
150A
100
AcDbXrecord
280
     1
102
RTVSPropertyOp0
 70
     1
102
RTVSPropertyOp1
 70
     1
102
RTVSPropertyOp2
 70
     1
102
RTVSPropertyOp3
 70
     1
102
RTVSPropertyOp4
 70
     1
102
RTVSPropertyOp5
 70
     1
102
RTVSPropertyOp6
 70
     1
102
RTVSPropertyOp7
 70
     1
102
RTVSPropertyOp8
 70
     1
102
RTVSPropertyOp9
 70
     1
102
RTVSPropertyOp10
 70
     1
102
RTVSPropertyOp11
 70
     1
102
RTVSPropertyOp12
 70
     1
102
RTVSPropertyOp13
 70
     1
102
RTVSPropertyOp14
 70
     1
102
RTVSPropertyOp15
 70
     1
102
RTVSPropertyOp16
 70
     1
102
RTVSPropertyOp17
 70
     1
102
RTVSPropertyOp18
 70
     1
102
RTVSPropertyOp19
 70
     1
102
RTVSPropertyOp20
 70
     1
102
RTVSPropertyOp21
 70
     1
102
RTVSPropertyOp22
 70
     1
102
RTVSPropertyOp23
 70
     1
102
RTVSPropertyOp24
 70
     1
102
RTVSPropertyOp25
 70
     1
102
RTVSPropertyOp26
 70
     1
102
RTVSPropertyOp27
 70
     1
102
RTVSPropertyOp28
 70
     1
102
RTVSPropertyOp29
 70
     1
102
RTVSPropertyOp30
 70
     1
102
RTVSPropertyOp31
 70
     1
102
RTVSPropertyOp32
 70
     1
  0
XRECORD
  5
1521
102
{ACAD_REACTORS
330
1520
102
}
330
1520
100
AcDbXrecord
280
     1
102
RTVSPropertyOp0
 70
     1
102
RTVSPropertyOp1
 70
     1
102
RTVSPropertyOp2
 70
     1
102
RTVSPropertyOp3
 70
     1
102
RTVSPropertyOp4
 70
     1
102
RTVSPropertyOp5
 70
     1
102
RTVSPropertyOp6
 70
     1
102
RTVSPropertyOp7
 70
     1
102
RTVSPropertyOp8
 70
     1
102
RTVSPropertyOp9
 70
     1
102
RTVSPropertyOp10
 70
     1
102
RTVSPropertyOp11
 70
     1
102
RTVSPropertyOp12
 70
     1
102
RTVSPropertyOp13
 70
     1
102
RTVSPropertyOp14
 70
     1
102
RTVSPropertyOp15
 70
     1
102
RTVSPropertyOp16
 70
     1
102
RTVSPropertyOp17
 70
     1
102
RTVSPropertyOp18
 70
     1
102
RTVSPropertyOp19
 70
     1
102
RTVSPropertyOp20
 70
     1
102
RTVSPropertyOp21
 70
     1
102
RTVSPropertyOp22
 70
     1
102
RTVSPropertyOp23
 70
     1
102
RTVSPropertyOp24
 70
     1
102
RTVSPropertyOp25
 70
     1
102
RTVSPropertyOp26
 70
     1
102
RTVSPropertyOp27
 70
     1
102
RTVSPropertyOp28
 70
     1
102
RTVSPropertyOp29
 70
     1
102
RTVSPropertyOp30
 70
     1
102
RTVSPropertyOp31
 70
     1
102
RTVSPropertyOp32
 70
     1
  0
XRECORD
  5
151F
102
{ACAD_REACTORS
330
151E
102
}
330
151E
100
AcDbXrecord
280
     1
102
RTVSPropertyOp0
 70
     1
102
RTVSPropertyOp1
 70
     1
102
RTVSPropertyOp2
 70
     1
102
RTVSPropertyOp3
 70
     1
102
RTVSPropertyOp4
 70
     1
102
RTVSPropertyOp5
 70
     1
102
RTVSPropertyOp6
 70
     1
102
RTVSPropertyOp7
 70
     1
102
RTVSPropertyOp8
 70
     1
102
RTVSPropertyOp9
 70
     1
102
RTVSPropertyOp10
 70
     1
102
RTVSPropertyOp11
 70
     1
102
RTVSPropertyOp12
 70
     1
102
RTVSPropertyOp13
 70
     1
102
RTVSPropertyOp14
 70
     1
102
RTVSPropertyOp15
 70
     1
102
RTVSPropertyOp16
 70
     1
102
RTVSPropertyOp17
 70
     1
102
RTVSPropertyOp18
 70
     1
102
RTVSPropertyOp19
 70
     1
102
RTVSPropertyOp20
 70
     1
102
RTVSPropertyOp21
 70
     1
102
RTVSPropertyOp22
 70
     1
102
RTVSPropertyOp23
 70
     1
102
RTVSPropertyOp24
 70
     1
102
RTVSPropertyOp25
 70
     1
102
RTVSPropertyOp26
 70
     1
102
RTVSPropertyOp27
 70
     1
102
RTVSPropertyOp28
 70
     1
102
RTVSPropertyOp29
 70
     1
102
RTVSPropertyOp30
 70
     1
102
RTVSPropertyOp31
 70
     1
102
RTVSPropertyOp32
 70
     1
  0
XRECORD
  5
1519
102
{ACAD_REACTORS
330
1518
102
}
330
1518
100
AcDbXrecord
280
     1
102
RTVSPropertyOp0
 70
     1
102
RTVSPropertyOp1
 70
     1
102
RTVSPropertyOp2
 70
     1
102
RTVSPropertyOp3
 70
     1
102
RTVSPropertyOp4
 70
     1
102
RTVSPropertyOp5
 70
     1
102
RTVSPropertyOp6
 70
     1
102
RTVSPropertyOp7
 70
     1
102
RTVSPropertyOp8
 70
     1
102
RTVSPropertyOp9
 70
     1
102
RTVSPropertyOp10
 70
     1
102
RTVSPropertyOp11
 70
     1
102
RTVSPropertyOp12
 70
     1
102
RTVSPropertyOp13
 70
     1
102
RTVSPropertyOp14
 70
     1
102
RTVSPropertyOp15
 70
     1
102
RTVSPropertyOp16
 70
     1
102
RTVSPropertyOp17
 70
     1
102
RTVSPropertyOp18
 70
     1
102
RTVSPropertyOp19
 70
     1
102
RTVSPropertyOp20
 70
     1
102
RTVSPropertyOp21
 70
     1
102
RTVSPropertyOp22
 70
     1
102
RTVSPropertyOp23
 70
     1
102
RTVSPropertyOp24
 70
     1
102
RTVSPropertyOp25
 70
     1
102
RTVSPropertyOp26
 70
     1
102
RTVSPropertyOp27
 70
     1
102
RTVSPropertyOp28
 70
     1
102
RTVSPropertyOp29
 70
     1
102
RTVSPropertyOp30
 70
     1
102
RTVSPropertyOp31
 70
     1
102
RTVSPropertyOp32
 70
     1
  0
XRECORD
  5
151B
102
{ACAD_REACTORS
330
151A
102
}
330
151A
100
AcDbXrecord
280
     1
102
RTVSPropertyOp0
 70
     1
102
RTVSPropertyOp1
 70
     1
102
RTVSPropertyOp2
 70
     1
102
RTVSPropertyOp3
 70
     1
102
RTVSPropertyOp4
 70
     1
102
RTVSPropertyOp5
 70
     1
102
RTVSPropertyOp6
 70
     1
102
RTVSPropertyOp7
 70
     1
102
RTVSPropertyOp8
 70
     1
102
RTVSPropertyOp9
 70
     1
102
RTVSPropertyOp10
 70
     1
102
RTVSPropertyOp11
 70
     1
102
RTVSPropertyOp12
 70
     1
102
RTVSPropertyOp13
 70
     1
102
RTVSPropertyOp14
 70
     1
102
RTVSPropertyOp15
 70
     1
102
RTVSPropertyOp16
 70
     1
102
RTVSPropertyOp17
 70
     1
102
RTVSPropertyOp18
 70
     1
102
RTVSPropertyOp19
 70
     1
102
RTVSPropertyOp20
 70
     1
102
RTVSPropertyOp21
 70
     1
102
RTVSPropertyOp22
 70
     1
102
RTVSPropertyOp23
 70
     1
102
RTVSPropertyOp24
 70
     1
102
RTVSPropertyOp25
 70
     1
102
RTVSPropertyOp26
 70
     1
102
RTVSPropertyOp27
 70
     1
102
RTVSPropertyOp28
 70
     1
102
RTVSPropertyOp29
 70
     1
102
RTVSPropertyOp30
 70
     1
102
RTVSPropertyOp31
 70
     1
102
RTVSPropertyOp32
 70
     1
  0
XRECORD
  5
1511
102
{ACAD_REACTORS
330
1510
102
}
330
1510
100
AcDbXrecord
280
     1
102
RTVSPropertyOp0
 70
     1
102
RTVSPropertyOp1
 70
     1
102
RTVSPropertyOp2
 70
     1
102
RTVSPropertyOp3
 70
     1
102
RTVSPropertyOp4
 70
     1
102
RTVSPropertyOp5
 70
     1
102
RTVSPropertyOp6
 70
     1
102
RTVSPropertyOp7
 70
     1
102
RTVSPropertyOp8
 70
     1
102
RTVSPropertyOp9
 70
     1
102
RTVSPropertyOp10
 70
     1
102
RTVSPropertyOp11
 70
     1
102
RTVSPropertyOp12
 70
     1
102
RTVSPropertyOp13
 70
     1
102
RTVSPropertyOp14
 70
     1
102
RTVSPropertyOp15
 70
     1
102
RTVSPropertyOp16
 70
     1
102
RTVSPropertyOp17
 70
     1
102
RTVSPropertyOp18
 70
     1
102
RTVSPropertyOp19
 70
     1
102
RTVSPropertyOp20
 70
     1
102
RTVSPropertyOp21
 70
     1
102
RTVSPropertyOp22
 70
     1
102
RTVSPropertyOp23
 70
     1
102
RTVSPropertyOp24
 70
     1
102
RTVSPropertyOp25
 70
     1
102
RTVSPropertyOp26
 70
     1
102
RTVSPropertyOp27
 70
     1
102
RTVSPropertyOp28
 70
     1
102
RTVSPropertyOp29
 70
     1
102
RTVSPropertyOp30
 70
     1
102
RTVSPropertyOp31
 70
     1
102
RTVSPropertyOp32
 70
     1
  0
XRECORD
  5
1505
102
{ACAD_REACTORS
330
1504
102
}
330
1504
100
AcDbXrecord
280
     1
102
RTVSPropertyOp0
 70
     1
102
RTVSPropertyOp1
 70
     1
102
RTVSPropertyOp2
 70
     1
102
RTVSPropertyOp3
 70
     1
102
RTVSPropertyOp4
 70
     1
102
RTVSPropertyOp5
 70
     1
102
RTVSPropertyOp6
 70
     1
102
RTVSPropertyOp7
 70
     1
102
RTVSPropertyOp8
 70
     1
102
RTVSPropertyOp9
 70
     1
102
RTVSPropertyOp10
 70
     1
102
RTVSPropertyOp11
 70
     1
102
RTVSPropertyOp12
 70
     1
102
RTVSPropertyOp13
 70
     1
102
RTVSPropertyOp14
 70
     1
102
RTVSPropertyOp15
 70
     1
102
RTVSPropertyOp16
 70
     1
102
RTVSPropertyOp17
 70
     1
102
RTVSPropertyOp18
 70
     1
102
RTVSPropertyOp19
 70
     1
102
RTVSPropertyOp20
 70
     1
102
RTVSPropertyOp21
 70
     1
102
RTVSPropertyOp22
 70
     1
102
RTVSPropertyOp23
 70
     1
102
RTVSPropertyOp24
 70
     1
102
RTVSPropertyOp25
 70
     1
102
RTVSPropertyOp26
 70
     1
102
RTVSPropertyOp27
 70
     1
102
RTVSPropertyOp28
 70
     1
102
RTVSPropertyOp29
 70
     1
102
RTVSPropertyOp30
 70
     1
102
RTVSPropertyOp31
 70
     1
102
RTVSPropertyOp32
 70
     1
  0
XRECORD
  5
151D
102
{ACAD_REACTORS
330
151C
102
}
330
151C
100
AcDbXrecord
280
     1
102
RTVSPropertyOp0
 70
     1
102
RTVSPropertyOp1
 70
     1
102
RTVSPropertyOp2
 70
     1
102
RTVSPropertyOp3
 70
     1
102
RTVSPropertyOp4
 70
     1
102
RTVSPropertyOp5
 70
     1
102
RTVSPropertyOp6
 70
     1
102
RTVSPropertyOp7
 70
     1
102
RTVSPropertyOp8
 70
     1
102
RTVSPropertyOp9
 70
     1
102
RTVSPropertyOp10
 70
     1
102
RTVSPropertyOp11
 70
     1
102
RTVSPropertyOp12
 70
     1
102
RTVSPropertyOp13
 70
     1
102
RTVSPropertyOp14
 70
     1
102
RTVSPropertyOp15
 70
     1
102
RTVSPropertyOp16
 70
     1
102
RTVSPropertyOp17
 70
     1
102
RTVSPropertyOp18
 70
     1
102
RTVSPropertyOp19
 70
     1
102
RTVSPropertyOp20
 70
     1
102
RTVSPropertyOp21
 70
     1
102
RTVSPropertyOp22
 70
     1
102
RTVSPropertyOp23
 70
     1
102
RTVSPropertyOp24
 70
     1
102
RTVSPropertyOp25
 70
     1
102
RTVSPropertyOp26
 70
     1
102
RTVSPropertyOp27
 70
     1
102
RTVSPropertyOp28
 70
     1
102
RTVSPropertyOp29
 70
     1
102
RTVSPropertyOp30
 70
     1
102
RTVSPropertyOp31
 70
     1
102
RTVSPropertyOp32
 70
     1
  0
ENDSEC
  0
EOF
