  0
SECTION
  2
HEADER
  9
$ACADVER
  1
AC1015
  9
$ACADMAINTVER
 70
    20
  9
$DWGCODEPAGE
  3
ANSI_932
  9
$INSBASE
 10
0.0
 20
0.0
 30
0.0
  9
$EXTMIN
 10
-702.1298706574217
 20
-229.1042930869116
 30
0.0
  9
$EXTMAX
 10
189.9552785600313
 20
151.632197173484
 30
0.0
  9
$LIMMIN
 10
-233.474999
 20
-131.992165
  9
$LIMMAX
 10
171.549996
 20
145.031426
  9
$ORTHOMODE
 70
     1
  9
$REGENMODE
 70
     1
  9
$FILLMODE
 70
     1
  9
$QTEXTMODE
 70
     0
  9
$MIRRTEXT
 70
     0
  9
$LTSCALE
 40
6.750383
  9
$ATTMODE
 70
     1
  9
$TEXTSIZE
 40
3.2
  9
$TRACEWID
 40
0.05
  9
$TEXTSTYLE
  7
高3.2
  9
$CLAYER
  8
0
  9
$CELTYPE
  6
ByLayer
  9
$CECOLOR
 62
   256
  9
$CELTSCALE
 40
1.0
  9
$DISPSILH
 70
     0
  9
$DIMSCALE
 40
1.0
  9
$DIMASZ
 40
2.5
  9
$DIMEXO
 40
0.25
  9
$DIMDLI
 40
0.2
  9
$DIMRND
 40
0.0
  9
$DIMDLE
 40
0.0
  9
$DIMEXE
 40
1.25
  9
$DIMTP
 40
0.0
  9
$DIMTM
 40
0.0
  9
$DIMTXT
 40
3.0
  9
$DIMCEN
 40
0.0
  9
$DIMTSZ
 40
0.0
  9
$DIMTOL
 70
     0
  9
$DIMLIM
 70
     0
  9
$DIMTIH
 70
     0
  9
$DIMTOH
 70
     0
  9
$DIMSE1
 70
     0
  9
$DIMSE2
 70
     0
  9
$DIMTAD
 70
     3
  9
$DIMZIN
 70
     8
  9
$DIMBLK
  1
Open30
  9
$DIMASO
 70
     1
  9
$DIMSHO
 70
     1
  9
$DIMPOST
  1

  9
$DIMAPOST
  1

  9
$DIMALT
 70
     0
  9
$DIMALTD
 70
     3
  9
$DIMALTF
 40
0.03937007874016
  9
$DIMLFAC
 40
1.0
  9
$DIMTOFL
 70
     1
  9
$DIMTVP
 40
0.0
  9
$DIMTIX
 70
     0
  9
$DIMSOXD
 70
     0
  9
$DIMSAH
 70
     0
  9
$DIMBLK1
  1

  9
$DIMBLK2
  1

  9
$DIMSTYLE
  2
1：1
  9
$DIMCLRD
 70
     0
  9
$DIMCLRE
 70
     0
  9
$DIMCLRT
 70
     4
  9
$DIMTFAC
 40
1.0
  9
$DIMGAP
 40
0.625
  9
$DIMJUST
 70
     0
  9
$DIMSD1
 70
     0
  9
$DIMSD2
 70
     0
  9
$DIMTOLJ
 70
     0
  9
$DIMTZIN
 70
     8
  9
$DIMALTZ
 70
     0
  9
$DIMALTTZ
 70
     0
  9
$DIMUPT
 70
     1
  9
$DIMDEC
 70
     2
  9
$DIMTDEC
 70
     2
  9
$DIMALTU
 70
     2
  9
$DIMALTTD
 70
     3
  9
$DIMTXSTY
  7
STANDARD
  9
$DIMAUNIT
 70
     0
  9
$DIMADEC
 70
     1
  9
$DIMALTRND
 40
0.0
  9
$DIMAZIN
 70
     2
  9
$DIMDSEP
 70
    46
  9
$DIMATFIT
 70
     0
  9
$DIMFRAC
 70
     0
  9
$DIMLDRBLK
  1
Open30
  9
$DIMLUNIT
 70
     2
  9
$DIMLWD
 70
    -2
  9
$DIMLWE
 70
    -2
  9
$DIMTMOVE
 70
     0
  9
$LUNITS
 70
     2
  9
$LUPREC
 70
     4
  9
$SKETCHINC
 40
0.1
  9
$FILLETRAD
 40
0.0
  9
$AUNITS
 70
     0
  9
$AUPREC
 70
     0
  9
$MENU
  1
.
  9
$ELEVATION
 40
0.0
  9
$PELEVATION
 40
0.0
  9
$THICKNESS
 40
0.0
  9
$LIMCHECK
 70
     0
  9
$CHAMFERA
 40
0.0
  9
$CHAMFERB
 40
0.0
  9
$CHAMFERC
 40
0.0
  9
$CHAMFERD
 40
0.0
  9
$SKPOLY
 70
     0
  9
$TDCREATE
 40
2456321.707640694
  9
$TDUCREATE
 40
2456321.332640694
  9
$TDUPDATE
 40
2459793.735233901
  9
$TDUUPDATE
 40
2459793.360233901
  9
$TDINDWG
 40
0.0711838194
  9
$TDUSRTIMER
 40
0.0711836921
  9
$USRTIMER
 70
     1
  9
$ANGBASE
 50
0.0
  9
$ANGDIR
 70
     0
  9
$PDMODE
 70
     0
  9
$PDSIZE
 40
0.0
  9
$PLINEWID
 40
0.0
  9
$SPLFRAME
 70
     0
  9
$SPLINETYPE
 70
     6
  9
$SPLINESEGS
 70
     8
  9
$HANDSEED
  5
136F
  9
$SURFTAB1
 70
     6
  9
$SURFTAB2
 70
     6
  9
$SURFTYPE
 70
     6
  9
$SURFU
 70
     6
  9
$SURFV
 70
     6
  9
$UCSBASE
  2

  9
$UCSNAME
  2

  9
$UCSORG
 10
0.0
 20
0.0
 30
0.0
  9
$UCSXDIR
 10
1.0
 20
0.0
 30
0.0
  9
$UCSYDIR
 10
0.0
 20
1.0
 30
0.0
  9
$UCSORTHOREF
  2

  9
$UCSORTHOVIEW
 70
     0
  9
$UCSORGTOP
 10
0.0
 20
0.0
 30
0.0
  9
$UCSORGBOTTOM
 10
0.0
 20
0.0
 30
0.0
  9
$UCSORGLEFT
 10
0.0
 20
0.0
 30
0.0
  9
$UCSORGRIGHT
 10
0.0
 20
0.0
 30
0.0
  9
$UCSORGFRONT
 10
0.0
 20
0.0
 30
0.0
  9
$UCSORGBACK
 10
0.0
 20
0.0
 30
0.0
  9
$PUCSBASE
  2

  9
$PUCSNAME
  2

  9
$PUCSORG
 10
0.0
 20
0.0
 30
0.0
  9
$PUCSXDIR
 10
1.0
 20
0.0
 30
0.0
  9
$PUCSYDIR
 10
0.0
 20
1.0
 30
0.0
  9
$PUCSORTHOREF
  2

  9
$PUCSORTHOVIEW
 70
     0
  9
$PUCSORGTOP
 10
0.0
 20
0.0
 30
0.0
  9
$PUCSORGBOTTOM
 10
0.0
 20
0.0
 30
0.0
  9
$PUCSORGLEFT
 10
0.0
 20
0.0
 30
0.0
  9
$PUCSORGRIGHT
 10
0.0
 20
0.0
 30
0.0
  9
$PUCSORGFRONT
 10
0.0
 20
0.0
 30
0.0
  9
$PUCSORGBACK
 10
0.0
 20
0.0
 30
0.0
  9
$USERI1
 70
     0
  9
$USERI2
 70
     0
  9
$USERI3
 70
     0
  9
$USERI4
 70
     0
  9
$USERI5
 70
     0
  9
$USERR1
 40
0.0
  9
$USERR2
 40
0.0
  9
$USERR3
 40
0.0
  9
$USERR4
 40
0.0
  9
$USERR5
 40
0.0
  9
$WORLDVIEW
 70
     1
  9
$SHADEDGE
 70
     3
  9
$SHADEDIF
 70
    70
  9
$TILEMODE
 70
     1
  9
$MAXACTVP
 70
    64
  9
$PINSBASE
 10
0.0
 20
0.0
 30
0.0
  9
$PLIMCHECK
 70
     0
  9
$PEXTMIN
 10
1.000000000000000E+20
 20
1.000000000000000E+20
 30
1.000000000000000E+20
  9
$PEXTMAX
 10
-1.000000000000000E+20
 20
-1.000000000000000E+20
 30
-1.000000000000000E+20
  9
$PLIMMIN
 10
0.0
 20
0.0
  9
$PLIMMAX
 10
12.0
 20
9.0
  9
$UNITMODE
 70
     0
  9
$VISRETAIN
 70
     1
  9
$PLINEGEN
 70
     0
  9
$PSLTSCALE
 70
     1
  9
$TREEDEPTH
 70
  3020
  9
$CMLSTYLE
  2
Standard
  9
$CMLJUST
 70
     0
  9
$CMLSCALE
 40
1.0
  9
$PROXYGRAPHICS
 70
     1
  9
$MEASUREMENT
 70
     0
  9
$CELWEIGHT
370
    -1
  9
$ENDCAPS
280
     0
  9
$JOINSTYLE
280
     0
  9
$LWDISPLAY
290
     0
  9
$INSUNITS
 70
     0
  9
$HYPERLINKBASE
  1

  9
$STYLESHEET
  1

  9
$XEDIT
290
     1
  9
$CEPSNTYPE
380
     0
  9
$PSTYLEMODE
290
     1
  9
$FINGERPRINTGUID
  2
{09353F8E-C6FB-401D-A7D5-9CA89FF244F2}
  9
$VERSIONGUID
  2
{D2CFC252-6B4A-4D24-B033-7EA5CE7FA253}
  9
$EXTNAMES
290
     1
  9
$PSVPSCALE
 40
0.0
  9
$OLESTARTUP
290
     0
  0
ENDSEC
  0
SECTION
  2
CLASSES
  0
CLASS
  1
ACDBDICTIONARYWDFLT
  2
AcDbDictionaryWithDefault
  3
ObjectDBX Classes
 90
        0
280
     0
281
     0
  0
CLASS
  1
MATERIAL
  2
AcDbMaterial
  3
ObjectDBX Classes
 90
     1153
280
     0
281
     0
  0
CLASS
  1
VISUALSTYLE
  2
AcDbVisualStyle
  3
ObjectDBX Classes
 90
     4095
280
     0
281
     0
  0
CLASS
  1
SCALE
  2
AcDbScale
  3
ObjectDBX Classes
 90
     1153
280
     0
281
     0
  0
CLASS
  1
TABLESTYLE
  2
AcDbTableStyle
  3
ObjectDBX Classes
 90
     4095
280
     0
281
     0
  0
CLASS
  1
MLEADERSTYLE
  2
AcDbMLeaderStyle
  3
ACDB_MLEADERSTYLE_CLASS
 90
     4095
280
     0
281
     0
  0
CLASS
  1
SORTENTSTABLE
  2
AcDbSortentsTable
  3
ObjectDBX Classes
 90
        0
280
     0
281
     0
  0
CLASS
  1
DICTIONARYVAR
  2
AcDbDictionaryVar
  3
ObjectDBX Classes
 90
        0
280
     0
281
     0
  0
CLASS
  1
CELLSTYLEMAP
  2
AcDbCellStyleMap
  3
ObjectDBX Classes
 90
     1152
280
     0
281
     0
  0
CLASS
  1
ACDBPLACEHOLDER
  2
AcDbPlaceHolder
  3
ObjectDBX Classes
 90
        0
280
     0
281
     0
  0
CLASS
  1
LAYOUT
  2
AcDbLayout
  3
ObjectDBX Classes
 90
        0
280
     0
281
     0
  0
CLASS
  1
AEC_REFEDIT_STATUS_TRACKER
  2
AecDbRefEditStatusTracker
  3
AecArchBase60|Product Desc: Autodesk Architectural Desktop 2007 |Company: Autodesk,Inc. |WEB Address: www.autodesk.com
 90
      129
280
     0
281
     0
  0
CLASS
  1
NPOCOLLECTION
  2
AcDbImpNonPersistentObjectsCollection
  3
ObjectDBX Classes
 90
     1153
280
     0
281
     0
  0
ENDSEC
  0
SECTION
  2
TABLES
  0
TABLE
  2
VPORT
  5
8
330
0
100
AcDbSymbolTable
 70
     1
  0
VPORT
  5
8C
330
8
100
AcDbSymbolTableRecord
100
AcDbViewportTableRecord
  2
*Active
 70
     0
 10
0.0
 20
0.0
 11
1.0
 21
1.0
 12
-416.8425344889642
 22
-22.90374670117518
 13
0.0
 23
0.0
 14
1.0
 24
1.0
 15
0.0
 25
0.0
 16
0.0
 26
0.0
 36
1.0
 17
0.0
 27
0.0
 37
0.0
 40
816.2445266173907
 41
1.176470588235294
 42
50.0
 43
0.0
 44
0.0
 50
0.0
 51
0.0
 71
     0
 72
   100
 73
     1
 74
     1
 75
     0
 76
     0
 77
     0
 78
     0
281
     0
 65
     1
110
0.0
120
0.0
130
0.0
111
1.0
121
0.0
131
0.0
112
0.0
122
1.0
132
0.0
 79
     0
146
0.0
  0
ENDTAB
  0
TABLE
  2
LTYPE
  5
5
330
0
100
AcDbSymbolTable
 70
     6
  0
LTYPE
  5
5A
330
5
100
AcDbSymbolTableRecord
100
AcDbLinetypeTableRecord
  2
ByBlock
 70
     0
  3

 72
    65
 73
     0
 40
0.0
  0
LTYPE
  5
5B
330
5
100
AcDbSymbolTableRecord
100
AcDbLinetypeTableRecord
  2
ByLayer
 70
     0
  3

 72
    65
 73
     0
 40
0.0
  0
LTYPE
  5
5C
330
5
100
AcDbSymbolTableRecord
100
AcDbLinetypeTableRecord
  2
CONTINUOUS
 70
     0
  3
Solid-line
 72
    65
 73
     0
 40
0.0
  0
LTYPE
  5
78
330
5
100
AcDbSymbolTableRecord
100
AcDbLinetypeTableRecord
  2
DASHED
 70
     0
  3
DASHED
 72
    65
 73
     2
 40
0.75
 49
0.5
 74
     0
 49
-0.25
 74
     0
  0
LTYPE
  5
81
330
5
100
AcDbSymbolTableRecord
100
AcDbLinetypeTableRecord
  2
HIDDEN
 70
     0
  3
HIDDEN
 72
    65
 73
     2
 40
0.375
 49
0.25
 74
     0
 49
-0.125
 74
     0
  0
LTYPE
  5
84
330
5
100
AcDbSymbolTableRecord
100
AcDbLinetypeTableRecord
  2
PHANTOM
 70
     0
  3
PHANTOM
 72
    65
 73
     6
 40
2.5
 49
1.25
 74
     0
 49
-0.25
 74
     0
 49
0.25
 74
     0
 49
-0.25
 74
     0
 49
0.25
 74
     0
 49
-0.25
 74
     0
  0
ENDTAB
  0
TABLE
  2
LAYER
  5
2
102
{ACAD_XDICTIONARY
360
4B2
102
}
330
0
100
AcDbSymbolTable
 70
     2
  0
LAYER
  5
54
102
{ACAD_XDICTIONARY
360
958
102
}
330
2
100
AcDbSymbolTableRecord
100
AcDbLayerTableRecord
  2
0
 70
     0
 62
     7
  6
CONTINUOUS
370
    -3
390
F
  0
LAYER
  5
6AC
330
2
100
AcDbSymbolTableRecord
100
AcDbLayerTableRecord
  2
Defpoints
 70
     0
 62
     7
  6
CONTINUOUS
290
     0
370
    -3
390
F
  0
ENDTAB
  0
TABLE
  2
STYLE
  5
3
330
0
100
AcDbSymbolTable
 70
     6
  0
STYLE
  5
55
330
3
100
AcDbSymbolTableRecord
100
AcDbTextStyleTableRecord
  2
STANDARD
 70
     0
 40
0.0
 41
1.0
 50
0.0
 71
     0
 42
0.2
  3
TXT
  4
BIGFONT
  0
STYLE
  5
4A7
330
3
100
AcDbSymbolTableRecord
100
AcDbTextStyleTableRecord
  2
高3.2
 70
     0
 40
3.2
 41
1.0
 50
0.0
 71
     0
 42
3.2
  3
txt.shx
  4
bigfont.shx
  0
STYLE
  5
4A8
330
3
100
AcDbSymbolTableRecord
100
AcDbTextStyleTableRecord
  2
高6.3
 70
     0
 40
6.299999999999998
 41
1.0
 50
0.0
 71
     0
 42
6.299999999999998
  3
txt.shx
  4
bigfont.shx
  0
STYLE
  5
4A9
330
3
100
AcDbSymbolTableRecord
100
AcDbTextStyleTableRecord
  2
高2.5
 70
     0
 40
2.5
 41
1.0
 50
0.0
 71
     0
 42
0.2
  3
txt.shx
  4
bigfont.shx
  0
STYLE
  5
4AA
330
3
100
AcDbSymbolTableRecord
100
AcDbTextStyleTableRecord
  2
高4.5
 70
     0
 40
4.5
 41
1.0
 50
0.0
 71
     0
 42
6.299999999999998
  3
txt.shx
  4
bigfont.shx
  0
STYLE
  5
4AB
330
3
100
AcDbSymbolTableRecord
100
AcDbTextStyleTableRecord
  2
高2
 70
     0
 40
2.0
 41
1.0
 50
0.0
 71
     0
 42
6.299999999999998
  3
txt.shx
  4
bigfont.shx
  0
ENDTAB
  0
TABLE
  2
VIEW
  5
6
330
0
100
AcDbSymbolTable
 70
     0
  0
ENDTAB
  0
TABLE
  2
UCS
  5
7
330
0
100
AcDbSymbolTable
 70
     0
  0
ENDTAB
  0
TABLE
  2
APPID
  5
9
330
0
100
AcDbSymbolTable
 70
     7
  0
APPID
  5
56
330
9
100
AcDbSymbolTableRecord
100
AcDbRegAppTableRecord
  2
ACAD
 70
     0
  0
APPID
  5
5D
330
9
100
AcDbSymbolTableRecord
100
AcDbRegAppTableRecord
  2
AcadAnnotative
 70
     0
  0
APPID
  5
4B1
330
9
100
AcDbSymbolTableRecord
100
AcDbRegAppTableRecord
  2
ACAD_DSTYLE_DIMJOGGED_JOGANGLE_SYMBOL
 70
     0
  0
APPID
  5
7CE
330
9
100
AcDbSymbolTableRecord
100
AcDbRegAppTableRecord
  2
ACAD_EXEMPT_FROM_CAD_STANDARDS
 70
     0
  0
APPID
  5
99E
330
9
100
AcDbSymbolTableRecord
100
AcDbRegAppTableRecord
  2
ACAD_MLEADERVER
 70
     0
  0
APPID
  5
9A3
330
9
100
AcDbSymbolTableRecord
100
AcDbRegAppTableRecord
  2
ACAD_DSTYLE_DIMARC_LENGTH_SYMBOL
 70
     0
  0
APPID
  5
9A4
330
9
100
AcDbSymbolTableRecord
100
AcDbRegAppTableRecord
  2
ACAD_DSTYLE_DIMEXT_LENGTH
 70
     0
  0
ENDTAB
  0
TABLE
  2
DIMSTYLE
  5
A
330
0
100
AcDbSymbolTable
 70
     3
100
AcDbDimStyleTable
 71
     1
340
4AC
  0
DIMSTYLE
105
57
330
A
100
AcDbSymbolTableRecord
100
AcDbDimStyleTableRecord
  2
Standard
 70
     0
340
55
  0
DIMSTYLE
105
4AC
330
A
100
AcDbSymbolTableRecord
100
AcDbDimStyleTableRecord
  2
1：1
 70
     0
 41
2.5
 42
0.25
 43
0.2
 44
1.25
 73
     0
 74
     0
 77
     3
 78
     8
 79
     2
140
3.0
141
0.0
143
0.03937007874016
147
0.625
171
     3
172
     1
178
     4
179
     1
271
     2
272
     2
274
     3
283
     0
284
     8
288
     1
289
     0
340
55
341
3CC
342
3CC
1001
ACAD_DSTYLE_DIMARC_LENGTH_SYMBOL
1070
   379
1070
     2
1001
ACAD_DSTYLE_DIMEXT_LENGTH
1070
   378
1040
1.25
1001
ACAD_DSTYLE_DIMJOGGED_JOGANGLE_SYMBOL
1070
   384
1040
1.570796326794896
  0
ENDTAB
  0
TABLE
  2
BLOCK_RECORD
  5
1
330
0
100
AcDbSymbolTable
 70
    27
  0
BLOCK_RECORD
  5
6B
102
{ACAD_XDICTIONARY
360
90C
102
}
330
1
100
AcDbSymbolTableRecord
100
AcDbBlockTableRecord
  2
*Model_Space
340
6E
  0
BLOCK_RECORD
  5
67
330
1
100
AcDbSymbolTableRecord
100
AcDbBlockTableRecord
  2
*Paper_Space
340
6A
  0
BLOCK_RECORD
  5
3CC
330
1
100
AcDbSymbolTableRecord
100
AcDbBlockTableRecord
  2
_Open30
340
0
102
{BLKREFS
331
9F7
331
9F8
331
A00
331
A01
331
A09
331
A0A
331
A14
331
A15
331
A1F
331
A20
331
A28
331
A29
331
A2F
331
A30
331
A37
331
A38
331
A43
331
A44
331
A4F
331
A50
331
A5B
331
A5C
331
A69
331
A6A
331
A77
331
A78
331
A81
331
A82
331
A8C
331
A8D
331
A98
331
A99
331
10B2
331
10B3
331
10BB
331
10BC
331
10C4
331
10C5
331
10CF
331
10D0
331
10DA
331
10DB
331
10E1
331
10E2
331
10E9
331
10EA
331
10F2
331
10F3
102
}
  0
BLOCK_RECORD
  5
6AD
330
1
100
AcDbSymbolTableRecord
100
AcDbBlockTableRecord
  2
*D1
340
0
  0
BLOCK_RECORD
  5
6BA
330
1
100
AcDbSymbolTableRecord
100
AcDbBlockTableRecord
  2
*D2
340
0
  0
BLOCK_RECORD
  5
6C7
330
1
100
AcDbSymbolTableRecord
100
AcDbBlockTableRecord
  2
*D3
340
0
  0
BLOCK_RECORD
  5
6D4
330
1
100
AcDbSymbolTableRecord
100
AcDbBlockTableRecord
  2
*D4
340
0
  0
BLOCK_RECORD
  5
6E1
330
1
100
AcDbSymbolTableRecord
100
AcDbBlockTableRecord
  2
*D5
340
0
  0
BLOCK_RECORD
  5
6EE
330
1
100
AcDbSymbolTableRecord
100
AcDbBlockTableRecord
  2
*D6
340
0
  0
BLOCK_RECORD
  5
6FB
330
1
100
AcDbSymbolTableRecord
100
AcDbBlockTableRecord
  2
*D7
340
0
  0
BLOCK_RECORD
  5
706
330
1
100
AcDbSymbolTableRecord
100
AcDbBlockTableRecord
  2
*D8
340
0
  0
BLOCK_RECORD
  5
A3E
330
1
100
AcDbSymbolTableRecord
100
AcDbBlockTableRecord
  2
*D9
340
0
  0
BLOCK_RECORD
  5
A4A
330
1
100
AcDbSymbolTableRecord
100
AcDbBlockTableRecord
  2
*D10
340
0
  0
BLOCK_RECORD
  5
A56
330
1
100
AcDbSymbolTableRecord
100
AcDbBlockTableRecord
  2
*D11
340
0
  0
BLOCK_RECORD
  5
A62
330
1
100
AcDbSymbolTableRecord
100
AcDbBlockTableRecord
  2
*D12
340
0
  0
BLOCK_RECORD
  5
A70
330
1
100
AcDbSymbolTableRecord
100
AcDbBlockTableRecord
  2
*D13
340
0
  0
BLOCK_RECORD
  5
A7E
330
1
100
AcDbSymbolTableRecord
100
AcDbBlockTableRecord
  2
*D14
340
0
  0
BLOCK_RECORD
  5
A87
330
1
100
AcDbSymbolTableRecord
100
AcDbBlockTableRecord
  2
*D15
340
0
  0
BLOCK_RECORD
  5
A93
330
1
100
AcDbSymbolTableRecord
100
AcDbBlockTableRecord
  2
*D16
340
0
  0
BLOCK_RECORD
  5
104E
330
1
100
AcDbSymbolTableRecord
100
AcDbBlockTableRecord
  2
*D18
340
0
  0
BLOCK_RECORD
  5
105A
330
1
100
AcDbSymbolTableRecord
100
AcDbBlockTableRecord
  2
*D19
340
0
  0
BLOCK_RECORD
  5
1066
330
1
100
AcDbSymbolTableRecord
100
AcDbBlockTableRecord
  2
*D20
340
0
  0
BLOCK_RECORD
  5
1072
330
1
100
AcDbSymbolTableRecord
100
AcDbBlockTableRecord
  2
*D21
340
0
  0
BLOCK_RECORD
  5
1080
330
1
100
AcDbSymbolTableRecord
100
AcDbBlockTableRecord
  2
*D22
340
0
  0
BLOCK_RECORD
  5
108E
330
1
100
AcDbSymbolTableRecord
100
AcDbBlockTableRecord
  2
*D23
340
0
  0
BLOCK_RECORD
  5
1097
330
1
100
AcDbSymbolTableRecord
100
AcDbBlockTableRecord
  2
*D24
340
0
  0
BLOCK_RECORD
  5
10A3
330
1
100
AcDbSymbolTableRecord
100
AcDbBlockTableRecord
  2
*D25
340
0
  0
ENDTAB
  0
ENDSEC
  0
SECTION
  2
BLOCKS
  0
BLOCK
  5
6C
330
6B
100
AcDbEntity
  8
0
100
AcDbBlockBegin
  2
*Model_Space
 70
     0
 10
0.0
 20
0.0
 30
0.0
  3
*Model_Space
  1

  0
ENDBLK
  5
6D
330
6B
100
AcDbEntity
  8
0
100
AcDbBlockEnd
  0
BLOCK
  5
68
330
67
100
AcDbEntity
 67
     1
  8
0
100
AcDbBlockBegin
  2
*Paper_Space
 70
     0
 10
0.0
 20
0.0
 30
0.0
  3
*Paper_Space
  1

  0
ENDBLK
  5
69
330
67
100
AcDbEntity
 67
     1
  8
0
100
AcDbBlockEnd
  0
BLOCK
  5
3CD
330
3CC
100
AcDbEntity
  8
0
100
AcDbBlockBegin
  2
_Open30
 70
     0
 10
0.0
 20
0.0
 30
0.0
  3
_Open30
  1

  0
LINE
  5
3CE
330
3CC
100
AcDbEntity
  8
0
  6
ByBlock
 62
     0
370
    -2
100
AcDbLine
 10
-1.0
 20
0.267949
 30
0.0
 11
0.0
 21
0.0
 31
0.0
  0
LINE
  5
3CF
330
3CC
100
AcDbEntity
  8
0
  6
ByBlock
 62
     0
370
    -2
100
AcDbLine
 10
0.0
 20
0.0
 30
0.0
 11
-1.0
 21
-0.267949
 31
0.0
  0
LINE
  5
3D0
330
3CC
100
AcDbEntity
  8
0
  6
ByBlock
 62
     0
370
    -2
100
AcDbLine
 10
0.0
 20
0.0
 30
0.0
 11
-1.0
 21
0.0
 31
0.0
  0
ENDBLK
  5
3D1
330
3CC
100
AcDbEntity
  8
0
100
AcDbBlockEnd
  0
BLOCK
  5
6AE
330
6AD
100
AcDbEntity
  8
0
100
AcDbBlockBegin
  2
*D1
 70
     1
 10
0.0
 20
0.0
 30
0.0
  3
*D1
  1

  0
LINE
  5
9F4
330
6AD
100
AcDbEntity
  8
0
 62
     0
370
    -2
100
AcDbLine
 10
-325.8095466574218
 20
71.98908329137504
 30
0.0
 11
-314.5330076574218
 21
71.98908329137504
 31
0.0
  0
LINE
  5
9F5
330
6AD
100
AcDbEntity
  8
0
 62
     0
370
    -2
100
AcDbLine
 10
-326.8070466574218
 20
81.98908329137504
 30
0.0
 11
-314.5330076574218
 21
81.98908329137504
 31
0.0
  0
LINE
  5
9F6
330
6AD
100
AcDbEntity
  8
0
 62
     0
370
    -2
100
AcDbLine
 10
-315.7830076574218
 20
74.48908329137504
 30
0.0
 11
-315.7830076574218
 21
79.48908329137504
 31
0.0
  0
INSERT
  5
9F7
330
6AD
100
AcDbEntity
  8
0
 62
     0
370
    -2
100
AcDbBlockReference
  2
_Open30
 10
-315.7830076574218
 20
71.98908329137504
 30
0.0
 41
2.5
 42
2.5
 43
2.5
 50
270.0
  0
INSERT
  5
9F8
330
6AD
100
AcDbEntity
  8
0
 62
     0
370
    -2
100
AcDbBlockReference
  2
_Open30
 10
-315.7830076574218
 20
81.98908329137504
 30
0.0
 41
2.5
 42
2.5
 43
2.5
 50
90.0
  0
MTEXT
  5
9F9
330
6AD
100
AcDbEntity
  8
0
 62
     4
100
AcDbMText
 10
-317.9080076574218
 20
76.98908329137498
 30
0.0
 40
3.0
 41
0.0
 71
     5
 72
     1
  1
10
 11
0.0000000000000001
 21
1.0
 31
0.0
 73
     1
 44
1.0
1001
ACAD
1000
MTEXTBEGIN
1070
    73
1070
     1
1070
    44
1040
1.0
1070
    74
1070
     0
1000
MTEXTEND
  0
POINT
  5
9FA
330
6AD
100
AcDbEntity
  8
Defpoints
 62
     0
100
AcDbPoint
 10
-326.0595466574218
 20
71.98908329137504
 30
0.0
  0
POINT
  5
9FB
330
6AD
100
AcDbEntity
  8
Defpoints
 62
     0
100
AcDbPoint
 10
-327.0570466574218
 20
81.98908329137504
 30
0.0
  0
POINT
  5
9FC
330
6AD
100
AcDbEntity
  8
Defpoints
 62
     0
100
AcDbPoint
 10
-315.7830076574218
 20
81.98908329137504
 30
0.0
  0
ENDBLK
  5
6AF
330
6AD
100
AcDbEntity
  8
0
100
AcDbBlockEnd
  0
BLOCK
  5
6BB
330
6BA
100
AcDbEntity
  8
0
100
AcDbBlockBegin
  2
*D2
 70
     1
 10
0.0
 20
0.0
 30
0.0
  3
*D2
  1

  0
LINE
  5
9FD
330
6BA
100
AcDbEntity
  8
0
 62
     0
370
    -2
100
AcDbLine
 10
-327.4620026574218
 20
-27.47500570862495
 30
0.0
 11
-316.4875056574218
 21
-27.47500570862495
 31
0.0
  0
LINE
  5
9FE
330
6BA
100
AcDbEntity
  8
0
 62
     0
370
    -2
100
AcDbLine
 10
-327.4620026574218
 20
-3.475005708624957
 30
0.0
 11
-316.4875056574218
 21
-3.475005708624961
 31
0.0
  0
LINE
  5
9FF
330
6BA
100
AcDbEntity
  8
0
 62
     0
370
    -2
100
AcDbLine
 10
-317.7375056574218
 20
-24.97500570862495
 30
0.0
 11
-317.7375056574218
 21
-5.97500570862496
 31
0.0
  0
INSERT
  5
A00
330
6BA
100
AcDbEntity
  8
0
 62
     0
370
    -2
100
AcDbBlockReference
  2
_Open30
 10
-317.7375056574218
 20
-27.47500570862495
 30
0.0
 41
2.5
 42
2.5
 43
2.5
 50
270.0
  0
INSERT
  5
A01
330
6BA
100
AcDbEntity
  8
0
 62
     0
370
    -2
100
AcDbBlockReference
  2
_Open30
 10
-317.7375056574218
 20
-3.47500570862496
 30
0.0
 41
2.5
 42
2.5
 43
2.5
 50
90.0
  0
MTEXT
  5
A02
330
6BA
100
AcDbEntity
  8
0
 62
     4
100
AcDbMText
 10
-319.8625056574218
 20
-15.475005708625
 30
0.0
 40
3.0
 41
0.0
 71
     5
 72
     1
  1
24
 11
0.0000000000000001
 21
1.0
 31
0.0
 73
     1
 44
1.0
1001
ACAD
1000
MTEXTBEGIN
1070
    73
1070
     1
1070
    44
1040
1.0
1070
    74
1070
     0
1000
MTEXTEND
  0
POINT
  5
A03
330
6BA
100
AcDbEntity
  8
Defpoints
 62
     0
100
AcDbPoint
 10
-327.7120026574218
 20
-27.47500570862495
 30
0.0
  0
POINT
  5
A04
330
6BA
100
AcDbEntity
  8
Defpoints
 62
     0
100
AcDbPoint
 10
-327.7120026574218
 20
-3.475005708624957
 30
0.0
  0
POINT
  5
A05
330
6BA
100
AcDbEntity
  8
Defpoints
 62
     0
100
AcDbPoint
 10
-317.7375056574218
 20
-3.47500570862496
 30
0.0
  0
ENDBLK
  5
6BC
330
6BA
100
AcDbEntity
  8
0
100
AcDbBlockEnd
  0
BLOCK
  5
6C8
330
6C7
100
AcDbEntity
  8
0
100
AcDbBlockBegin
  2
*D3
 70
     1
 10
0.0
 20
0.0
 30
0.0
  3
*D3
  1

  0
LINE
  5
A06
330
6C7
100
AcDbEntity
  8
0
 62
     0
370
    -2
100
AcDbLine
 10
-571.9937686574216
 20
-10.75756770862496
 30
0.0
 11
-571.9937686574216
 21
9.62620529137504
 31
0.0
  0
LINE
  5
A07
330
6C7
100
AcDbEntity
  8
0
 62
     0
370
    -2
100
AcDbLine
 10
-326.2120026574218
 20
-4.725005708624958
 30
0.0
 11
-326.2120026574218
 21
9.62620529137504
 31
0.0
  0
LINE
  5
A08
330
6C7
100
AcDbEntity
  8
0
 62
     0
370
    -2
100
AcDbLine
 10
-569.4937686574217
 20
8.37620529137504
 30
0.0
 11
-328.7120026574218
 21
8.37620529137504
 31
0.0
  0
INSERT
  5
A09
330
6C7
100
AcDbEntity
  8
0
 62
     0
370
    -2
100
AcDbBlockReference
  2
_Open30
 10
-571.9937686574216
 20
8.37620529137504
 30
0.0
 41
2.5
 42
2.5
 43
2.5
 50
180.0
  0
INSERT
  5
A0A
330
6C7
100
AcDbEntity
  8
0
 62
     0
370
    -2
100
AcDbBlockReference
  2
_Open30
 10
-326.2120026574218
 20
8.37620529137504
 30
0.0
 41
2.5
 42
2.5
 43
2.5
  0
MTEXT
  5
A0B
330
6C7
100
AcDbEntity
  8
0
 62
     4
100
AcDbMText
 10
-449.1028856574217
 20
10.50120529137504
 30
0.0
 40
3.0
 41
0.0
 71
     5
 72
     1
  1
L寸法
 73
     1
 44
1.0
1001
ACAD
1000
MTEXTBEGIN
1070
    73
1070
     1
1070
    44
1040
1.0
1070
    74
1070
     0
1000
MTEXTEND
  0
POINT
  5
A0C
330
6C7
100
AcDbEntity
  8
Defpoints
 62
     0
100
AcDbPoint
 10
-571.9937686574216
 20
-11.00756770862496
 30
0.0
  0
POINT
  5
A0D
330
6C7
100
AcDbEntity
  8
Defpoints
 62
     0
100
AcDbPoint
 10
-326.2120026574218
 20
-4.975005708624958
 30
0.0
  0
POINT
  5
A0E
330
6C7
100
AcDbEntity
  8
Defpoints
 62
     0
100
AcDbPoint
 10
-326.2120026574218
 20
8.37620529137504
 30
0.0
  0
ENDBLK
  5
6C9
330
6C7
100
AcDbEntity
  8
0
100
AcDbBlockEnd
  0
BLOCK
  5
6D5
330
6D4
100
AcDbEntity
  8
0
100
AcDbBlockBegin
  2
*D4
 70
     1
 10
0.0
 20
0.0
 30
0.0
  3
*D4
  1

  0
LINE
  5
A0F
330
6D4
100
AcDbEntity
  8
0
 62
     0
370
    -2
100
AcDbLine
 10
-406.0840706574216
 20
-23.02218670862496
 30
0.0
 11
-397.0554426701213
 21
-23.02218670862496
 31
0.0
  0
LINE
  5
A10
330
6D4
100
AcDbEntity
  8
0
 62
     0
370
    -2
100
AcDbLine
 10
-405.8517396574218
 20
-7.932653708624957
 30
0.0
 11
-397.0554426701213
 21
-7.932653708624959
 31
0.0
  0
LINE
  5
A11
330
6D4
100
AcDbEntity
  8
0
 62
     0
370
    -2
100
AcDbLine
 10
-398.3054426701213
 20
-5.432653708624958
 30
0.0
 11
-398.3054426701213
 21
-2.932653708624959
 31
0.0
  0
LINE
  5
A12
330
6D4
100
AcDbEntity
  8
0
 62
     0
370
    -2
100
AcDbLine
 10
-398.3054426701213
 20
-25.52218670862496
 30
0.0
 11
-398.3054426701213
 21
-33.27218670862496
 31
0.0
  0
LINE
  5
A13
330
6D4
100
AcDbEntity
  8
0
 62
     0
370
    -2
100
AcDbLine
 10
-398.3054426701213
 20
-7.932653708624958
 30
0.0
 11
-398.3054426701213
 21
-23.02218670862496
 31
0.0
  0
INSERT
  5
A14
330
6D4
100
AcDbEntity
  8
0
 62
     0
370
    -2
100
AcDbBlockReference
  2
_Open30
 10
-398.3054426701213
 20
-7.932653708624958
 30
0.0
 41
2.5
 42
2.5
 43
2.5
 50
270.0
  0
INSERT
  5
A15
330
6D4
100
AcDbEntity
  8
0
 62
     0
370
    -2
100
AcDbBlockReference
  2
_Open30
 10
-398.3054426701213
 20
-23.02218670862496
 30
0.0
 41
2.5
 42
2.5
 43
2.5
 50
90.0
  0
MTEXT
  5
A16
330
6D4
100
AcDbEntity
  8
0
 62
     4
100
AcDbMText
 10
-400.4304426701213
 20
-30.64718670862502
 30
0.0
 40
3.0
 41
0.0
 71
     5
 72
     1
  1
15
 11
0.0000000000000001
 21
1.0
 31
0.0
 73
     1
 44
1.0
1001
ACAD
1000
MTEXTBEGIN
1070
    73
1070
     1
1070
    44
1040
1.0
1070
    74
1070
     0
1000
MTEXTEND
  0
POINT
  5
A17
330
6D4
100
AcDbEntity
  8
Defpoints
 62
     0
100
AcDbPoint
 10
-406.3340706574217
 20
-23.02218670862496
 30
0.0
  0
POINT
  5
A18
330
6D4
100
AcDbEntity
  8
Defpoints
 62
     0
100
AcDbPoint
 10
-406.1017396574217
 20
-7.932653708624956
 30
0.0
  0
POINT
  5
A19
330
6D4
100
AcDbEntity
  8
Defpoints
 62
     0
100
AcDbPoint
 10
-398.3054426701213
 20
-7.932653708624958
 30
0.0
  0
ENDBLK
  5
6D6
330
6D4
100
AcDbEntity
  8
0
100
AcDbBlockEnd
  0
BLOCK
  5
6E2
330
6E1
100
AcDbEntity
  8
0
100
AcDbBlockBegin
  2
*D5
 70
     1
 10
0.0
 20
0.0
 30
0.0
  3
*D5
  1

  0
LINE
  5
A1A
330
6E1
100
AcDbEntity
  8
0
 62
     0
370
    -2
100
AcDbLine
 10
-449.8493056574217
 20
71.24131429137505
 30
0.0
 11
-442.4428256574217
 21
71.24131429137505
 31
0.0
  0
LINE
  5
A1B
330
6E1
100
AcDbEntity
  8
0
 62
     0
370
    -2
100
AcDbLine
 10
-450.1261736574218
 20
74.24131429137505
 30
0.0
 11
-442.4428256574217
 21
74.24131429137505
 31
0.0
  0
LINE
  5
A1C
330
6E1
100
AcDbEntity
  8
0
 62
     0
370
    -2
100
AcDbLine
 10
-443.6928256574217
 20
68.74131429137505
 30
0.0
 11
-443.6928256574217
 21
66.24131429137505
 31
0.0
  0
LINE
  5
A1D
330
6E1
100
AcDbEntity
  8
0
 62
     0
370
    -2
100
AcDbLine
 10
-443.6928256574217
 20
76.74131429137505
 30
0.0
 11
-443.6928256574217
 21
85.49131429137505
 31
0.0
  0
LINE
  5
A1E
330
6E1
100
AcDbEntity
  8
0
 62
     0
370
    -2
100
AcDbLine
 10
-443.6928256574217
 20
71.24131429137505
 30
0.0
 11
-443.6928256574217
 21
74.24131429137505
 31
0.0
  0
INSERT
  5
A1F
330
6E1
100
AcDbEntity
  8
0
 62
     0
370
    -2
100
AcDbBlockReference
  2
_Open30
 10
-443.6928256574217
 20
71.24131429137505
 30
0.0
 41
2.5
 42
2.5
 43
2.5
 50
90.0
  0
INSERT
  5
A20
330
6E1
100
AcDbEntity
  8
0
 62
     0
370
    -2
100
AcDbBlockReference
  2
_Open30
 10
-443.6928256574217
 20
74.24131429137505
 30
0.0
 41
2.5
 42
2.5
 43
2.5
 50
270.0
  0
MTEXT
  5
A21
330
6E1
100
AcDbEntity
  8
0
 62
     4
100
AcDbMText
 10
-445.8178256574217
 20
82.36631429137498
 30
0.0
 40
3.0
 41
0.0
 71
     5
 72
     1
  1
2t
 11
0.0000000000000001
 21
1.0
 31
0.0
 73
     1
 44
1.0
1001
ACAD
1000
MTEXTBEGIN
1070
    73
1070
     1
1070
    44
1040
1.0
1070
    74
1070
     0
1000
MTEXTEND
  0
POINT
  5
A22
330
6E1
100
AcDbEntity
  8
Defpoints
 62
     0
100
AcDbPoint
 10
-450.0993056574217
 20
71.24131429137505
 30
0.0
  0
POINT
  5
A23
330
6E1
100
AcDbEntity
  8
Defpoints
 62
     0
100
AcDbPoint
 10
-450.3761736574218
 20
74.24131429137505
 30
0.0
  0
POINT
  5
A24
330
6E1
100
AcDbEntity
  8
Defpoints
 62
     0
100
AcDbPoint
 10
-443.6928256574217
 20
74.24131429137505
 30
0.0
  0
ENDBLK
  5
6E3
330
6E1
100
AcDbEntity
  8
0
100
AcDbBlockEnd
  0
BLOCK
  5
6EF
330
6EE
100
AcDbEntity
  8
0
100
AcDbBlockBegin
  2
*D6
 70
     1
 10
0.0
 20
0.0
 30
0.0
  3
*D6
  1

  0
LINE
  5
A25
330
6EE
100
AcDbEntity
  8
0
 62
     0
370
    -2
100
AcDbLine
 10
-660.0234506574216
 20
-15.36246270862495
 30
0.0
 11
-660.0234506574216
 21
9.62620529137504
 31
0.0
  0
LINE
  5
A26
330
6EE
100
AcDbEntity
  8
0
 62
     0
370
    -2
100
AcDbLine
 10
-572.0601246574217
 20
-10.84754670862496
 30
0.0
 11
-572.0601246574217
 21
9.62620529137504
 31
0.0
  0
LINE
  5
A27
330
6EE
100
AcDbEntity
  8
0
 62
     0
370
    -2
100
AcDbLine
 10
-657.5234506574217
 20
8.37620529137504
 30
0.0
 11
-574.5601246574217
 21
8.37620529137504
 31
0.0
  0
INSERT
  5
A28
330
6EE
100
AcDbEntity
  8
0
 62
     0
370
    -2
100
AcDbBlockReference
  2
_Open30
 10
-660.0234506574216
 20
8.37620529137504
 30
0.0
 41
2.5
 42
2.5
 43
2.5
 50
180.0
  0
INSERT
  5
A29
330
6EE
100
AcDbEntity
  8
0
 62
     0
370
    -2
100
AcDbBlockReference
  2
_Open30
 10
-572.0601246574217
 20
8.37620529137504
 30
0.0
 41
2.5
 42
2.5
 43
2.5
  0
MTEXT
  5
A2A
330
6EE
100
AcDbEntity
  8
0
 62
     4
100
AcDbMText
 10
-616.0417876574217
 20
10.50120529137504
 30
0.0
 40
3.0
 41
0.0
 71
     5
 72
     1
  1
88
 73
     1
 44
1.0
1001
ACAD
1000
MTEXTBEGIN
1070
    73
1070
     1
1070
    44
1040
1.0
1070
    74
1070
     0
1000
MTEXTEND
  0
POINT
  5
A2B
330
6EE
100
AcDbEntity
  8
Defpoints
 62
     0
100
AcDbPoint
 10
-660.0234506574216
 20
-15.61246270862495
 30
0.0
  0
POINT
  5
A2C
330
6EE
100
AcDbEntity
  8
Defpoints
 62
     0
100
AcDbPoint
 10
-572.0601246574217
 20
-11.09754670862496
 30
0.0
  0
POINT
  5
A2D
330
6EE
100
AcDbEntity
  8
Defpoints
 62
     0
100
AcDbPoint
 10
-572.0601246574217
 20
8.37620529137504
 30
0.0
  0
ENDBLK
  5
6F0
330
6EE
100
AcDbEntity
  8
0
100
AcDbBlockEnd
  0
BLOCK
  5
6FC
330
6FB
100
AcDbEntity
  8
0
100
AcDbBlockBegin
  2
*D7
 70
     1
 10
0.0
 20
0.0
 30
0.0
  3
*D7
  1

  0
LINE
  5
A2E
330
6FB
100
AcDbEntity
  8
0
 62
     0
370
    -2
100
AcDbLine
 10
-612.2902665917604
 20
53.26829371250244
 30
0.0
 11
-633.7465357230835
 21
92.82367987024764
 31
0.0
  0
INSERT
  5
A2F
330
6FB
100
AcDbEntity
  8
0
 62
     0
370
    -2
100
AcDbBlockReference
  2
_Open30
 10
-611.0982516574219
 20
51.07077229137502
 30
0.0
 41
2.5
 42
2.5
 43
2.5
 50
298.4770020669827
  0
INSERT
  5
A30
330
6FB
100
AcDbEntity
  8
0
 62
     0
370
    -2
100
AcDbBlockReference
  2
_Open30
 10
-634.9385506574219
 20
95.02120129137507
 30
0.0
 41
2.5
 42
2.5
 43
2.5
 50
118.4770020669827
  0
MTEXT
  5
A31
102
{ACAD_XDICTIONARY
360
1369
102
}
330
6FB
100
AcDbEntity
  8
0
 62
     4
100
AcDbMText
 10
-621.1505079494636
 20
74.05919948556274
 30
0.0
 40
3.0
 41
0.0
 71
     5
 72
     1
  1
\U+220550
 11
0.4768059737353953
 21
-0.8790085684509801
 31
0.0
 73
     1
 44
1.0
1001
ACAD
1000
MTEXTBEGIN
1070
    73
1070
     1
1070
    44
1040
1.0
1070
    74
1070
     0
1000
MTEXTEND
  0
POINT
  5
A32
330
6FB
100
AcDbEntity
  8
Defpoints
 62
     0
100
AcDbPoint
 10
-634.9385506574219
 20
95.02120129137507
 30
0.0
  0
POINT
  5
A33
330
6FB
100
AcDbEntity
  8
Defpoints
 62
     0
100
AcDbPoint
 10
-611.0982516574219
 20
51.07077229137502
 30
0.0
  0
ENDBLK
  5
6FD
330
6FB
100
AcDbEntity
  8
0
100
AcDbBlockEnd
  0
BLOCK
  5
707
330
706
100
AcDbEntity
  8
0
100
AcDbBlockBegin
  2
*D8
 70
     1
 10
0.0
 20
0.0
 30
0.0
  3
*D8
  1

  0
LINE
  5
A34
330
706
100
AcDbEntity
  8
0
 62
     0
370
    -2
100
AcDbLine
 10
-623.2684006574217
 20
36.04598629137504
 30
0.0
 11
-670.8561936574217
 21
36.04598629137506
 31
0.0
  0
LINE
  5
A35
330
706
100
AcDbEntity
  8
0
 62
     0
370
    -2
100
AcDbLine
 10
-613.6554496574217
 20
117.782859291375
 30
0.0
 11
-670.8561936574217
 21
117.782859291375
 31
0.0
  0
LINE
  5
A36
330
706
100
AcDbEntity
  8
0
 62
     0
370
    -2
100
AcDbLine
 10
-669.6061936574217
 20
38.54598629137506
 30
0.0
 11
-669.6061936574217
 21
115.282859291375
 31
0.0
  0
INSERT
  5
A37
330
706
100
AcDbEntity
  8
0
 62
     0
370
    -2
100
AcDbBlockReference
  2
_Open30
 10
-669.6061936574217
 20
36.04598629137506
 30
0.0
 41
2.5
 42
2.5
 43
2.5
 50
270.0
  0
INSERT
  5
A38
330
706
100
AcDbEntity
  8
0
 62
     0
370
    -2
100
AcDbBlockReference
  2
_Open30
 10
-669.6061936574217
 20
117.782859291375
 30
0.0
 41
2.5
 42
2.5
 43
2.5
 50
90.0
  0
MTEXT
  5
A39
330
706
100
AcDbEntity
  8
0
 62
     4
100
AcDbMText
 10
-671.7311936574217
 20
76.91442279137493
 30
0.0
 40
3.0
 41
0.0
 71
     5
 72
     1
  1
82
 11
0.0000000000000001
 21
1.0
 31
0.0
 73
     1
 44
1.0
1001
ACAD
1000
MTEXTBEGIN
1070
    73
1070
     1
1070
    44
1040
1.0
1070
    74
1070
     0
1000
MTEXTEND
  0
POINT
  5
A3A
330
706
100
AcDbEntity
  8
Defpoints
 62
     0
100
AcDbPoint
 10
-623.0184006574217
 20
36.04598629137504
 30
0.0
  0
POINT
  5
A3B
330
706
100
AcDbEntity
  8
Defpoints
 62
     0
100
AcDbPoint
 10
-613.4054496574217
 20
117.782859291375
 30
0.0
  0
POINT
  5
A3C
330
706
100
AcDbEntity
  8
Defpoints
 62
     0
100
AcDbPoint
 10
-669.6061936574217
 20
117.782859291375
 30
0.0
  0
ENDBLK
  5
708
330
706
100
AcDbEntity
  8
0
100
AcDbBlockEnd
  0
BLOCK
  5
A3F
330
A3E
100
AcDbEntity
  8
0
100
AcDbBlockBegin
  2
*D9
 70
     1
 10
0.0
 20
0.0
 30
0.0
  3
*D9
  1

  0
LINE
  5
A40
330
A3E
100
AcDbEntity
  8
0
 62
     0
370
    -2
100
AcDbLine
 10
-304.380102276051
 20
74.45435414718531
 30
0.0
 11
-293.103563276051
 21
74.45435414718531
 31
0.0
  0
LINE
  5
A41
330
A3E
100
AcDbEntity
  8
0
 62
     0
370
    -2
100
AcDbLine
 10
-305.3776022760509
 20
84.45435414718531
 30
0.0
 11
-293.103563276051
 21
84.45435414718531
 31
0.0
  0
LINE
  5
A42
330
A3E
100
AcDbEntity
  8
0
 62
     0
370
    -2
100
AcDbLine
 10
-294.353563276051
 20
76.95435414718531
 30
0.0
 11
-294.353563276051
 21
81.95435414718531
 31
0.0
  0
INSERT
  5
A43
330
A3E
100
AcDbEntity
  8
0
 62
     0
370
    -2
100
AcDbBlockReference
  2
_Open30
 10
-294.353563276051
 20
74.45435414718531
 30
0.0
 41
2.5
 42
2.5
 43
2.5
 50
270.0
  0
INSERT
  5
A44
330
A3E
100
AcDbEntity
  8
0
 62
     0
370
    -2
100
AcDbBlockReference
  2
_Open30
 10
-294.353563276051
 20
84.45435414718531
 30
0.0
 41
2.5
 42
2.5
 43
2.5
 50
90.0
  0
MTEXT
  5
A45
330
A3E
100
AcDbEntity
  8
0
 62
     4
100
AcDbMText
 10
-296.478563276051
 20
79.45435414718525
 30
0.0
 40
3.0
 41
0.0
 71
     5
 72
     1
  1
10
 11
0.0000000000000001
 21
1.0
 31
0.0
 73
     1
 44
1.0
1001
ACAD
1000
MTEXTBEGIN
1070
    73
1070
     1
1070
    44
1040
1.0
1070
    74
1070
     0
1000
MTEXTEND
  0
POINT
  5
A46
330
A3E
100
AcDbEntity
  8
Defpoints
 62
     0
100
AcDbPoint
 10
-304.630102276051
 20
74.45435414718531
 30
0.0
  0
POINT
  5
A47
330
A3E
100
AcDbEntity
  8
Defpoints
 62
     0
100
AcDbPoint
 10
-305.6276022760509
 20
84.45435414718531
 30
0.0
  0
POINT
  5
A48
330
A3E
100
AcDbEntity
  8
Defpoints
 62
     0
100
AcDbPoint
 10
-294.353563276051
 20
84.45435414718531
 30
0.0
  0
ENDBLK
  5
A49
330
A3E
100
AcDbEntity
  8
0
100
AcDbBlockEnd
  0
BLOCK
  5
A4B
330
A4A
100
AcDbEntity
  8
0
100
AcDbBlockBegin
  2
*D10
 70
     1
 10
0.0
 20
0.0
 30
0.0
  3
*D10
  1

  0
LINE
  5
A4C
330
A4A
100
AcDbEntity
  8
0
 62
     0
370
    -2
100
AcDbLine
 10
-306.032558276051
 20
-25.0097348528147
 30
0.0
 11
-295.0580612760509
 21
-25.0097348528147
 31
0.0
  0
LINE
  5
A4D
330
A4A
100
AcDbEntity
  8
0
 62
     0
370
    -2
100
AcDbLine
 10
-306.032558276051
 20
-1.009734852814689
 30
0.0
 11
-295.0580612760509
 21
-1.009734852814692
 31
0.0
  0
LINE
  5
A4E
330
A4A
100
AcDbEntity
  8
0
 62
     0
370
    -2
100
AcDbLine
 10
-296.3080612760509
 20
-22.5097348528147
 30
0.0
 11
-296.3080612760509
 21
-3.509734852814692
 31
0.0
  0
INSERT
  5
A4F
330
A4A
100
AcDbEntity
  8
0
 62
     0
370
    -2
100
AcDbBlockReference
  2
_Open30
 10
-296.3080612760509
 20
-25.0097348528147
 30
0.0
 41
2.5
 42
2.5
 43
2.5
 50
270.0
  0
INSERT
  5
A50
330
A4A
100
AcDbEntity
  8
0
 62
     0
370
    -2
100
AcDbBlockReference
  2
_Open30
 10
-296.3080612760509
 20
-1.009734852814692
 30
0.0
 41
2.5
 42
2.5
 43
2.5
 50
90.0
  0
MTEXT
  5
A51
330
A4A
100
AcDbEntity
  8
0
 62
     4
100
AcDbMText
 10
-298.4330612760508
 20
-13.00973485281474
 30
0.0
 40
3.0
 41
0.0
 71
     5
 72
     1
  1
24
 11
0.0000000000000001
 21
1.0
 31
0.0
 73
     1
 44
1.0
1001
ACAD
1000
MTEXTBEGIN
1070
    73
1070
     1
1070
    44
1040
1.0
1070
    74
1070
     0
1000
MTEXTEND
  0
POINT
  5
A52
330
A4A
100
AcDbEntity
  8
Defpoints
 62
     0
100
AcDbPoint
 10
-306.282558276051
 20
-25.0097348528147
 30
0.0
  0
POINT
  5
A53
330
A4A
100
AcDbEntity
  8
Defpoints
 62
     0
100
AcDbPoint
 10
-306.282558276051
 20
-1.009734852814689
 30
0.0
  0
POINT
  5
A54
330
A4A
100
AcDbEntity
  8
Defpoints
 62
     0
100
AcDbPoint
 10
-296.3080612760509
 20
-1.009734852814692
 30
0.0
  0
ENDBLK
  5
A55
330
A4A
100
AcDbEntity
  8
0
100
AcDbBlockEnd
  0
BLOCK
  5
A57
330
A56
100
AcDbEntity
  8
0
100
AcDbBlockBegin
  2
*D11
 70
     1
 10
0.0
 20
0.0
 30
0.0
  3
*D11
  1

  0
LINE
  5
A58
330
A56
100
AcDbEntity
  8
0
 62
     0
370
    -2
100
AcDbLine
 10
-550.5643242760509
 20
-8.292296852814686
 30
0.0
 11
-550.5643242760509
 21
12.09147614718531
 31
0.0
  0
LINE
  5
A59
330
A56
100
AcDbEntity
  8
0
 62
     0
370
    -2
100
AcDbLine
 10
-304.782558276051
 20
-2.259734852814688
 30
0.0
 11
-304.782558276051
 21
12.09147614718531
 31
0.0
  0
LINE
  5
A5A
330
A56
100
AcDbEntity
  8
0
 62
     0
370
    -2
100
AcDbLine
 10
-548.0643242760509
 20
10.84147614718531
 30
0.0
 11
-307.2825582760509
 21
10.84147614718531
 31
0.0
  0
INSERT
  5
A5B
330
A56
100
AcDbEntity
  8
0
 62
     0
370
    -2
100
AcDbBlockReference
  2
_Open30
 10
-550.5643242760509
 20
10.84147614718531
 30
0.0
 41
2.5
 42
2.5
 43
2.5
 50
180.0
  0
INSERT
  5
A5C
330
A56
100
AcDbEntity
  8
0
 62
     0
370
    -2
100
AcDbBlockReference
  2
_Open30
 10
-304.782558276051
 20
10.84147614718531
 30
0.0
 41
2.5
 42
2.5
 43
2.5
  0
MTEXT
  5
A5D
330
A56
100
AcDbEntity
  8
0
 62
     4
100
AcDbMText
 10
-427.6734412760509
 20
12.96647614718531
 30
0.0
 40
3.0
 41
0.0
 71
     5
 72
     1
  1
L寸法
 73
     1
 44
1.0
1001
ACAD
1000
MTEXTBEGIN
1070
    73
1070
     1
1070
    44
1040
1.0
1070
    74
1070
     0
1000
MTEXTEND
  0
POINT
  5
A5E
330
A56
100
AcDbEntity
  8
Defpoints
 62
     0
100
AcDbPoint
 10
-550.5643242760509
 20
-8.542296852814686
 30
0.0
  0
POINT
  5
A5F
330
A56
100
AcDbEntity
  8
Defpoints
 62
     0
100
AcDbPoint
 10
-304.782558276051
 20
-2.509734852814688
 30
0.0
  0
POINT
  5
A60
330
A56
100
AcDbEntity
  8
Defpoints
 62
     0
100
AcDbPoint
 10
-304.782558276051
 20
10.84147614718531
 30
0.0
  0
ENDBLK
  5
A61
330
A56
100
AcDbEntity
  8
0
100
AcDbBlockEnd
  0
BLOCK
  5
A63
330
A62
100
AcDbEntity
  8
0
100
AcDbBlockBegin
  2
*D12
 70
     1
 10
0.0
 20
0.0
 30
0.0
  3
*D12
  1

  0
LINE
  5
A64
330
A62
100
AcDbEntity
  8
0
 62
     0
370
    -2
100
AcDbLine
 10
-384.654626276051
 20
-20.55691585281469
 30
0.0
 11
-375.6100827901123
 21
-20.55691585281469
 31
0.0
  0
LINE
  5
A65
330
A62
100
AcDbEntity
  8
0
 62
     0
370
    -2
100
AcDbLine
 10
-384.4222952760509
 20
-5.467382852814688
 30
0.0
 11
-375.6100827901123
 21
-5.467382852814691
 31
0.0
  0
LINE
  5
A66
330
A62
100
AcDbEntity
  8
0
 62
     0
370
    -2
100
AcDbLine
 10
-376.8600827901123
 20
-2.967382852814691
 30
0.0
 11
-376.8600827901123
 21
-0.4673828528146914
 31
0.0
  0
LINE
  5
A67
330
A62
100
AcDbEntity
  8
0
 62
     0
370
    -2
100
AcDbLine
 10
-376.8600827901123
 20
-23.05691585281469
 30
0.0
 11
-376.8600827901123
 21
-31.18191585281463
 31
0.0
  0
LINE
  5
A68
330
A62
100
AcDbEntity
  8
0
 62
     0
370
    -2
100
AcDbLine
 10
-376.8600827901123
 20
-5.467382852814691
 30
0.0
 11
-376.8600827901123
 21
-20.55691585281469
 31
0.0
  0
INSERT
  5
A69
330
A62
100
AcDbEntity
  8
0
 62
     0
370
    -2
100
AcDbBlockReference
  2
_Open30
 10
-376.8600827901123
 20
-5.467382852814691
 30
0.0
 41
2.5
 42
2.5
 43
2.5
 50
270.0
  0
INSERT
  5
A6A
330
A62
100
AcDbEntity
  8
0
 62
     0
370
    -2
100
AcDbBlockReference
  2
_Open30
 10
-376.8600827901123
 20
-20.55691585281469
 30
0.0
 41
2.5
 42
2.5
 43
2.5
 50
90.0
  0
MTEXT
  5
A6B
330
A62
100
AcDbEntity
  8
0
 62
     4
100
AcDbMText
 10
-378.9850827901123
 20
-28.55691585281469
 30
0.0
 40
3.0
 41
0.0
 71
     5
 72
     1
  1
15
 11
0.0000000000000001
 21
1.0
 31
0.0
 73
     1
 44
1.0
1001
ACAD
1000
MTEXTBEGIN
1070
    73
1070
     1
1070
    44
1040
1.0
1070
    74
1070
     0
1000
MTEXTEND
  0
POINT
  5
A6C
330
A62
100
AcDbEntity
  8
Defpoints
 62
     0
100
AcDbPoint
 10
-384.904626276051
 20
-20.55691585281469
 30
0.0
  0
POINT
  5
A6D
330
A62
100
AcDbEntity
  8
Defpoints
 62
     0
100
AcDbPoint
 10
-384.6722952760509
 20
-5.467382852814688
 30
0.0
  0
POINT
  5
A6E
330
A62
100
AcDbEntity
  8
Defpoints
 62
     0
100
AcDbPoint
 10
-376.8600827901123
 20
-5.467382852814691
 30
0.0
  0
ENDBLK
  5
A6F
330
A62
100
AcDbEntity
  8
0
100
AcDbBlockEnd
  0
BLOCK
  5
A71
330
A70
100
AcDbEntity
  8
0
100
AcDbBlockBegin
  2
*D13
 70
     1
 10
0.0
 20
0.0
 30
0.0
  3
*D13
  1

  0
LINE
  5
A72
330
A70
100
AcDbEntity
  8
0
 62
     0
370
    -2
100
AcDbLine
 10
-428.4198622760508
 20
73.70658514718532
 30
0.0
 11
-421.0133812760508
 21
73.70658514718532
 31
0.0
  0
LINE
  5
A73
330
A70
100
AcDbEntity
  8
0
 62
     0
370
    -2
100
AcDbLine
 10
-428.696729276051
 20
76.70658514718532
 30
0.0
 11
-421.0133812760508
 21
76.70658514718532
 31
0.0
  0
LINE
  5
A74
330
A70
100
AcDbEntity
  8
0
 62
     0
370
    -2
100
AcDbLine
 10
-422.2633812760508
 20
71.20658514718532
 30
0.0
 11
-422.2633812760508
 21
68.70658514718532
 31
0.0
  0
LINE
  5
A75
330
A70
100
AcDbEntity
  8
0
 62
     0
370
    -2
100
AcDbLine
 10
-422.2633812760508
 20
79.20658514718532
 30
0.0
 11
-422.2633812760508
 21
87.95658514718532
 31
0.0
  0
LINE
  5
A76
330
A70
100
AcDbEntity
  8
0
 62
     0
370
    -2
100
AcDbLine
 10
-422.2633812760508
 20
73.70658514718532
 30
0.0
 11
-422.2633812760508
 21
76.70658514718532
 31
0.0
  0
INSERT
  5
A77
330
A70
100
AcDbEntity
  8
0
 62
     0
370
    -2
100
AcDbBlockReference
  2
_Open30
 10
-422.2633812760508
 20
73.70658514718532
 30
0.0
 41
2.5
 42
2.5
 43
2.5
 50
90.0
  0
INSERT
  5
A78
330
A70
100
AcDbEntity
  8
0
 62
     0
370
    -2
100
AcDbBlockReference
  2
_Open30
 10
-422.2633812760508
 20
76.70658514718532
 30
0.0
 41
2.5
 42
2.5
 43
2.5
 50
270.0
  0
MTEXT
  5
A79
330
A70
100
AcDbEntity
  8
0
 62
     4
100
AcDbMText
 10
-424.3883812760508
 20
84.83158514718525
 30
0.0
 40
3.0
 41
0.0
 71
     5
 72
     1
  1
2t
 11
0.0000000000000001
 21
1.0
 31
0.0
 73
     1
 44
1.0
1001
ACAD
1000
MTEXTBEGIN
1070
    73
1070
     1
1070
    44
1040
1.0
1070
    74
1070
     0
1000
MTEXTEND
  0
POINT
  5
A7A
330
A70
100
AcDbEntity
  8
Defpoints
 62
     0
100
AcDbPoint
 10
-428.6698622760509
 20
73.70658514718532
 30
0.0
  0
POINT
  5
A7B
330
A70
100
AcDbEntity
  8
Defpoints
 62
     0
100
AcDbPoint
 10
-428.946729276051
 20
76.70658514718532
 30
0.0
  0
POINT
  5
A7C
330
A70
100
AcDbEntity
  8
Defpoints
 62
     0
100
AcDbPoint
 10
-422.2633812760508
 20
76.70658514718532
 30
0.0
  0
ENDBLK
  5
A7D
330
A70
100
AcDbEntity
  8
0
100
AcDbBlockEnd
  0
BLOCK
  5
A7F
330
A7E
100
AcDbEntity
  8
0
100
AcDbBlockBegin
  2
*D14
 70
     1
 10
0.0
 20
0.0
 30
0.0
  3
*D14
  1

  0
LINE
  5
A80
330
A7E
100
AcDbEntity
  8
0
 62
     0
370
    -2
100
AcDbLine
 10
-590.8608222103896
 20
55.73356456831266
 30
0.0
 11
-612.3170913417127
 21
95.28895072605797
 31
0.0
  0
INSERT
  5
A81
330
A7E
100
AcDbEntity
  8
0
 62
     0
370
    -2
100
AcDbBlockReference
  2
_Open30
 10
-589.6688072760512
 20
53.53604314718523
 30
0.0
 41
2.5
 42
2.5
 43
2.5
 50
298.4770020669826
  0
INSERT
  5
A82
330
A7E
100
AcDbEntity
  8
0
 62
     0
370
    -2
100
AcDbBlockReference
  2
_Open30
 10
-613.5091062760511
 20
97.48647214718538
 30
0.0
 41
2.5
 42
2.5
 43
2.5
 50
118.4770020669826
  0
MTEXT
  5
A83
102
{ACAD_XDICTIONARY
360
136B
102
}
330
A7E
100
AcDbEntity
  8
0
 62
     4
100
AcDbMText
 10
-599.721063568093
 20
76.52447034137299
 30
0.0
 40
3.0
 41
0.0
 71
     5
 72
     1
  1
\U+220550
 11
0.476805973735393
 21
-0.8790085684509815
 31
0.0
 73
     1
 44
1.0
1001
ACAD
1000
MTEXTBEGIN
1070
    73
1070
     1
1070
    44
1040
1.0
1070
    74
1070
     0
1000
MTEXTEND
  0
POINT
  5
A84
330
A7E
100
AcDbEntity
  8
Defpoints
 62
     0
100
AcDbPoint
 10
-613.5091062760511
 20
97.48647214718538
 30
0.0
  0
POINT
  5
A85
330
A7E
100
AcDbEntity
  8
Defpoints
 62
     0
100
AcDbPoint
 10
-589.6688072760512
 20
53.53604314718523
 30
0.0
  0
ENDBLK
  5
A86
330
A7E
100
AcDbEntity
  8
0
100
AcDbBlockEnd
  0
BLOCK
  5
A88
330
A87
100
AcDbEntity
  8
0
100
AcDbBlockBegin
  2
*D15
 70
     1
 10
0.0
 20
0.0
 30
0.0
  3
*D15
  1

  0
LINE
  5
A89
330
A87
100
AcDbEntity
  8
0
 62
     0
370
    -2
100
AcDbLine
 10
-601.838956276051
 20
38.51125814718531
 30
0.0
 11
-649.4267492760508
 21
38.51125814718532
 31
0.0
  0
LINE
  5
A8A
330
A87
100
AcDbEntity
  8
0
 62
     0
370
    -2
100
AcDbLine
 10
-592.2260052760508
 20
120.2481301471853
 30
0.0
 11
-649.4267492760508
 21
120.2481301471853
 31
0.0
  0
LINE
  5
A8B
330
A87
100
AcDbEntity
  8
0
 62
     0
370
    -2
100
AcDbLine
 10
-648.1767492760508
 20
41.01125814718531
 30
0.0
 11
-648.1767492760508
 21
117.7481301471853
 31
0.0
  0
INSERT
  5
A8C
330
A87
100
AcDbEntity
  8
0
 62
     0
370
    -2
100
AcDbBlockReference
  2
_Open30
 10
-648.1767492760508
 20
38.51125814718532
 30
0.0
 41
2.5
 42
2.5
 43
2.5
 50
270.0
  0
INSERT
  5
A8D
330
A87
100
AcDbEntity
  8
0
 62
     0
370
    -2
100
AcDbBlockReference
  2
_Open30
 10
-648.1767492760508
 20
120.2481301471853
 30
0.0
 41
2.5
 42
2.5
 43
2.5
 50
90.0
  0
MTEXT
  5
A8E
330
A87
100
AcDbEntity
  8
0
 62
     4
100
AcDbMText
 10
-650.3017492760508
 20
79.37969414718522
 30
0.0
 40
3.0
 41
0.0
 71
     5
 72
     1
  1
82
 11
0.0000000000000001
 21
1.0
 31
0.0
 73
     1
 44
1.0
1001
ACAD
1000
MTEXTBEGIN
1070
    73
1070
     1
1070
    44
1040
1.0
1070
    74
1070
     0
1000
MTEXTEND
  0
POINT
  5
A8F
330
A87
100
AcDbEntity
  8
Defpoints
 62
     0
100
AcDbPoint
 10
-601.588956276051
 20
38.51125814718531
 30
0.0
  0
POINT
  5
A90
330
A87
100
AcDbEntity
  8
Defpoints
 62
     0
100
AcDbPoint
 10
-591.9760052760508
 20
120.2481301471853
 30
0.0
  0
POINT
  5
A91
330
A87
100
AcDbEntity
  8
Defpoints
 62
     0
100
AcDbPoint
 10
-648.1767492760508
 20
120.2481301471853
 30
0.0
  0
ENDBLK
  5
A92
330
A87
100
AcDbEntity
  8
0
100
AcDbBlockEnd
  0
BLOCK
  5
A94
330
A93
100
AcDbEntity
  8
0
100
AcDbBlockBegin
  2
*D16
 70
     1
 10
0.0
 20
0.0
 30
0.0
  3
*D16
  1

  0
LINE
  5
A95
330
A93
100
AcDbEntity
  8
0
 62
     0
370
    -2
100
AcDbLine
 10
-638.594006276051
 20
-12.89719185281469
 30
0.0
 11
-638.594006276051
 21
12.09147614718531
 31
0.0
  0
LINE
  5
A96
330
A93
100
AcDbEntity
  8
0
 62
     0
370
    -2
100
AcDbLine
 10
-550.6306802760508
 20
-8.382275852814688
 30
0.0
 11
-550.6306802760508
 21
12.09147614718531
 31
0.0
  0
LINE
  5
A97
330
A93
100
AcDbEntity
  8
0
 62
     0
370
    -2
100
AcDbLine
 10
-636.0940062760509
 20
10.84147614718531
 30
0.0
 11
-553.1306802760508
 21
10.84147614718531
 31
0.0
  0
INSERT
  5
A98
330
A93
100
AcDbEntity
  8
0
 62
     0
370
    -2
100
AcDbBlockReference
  2
_Open30
 10
-638.594006276051
 20
10.84147614718531
 30
0.0
 41
2.5
 42
2.5
 43
2.5
 50
180.0
  0
INSERT
  5
A99
330
A93
100
AcDbEntity
  8
0
 62
     0
370
    -2
100
AcDbBlockReference
  2
_Open30
 10
-550.6306802760508
 20
10.84147614718531
 30
0.0
 41
2.5
 42
2.5
 43
2.5
  0
MTEXT
  5
A9A
330
A93
100
AcDbEntity
  8
0
 62
     4
100
AcDbMText
 10
-594.612343276051
 20
12.96647614718531
 30
0.0
 40
3.0
 41
0.0
 71
     5
 72
     1
  1
88
 73
     1
 44
1.0
1001
ACAD
1000
MTEXTBEGIN
1070
    73
1070
     1
1070
    44
1040
1.0
1070
    74
1070
     0
1000
MTEXTEND
  0
POINT
  5
A9B
330
A93
100
AcDbEntity
  8
Defpoints
 62
     0
100
AcDbPoint
 10
-638.594006276051
 20
-13.14719185281469
 30
0.0
  0
POINT
  5
A9C
330
A93
100
AcDbEntity
  8
Defpoints
 62
     0
100
AcDbPoint
 10
-550.6306802760508
 20
-8.632275852814688
 30
0.0
  0
POINT
  5
A9D
330
A93
100
AcDbEntity
  8
Defpoints
 62
     0
100
AcDbPoint
 10
-550.6306802760508
 20
10.84147614718531
 30
0.0
  0
ENDBLK
  5
A9E
330
A93
100
AcDbEntity
  8
0
100
AcDbBlockEnd
  0
BLOCK
  5
104F
330
104E
100
AcDbEntity
  8
0
100
AcDbBlockBegin
  2
*D18
 70
     1
 10
0.0
 20
0.0
 30
0.0
  3
*D18
  1

  0
LINE
  5
10AF
330
104E
100
AcDbEntity
  8
0
 62
     0
370
    -2
100
AcDbLine
 10
163.3942555600313
 20
75.52393727348408
 30
0.0
 11
174.6707945600313
 21
75.52393727348408
 31
0.0
  0
LINE
  5
10B0
330
104E
100
AcDbEntity
  8
0
 62
     0
370
    -2
100
AcDbLine
 10
162.3967555600314
 20
85.52393727348407
 30
0.0
 11
174.6707945600313
 21
85.52393727348407
 31
0.0
  0
LINE
  5
10B1
330
104E
100
AcDbEntity
  8
0
 62
     0
370
    -2
100
AcDbLine
 10
173.4207945600313
 20
78.02393727348408
 30
0.0
 11
173.4207945600313
 21
83.02393727348407
 31
0.0
  0
INSERT
  5
10B2
330
104E
100
AcDbEntity
  8
0
 62
     0
370
    -2
100
AcDbBlockReference
  2
_Open30
 10
173.4207945600313
 20
75.52393727348408
 30
0.0
 41
2.5
 42
2.5
 43
2.5
 50
270.0
  0
INSERT
  5
10B3
330
104E
100
AcDbEntity
  8
0
 62
     0
370
    -2
100
AcDbBlockReference
  2
_Open30
 10
173.4207945600313
 20
85.52393727348407
 30
0.0
 41
2.5
 42
2.5
 43
2.5
 50
90.0
  0
MTEXT
  5
10B4
330
104E
100
AcDbEntity
  8
0
 62
     4
100
AcDbMText
 10
171.2957945600313
 20
80.52393727348411
 30
0.0
 40
3.0
 41
0.0
 71
     5
 72
     1
  1
10
 11
0.0000000000000001
 21
1.0
 31
0.0
 73
     1
 44
1.0
1001
ACAD
1000
MTEXTBEGIN
1070
    73
1070
     1
1070
    44
1040
1.0
1070
    74
1070
     0
1000
MTEXTEND
  0
POINT
  5
10B5
330
104E
100
AcDbEntity
  8
Defpoints
 62
     0
100
AcDbPoint
 10
163.1442555600313
 20
75.52393727348408
 30
0.0
  0
POINT
  5
10B6
330
104E
100
AcDbEntity
  8
Defpoints
 62
     0
100
AcDbPoint
 10
162.1467555600314
 20
85.52393727348407
 30
0.0
  0
POINT
  5
10B7
330
104E
100
AcDbEntity
  8
Defpoints
 62
     0
100
AcDbPoint
 10
173.4207945600313
 20
85.52393727348407
 30
0.0
  0
ENDBLK
  5
1050
330
104E
100
AcDbEntity
  8
0
100
AcDbBlockEnd
  0
BLOCK
  5
105B
330
105A
100
AcDbEntity
  8
0
100
AcDbBlockBegin
  2
*D19
 70
     1
 10
0.0
 20
0.0
 30
0.0
  3
*D19
  1

  0
LINE
  5
10B8
330
105A
100
AcDbEntity
  8
0
 62
     0
370
    -2
100
AcDbLine
 10
161.7417995600314
 20
-23.94015172651592
 30
0.0
 11
172.7162965600315
 21
-23.94015172651593
 31
0.0
  0
LINE
  5
10B9
330
105A
100
AcDbEntity
  8
0
 62
     0
370
    -2
100
AcDbLine
 10
161.7417995600314
 20
0.0598482734840786
 30
0.0
 11
172.7162965600315
 21
0.0598482734840755
 31
0.0
  0
LINE
  5
10BA
330
105A
100
AcDbEntity
  8
0
 62
     0
370
    -2
100
AcDbLine
 10
171.4662965600315
 20
-21.44015172651593
 30
0.0
 11
171.4662965600315
 21
-2.440151726515924
 31
0.0
  0
INSERT
  5
10BB
330
105A
100
AcDbEntity
  8
0
 62
     0
370
    -2
100
AcDbBlockReference
  2
_Open30
 10
171.4662965600315
 20
-23.94015172651593
 30
0.0
 41
2.5
 42
2.5
 43
2.5
 50
270.0
  0
INSERT
  5
10BC
330
105A
100
AcDbEntity
  8
0
 62
     0
370
    -2
100
AcDbBlockReference
  2
_Open30
 10
171.4662965600315
 20
0.0598482734840758
 30
0.0
 41
2.5
 42
2.5
 43
2.5
 50
90.0
  0
MTEXT
  5
10BD
330
105A
100
AcDbEntity
  8
0
 62
     4
100
AcDbMText
 10
169.3412965600314
 20
-11.94015172651589
 30
0.0
 40
3.0
 41
0.0
 71
     5
 72
     1
  1
24
 11
0.0000000000000001
 21
1.0
 31
0.0
 73
     1
 44
1.0
1001
ACAD
1000
MTEXTBEGIN
1070
    73
1070
     1
1070
    44
1040
1.0
1070
    74
1070
     0
1000
MTEXTEND
  0
POINT
  5
10BE
330
105A
100
AcDbEntity
  8
Defpoints
 62
     0
100
AcDbPoint
 10
161.4917995600314
 20
-23.94015172651592
 30
0.0
  0
POINT
  5
10BF
330
105A
100
AcDbEntity
  8
Defpoints
 62
     0
100
AcDbPoint
 10
161.4917995600314
 20
0.0598482734840786
 30
0.0
  0
POINT
  5
10C0
330
105A
100
AcDbEntity
  8
Defpoints
 62
     0
100
AcDbPoint
 10
171.4662965600315
 20
0.0598482734840758
 30
0.0
  0
ENDBLK
  5
105C
330
105A
100
AcDbEntity
  8
0
100
AcDbBlockEnd
  0
BLOCK
  5
1067
330
1066
100
AcDbEntity
  8
0
100
AcDbBlockBegin
  2
*D20
 70
     1
 10
0.0
 20
0.0
 30
0.0
  3
*D20
  1

  0
LINE
  5
10C1
330
1066
100
AcDbEntity
  8
0
 62
     0
370
    -2
100
AcDbLine
 10
-82.78996643996856
 20
-7.22271372651592
 30
0.0
 11
-82.78996643996856
 21
13.16105927348408
 31
0.0
  0
LINE
  5
10C2
330
1066
100
AcDbEntity
  8
0
 62
     0
370
    -2
100
AcDbLine
 10
162.9917995600314
 20
-1.190151726515921
 30
0.0
 11
162.9917995600314
 21
13.16105927348408
 31
0.0
  0
LINE
  5
10C3
330
1066
100
AcDbEntity
  8
0
 62
     0
370
    -2
100
AcDbLine
 10
-80.28996643996856
 20
11.91105927348408
 30
0.0
 11
160.4917995600314
 21
11.91105927348408
 31
0.0
  0
INSERT
  5
10C4
330
1066
100
AcDbEntity
  8
0
 62
     0
370
    -2
100
AcDbBlockReference
  2
_Open30
 10
-82.78996643996856
 20
11.91105927348408
 30
0.0
 41
2.5
 42
2.5
 43
2.5
 50
180.0
  0
INSERT
  5
10C5
330
1066
100
AcDbEntity
  8
0
 62
     0
370
    -2
100
AcDbBlockReference
  2
_Open30
 10
162.9917995600314
 20
11.91105927348408
 30
0.0
 41
2.5
 42
2.5
 43
2.5
  0
MTEXT
  5
10C6
330
1066
100
AcDbEntity
  8
0
 62
     4
100
AcDbMText
 10
40.1009165600314
 20
14.03605927348408
 30
0.0
 40
3.0
 41
0.0
 71
     5
 72
     1
  1
L寸法
 73
     1
 44
1.0
1001
ACAD
1000
MTEXTBEGIN
1070
    73
1070
     1
1070
    44
1040
1.0
1070
    74
1070
     0
1000
MTEXTEND
  0
POINT
  5
10C7
330
1066
100
AcDbEntity
  8
Defpoints
 62
     0
100
AcDbPoint
 10
-82.78996643996856
 20
-7.47271372651592
 30
0.0
  0
POINT
  5
10C8
330
1066
100
AcDbEntity
  8
Defpoints
 62
     0
100
AcDbPoint
 10
162.9917995600314
 20
-1.440151726515921
 30
0.0
  0
POINT
  5
10C9
330
1066
100
AcDbEntity
  8
Defpoints
 62
     0
100
AcDbPoint
 10
162.9917995600314
 20
11.91105927348408
 30
0.0
  0
ENDBLK
  5
1068
330
1066
100
AcDbEntity
  8
0
100
AcDbBlockEnd
  0
BLOCK
  5
1073
330
1072
100
AcDbEntity
  8
0
100
AcDbBlockBegin
  2
*D21
 70
     1
 10
0.0
 20
0.0
 30
0.0
  3
*D21
  1

  0
LINE
  5
10CA
330
1072
100
AcDbEntity
  8
0
 62
     0
370
    -2
100
AcDbLine
 10
83.11973156003132
 20
-19.48733272651591
 30
0.0
 11
92.16427504597005
 21
-19.48733272651592
 31
0.0
  0
LINE
  5
10CB
330
1072
100
AcDbEntity
  8
0
 62
     0
370
    -2
100
AcDbLine
 10
83.35206256003147
 20
-4.397799726515927
 30
0.0
 11
92.16427504597005
 21
-4.39779972651593
 31
0.0
  0
LINE
  5
10CC
330
1072
100
AcDbEntity
  8
0
 62
     0
370
    -2
100
AcDbLine
 10
90.91427504597005
 20
-1.897799726515929
 30
0.0
 11
90.91427504597005
 21
0.6022002734840701
 31
0.0
  0
LINE
  5
10CD
330
1072
100
AcDbEntity
  8
0
 62
     0
370
    -2
100
AcDbLine
 10
90.91427504597005
 20
-21.98733272651592
 30
0.0
 11
90.91427504597005
 21
-30.11233272651594
 31
0.0
  0
LINE
  5
10CE
330
1072
100
AcDbEntity
  8
0
 62
     0
370
    -2
100
AcDbLine
 10
90.91427504597005
 20
-4.39779972651593
 30
0.0
 11
90.91427504597005
 21
-19.48733272651592
 31
0.0
  0
INSERT
  5
10CF
330
1072
100
AcDbEntity
  8
0
 62
     0
370
    -2
100
AcDbBlockReference
  2
_Open30
 10
90.91427504597005
 20
-4.39779972651593
 30
0.0
 41
2.5
 42
2.5
 43
2.5
 50
270.0
  0
INSERT
  5
10D0
330
1072
100
AcDbEntity
  8
0
 62
     0
370
    -2
100
AcDbBlockReference
  2
_Open30
 10
90.91427504597005
 20
-19.48733272651592
 30
0.0
 41
2.5
 42
2.5
 43
2.5
 50
90.0
  0
MTEXT
  5
10D1
330
1072
100
AcDbEntity
  8
0
 62
     4
100
AcDbMText
 10
88.78927504597005
 20
-27.48733272651593
 30
0.0
 40
3.0
 41
0.0
 71
     5
 72
     1
  1
15
 11
0.0000000000000001
 21
1.0
 31
0.0
 73
     1
 44
1.0
1001
ACAD
1000
MTEXTBEGIN
1070
    73
1070
     1
1070
    44
1040
1.0
1070
    74
1070
     0
1000
MTEXTEND
  0
POINT
  5
10D2
330
1072
100
AcDbEntity
  8
Defpoints
 62
     0
100
AcDbPoint
 10
82.86973156003131
 20
-19.48733272651591
 30
0.0
  0
POINT
  5
10D3
330
1072
100
AcDbEntity
  8
Defpoints
 62
     0
100
AcDbPoint
 10
83.10206256003146
 20
-4.397799726515927
 30
0.0
  0
POINT
  5
10D4
330
1072
100
AcDbEntity
  8
Defpoints
 62
     0
100
AcDbPoint
 10
90.91427504597005
 20
-4.39779972651593
 30
0.0
  0
ENDBLK
  5
1074
330
1072
100
AcDbEntity
  8
0
100
AcDbBlockEnd
  0
BLOCK
  5
1081
330
1080
100
AcDbEntity
  8
0
100
AcDbBlockBegin
  2
*D22
 70
     1
 10
0.0
 20
0.0
 30
0.0
  3
*D22
  1

  0
LINE
  5
10D5
330
1080
100
AcDbEntity
  8
0
 62
     0
370
    -2
100
AcDbLine
 10
39.35449556003147
 20
74.77616827348407
 30
0.0
 11
46.76097656003145
 21
74.77616827348407
 31
0.0
  0
LINE
  5
10D6
330
1080
100
AcDbEntity
  8
0
 62
     0
370
    -2
100
AcDbLine
 10
39.07762856003131
 20
77.77616827348407
 30
0.0
 11
46.76097656003145
 21
77.77616827348407
 31
0.0
  0
LINE
  5
10D7
330
1080
100
AcDbEntity
  8
0
 62
     0
370
    -2
100
AcDbLine
 10
45.51097656003145
 20
72.27616827348407
 30
0.0
 11
45.51097656003145
 21
69.77616827348407
 31
0.0
  0
LINE
  5
10D8
330
1080
100
AcDbEntity
  8
0
 62
     0
370
    -2
100
AcDbLine
 10
45.51097656003146
 20
80.27616827348408
 30
0.0
 11
45.51097656003146
 21
89.02616827348408
 31
0.0
  0
LINE
  5
10D9
330
1080
100
AcDbEntity
  8
0
 62
     0
370
    -2
100
AcDbLine
 10
45.51097656003145
 20
74.77616827348407
 30
0.0
 11
45.51097656003145
 21
77.77616827348407
 31
0.0
  0
INSERT
  5
10DA
330
1080
100
AcDbEntity
  8
0
 62
     0
370
    -2
100
AcDbBlockReference
  2
_Open30
 10
45.51097656003145
 20
74.77616827348407
 30
0.0
 41
2.5
 42
2.5
 43
2.5
 50
90.0
  0
INSERT
  5
10DB
330
1080
100
AcDbEntity
  8
0
 62
     0
370
    -2
100
AcDbBlockReference
  2
_Open30
 10
45.51097656003145
 20
77.77616827348407
 30
0.0
 41
2.5
 42
2.5
 43
2.5
 50
270.0
  0
MTEXT
  5
10DC
330
1080
100
AcDbEntity
  8
0
 62
     4
100
AcDbMText
 10
43.38597656003144
 20
85.90116827348408
 30
0.0
 40
3.0
 41
0.0
 71
     5
 72
     1
  1
2t
 11
0.0000000000000001
 21
1.0
 31
0.0
 73
     1
 44
1.0
1001
ACAD
1000
MTEXTBEGIN
1070
    73
1070
     1
1070
    44
1040
1.0
1070
    74
1070
     0
1000
MTEXTEND
  0
POINT
  5
10DD
330
1080
100
AcDbEntity
  8
Defpoints
 62
     0
100
AcDbPoint
 10
39.10449556003147
 20
74.77616827348407
 30
0.0
  0
POINT
  5
10DE
330
1080
100
AcDbEntity
  8
Defpoints
 62
     0
100
AcDbPoint
 10
38.82762856003131
 20
77.77616827348407
 30
0.0
  0
POINT
  5
10DF
330
1080
100
AcDbEntity
  8
Defpoints
 62
     0
100
AcDbPoint
 10
45.51097656003145
 20
77.77616827348407
 30
0.0
  0
ENDBLK
  5
1082
330
1080
100
AcDbEntity
  8
0
100
AcDbBlockEnd
  0
BLOCK
  5
108F
330
108E
100
AcDbEntity
  8
0
100
AcDbBlockBegin
  2
*D23
 70
     1
 10
0.0
 20
0.0
 30
0.0
  3
*D23
  1

  0
LINE
  5
10E0
330
108E
100
AcDbEntity
  8
0
 62
     0
370
    -2
100
AcDbLine
 10
-123.0864643743073
 20
56.80314769461146
 30
0.0
 11
-144.5427335056303
 21
96.35853385235671
 31
0.0
  0
INSERT
  5
10E1
330
108E
100
AcDbEntity
  8
0
 62
     0
370
    -2
100
AcDbBlockReference
  2
_Open30
 10
-121.8944494399688
 20
54.605626273484
 30
0.0
 41
2.5
 42
2.5
 43
2.5
 50
298.4770020669826
  0
INSERT
  5
10E2
330
108E
100
AcDbEntity
  8
0
 62
     0
370
    -2
100
AcDbBlockReference
  2
_Open30
 10
-145.7347484399688
 20
98.55605527348414
 30
0.0
 41
2.5
 42
2.5
 43
2.5
 50
118.4770020669826
  0
MTEXT
  5
10E3
102
{ACAD_XDICTIONARY
360
136D
102
}
330
108E
100
AcDbEntity
  8
0
 62
     4
100
AcDbMText
 10
-131.9467057320105
 20
77.59405346767178
 30
0.0
 40
3.0
 41
0.0
 71
     5
 72
     1
  1
\U+220550
 11
0.476805973735393
 21
-0.8790085684509815
 31
0.0
 73
     1
 44
1.0
1001
ACAD
1000
MTEXTBEGIN
1070
    73
1070
     1
1070
    44
1040
1.0
1070
    74
1070
     0
1000
MTEXTEND
  0
POINT
  5
10E4
330
108E
100
AcDbEntity
  8
Defpoints
 62
     0
100
AcDbPoint
 10
-145.7347484399688
 20
98.55605527348414
 30
0.0
  0
POINT
  5
10E5
330
108E
100
AcDbEntity
  8
Defpoints
 62
     0
100
AcDbPoint
 10
-121.8944494399688
 20
54.605626273484
 30
0.0
  0
ENDBLK
  5
1090
330
108E
100
AcDbEntity
  8
0
100
AcDbBlockEnd
  0
BLOCK
  5
1098
330
1097
100
AcDbEntity
  8
0
100
AcDbBlockBegin
  2
*D24
 70
     1
 10
0.0
 20
0.0
 30
0.0
  3
*D24
  1

  0
LINE
  5
10E6
330
1097
100
AcDbEntity
  8
0
 62
     0
370
    -2
100
AcDbLine
 10
-134.0645984399686
 20
39.58084127348408
 30
0.0
 11
-181.6523914399685
 21
39.5808412734841
 31
0.0
  0
LINE
  5
10E7
330
1097
100
AcDbEntity
  8
0
 62
     0
370
    -2
100
AcDbLine
 10
-124.4516474399685
 20
121.317713273484
 30
0.0
 11
-181.6523914399685
 21
121.3177132734841
 31
0.0
  0
LINE
  5
10E8
330
1097
100
AcDbEntity
  8
0
 62
     0
370
    -2
100
AcDbLine
 10
-180.4023914399685
 20
42.08084127348409
 30
0.0
 11
-180.4023914399684
 21
118.817713273484
 31
0.0
  0
INSERT
  5
10E9
330
1097
100
AcDbEntity
  8
0
 62
     0
370
    -2
100
AcDbBlockReference
  2
_Open30
 10
-180.4023914399685
 20
39.5808412734841
 30
0.0
 41
2.5
 42
2.5
 43
2.5
 50
270.0
  0
INSERT
  5
10EA
330
1097
100
AcDbEntity
  8
0
 62
     0
370
    -2
100
AcDbBlockReference
  2
_Open30
 10
-180.4023914399684
 20
121.3177132734841
 30
0.0
 41
2.5
 42
2.5
 43
2.5
 50
90.0
  0
MTEXT
  5
10EB
330
1097
100
AcDbEntity
  8
0
 62
     4
100
AcDbMText
 10
-182.5273914399685
 20
80.44927727348406
 30
0.0
 40
3.0
 41
0.0
 71
     5
 72
     1
  1
82
 11
0.0000000000000001
 21
1.0
 31
0.0
 73
     1
 44
1.0
1001
ACAD
1000
MTEXTBEGIN
1070
    73
1070
     1
1070
    44
1040
1.0
1070
    74
1070
     0
1000
MTEXTEND
  0
POINT
  5
10EC
330
1097
100
AcDbEntity
  8
Defpoints
 62
     0
100
AcDbPoint
 10
-133.8145984399687
 20
39.58084127348408
 30
0.0
  0
POINT
  5
10ED
330
1097
100
AcDbEntity
  8
Defpoints
 62
     0
100
AcDbPoint
 10
-124.2016474399685
 20
121.317713273484
 30
0.0
  0
POINT
  5
10EE
330
1097
100
AcDbEntity
  8
Defpoints
 62
     0
100
AcDbPoint
 10
-180.4023914399684
 20
121.3177132734841
 30
0.0
  0
ENDBLK
  5
1099
330
1097
100
AcDbEntity
  8
0
100
AcDbBlockEnd
  0
BLOCK
  5
10A4
330
10A3
100
AcDbEntity
  8
0
100
AcDbBlockBegin
  2
*D25
 70
     1
 10
0.0
 20
0.0
 30
0.0
  3
*D25
  1

  0
LINE
  5
10EF
330
10A3
100
AcDbEntity
  8
0
 62
     0
370
    -2
100
AcDbLine
 10
-170.8196484399686
 20
-11.82760872651592
 30
0.0
 11
-170.8196484399686
 21
13.16105927348408
 31
0.0
  0
LINE
  5
10F0
330
10A3
100
AcDbEntity
  8
0
 62
     0
370
    -2
100
AcDbLine
 10
-82.85632243996849
 20
-7.312692726515919
 30
0.0
 11
-82.85632243996849
 21
13.16105927348408
 31
0.0
  0
LINE
  5
10F1
330
10A3
100
AcDbEntity
  8
0
 62
     0
370
    -2
100
AcDbLine
 10
-168.3196484399686
 20
11.91105927348408
 30
0.0
 11
-85.35632243996849
 21
11.91105927348408
 31
0.0
  0
INSERT
  5
10F2
330
10A3
100
AcDbEntity
  8
0
 62
     0
370
    -2
100
AcDbBlockReference
  2
_Open30
 10
-170.8196484399686
 20
11.91105927348408
 30
0.0
 41
2.5
 42
2.5
 43
2.5
 50
180.0
  0
INSERT
  5
10F3
330
10A3
100
AcDbEntity
  8
0
 62
     0
370
    -2
100
AcDbBlockReference
  2
_Open30
 10
-82.85632243996849
 20
11.91105927348408
 30
0.0
 41
2.5
 42
2.5
 43
2.5
  0
MTEXT
  5
10F4
330
10A3
100
AcDbEntity
  8
0
 62
     4
100
AcDbMText
 10
-126.8379854399686
 20
14.03605927348408
 30
0.0
 40
3.0
 41
0.0
 71
     5
 72
     1
  1
88
 73
     1
 44
1.0
1001
ACAD
1000
MTEXTBEGIN
1070
    73
1070
     1
1070
    44
1040
1.0
1070
    74
1070
     0
1000
MTEXTEND
  0
POINT
  5
10F5
330
10A3
100
AcDbEntity
  8
Defpoints
 62
     0
100
AcDbPoint
 10
-170.8196484399686
 20
-12.07760872651592
 30
0.0
  0
POINT
  5
10F6
330
10A3
100
AcDbEntity
  8
Defpoints
 62
     0
100
AcDbPoint
 10
-82.85632243996849
 20
-7.562692726515919
 30
0.0
  0
POINT
  5
10F7
330
10A3
100
AcDbEntity
  8
Defpoints
 62
     0
100
AcDbPoint
 10
-82.85632243996849
 20
11.91105927348408
 30
0.0
  0
ENDBLK
  5
10A5
330
10A3
100
AcDbEntity
  8
0
100
AcDbBlockEnd
  0
ENDSEC
  0
SECTION
  2
ENTITIES
  0
LINE
  5
4DA
330
6B
100
AcDbEntity
  8
0
 62
     3
100
AcDbLine
 10
-477.5535956574217
 20
72.74131429137504
 30
0.0
 11
-477.5535956574217
 21
71.24131429137505
 31
0.0
  0
LINE
  5
4DB
330
6B
100
AcDbEntity
  8
0
 62
     3
100
AcDbLine
 10
-477.5535956574217
 20
72.74131429137504
 30
0.0
 11
-473.0535956574217
 21
72.74131429137504
 31
0.0
  0
LINE
  5
4DC
330
6B
100
AcDbEntity
  8
0
 62
     3
100
AcDbLine
 10
-473.0535956574217
 20
72.74131429137504
 30
0.0
 11
-468.5535956574217
 21
71.24131429137505
 31
0.0
  0
LINE
  5
4DD
330
6B
100
AcDbEntity
  8
0
 62
     3
100
AcDbLine
 10
-465.5535956574218
 20
71.24131429137505
 30
0.0
 11
-468.5535956574217
 21
71.24131429137505
 31
0.0
  0
LINE
  5
4DE
330
6B
100
AcDbEntity
  8
0
 62
     3
100
AcDbLine
 10
-477.5535956574217
 20
71.24131429137505
 30
0.0
 11
-480.6653626574218
 21
71.24131429137505
 31
0.0
  0
LINE
  5
4DF
330
6B
100
AcDbEntity
  8
0
 62
     3
100
AcDbLine
 10
-465.5535956574218
 20
72.74131429137504
 30
0.0
 11
-461.0535956574217
 21
72.74131429137504
 31
0.0
  0
LINE
  5
4E0
330
6B
100
AcDbEntity
  8
0
 62
     3
100
AcDbLine
 10
-465.5535956574218
 20
72.74131429137504
 30
0.0
 11
-465.5535956574218
 21
71.24131429137505
 31
0.0
  0
LINE
  5
4E1
330
6B
100
AcDbEntity
  8
0
 62
     3
100
AcDbLine
 10
-451.2848336574218
 20
74.24131429137505
 30
0.0
 11
-483.5432566574218
 21
74.24131429137505
 31
0.0
  0
LINE
  5
4E2
330
6B
100
AcDbEntity
  8
0
 62
     3
100
AcDbLine
 10
-483.6226196574218
 20
72.26432229137505
 30
0.0
 11
-480.5535956574217
 21
71.24131429137505
 31
0.0
  0
LINE
  5
4E3
330
6B
100
AcDbEntity
  8
0
 62
     3
100
AcDbLine
 10
-461.0535956574217
 20
72.74131429137504
 30
0.0
 11
-456.5535956574217
 21
71.24131429137505
 31
0.0
  0
LINE
  5
4E4
330
6B
100
AcDbEntity
  8
0
 62
     3
100
AcDbLine
 10
-456.5535956574217
 20
71.24131429137505
 30
0.0
 11
-452.3405196574217
 21
71.24131429137505
 31
0.0
  0
LINE
  5
4E5
330
6B
100
AcDbEntity
  8
0
 62
     3
100
AcDbLine
 10
-351.0357246574218
 20
73.51347329137502
 30
0.0
 11
-368.9703846574218
 21
73.51347329137502
 31
0.0
  0
ARC
  5
4E6
330
6B
100
AcDbEntity
  8
0
 62
     3
100
AcDbCircle
 10
-327.0570466574218
 20
81.23908329137504
 30
0.0
 40
0.75
100
AcDbArc
 50
0.0
 51
90.0
  0
LINE
  5
4E7
330
6B
100
AcDbEntity
  8
0
 62
     3
100
AcDbLine
 10
-335.3418556574218
 20
81.98908329137504
 30
0.0
 11
-327.0570466574218
 21
81.98908329137504
 31
0.0
  0
ARC
  5
4E8
330
6B
100
AcDbEntity
  8
0
 62
     3
100
AcDbCircle
 10
-335.3418556574218
 20
81.23908329137504
 30
0.0
 40
0.75
100
AcDbArc
 50
90.0
 51
178.3633029999999
  0
LINE
  5
4E9
330
6B
100
AcDbEntity
  8
0
  6
HIDDEN
 62
    15
100
AcDbLine
 10
-336.0915496574218
 20
80.26050429137503
 30
0.0
 11
-336.0914306574218
 21
80.26467429137504
 31
0.0
  0
LINE
  5
4EA
330
6B
100
AcDbEntity
  8
0
 62
     3
100
AcDbLine
 10
-350.7000746574218
 20
73.86408329137504
 30
0.0
 11
-350.7000746574218
 21
73.93013529137505
 31
0.0
  0
ARC
  5
4EB
330
6B
100
AcDbEntity
  8
0
 62
     3
100
AcDbCircle
 10
-349.9500746574218
 20
73.93013529137505
 30
0.0
 40
0.75
100
AcDbArc
 50
95.27473400000014
 51
180.0
  0
ARC
  5
4EC
330
6B
100
AcDbEntity
  8
0
 62
     3
100
AcDbCircle
 10
-351.0750746574218
 20
73.86408329137504
 30
0.0
 40
0.375
100
AcDbArc
 50
270.0
 51
0.0
  0
LINE
  5
4ED
330
6B
100
AcDbEntity
  8
0
 62
     3
100
AcDbLine
 10
-552.0339396574216
 20
73.51492629137505
 30
0.0
 11
-552.0339396574216
 21
72.01492629137504
 31
0.0
  0
LINE
  5
4EE
330
6B
100
AcDbEntity
  8
0
 62
     3
100
AcDbLine
 10
-548.5487406574218
 20
75.17344929137505
 30
0.0
 11
-562.5524176574217
 21
75.17344929137505
 31
0.0
  0
ARC
  5
4EF
330
6B
100
AcDbEntity
  8
0
 62
     3
100
AcDbCircle
 10
-548.5487406574218
 20
72.67344929137505
 30
0.0
 40
2.5
100
AcDbArc
 50
17.45760299999988
 51
90.0
  0
CIRCLE
  5
4F0
330
6B
100
AcDbEntity
  8
0
100
AcDbCircle
 10
-467.0569376574218
 20
71.18908329137504
 30
0.0
 40
16.957712
  0
LINE
  5
4F1
330
6B
100
AcDbEntity
  8
0
 62
     3
100
AcDbLine
 10
-546.1638926574218
 20
71.92344929137505
 30
0.0
 11
-562.5524176574217
 21
70.22568229137504
 31
0.0
  0
LINE
  5
4F2
330
6B
100
AcDbEntity
  8
0
 62
     3
100
AcDbLine
 10
-326.0595466574218
 20
71.98908329137504
 30
0.0
 11
-326.3070466574218
 21
81.23908329137504
 31
0.0
  0
LINE
  5
4F3
330
6B
100
AcDbEntity
  8
0
 62
     3
100
AcDbLine
 10
-341.8042126574218
 20
77.78097329137505
 30
0.0
 11
-336.1015546574218
 21
80.76252929137504
 31
0.0
  0
LINE
  5
4F4
330
6B
100
AcDbEntity
  8
0
 62
     3
100
AcDbLine
 10
-563.0566226574217
 20
75.72227129137505
 30
0.0
 11
-562.5369646574218
 21
75.15662829137504
 31
0.0
  0
LINE
  5
4F5
330
6B
100
AcDbEntity
  8
0
 62
     3
100
AcDbLine
 10
-563.0566226574217
 20
69.72227129137504
 30
0.0
 11
-562.5369646574218
 21
70.22931329137505
 31
0.0
  0
LINE
  5
4F6
330
6B
100
AcDbEntity
  8
0
 62
     3
100
AcDbLine
 10
-341.8042126574218
 20
78.76131329137504
 30
0.0
 11
-345.7872396574217
 21
78.76131329137504
 31
0.0
  0
LINE
  5
4F7
330
6B
100
AcDbEntity
  8
0
 62
     3
100
AcDbLine
 10
-345.7872396574217
 20
75.99148029137504
 30
0.0
 11
-345.7872396574217
 21
78.76131329137504
 31
0.0
  0
LINE
  5
4F8
330
6B
100
AcDbEntity
  8
0
 62
     3
100
AcDbLine
 10
-341.8042126574218
 20
78.76131329137504
 30
0.0
 11
-341.8042126574218
 21
77.22873129137504
 31
0.0
  0
LINE
  5
4F9
330
6B
100
AcDbEntity
  8
0
 62
     3
100
AcDbLine
 10
-350.9420406574218
 20
73.51347329137502
 30
0.0
 11
-350.9420406574218
 21
71.98908329137504
 31
0.0
  0
LINE
  5
4FA
330
6B
100
AcDbEntity
  8
0
 62
     3
100
AcDbLine
 10
-336.1371846574218
 20
78.98908329137504
 30
0.0
 11
-350.0190226574218
 21
74.67695929137504
 31
0.0
  0
LINE
  5
4FB
330
6B
100
AcDbEntity
  8
0
 62
     3
100
AcDbLine
 10
-336.0915496574218
 20
81.26050429137505
 30
0.0
 11
-336.1131656574218
 21
78.99654429137503
 31
0.0
  0
LINE
  5
4FC
330
6B
100
AcDbEntity
  8
0
  6
DASHED
100
AcDbLine
 10
-507.4719236574217
 20
-20.72741970862496
 30
0.0
 11
-507.4719236574217
 21
-10.22741970862496
 31
0.0
  0
LINE
  5
4FD
330
6B
100
AcDbEntity
  8
0
  6
DASHED
100
AcDbLine
 10
-460.2219236574218
 20
-10.22741970862496
 30
0.0
 11
-460.2219236574218
 21
-20.72741970862496
 31
0.0
  0
LINE
  5
4FE
330
6B
100
AcDbEntity
  8
0
  6
DASHED
100
AcDbLine
 10
-455.7219236574218
 20
-10.22741970862496
 30
0.0
 11
-455.7219236574218
 21
-20.72741970862496
 31
0.0
  0
LINE
  5
4FF
330
6B
100
AcDbEntity
  8
0
  6
DASHED
100
AcDbLine
 10
-457.9719236574218
 20
-10.22741970862496
 30
0.0
 11
-457.9719236574218
 21
-20.72741970862496
 31
0.0
  0
LINE
  5
500
330
6B
100
AcDbEntity
  8
0
 62
     3
100
AcDbLine
 10
-351.2227856574218
 20
-23.02218670862496
 30
0.0
 11
-350.5220496574218
 21
-23.02218670862496
 31
0.0
  0
LINE
  5
501
330
6B
100
AcDbEntity
  8
0
 62
     3
100
AcDbLine
 10
-351.2227856574218
 20
-7.932653708624956
 30
0.0
 11
-350.5220496574218
 21
-7.932653708624956
 31
0.0
  0
LINE
  5
502
330
6B
100
AcDbEntity
  8
0
  6
DASHED
100
AcDbLine
 10
-461.7219236574218
 20
-15.43657470862496
 30
0.0
 11
-461.7219236574218
 21
-20.72741970862496
 31
0.0
  0
LINE
  5
503
330
6B
100
AcDbEntity
  8
0
  6
DASHED
100
AcDbLine
 10
-460.2219236574218
 20
-20.72741970862496
 30
0.0
 11
-455.7219236574218
 21
-20.72741970862496
 31
0.0
  0
LINE
  5
504
330
6B
100
AcDbEntity
  8
0
  6
DASHED
100
AcDbLine
 10
-460.2219236574218
 20
-10.22741970862496
 30
0.0
 11
-455.7219236574218
 21
-10.22741970862496
 31
0.0
  0
LINE
  5
505
330
6B
100
AcDbEntity
  8
0
  6
DASHED
100
AcDbLine
 10
-465.4719236574218
 20
-10.22741970862496
 30
0.0
 11
-465.4719236574218
 21
-20.72741970862496
 31
0.0
  0
LINE
  5
506
330
6B
100
AcDbEntity
  8
0
  6
DASHED
100
AcDbLine
 10
-463.2219236574218
 20
-10.22741970862496
 30
0.0
 11
-463.2219236574218
 21
-14.79198070862496
 31
0.0
  0
LINE
  5
507
330
6B
100
AcDbEntity
  8
0
 62
     3
100
AcDbLine
 10
-330.7120026574218
 20
-19.97500570862496
 30
0.0
 11
-330.7120026574218
 21
-10.97500570862496
 31
0.0
  0
ARC
  5
508
330
6B
100
AcDbEntity
  8
0
 62
     3
100
AcDbCircle
 10
-327.7120026574218
 20
-4.975005708624958
 30
0.0
 40
1.5
100
AcDbArc
 50
0.0
 51
90.0
  0
ARC
  5
509
330
6B
100
AcDbEntity
  8
0
 62
     3
100
AcDbCircle
 10
-327.7120026574218
 20
-25.97500570862496
 30
0.0
 40
1.5
100
AcDbArc
 50
270.0
 51
0.0
  0
LINE
  5
50A
330
6B
100
AcDbEntity
  8
0
 62
     3
100
AcDbLine
 10
-329.9620026574218
 20
-22.97500570862496
 30
0.0
 11
-329.9620026574218
 21
-22.60000570862496
 31
0.0
  0
LINE
  5
50B
330
6B
100
AcDbEntity
  8
0
 62
     3
100
AcDbLine
 10
-329.9620026574218
 20
-7.975005708624956
 30
0.0
 11
-329.9620026574218
 21
-8.350005708624957
 31
0.0
  0
ARC
  5
50C
330
6B
100
AcDbEntity
  8
0
 62
     3
100
AcDbCircle
 10
-330.3370026574218
 20
-7.975005708624956
 30
0.0
 40
0.375
100
AcDbArc
 50
0.0
 51
90.0
  0
ARC
  5
50D
330
6B
100
AcDbEntity
  8
0
 62
     3
100
AcDbCircle
 10
-330.3370026574218
 20
-22.97500570862496
 30
0.0
 40
0.375
100
AcDbArc
 50
270.0
 51
0.0
  0
LINE
  5
50E
330
6B
100
AcDbEntity
  8
0
 62
     3
100
AcDbLine
 10
-331.8370026574218
 20
-7.600005708624956
 30
0.0
 11
-330.3370026574218
 21
-7.600005708624956
 31
0.0
  0
LINE
  5
50F
330
6B
100
AcDbEntity
  8
0
 62
     3
100
AcDbLine
 10
-331.8370026574218
 20
-23.35000570862496
 30
0.0
 11
-330.3370026574218
 21
-23.35000570862496
 31
0.0
  0
LINE
  5
510
330
6B
100
AcDbEntity
  8
0
 62
     3
100
AcDbLine
 10
-332.2120026574218
 20
-22.97500570862496
 30
0.0
 11
-332.2120026574218
 21
-21.47500570862496
 31
0.0
  0
LINE
  5
511
330
6B
100
AcDbEntity
  8
0
 62
     3
100
AcDbLine
 10
-332.2120026574218
 20
-7.975005708624956
 30
0.0
 11
-332.2120026574218
 21
-9.475005708624957
 31
0.0
  0
ARC
  5
512
330
6B
100
AcDbEntity
  8
0
 62
     3
100
AcDbCircle
 10
-331.8370026574218
 20
-7.975005708624956
 30
0.0
 40
0.375
100
AcDbArc
 50
90.0
 51
180.0
  0
ARC
  5
513
330
6B
100
AcDbEntity
  8
0
 62
     3
100
AcDbCircle
 10
-331.8370026574218
 20
-22.97500570862496
 30
0.0
 40
0.375
100
AcDbArc
 50
180.0
 51
270.0
  0
LINE
  5
514
330
6B
100
AcDbEntity
  8
0
 62
     3
100
AcDbLine
 10
-326.9620026574218
 20
-17.72500570862496
 30
0.0
 11
-329.9620026574218
 21
-17.72500570862496
 31
0.0
  0
LINE
  5
515
330
6B
100
AcDbEntity
  8
0
 62
     3
100
AcDbLine
 10
-326.9620026574218
 20
-13.22500570862496
 30
0.0
 11
-329.9620026574218
 21
-13.22500570862496
 31
0.0
  0
LINE
  5
516
330
6B
100
AcDbEntity
  8
0
 62
     3
100
AcDbLine
 10
-329.9620026574218
 20
-8.350005708624957
 30
0.0
 11
-329.9620026574218
 21
-13.22500570862496
 31
0.0
  0
LINE
  5
517
330
6B
100
AcDbEntity
  8
0
 62
     3
100
AcDbLine
 10
-329.9620026574218
 20
-17.72500570862496
 30
0.0
 11
-329.9620026574218
 21
-22.60000570862496
 31
0.0
  0
LINE
  5
518
330
6B
100
AcDbEntity
  8
0
 62
     3
100
AcDbLine
 10
-344.3961606574218
 20
-19.97500570862496
 30
0.0
 11
-344.9644516574218
 21
-19.97500570862496
 31
0.0
  0
LINE
  5
519
330
6B
100
AcDbEntity
  8
0
 62
     3
100
AcDbLine
 10
-344.3961606574218
 20
-10.97500570862496
 30
0.0
 11
-344.9644516574218
 21
-10.97500570862496
 31
0.0
  0
LINE
  5
51A
330
6B
100
AcDbEntity
  8
0
 62
     3
100
AcDbLine
 10
-332.9644516574218
 20
-19.60000570862496
 30
0.0
 11
-332.9644516574218
 21
-16.97500570862496
 31
0.0
  0
LINE
  5
51B
330
6B
100
AcDbEntity
  8
0
 62
     3
100
AcDbLine
 10
-345.7144516574218
 20
-19.22500570862496
 30
0.0
 11
-345.7144516574218
 21
-11.72500570862496
 31
0.0
  0
LINE
  5
51C
330
6B
100
AcDbEntity
  8
0
 62
     3
100
AcDbLine
 10
-338.6331446574218
 20
-16.60000570862496
 30
0.0
 11
-341.2534436574218
 21
-16.60000570862496
 31
0.0
  0
LINE
  5
51D
330
6B
100
AcDbEntity
  8
0
 62
     3
100
AcDbLine
 10
-335.6114086574218
 20
-14.35000570862496
 30
0.0
 11
-333.3394516574218
 21
-14.35000570862496
 31
0.0
  0
LINE
  5
51E
330
6B
100
AcDbEntity
  8
0
 62
     3
100
AcDbLine
 10
-334.2069296574218
 20
-11.35000570862495
 30
0.0
 11
-334.2069296574218
 21
-14.35000570862496
 31
0.0
  0
LINE
  5
51F
330
6B
100
AcDbEntity
  8
0
 62
     3
100
AcDbLine
 10
-334.2069296574218
 20
-19.60000570862496
 30
0.0
 11
-334.2069296574218
 21
-16.60000570862496
 31
0.0
  0
LINE
  5
520
330
6B
100
AcDbEntity
  8
0
 62
     3
100
AcDbLine
 10
-346.8394516574218
 20
-10.22500570862495
 30
0.0
 11
-346.8394516574218
 21
-20.72500570862496
 31
0.0
  0
ARC
  5
521
330
6B
100
AcDbEntity
  8
0
 62
     3
100
AcDbCircle
 10
-346.0894516574218
 20
-20.72500570862496
 30
0.0
 40
0.75
100
AcDbArc
 50
180.0
 51
270.0
  0
ARC
  5
522
330
6B
100
AcDbEntity
  8
0
 62
     3
100
AcDbCircle
 10
-346.0894516574218
 20
-10.22500570862495
 30
0.0
 40
0.75
100
AcDbArc
 50
90.0
 51
180.0
  0
ARC
  5
523
330
6B
100
AcDbEntity
  8
0
 62
     3
100
AcDbCircle
 10
-344.9644516574218
 20
-11.72500570862496
 30
0.0
 40
0.75
100
AcDbArc
 50
90.0
 51
180.0
  0
ARC
  5
524
330
6B
100
AcDbEntity
  8
0
 62
     3
100
AcDbCircle
 10
-344.9644516574218
 20
-19.22500570862496
 30
0.0
 40
0.75
100
AcDbArc
 50
180.0
 51
270.0
  0
ARC
  5
525
330
6B
100
AcDbEntity
  8
0
 62
     3
100
AcDbCircle
 10
-326.9620026574218
 20
-18.47500570862496
 30
0.0
 40
0.75
100
AcDbArc
 50
0.0
 51
90.0
  0
ARC
  5
526
330
6B
100
AcDbEntity
  8
0
 62
     3
100
AcDbCircle
 10
-326.9620026574218
 20
-12.47500570862496
 30
0.0
 40
0.75
100
AcDbArc
 50
270.0
 51
0.0
  0
LINE
  5
527
330
6B
100
AcDbEntity
  8
0
 62
     3
100
AcDbLine
 10
-334.5614086574218
 20
-27.47500570862495
 30
0.0
 11
-327.7120026574218
 21
-27.47500570862495
 31
0.0
  0
LINE
  5
528
330
6B
100
AcDbEntity
  8
0
 62
     3
100
AcDbLine
 10
-334.4864086574218
 20
-3.475005708624957
 30
0.0
 11
-327.7120026574218
 21
-3.475005708624957
 31
0.0
  0
LINE
  5
529
330
6B
100
AcDbEntity
  8
0
 62
     3
100
AcDbLine
 10
-335.9864086574218
 20
-25.19477170862496
 30
0.0
 11
-335.9864086574218
 21
-25.22500570862496
 31
0.0
  0
ARC
  5
52A
330
6B
100
AcDbEntity
  8
0
 62
     3
100
AcDbCircle
 10
-334.4864086574218
 20
-25.97500570862496
 30
0.0
 40
1.5
100
AcDbArc
 50
180.0
 51
270.0
  0
LINE
  5
52B
330
6B
100
AcDbEntity
  8
0
  6
HIDDEN
 62
    15
100
AcDbLine
 10
-335.9864086574218
 20
-25.22500570862496
 30
0.0
 11
-335.9864086574218
 21
-25.26977170862496
 31
0.0
  0
LINE
  5
52C
330
6B
100
AcDbEntity
  8
0
 62
     3
100
AcDbLine
 10
-338.2581446574218
 20
-10.97500570862496
 30
0.0
 11
-338.2581446574218
 21
-9.475005708624957
 31
0.0
  0
LINE
  5
52D
330
6B
100
AcDbEntity
  8
0
 62
     3
100
AcDbLine
 10
-338.2581446574218
 20
-19.97500570862496
 30
0.0
 11
-338.2581446574218
 21
-21.47500570862496
 31
0.0
  0
LINE
  5
52E
330
6B
100
AcDbEntity
  8
0
 62
     3
100
AcDbLine
 10
-344.3961606574218
 20
-19.97500570862496
 30
0.0
 11
-338.2581446574218
 21
-19.97500570862496
 31
0.0
  0
LINE
  5
52F
330
6B
100
AcDbEntity
  8
0
 62
     3
100
AcDbLine
 10
-332.5894516574218
 20
-19.97500570862496
 30
0.0
 11
-330.7120026574218
 21
-19.97500570862496
 31
0.0
  0
LINE
  5
530
330
6B
100
AcDbEntity
  8
0
 62
     3
100
AcDbLine
 10
-344.3961606574218
 20
-10.97500570862496
 30
0.0
 11
-338.2581446574218
 21
-10.97500570862496
 31
0.0
  0
LINE
  5
531
330
6B
100
AcDbEntity
  8
0
 62
     3
100
AcDbLine
 10
-332.5894516574218
 20
-10.97500570862496
 30
0.0
 11
-330.7120026574218
 21
-10.97500570862496
 31
0.0
  0
ARC
  5
532
330
6B
100
AcDbEntity
  8
0
 62
     3
100
AcDbCircle
 10
-333.3394516574218
 20
-16.97500570862496
 30
0.0
 40
0.375
100
AcDbArc
 50
0.0
 51
90.0
  0
LINE
  5
533
330
6B
100
AcDbEntity
  8
0
 62
     3
100
AcDbLine
 10
-332.9644516574218
 20
-11.35000570862495
 30
0.0
 11
-332.9644516574218
 21
-13.97500570862496
 31
0.0
  0
ARC
  5
534
330
6B
100
AcDbEntity
  8
0
 62
     3
100
AcDbCircle
 10
-333.3394516574218
 20
-13.97500570862496
 30
0.0
 40
0.375
100
AcDbArc
 50
270.0
 51
0.0
  0
LINE
  5
535
330
6B
100
AcDbEntity
  8
0
 62
     3
100
AcDbLine
 10
-335.6114086574218
 20
-16.60000570862496
 30
0.0
 11
-333.3394516574218
 21
-16.60000570862496
 31
0.0
  0
LINE
  5
536
330
6B
100
AcDbEntity
  8
0
 62
     3
100
AcDbLine
 10
-338.6331446574218
 20
-14.35000570862496
 30
0.0
 11
-341.2534436574218
 21
-14.35000570862496
 31
0.0
  0
LINE
  5
537
330
6B
100
AcDbEntity
  8
0
 62
     3
100
AcDbLine
 10
-332.9644516574218
 20
-16.97500570862496
 30
0.0
 11
-332.9644516574218
 21
-13.97500570862496
 31
0.0
  0
LINE
  5
538
330
6B
100
AcDbEntity
  8
0
 62
     3
100
AcDbLine
 10
-335.6114086574218
 20
-16.60000570862496
 30
0.0
 11
-338.6331446574218
 21
-16.60000570862496
 31
0.0
  0
LINE
  5
539
330
6B
100
AcDbEntity
  8
0
 62
     3
100
AcDbLine
 10
-335.6114086574218
 20
-14.35000570862496
 30
0.0
 11
-338.6331446574218
 21
-14.35000570862496
 31
0.0
  0
ARC
  5
53A
330
6B
100
AcDbEntity
  8
0
 62
     3
100
AcDbCircle
 10
-334.4864086574218
 20
-4.975005708624958
 30
0.0
 40
1.5
100
AcDbArc
 50
90.0
 51
180.0
  0
LINE
  5
53B
330
6B
100
AcDbEntity
  8
0
  6
HIDDEN
 62
    15
100
AcDbLine
 10
-335.9864086574218
 20
-5.725005708624956
 30
0.0
 11
-335.9864086574218
 21
-5.680239708624956
 31
0.0
  0
LINE
  5
53C
330
6B
100
AcDbEntity
  8
0
  6
HIDDEN
 62
    15
100
AcDbLine
 10
-334.4864086574218
 20
-4.225005708624958
 30
0.0
 11
-334.5614086574218
 21
-4.225005708624958
 31
0.0
  0
ARC
  5
53D
330
6B
100
AcDbEntity
  8
0
 62
     3
100
AcDbCircle
 10
-349.8394516574218
 20
-23.69038770862496
 30
0.0
 40
0.75
100
AcDbArc
 50
180.0
 51
263.820121000001
  0
LINE
  5
53E
330
6B
100
AcDbEntity
  8
0
  6
HIDDEN
 62
    15
100
AcDbLine
 10
-350.5894516574218
 20
-22.94038770862496
 30
0.0
 11
-350.5894516574218
 21
-22.94477170862496
 31
0.0
  0
ARC
  5
53F
330
6B
100
AcDbEntity
  8
0
 62
     3
100
AcDbCircle
 10
-349.8394516574218
 20
-7.184366708624956
 30
0.0
 40
0.75
100
AcDbArc
 50
95.99681099999862
 51
180.0
  0
LINE
  5
540
330
6B
100
AcDbEntity
  8
0
  6
HIDDEN
 62
    15
100
AcDbLine
 10
-350.5894516574218
 20
-7.934366708624956
 30
0.0
 11
-350.5894516574218
 21
-7.930239708624956
 31
0.0
  0
ARC
  5
541
330
6B
100
AcDbEntity
  8
0
 62
     3
100
AcDbCircle
 10
-332.5894516574218
 20
-19.60000570862496
 30
0.0
 40
0.375
100
AcDbArc
 50
180.0
 51
270.0
  0
LINE
  5
542
330
6B
100
AcDbEntity
  8
0
 62
     3
100
AcDbLine
 10
-333.8319296574218
 20
-19.97500570862496
 30
0.0
 11
-332.5894516574218
 21
-19.97500570862496
 31
0.0
  0
ARC
  5
543
330
6B
100
AcDbEntity
  8
0
 62
     3
100
AcDbCircle
 10
-333.8319296574218
 20
-19.60000570862496
 30
0.0
 40
0.375
100
AcDbArc
 50
180.0
 51
270.0
  0
ARC
  5
544
330
6B
100
AcDbEntity
  8
0
 62
     3
100
AcDbCircle
 10
-332.5894516574218
 20
-11.35000570862495
 30
0.0
 40
0.375
100
AcDbArc
 50
90.0
 51
180.0
  0
LINE
  5
545
330
6B
100
AcDbEntity
  8
0
 62
     3
100
AcDbLine
 10
-333.8319296574218
 20
-10.97500570862496
 30
0.0
 11
-332.5894516574218
 21
-10.97500570862496
 31
0.0
  0
ARC
  5
546
330
6B
100
AcDbEntity
  8
0
 62
     3
100
AcDbCircle
 10
-333.8319296574218
 20
-11.35000570862495
 30
0.0
 40
0.375
100
AcDbArc
 50
90.0
 51
180.0
  0
LINE
  5
547
330
6B
100
AcDbEntity
  8
0
 62
     3
100
AcDbLine
 10
-333.8319296574218
 20
-19.97500570862496
 30
0.0
 11
-335.9864086574218
 21
-19.97500570862496
 31
0.0
  0
LINE
  5
548
330
6B
100
AcDbEntity
  8
0
 62
     3
100
AcDbLine
 10
-333.8319296574218
 20
-10.97500570862496
 30
0.0
 11
-335.9864086574218
 21
-10.97500570862496
 31
0.0
  0
LINE
  5
549
330
6B
100
AcDbEntity
  8
0
  6
HIDDEN
 62
    15
100
AcDbLine
 10
-352.0894516574218
 20
-21.52218670862496
 30
0.0
 11
-352.0538096574218
 21
-21.52218670862496
 31
0.0
  0
LINE
  5
54A
330
6B
100
AcDbEntity
  8
0
  6
HIDDEN
 62
    15
100
AcDbLine
 10
-352.0894516574218
 20
-9.432653708624956
 30
0.0
 11
-352.0538096574218
 21
-9.432653708624956
 31
0.0
  0
LINE
  5
54B
330
6B
100
AcDbEntity
  8
0
 62
     3
100
AcDbLine
 10
-337.6530406574218
 20
-26.85148270862496
 30
0.0
 11
-334.4864086574218
 21
-27.47500570862495
 31
0.0
  0
LINE
  5
54C
330
6B
100
AcDbEntity
  8
0
 62
     3
100
AcDbLine
 10
-337.6508756574218
 20
-4.060516708624957
 30
0.0
 11
-334.7718706574218
 21
-3.502418708624957
 31
0.0
  0
LINE
  5
54D
330
6B
100
AcDbEntity
  8
0
 62
     3
100
AcDbLine
 10
-337.6530406574218
 20
-26.85148270862496
 30
0.0
 11
-349.9201886574218
 21
-24.43602970862496
 31
0.0
  0
LINE
  5
54E
330
6B
100
AcDbEntity
  8
0
 62
     3
100
AcDbLine
 10
-337.6508756574218
 20
-4.060516708624957
 30
0.0
 11
-349.9178056574218
 21
-6.438470708624956
 31
0.0
  0
LINE
  5
54F
330
6B
100
AcDbEntity
  8
0
 62
     3
100
AcDbLine
 10
-338.2581446574218
 20
-19.97500570862496
 30
0.0
 11
-338.2581446574218
 21
-16.60000570862496
 31
0.0
  0
LINE
  5
550
330
6B
100
AcDbEntity
  8
0
 62
     3
100
AcDbLine
 10
-338.2581446574218
 20
-10.97500570862496
 30
0.0
 11
-338.2581446574218
 21
-14.35000570862496
 31
0.0
  0
LINE
  5
551
330
6B
100
AcDbEntity
  8
0
 62
     3
100
AcDbLine
 10
-544.8738636574216
 20
-22.39555570862496
 30
0.0
 11
-551.6512976574217
 21
-17.96250370862496
 31
0.0
  0
LINE
  5
552
330
6B
100
AcDbEntity
  8
0
 62
     3
100
AcDbLine
 10
-544.8738636574216
 20
-8.529452708624956
 30
0.0
 11
-551.6512976574217
 21
-12.96250370862496
 31
0.0
  0
ARC
  5
553
330
6B
100
AcDbEntity
  8
0
 62
     3
100
AcDbCircle
 10
-542.8211426574217
 20
-19.25726970862496
 30
0.0
 40
3.75
100
AcDbArc
 50
236.811702000001
 51
270.0
  0
ARC
  5
554
330
6B
100
AcDbEntity
  8
0
 62
     3
100
AcDbCircle
 10
-542.8211426574217
 20
-11.66773770862496
 30
0.0
 40
3.75
100
AcDbArc
 50
90.0
 51
123.1882979999989
  0
LINE
  5
555
330
6B
100
AcDbEntity
  8
0
 62
     3
100
AcDbLine
 10
-548.4060826574218
 20
-17.96250370862496
 30
0.0
 11
-562.3941226574218
 21
-17.96250370862496
 31
0.0
  0
LINE
  5
556
330
6B
100
AcDbEntity
  8
0
 62
     3
100
AcDbLine
 10
-548.4060826574218
 20
-12.96250370862496
 30
0.0
 11
-562.3941226574218
 21
-12.96250370862496
 31
0.0
  0
ARC
  5
557
330
6B
100
AcDbEntity
  8
0
 62
     3
100
AcDbCircle
 10
-546.4060826574218
 20
-15.46250370862496
 30
0.0
 40
2.5
100
AcDbArc
 50
270.0
 51
90.0
  0
LINE
  5
558
330
6B
100
AcDbEntity
  8
0
 62
     3
100
AcDbLine
 10
-546.4060826574218
 20
-17.96250370862496
 30
0.0
 11
-548.9110326574217
 21
-17.96250370862496
 31
0.0
  0
LINE
  5
559
330
6B
100
AcDbEntity
  8
0
 62
     3
100
AcDbLine
 10
-546.4060826574218
 20
-12.96250370862496
 30
0.0
 11
-548.9110326574217
 21
-12.96250370862496
 31
0.0
  0
ARC
  5
55A
330
6B
100
AcDbEntity
  8
0
 62
     2
100
AcDbCircle
 10
-512.5549426574217
 20
-15.50821970862496
 30
0.0
 40
1.954384
100
AcDbArc
 50
296.4480559999986
 51
63.55194400000131
  0
ARC
  5
55B
330
6B
100
AcDbEntity
  8
0
 62
     2
100
AcDbCircle
 10
-517.0445656574218
 20
-24.53349170862496
 30
0.0
 40
11.635073
100
AcDbArc
 50
63.55194400000131
 51
81.8382250000006
  0
ARC
  5
55C
330
6B
100
AcDbEntity
  8
0
 62
     2
100
AcDbCircle
 10
-525.2733636574218
 20
-81.90851070862496
 30
0.0
 40
69.99678
100
AcDbArc
 50
81.8382250000006
 51
99.17448699999857
  0
ARC
  5
55D
330
6B
100
AcDbEntity
  8
0
 62
     2
100
AcDbCircle
 10
-517.0445656574218
 20
-24.53349170862496
 30
0.0
 40
12.034673
100
AcDbArc
 50
63.55194400000131
 51
81.8382250000006
  0
ARC
  5
55E
330
6B
100
AcDbEntity
  8
0
 62
     2
100
AcDbCircle
 10
-525.2920986574217
 20
-82.10827270862495
 30
0.0
 40
69.796915
100
AcDbArc
 50
81.73606200000069
 51
99.05376299999891
  0
ARC
  5
55F
330
6B
100
AcDbEntity
  8
0
 62
     2
100
AcDbCircle
 10
-512.5549426574217
 20
-15.50821970862496
 30
0.0
 40
1.554783999999999
100
AcDbArc
 50
296.4480559999986
 51
63.55194400000131
  0
ARC
  5
560
330
6B
100
AcDbEntity
  8
0
 62
     2
100
AcDbCircle
 10
-517.0445656574218
 20
-6.482948708624956
 30
0.0
 40
12.034673
100
AcDbArc
 50
278.1617749999994
 51
296.4480559999986
  0
ARC
  5
561
330
6B
100
AcDbEntity
  8
0
 62
     2
100
AcDbCircle
 10
-525.2920986574217
 20
51.09183229137503
 30
0.0
 40
69.796915
100
AcDbArc
 50
260.9462370000011
 51
278.2639379999993
  0
ARC
  5
562
330
6B
100
AcDbEntity
  8
0
 62
     2
100
AcDbCircle
 10
-517.0445656574218
 20
-6.482948708624956
 30
0.0
 40
11.635073
100
AcDbArc
 50
278.1617749999994
 51
296.4480559999986
  0
ARC
  5
563
330
6B
100
AcDbEntity
  8
0
 62
     2
100
AcDbCircle
 10
-525.2733636574218
 20
50.89207029137504
 30
0.0
 40
69.99678
100
AcDbArc
 50
260.8255130000014
 51
278.1617749999994
  0
ARC
  5
564
330
6B
100
AcDbEntity
  8
0
 62
     2
100
AcDbCircle
 10
-533.7269536574217
 20
-6.482948708624956
 30
0.0
 40
12.034673
100
AcDbArc
 50
243.5519440000013
 51
257.0019650000014
  0
ARC
  5
565
330
6B
100
AcDbEntity
  8
0
 62
     2
100
AcDbCircle
 10
-533.7269536574217
 20
-6.482948708624956
 30
0.0
 40
11.635073
100
AcDbArc
 50
243.5519440000013
 51
257.3477330000014
  0
ARC
  5
566
330
6B
100
AcDbEntity
  8
0
 62
     2
100
AcDbCircle
 10
-538.2165756574218
 20
-15.50821970862496
 30
0.0
 40
1.554783999999999
100
AcDbArc
 50
116.4480559999987
 51
243.5519440000013
  0
ARC
  5
567
330
6B
100
AcDbEntity
  8
0
 62
     2
100
AcDbCircle
 10
-538.2165756574218
 20
-15.50821970862496
 30
0.0
 40
1.954384
100
AcDbArc
 50
116.4480559999987
 51
243.5519440000013
  0
ARC
  5
568
330
6B
100
AcDbEntity
  8
0
 62
     2
100
AcDbCircle
 10
-533.7269536574217
 20
-24.53349170862496
 30
0.0
 40
11.635073
100
AcDbArc
 50
102.6522669999985
 51
116.4480559999987
  0
ARC
  5
569
330
6B
100
AcDbEntity
  8
0
 62
     2
100
AcDbCircle
 10
-533.7269536574217
 20
-24.53349170862496
 30
0.0
 40
12.034673
100
AcDbArc
 50
102.9980349999986
 51
116.4480559999987
  0
LINE
  5
56A
330
6B
100
AcDbEntity
  8
0
 62
     3
100
AcDbLine
 10
-562.9139646574218
 20
-18.47741970862496
 30
0.0
 11
-562.4701576574218
 21
-18.03781870862496
 31
0.0
  0
LINE
  5
56B
330
6B
100
AcDbEntity
  8
0
 62
     3
100
AcDbLine
 10
-562.9139646574218
 20
-12.47741970862495
 30
0.0
 11
-562.4349626574216
 21
-13.00491870862496
 31
0.0
  0
LINE
  5
56C
330
6B
100
AcDbEntity
  8
0
 62
     3
100
AcDbLine
 10
-369.6974246574218
 20
-23.02218670862496
 30
0.0
 11
-392.3696386574218
 21
-23.02218670862496
 31
0.0
  0
LINE
  5
56D
330
6B
100
AcDbEntity
  8
0
 62
     3
100
AcDbLine
 10
-369.2096976574218
 20
-7.932653708624956
 30
0.0
 11
-391.8819116574218
 21
-7.932653708624956
 31
0.0
  0
LINE
  5
56E
330
6B
100
AcDbEntity
  8
0
  6
DASHED
100
AcDbLine
 10
-505.1719236574218
 20
-20.72741970862496
 30
0.0
 11
-505.1719236574218
 21
-10.22741970862496
 31
0.0
  0
LINE
  5
56F
330
6B
100
AcDbEntity
  8
0
  6
DASHED
100
AcDbLine
 10
-502.8719236574217
 20
-20.72741970862496
 30
0.0
 11
-502.8719236574217
 21
-10.22741970862496
 31
0.0
  0
LINE
  5
570
330
6B
100
AcDbEntity
  8
0
  6
DASHED
100
AcDbLine
 10
-500.5719236574218
 20
-20.72741970862496
 30
0.0
 11
-500.5719236574218
 21
-10.22741970862496
 31
0.0
  0
LINE
  5
571
330
6B
100
AcDbEntity
  8
0
  6
DASHED
100
AcDbLine
 10
-498.2719236574218
 20
-20.72741970862496
 30
0.0
 11
-498.2719236574218
 21
-10.22741970862496
 31
0.0
  0
LINE
  5
572
330
6B
100
AcDbEntity
  8
0
  6
DASHED
100
AcDbLine
 10
-495.9719236574218
 20
-20.72741970862496
 30
0.0
 11
-495.9719236574218
 21
-10.22741970862496
 31
0.0
  0
LINE
  5
573
330
6B
100
AcDbEntity
  8
0
  6
DASHED
100
AcDbLine
 10
-507.4719236574217
 20
-20.72741970862496
 30
0.0
 11
-502.8719236574217
 21
-20.72741970862496
 31
0.0
  0
LINE
  5
574
330
6B
100
AcDbEntity
  8
0
  6
DASHED
100
AcDbLine
 10
-500.5719236574218
 20
-20.72741970862496
 30
0.0
 11
-495.9719236574218
 21
-20.72741970862496
 31
0.0
  0
LINE
  5
575
330
6B
100
AcDbEntity
  8
0
  6
DASHED
100
AcDbLine
 10
-500.5719236574218
 20
-10.22741970862496
 30
0.0
 11
-495.9719236574218
 21
-10.22741970862496
 31
0.0
  0
LINE
  5
576
330
6B
100
AcDbEntity
  8
0
  6
DASHED
100
AcDbLine
 10
-507.4719236574217
 20
-10.22741970862496
 30
0.0
 11
-502.8719236574217
 21
-10.22741970862496
 31
0.0
  0
ARC
  5
579
330
6B
100
AcDbEntity
  8
0
 62
     3
100
AcDbCircle
 10
-345.7368096574218
 20
-15.47500570862496
 30
0.0
 40
4.622358999999998
100
AcDbArc
 50
283.2125340000015
 51
76.78746599999854
  0
LINE
  5
57A
330
6B
100
AcDbEntity
  8
0
 62
     3
100
AcDbLine
 10
-350.5894516574218
 20
-23.69038770862496
 30
0.0
 11
-350.5894516574218
 21
-7.184366708624956
 31
0.0
  0
LINE
  5
57B
330
6B
100
AcDbEntity
  8
0
 62
     3
100
AcDbLine
 10
-326.2120026574218
 20
-25.97500570862496
 30
0.0
 11
-326.2120026574218
 21
-18.47500570862496
 31
0.0
  0
LINE
  5
57C
330
6B
100
AcDbEntity
  8
0
 62
     3
100
AcDbLine
 10
-326.2120026574218
 20
-12.47500570862496
 30
0.0
 11
-326.2120026574218
 21
-4.975005708624958
 31
0.0
  0
LINE
  5
57D
330
6B
100
AcDbEntity
  8
0
 62
     3
100
AcDbLine
 10
-335.9864086574218
 20
-25.97500570862496
 30
0.0
 11
-335.9864086574218
 21
-16.60000570862496
 31
0.0
  0
LINE
  5
57E
330
6B
100
AcDbEntity
  8
0
 62
     3
100
AcDbLine
 10
-335.9864086574218
 20
-4.975005708624958
 30
0.0
 11
-335.9864086574218
 21
-14.35000570862496
 31
0.0
  0
LINE
  5
57F
330
6B
100
AcDbEntity
  8
0
 62
     3
100
AcDbLine
 10
-332.2120026574218
 20
-21.47500570862496
 30
0.0
 11
-350.5894516574218
 21
-21.47500570862496
 31
0.0
  0
LINE
  5
580
330
6B
100
AcDbEntity
  8
0
 62
     3
100
AcDbLine
 10
-332.2120026574218
 20
-9.475005708624957
 30
0.0
 11
-350.5894516574218
 21
-9.475005708624957
 31
0.0
  0
LINE
  5
581
330
6B
100
AcDbEntity
  8
0
 62
     3
100
AcDbLine
 10
-350.5894516574218
 20
-23.02218670862496
 30
0.0
 11
-462.0786896574218
 21
-23.02218670862496
 31
0.0
  0
LINE
  5
582
330
6B
100
AcDbEntity
  8
0
 62
     3
100
AcDbLine
 10
-350.5894516574218
 20
-7.932653708624956
 30
0.0
 11
-461.6140286574218
 21
-7.932653708624956
 31
0.0
  0
CIRCLE
  5
583
330
6B
100
AcDbEntity
  8
0
 62
     3
100
AcDbCircle
 10
-375.5894516574218
 20
-15.47500570862496
 30
0.0
 40
2.0
  0
CIRCLE
  5
584
330
6B
100
AcDbEntity
  8
0
 62
     3
100
AcDbCircle
 10
-385.5894516574218
 20
-15.47500570862496
 30
0.0
 40
2.0
  0
CIRCLE
  5
585
330
6B
100
AcDbEntity
  8
0
 62
     3
100
AcDbCircle
 10
-395.5894516574218
 20
-15.47500570862496
 30
0.0
 40
2.0
  0
LINE
  5
586
330
6B
100
AcDbEntity
  8
0
  6
PHANTOM
100
AcDbLine
 10
-461.7219236574218
 20
-20.72741970862496
 30
0.0
 11
-463.1920916574218
 21
-20.72741970862496
 31
0.0
  0
TEXT
  5
587
330
6B
100
AcDbEntity
  8
0
100
AcDbText
 10
-447.0133416574218
 20
-20.28689870862496
 30
0.0
 40
2.027519999999999
  1
JAPAN
 50
90.00000300000001
 41
0.800781
100
AcDbText
  0
TEXT
  5
588
330
6B
100
AcDbEntity
  8
0
100
AcDbText
 10
-443.5404476574218
 20
-20.34212670862496
 30
0.0
 40
2.433024
  1
MULTI
 50
90.00000300000001
 41
0.8579799999999998
100
AcDbText
  0
TEXT
  5
589
330
6B
100
AcDbEntity
  8
0
100
AcDbText
 10
-437.6787446574218
 20
-20.95958370862496
 30
0.0
 40
2.2176
  1
PAT.TED
 50
90.00000300000001
 41
0.7317610000000001
100
AcDbText
  0
TEXT
  5
58A
330
6B
100
AcDbEntity
  8
0
100
AcDbText
 10
-440.9213756574216
 20
-19.67813070862496
 30
0.0
 40
2.433024
  1
HOOK
 50
90.00000300000001
 41
0.8262459999999999
100
AcDbText
  0
TEXT
  5
58B
330
6B
100
AcDbEntity
  8
0
100
AcDbText
 10
-419.5954636574218
 20
-17.95083070862496
 30
0.0
 40
2.5344
  1
EP
 50
90.00000300000001
100
AcDbText
  0
LINE
  5
58C
330
6B
100
AcDbEntity
  8
0
100
AcDbLine
 10
-446.4811996574218
 20
-9.501645708624961
 30
0.0
 11
-446.4811996574218
 21
-21.47028270862496
 31
0.0
  0
LINE
  5
58D
330
6B
100
AcDbEntity
  8
0
100
AcDbLine
 10
-440.5136966574217
 20
-9.501645708624961
 30
0.0
 11
-440.5136966574217
 21
-21.47028270862496
 31
0.0
  0
LINE
  5
58E
330
6B
100
AcDbEntity
  8
0
 62
     3
100
AcDbLine
 10
-449.8667656574218
 20
-10.49164570862496
 30
0.0
 11
-449.8667656574218
 21
-20.48028270862496
 31
0.0
  0
ARC
  5
58F
330
6B
100
AcDbEntity
  8
0
 62
     3
100
AcDbCircle
 10
-448.8767656574218
 20
-10.49164570862496
 30
0.0
 40
0.99
100
AcDbArc
 50
90.0
 51
180.0
  0
LINE
  5
590
330
6B
100
AcDbEntity
  8
0
 62
     3
100
AcDbLine
 10
-403.2962126574218
 20
-9.251645708624961
 30
0.0
 11
-448.8767656574218
 21
-9.251645708624961
 31
0.0
  0
ARC
  5
591
330
6B
100
AcDbEntity
  8
0
 62
     3
100
AcDbCircle
 10
-448.8767656574218
 20
-20.48028270862496
 30
0.0
 40
0.99
100
AcDbArc
 50
180.0
 51
270.0
  0
LINE
  5
592
330
6B
100
AcDbEntity
  8
0
 62
     3
100
AcDbLine
 10
-403.2962126574218
 20
-21.47028270862496
 30
0.0
 11
-448.8767656574218
 21
-21.47028270862496
 31
0.0
  0
LINE
  5
593
330
6B
100
AcDbEntity
  8
0
100
AcDbLine
 10
-405.8552896574218
 20
-9.501645708624961
 30
0.0
 11
-405.8552896574218
 21
-21.47028270862496
 31
0.0
  0
ARC
  5
594
330
6B
100
AcDbEntity
  8
0
 62
     3
100
AcDbCircle
 10
-403.2962126574218
 20
-20.48028270862496
 30
0.0
 40
0.99
100
AcDbArc
 50
270.0
 51
0.0
  0
LINE
  5
595
330
6B
100
AcDbEntity
  8
0
 62
     3
100
AcDbLine
 10
-402.3062126574218
 20
-20.48028270862496
 30
0.0
 11
-402.3062126574218
 21
-10.49164570862496
 31
0.0
  0
ARC
  5
596
330
6B
100
AcDbEntity
  8
0
 62
     3
100
AcDbCircle
 10
-403.2962126574218
 20
-10.49164570862496
 30
0.0
 40
0.99
100
AcDbArc
 50
0.0
 51
90.0
  0
TEXT
  5
597
330
6B
100
AcDbEntity
  8
0
100
AcDbText
 10
-431.6338636574218
 20
-17.95083070862496
 30
0.0
 40
2.5344
  1
TW
 50
90.00000300000001
 41
0.8571429999999999
100
AcDbText
  0
TEXT
  5
598
330
6B
100
AcDbEntity
  8
0
100
AcDbText
 10
-434.5606356574218
 20
-18.17170570862496
 30
0.0
 40
2.5344
  1
JP
 50
90.00000300000001
100
AcDbText
  0
TEXT
  5
599
330
6B
100
AcDbEntity
  8
0
100
AcDbText
 10
-428.6242636574217
 20
-17.95083070862496
 30
0.0
 40
2.5344
  1
KR
 50
90.00000300000001
100
AcDbText
  0
TEXT
  5
59A
330
6B
100
AcDbEntity
  8
0
100
AcDbText
 10
-425.6146636574217
 20
-17.95083070862496
 30
0.0
 40
2.5344
  1
CN
 50
90.00000300000001
100
AcDbText
  0
TEXT
  5
59B
330
6B
100
AcDbEntity
  8
0
100
AcDbText
 10
-422.6050636574218
 20
-17.95083070862496
 30
0.0
 40
2.5344
  1
HK
 50
90.00000300000001
100
AcDbText
  0
TEXT
  5
59C
330
6B
100
AcDbEntity
  8
0
100
AcDbText
 10
-416.5858636574218
 20
-17.95083070862496
 30
0.0
 40
2.5344
  1
US
 50
90.00000300000001
100
AcDbText
  0
TEXT
  5
59D
330
6B
100
AcDbEntity
  8
0
100
AcDbText
 10
-413.5762636574217
 20
-17.95083070862496
 30
0.0
 40
2.5344
  1
CA
 50
90.00000300000001
100
AcDbText
  0
TEXT
  5
59E
330
6B
100
AcDbEntity
  8
0
100
AcDbText
 10
-410.6192246574217
 20
-17.95083070862496
 30
0.0
 40
2.5344
  1
AU
 50
90.00000300000001
100
AcDbText
  0
LINE
  5
59F
330
6B
100
AcDbEntity
  8
0
  6
DASHED
100
AcDbLine
 10
-493.6719236574218
 20
-20.72741970862496
 30
0.0
 11
-493.6719236574218
 21
-10.22741970862496
 31
0.0
  0
LINE
  5
5A0
330
6B
100
AcDbEntity
  8
0
  6
DASHED
100
AcDbLine
 10
-491.3719236574218
 20
-20.72741970862496
 30
0.0
 11
-491.3719236574218
 21
-10.22741970862496
 31
0.0
  0
LINE
  5
5A1
330
6B
100
AcDbEntity
  8
0
  6
DASHED
100
AcDbLine
 10
-489.0719236574217
 20
-20.72741970862496
 30
0.0
 11
-489.0719236574217
 21
-10.22741970862496
 31
0.0
  0
LINE
  5
5A2
330
6B
100
AcDbEntity
  8
0
  6
DASHED
100
AcDbLine
 10
-493.6719236574218
 20
-20.72741970862496
 30
0.0
 11
-489.0719236574217
 21
-20.72741970862496
 31
0.0
  0
LINE
  5
5A3
330
6B
100
AcDbEntity
  8
0
  6
DASHED
100
AcDbLine
 10
-493.6719236574218
 20
-10.22741970862496
 30
0.0
 11
-489.0719236574217
 21
-10.22741970862496
 31
0.0
  0
LINE
  5
5A4
330
6B
100
AcDbEntity
  8
0
  6
DASHED
100
AcDbLine
 10
-486.7719236574218
 20
-20.72741970862496
 30
0.0
 11
-486.7719236574218
 21
-10.22741970862496
 31
0.0
  0
LINE
  5
5A5
330
6B
100
AcDbEntity
  8
0
  6
DASHED
100
AcDbLine
 10
-484.4719236574218
 20
-20.72741970862496
 30
0.0
 11
-484.4719236574218
 21
-10.22741970862496
 31
0.0
  0
LINE
  5
5A6
330
6B
100
AcDbEntity
  8
0
  6
DASHED
100
AcDbLine
 10
-482.1719236574216
 20
-20.72741970862496
 30
0.0
 11
-482.1719236574216
 21
-10.22741970862496
 31
0.0
  0
LINE
  5
5A7
330
6B
100
AcDbEntity
  8
0
  6
DASHED
100
AcDbLine
 10
-486.7719236574218
 20
-20.72741970862496
 30
0.0
 11
-482.1719236574216
 21
-20.72741970862496
 31
0.0
  0
LINE
  5
5A8
330
6B
100
AcDbEntity
  8
0
  6
DASHED
100
AcDbLine
 10
-486.7719236574218
 20
-10.22741970862496
 30
0.0
 11
-482.1719236574216
 21
-10.22741970862496
 31
0.0
  0
LINE
  5
5A9
330
6B
100
AcDbEntity
  8
0
  6
DASHED
100
AcDbLine
 10
-479.8719236574218
 20
-20.72741970862496
 30
0.0
 11
-479.8719236574218
 21
-10.22741970862496
 31
0.0
  0
LINE
  5
5AA
330
6B
100
AcDbEntity
  8
0
  6
DASHED
100
AcDbLine
 10
-477.5719236574217
 20
-20.72741970862496
 30
0.0
 11
-477.5719236574217
 21
-10.22741970862496
 31
0.0
  0
LINE
  5
5AB
330
6B
100
AcDbEntity
  8
0
  6
DASHED
100
AcDbLine
 10
-475.2719236574217
 20
-20.72741970862496
 30
0.0
 11
-475.2719236574217
 21
-10.22741970862496
 31
0.0
  0
LINE
  5
5AC
330
6B
100
AcDbEntity
  8
0
  6
DASHED
100
AcDbLine
 10
-479.8719236574218
 20
-20.72741970862496
 30
0.0
 11
-475.2719236574217
 21
-20.72741970862496
 31
0.0
  0
LINE
  5
5AD
330
6B
100
AcDbEntity
  8
0
  6
DASHED
100
AcDbLine
 10
-479.8719236574218
 20
-10.22741970862496
 30
0.0
 11
-475.2719236574217
 21
-10.22741970862496
 31
0.0
  0
LINE
  5
5AE
330
6B
100
AcDbEntity
  8
0
  6
DASHED
100
AcDbLine
 10
-472.9719236574218
 20
-20.72741970862496
 30
0.0
 11
-472.9719236574218
 21
-10.22741970862496
 31
0.0
  0
LINE
  5
5AF
330
6B
100
AcDbEntity
  8
0
  6
DASHED
100
AcDbLine
 10
-470.6719236574218
 20
-20.72741970862496
 30
0.0
 11
-470.6719236574218
 21
-10.22741970862496
 31
0.0
  0
LINE
  5
5B0
330
6B
100
AcDbEntity
  8
0
  6
DASHED
100
AcDbLine
 10
-468.3719236574217
 20
-20.72741970862496
 30
0.0
 11
-468.3719236574217
 21
-10.22741970862496
 31
0.0
  0
LINE
  5
5B1
330
6B
100
AcDbEntity
  8
0
  6
DASHED
100
AcDbLine
 10
-472.9719236574218
 20
-20.72741970862496
 30
0.0
 11
-468.3719236574217
 21
-20.72741970862496
 31
0.0
  0
LINE
  5
5B2
330
6B
100
AcDbEntity
  8
0
  6
DASHED
100
AcDbLine
 10
-472.9719236574218
 20
-10.22741970862496
 30
0.0
 11
-468.3719236574217
 21
-10.22741970862496
 31
0.0
  0
LINE
  5
5B3
330
6B
100
AcDbEntity
  8
0
100
AcDbLine
 10
-465.4719236574218
 20
-10.22741970862496
 30
0.0
 11
-462.6622796574217
 21
-10.22741970862496
 31
0.0
  0
LINE
  5
5B4
330
6B
100
AcDbEntity
  8
0
 62
     3
100
AcDbLine
 10
-562.9937686574217
 20
-12.50756770862496
 30
0.0
 11
-562.5499616574217
 21
-12.94716970862496
 31
0.0
  0
LINE
  5
5B5
330
6B
100
AcDbEntity
  8
0
 62
     3
100
AcDbLine
 10
-562.9937686574217
 20
-18.50756770862496
 30
0.0
 11
-562.5147666574218
 21
-17.98006870862496
 31
0.0
  0
LINE
  5
5B6
330
6B
100
AcDbEntity
  8
0
 62
     3
100
AcDbLine
 10
-552.0339396574216
 20
73.51492629137505
 30
0.0
 11
-483.4189886574216
 21
73.51492629137505
 31
0.0
  0
LINE
  5
5B7
330
6B
100
AcDbEntity
  8
0
 62
     3
100
AcDbLine
 10
-552.0339396574216
 20
72.01492629137504
 30
0.0
 11
-483.8753456574218
 21
72.01492629137504
 31
0.0
  0
LINE
  5
5B8
330
6B
100
AcDbEntity
  8
0
 62
     3
100
AcDbLine
 10
-351.2081076574218
 20
73.51347329137502
 30
0.0
 11
-448.6379306574217
 21
73.51347329137502
 31
0.0
  0
LINE
  5
5B9
330
6B
100
AcDbEntity
  8
0
 62
     3
100
AcDbLine
 10
-326.0595466574218
 20
71.98908329137504
 30
0.0
 11
-448.6379306574217
 21
71.98908329137504
 31
0.0
  0
TEXT
  5
5BA
330
6B
100
AcDbEntity
  8
0
100
AcDbText
 10
-403.2658686574217
 20
-18.87645670862496
 30
0.0
 40
2.027519999999999
  1
PA6
 50
90.00000300000001
 41
1.067708
100
AcDbText
  0
LINE
  5
5BB
330
6B
100
AcDbEntity
  8
0
 62
     3
100
AcDbLine
 10
-562.9848736574217
 20
-10.00756770862496
 30
0.0
 11
-562.9848736574217
 21
-21.00756770862496
 31
0.0
  0
TEXT
  5
5BC
330
6B
100
AcDbEntity
  8
0
 62
     3
100
AcDbText
 10
-371.2721746574218
 20
-17.79583770862496
 30
0.0
 40
4.5
  1
BH-500
 41
0.7306600000000003
100
AcDbText
  0
LINE
  5
5BD
330
6B
100
AcDbEntity
  8
0
 62
     3
100
AcDbLine
 10
-571.5601246574217
 20
-20.59754670862496
 30
0.0
 11
-568.0601246574217
 21
-20.59754670862496
 31
0.0
  0
LINE
  5
5BE
330
6B
100
AcDbEntity
  8
0
 62
     3
100
AcDbLine
 10
-571.5601246574217
 20
-10.59754670862496
 30
0.0
 11
-568.0601246574217
 21
-10.59754670862496
 31
0.0
  0
LINE
  5
5BF
330
6B
100
AcDbEntity
  8
0
 62
     3
100
AcDbLine
 10
-572.0601246574217
 20
-11.09754670862496
 30
0.0
 11
-572.0601246574217
 21
-20.09754670862496
 31
0.0
  0
LINE
  5
5C0
330
6B
100
AcDbEntity
  8
0
 62
     3
100
AcDbLine
 10
-568.0601246574217
 20
-20.59754670862496
 30
0.0
 11
-568.0601246574217
 21
-10.59754670862496
 31
0.0
  0
ARC
  5
5C1
330
6B
100
AcDbEntity
  8
0
 62
     3
100
AcDbCircle
 10
-571.5601246574217
 20
-20.09754670862496
 30
0.0
 40
0.5
100
AcDbArc
 50
180.0
 51
270.0
  0
ARC
  5
5C2
330
6B
100
AcDbEntity
  8
0
 62
     3
100
AcDbCircle
 10
-571.5601246574217
 20
-11.09754670862496
 30
0.0
 40
0.5
100
AcDbArc
 50
90.0
 51
180.0
  0
LINE
  5
5C3
330
6B
100
AcDbEntity
  8
0
 62
     3
100
AcDbLine
 10
-563.0601246574217
 20
-12.59754670862496
 30
0.0
 11
-562.6163176574217
 21
-13.03714770862496
 31
0.0
  0
LINE
  5
5C4
330
6B
100
AcDbEntity
  8
0
 62
     3
100
AcDbLine
 10
-563.0601246574217
 20
-18.59754670862496
 30
0.0
 11
-562.5811226574218
 21
-18.07004770862496
 31
0.0
  0
LINE
  5
5C5
330
6B
100
AcDbEntity
  8
0
 62
     3
100
AcDbLine
 10
-563.0908176574216
 20
75.88904229137502
 30
0.0
 11
-562.5711596574218
 21
75.32339929137504
 31
0.0
  0
LINE
  5
5C6
330
6B
100
AcDbEntity
  8
0
 62
     3
100
AcDbLine
 10
-563.0908176574216
 20
69.88904229137502
 30
0.0
 11
-562.5711596574218
 21
70.39608529137504
 31
0.0
  0
LINE
  5
5C7
330
6B
100
AcDbEntity
  8
0
 62
     3
100
AcDbLine
 10
-562.5866126574218
 20
75.34022029137503
 30
0.0
 11
-562.5866126574218
 21
70.39381229137504
 31
0.0
  0
LINE
  5
5C8
330
6B
100
AcDbEntity
  8
0
 62
     3
100
AcDbLine
 10
-562.5402826574218
 20
-13.11246270862495
 30
0.0
 11
-562.5402826574218
 21
-18.11246270862495
 31
0.0
  0
LINE
  5
5C9
330
6B
100
AcDbEntity
  8
0
 62
     3
100
AcDbLine
 10
-563.0601246574217
 20
-12.59754670862496
 30
0.0
 11
-568.0601246574217
 21
-12.59754670862496
 31
0.0
  0
LINE
  5
5CA
330
6B
100
AcDbEntity
  8
0
 62
     3
100
AcDbLine
 10
-563.0601246574217
 20
-18.59754670862496
 30
0.0
 11
-568.0601246574217
 21
-18.59754670862496
 31
0.0
  0
LINE
  5
5CB
330
6B
100
AcDbEntity
  8
0
 62
     3
100
AcDbLine
 10
-563.0461786574216
 20
75.98904229137504
 30
0.0
 11
-568.0461786574217
 21
75.98904229137504
 31
0.0
  0
LINE
  5
5CC
330
6B
100
AcDbEntity
  8
0
 62
     3
100
AcDbLine
 10
-568.0461786574217
 20
67.84598629137504
 30
0.0
 11
-568.0461786574217
 21
78.08904229137502
 31
0.0
  0
LINE
  5
5CD
330
6B
100
AcDbEntity
  8
0
 62
     3
100
AcDbLine
 10
-577.0041526574217
 20
78.48443429137502
 30
0.0
 11
-575.9801146574217
 21
78.84780329137504
 31
0.0
  0
LINE
  5
5CE
330
6B
100
AcDbEntity
  8
0
 62
     3
100
AcDbLine
 10
-572.2184006574217
 20
67.84598629137504
 30
0.0
 11
-572.2184006574217
 21
78.24598629137504
 31
0.0
  0
LINE
  5
5CF
330
6B
100
AcDbEntity
  8
0
 62
     3
100
AcDbLine
 10
-568.0184006574217
 20
67.84598629137504
 30
0.0
 11
-572.2184006574217
 21
67.84598629137504
 31
0.0
  0
LINE
  5
5D0
330
6B
100
AcDbEntity
  8
0
 62
     3
100
AcDbLine
 10
-568.0461786574217
 20
78.24598629137504
 30
0.0
 11
-572.2184006574217
 21
78.24598629137504
 31
0.0
  0
LINE
  5
5D1
330
6B
100
AcDbEntity
  8
0
 62
     3
100
AcDbLine
 10
-563.0184006574217
 20
69.94598629137502
 30
0.0
 11
-568.0184006574217
 21
69.94598629137502
 31
0.0
  0
LINE
  5
5D2
330
6B
100
AcDbEntity
  8
0
 62
     3
100
AcDbLine
 10
-577.0041526574217
 20
67.60753929137504
 30
0.0
 11
-575.9801146574217
 21
67.24417029137504
 31
0.0
  0
LINE
  5
5D3
330
6B
100
AcDbEntity
  8
0
 62
     3
100
AcDbLine
 10
-615.7548726574217
 20
98.83062429137504
 30
0.0
 11
-608.0970046574217
 21
106.275776291375
 31
0.0
  0
LINE
  5
5D4
330
6B
100
AcDbEntity
  8
0
 62
     3
100
AcDbLine
 10
-589.7198246574216
 20
78.42019229137503
 30
0.0
 11
-602.0513566574217
 21
59.43044229137504
 31
0.0
  0
LINE
  5
5D5
330
6B
100
AcDbEntity
  8
0
 62
     3
100
AcDbLine
 10
-582.7615966574216
 20
66.32122029137504
 30
0.0
 11
-592.5082856574217
 21
52.11436229137504
 31
0.0
  0
LINE
  5
5D6
330
6B
100
AcDbEntity
  8
0
 62
     3
100
AcDbLine
 10
-587.9482166574217
 20
75.14525929137504
 30
0.0
 11
-599.7324886574217
 21
57.49715129137505
 31
0.0
  0
LINE
  5
5D7
330
6B
100
AcDbEntity
  8
0
 62
     3
100
AcDbLine
 10
-585.0685396574217
 20
68.65319129137505
 30
0.0
 11
-594.7426496574216
 21
54.16525829137504
 31
0.0
  0
ARC
  5
5D8
330
6B
100
AcDbEntity
  8
0
 62
     3
100
AcDbCircle
 10
-623.0184006574217
 20
73.04598629137505
 30
0.0
 40
37.0
100
AcDbArc
 50
81.74438899999953
 51
325.5477250000008
  0
ARC
  5
5D9
330
6B
100
AcDbEntity
  8
0
 62
     3
100
AcDbCircle
 10
-623.0184006574217
 20
73.04598629137505
 30
0.0
 40
34.0
100
AcDbArc
 50
84.44655600000073
 51
326.2675489999996
  0
ARC
  5
5DA
330
6B
100
AcDbEntity
  8
0
 62
     3
100
AcDbCircle
 10
-623.0184006574217
 20
73.04598629137505
 30
0.0
 40
28.0
100
AcDbArc
 50
84.44655600000073
 51
326.2675489999996
  0
ARC
  5
5DB
330
6B
100
AcDbEntity
  8
0
 62
     3
100
AcDbCircle
 10
-623.0184006574217
 20
73.04598629137505
 30
0.0
 40
25.0
100
AcDbArc
 50
180.0
 51
327.0011790000006
  0
ARC
  5
5DC
330
6B
100
AcDbEntity
  8
0
 62
     3
100
AcDbCircle
 10
-585.9185426574217
 20
72.88614829137505
 30
0.0
 40
1.5
100
AcDbArc
 50
326.193077
 51
146.1930789999993
  0
LINE
  5
5DD
330
6B
100
AcDbEntity
  8
0
 62
     3
100
AcDbLine
 10
-588.8341066574216
 20
71.22799029137505
 30
0.0
 11
-587.1649186574217
 21
73.72074229137503
 31
0.0
  0
ARC
  5
5DE
330
6B
100
AcDbEntity
  8
0
 62
     3
100
AcDbCircle
 10
-587.5877306574217
 20
70.39339629137504
 30
0.0
 40
1.5
100
AcDbArc
 50
146.1930829999997
 51
326.1930789999993
  0
LINE
  5
5DF
330
6B
100
AcDbEntity
  8
0
 62
     3
100
AcDbLine
 10
-586.3413546574216
 20
69.55880229137505
 30
0.0
 11
-584.6721666574217
 21
72.05155429137504
 31
0.0
  0
LINE
  5
5E0
330
6B
100
AcDbEntity
  8
0
 62
     3
100
AcDbLine
 10
-577.9791966574217
 20
78.39287229137504
 30
0.0
 11
-586.7444416574216
 21
79.75095329137504
 31
0.0
  0
ARC
  5
5E1
330
6B
100
AcDbEntity
  8
0
 62
     3
100
AcDbCircle
 10
-587.2037786574217
 20
76.78632629137505
 30
0.0
 40
3.0
100
AcDbArc
 50
81.19266600000113
 51
147.0011790000006
  0
LINE
  5
5E2
330
6B
100
AcDbEntity
  8
0
 62
     3
100
AcDbLine
 10
-577.9791966574217
 20
67.69910129137503
 30
0.0
 11
-581.4186266574217
 21
67.16619829137504
 31
0.0
  0
ARC
  5
5E3
330
6B
100
AcDbEntity
  8
0
 62
     3
100
AcDbCircle
 10
-581.1124016574217
 20
65.18978129137504
 30
0.0
 40
2.0
100
AcDbArc
 50
98.80733399999892
 51
145.5477250000008
  0
ARC
  5
5E4
330
6B
100
AcDbEntity
  8
0
 62
     3
100
AcDbCircle
 10
-585.4532976574216
 20
73.47931229137505
 30
0.0
 40
3.0
100
AcDbArc
 50
81.19266600000113
 51
146.2675489999996
  0
LINE
  5
5E5
330
6B
100
AcDbEntity
  8
0
 62
     3
100
AcDbLine
 10
-584.9939606574216
 20
76.44393929137504
 30
0.0
 11
-576.0184006574217
 21
75.05327229137503
 31
0.0
  0
LINE
  5
5E6
330
6B
100
AcDbEntity
  8
0
 62
     3
100
AcDbLine
 10
-583.0329576574217
 20
69.95187129137504
 30
0.0
 11
-576.0184006574217
 21
71.03870129137504
 31
0.0
  0
ARC
  5
5E7
330
6B
100
AcDbEntity
  8
0
 62
     3
100
AcDbCircle
 10
-582.5736206574218
 20
66.98724429137502
 30
0.0
 40
3.0
100
AcDbArc
 50
98.80733399999892
 51
146.2675489999996
  0
LINE
  5
5E8
330
6B
100
AcDbEntity
  8
0
 62
     3
100
AcDbLine
 10
-576.0184006574217
 20
79.54598629137504
 30
0.0
 11
-576.0184006574217
 21
66.54598629137502
 31
0.0
  0
ARC
  5
5E9
330
6B
100
AcDbEntity
  8
0
 62
     3
100
AcDbCircle
 10
-577.6729726574217
 20
65.72268329137504
 30
0.0
 40
2.0
100
AcDbArc
 50
70.46334499999969
 51
98.80733399999892
  0
ARC
  5
5EA
330
6B
100
AcDbEntity
  8
0
 62
     3
100
AcDbCircle
 10
-577.6729726574217
 20
80.36929029137505
 30
0.0
 40
2.0
100
AcDbArc
 50
261.1926660000011
 51
289.5366550000003
  0
ARC
  5
5EB
330
6B
100
AcDbEntity
  8
0
 62
     3
100
AcDbCircle
 10
-611.2338576574217
 20
109.502253291375
 30
0.0
 40
4.5
100
AcDbArc
 50
314.1930789999991
 51
33.39770900000038
  0
LINE
  5
5EC
330
6B
100
AcDbEntity
  8
0
 62
     3
100
AcDbLine
 10
-595.8855906574217
 20
68.92531729137504
 30
0.0
 11
-593.3461706574217
 21
67.06129129137504
 31
0.0
  0
LINE
  5
5ED
330
6B
100
AcDbEntity
  8
0
 62
     3
100
AcDbLine
 10
-602.0513566574217
 20
59.43044229137504
 30
0.0
 11
-599.7324886574217
 21
57.49715129137505
 31
0.0
  0
LINE
  5
5EE
330
6B
100
AcDbEntity
  8
0
 62
     3
100
AcDbLine
 10
-565.0184006574217
 20
64.54598629137503
 30
0.0
 11
-574.0184006574216
 21
64.54598629137503
 31
0.0
  0
LINE
  5
5EF
330
6B
100
AcDbEntity
  8
0
 62
     3
100
AcDbLine
 10
-565.0184006574217
 20
81.54598629137504
 30
0.0
 11
-574.0184006574216
 21
81.54598629137504
 31
0.0
  0
ARC
  5
5F0
330
6B
100
AcDbEntity
  8
0
 62
     3
100
AcDbCircle
 10
-574.0184006574216
 20
66.54598629137502
 30
0.0
 40
2.0
100
AcDbArc
 50
180.0
 51
270.0
  0
ARC
  5
5F1
330
6B
100
AcDbEntity
  8
0
 62
     3
100
AcDbCircle
 10
-565.0184006574217
 20
66.54598629137502
 30
0.0
 40
2.0
100
AcDbArc
 50
270.0
 51
0.0
  0
ARC
  5
5F2
330
6B
100
AcDbEntity
  8
0
 62
     3
100
AcDbCircle
 10
-574.0184006574216
 20
79.54598629137504
 30
0.0
 40
2.0
100
AcDbArc
 50
90.0
 51
180.0
  0
ARC
  5
5F3
330
6B
100
AcDbEntity
  8
0
 62
     3
100
AcDbCircle
 10
-565.0184006574217
 20
79.54598629137504
 30
0.0
 40
2.0
100
AcDbArc
 50
0.0
 51
90.0
  0
LINE
  5
5F4
330
6B
100
AcDbEntity
  8
0
 62
     3
100
AcDbLine
 10
-563.0184006574217
 20
79.54598629137504
 30
0.0
 11
-563.0184006574217
 21
75.98904229137504
 31
0.0
  0
LINE
  5
5F5
330
6B
100
AcDbEntity
  8
0
 62
     3
100
AcDbLine
 10
-563.0184006574217
 20
69.94598629137502
 30
0.0
 11
-563.0184006574217
 21
66.54598629137502
 31
0.0
  0
LINE
  5
5F6
330
6B
100
AcDbEntity
  8
0
 62
     3
100
AcDbLine
 10
-659.0234506574216
 20
-21.61246270862496
 30
0.0
 11
-576.0234506574216
 21
-21.61246270862496
 31
0.0
  0
LINE
  5
5F7
330
6B
100
AcDbEntity
  8
0
 62
     3
100
AcDbLine
 10
-659.0234506574216
 20
-9.612462708624956
 30
0.0
 11
-576.0234506574216
 21
-9.612462708624956
 31
0.0
  0
LINE
  5
5F8
330
6B
100
AcDbEntity
  8
0
 62
     3
100
AcDbLine
 10
-563.0234506574216
 20
-22.19093470862496
 30
0.0
 11
-563.0234506574216
 21
-18.63399070862496
 31
0.0
  0
ARC
  5
5F9
330
6B
100
AcDbEntity
  8
0
 62
     3
100
AcDbCircle
 10
-565.0234506574216
 20
-22.19093470862496
 30
0.0
 40
2.0
100
AcDbArc
 50
270.0
 51
0.0
  0
LINE
  5
5FA
330
6B
100
AcDbEntity
  8
0
 62
     3
100
AcDbLine
 10
-565.0234506574216
 20
-24.19093470862496
 30
0.0
 11
-574.0234506574217
 21
-24.19093470862496
 31
0.0
  0
ARC
  5
5FB
330
6B
100
AcDbEntity
  8
0
 62
     3
100
AcDbCircle
 10
-574.0234506574217
 20
-22.19093470862496
 30
0.0
 40
2.0
100
AcDbArc
 50
180.0
 51
270.0
  0
LINE
  5
5FC
330
6B
100
AcDbEntity
  8
0
 62
     3
100
AcDbLine
 10
-576.0234506574216
 20
-22.19093470862496
 30
0.0
 11
-576.0234506574216
 21
-9.190934708624956
 31
0.0
  0
ARC
  5
5FD
330
6B
100
AcDbEntity
  8
0
 62
     3
100
AcDbCircle
 10
-574.0234506574217
 20
-9.190934708624956
 30
0.0
 40
2.0
100
AcDbArc
 50
90.0
 51
180.0
  0
LINE
  5
5FE
330
6B
100
AcDbEntity
  8
0
 62
     3
100
AcDbLine
 10
-565.0234506574216
 20
-7.190934708624956
 30
0.0
 11
-574.0234506574217
 21
-7.190934708624956
 31
0.0
  0
ARC
  5
5FF
330
6B
100
AcDbEntity
  8
0
 62
     3
100
AcDbCircle
 10
-565.0234506574216
 20
-9.190934708624956
 30
0.0
 40
2.0
100
AcDbArc
 50
0.0
 51
90.0
  0
LINE
  5
600
330
6B
100
AcDbEntity
  8
0
 62
     3
100
AcDbLine
 10
-563.0234506574216
 20
-12.59093470862495
 30
0.0
 11
-563.0234506574216
 21
-9.190934708624956
 31
0.0
  0
LINE
  5
601
330
6B
100
AcDbEntity
  8
0
 62
     3
100
AcDbLine
 10
-542.8211426574217
 20
-7.917737708624956
 30
0.0
 11
-463.6491326574216
 21
-7.917737708624956
 31
0.0
  0
LINE
  5
602
330
6B
100
AcDbEntity
  8
0
 62
     3
100
AcDbLine
 10
-542.8211426574217
 20
-23.00726970862496
 30
0.0
 11
-464.1233306574218
 21
-23.00726970862496
 31
0.0
  0
ARC
  5
603
330
6B
100
AcDbEntity
  8
0
 62
     3
100
AcDbCircle
 10
-620.0184006574216
 20
103.900484291375
 30
0.0
 40
3.0
100
AcDbArc
 50
275.5534489999988
 51
95.55344399999922
  0
LINE
  5
604
330
6B
100
AcDbEntity
  8
0
 62
     3
100
AcDbLine
 10
-615.2264776574217
 20
108.085651291375
 30
0.0
 11
-613.1615326574217
 21
110.093237291375
 31
0.0
  0
LINE
  5
605
330
6B
100
AcDbEntity
  8
0
 62
     3
100
AcDbLine
 10
-613.2188916574217
 20
106.020706291375
 30
0.0
 11
-611.1539466574217
 21
108.028292291375
 31
0.0
  0
ARC
  5
606
330
6B
100
AcDbEntity
  8
0
 62
     3
100
AcDbCircle
 10
-614.2226846574217
 20
107.053179291375
 30
0.0
 40
1.439999999999999
100
AcDbArc
 50
134.1930829999994
 51
314.1930789999991
  0
ARC
  5
607
330
6B
100
AcDbEntity
  8
0
 62
     3
100
AcDbCircle
 10
-612.1577396574217
 20
109.060765291375
 30
0.0
 40
1.439999999999999
100
AcDbArc
 50
314.193077
 51
134.193078999999
  0
LINE
  5
608
330
6B
100
AcDbEntity
  8
0
  6
HIDDEN
 62
    15
100
AcDbLine
 10
-614.0970046574217
 20
106.675776291375
 30
0.0
 11
-613.9565136574217
 21
106.812364291375
 31
0.0
  0
LINE
  5
609
330
6B
100
AcDbEntity
  8
0
 62
     3
100
AcDbLine
 10
-617.3528786574216
 20
109.788582291375
 30
0.0
 11
-613.5069516574217
 21
113.996997291375
 31
0.0
  0
ARC
  5
60A
330
6B
100
AcDbEntity
  8
0
 62
     3
100
AcDbCircle
 10
-623.0184006574217
 20
73.04598629137505
 30
0.0
 40
25.0
100
AcDbArc
 50
81.12277100000081
 51
180.0
  0
ARC
  5
60B
330
6B
100
AcDbEntity
  8
0
 62
     3
100
AcDbCircle
 10
-618.5431866574218
 20
101.698603291375
 30
0.0
 40
4.0
100
AcDbArc
 50
261.1227710000008
 51
314.1930789999991
  0
ARC
  5
60C
330
6B
100
AcDbEntity
  8
0
 62
     3
100
AcDbCircle
 10
-617.6481526574217
 20
110.058423291375
 30
0.0
 40
0.4
100
AcDbArc
 50
261.7443889999995
 51
317.5768629999997
  0
LINE
  5
60D
330
6B
100
AcDbEntity
  8
0
 62
     3
100
AcDbLine
 10
-620.3087236574218
 20
100.914565291375
 30
0.0
 11
-620.3403596574217
 21
97.90213429137505
 31
0.0
  0
LINE
  5
60E
330
6B
100
AcDbEntity
  8
0
 62
     3
100
AcDbLine
 10
-623.0184006574217
 20
101.045986291375
 30
0.0
 11
-623.0184006574217
 21
98.04598629137505
 31
0.0
  0
LINE
  5
60F
330
6B
100
AcDbEntity
  8
0
 62
     3
100
AcDbLine
 10
-607.4769436574217
 20
111.979266291375
 30
0.0
 11
-612.2623166574217
 21
117.275113291375
 31
0.0
  0
LINE
  5
610
330
6B
100
AcDbEntity
  8
0
 62
     3
100
AcDbLine
 10
-614.7787806574217
 20
115.543816291375
 30
0.0
 11
-613.5069516574217
 21
113.996997291375
 31
0.0
  0
ARC
  5
611
330
6B
100
AcDbEntity
  8
0
 62
     3
100
AcDbCircle
 10
-613.4054496574217
 20
116.242167291375
 30
0.0
 40
1.540691999999999
100
AcDbArc
 50
42.10123900000016
 51
231.9018560000003
  0
LINE
  5
612
330
6B
100
AcDbEntity
  8
0
 62
     3
100
AcDbLine
 10
-660.0234506574216
 20
-20.61246270862496
 30
0.0
 11
-660.0234506574216
 21
-10.61246270862496
 31
0.0
  0
ARC
  5
613
330
6B
100
AcDbEntity
  8
0
 62
     3
100
AcDbCircle
 10
-659.0234506574216
 20
-10.61246270862496
 30
0.0
 40
1.0
100
AcDbArc
 50
90.0
 51
180.0
  0
ARC
  5
614
330
6B
100
AcDbEntity
  8
0
 62
     3
100
AcDbCircle
 10
-659.0234506574216
 20
-20.61246270862496
 30
0.0
 40
1.0
100
AcDbArc
 50
180.0
 51
270.0
  0
LINE
  5
616
330
6B
100
AcDbEntity
  8
0
100
AcDbLine
 10
-384.8480916574218
 20
-17.87172870862496
 30
0.0
 11
-375.1615566574218
 21
-34.62109470862496
 31
0.0
  0
LINE
  5
617
330
6B
100
AcDbEntity
  8
0
100
AcDbLine
 10
-375.1615566574218
 20
-34.62109470862496
 30
0.0
 11
-351.0990566574218
 21
-34.62109470862496
 31
0.0
  0
TEXT
  5
618
330
6B
100
AcDbEntity
  8
0
 62
     4
100
AcDbText
 10
-371.7240566574218
 20
-33.37109370862496
 30
0.0
 40
4.0
  1
3-%%C4穴
 41
0.716146
100
AcDbText
  0
LINE
  5
62D
330
6B
100
AcDbEntity
  8
0
100
AcDbLine
 10
-517.7264646574218
 20
73.51492629137505
 30
0.0
 11
-517.3227036574218
 21
93.85770729137504
 31
0.0
  0
CIRCLE
  5
62E
330
6B
100
AcDbEntity
  8
0
100
AcDbCircle
 10
-517.2234836574217
 20
98.85672329137506
 30
0.0
 40
5.0
  0
TEXT
  5
62F
330
6B
100
AcDbEntity
  8
0
 62
     4
100
AcDbText
 10
-518.1635808937275
 20
95.63633450741212
 30
0.0
 40
6.299999999999998
  1
1
  7
高6.3
100
AcDbText
  0
LINE
  5
631
330
6B
100
AcDbEntity
  8
0
100
AcDbLine
 10
-582.3618196574217
 20
79.07191229137504
 30
0.0
 11
-578.3318196574217
 21
94.41871629137505
 31
0.0
  0
CIRCLE
  5
632
330
6B
100
AcDbEntity
  8
0
100
AcDbCircle
 10
-577.0618966574216
 20
99.25475729137504
 30
0.0
 40
5.0
  0
TEXT
  5
633
330
6B
100
AcDbEntity
  8
0
 62
     4
100
AcDbText
 10
-579.1241481362991
 20
96.12741916221636
 30
0.0
 40
6.299999999999998
  1
2
  7
高6.3
100
AcDbText
  0
LINE
  5
634
330
6B
100
AcDbEntity
  8
0
 62
     2
100
AcDbLine
 10
-522.3023786574218
 20
-14.07949370862496
 30
0.0
 11
-522.4818336574218
 21
-14.07949370862496
 31
0.0
  0
ARC
  5
635
330
6B
100
AcDbEntity
  8
0
 62
     2
100
AcDbCircle
 10
-522.3023786574218
 20
-14.31458070862496
 30
0.0
 40
0.235086
100
AcDbArc
 50
0.0
 51
90.0
  0
LINE
  5
636
330
6B
100
AcDbEntity
  8
0
 62
     2
100
AcDbLine
 10
-522.0672916574218
 20
-14.31458070862496
 30
0.0
 11
-522.0672916574218
 21
-16.80182970862496
 31
0.0
  0
LINE
  5
637
330
6B
100
AcDbEntity
  8
0
 62
     2
100
AcDbLine
 10
-520.3265766574218
 20
-17.53400670862496
 30
0.0
 11
-522.4818336574218
 21
-17.53400670862496
 31
0.0
  0
LINE
  5
638
330
6B
100
AcDbEntity
  8
0
 62
     2
100
AcDbLine
 10
-520.3265766574218
 20
-17.03691570862496
 30
0.0
 11
-520.3265766574218
 21
-17.53400670862496
 31
0.0
  0
LINE
  5
639
330
6B
100
AcDbEntity
  8
0
 62
     2
100
AcDbLine
 10
-520.5060316574217
 20
-17.03691570862496
 30
0.0
 11
-520.3265766574218
 21
-17.03691570862496
 31
0.0
  0
ARC
  5
63A
330
6B
100
AcDbEntity
  8
0
 62
     2
100
AcDbCircle
 10
-520.5060316574217
 20
-16.80182970862496
 30
0.0
 40
0.235086
100
AcDbArc
 50
180.0
 51
270.0
  0
LINE
  5
63B
330
6B
100
AcDbEntity
  8
0
 62
     2
100
AcDbLine
 10
-522.9184156574217
 20
-13.58249670862496
 30
0.0
 11
-524.9354916574218
 21
-13.58249670862496
 31
0.0
  0
LINE
  5
63C
330
6B
100
AcDbEntity
  8
0
 62
     2
100
AcDbLine
 10
-522.9184156574217
 20
-13.58249670862496
 30
0.0
 11
-522.9184156574217
 21
-14.08287570862496
 31
0.0
  0
LINE
  5
63D
330
6B
100
AcDbEntity
  8
0
 62
     2
100
AcDbLine
 10
-523.0679616574218
 20
-14.08287570862496
 30
0.0
 11
-522.9184156574217
 21
-14.08287570862496
 31
0.0
  0
ARC
  5
63E
330
6B
100
AcDbEntity
  8
0
 62
     2
100
AcDbCircle
 10
-523.0287806574217
 20
-14.31467370862496
 30
0.0
 40
0.235086
100
AcDbArc
 50
99.59406799999896
 51
180.0
  0
LINE
  5
63F
330
6B
100
AcDbEntity
  8
0
 62
     2
100
AcDbLine
 10
-523.2638666574217
 20
-14.31467370862496
 30
0.0
 11
-523.2638666574217
 21
-16.80192370862496
 31
0.0
  0
ARC
  5
640
330
6B
100
AcDbEntity
  8
0
 62
     2
100
AcDbCircle
 10
-523.0287806574217
 20
-16.80192370862496
 30
0.0
 40
0.235086
100
AcDbArc
 50
180.0
 51
260.405932000001
  0
LINE
  5
641
330
6B
100
AcDbEntity
  8
0
 62
     2
100
AcDbLine
 10
-523.0679616574218
 20
-17.03372170862496
 30
0.0
 11
-522.9184156574217
 21
-17.03372170862496
 31
0.0
  0
LINE
  5
642
330
6B
100
AcDbEntity
  8
0
 62
     2
100
AcDbLine
 10
-522.9184156574217
 20
-17.03372170862496
 30
0.0
 11
-522.9184156574217
 21
-17.53410070862496
 31
0.0
  0
LINE
  5
643
330
6B
100
AcDbEntity
  8
0
 62
     2
100
AcDbLine
 10
-522.9184156574217
 20
-17.53410070862496
 30
0.0
 11
-524.9354916574218
 21
-17.53410070862496
 31
0.0
  0
ARC
  5
644
330
6B
100
AcDbEntity
  8
0
 62
     2
100
AcDbCircle
 10
-520.5060316574217
 20
-14.31458070862496
 30
0.0
 40
0.235086
100
AcDbArc
 50
90.0
 51
180.0
  0
LINE
  5
645
330
6B
100
AcDbEntity
  8
0
 62
     2
100
AcDbLine
 10
-520.7411176574217
 20
-14.31458070862496
 30
0.0
 11
-520.7411176574217
 21
-16.80182970862496
 31
0.0
  0
LINE
  5
646
330
6B
100
AcDbEntity
  8
0
 62
     2
100
AcDbLine
 10
-520.3265766574218
 20
-13.58240270862496
 30
0.0
 11
-520.3265766574218
 21
-14.07949370862496
 31
0.0
  0
LINE
  5
647
330
6B
100
AcDbEntity
  8
0
 62
     2
100
AcDbLine
 10
-520.5060316574217
 20
-14.07949370862496
 30
0.0
 11
-520.3265766574218
 21
-14.07949370862496
 31
0.0
  0
LINE
  5
648
330
6B
100
AcDbEntity
  8
0
 62
     2
100
AcDbLine
 10
-520.3265766574218
 20
-13.58240270862496
 30
0.0
 11
-522.4818336574218
 21
-13.58240270862496
 31
0.0
  0
LINE
  5
649
330
6B
100
AcDbEntity
  8
0
 62
     2
100
AcDbLine
 10
-522.4818336574218
 20
-13.58240270862496
 30
0.0
 11
-522.4818336574218
 21
-14.07949370862496
 31
0.0
  0
LINE
  5
64A
330
6B
100
AcDbEntity
  8
0
 62
     2
100
AcDbLine
 10
-519.9229106574217
 20
-17.03691570862496
 30
0.0
 11
-519.9229106574217
 21
-17.53400670862496
 31
0.0
  0
ARC
  5
64B
330
6B
100
AcDbEntity
  8
0
 62
     2
100
AcDbCircle
 10
-519.7434556574218
 20
-16.80182970862496
 30
0.0
 40
0.235086
100
AcDbArc
 50
270.0
 51
0.0
  0
LINE
  5
64C
330
6B
100
AcDbEntity
  8
0
 62
     2
100
AcDbLine
 10
-519.7434556574218
 20
-17.03691570862496
 30
0.0
 11
-519.9229106574217
 21
-17.03691570862496
 31
0.0
  0
LINE
  5
64D
330
6B
100
AcDbEntity
  8
0
 62
     2
100
AcDbLine
 10
-517.5956626574218
 20
-17.53400670862496
 30
0.0
 11
-519.9229106574217
 21
-17.53400670862496
 31
0.0
  0
LINE
  5
64E
330
6B
100
AcDbEntity
  8
0
 62
     2
100
AcDbLine
 10
-519.5083686574218
 20
-14.31458070862496
 30
0.0
 11
-519.5083686574218
 21
-16.80182970862496
 31
0.0
  0
LINE
  5
64F
330
6B
100
AcDbEntity
  8
0
 62
     2
100
AcDbLine
 10
-518.1821946574217
 20
-14.21767470862496
 30
0.0
 11
-518.1821946574217
 21
-16.89873570862496
 31
0.0
  0
LINE
  5
650
330
6B
100
AcDbEntity
  8
0
 62
     2
100
AcDbLine
 10
-518.1821946574217
 20
-16.89873570862496
 30
0.0
 11
-518.0013946574217
 21
-16.89873570862496
 31
0.0
  0
ARC
  5
651
330
6B
100
AcDbEntity
  8
0
 62
     2
100
AcDbCircle
 10
-518.9258876574217
 20
-15.55820470862496
 30
0.0
 40
1.628406999999999
100
AcDbArc
 50
304.5919550000006
 51
55.40804499999937
  0
ARC
  5
652
330
6B
100
AcDbEntity
  8
0
 62
     2
100
AcDbCircle
 10
-517.5956626574218
 20
-15.97274670862496
 30
0.0
 40
1.56126
100
AcDbArc
 50
270.0
 51
342.6912509999998
  0
ARC
  5
653
330
6B
100
AcDbEntity
  8
0
 62
     2
100
AcDbCircle
 10
-517.5956626574218
 20
-15.14366370862496
 30
0.0
 40
1.56126
100
AcDbArc
 50
17.30874900000007
 51
90.0
  0
LINE
  5
654
330
6B
100
AcDbEntity
  8
0
 62
     2
100
AcDbLine
 10
-517.5956626574218
 20
-13.58240270862496
 30
0.0
 11
-519.9229106574217
 21
-13.58240270862496
 31
0.0
  0
LINE
  5
655
330
6B
100
AcDbEntity
  8
0
 62
     2
100
AcDbLine
 10
-519.9229106574217
 20
-13.58240270862496
 30
0.0
 11
-519.9229106574217
 21
-14.07949370862496
 31
0.0
  0
LINE
  5
656
330
6B
100
AcDbEntity
  8
0
 62
     2
100
AcDbLine
 10
-519.7434556574218
 20
-14.07949370862496
 30
0.0
 11
-519.9229106574217
 21
-14.07949370862496
 31
0.0
  0
ARC
  5
657
330
6B
100
AcDbEntity
  8
0
 62
     2
100
AcDbCircle
 10
-519.7434556574218
 20
-14.31458070862496
 30
0.0
 40
0.235086
100
AcDbArc
 50
0.0
 51
90.0
  0
ARC
  5
658
330
6B
100
AcDbEntity
  8
0
 62
     2
100
AcDbCircle
 10
-522.3023786574218
 20
-16.80182970862496
 30
0.0
 40
0.235086
100
AcDbArc
 50
270.0
 51
0.0
  0
LINE
  5
659
330
6B
100
AcDbEntity
  8
0
 62
     2
100
AcDbLine
 10
-522.3023786574218
 20
-17.03691570862496
 30
0.0
 11
-522.4818336574218
 21
-17.03691570862496
 31
0.0
  0
LINE
  5
65A
330
6B
100
AcDbEntity
  8
0
 62
     2
100
AcDbLine
 10
-522.4818336574218
 20
-17.03691570862496
 30
0.0
 11
-522.4818336574218
 21
-17.53400670862496
 31
0.0
  0
LINE
  5
65B
330
6B
100
AcDbEntity
  8
0
 62
     2
100
AcDbLine
 10
-518.1821946574217
 20
-14.21767470862496
 30
0.0
 11
-518.0013946574217
 21
-14.21767470862496
 31
0.0
  0
ARC
  5
65C
330
6B
100
AcDbEntity
  8
0
 62
     2
100
AcDbCircle
 10
-518.9258876574217
 20
-15.55820470862496
 30
0.0
 40
2.954581
100
AcDbArc
 50
342.6912509999998
 51
17.30856599999997
  0
ARC
  5
65D
330
6B
100
AcDbEntity
  8
0
 62
     2
100
AcDbCircle
 10
-518.4814846574218
 20
-15.30679270862496
 30
0.0
 40
2.802941
100
AcDbArc
 50
333.6752840000004
 51
19.69063499999966
  0
ARC
  5
65E
330
6B
100
AcDbEntity
  8
0
 62
     2
100
AcDbCircle
 10
-512.0867996574218
 20
-15.58870370862496
 30
0.0
 40
2.621769
100
AcDbArc
 50
149.3344129999993
 51
209.361467
  0
ARC
  5
65F
330
6B
100
AcDbEntity
  8
0
 62
     2
100
AcDbCircle
 10
-514.2643306574218
 20
-15.55121070862496
 30
0.0
 40
1.975802
100
AcDbArc
 50
210.35784
 51
143.0080790000007
  0
ARC
  5
660
330
6B
100
AcDbEntity
  8
0
 62
     2
100
AcDbCircle
 10
-516.4418616574216
 20
-15.58870570862496
 30
0.0
 40
2.621769
100
AcDbArc
 50
330.3722729999993
 51
30.84052499999998
  0
ARC
  5
661
330
6B
100
AcDbEntity
  8
0
 62
     2
100
AcDbCircle
 10
-514.2630546574217
 20
-14.32110270862496
 30
0.0
 40
0.105179
100
AcDbArc
 50
46.62177100000085
 51
138.5892689999997
  0
ARC
  5
662
330
6B
100
AcDbEntity
  8
0
 62
     2
100
AcDbCircle
 10
-514.2630546574217
 20
-16.79530670862495
 30
0.0
 40
0.13434
100
AcDbArc
 50
215.9651230000005
 51
318.2218159999998
  0
LINE
  5
663
330
6B
100
AcDbEntity
  8
0
 62
     2
100
AcDbLine
 10
-531.2313346574218
 20
-14.31459170862496
 30
0.0
 11
-531.2313786574218
 21
-16.80184070862496
 31
0.0
  0
LINE
  5
664
330
6B
100
AcDbEntity
  8
0
 62
     2
100
AcDbLine
 10
-530.9962966574216
 20
-17.03693170862496
 30
0.0
 11
-530.8168406574218
 21
-17.03693470862496
 31
0.0
  0
ARC
  5
665
330
6B
100
AcDbEntity
  8
0
 62
     2
100
AcDbCircle
 10
-530.9962926574216
 20
-16.80184470862496
 30
0.0
 40
0.235086
100
AcDbArc
 50
179.999
 51
269.9990000000003
  0
LINE
  5
666
330
6B
100
AcDbEntity
  8
0
 62
     2
100
AcDbLine
 10
-530.8168406574218
 20
-17.03693470862496
 30
0.0
 11
-530.8168496574218
 21
-17.53402570862495
 31
0.0
  0
LINE
  5
667
330
6B
100
AcDbEntity
  8
0
 62
     2
100
AcDbLine
 10
-532.9721066574218
 20
-17.53398770862495
 30
0.0
 11
-530.8168496574218
 21
-17.53402570862495
 31
0.0
  0
LINE
  5
668
330
6B
100
AcDbEntity
  8
0
 62
     2
100
AcDbLine
 10
-536.1294136574217
 20
-15.21666470862496
 30
0.0
 11
-536.1294136574217
 21
-16.80182970862496
 31
0.0
  0
ARC
  5
669
330
6B
100
AcDbEntity
  8
0
 62
     2
100
AcDbCircle
 10
-535.8943276574218
 20
-16.80182970862496
 30
0.0
 40
0.235086
100
AcDbArc
 50
180.0
 51
270.0
  0
LINE
  5
66A
330
6B
100
AcDbEntity
  8
0
 62
     2
100
AcDbLine
 10
-537.1792266574218
 20
-17.53400670862496
 30
0.0
 11
-535.7148716574218
 21
-17.53400670862496
 31
0.0
  0
ARC
  5
66B
330
6B
100
AcDbEntity
  8
0
 62
     2
100
AcDbCircle
 10
-528.8649826574218
 20
-15.55820470862496
 30
0.0
 40
1.975802
100
AcDbArc
 50
46.75287999999887
 51
312.8231200000005
  0
ARC
  5
66C
330
6B
100
AcDbEntity
  8
0
 62
     2
100
AcDbCircle
 10
-541.4393226574218
 20
-15.51167870862495
 30
0.0
 40
13.997507
100
AcDbArc
 50
353.866006
 51
357.694034
  0
LINE
  5
66D
330
6B
100
AcDbEntity
  8
0
 62
     2
100
AcDbLine
 10
-528.3902816574218
 20
-16.07141170862496
 30
0.0
 11
-527.4531516574218
 21
-16.07487970862496
 31
0.0
  0
LINE
  5
66F
330
6B
100
AcDbEntity
  8
0
 62
     2
100
AcDbLine
 10
-528.3864976574218
 20
-15.04852470862496
 30
0.0
 11
-527.4493666574218
 21
-15.05199170862496
 31
0.0
  0
ARC
  5
670
330
6B
100
AcDbEntity
  8
0
 62
     2
100
AcDbCircle
 10
-541.4393226574218
 20
-15.51167870862495
 30
0.0
 40
13.997507
100
AcDbArc
 50
1.881966000000045
 51
5.709993999999971
  0
ARC
  5
671
330
6B
100
AcDbEntity
  8
0
 62
     2
100
AcDbCircle
 10
-530.9962486574216
 20
-14.31459570862496
 30
0.0
 40
0.235086
100
AcDbArc
 50
89.99902800000048
 51
179.999
  0
LINE
  5
672
330
6B
100
AcDbEntity
  8
0
 62
     2
100
AcDbLine
 10
-530.8167806574217
 20
-13.58242170862496
 30
0.0
 11
-530.8167896574218
 21
-14.07951270862495
 31
0.0
  0
LINE
  5
673
330
6B
100
AcDbEntity
  8
0
 62
     2
100
AcDbLine
 10
-532.9720376574218
 20
-13.58238370862496
 30
0.0
 11
-530.8167806574217
 21
-13.58242170862496
 31
0.0
  0
LINE
  5
674
330
6B
100
AcDbEntity
  8
0
 62
     2
100
AcDbLine
 10
-530.9962446574218
 20
-14.07950970862495
 30
0.0
 11
-530.8167896574218
 21
-14.07951270862495
 31
0.0
  0
ARC
  5
675
330
6B
100
AcDbEntity
  8
0
 62
     2
100
AcDbCircle
 10
-532.7926126574218
 20
-14.31457670862496
 30
0.0
 40
0.235086
100
AcDbArc
 50
359.999803
 51
89.99977399999876
  0
LINE
  5
676
330
6B
100
AcDbEntity
  8
0
 62
     2
100
AcDbLine
 10
-532.5575266574218
 20
-14.31457770862496
 30
0.0
 11
-532.5575346574217
 21
-16.80182770862496
 31
0.0
  0
ARC
  5
677
330
6B
100
AcDbEntity
  8
0
 62
     2
100
AcDbCircle
 10
-532.7926386574217
 20
-16.80181370862496
 30
0.0
 40
0.235086
100
AcDbArc
 50
269.9990000000003
 51
359.999
  0
LINE
  5
678
330
6B
100
AcDbEntity
  8
0
 62
     2
100
AcDbLine
 10
-532.9720986574218
 20
-17.03689670862496
 30
0.0
 11
-532.9721066574218
 21
-17.53398770862495
 31
0.0
  0
LINE
  5
679
330
6B
100
AcDbEntity
  8
0
 62
     2
100
AcDbLine
 10
-532.7926426574217
 20
-17.03689970862496
 30
0.0
 11
-532.9720986574218
 21
-17.03689670862496
 31
0.0
  0
LINE
  5
67A
330
6B
100
AcDbEntity
  8
0
 62
     2
100
AcDbLine
 10
-532.9720376574218
 20
-13.58238370862496
 30
0.0
 11
-532.9720466574217
 21
-14.07947470862496
 31
0.0
  0
LINE
  5
67B
330
6B
100
AcDbEntity
  8
0
 62
     2
100
AcDbLine
 10
-532.7925916574216
 20
-14.07947870862496
 30
0.0
 11
-532.9720466574217
 21
-14.07947470862496
 31
0.0
  0
LINE
  5
67C
330
6B
100
AcDbEntity
  8
0
 62
     2
100
AcDbLine
 10
-535.7148716574218
 20
-17.03691570862496
 30
0.0
 11
-535.7148716574218
 21
-17.53400670862496
 31
0.0
  0
LINE
  5
67D
330
6B
100
AcDbEntity
  8
0
 62
     2
100
AcDbLine
 10
-535.8943276574218
 20
-17.03691570862496
 30
0.0
 11
-535.7148716574218
 21
-17.03691570862496
 31
0.0
  0
LINE
  5
67E
330
6B
100
AcDbEntity
  8
0
 62
     2
100
AcDbLine
 10
-536.1294136574217
 20
-15.21666470862496
 30
0.0
 11
-534.6810746574218
 21
-17.53400670862496
 31
0.0
  0
LINE
  5
67F
330
6B
100
AcDbEntity
  8
0
 62
     2
100
AcDbLine
 10
-534.6810746574218
 20
-17.53400670862496
 30
0.0
 11
-533.7112546574218
 21
-17.53400670862496
 31
0.0
  0
LINE
  5
680
330
6B
100
AcDbEntity
  8
0
 62
     2
100
AcDbLine
 10
-533.7112546574218
 20
-14.45276070862496
 30
0.0
 11
-533.7112546574218
 21
-17.53400670862496
 31
0.0
  0
ARC
  5
681
330
6B
100
AcDbEntity
  8
0
 62
     2
100
AcDbCircle
 10
-533.3379876574217
 20
-14.45276070862496
 30
0.0
 40
0.373267
100
AcDbArc
 50
83.65142599999908
 51
180.0
  0
LINE
  5
682
330
6B
100
AcDbEntity
  8
0
 62
     2
100
AcDbLine
 10
-533.2967126574218
 20
-13.58240270862496
 30
0.0
 11
-533.2967126574218
 21
-14.08178270862496
 31
0.0
  0
LINE
  5
683
330
6B
100
AcDbEntity
  8
0
 62
     2
100
AcDbLine
 10
-534.7610676574218
 20
-13.58240270862496
 30
0.0
 11
-533.2967126574218
 21
-13.58240270862496
 31
0.0
  0
LINE
  5
684
330
6B
100
AcDbEntity
  8
0
 62
     2
100
AcDbLine
 10
-534.7610676574218
 20
-13.58240270862496
 30
0.0
 11
-534.7610676574218
 21
-14.07949370862496
 31
0.0
  0
LINE
  5
685
330
6B
100
AcDbEntity
  8
0
 62
     2
100
AcDbLine
 10
-534.7610676574218
 20
-14.07949370862496
 30
0.0
 11
-534.5816126574218
 21
-14.07949370862496
 31
0.0
  0
ARC
  5
686
330
6B
100
AcDbEntity
  8
0
 62
     2
100
AcDbCircle
 10
-534.5816126574218
 20
-14.31458070862496
 30
0.0
 40
0.235086
100
AcDbArc
 50
0.0
 51
90.0
  0
LINE
  5
687
330
6B
100
AcDbEntity
  8
0
 62
     2
100
AcDbLine
 10
-534.3465256574218
 20
-15.37220970862495
 30
0.0
 11
-534.3465256574218
 21
-14.31458070862496
 31
0.0
  0
LINE
  5
688
330
6B
100
AcDbEntity
  8
0
 62
     2
100
AcDbLine
 10
-534.3465256574218
 20
-15.37220970862495
 30
0.0
 11
-535.5210866574218
 21
-13.58240270862496
 31
0.0
  0
LINE
  5
689
330
6B
100
AcDbEntity
  8
0
 62
     2
100
AcDbLine
 10
-537.1792266574218
 20
-13.58240270862496
 30
0.0
 11
-535.5210866574218
 21
-13.58240270862496
 31
0.0
  0
LINE
  5
68A
330
6B
100
AcDbEntity
  8
0
 62
     2
100
AcDbLine
 10
-526.8009286574217
 20
-16.80192370862496
 30
0.0
 11
-526.8009286574217
 21
-14.31467370862496
 31
0.0
  0
LINE
  5
68B
330
6B
100
AcDbEntity
  8
0
 62
     2
100
AcDbLine
 10
-527.1463806574216
 20
-13.58249670862496
 30
0.0
 11
-525.1293036574216
 21
-13.58249670862496
 31
0.0
  0
ARC
  5
68C
330
6B
100
AcDbEntity
  8
0
 62
     2
100
AcDbCircle
 10
-526.9669246574218
 20
-14.31467370862496
 30
0.0
 40
0.165996
100
AcDbArc
 50
0.0
 51
90.0
  0
LINE
  5
68D
330
6B
100
AcDbEntity
  8
0
 62
     2
100
AcDbLine
 10
-526.9669246574218
 20
-14.14867770862496
 30
0.0
 11
-527.1463806574216
 21
-14.14867770862496
 31
0.0
  0
LINE
  5
68E
330
6B
100
AcDbEntity
  8
0
 62
     2
100
AcDbLine
 10
-527.1463806574216
 20
-14.14867770862496
 30
0.0
 11
-527.1463806574216
 21
-13.58249670862496
 31
0.0
  0
ARC
  5
68F
330
6B
100
AcDbEntity
  8
0
 62
     2
100
AcDbCircle
 10
-526.9669246574218
 20
-16.80192370862496
 30
0.0
 40
0.165996
100
AcDbArc
 50
270.0
 51
0.0
  0
LINE
  5
690
330
6B
100
AcDbEntity
  8
0
 62
     2
100
AcDbLine
 10
-526.9669246574218
 20
-16.96791970862496
 30
0.0
 11
-527.1463806574216
 21
-16.96791970862496
 31
0.0
  0
LINE
  5
691
330
6B
100
AcDbEntity
  8
0
 62
     2
100
AcDbLine
 10
-527.1463806574216
 20
-17.53410070862496
 30
0.0
 11
-527.1463806574216
 21
-16.96791970862496
 31
0.0
  0
LINE
  5
692
330
6B
100
AcDbEntity
  8
0
 62
     2
100
AcDbLine
 10
-527.1463806574216
 20
-17.53410070862496
 30
0.0
 11
-525.1293036574216
 21
-17.53410070862496
 31
0.0
  0
ARC
  5
693
330
6B
100
AcDbEntity
  8
0
 62
     2
100
AcDbCircle
 10
-524.8251266574218
 20
-14.31467370862496
 30
0.0
 40
0.235086
100
AcDbArc
 50
0.0
 51
80.40593200000104
  0
LINE
  5
694
330
6B
100
AcDbEntity
  8
0
 62
     2
100
AcDbLine
 10
-524.7859456574218
 20
-14.08287570862496
 30
0.0
 11
-524.9354916574218
 21
-14.08287570862496
 31
0.0
  0
LINE
  5
695
330
6B
100
AcDbEntity
  8
0
 62
     2
100
AcDbLine
 10
-524.5900406574218
 20
-15.24066270862495
 30
0.0
 11
-524.5900406574218
 21
-14.31467370862496
 31
0.0
  0
LINE
  5
696
330
6B
100
AcDbEntity
  8
0
 62
     2
100
AcDbLine
 10
-524.5900406574218
 20
-15.24066270862495
 30
0.0
 11
-525.4747546574218
 21
-15.24066270862495
 31
0.0
  0
LINE
  5
697
330
6B
100
AcDbEntity
  8
0
 62
     2
100
AcDbLine
 10
-524.5900406574218
 20
-15.87593470862495
 30
0.0
 11
-525.4747546574218
 21
-15.87593470862495
 31
0.0
  0
LINE
  5
698
330
6B
100
AcDbEntity
  8
0
 62
     2
100
AcDbLine
 10
-524.5900406574218
 20
-16.80192370862496
 30
0.0
 11
-524.5900406574218
 21
-15.87593470862495
 31
0.0
  0
ARC
  5
699
330
6B
100
AcDbEntity
  8
0
 62
     2
100
AcDbCircle
 10
-524.8251266574218
 20
-16.80192370862496
 30
0.0
 40
0.235086
100
AcDbArc
 50
279.594067999999
 51
0.0
  0
LINE
  5
69A
330
6B
100
AcDbEntity
  8
0
 62
     2
100
AcDbLine
 10
-524.7859456574218
 20
-17.03372170862496
 30
0.0
 11
-524.9354916574218
 21
-17.03372170862496
 31
0.0
  0
LINE
  5
69B
330
6B
100
AcDbEntity
  8
0
 62
     2
100
AcDbLine
 10
-524.9354916574218
 20
-17.03372170862496
 30
0.0
 11
-524.9354916574218
 21
-17.53410070862496
 31
0.0
  0
LINE
  5
69C
330
6B
100
AcDbEntity
  8
0
 62
     2
100
AcDbLine
 10
-525.1293036574216
 20
-17.03372170862496
 30
0.0
 11
-525.1293036574216
 21
-17.53410070862496
 31
0.0
  0
LINE
  5
69D
330
6B
100
AcDbEntity
  8
0
 62
     2
100
AcDbLine
 10
-525.2788496574217
 20
-17.03372170862496
 30
0.0
 11
-525.1293036574216
 21
-17.03372170862496
 31
0.0
  0
ARC
  5
69E
330
6B
100
AcDbEntity
  8
0
 62
     2
100
AcDbCircle
 10
-525.2396686574217
 20
-16.80192370862496
 30
0.0
 40
0.235086
100
AcDbArc
 50
180.0
 51
260.405932000001
  0
LINE
  5
69F
330
6B
100
AcDbEntity
  8
0
 62
     2
100
AcDbLine
 10
-525.4747546574218
 20
-16.80192370862496
 30
0.0
 11
-525.4747546574218
 21
-15.87593470862495
 31
0.0
  0
LINE
  5
6A0
330
6B
100
AcDbEntity
  8
0
 62
     2
100
AcDbLine
 10
-525.4747546574218
 20
-15.24066270862495
 30
0.0
 11
-525.4747546574218
 21
-14.31467370862496
 31
0.0
  0
ARC
  5
6A1
330
6B
100
AcDbEntity
  8
0
 62
     2
100
AcDbCircle
 10
-525.2396686574217
 20
-14.31467370862496
 30
0.0
 40
0.235086
100
AcDbArc
 50
99.59406799999896
 51
180.0
  0
LINE
  5
6A2
330
6B
100
AcDbEntity
  8
0
 62
     2
100
AcDbLine
 10
-525.2788496574217
 20
-14.08287570862496
 30
0.0
 11
-525.1293036574216
 21
-14.08287570862496
 31
0.0
  0
LINE
  5
6A3
330
6B
100
AcDbEntity
  8
0
 62
     2
100
AcDbLine
 10
-525.1293036574216
 20
-14.08287570862496
 30
0.0
 11
-525.1293036574216
 21
-13.58249670862496
 31
0.0
  0
LINE
  5
6A4
330
6B
100
AcDbEntity
  8
0
 62
     2
100
AcDbLine
 10
-524.9354916574218
 20
-14.08287570862496
 30
0.0
 11
-524.9354916574218
 21
-13.58249670862496
 31
0.0
  0
LINE
  5
6A5
330
6B
100
AcDbEntity
  8
0
 62
     2
100
AcDbLine
 10
-537.1792266574218
 20
-17.03691570862496
 30
0.0
 11
-537.1792266574218
 21
-17.53400670862496
 31
0.0
  0
LINE
  5
6A6
330
6B
100
AcDbEntity
  8
0
 62
     2
100
AcDbLine
 10
-536.7646846574217
 20
-14.31458070862496
 30
0.0
 11
-536.7646846574217
 21
-16.80182970862496
 31
0.0
  0
ARC
  5
6A7
330
6B
100
AcDbEntity
  8
0
 62
     2
100
AcDbCircle
 10
-536.9997716574217
 20
-16.80182970862496
 30
0.0
 40
0.235086
100
AcDbArc
 50
270.0
 51
0.0
  0
LINE
  5
6A8
330
6B
100
AcDbEntity
  8
0
 62
     2
100
AcDbLine
 10
-536.9997716574217
 20
-17.03691570862496
 30
0.0
 11
-537.1792266574218
 21
-17.03691570862496
 31
0.0
  0
ARC
  5
6A9
330
6B
100
AcDbEntity
  8
0
 62
     2
100
AcDbCircle
 10
-536.9997716574217
 20
-14.31458070862496
 30
0.0
 40
0.235086
100
AcDbArc
 50
0.0
 51
90.0
  0
LINE
  5
6AA
330
6B
100
AcDbEntity
  8
0
 62
     2
100
AcDbLine
 10
-537.1792266574218
 20
-13.58240270862496
 30
0.0
 11
-537.1792266574218
 21
-14.07949370862496
 31
0.0
  0
LINE
  5
6AB
330
6B
100
AcDbEntity
  8
0
 62
     2
100
AcDbLine
 10
-536.9997716574217
 20
-14.07949370862496
 30
0.0
 11
-537.1792266574218
 21
-14.07949370862496
 31
0.0
  0
LINE
  5
83E
330
6B
100
AcDbEntity
  8
0
 62
     3
100
AcDbLine
 10
-687.1298706574219
 20
142.671656291375
 30
0.0
 11
-687.1298706574219
 21
-131.3283437086249
 31
0.0
  0
LINE
  5
83F
330
6B
100
AcDbEntity
  8
0
 62
     3
100
AcDbLine
 10
-297.1298706574217
 20
-131.3283437086249
 30
0.0
 11
-297.1298706574217
 21
142.671656291375
 31
0.0
  0
LINE
  5
841
330
6B
100
AcDbEntity
  8
0
 62
     3
100
AcDbLine
 10
-687.1298706574219
 20
-131.3283437086249
 30
0.0
 11
-297.1298706574217
 21
-131.3283437086249
 31
0.0
  0
LINE
  5
842
330
6B
100
AcDbEntity
  8
0
 62
     3
100
AcDbLine
 10
-509.3549811874217
 20
145.1116584313751
 30
0.0
 11
-508.7324841774218
 21
144.786703951375
 31
0.0
  0
LINE
  5
843
330
6B
100
AcDbEntity
  8
0
 62
     3
100
AcDbLine
 10
-509.3549811874217
 20
139.782186331375
 30
0.0
 11
-508.7324841774218
 21
140.107140811375
 31
0.0
  0
LINE
  5
844
330
6B
100
AcDbEntity
  8
0
 62
     3
100
AcDbLine
 10
-508.7324841774218
 20
144.786703951375
 30
0.0
 11
-508.7324841774218
 21
140.107140811375
 31
0.0
  0
LINE
  5
845
330
6B
100
AcDbEntity
  8
0
 62
     3
100
AcDbLine
 10
-507.1560307174218
 20
139.782186331375
 30
0.0
 11
-507.7785277274219
 21
140.107140811375
 31
0.0
  0
LINE
  5
846
330
6B
100
AcDbEntity
  8
0
 62
     3
100
AcDbLine
 10
-507.7785277274219
 20
142.959796261375
 30
0.0
 11
-507.7785277274219
 21
140.107140811375
 31
0.0
  0
LINE
  5
847
330
6B
100
AcDbEntity
  8
0
 62
     3
100
AcDbLine
 10
-503.5247981774218
 20
145.1116584313751
 30
0.0
 11
-504.1472951774218
 21
144.786703951375
 31
0.0
  0
LINE
  5
848
330
6B
100
AcDbEntity
  8
0
 62
     3
100
AcDbLine
 10
-505.7237486474218
 20
145.1116584313751
 30
0.0
 11
-505.1012516374218
 21
144.786703951375
 31
0.0
  0
LINE
  5
849
330
6B
100
AcDbEntity
  8
0
 62
     3
100
AcDbLine
 10
-505.1012516374218
 20
144.786703951375
 30
0.0
 11
-505.1012516374218
 21
142.726222431375
 31
0.0
  0
LINE
  5
84A
330
6B
100
AcDbEntity
  8
0
 62
     3
100
AcDbLine
 10
-504.1472951774218
 20
144.786703951375
 30
0.0
 11
-504.1472951774218
 21
139.479956121375
 31
0.0
  0
LINE
  5
84B
330
6B
100
AcDbEntity
  8
0
 62
     3
100
AcDbLine
 10
-503.2172307374217
 20
145.111654681375
 30
0.0
 11
-502.5947359774218
 21
144.786695911375
 31
0.0
  0
LINE
  5
84C
330
6B
100
AcDbEntity
  8
0
 62
     3
100
AcDbLine
 10
-503.2173421274217
 20
139.782257721375
 30
0.0
 11
-502.5948337774218
 21
140.107190471375
 31
0.0
  0
LINE
  5
84D
330
6B
100
AcDbEntity
  8
0
 62
     3
100
AcDbLine
 10
-502.5947359774218
 20
144.786695911375
 30
0.0
 11
-502.5947359774218
 21
140.107190471375
 31
0.0
  0
LINE
  5
84E
330
6B
100
AcDbEntity
  8
0
 62
     3
100
AcDbLine
 10
-500.4607501774217
 20
145.111620861375
 30
0.0
 11
-501.0832517374217
 21
144.786675101375
 31
0.0
  0
LINE
  5
84F
330
6B
100
AcDbEntity
  8
0
 62
     3
100
AcDbLine
 10
-501.0832517374217
 20
144.786675101375
 30
0.0
 11
-501.0832517374217
 21
140.107169661375
 31
0.0
  0
LINE
  5
850
330
6B
100
AcDbEntity
  8
0
 62
     3
100
AcDbLine
 10
-500.4607501774217
 20
139.782223901375
 30
0.0
 11
-501.0832517374217
 21
140.107169661375
 31
0.0
  0
LINE
  5
851
330
6B
100
AcDbEntity
  8
0
 62
     3
100
AcDbLine
 10
-495.1889595474217
 20
145.111562291375
 30
0.0
 11
-494.5664636674218
 21
144.786605671375
 31
0.0
  0
LINE
  5
852
330
6B
100
AcDbEntity
  8
0
 62
     3
100
AcDbLine
 10
-494.5664636674218
 20
144.786605671375
 30
0.0
 11
-494.5665453374219
 21
140.107100221375
 31
0.0
  0
LINE
  5
853
330
6B
100
AcDbEntity
  8
0
 62
     3
100
AcDbLine
 10
-495.1890525674218
 20
139.782165331375
 30
0.0
 11
-494.5665453374219
 21
140.107100221375
 31
0.0
  0
LINE
  5
854
330
6B
100
AcDbEntity
  8
0
 62
     3
100
AcDbLine
 10
-492.4000153074218
 20
145.111562291375
 30
0.0
 11
-493.0225111974218
 21
144.786605671375
 31
0.0
  0
LINE
  5
855
330
6B
100
AcDbEntity
  8
0
 62
     3
100
AcDbLine
 10
-492.3999222974217
 20
139.782165331375
 30
0.0
 11
-493.0224295274219
 21
140.107100221375
 31
0.0
  0
LINE
  5
856
330
6B
100
AcDbEntity
  8
0
 62
     3
100
AcDbLine
 10
-492.1089755074218
 20
145.111562291375
 30
0.0
 11
-491.4864796274217
 21
144.786605671375
 31
0.0
  0
LINE
  5
857
330
6B
100
AcDbEntity
  8
0
 62
     3
100
AcDbLine
 10
-492.1090685274219
 20
139.782165331375
 30
0.0
 11
-491.4865612974217
 21
140.107100221375
 31
0.0
  0
LINE
  5
858
330
6B
100
AcDbEntity
  8
0
 62
     3
100
AcDbLine
 10
-489.3200312774219
 20
145.111562291375
 30
0.0
 11
-489.9425271574219
 21
144.786605671375
 31
0.0
  0
LINE
  5
859
330
6B
100
AcDbEntity
  8
0
 62
     3
100
AcDbLine
 10
-489.9425271574219
 20
144.786605671375
 30
0.0
 11
-489.9424454874218
 21
140.107100221375
 31
0.0
  0
LINE
  5
85A
330
6B
100
AcDbEntity
  8
0
 62
     3
100
AcDbLine
 10
-489.3199382574218
 20
139.782165331375
 30
0.0
 11
-489.9424454874218
 21
140.107100221375
 31
0.0
  0
LINE
  5
85B
330
6B
100
AcDbEntity
  8
0
 62
     3
100
AcDbLine
 10
-491.4865152074217
 20
142.7478440713751
 30
0.0
 11
-493.0224756174218
 21
142.7478440713751
 31
0.0
  0
LINE
  5
85C
330
6B
100
AcDbEntity
  8
0
 62
     3
100
AcDbLine
 10
-491.4865257074217
 20
142.146000691375
 30
0.0
 11
-493.0224651174218
 21
142.146000691375
 31
0.0
  0
LINE
  5
85D
330
6B
100
AcDbEntity
  8
0
 62
     3
100
AcDbLine
 10
-491.4864796274217
 20
144.786605671375
 30
0.0
 11
-491.4865152074217
 21
142.7478440713751
 31
0.0
  0
LINE
  5
85E
330
6B
100
AcDbEntity
  8
0
 62
     3
100
AcDbLine
 10
-491.4865257074217
 20
142.146000691375
 30
0.0
 11
-491.4865612974217
 21
140.107100221375
 31
0.0
  0
LINE
  5
85F
330
6B
100
AcDbEntity
  8
0
 62
     3
100
AcDbLine
 10
-493.0225111974218
 20
144.786605671375
 30
0.0
 11
-493.0224756174218
 21
142.7478440713751
 31
0.0
  0
LINE
  5
860
330
6B
100
AcDbEntity
  8
0
 62
     3
100
AcDbLine
 10
-493.0224651174218
 20
142.146000691375
 30
0.0
 11
-493.0224295274219
 21
140.107100221375
 31
0.0
  0
LINE
  5
861
330
6B
100
AcDbEntity
  8
0
 62
     3
100
AcDbLine
 10
-489.0243753874218
 20
145.111562291375
 30
0.0
 11
-488.4018794974219
 21
144.786605671375
 31
0.0
  0
LINE
  5
862
330
6B
100
AcDbEntity
  8
0
 62
     3
100
AcDbLine
 10
-488.4018794974219
 20
144.786605671375
 30
0.0
 11
-488.4019611774219
 21
140.107100221375
 31
0.0
  0
LINE
  5
863
330
6B
100
AcDbEntity
  8
0
 62
     3
100
AcDbLine
 10
-489.0244684074217
 20
139.782165331375
 30
0.0
 11
-488.4019611774219
 21
140.107100221375
 31
0.0
  0
LINE
  5
864
330
6B
100
AcDbEntity
  8
0
 62
     3
100
AcDbLine
 10
-486.2679321474217
 20
145.111562291375
 30
0.0
 11
-486.8904280374217
 21
144.786605671375
 31
0.0
  0
LINE
  5
865
330
6B
100
AcDbEntity
  8
0
 62
     3
100
AcDbLine
 10
-486.8904280374217
 20
144.786605671375
 30
0.0
 11
-486.8903463574219
 21
140.107100221375
 31
0.0
  0
LINE
  5
866
330
6B
100
AcDbEntity
  8
0
 62
     3
100
AcDbLine
 10
-486.2678391274219
 20
139.782165331375
 30
0.0
 11
-486.8903463574219
 21
140.107100221375
 31
0.0
  0
LINE
  5
867
330
6B
100
AcDbEntity
  8
0
 62
     3
100
AcDbLine
 10
-485.9617041974217
 20
145.111562291375
 30
0.0
 11
-485.3392083074218
 21
144.786605671375
 31
0.0
  0
LINE
  5
868
330
6B
100
AcDbEntity
  8
0
 62
     3
100
AcDbLine
 10
-485.3392083074218
 20
144.786605671375
 30
0.0
 11
-485.3392899774218
 21
140.107100221375
 31
0.0
  0
LINE
  5
869
330
6B
100
AcDbEntity
  8
0
 62
     3
100
AcDbLine
 10
-485.9617972074218
 20
139.782165331375
 30
0.0
 11
-485.3392899774218
 21
140.107100221375
 31
0.0
  0
ARC
  5
86A
330
6B
100
AcDbEntity
  8
0
 62
     3
100
AcDbCircle
 10
-497.1774042174217
 20
142.460336321375
 30
0.0
 40
2.98040844
100
AcDbArc
 50
97.70152351000369
 51
270.0
  0
ARC
  5
86B
330
6B
100
AcDbEntity
  8
0
 62
     3
100
AcDbCircle
 10
-478.7765458774217
 20
142.430398281375
 30
0.0
 40
3.012776259999998
100
AcDbArc
 50
0.3142502699992948
 51
69.00558244999635
  0
ARC
  5
86C
330
6B
100
AcDbEntity
  8
0
 62
     3
100
AcDbCircle
 10
-478.1184382674219
 20
142.430398281375
 30
0.0
 40
3.012776259999998
100
AcDbArc
 50
110.9944175500036
 51
148.1166110200014
  0
ARC
  5
86D
330
6B
100
AcDbEntity
  8
0
 62
     3
100
AcDbCircle
 10
-478.7765458774217
 20
142.463446481375
 30
0.0
 40
3.012776259999998
100
AcDbArc
 50
290.9944175500036
 51
359.6857497300007
  0
ARC
  5
86E
330
6B
100
AcDbEntity
  8
0
 62
     3
100
AcDbCircle
 10
-478.1184382674219
 20
142.463446481375
 30
0.0
 40
3.012776259999998
100
AcDbArc
 50
211.8833889799985
 51
249.0055824499964
  0
ARC
  5
86F
330
6B
100
AcDbEntity
  8
0
 62
     3
100
AcDbCircle
 10
-478.4474920674218
 20
143.6795015113751
 30
0.0
 40
1.73438712
100
AcDbArc
 50
64.36517189999993
 51
115.6348281
  0
ARC
  5
870
330
6B
100
AcDbEntity
  8
0
 62
     3
100
AcDbCircle
 10
-478.4474920674218
 20
141.214343251375
 30
0.0
 40
1.73438712
100
AcDbArc
 50
244.3651718999999
 51
295.6348281
  0
ARC
  5
871
330
6B
100
AcDbEntity
  8
0
 62
     3
100
AcDbCircle
 10
-478.4474920674218
 20
143.712446771375
 30
0.0
 40
0.85122233
100
AcDbArc
 50
19.48660554000132
 51
160.5133944599986
  0
ARC
  5
872
330
6B
100
AcDbEntity
  8
0
 62
     3
100
AcDbCircle
 10
-478.4474920674218
 20
141.214343251375
 30
0.0
 40
1.73438712
100
AcDbArc
 50
244.3651718999999
 51
295.6348281
  0
ARC
  5
873
330
6B
100
AcDbEntity
  8
0
 62
     3
100
AcDbCircle
 10
-478.4474920674218
 20
141.181397991375
 30
0.0
 40
0.85122233
100
AcDbArc
 50
199.4866055400013
 51
340.5133944599987
  0
ARC
  5
874
330
6B
100
AcDbEntity
  8
0
 62
     3
100
AcDbCircle
 10
-485.2224527874217
 20
110.692551181375
 30
0.0
 40
37.20000000000001
100
AcDbArc
 50
69.50571480000154
 51
81.68998807000383
  0
ARC
  5
875
330
6B
100
AcDbEntity
  8
0
 62
     3
100
AcDbCircle
 10
-485.2224527874217
 20
174.201293581375
 30
0.0
 40
37.20000000000001
100
AcDbArc
 50
278.3100119299961
 51
290.4942851999985
  0
ARC
  5
876
330
6B
100
AcDbEntity
  8
0
 62
     3
100
AcDbCircle
 10
-473.3535897474219
 20
142.4469223813749
 30
0.0
 40
3.299999999999998
100
AcDbArc
 50
290.4942851999985
 51
69.50571480000154
  0
ARC
  5
877
330
6B
100
AcDbEntity
  8
0
 62
     3
100
AcDbCircle
 10
-512.3535897474218
 20
142.4469223813749
 30
0.0
 40
3.299999999999998
100
AcDbArc
 50
110.4942851999985
 51
249.5057148000015
  0
ARC
  5
878
330
6B
100
AcDbEntity
  8
0
 62
     3
100
AcDbCircle
 10
-500.4847267174217
 20
110.692551181375
 30
0.0
 40
37.20000000000001
100
AcDbArc
 50
98.31001192999615
 51
110.4942851999985
  0
ARC
  5
879
330
6B
100
AcDbEntity
  8
0
 62
     3
100
AcDbCircle
 10
-500.4847267174217
 20
174.201293581375
 30
0.0
 40
37.20000000000001
100
AcDbArc
 50
249.5057148000015
 51
261.6899880700039
  0
ARC
  5
87A
330
6B
100
AcDbEntity
  8
0
 62
     3
100
AcDbCircle
 10
-492.8535897474217
 20
58.44692238137497
 30
0.0
 40
89.99999981
100
AcDbArc
 50
81.68998807000383
 51
98.31001192999615
  0
ARC
  5
87B
330
6B
100
AcDbEntity
  8
0
 62
     3
100
AcDbCircle
 10
-492.8535897474217
 20
226.446922381375
 30
0.0
 40
89.99999981
100
AcDbArc
 50
261.6899880700039
 51
278.3100119299961
  0
ARC
  5
87C
330
6B
100
AcDbEntity
  8
0
 62
     3
100
AcDbCircle
 10
-492.8535897474217
 20
58.44692238137497
 30
0.0
 40
89.09999981
100
AcDbArc
 50
81.68998807000383
 51
98.31001192999615
  0
ARC
  5
87D
330
6B
100
AcDbEntity
  8
0
 62
     3
100
AcDbCircle
 10
-492.8535897474217
 20
226.446922381375
 30
0.0
 40
89.09999981
100
AcDbArc
 50
261.6899880700039
 51
278.3100119299961
  0
ARC
  5
87E
330
6B
100
AcDbEntity
  8
0
 62
     3
100
AcDbCircle
 10
-485.2224527874217
 20
174.201293581375
 30
0.0
 40
36.3
100
AcDbArc
 50
278.3100119299961
 51
290.4942851999985
  0
ARC
  5
87F
330
6B
100
AcDbEntity
  8
0
 62
     3
100
AcDbCircle
 10
-485.2224527874217
 20
110.692551181375
 30
0.0
 40
36.3
100
AcDbArc
 50
69.50571480000154
 51
81.68998807000383
  0
ARC
  5
880
330
6B
100
AcDbEntity
  8
0
 62
     3
100
AcDbCircle
 10
-473.3535897474219
 20
142.4469223813749
 30
0.0
 40
2.399999999999999
100
AcDbArc
 50
290.4942851999985
 51
69.50571480000154
  0
ARC
  5
881
330
6B
100
AcDbEntity
  8
0
 62
     3
100
AcDbCircle
 10
-512.3535897474218
 20
142.4469223813749
 30
0.0
 40
2.399999999999999
100
AcDbArc
 50
110.4942851999985
 51
249.5057148000015
  0
ARC
  5
882
330
6B
100
AcDbEntity
  8
0
 62
     3
100
AcDbCircle
 10
-500.4847267174217
 20
110.692551181375
 30
0.0
 40
36.3
100
AcDbArc
 50
98.31001192999615
 51
110.4942851999985
  0
ARC
  5
883
330
6B
100
AcDbEntity
  8
0
 62
     3
100
AcDbCircle
 10
-500.4847267174217
 20
174.201293581375
 30
0.0
 40
36.3
100
AcDbArc
 50
249.5057148000015
 51
261.6899880700039
  0
LINE
  5
884
330
6B
100
AcDbEntity
  8
0
 62
     3
100
AcDbLine
 10
-486.2679310274218
 20
139.479956121375
 30
0.0
 11
-489.0243765074218
 21
139.479956121375
 31
0.0
  0
LINE
  5
885
330
6B
100
AcDbEntity
  8
0
 62
     3
100
AcDbLine
 10
-486.2679310274218
 20
139.782186331375
 30
0.0
 11
-486.2679310274218
 21
139.479956121375
 31
0.0
  0
LINE
  5
886
330
6B
100
AcDbEntity
  8
0
 62
     3
100
AcDbLine
 10
-489.3200301574218
 20
145.413747611375
 30
0.0
 11
-492.1089766274217
 21
145.413747611375
 31
0.0
  0
LINE
  5
887
330
6B
100
AcDbEntity
  8
0
 62
     3
100
AcDbLine
 10
-489.3200301574218
 20
145.413747611375
 30
0.0
 11
-489.3200301574218
 21
145.1116584313751
 31
0.0
  0
LINE
  5
888
330
6B
100
AcDbEntity
  8
0
 62
     3
100
AcDbLine
 10
-489.3200301574218
 20
139.782186331375
 30
0.0
 11
-489.3200301574218
 21
139.479815101375
 31
0.0
  0
LINE
  5
889
330
6B
100
AcDbEntity
  8
0
 62
     3
100
AcDbLine
 10
-489.3200301574218
 20
139.479815101375
 30
0.0
 11
-492.1089766274217
 21
139.479815101375
 31
0.0
  0
LINE
  5
88A
330
6B
100
AcDbEntity
  8
0
 62
     3
100
AcDbLine
 10
-486.2679310274218
 20
145.413888641375
 30
0.0
 11
-486.2679310274218
 21
145.1116584313751
 31
0.0
  0
LINE
  5
88B
330
6B
100
AcDbEntity
  8
0
 62
     3
100
AcDbLine
 10
-486.2679310274218
 20
145.413888641375
 30
0.0
 11
-489.0243765074218
 21
145.413888641375
 31
0.0
  0
LINE
  5
88C
330
6B
100
AcDbEntity
  8
0
 62
     3
100
AcDbLine
 10
-489.0243765074218
 20
145.413888641375
 30
0.0
 11
-489.0243765074218
 21
145.1116584313751
 31
0.0
  0
LINE
  5
88D
330
6B
100
AcDbEntity
  8
0
 62
     3
100
AcDbLine
 10
-485.9617053174217
 20
139.782186331375
 30
0.0
 11
-485.9617053174217
 21
139.479956121375
 31
0.0
  0
LINE
  5
88E
330
6B
100
AcDbEntity
  8
0
 62
     3
100
AcDbLine
 10
-483.1269902274217
 20
139.479956121375
 30
0.0
 11
-485.9617053174217
 21
139.479956121375
 31
0.0
  0
LINE
  5
88F
330
6B
100
AcDbEntity
  8
0
 62
     3
100
AcDbLine
 10
-483.8277568374218
 20
144.459932181375
 30
0.0
 11
-483.8277568374218
 21
140.433912581375
 31
0.0
  0
LINE
  5
890
330
6B
100
AcDbEntity
  8
0
 62
     3
100
AcDbLine
 10
-483.8277568374218
 20
140.433912581375
 30
0.0
 11
-483.5562583174217
 21
140.433912581375
 31
0.0
  0
ARC
  5
891
330
6B
100
AcDbEntity
  8
0
 62
     3
100
AcDbCircle
 10
-484.9445236574219
 20
142.4469223813749
 30
0.0
 40
2.44529939
100
AcDbArc
 50
304.591955269996
 51
55.40804473000399
  0
LINE
  5
892
330
6B
100
AcDbEntity
  8
0
 62
     3
100
AcDbLine
 10
-483.1269902274217
 20
145.413888641375
 30
0.0
 11
-485.9617053174217
 21
145.413888641375
 31
0.0
  0
LINE
  5
893
330
6B
100
AcDbEntity
  8
0
 62
     3
100
AcDbLine
 10
-485.9617053174217
 20
145.413888641375
 30
0.0
 11
-485.9617053174217
 21
145.1116584313751
 31
0.0
  0
LINE
  5
894
330
6B
100
AcDbEntity
  8
0
 62
     3
100
AcDbLine
 10
-489.0243765074218
 20
139.782186331375
 30
0.0
 11
-489.0243765074218
 21
139.479956121375
 31
0.0
  0
LINE
  5
895
330
6B
100
AcDbEntity
  8
0
 62
     3
100
AcDbLine
 10
-483.8277568374218
 20
144.459932181375
 30
0.0
 11
-483.5562583174217
 21
144.459932181375
 31
0.0
  0
LINE
  5
896
330
6B
100
AcDbEntity
  8
0
 62
     3
100
AcDbLine
 10
-500.4608420774217
 20
139.782186331375
 30
0.0
 11
-500.4608473474219
 21
139.479927881375
 31
0.0
  0
LINE
  5
897
330
6B
100
AcDbEntity
  8
0
 62
     3
100
AcDbLine
 10
-503.2172928274217
 20
139.479984371375
 30
0.0
 11
-500.4608473474219
 21
139.479936261375
 31
0.0
  0
LINE
  5
898
330
6B
100
AcDbEntity
  8
0
 62
     3
100
AcDbLine
 10
-509.3549811874217
 20
139.479956121375
 30
0.0
 11
-507.1560307174218
 21
139.479956121375
 31
0.0
  0
ARC
  5
899
330
6B
100
AcDbEntity
  8
0
 62
     3
100
AcDbCircle
 10
-516.4720421574219
 20
142.516788991375
 30
0.0
 40
21.01937947
100
AcDbArc
 50
353.8660061899999
 51
357.6940342600001
  0
LINE
  5
89A
330
6B
100
AcDbEntity
  8
0
 62
     3
100
AcDbLine
 10
-496.8769280674218
 20
141.676263771375
 30
0.0
 11
-495.4696839474218
 21
141.671056801375
 31
0.0
  0
LINE
  5
89C
330
6B
100
AcDbEntity
  8
0
 62
     3
100
AcDbLine
 10
-496.8712446174219
 20
143.212284831375
 30
0.0
 11
-495.4640004974217
 21
143.207077861375
 31
0.0
  0
ARC
  5
89D
330
6B
100
AcDbEntity
  8
0
 62
     3
100
AcDbCircle
 10
-516.4720421574219
 20
142.516788991375
 30
0.0
 40
21.01937947
100
AcDbArc
 50
1.881965739999571
 51
5.709993809999575
  0
LINE
  5
89E
330
6B
100
AcDbEntity
  8
0
 62
     3
100
AcDbLine
 10
-500.4607437874217
 20
145.413860391375
 30
0.0
 11
-500.4607490574218
 21
145.1116584313751
 31
0.0
  0
LINE
  5
89F
330
6B
100
AcDbEntity
  8
0
 62
     3
100
AcDbLine
 10
-503.2171892674218
 20
145.413916881375
 30
0.0
 11
-500.4607437874217
 21
145.4138687713751
 31
0.0
  0
LINE
  5
8A0
330
6B
100
AcDbEntity
  8
0
 62
     3
100
AcDbLine
 10
-503.2172875574217
 20
139.782186331375
 30
0.0
 11
-503.2172928274217
 21
139.479984371375
 31
0.0
  0
LINE
  5
8A1
330
6B
100
AcDbEntity
  8
0
 62
     3
100
AcDbLine
 10
-503.2171892674218
 20
145.413916881375
 30
0.0
 11
-503.2171945374217
 21
145.1116584313751
 31
0.0
  0
LINE
  5
8A2
330
6B
100
AcDbEntity
  8
0
 62
     3
100
AcDbLine
 10
-507.1560307174218
 20
139.782186331375
 30
0.0
 11
-507.1560307174218
 21
139.479956121375
 31
0.0
  0
LINE
  5
8A3
330
6B
100
AcDbEntity
  8
0
 62
     3
100
AcDbLine
 10
-507.7785277274219
 20
142.959796261375
 30
0.0
 11
-505.6036276474217
 21
139.479956121375
 31
0.0
  0
LINE
  5
8A4
330
6B
100
AcDbEntity
  8
0
 62
     3
100
AcDbLine
 10
-505.6036276474217
 20
139.479956121375
 30
0.0
 11
-504.1472951774218
 21
139.479956121375
 31
0.0
  0
LINE
  5
8A5
330
6B
100
AcDbEntity
  8
0
 62
     3
100
AcDbLine
 10
-503.5247981774218
 20
145.413888641375
 30
0.0
 11
-503.5247981774218
 21
145.1116584313751
 31
0.0
  0
LINE
  5
8A6
330
6B
100
AcDbEntity
  8
0
 62
     3
100
AcDbLine
 10
-505.7237486474218
 20
145.413888641375
 30
0.0
 11
-503.5247981774218
 21
145.413888641375
 31
0.0
  0
LINE
  5
8A7
330
6B
100
AcDbEntity
  8
0
 62
     3
100
AcDbLine
 10
-505.7237486474218
 20
145.413888641375
 30
0.0
 11
-505.7237486474218
 21
145.1116584313751
 31
0.0
  0
LINE
  5
8A8
330
6B
100
AcDbEntity
  8
0
 62
     3
100
AcDbLine
 10
-505.1012516374218
 20
142.726222431375
 30
0.0
 11
-506.8650325774219
 21
145.413888641375
 31
0.0
  0
LINE
  5
8A9
330
6B
100
AcDbEntity
  8
0
 62
     3
100
AcDbLine
 10
-509.3549811874217
 20
145.413888641375
 30
0.0
 11
-506.8650325774219
 21
145.413888641375
 31
0.0
  0
LINE
  5
8AA
330
6B
100
AcDbEntity
  8
0
 62
     3
100
AcDbLine
 10
-495.1889606674217
 20
145.413747611375
 30
0.0
 11
-492.4000141874219
 21
145.413747611375
 31
0.0
  0
LINE
  5
8AB
330
6B
100
AcDbEntity
  8
0
 62
     3
100
AcDbLine
 10
-495.1889606674217
 20
145.1116584313751
 30
0.0
 11
-495.1889606674217
 21
145.413747611375
 31
0.0
  0
LINE
  5
8AC
330
6B
100
AcDbEntity
  8
0
 62
     3
100
AcDbLine
 10
-495.1889606674217
 20
139.479815101375
 30
0.0
 11
-495.1889606674217
 21
139.782186331375
 31
0.0
  0
LINE
  5
8AD
330
6B
100
AcDbEntity
  8
0
 62
     3
100
AcDbLine
 10
-495.1889606674217
 20
139.479815101375
 30
0.0
 11
-492.4000141874219
 21
139.479815101375
 31
0.0
  0
LINE
  5
8AE
330
6B
100
AcDbEntity
  8
0
 62
     3
100
AcDbLine
 10
-492.1089766274217
 20
139.782186331375
 30
0.0
 11
-492.1089766274217
 21
139.479815101375
 31
0.0
  0
LINE
  5
8AF
330
6B
100
AcDbEntity
  8
0
 62
     3
100
AcDbLine
 10
-492.4000141874219
 20
139.782186331375
 30
0.0
 11
-492.4000141874219
 21
139.479815101375
 31
0.0
  0
LINE
  5
8B0
330
6B
100
AcDbEntity
  8
0
 62
     3
100
AcDbLine
 10
-492.4000141874219
 20
145.1116584313751
 30
0.0
 11
-492.4000141874219
 21
145.413747611375
 31
0.0
  0
LINE
  5
8B1
330
6B
100
AcDbEntity
  8
0
 62
     3
100
AcDbLine
 10
-492.1089766274217
 20
145.1116584313751
 30
0.0
 11
-492.1089766274217
 21
145.413747611375
 31
0.0
  0
LINE
  5
8B2
330
6B
100
AcDbEntity
  8
0
 62
     3
100
AcDbLine
 10
-509.3549811874217
 20
139.782186331375
 30
0.0
 11
-509.3549811874217
 21
139.479956121375
 31
0.0
  0
LINE
  5
8B3
330
6B
100
AcDbEntity
  8
0
 62
     3
100
AcDbLine
 10
-509.3549811874217
 20
145.413888641375
 30
0.0
 11
-509.3549811874217
 21
145.1116584313751
 31
0.0
  0
ARC
  5
8B4
330
6B
100
AcDbEntity
  8
0
 62
     3
100
AcDbCircle
 10
-482.8269902274219
 20
143.069419391375
 30
0.0
 40
2.344469249999999
100
AcDbArc
 50
17.30874897999955
 51
23.76507095999893
  0
ARC
  5
8B5
330
6B
100
AcDbEntity
  8
0
 62
     3
100
AcDbCircle
 10
-484.8245236574219
 20
142.4469223813749
 30
0.0
 40
4.43675086
100
AcDbArc
 50
342.6912510200005
 51
17.30856644000122
  0
ARC
  5
8B6
330
6B
100
AcDbEntity
  8
0
 62
     3
100
AcDbCircle
 10
-482.8269902274219
 20
141.824425371375
 30
0.0
 40
2.344469249999999
100
AcDbArc
 50
336.2349290399984
 51
342.6912510200005
  0
ARC
  5
8B7
330
6B
100
AcDbEntity
  8
0
 62
     3
100
AcDbCircle
 10
-483.1269902274217
 20
143.069419391375
 30
0.0
 40
2.344469249999999
100
AcDbArc
 50
17.30874897999955
 51
90.0
  0
ARC
  5
8B8
330
6B
100
AcDbEntity
  8
0
 62
     3
100
AcDbCircle
 10
-485.1245236574217
 20
142.4469223813749
 30
0.0
 40
4.43675086
100
AcDbArc
 50
342.6912510200005
 51
17.30856644000122
  0
ARC
  5
8B9
330
6B
100
AcDbEntity
  8
0
 62
     3
100
AcDbCircle
 10
-483.1269902274217
 20
141.824425371375
 30
0.0
 40
2.344469249999999
100
AcDbArc
 50
270.0
 51
342.6912510200005
  0
ARC
  5
8BA
330
6B
100
AcDbEntity
  8
0
 62
     3
100
AcDbCircle
 10
-497.5897621974218
 20
142.4469223813749
 30
0.0
 40
2.966966259999998
100
AcDbArc
 50
46.75287961000178
 51
89.74999828999569
  0
ARC
  5
8BB
330
6B
100
AcDbEntity
  8
0
 62
     3
100
AcDbCircle
 10
-497.5897621974218
 20
142.4469223813749
 30
0.0
 40
2.966966259999998
100
AcDbArc
 50
273.9763331499971
 51
312.8231203899991
  0
ARC
  5
8BC
330
6B
100
AcDbEntity
  8
0
 62
     3
100
AcDbCircle
 10
-481.2443222674216
 20
142.401120201375
 30
0.0
 40
3.936984289999998
100
AcDbArc
 50
0.6665840599997753
 51
23.90392827000101
  0
ARC
  5
8BD
330
6B
100
AcDbEntity
  8
0
 62
     3
100
AcDbCircle
 10
-475.6506618774217
 20
142.401120201375
 30
0.0
 40
3.936984289999998
100
AcDbArc
 50
156.096071729999
 51
179.3334159400002
  0
ARC
  5
8BE
330
6B
100
AcDbEntity
  8
0
 62
     3
100
AcDbCircle
 10
-481.2443222674216
 20
142.492724561375
 30
0.0
 40
3.936984289999998
100
AcDbArc
 50
336.096071729999
 51
359.3334159400003
  0
ARC
  5
8BF
330
6B
100
AcDbEntity
  8
0
 62
     3
100
AcDbCircle
 10
-475.6506618774217
 20
142.492724561375
 30
0.0
 40
3.936984289999998
100
AcDbArc
 50
180.6665840599997
 51
203.903928270001
  0
LINE
  5
8C0
330
6B
100
AcDbEntity
  8
0
 62
     3
100
AcDbLine
 10
-468.4731454774219
 20
142.671656291375
 30
0.0
 11
-297.1298706574219
 21
142.671656291375
 31
0.0
  0
LINE
  5
8C1
330
6B
100
AcDbEntity
  8
0
 62
     3
100
AcDbLine
 10
-517.0271801474219
 20
142.671656291375
 30
0.0
 11
-687.1298706574219
 21
142.671656291375
 31
0.0
  0
LINE
  5
8C2
330
6B
100
AcDbEntity
  8
0
 62
     3
100
AcDbLine
 10
-699.5317944474217
 20
9.116295241375011
 30
0.0
 11
-702.1298706574217
 21
7.616295241375012
 31
0.0
  0
LINE
  5
8C3
330
6B
100
AcDbEntity
  8
0
 62
     3
100
AcDbLine
 10
-699.5317944474217
 20
9.116295241375011
 30
0.0
 11
-702.1298706574217
 21
10.61629524137501
 31
0.0
  0
LINE
  5
8C4
330
6B
100
AcDbEntity
  8
0
 62
     3
100
AcDbLine
 10
-702.1298706574217
 20
7.616295241375012
 30
0.0
 11
-702.1298706574217
 21
10.61629524137501
 31
0.0
  0
LINE
  5
8C7
330
6B
100
AcDbEntity
  8
0
 62
     3
100
AcDbLine
 10
-349.1298706574217
 20
-131.3283437086249
 30
0.0
 11
-349.1298706574217
 21
-91.32834370862495
 31
0.0
  0
LINE
  5
8C8
330
6B
100
AcDbEntity
  8
0
 62
     3
100
AcDbLine
 10
-336.1298706574217
 20
-121.3283437086249
 30
0.0
 11
-336.1298706574217
 21
-93.32834370862494
 31
0.0
  0
LINE
  5
8C9
330
6B
100
AcDbEntity
  8
0
 62
     3
100
AcDbLine
 10
-376.1298706574217
 20
-121.3283437086249
 30
0.0
 11
-376.1298706574217
 21
-107.3283437086249
 31
0.0
  0
LINE
  5
8CA
330
6B
100
AcDbEntity
  8
0
 62
     3
100
AcDbLine
 10
-366.1298706574218
 20
-107.3283437086249
 30
0.0
 11
-366.1298706574218
 21
-131.3283437086249
 31
0.0
  0
LINE
  5
8CB
330
6B
100
AcDbEntity
  8
0
 62
     3
100
AcDbLine
 10
-395.1298706574218
 20
-91.32834370862495
 30
0.0
 11
-395.1298706574218
 21
-114.3283437086249
 31
0.0
  0
LINE
  5
8CC
330
6B
100
AcDbEntity
  8
0
 62
     3
100
AcDbLine
 10
-336.1298706574217
 20
-93.32834370862494
 30
0.0
 11
-336.1298706574217
 21
-91.32834370862495
 31
0.0
  0
LINE
  5
8CD
330
6B
100
AcDbEntity
  8
0
 62
     3
100
AcDbLine
 10
-323.1298706574218
 20
-114.3283437086249
 30
0.0
 11
-323.1298706574218
 21
-91.32834370862495
 31
0.0
  0
LINE
  5
8CE
330
6B
100
AcDbEntity
  8
0
 62
     3
100
AcDbLine
 10
-297.1298706574217
 20
-91.32834370862495
 30
0.0
 11
-408.3753052974217
 21
-91.32834370862491
 31
0.0
  0
LINE
  5
8CF
330
6B
100
AcDbEntity
  8
0
 62
     3
100
AcDbLine
 10
-297.1298706574217
 20
-100.3283437086249
 30
0.0
 11
-408.3753052974217
 21
-100.3283437086249
 31
0.0
  0
LINE
  5
8D0
330
6B
100
AcDbEntity
  8
0
 62
     3
100
AcDbLine
 10
-297.1298706574217
 20
-114.3283437086249
 30
0.0
 11
-408.3753052974217
 21
-114.3283437086249
 31
0.0
  0
LINE
  5
8D1
330
6B
100
AcDbEntity
  8
0
 62
     3
100
AcDbLine
 10
-297.1298706574217
 20
-121.3283437086249
 30
0.0
 11
-408.3753052974217
 21
-121.3283437086249
 31
0.0
  0
LINE
  5
8D2
330
6B
100
AcDbEntity
  8
0
 62
     3
100
AcDbLine
 10
-310.1298706574218
 20
-114.3283437086249
 30
0.0
 11
-310.1298706574218
 21
-91.32834370862495
 31
0.0
  0
LINE
  5
8D3
330
6B
100
AcDbEntity
  8
0
 62
     3
100
AcDbLine
 10
-408.3753052974217
 20
-91.32834370862491
 30
0.0
 11
-408.3753052974217
 21
-131.3283437086249
 31
0.0
  0
LINE
  5
8D4
330
6B
100
AcDbEntity
  8
0
 62
     3
100
AcDbLine
 10
-349.1298706574217
 20
-107.3283437086249
 30
0.0
 11
-408.3753052974217
 21
-107.3283437086249
 31
0.0
  0
LINE
  5
8D5
330
6B
100
AcDbEntity
  8
0
 62
     3
100
AcDbLine
 10
-365.8515457274219
 20
-126.4954824486249
 30
0.0
 11
-349.1298706574217
 21
-126.4954824486249
 31
0.0
  0
LINE
  5
8D6
330
6B
100
AcDbEntity
  8
0
 62
     3
100
AcDbLine
 10
-362.1298706574218
 20
-100.3283437086249
 30
0.0
 11
-354.1298706574218
 21
-100.3283437086249
 31
0.0
  0
TEXT
  5
8D8
330
6B
100
AcDbEntity
  8
0
 62
     3
100
AcDbText
 10
-393.9335019621696
 20
-112.030529303641
 30
0.0
 40
2.5
  1
PA6
  7
高2.5
100
AcDbText
  0
TEXT
  5
8D9
330
6B
100
AcDbEntity
  8
0
 62
     3
100
AcDbText
 10
-393.6685942074721
 20
-99.01609418486707
 30
0.0
 40
4.5
  1
万能フッカー
  7
高4.5
100
AcDbText
1001
ACAD
1000
ACAD_MTEXT_DEFINED_HEIGHT_BEGIN
1070
    46
1040
0.0
1000
ACAD_MTEXT_DEFINED_HEIGHT_END
  0
TEXT
  5
8DA
330
6B
100
AcDbEntity
  8
0
 62
     3
100
AcDbText
 10
-307.0642815639477
 20
-94.81465160992135
 30
0.0
 40
2.0
  1
DEF
  7
高2
100
AcDbText
  0
TEXT
  5
8DB
330
6B
100
AcDbEntity
  8
0
 62
     3
100
AcDbText
 10
-321.0033799176559
 20
-94.81465160992144
 30
0.0
 40
2.0
  1
DESN
  7
高2
100
AcDbText
  0
TEXT
  5
8DC
330
6B
100
AcDbEntity
  8
0
 62
     3
100
AcDbText
 10
-347.2577468576561
 20
-94.81465160992135
 30
0.0
 40
2.0
  1
APPD
  7
高2
100
AcDbText
  0
TEXT
  5
8DD
330
6B
100
AcDbEntity
  8
0
 62
     3
100
AcDbText
 10
-334.1450107574218
 20
-94.81465160992133
 30
0.0
 40
2.0
  1
CHCK
  7
高2
100
AcDbText
  0
TEXT
  5
8DE
330
6B
100
AcDbEntity
  8
0
 62
     3
100
AcDbText
 10
-375.202705018269
 20
-117.1599448853942
 30
0.0
 40
2.0
  1
SCALE
 41
0.8
  7
高2
100
AcDbText
  0
TEXT
  5
8DF
330
6B
100
AcDbEntity
  8
0
 62
     3
100
AcDbText
 10
-406.6907265943756
 20
-117.1599448853942
 30
0.0
 40
2.0
  1
3AD　ANGLE
 41
1.5
  7
高2
100
AcDbText
  0
TEXT
  5
8E0
330
6B
100
AcDbEntity
  8
0
 62
     3
100
AcDbText
 10
-375.9332993274203
 20
-110.4084068164371
 30
0.0
 40
2.0
  1
REMARKS
 41
0.7
  7
高2
100
AcDbText
  0
TEXT
  5
8E1
330
6B
100
AcDbEntity
  8
0
 62
     3
100
AcDbText
 10
-406.9076349474218
 20
-110.3283437086249
 30
0.0
 40
2.0
  1
MATERIAL
 41
0.7
  7
高2
100
AcDbText
  0
TEXT
  5
8E2
330
6B
100
AcDbEntity
  8
0
 62
     3
100
AcDbText
 10
-406.3311477446675
 20
-103.3283437086249
 30
0.0
 40
2.0
  1
MODEL
  7
高2
100
AcDbText
  0
TEXT
  5
8E3
330
6B
100
AcDbEntity
  8
0
 62
     3
100
AcDbText
 10
-406.6942268633363
 20
-94.6213223580259
 30
0.0
 40
2.0
  1
CONPONENTS
 41
0.5
  7
高2
100
AcDbText
  0
TEXT
  5
8E4
330
6B
100
AcDbEntity
  8
0
 62
     3
100
AcDbText
 10
-393.9871113921697
 20
-106.240862580813
 30
0.0
 40
4.5
  1
BH-500LH(-□□)
 41
0.8
  7
高4.5
100
AcDbText
  0
TEXT
  5
8E5
330
6B
100
AcDbEntity
  8
0
 62
     3
100
AcDbText
 10
-346.0648249268032
 20
-129.2898823132593
 30
0.0
 40
6.299999999999998
  1
BH-500LH
 41
0.9
  7
高6.3
100
AcDbText
1001
ACAD
1000
ACAD_MTEXT_DEFINED_HEIGHT_BEGIN
1070
    46
1040
0.0
1000
ACAD_MTEXT_DEFINED_HEIGHT_END
  0
TEXT
  5
8E6
330
6B
100
AcDbEntity
  8
0
 62
     3
100
AcDbText
 10
-332.5663609070922
 20
-120.2274545503919
 30
0.0
 40
3.2
  1
2005.8.30
  7
高3.2
100
AcDbText
1001
ACAD
1000
ACAD_MTEXT_DEFINED_HEIGHT_BEGIN
1070
    46
1040
0.0
1000
ACAD_MTEXT_DEFINED_HEIGHT_END
  0
TEXT
  5
8E7
330
6B
100
AcDbEntity
  8
0
 62
     3
100
AcDbText
 10
-362.3422727627755
 20
-120.2274267060571
 30
0.0
 40
3.2
  1
1/1
  7
高3.2
100
AcDbText
  0
TEXT
  5
8E8
330
6B
100
AcDbEntity
  8
0
 62
     3
100
AcDbText
 10
-365.2649437874219
 20
-130.511465535489
 30
0.0
 40
3.2
  1
ZK-A3X
 41
0.8
  7
高3.2
100
AcDbText
  0
TEXT
  5
8E9
330
6B
100
AcDbEntity
  8
0
 62
     3
100
AcDbText
 10
-407.5446042574218
 20
-124.8037232864371
 30
0.0
 40
2.0
  1
NICHIDO IND.CO.LTD
 41
1.3
  7
高2
100
AcDbText
  0
TEXT
  5
8EA
330
6B
100
AcDbEntity
  8
0
 62
     3
100
AcDbText
 10
-406.3630809924647
 20
-99.18781550074001
 30
0.0
 40
3.2
  1
品 名
  7
高3.2
100
AcDbText
1001
ACAD
1000
ACAD_MTEXT_DEFINED_HEIGHT_BEGIN
1070
    46
1040
0.0
1000
ACAD_MTEXT_DEFINED_HEIGHT_END
  0
TEXT
  5
8EB
330
6B
100
AcDbEntity
  8
0
 62
     3
100
AcDbText
 10
-406.3630809924647
 20
-106.8283437086249
 30
0.0
 40
3.2
  1
型 式
  7
高3.2
100
AcDbText
1001
ACAD
1000
ACAD_MTEXT_DEFINED_HEIGHT_BEGIN
1070
    46
1040
3.064735913775954
1000
ACAD_MTEXT_DEFINED_HEIGHT_END
  0
TEXT
  5
8EC
330
6B
100
AcDbEntity
  8
0
 62
     3
100
AcDbText
 10
-406.3630809924647
 20
-113.8283437086249
 30
0.0
 40
3.2
  1
材 質
  7
高3.2
100
AcDbText
1001
ACAD
1000
ACAD_MTEXT_DEFINED_HEIGHT_BEGIN
1070
    46
1040
0.0
1000
ACAD_MTEXT_DEFINED_HEIGHT_END
  0
TEXT
  5
8ED
330
6B
100
AcDbEntity
  8
0
 62
     3
100
AcDbText
 10
-406.6681159424645
 20
-120.8609037163787
 30
0.0
 40
3.2
  1
第 三 角 法
  7
高3.2
100
AcDbText
1001
ACAD
1000
ACAD_MTEXT_DEFINED_HEIGHT_BEGIN
1070
    46
1040
0.0
1000
ACAD_MTEXT_DEFINED_HEIGHT_END
  0
TEXT
  5
8EE
330
6B
100
AcDbEntity
  8
0
 62
     3
100
AcDbText
 10
-408.2615833349358
 20
-130.18781550074
 30
0.0
 40
3.2
  1
日動工業株式会社
 41
1.199999999999999
  7
高3.2
100
AcDbText
1001
ACAD
1000
ACAD_MTEXT_DEFINED_HEIGHT_BEGIN
1070
    46
1040
0.0
1000
ACAD_MTEXT_DEFINED_HEIGHT_END
  0
TEXT
  5
8EF
330
6B
100
AcDbEntity
  8
0
 62
     3
100
AcDbText
 10
-374.6259591354573
 20
-113.9437651754574
 30
0.0
 40
3.2
  1
備考
  7
高3.2
100
AcDbText
1001
ACAD
1000
ACAD_MTEXT_DEFINED_HEIGHT_BEGIN
1070
    46
1040
0.0
1000
ACAD_MTEXT_DEFINED_HEIGHT_END
  0
TEXT
  5
8F0
330
6B
100
AcDbEntity
  8
0
 62
     3
100
AcDbText
 10
-364.9769016884218
 20
-125.1821136830546
 30
0.0
 40
2.5
  1
出図コード
  7
高2.5
100
AcDbText
1001
ACAD
1000
ACAD_MTEXT_DEFINED_HEIGHT_BEGIN
1070
    46
1040
0.0
1000
ACAD_MTEXT_DEFINED_HEIGHT_END
  0
TEXT
  5
8F1
330
6B
100
AcDbEntity
  8
0
 62
     3
100
AcDbText
 10
-374.7847252535447
 20
-120.875108798212
 30
0.0
 40
3.2
  1
尺度
  7
高3.2
100
AcDbText
1001
ACAD
1000
ACAD_MTEXT_DEFINED_HEIGHT_BEGIN
1070
    46
1040
0.0
1000
ACAD_MTEXT_DEFINED_HEIGHT_END
  0
TEXT
  5
8F2
330
6B
100
AcDbEntity
  8
0
 62
     3
100
AcDbText
 10
-347.6384637717659
 20
-119.7436303500945
 30
0.0
 40
3.2
  1
作成日
  7
高3.2
100
AcDbText
1001
ACAD
1000
ACAD_MTEXT_DEFINED_HEIGHT_BEGIN
1070
    46
1040
0.0
1000
ACAD_MTEXT_DEFINED_HEIGHT_END
  0
TEXT
  5
8F3
330
6B
100
AcDbEntity
  8
0
 62
     3
100
AcDbText
 10
-347.743989764902
 20
-99.18781550074001
 30
0.0
 40
3.2
  1
承 認
  7
高3.2
100
AcDbText
1001
ACAD
1000
ACAD_MTEXT_DEFINED_HEIGHT_BEGIN
1070
    46
1040
0.0
1000
ACAD_MTEXT_DEFINED_HEIGHT_END
  0
TEXT
  5
8F4
330
6B
100
AcDbEntity
  8
0
 62
     3
100
AcDbText
 10
-334.743989764902
 20
-99.18781550074001
 30
0.0
 40
3.2
  1
検 図
  7
高3.2
100
AcDbText
1001
ACAD
1000
ACAD_MTEXT_DEFINED_HEIGHT_BEGIN
1070
    46
1040
0.0
1000
ACAD_MTEXT_DEFINED_HEIGHT_END
  0
TEXT
  5
8F5
330
6B
100
AcDbEntity
  8
0
 62
     3
100
AcDbText
 10
-321.7439897649021
 20
-99.18781550074001
 30
0.0
 40
3.2
  1
設 計
  7
高3.2
100
AcDbText
1001
ACAD
1000
ACAD_MTEXT_DEFINED_HEIGHT_BEGIN
1070
    46
1040
0.0
1000
ACAD_MTEXT_DEFINED_HEIGHT_END
  0
TEXT
  5
8F6
330
6B
100
AcDbEntity
  8
0
 62
     3
100
AcDbText
 10
-308.4433532449021
 20
-99.18781550074001
 30
0.0
 40
3.2
  1
製 図
  7
高3.2
100
AcDbText
1001
ACAD
1000
ACAD_MTEXT_DEFINED_HEIGHT_BEGIN
1070
    46
1040
0.0
1000
ACAD_MTEXT_DEFINED_HEIGHT_END
  0
TEXT
  5
8F7
330
6B
100
AcDbEntity
  8
0
 62
     3
100
AcDbText
 10
-309.6298706574219
 20
133.171656291375
 30
0.0
 40
3.2
  1
担　当
  7
高3.2
100
AcDbText
  0
TEXT
  5
8F8
330
6B
100
AcDbEntity
  8
0
 62
     3
100
AcDbText
 10
-353.6298706574219
 20
133.171656291375
 30
0.0
 40
3.2
  1
変更・追記内容
  7
高3.2
100
AcDbText
  0
TEXT
  5
8F9
330
6B
100
AcDbEntity
  8
0
 62
     3
100
AcDbText
 10
-378.5163556570826
 20
128.5011177814667
 30
0.0
 40
2.0
  1
1
  7
高2
100
AcDbText
  0
TEXT
  5
8FA
330
6B
100
AcDbEntity
  8
0
 62
     3
100
AcDbText
 10
-378.8248671338398
 20
123.3313010691938
 30
0.0
 40
2.0
  1
2
  7
高2
100
AcDbText
  0
TEXT
  5
8FB
330
6B
100
AcDbEntity
  8
0
 62
     3
100
AcDbText
 10
-371.6298706574219
 20
133.171656291375
 30
0.0
 40
3.2
  1
日　付
  7
高3.2
100
AcDbText
  0
TEXT
  5
8FC
330
6B
100
AcDbEntity
  8
0
 62
     3
100
AcDbText
 10
-371.6298706574219
 20
138.171656291375
 30
0.0
 40
3.2
  1
図　　　　面　　　　略　　　　歴
  7
高3.2
100
AcDbText
  0
TEXT
  5
8FD
330
6B
100
AcDbEntity
  8
0
 62
     3
100
AcDbText
 10
-381.6298706574219
 20
133.171656291375
 30
0.0
 40
3.2
  1
記号
  7
高3.2
100
AcDbText
  0
LINE
  5
8FE
330
6B
100
AcDbEntity
  8
0
 62
     7
100
AcDbLine
 10
-378.1298706574219
 20
126.4625522913751
 30
0.0
 11
-380.0298706574218
 21
123.171656291375
 31
0.0
  0
LINE
  5
8FF
330
6B
100
AcDbEntity
  8
0
 62
     7
100
AcDbLine
 10
-378.1298706574219
 20
126.4625522913751
 30
0.0
 11
-376.2298706574219
 21
123.171656291375
 31
0.0
  0
LINE
  5
900
330
6B
100
AcDbEntity
  8
0
 62
     7
100
AcDbLine
 10
-380.0298706574218
 20
123.171656291375
 30
0.0
 11
-376.2298706574219
 21
123.171656291375
 31
0.0
  0
LINE
  5
901
330
6B
100
AcDbEntity
  8
0
 62
     7
100
AcDbLine
 10
-378.1298706574219
 20
131.4625532913751
 30
0.0
 11
-380.0298706574218
 21
128.171656291375
 31
0.0
  0
LINE
  5
902
330
6B
100
AcDbEntity
  8
0
 62
     7
100
AcDbLine
 10
-378.1298706574219
 20
131.4625532913751
 30
0.0
 11
-376.2298706574219
 21
128.171656291375
 31
0.0
  0
LINE
  5
903
330
6B
100
AcDbEntity
  8
0
 62
     7
100
AcDbLine
 10
-380.0298706574218
 20
128.171656291375
 30
0.0
 11
-376.2298706574219
 21
128.171656291375
 31
0.0
  0
LINE
  5
904
330
6B
100
AcDbEntity
  8
0
 62
     3
100
AcDbLine
 10
-383.1298706574219
 20
137.671656291375
 30
0.0
 11
-297.1298706574219
 21
137.671656291375
 31
0.0
  0
LINE
  5
905
330
6B
100
AcDbEntity
  8
0
 62
     3
100
AcDbLine
 10
-383.1298706574219
 20
132.671656291375
 30
0.0
 11
-297.1298706574219
 21
132.671656291375
 31
0.0
  0
LINE
  5
906
330
6B
100
AcDbEntity
  8
0
 62
     7
100
AcDbLine
 10
-383.1298706574219
 20
127.671656291375
 30
0.0
 11
-297.1298706574219
 21
127.671656291375
 31
0.0
  0
LINE
  5
907
330
6B
100
AcDbEntity
  8
0
 62
     3
100
AcDbLine
 10
-383.1298706574219
 20
122.671656291375
 30
0.0
 11
-297.1298706574219
 21
122.671656291375
 31
0.0
  0
LINE
  5
908
330
6B
100
AcDbEntity
  8
0
 62
     7
100
AcDbLine
 10
-311.129870657422
 20
122.671656291375
 30
0.0
 11
-311.1298706574219
 21
137.671656291375
 31
0.0
  0
LINE
  5
909
330
6B
100
AcDbEntity
  8
0
 62
     7
100
AcDbLine
 10
-355.1298706574219
 20
122.671656291375
 30
0.0
 11
-355.1298706574219
 21
137.671656291375
 31
0.0
  0
LINE
  5
90A
330
6B
100
AcDbEntity
  8
0
 62
     7
100
AcDbLine
 10
-373.1298706574218
 20
122.671656291375
 30
0.0
 11
-373.1298706574218
 21
137.671656291375
 31
0.0
  0
LINE
  5
90B
330
6B
100
AcDbEntity
  8
0
 62
     3
100
AcDbLine
 10
-383.1298706574219
 20
122.671656291375
 30
0.0
 11
-383.1298706574219
 21
142.671656291375
 31
0.0
  0
LINE
  5
102F
330
6B
100
AcDbEntity
  8
0
 62
     7
100
AcDbLine
 10
-297.1810956574218
 20
-85.32834370862495
 30
0.0
 11
-395.1298706574218
 21
-85.32834370862508
 31
0.0
  0
TEXT
  5
1030
330
6B
100
AcDbEntity
  8
0
 62
     3
100
AcDbText
 10
-347.7309456574218
 20
-90.77225870862502
 30
0.0
 40
4.5
  1
サンド
  7
高4.5
100
AcDbText
  0
TEXT
  5
1031
330
6B
100
AcDbEntity
  8
0
 62
     3
100
AcDbText
 10
-321.4876686574218
 20
-90.82998770862479
 30
0.0
 40
4.5
  1
29949
  7
高4.5
100
AcDbText
  0
LINE
  5
1032
330
6B
100
AcDbEntity
  8
0
 62
     7
100
AcDbLine
 10
-297.1810956574218
 20
-79.32834370862495
 30
0.0
 11
-395.1298706574218
 21
-79.32834370862495
 31
0.0
  0
TEXT
  5
1033
330
6B
100
AcDbEntity
  8
0
 62
     3
100
AcDbText
 10
-347.7309456574218
 20
-84.77225870862502
 30
0.0
 40
4.5
  1
オリーブグリーン
 41
0.5
  7
高4.5
100
AcDbText
  0
TEXT
  5
1034
330
6B
100
AcDbEntity
  8
0
 62
     3
100
AcDbText
 10
-321.4876686574218
 20
-84.82998770862478
 30
0.0
 40
4.5
  1
29943
  7
高4.5
100
AcDbText
  0
LINE
  5
1035
330
6B
100
AcDbEntity
  8
0
 62
     7
100
AcDbLine
 10
-297.1810956574218
 20
-73.32834370862496
 30
0.0
 11
-395.1298706574218
 21
-73.32834370862507
 31
0.0
  0
TEXT
  5
1036
330
6B
100
AcDbEntity
  8
0
 62
     3
100
AcDbText
 10
-347.7309456574218
 20
-78.77225870862502
 30
0.0
 40
4.5
  1
グレー
  7
高4.5
100
AcDbText
  0
TEXT
  5
1037
330
6B
100
AcDbEntity
  8
0
 62
     3
100
AcDbText
 10
-321.4876686574218
 20
-78.82998770862478
 30
0.0
 40
4.5
  1
29937
  7
高4.5
100
AcDbText
  0
LINE
  5
1038
330
6B
100
AcDbEntity
  8
0
 62
     7
100
AcDbLine
 10
-297.1810956574218
 20
-67.32834370862495
 30
0.0
 11
-395.1298706574218
 21
-67.32834370862495
 31
0.0
  0
TEXT
  5
1039
330
6B
100
AcDbEntity
  8
0
 62
     3
100
AcDbText
 10
-347.7309456574218
 20
-72.77225870862501
 30
0.0
 40
4.5
  1
ホワイト
  7
高4.5
100
AcDbText
  0
TEXT
  5
103A
330
6B
100
AcDbEntity
  8
0
 62
     3
100
AcDbText
 10
-321.4876686574218
 20
-72.82998770862478
 30
0.0
 40
4.5
  1
29931
  7
高4.5
100
AcDbText
  0
LINE
  5
103B
330
6B
100
AcDbEntity
  8
0
 62
     7
100
AcDbLine
 10
-297.1810956574218
 20
-61.32834370862496
 30
0.0
 11
-395.1298706574218
 21
-61.32834370862496
 31
0.0
  0
TEXT
  5
103C
330
6B
100
AcDbEntity
  8
0
 62
     3
100
AcDbText
 10
-347.7309456574218
 20
-66.77225870862502
 30
0.0
 40
4.5
  1
ブラック
  7
高4.5
100
AcDbText
  0
TEXT
  5
103D
330
6B
100
AcDbEntity
  8
0
 62
     3
100
AcDbText
 10
-321.4876686574218
 20
-66.82998770862479
 30
0.0
 40
4.5
  1
29925
  7
高4.5
100
AcDbText
  0
LINE
  5
103E
330
6B
100
AcDbEntity
  8
0
 62
     7
100
AcDbLine
 10
-297.1810956574218
 20
-55.32834370862495
 30
0.0
 11
-395.1298706574218
 21
-55.32834370862495
 31
0.0
  0
TEXT
  5
103F
330
6B
100
AcDbEntity
  8
0
 62
     3
100
AcDbText
 10
-347.7309456574218
 20
-60.77225870862502
 30
0.0
 40
4.5
  1
オレンジ
  7
高4.5
100
AcDbText
  0
TEXT
  5
1040
330
6B
100
AcDbEntity
  8
0
 62
     3
100
AcDbText
 10
-321.4876686574218
 20
-60.82998770862478
 30
0.0
 40
4.5
  1
29633
  7
高4.5
100
AcDbText
  0
LINE
  5
1041
330
6B
100
AcDbEntity
  8
0
 62
     3
100
AcDbLine
 10
-297.1810956574218
 20
-49.32834370862495
 30
0.0
 11
-395.1298706574218
 21
-49.32834370862495
 31
0.0
  0
TEXT
  5
1042
330
6B
100
AcDbEntity
  8
0
 62
     3
100
AcDbText
 10
-347.7309456574218
 20
-54.77225870862501
 30
0.0
 40
4.5
  1
色
  7
高4.5
100
AcDbText
  0
TEXT
  5
1043
330
6B
100
AcDbEntity
  8
0
 62
     3
100
AcDbText
 10
-321.4876686574218
 20
-54.82998770862478
 30
0.0
 40
4.5
  1
コード
  7
高4.5
100
AcDbText
  0
LINE
  5
1044
330
6B
100
AcDbEntity
  8
0
100
AcDbLine
 10
-349.1298706574217
 20
-91.32834370862495
 30
0.0
 11
-349.1298706574217
 21
-49.32834370862495
 31
0.0
  0
LINE
  5
1045
330
6B
100
AcDbEntity
  8
0
 62
     3
100
AcDbLine
 10
-395.1298706574218
 20
-91.32834370862495
 30
0.0
 11
-395.1298706574218
 21
-49.32834370862495
 31
0.0
  0
TEXT
  5
1046
330
6B
100
AcDbEntity
  8
0
 62
     3
100
AcDbText
 10
-393.7309456574219
 20
-90.77225870862502
 30
0.0
 40
4.5
  1
BH-500LH-SN
 41
0.9
  7
高4.5
100
AcDbText
  0
TEXT
  5
1047
330
6B
100
AcDbEntity
  8
0
 62
     3
100
AcDbText
 10
-393.7309456574219
 20
-84.77225870862502
 30
0.0
 40
4.5
  1
BH-500LH-OG
 41
0.9
  7
高4.5
100
AcDbText
  0
TEXT
  5
1048
330
6B
100
AcDbEntity
  8
0
 62
     3
100
AcDbText
 10
-393.7309456574219
 20
-78.77225870862502
 30
0.0
 40
4.5
  1
BH-500LH-GY
 41
0.9
  7
高4.5
100
AcDbText
  0
TEXT
  5
1049
330
6B
100
AcDbEntity
  8
0
 62
     3
100
AcDbText
 10
-393.7309456574219
 20
-72.77225870862501
 30
0.0
 40
4.5
  1
BH-500LH-WH
 41
0.9
  7
高4.5
100
AcDbText
  0
TEXT
  5
104A
330
6B
100
AcDbEntity
  8
0
 62
     3
100
AcDbText
 10
-393.7309456574219
 20
-66.77225870862502
 30
0.0
 40
4.5
  1
BH-500LH-BK
 41
0.9
  7
高4.5
100
AcDbText
  0
TEXT
  5
104B
330
6B
100
AcDbEntity
  8
0
 62
     3
100
AcDbText
 10
-393.7309456574219
 20
-60.77225870862502
 30
0.0
 40
4.5
  1
BH-500LH
 41
0.9
  7
高4.5
100
AcDbText
  0
TEXT
  5
104C
330
6B
100
AcDbEntity
  8
0
 62
     3
100
AcDbText
 10
-393.7309456574219
 20
-54.77225870862501
 30
0.0
 40
4.5
  1
型番
  7
高4.5
100
AcDbText
  0
LINE
  5
104D
330
6B
100
AcDbEntity
  8
0
100
AcDbLine
 10
-323.1298706574218
 20
-91.32834370862495
 30
0.0
 11
-323.1298706574218
 21
-49.32834370862495
 31
0.0
  0
TEXT
  5
10F8
330
6B
100
AcDbEntity
  8
0
 62
     3
100
AcDbText
 10
-533.8811356574218
 20
-77.3995247086248
 30
0.0
 40
4.5
  1
-20℃～80℃
  7
高4.5
100
AcDbText
  0
TEXT
  5
10F9
330
6B
100
AcDbEntity
  8
0
 62
     3
100
AcDbText
 10
-568.8811356574218
 20
-77.3995247086248
 30
0.0
 40
4.5
  1
使用環境温度
  7
高4.5
100
AcDbText
  0
TEXT
  5
10FA
330
6B
100
AcDbEntity
  8
0
 62
     3
100
AcDbText
 10
-568.8811356574218
 20
-49.39952470862479
 30
0.0
 40
4.5
  1
型　　　式
  7
高4.5
100
AcDbText
  0
TEXT
  5
10FB
330
6B
100
AcDbEntity
  8
0
 62
     3
100
AcDbText
 10
-568.8811356574218
 20
-70.3995247086248
 30
0.0
 40
4.5
  1
耐　荷　重
  7
高4.5
100
AcDbText
  0
TEXT
  5
10FC
330
6B
100
AcDbEntity
  8
0
 62
     3
100
AcDbText
 10
-533.8811356574218
 20
-70.3995247086248
 30
0.0
 40
4.5
  1
10.0kg　(at25℃)
  7
高4.5
100
AcDbText
  0
TEXT
  5
10FD
330
6B
100
AcDbEntity
  8
0
 62
     3
100
AcDbText
 10
-533.8811356574218
 20
-49.39952470862479
 30
0.0
 40
4.5
  1
BH-500LH
  7
高4.5
100
AcDbText
  0
TEXT
  5
10FE
330
6B
100
AcDbEntity
  8
0
 62
     3
100
AcDbText
 10
-533.8811356574218
 20
-63.39952470862479
 30
0.0
 40
4.5
  1
%%C30～140
  7
高4.5
100
AcDbText
  0
TEXT
  5
10FF
330
6B
100
AcDbEntity
  8
0
 62
     3
100
AcDbText
 10
-568.8811356574218
 20
-63.39952470862479
 30
0.0
 40
4.5
  1
結　束　径
  7
高4.5
100
AcDbText
  0
TEXT
  5
1100
330
6B
100
AcDbEntity
  8
0
 62
     3
100
AcDbText
 10
-568.8811356574218
 20
-56.39952470862479
 30
0.0
 40
4.5
  1
L　寸　法
  7
高4.5
100
AcDbText
  0
TEXT
  5
1101
330
6B
100
AcDbEntity
  8
0
 62
     3
100
AcDbText
 10
-533.8811356574218
 20
-56.39952470862479
 30
0.0
 40
4.5
  1
500
  7
高4.5
100
AcDbText
  0
LINE
  5
1102
330
6B
100
AcDbEntity
  8
0
 62
     3
100
AcDbLine
 10
-475.8811356574218
 20
-43.39952470862479
 30
0.0
 11
-570.8811356574218
 21
-43.39952470862479
 31
0.0
  0
LINE
  5
1103
330
6B
100
AcDbEntity
  8
0
 62
     3
100
AcDbLine
 10
-570.8811356574218
 20
-43.39952470862479
 30
0.0
 11
-570.8811356574218
 21
-78.39952470862479
 31
0.0
  0
LINE
  5
1104
330
6B
100
AcDbEntity
  8
0
 62
     3
100
AcDbLine
 10
-535.8811356574218
 20
-43.39952470862479
 30
0.0
 11
-535.8811356574218
 21
-78.39952470862479
 31
0.0
  0
LINE
  5
1105
330
6B
100
AcDbEntity
  8
0
 62
     3
100
AcDbLine
 10
-475.8811356574218
 20
-43.39952470862479
 30
0.0
 11
-475.8811356574218
 21
-78.39952470862479
 31
0.0
  0
LINE
  5
1106
330
6B
100
AcDbEntity
  8
0
100
AcDbLine
 10
-570.8811356574218
 20
-57.3995247086248
 30
0.0
 11
-475.8811356574218
 21
-57.3995247086248
 31
0.0
  0
LINE
  5
1107
330
6B
100
AcDbEntity
  8
0
100
AcDbLine
 10
-475.8811356574218
 20
-64.39952470862468
 30
0.0
 11
-570.8811356574218
 21
-64.39952470862479
 31
0.0
  0
LINE
  5
1108
330
6B
100
AcDbEntity
  8
0
100
AcDbLine
 10
-475.8811356574218
 20
-50.3995247086248
 30
0.0
 11
-570.8811356574218
 21
-50.3995247086248
 31
0.0
  0
LINE
  5
1109
330
6B
100
AcDbEntity
  8
0
100
AcDbLine
 10
-570.8811356574218
 20
-71.39952470862479
 30
0.0
 11
-475.8811356574218
 21
-71.39952470862468
 31
0.0
  0
LINE
  5
110A
330
6B
100
AcDbEntity
  8
0
 62
     3
100
AcDbLine
 10
-475.8811356574218
 20
-78.39952470862468
 30
0.0
 11
-570.8811356574218
 21
-78.39952470862479
 31
0.0
  0
TEXT
  5
110B
330
6B
100
AcDbEntity
  8
0
 62
     3
100
AcDbText
 10
-676.6298706574218
 20
-130.8283437086249
 30
0.0
 40
3.2
  1
部品名
  7
高3.2
100
AcDbText
  0
TEXT
  5
110C
330
6B
100
AcDbEntity
  8
0
 62
     3
100
AcDbText
 10
-685.6298706574218
 20
-130.8283437086249
 30
0.0
 40
3.2
  1
No.
  7
高3.2
100
AcDbText
  0
TEXT
  5
110D
330
6B
100
AcDbEntity
  8
0
 62
     3
100
AcDbText
 10
-651.6298706574218
 20
-130.8283437086249
 30
0.0
 40
3.2
  1
個数
  7
高3.2
100
AcDbText
  0
TEXT
  5
110E
330
6B
100
AcDbEntity
  8
0
 62
     3
100
AcDbText
 10
-651.6298706574218
 20
-125.8283437086249
 30
0.0
 40
3.2
  1
1
  7
高3.2
100
AcDbText
  0
TEXT
  5
110F
330
6B
100
AcDbEntity
  8
0
 62
     3
100
AcDbText
 10
-651.6298706574218
 20
-120.8283437086249
 30
0.0
 40
3.2
  1
1
  7
高3.2
100
AcDbText
  0
TEXT
  5
1110
330
6B
100
AcDbEntity
  8
0
 62
     3
100
AcDbText
 10
-676.6298706574218
 20
-120.8283437086249
 30
0.0
 40
3.2
  1
単管フック
  7
高3.2
100
AcDbText
  0
TEXT
  5
1111
330
6B
100
AcDbEntity
  8
0
 62
     3
100
AcDbText
 10
-676.6298706574218
 20
-125.8283437086249
 30
0.0
 40
3.2
  1
連結ベルト
  7
高3.2
100
AcDbText
  0
TEXT
  5
1112
330
6B
100
AcDbEntity
  8
0
 62
     3
100
AcDbText
 10
-685.6298706574218
 20
-125.8283437086249
 30
0.0
 40
3.2
  1
1
  7
高3.2
100
AcDbText
  0
TEXT
  5
1113
330
6B
100
AcDbEntity
  8
0
 62
     3
100
AcDbText
 10
-685.6298706574218
 20
-120.8283437086249
 30
0.0
 40
3.2
  1
2
  7
高3.2
100
AcDbText
  0
LINE
  5
1114
330
6B
100
AcDbEntity
  8
0
 62
     7
100
AcDbLine
 10
-678.1298706574219
 20
-116.3283437086249
 30
0.0
 11
-678.1298706574219
 21
-131.3283437086249
 31
0.0
  0
LINE
  5
1115
330
6B
100
AcDbEntity
  8
0
 62
     7
100
AcDbLine
 10
-653.1298706574219
 20
-116.3283437086249
 30
0.0
 11
-653.1298706574219
 21
-131.3283437086249
 31
0.0
  0
LINE
  5
1116
330
6B
100
AcDbEntity
  8
0
 62
     3
100
AcDbLine
 10
-644.1298706574218
 20
-116.3283437086249
 30
0.0
 11
-644.1298706574218
 21
-131.3283437086249
 31
0.0
  0
LINE
  5
1117
330
6B
100
AcDbEntity
  8
0
 62
     7
100
AcDbLine
 10
-687.1298706574219
 20
-126.3283437086249
 30
0.0
 11
-644.1298706574218
 21
-126.3283437086249
 31
0.0
  0
LINE
  5
1118
330
6B
100
AcDbEntity
  8
0
 62
     7
100
AcDbLine
 10
-687.1298706574219
 20
-121.3283437086249
 30
0.0
 11
-644.1298706574218
 21
-121.3283437086249
 31
0.0
  0
LINE
  5
1119
330
6B
100
AcDbEntity
  8
0
 62
     3
100
AcDbLine
 10
-687.1298706574219
 20
-116.3283437086249
 30
0.0
 11
-644.1298706574218
 21
-116.3283437086249
 31
0.0
  0
TEXT
  5
111B
330
6B
100
AcDbEntity
  8
0
 62
     3
100
AcDbText
 10
-364.9335019621696
 20
-112.030529303641
 30
0.0
 40
2.5
  1
－
  7
高2.5
100
AcDbText
  0
LINE
  5
122B
330
6B
100
AcDbEntity
  8
0
 62
     2
100
AcDbLine
 10
-528.3864976574218
 20
-15.04852470862496
 30
0.0
 11
-528.4042186574216
 21
-14.93506070862496
 31
0.0
  0
LINE
  5
122C
330
6B
100
AcDbEntity
  8
0
 62
     2
100
AcDbLine
 10
-528.4042186574216
 20
-14.93506070862496
 30
0.0
 11
-528.4255006574218
 21
-14.82641370862496
 31
0.0
  0
LINE
  5
122D
330
6B
100
AcDbEntity
  8
0
 62
     2
100
AcDbLine
 10
-528.4255006574218
 20
-14.82641370862496
 30
0.0
 11
-528.4501806574218
 21
-14.72342370862496
 31
0.0
  0
LINE
  5
122E
330
6B
100
AcDbEntity
  8
0
 62
     2
100
AcDbLine
 10
-528.4501806574218
 20
-14.72342370862496
 30
0.0
 11
-528.4780656574216
 21
-14.62688570862496
 31
0.0
  0
LINE
  5
122F
330
6B
100
AcDbEntity
  8
0
 62
     2
100
AcDbLine
 10
-528.4780656574216
 20
-14.62688570862496
 30
0.0
 11
-528.5089416574217
 21
-14.53754670862496
 31
0.0
  0
LINE
  5
1230
330
6B
100
AcDbEntity
  8
0
 62
     2
100
AcDbLine
 10
-528.5089416574217
 20
-14.53754670862496
 30
0.0
 11
-528.5425706574218
 21
-14.45609570862496
 31
0.0
  0
LINE
  5
1231
330
6B
100
AcDbEntity
  8
0
 62
     2
100
AcDbLine
 10
-528.5425706574218
 20
-14.45609570862496
 30
0.0
 11
-528.5786906574218
 21
-14.38316470862496
 31
0.0
  0
LINE
  5
1232
330
6B
100
AcDbEntity
  8
0
 62
     2
100
AcDbLine
 10
-528.5786906574218
 20
-14.38316470862496
 30
0.0
 11
-528.6170236574218
 21
-14.31931570862496
 31
0.0
  0
LINE
  5
1233
330
6B
100
AcDbEntity
  8
0
 62
     2
100
AcDbLine
 10
-528.6170236574218
 20
-14.31931570862496
 30
0.0
 11
-528.6572736574218
 21
-14.26504270862496
 31
0.0
  0
LINE
  5
1234
330
6B
100
AcDbEntity
  8
0
 62
     2
100
AcDbLine
 10
-528.6572736574218
 20
-14.26504270862496
 30
0.0
 11
-528.6991296574218
 21
-14.22076470862496
 31
0.0
  0
LINE
  5
1235
330
6B
100
AcDbEntity
  8
0
 62
     2
100
AcDbLine
 10
-528.6991296574218
 20
-14.22076470862496
 30
0.0
 11
-528.7422666574218
 21
-14.18682470862496
 31
0.0
  0
LINE
  5
1236
330
6B
100
AcDbEntity
  8
0
 62
     2
100
AcDbLine
 10
-528.7422666574218
 20
-14.18682470862496
 30
0.0
 11
-528.7863526574218
 21
-14.16348470862496
 31
0.0
  0
LINE
  5
1237
330
6B
100
AcDbEntity
  8
0
 62
     2
100
AcDbLine
 10
-528.7863526574218
 20
-14.16348470862496
 30
0.0
 11
-528.8310456574216
 21
-14.15092570862495
 31
0.0
  0
LINE
  5
1238
330
6B
100
AcDbEntity
  8
0
 62
     2
100
AcDbLine
 10
-528.8310456574216
 20
-14.15092570862495
 30
0.0
 11
-528.8760016574218
 21
-14.14924370862496
 31
0.0
  0
LINE
  5
1239
330
6B
100
AcDbEntity
  8
0
 62
     2
100
AcDbLine
 10
-528.8760016574218
 20
-14.14924370862496
 30
0.0
 11
-528.9208726574218
 21
-14.15845270862496
 31
0.0
  0
LINE
  5
123A
330
6B
100
AcDbEntity
  8
0
 62
     2
100
AcDbLine
 10
-528.9208726574218
 20
-14.15845270862496
 30
0.0
 11
-528.9653116574218
 21
-14.17848070862496
 31
0.0
  0
LINE
  5
123B
330
6B
100
AcDbEntity
  8
0
 62
     2
100
AcDbLine
 10
-528.9653116574218
 20
-14.17848070862496
 30
0.0
 11
-529.0089746574218
 21
-14.20917370862496
 31
0.0
  0
LINE
  5
123C
330
6B
100
AcDbEntity
  8
0
 62
     2
100
AcDbLine
 10
-529.0089746574218
 20
-14.20917370862496
 30
0.0
 11
-529.0515246574218
 21
-14.25029370862496
 31
0.0
  0
LINE
  5
123D
330
6B
100
AcDbEntity
  8
0
 62
     2
100
AcDbLine
 10
-529.0515246574218
 20
-14.25029370862496
 30
0.0
 11
-529.0926326574217
 21
-14.30152270862496
 31
0.0
  0
LINE
  5
123E
330
6B
100
AcDbEntity
  8
0
 62
     2
100
AcDbLine
 10
-529.0926326574217
 20
-14.30152270862496
 30
0.0
 11
-529.1319816574217
 21
-14.36246570862496
 31
0.0
  0
LINE
  5
123F
330
6B
100
AcDbEntity
  8
0
 62
     2
100
AcDbLine
 10
-529.1319816574217
 20
-14.36246570862496
 30
0.0
 11
-529.1692666574217
 21
-14.43265070862495
 31
0.0
  0
LINE
  5
1240
330
6B
100
AcDbEntity
  8
0
 62
     2
100
AcDbLine
 10
-529.1692666574217
 20
-14.43265070862495
 30
0.0
 11
-529.2041996574218
 21
-14.51153670862496
 31
0.0
  0
LINE
  5
1241
330
6B
100
AcDbEntity
  8
0
 62
     2
100
AcDbLine
 10
-529.2041996574218
 20
-14.51153670862496
 30
0.0
 11
-529.2365106574218
 21
-14.59851170862496
 31
0.0
  0
LINE
  5
1242
330
6B
100
AcDbEntity
  8
0
 62
     2
100
AcDbLine
 10
-529.2365106574218
 20
-14.59851170862496
 30
0.0
 11
-529.2659496574217
 21
-14.69290570862496
 31
0.0
  0
LINE
  5
1243
330
6B
100
AcDbEntity
  8
0
 62
     2
100
AcDbLine
 10
-529.2659496574217
 20
-14.69290570862496
 30
0.0
 11
-529.2922896574217
 21
-14.79398770862496
 31
0.0
  0
LINE
  5
1244
330
6B
100
AcDbEntity
  8
0
 62
     2
100
AcDbLine
 10
-529.2922896574217
 20
-14.79398770862496
 30
0.0
 11
-529.3153276574217
 21
-14.90097670862495
 31
0.0
  0
LINE
  5
1245
330
6B
100
AcDbEntity
  8
0
 62
     2
100
AcDbLine
 10
-529.3153276574217
 20
-14.90097670862495
 30
0.0
 11
-529.3348836574217
 21
-15.01304470862496
 31
0.0
  0
LINE
  5
1246
330
6B
100
AcDbEntity
  8
0
 62
     2
100
AcDbLine
 10
-529.3348836574217
 20
-15.01304470862496
 30
0.0
 11
-529.3508076574218
 21
-15.12932770862496
 31
0.0
  0
LINE
  5
1247
330
6B
100
AcDbEntity
  8
0
 62
     2
100
AcDbLine
 10
-529.3508076574218
 20
-15.12932770862496
 30
0.0
 11
-529.3629766574217
 21
-15.24892570862496
 31
0.0
  0
LINE
  5
1248
330
6B
100
AcDbEntity
  8
0
 62
     2
100
AcDbLine
 10
-529.3629766574217
 20
-15.24892570862496
 30
0.0
 11
-529.3712966574218
 21
-15.37091370862496
 31
0.0
  0
LINE
  5
1249
330
6B
100
AcDbEntity
  8
0
 62
     2
100
AcDbLine
 10
-529.3712966574218
 20
-15.37091370862496
 30
0.0
 11
-529.3757026574218
 21
-15.49434970862496
 31
0.0
  0
LINE
  5
124A
330
6B
100
AcDbEntity
  8
0
 62
     2
100
AcDbLine
 10
-529.3757026574218
 20
-15.49434970862496
 30
0.0
 11
-529.3761606574218
 21
-15.61827870862495
 31
0.0
  0
LINE
  5
124B
330
6B
100
AcDbEntity
  8
0
 62
     2
100
AcDbLine
 10
-529.3761606574218
 20
-15.61827870862495
 30
0.0
 11
-529.3726686574218
 21
-15.74174370862496
 31
0.0
  0
LINE
  5
124C
330
6B
100
AcDbEntity
  8
0
 62
     2
100
AcDbLine
 10
-529.3726686574218
 20
-15.74174370862496
 30
0.0
 11
-529.3652516574218
 21
-15.86379070862496
 31
0.0
  0
LINE
  5
124D
330
6B
100
AcDbEntity
  8
0
 62
     2
100
AcDbLine
 10
-529.3652516574218
 20
-15.86379070862496
 30
0.0
 11
-529.3539676574217
 21
-15.98347470862496
 31
0.0
  0
LINE
  5
124E
330
6B
100
AcDbEntity
  8
0
 62
     2
100
AcDbLine
 10
-529.3539676574217
 20
-15.98347470862496
 30
0.0
 11
-529.3389046574218
 21
-16.09987270862496
 31
0.0
  0
LINE
  5
124F
330
6B
100
AcDbEntity
  8
0
 62
     2
100
AcDbLine
 10
-529.3389046574218
 20
-16.09987270862496
 30
0.0
 11
-529.3201786574218
 21
-16.21208270862496
 31
0.0
  0
LINE
  5
1250
330
6B
100
AcDbEntity
  8
0
 62
     2
100
AcDbLine
 10
-529.3201786574218
 20
-16.21208270862496
 30
0.0
 11
-529.2979336574218
 21
-16.31923970862496
 31
0.0
  0
LINE
  5
1251
330
6B
100
AcDbEntity
  8
0
 62
     2
100
AcDbLine
 10
-529.2979336574218
 20
-16.31923970862496
 30
0.0
 11
-529.2723426574219
 21
-16.42051370862496
 31
0.0
  0
LINE
  5
1252
330
6B
100
AcDbEntity
  8
0
 62
     2
100
AcDbLine
 10
-529.2723426574219
 20
-16.42051370862496
 30
0.0
 11
-529.2436026574217
 21
-16.51512170862496
 31
0.0
  0
LINE
  5
1253
330
6B
100
AcDbEntity
  8
0
 62
     2
100
AcDbLine
 10
-529.2436026574217
 20
-16.51512170862496
 30
0.0
 11
-529.2119356574216
 21
-16.60233470862496
 31
0.0
  0
LINE
  5
1254
330
6B
100
AcDbEntity
  8
0
 62
     2
100
AcDbLine
 10
-529.2119356574216
 20
-16.60233470862496
 30
0.0
 11
-529.1775876574217
 21
-16.68147570862496
 31
0.0
  0
LINE
  5
1255
330
6B
100
AcDbEntity
  8
0
 62
     2
100
AcDbLine
 10
-529.1775876574217
 20
-16.68147570862496
 30
0.0
 11
-529.1408226574218
 21
-16.75193570862496
 31
0.0
  0
LINE
  5
1256
330
6B
100
AcDbEntity
  8
0
 62
     2
100
AcDbLine
 10
-529.1408226574218
 20
-16.75193570862496
 30
0.0
 11
-529.1019266574218
 21
-16.81316770862496
 31
0.0
  0
LINE
  5
1257
330
6B
100
AcDbEntity
  8
0
 62
     2
100
AcDbLine
 10
-529.1019266574218
 20
-16.81316770862496
 30
0.0
 11
-529.0611986574218
 21
-16.86469970862496
 31
0.0
  0
LINE
  5
1258
330
6B
100
AcDbEntity
  8
0
 62
     2
100
AcDbLine
 10
-529.0611986574218
 20
-16.86469970862496
 30
0.0
 11
-529.0189536574217
 21
-16.90613370862496
 31
0.0
  0
LINE
  5
1259
330
6B
100
AcDbEntity
  8
0
 62
     2
100
AcDbLine
 10
-529.0189536574217
 20
-16.90613370862496
 30
0.0
 11
-528.9755186574218
 21
-16.93714870862496
 31
0.0
  0
LINE
  5
125A
330
6B
100
AcDbEntity
  8
0
 62
     2
100
AcDbLine
 10
-528.9755186574218
 20
-16.93714870862496
 30
0.0
 11
-528.9312296574218
 21
-16.95750470862496
 31
0.0
  0
LINE
  5
125B
330
6B
100
AcDbEntity
  8
0
 62
     2
100
AcDbLine
 10
-528.9312296574218
 20
-16.95750470862496
 30
0.0
 11
-528.8864276574217
 21
-16.96704570862496
 31
0.0
  0
LINE
  5
125C
330
6B
100
AcDbEntity
  8
0
 62
     2
100
AcDbLine
 10
-528.8864276574217
 20
-16.96704570862496
 30
0.0
 11
-528.8414606574217
 21
-16.96569670862496
 31
0.0
  0
LINE
  5
125D
330
6B
100
AcDbEntity
  8
0
 62
     2
100
AcDbLine
 10
-528.8414606574217
 20
-16.96569670862496
 30
0.0
 11
-528.7966756574218
 21
-16.95346870862496
 31
0.0
  0
LINE
  5
125E
330
6B
100
AcDbEntity
  8
0
 62
     2
100
AcDbLine
 10
-528.7966756574218
 20
-16.95346870862496
 30
0.0
 11
-528.7524186574216
 21
-16.93045570862496
 31
0.0
  0
LINE
  5
125F
330
6B
100
AcDbEntity
  8
0
 62
     2
100
AcDbLine
 10
-528.7524186574216
 20
-16.93045570862496
 30
0.0
 11
-528.7090306574217
 21
-16.89683570862496
 31
0.0
  0
LINE
  5
1260
330
6B
100
AcDbEntity
  8
0
 62
     2
100
AcDbLine
 10
-528.7090306574217
 20
-16.89683570862496
 30
0.0
 11
-528.6668486574218
 21
-16.85286870862496
 31
0.0
  0
LINE
  5
1261
330
6B
100
AcDbEntity
  8
0
 62
     2
100
AcDbLine
 10
-528.6668486574218
 20
-16.85286870862496
 30
0.0
 11
-528.6261986574218
 21
-16.79889570862496
 31
0.0
  0
LINE
  5
1262
330
6B
100
AcDbEntity
  8
0
 62
     2
100
AcDbLine
 10
-528.6261986574218
 20
-16.79889570862496
 30
0.0
 11
-528.5873936574216
 21
-16.73533170862496
 31
0.0
  0
LINE
  5
1263
330
6B
100
AcDbEntity
  8
0
 62
     2
100
AcDbLine
 10
-528.5873936574216
 20
-16.73533170862496
 30
0.0
 11
-528.5507346574218
 21
-16.66266970862495
 31
0.0
  0
LINE
  5
1264
330
6B
100
AcDbEntity
  8
0
 62
     2
100
AcDbLine
 10
-528.5507346574218
 20
-16.66266970862495
 30
0.0
 11
-528.5165046574218
 21
-16.58147070862496
 31
0.0
  0
LINE
  5
1265
330
6B
100
AcDbEntity
  8
0
 62
     2
100
AcDbLine
 10
-528.5165046574218
 20
-16.58147070862496
 30
0.0
 11
-528.4849686574217
 21
-16.49236170862496
 31
0.0
  0
LINE
  5
1266
330
6B
100
AcDbEntity
  8
0
 62
     2
100
AcDbLine
 10
-528.4849686574217
 20
-16.49236170862496
 30
0.0
 11
-528.4563686574217
 21
-16.39603270862496
 31
0.0
  0
LINE
  5
1267
330
6B
100
AcDbEntity
  8
0
 62
     2
100
AcDbLine
 10
-528.4563686574217
 20
-16.39603270862496
 30
0.0
 11
-528.4309276574218
 21
-16.29322770862495
 31
0.0
  0
LINE
  5
1268
330
6B
100
AcDbEntity
  8
0
 62
     2
100
AcDbLine
 10
-528.4309276574218
 20
-16.29322770862495
 30
0.0
 11
-528.4088426574218
 21
-16.18474170862496
 31
0.0
  0
LINE
  5
1269
330
6B
100
AcDbEntity
  8
0
 62
     2
100
AcDbLine
 10
-528.4088426574218
 20
-16.18474170862496
 30
0.0
 11
-528.3902816574218
 21
-16.07141170862496
 31
0.0
  0
LINE
  5
126A
330
6B
100
AcDbEntity
  8
0
100
AcDbLine
 10
-582.3721756574217
 20
81.14243929137504
 30
0.0
 11
-582.3618196574217
 21
79.07191229137504
 31
0.0
  0
LINE
  5
126B
330
6B
100
AcDbEntity
  8
0
100
AcDbLine
 10
-582.3618196574217
 20
79.07191229137504
 30
0.0
 11
-581.3355256574217
 21
80.87021929137504
 31
0.0
  0
LINE
  5
126C
330
6B
100
AcDbEntity
  8
0
100
AcDbLine
 10
-518.2225696574216
 20
75.52516729137504
 30
0.0
 11
-517.7264646574218
 21
73.51492629137505
 31
0.0
  0
LINE
  5
126D
330
6B
100
AcDbEntity
  8
0
100
AcDbLine
 10
-517.7264646574218
 20
73.51492629137505
 30
0.0
 11
-517.1509836574217
 21
75.50389829137505
 31
0.0
  0
LINE
  5
126E
330
6B
100
AcDbEntity
  8
0
100
AcDbLine
 10
-383.0166306574218
 20
-19.70052170862496
 30
0.0
 11
-384.8480916574218
 21
-17.87172870862496
 31
0.0
  0
LINE
  5
126F
330
6B
100
AcDbEntity
  8
0
100
AcDbLine
 10
-384.8480916574218
 20
-17.87172870862496
 30
0.0
 11
-384.1763966574218
 21
-20.37123970862496
 31
0.0
  0
LINE
  5
1270
330
6B
100
AcDbEntity
  8
0
100
AcDbLine
 10
-463.4181586574217
 20
-4.951880708624957
 30
0.0
 11
-462.1047686574217
 21
-7.055887708624956
 31
0.0
  0
LINE
  5
1271
330
6B
100
AcDbEntity
  8
0
100
AcDbLine
 10
-462.1047686574217
 20
-7.055887708624956
 30
0.0
 11
-461.0394996574218
 21
-9.140558708624961
 31
0.0
  0
LINE
  5
1272
330
6B
100
AcDbEntity
  8
0
100
AcDbLine
 10
-461.0394996574218
 20
-9.140558708624961
 30
0.0
 11
-460.4704706574217
 21
-11.18655870862496
 31
0.0
  0
LINE
  5
1273
330
6B
100
AcDbEntity
  8
0
100
AcDbLine
 10
-460.4704706574217
 20
-11.18655870862496
 30
0.0
 11
-460.6458016574217
 21
-13.17455170862496
 31
0.0
  0
LINE
  5
1274
330
6B
100
AcDbEntity
  8
0
100
AcDbLine
 10
-460.6458016574217
 20
-13.17455170862496
 30
0.0
 11
-462.0117266574218
 21
-15.66430670862495
 31
0.0
  0
LINE
  5
1275
330
6B
100
AcDbEntity
  8
0
100
AcDbLine
 10
-462.0117266574218
 20
-15.66430670862495
 30
0.0
 11
-463.3138226574216
 21
-18.13796470862496
 31
0.0
  0
LINE
  5
1276
330
6B
100
AcDbEntity
  8
0
100
AcDbLine
 10
-463.3138226574216
 20
-18.13796470862496
 30
0.0
 11
-463.3734216574217
 21
-20.01254170862496
 31
0.0
  0
LINE
  5
1277
330
6B
100
AcDbEntity
  8
0
100
AcDbLine
 10
-463.3734216574217
 20
-20.01254170862496
 30
0.0
 11
-462.6952346574218
 21
-21.92735770862496
 31
0.0
  0
LINE
  5
1278
330
6B
100
AcDbEntity
  8
0
100
AcDbLine
 10
-462.6952346574218
 20
-21.92735770862496
 30
0.0
 11
-461.5251906574218
 21
-23.86899770862496
 31
0.0
  0
LINE
  5
1279
330
6B
100
AcDbEntity
  8
0
100
AcDbLine
 10
-461.5251906574218
 20
-23.86899770862496
 30
0.0
 11
-460.1092166574217
 21
-25.82405070862496
 31
0.0
  0
LINE
  5
127A
330
6B
100
AcDbEntity
  8
0
100
AcDbLine
 10
-465.3897426574217
 20
-5.055959708624957
 30
0.0
 11
-464.0763526574217
 21
-7.159965708624956
 31
0.0
  0
LINE
  5
127B
330
6B
100
AcDbEntity
  8
0
100
AcDbLine
 10
-464.0763526574217
 20
-7.159965708624956
 30
0.0
 11
-463.0110836574218
 21
-9.244636708624961
 31
0.0
  0
LINE
  5
127C
330
6B
100
AcDbEntity
  8
0
100
AcDbLine
 10
-463.0110836574218
 20
-9.244636708624961
 30
0.0
 11
-462.4420546574218
 21
-11.29063670862496
 31
0.0
  0
LINE
  5
127D
330
6B
100
AcDbEntity
  8
0
100
AcDbLine
 10
-462.4420546574218
 20
-11.29063670862496
 30
0.0
 11
-462.6173856574218
 21
-13.27863070862496
 31
0.0
  0
LINE
  5
127E
330
6B
100
AcDbEntity
  8
0
100
AcDbLine
 10
-462.6173856574218
 20
-13.27863070862496
 30
0.0
 11
-463.9833106574218
 21
-15.76838570862496
 31
0.0
  0
LINE
  5
127F
330
6B
100
AcDbEntity
  8
0
100
AcDbLine
 10
-463.9833106574218
 20
-15.76838570862496
 30
0.0
 11
-465.2854066574217
 21
-18.24204370862496
 31
0.0
  0
LINE
  5
1280
330
6B
100
AcDbEntity
  8
0
100
AcDbLine
 10
-465.2854066574217
 20
-18.24204370862496
 30
0.0
 11
-465.3450056574217
 21
-20.11662070862496
 31
0.0
  0
LINE
  5
1281
330
6B
100
AcDbEntity
  8
0
100
AcDbLine
 10
-465.3450056574217
 20
-20.11662070862496
 30
0.0
 11
-464.6668186574218
 21
-22.03143570862496
 31
0.0
  0
LINE
  5
1282
330
6B
100
AcDbEntity
  8
0
100
AcDbLine
 10
-464.6668186574218
 20
-22.03143570862496
 30
0.0
 11
-463.4967746574218
 21
-23.97307670862496
 31
0.0
  0
LINE
  5
1283
330
6B
100
AcDbEntity
  8
0
100
AcDbLine
 10
-463.4967746574218
 20
-23.97307670862496
 30
0.0
 11
-462.0808006574216
 21
-25.92812970862496
 31
0.0
  0
LINE
  5
1284
330
6B
100
AcDbEntity
  8
0
100
AcDbLine
 10
-623.2684006574217
 20
36.04598629137504
 30
0.0
 11
-670.8561936574217
 21
36.04598629137506
 31
0.0
  0
LINE
  5
1285
330
6B
100
AcDbEntity
  8
0
100
AcDbLine
 10
-613.6554496574217
 20
117.782859291375
 30
0.0
 11
-670.8561936574217
 21
117.782859291375
 31
0.0
  0
LINE
  5
1286
330
6B
100
AcDbEntity
  8
0
100
AcDbLine
 10
-669.6061936574217
 20
38.54598629137506
 30
0.0
 11
-669.6061936574217
 21
115.282859291375
 31
0.0
  0
LINE
  5
128A
330
6B
100
AcDbEntity
  8
0
100
AcDbLine
 10
-612.2902665917604
 20
53.26829371250244
 30
0.0
 11
-633.7465357230835
 21
92.82367987024764
 31
0.0
  0
LINE
  5
128E
330
6B
100
AcDbEntity
  8
0
100
AcDbLine
 10
-660.0234506574216
 20
-15.36246270862495
 30
0.0
 11
-660.0234506574216
 21
9.62620529137504
 31
0.0
  0
LINE
  5
128F
330
6B
100
AcDbEntity
  8
0
100
AcDbLine
 10
-572.0601246574217
 20
-10.84754670862496
 30
0.0
 11
-572.0601246574217
 21
9.62620529137504
 31
0.0
  0
LINE
  5
1290
330
6B
100
AcDbEntity
  8
0
100
AcDbLine
 10
-657.5234506574217
 20
8.37620529137504
 30
0.0
 11
-574.5601246574217
 21
8.37620529137504
 31
0.0
  0
LINE
  5
1294
330
6B
100
AcDbEntity
  8
0
100
AcDbLine
 10
-449.8493056574217
 20
71.24131429137505
 30
0.0
 11
-442.4428256574217
 21
71.24131429137505
 31
0.0
  0
LINE
  5
1295
330
6B
100
AcDbEntity
  8
0
100
AcDbLine
 10
-450.1261736574218
 20
74.24131429137505
 30
0.0
 11
-442.4428256574217
 21
74.24131429137505
 31
0.0
  0
LINE
  5
1296
330
6B
100
AcDbEntity
  8
0
100
AcDbLine
 10
-443.6928256574217
 20
68.74131429137505
 30
0.0
 11
-443.6928256574217
 21
66.24131429137505
 31
0.0
  0
LINE
  5
1297
330
6B
100
AcDbEntity
  8
0
100
AcDbLine
 10
-443.6928256574217
 20
76.74131429137505
 30
0.0
 11
-443.6928256574217
 21
85.49131429137505
 31
0.0
  0
LINE
  5
1298
330
6B
100
AcDbEntity
  8
0
100
AcDbLine
 10
-443.6928256574217
 20
71.24131429137505
 30
0.0
 11
-443.6928256574217
 21
74.24131429137505
 31
0.0
  0
LINE
  5
129C
330
6B
100
AcDbEntity
  8
0
100
AcDbLine
 10
-406.0840706574216
 20
-23.02218670862496
 30
0.0
 11
-397.0554426701213
 21
-23.02218670862496
 31
0.0
  0
LINE
  5
129D
330
6B
100
AcDbEntity
  8
0
100
AcDbLine
 10
-405.8517396574218
 20
-7.932653708624957
 30
0.0
 11
-397.0554426701213
 21
-7.932653708624959
 31
0.0
  0
LINE
  5
129E
330
6B
100
AcDbEntity
  8
0
100
AcDbLine
 10
-398.3054426701213
 20
-5.432653708624958
 30
0.0
 11
-398.3054426701213
 21
-2.932653708624959
 31
0.0
  0
LINE
  5
129F
330
6B
100
AcDbEntity
  8
0
100
AcDbLine
 10
-398.3054426701213
 20
-25.52218670862496
 30
0.0
 11
-398.3054426701213
 21
-33.27218670862496
 31
0.0
  0
LINE
  5
12A0
330
6B
100
AcDbEntity
  8
0
100
AcDbLine
 10
-398.3054426701213
 20
-7.932653708624958
 30
0.0
 11
-398.3054426701213
 21
-23.02218670862496
 31
0.0
  0
LINE
  5
12A4
330
6B
100
AcDbEntity
  8
0
100
AcDbLine
 10
-571.9937686574216
 20
-10.75756770862496
 30
0.0
 11
-571.9937686574216
 21
9.62620529137504
 31
0.0
  0
LINE
  5
12A5
330
6B
100
AcDbEntity
  8
0
100
AcDbLine
 10
-326.2120026574218
 20
-4.725005708624958
 30
0.0
 11
-326.2120026574218
 21
9.62620529137504
 31
0.0
  0
LINE
  5
12A6
330
6B
100
AcDbEntity
  8
0
100
AcDbLine
 10
-569.4937686574217
 20
8.37620529137504
 30
0.0
 11
-328.7120026574218
 21
8.37620529137504
 31
0.0
  0
LINE
  5
12AA
330
6B
100
AcDbEntity
  8
0
100
AcDbLine
 10
-327.4620026574218
 20
-27.47500570862495
 30
0.0
 11
-316.4875056574218
 21
-27.47500570862495
 31
0.0
  0
LINE
  5
12AB
330
6B
100
AcDbEntity
  8
0
100
AcDbLine
 10
-327.4620026574218
 20
-3.475005708624957
 30
0.0
 11
-316.4875056574218
 21
-3.475005708624961
 31
0.0
  0
LINE
  5
12AC
330
6B
100
AcDbEntity
  8
0
100
AcDbLine
 10
-317.7375056574218
 20
-24.97500570862495
 30
0.0
 11
-317.7375056574218
 21
-5.97500570862496
 31
0.0
  0
LINE
  5
12B0
330
6B
100
AcDbEntity
  8
0
100
AcDbLine
 10
-325.8095466574218
 20
71.98908329137504
 30
0.0
 11
-314.5330076574218
 21
71.98908329137504
 31
0.0
  0
LINE
  5
12B1
330
6B
100
AcDbEntity
  8
0
100
AcDbLine
 10
-326.8070466574218
 20
81.98908329137504
 30
0.0
 11
-314.5330076574218
 21
81.98908329137504
 31
0.0
  0
LINE
  5
12B2
330
6B
100
AcDbEntity
  8
0
100
AcDbLine
 10
-315.7830076574218
 20
74.48908329137504
 30
0.0
 11
-315.7830076574218
 21
79.48908329137504
 31
0.0
  0
LINE
  5
12B6
330
6B
100
AcDbEntity
  8
0
 62
     3
100
AcDbLine
 10
-496.8712446174219
 20
143.212284831375
 30
0.0
 11
-496.8978553674218
 21
143.382667351375
 31
0.0
  0
LINE
  5
12B7
330
6B
100
AcDbEntity
  8
0
 62
     3
100
AcDbLine
 10
-496.8978553674218
 20
143.382667351375
 30
0.0
 11
-496.9298141974218
 21
143.545817041375
 31
0.0
  0
LINE
  5
12B8
330
6B
100
AcDbEntity
  8
0
 62
     3
100
AcDbLine
 10
-496.9298141974218
 20
143.545817041375
 30
0.0
 11
-496.9668740974218
 21
143.700472841375
 31
0.0
  0
LINE
  5
12B9
330
6B
100
AcDbEntity
  8
0
 62
     3
100
AcDbLine
 10
-496.9668740974218
 20
143.700472841375
 30
0.0
 11
-497.0087485974218
 21
143.845439341375
 31
0.0
  0
LINE
  5
12BA
330
6B
100
AcDbEntity
  8
0
 62
     3
100
AcDbLine
 10
-497.0087485974218
 20
143.845439341375
 30
0.0
 11
-497.0551140274217
 21
143.9795960313751
 31
0.0
  0
LINE
  5
12BB
330
6B
100
AcDbEntity
  8
0
 62
     3
100
AcDbLine
 10
-497.0551140274217
 20
143.9795960313751
 30
0.0
 11
-497.1056120174218
 21
144.101905931375
 31
0.0
  0
LINE
  5
12BC
330
6B
100
AcDbEntity
  8
0
 62
     3
100
AcDbLine
 10
-497.1056120174218
 20
144.101905931375
 30
0.0
 11
-497.1598522374217
 21
144.211423671375
 31
0.0
  0
LINE
  5
12BD
330
6B
100
AcDbEntity
  8
0
 62
     3
100
AcDbLine
 10
-497.1598522374217
 20
144.211423671375
 30
0.0
 11
-497.2174154374219
 21
144.3073027213749
 31
0.0
  0
LINE
  5
12BE
330
6B
100
AcDbEntity
  8
0
 62
     3
100
AcDbLine
 10
-497.2174154374219
 20
144.3073027213749
 30
0.0
 11
-497.2778566874217
 21
144.388801991375
 31
0.0
  0
LINE
  5
12BF
330
6B
100
AcDbEntity
  8
0
 62
     3
100
AcDbLine
 10
-497.2778566874217
 20
144.388801991375
 30
0.0
 11
-497.3407088074218
 21
144.455291531375
 31
0.0
  0
LINE
  5
12C0
330
6B
100
AcDbEntity
  8
0
 62
     3
100
AcDbLine
 10
-497.3407088074218
 20
144.455291531375
 30
0.0
 11
-497.4054859874218
 21
144.506257411375
 31
0.0
  0
LINE
  5
12C1
330
6B
100
AcDbEntity
  8
0
 62
     3
100
AcDbLine
 10
-497.4054859874218
 20
144.506257411375
 30
0.0
 11
-497.4716875174218
 21
144.541305691375
 31
0.0
  0
LINE
  5
12C2
330
6B
100
AcDbEntity
  8
0
 62
     3
100
AcDbLine
 10
-497.4716875174218
 20
144.541305691375
 30
0.0
 11
-497.5388017074218
 21
144.560165461375
 31
0.0
  0
LINE
  5
12C3
330
6B
100
AcDbEntity
  8
0
 62
     3
100
AcDbLine
 10
-497.5388017074218
 20
144.560165461375
 30
0.0
 11
-497.6063097974217
 21
144.562690961375
 31
0.0
  0
LINE
  5
12C4
330
6B
100
AcDbEntity
  8
0
 62
     3
100
AcDbLine
 10
-497.6063097974217
 20
144.562690961375
 30
0.0
 11
-497.6736899874218
 21
144.548862651375
 31
0.0
  0
LINE
  5
12C5
330
6B
100
AcDbEntity
  8
0
 62
     3
100
AcDbLine
 10
-497.6736899874218
 20
144.548862651375
 30
0.0
 11
-497.7404214574217
 21
144.518787421375
 31
0.0
  0
LINE
  5
12C6
330
6B
100
AcDbEntity
  8
0
 62
     3
100
AcDbLine
 10
-497.7404214574217
 20
144.518787421375
 30
0.0
 11
-497.8059883974218
 21
144.472697751375
 31
0.0
  0
LINE
  5
12C7
330
6B
100
AcDbEntity
  8
0
 62
     3
100
AcDbLine
 10
-497.8059883974218
 20
144.472697751375
 30
0.0
 11
-497.8698840374218
 21
144.410949871375
 31
0.0
  0
LINE
  5
12C8
330
6B
100
AcDbEntity
  8
0
 62
     3
100
AcDbLine
 10
-497.8698840374218
 20
144.410949871375
 30
0.0
 11
-497.9316144674218
 21
144.334021081375
 31
0.0
  0
LINE
  5
12C9
330
6B
100
AcDbEntity
  8
0
 62
     3
100
AcDbLine
 10
-497.9316144674218
 20
144.334021081375
 30
0.0
 11
-497.9907025574219
 21
144.242505981375
 31
0.0
  0
LINE
  5
12CA
330
6B
100
AcDbEntity
  8
0
 62
     3
100
AcDbLine
 10
-497.9907025574219
 20
144.242505981375
 30
0.0
 11
-498.0466915874218
 21
144.137111951375
 31
0.0
  0
LINE
  5
12CB
330
6B
100
AcDbEntity
  8
0
 62
     3
100
AcDbLine
 10
-498.0466915874218
 20
144.137111951375
 30
0.0
 11
-498.0991487874218
 21
144.018653621375
 31
0.0
  0
LINE
  5
12CC
330
6B
100
AcDbEntity
  8
0
 62
     3
100
AcDbLine
 10
-498.0991487874218
 20
144.018653621375
 30
0.0
 11
-498.1476686874217
 21
143.888046611375
 31
0.0
  0
LINE
  5
12CD
330
6B
100
AcDbEntity
  8
0
 62
     3
100
AcDbLine
 10
-498.1476686874217
 20
143.888046611375
 30
0.0
 11
-498.1918762674219
 21
143.7463004613749
 31
0.0
  0
LINE
  5
12CE
330
6B
100
AcDbEntity
  8
0
 62
     3
100
AcDbLine
 10
-498.1918762674219
 20
143.7463004613749
 30
0.0
 11
-498.2314298074219
 21
143.594510791375
 31
0.0
  0
LINE
  5
12CF
330
6B
100
AcDbEntity
  8
0
 62
     3
100
AcDbLine
 10
-498.2314298074219
 20
143.594510791375
 30
0.0
 11
-498.2660235874218
 21
143.433850851375
 31
0.0
  0
LINE
  5
12D0
330
6B
100
AcDbEntity
  8
0
 62
     3
100
AcDbLine
 10
-498.2660235874218
 20
143.433850851375
 30
0.0
 11
-498.2953902174219
 21
143.265562461375
 31
0.0
  0
LINE
  5
12D1
330
6B
100
AcDbEntity
  8
0
 62
     3
100
AcDbLine
 10
-498.2953902174219
 20
143.265562461375
 30
0.0
 11
-498.3193027074218
 21
143.090946401375
 31
0.0
  0
LINE
  5
12D2
330
6B
100
AcDbEntity
  8
0
 62
     3
100
AcDbLine
 10
-498.3193027074218
 20
143.090946401375
 30
0.0
 11
-498.3375762174218
 21
142.911352371375
 31
0.0
  0
LINE
  5
12D3
330
6B
100
AcDbEntity
  8
0
 62
     3
100
AcDbLine
 10
-498.3375762174218
 20
142.911352371375
 30
0.0
 11
-498.3500695174218
 21
142.728168531375
 31
0.0
  0
LINE
  5
12D4
330
6B
100
AcDbEntity
  8
0
 62
     3
100
AcDbLine
 10
-498.3500695174218
 20
142.728168531375
 30
0.0
 11
-498.3566860274218
 21
142.542810811375
 31
0.0
  0
LINE
  5
12D5
330
6B
100
AcDbEntity
  8
0
 62
     3
100
AcDbLine
 10
-498.3566860274218
 20
142.542810811375
 30
0.0
 11
-498.3573746174219
 21
142.356711911375
 31
0.0
  0
LINE
  5
12D6
330
6B
100
AcDbEntity
  8
0
 62
     3
100
AcDbLine
 10
-498.3573746174219
 20
142.356711911375
 30
0.0
 11
-498.3521299574219
 21
142.171310301375
 31
0.0
  0
LINE
  5
12D7
330
6B
100
AcDbEntity
  8
0
 62
     3
100
AcDbLine
 10
-498.3521299574219
 20
142.171310301375
 30
0.0
 11
-498.3409925874219
 21
141.988039031375
 31
0.0
  0
LINE
  5
12D8
330
6B
100
AcDbEntity
  8
0
 62
     3
100
AcDbLine
 10
-498.3409925874219
 20
141.988039031375
 30
0.0
 11
-498.3240485874217
 21
141.808314691375
 31
0.0
  0
LINE
  5
12D9
330
6B
100
AcDbEntity
  8
0
 62
     3
100
AcDbLine
 10
-498.3240485874217
 20
141.808314691375
 30
0.0
 11
-498.3014289374217
 21
141.633526461375
 31
0.0
  0
LINE
  5
12DA
330
6B
100
AcDbEntity
  8
0
 62
     3
100
AcDbLine
 10
-498.3014289374217
 20
141.633526461375
 30
0.0
 11
-498.2733084674219
 21
141.465025361375
 31
0.0
  0
LINE
  5
12DB
330
6B
100
AcDbEntity
  8
0
 62
     3
100
AcDbLine
 10
-498.2733084674219
 20
141.465025361375
 30
0.0
 11
-498.2399045374219
 21
141.304113821375
 31
0.0
  0
LINE
  5
12DC
330
6B
100
AcDbEntity
  8
0
 62
     3
100
AcDbLine
 10
-498.2399045374219
 20
141.304113821375
 30
0.0
 11
-498.2014753374218
 21
141.152035601375
 31
0.0
  0
LINE
  5
12DD
330
6B
100
AcDbEntity
  8
0
 62
     3
100
AcDbLine
 10
-498.2014753374218
 20
141.152035601375
 30
0.0
 11
-498.1583179174219
 21
141.009966191375
 31
0.0
  0
LINE
  5
12DE
330
6B
100
AcDbEntity
  8
0
 62
     3
100
AcDbLine
 10
-498.1583179174219
 20
141.009966191375
 30
0.0
 11
-498.1107658474218
 21
140.879003711375
 31
0.0
  0
LINE
  5
12DF
330
6B
100
AcDbEntity
  8
0
 62
     3
100
AcDbLine
 10
-498.1107658474218
 20
140.879003711375
 30
0.0
 11
-498.0591866974219
 21
140.7601604313751
 31
0.0
  0
LINE
  5
12E0
330
6B
100
AcDbEntity
  8
0
 62
     3
100
AcDbLine
 10
-498.0591866974219
 20
140.7601604313751
 30
0.0
 11
-498.0039791274219
 21
140.654354961375
 31
0.0
  0
LINE
  5
12E1
330
6B
100
AcDbEntity
  8
0
 62
     3
100
AcDbLine
 10
-498.0039791274219
 20
140.654354961375
 30
0.0
 11
-497.9455698774218
 21
140.562405101375
 31
0.0
  0
LINE
  5
12E2
330
6B
100
AcDbEntity
  8
0
 62
     3
100
AcDbLine
 10
-497.9455698774218
 20
140.562405101375
 30
0.0
 11
-497.8844104174219
 21
140.485021601375
 31
0.0
  0
LINE
  5
12E3
330
6B
100
AcDbEntity
  8
0
 62
     3
100
AcDbLine
 10
-497.8844104174219
 20
140.485021601375
 30
0.0
 11
-497.8209734774218
 21
140.422802581375
 31
0.0
  0
LINE
  5
12E4
330
6B
100
AcDbEntity
  8
0
 62
     3
100
AcDbLine
 10
-497.8209734774218
 20
140.422802581375
 30
0.0
 11
-497.7557493974217
 21
140.376228971375
 31
0.0
  0
LINE
  5
12E5
330
6B
100
AcDbEntity
  8
0
 62
     3
100
AcDbLine
 10
-497.7557493974217
 20
140.376228971375
 30
0.0
 11
-497.6892423174218
 21
140.345660741375
 31
0.0
  0
LINE
  5
12E6
330
6B
100
AcDbEntity
  8
0
 62
     3
100
AcDbLine
 10
-497.6892423174218
 20
140.345660741375
 30
0.0
 11
-497.6219663074219
 21
140.331334191375
 31
0.0
  0
LINE
  5
12E7
330
6B
100
AcDbEntity
  8
0
 62
     3
100
AcDbLine
 10
-497.6219663074219
 20
140.331334191375
 30
0.0
 11
-497.5544413774218
 21
140.333360051375
 31
0.0
  0
LINE
  5
12E8
330
6B
100
AcDbEntity
  8
0
 62
     3
100
AcDbLine
 10
-497.5544413774218
 20
140.333360051375
 30
0.0
 11
-497.4871894574219
 21
140.351722651375
 31
0.0
  0
LINE
  5
12E9
330
6B
100
AcDbEntity
  8
0
 62
     3
100
AcDbLine
 10
-497.4871894574219
 20
140.351722651375
 30
0.0
 11
-497.4207303774218
 21
140.386280071375
 31
0.0
  0
LINE
  5
12EA
330
6B
100
AcDbEntity
  8
0
 62
     3
100
AcDbLine
 10
-497.4207303774218
 20
140.386280071375
 30
0.0
 11
-497.3555778174218
 21
140.436765201375
 31
0.0
  0
LINE
  5
12EB
330
6B
100
AcDbEntity
  8
0
 62
     3
100
AcDbLine
 10
-497.3555778174218
 20
140.436765201375
 30
0.0
 11
-497.2922353874219
 21
140.502787801375
 31
0.0
  0
LINE
  5
12EC
330
6B
100
AcDbEntity
  8
0
 62
     3
100
AcDbLine
 10
-497.2922353874219
 20
140.502787801375
 30
0.0
 11
-497.2311926874218
 21
140.583837561375
 31
0.0
  0
LINE
  5
12ED
330
6B
100
AcDbEntity
  8
0
 62
     3
100
AcDbLine
 10
-497.2311926874218
 20
140.583837561375
 30
0.0
 11
-497.1729215474218
 21
140.679288011375
 31
0.0
  0
LINE
  5
12EE
330
6B
100
AcDbEntity
  8
0
 62
     3
100
AcDbLine
 10
-497.1729215474218
 20
140.679288011375
 30
0.0
 11
-497.1178723674218
 21
140.788401371375
 31
0.0
  0
LINE
  5
12EF
330
6B
100
AcDbEntity
  8
0
 62
     3
100
AcDbLine
 10
-497.1178723674218
 20
140.788401371375
 30
0.0
 11
-497.0664706474217
 21
140.910334231375
 31
0.0
  0
LINE
  5
12F0
330
6B
100
AcDbEntity
  8
0
 62
     3
100
AcDbLine
 10
-497.0664706474217
 20
140.910334231375
 30
0.0
 11
-497.0191137074218
 21
141.044144141375
 31
0.0
  0
LINE
  5
12F1
330
6B
100
AcDbEntity
  8
0
 62
     3
100
AcDbLine
 10
-497.0191137074218
 20
141.044144141375
 30
0.0
 11
-496.9761675874218
 21
141.188796791375
 31
0.0
  0
LINE
  5
12F2
330
6B
100
AcDbEntity
  8
0
 62
     3
100
AcDbLine
 10
-496.9761675874218
 20
141.188796791375
 30
0.0
 11
-496.9379642374217
 21
141.343174111375
 31
0.0
  0
LINE
  5
12F3
330
6B
100
AcDbEntity
  8
0
 62
     3
100
AcDbLine
 10
-496.9379642374217
 20
141.343174111375
 30
0.0
 11
-496.9047989474217
 21
141.506082841375
 31
0.0
  0
LINE
  5
12F4
330
6B
100
AcDbEntity
  8
0
 62
     3
100
AcDbLine
 10
-496.9047989474217
 20
141.506082841375
 30
0.0
 11
-496.8769280674218
 21
141.676263771375
 31
0.0
  0
TEXT
  5
12F5
330
6B
100
AcDbEntity
  8
0
 62
     4
100
AcDbText
 10
-670.2311936574217
 20
74.41442279137493
 30
0.0
 40
3.0
  1
82
 50
90.0
100
AcDbText
  0
LINE
  5
12F6
330
6B
100
AcDbEntity
  8
0
  6
ByBlock
 62
     0
370
    -2
100
AcDbLine
 10
-670.2760661574217
 20
115.282859291375
 30
0.0
 11
-669.6061936574217
 21
117.782859291375
 31
0.0
  0
LINE
  5
12F7
330
6B
100
AcDbEntity
  8
0
  6
ByBlock
 62
     0
370
    -2
100
AcDbLine
 10
-669.6061936574217
 20
117.782859291375
 30
0.0
 11
-668.9363211574217
 21
115.282859291375
 31
0.0
  0
LINE
  5
12F8
330
6B
100
AcDbEntity
  8
0
  6
ByBlock
 62
     0
370
    -2
100
AcDbLine
 10
-669.6061936574217
 20
117.782859291375
 30
0.0
 11
-669.6061936574217
 21
115.282859291375
 31
0.0
  0
LINE
  5
12F9
330
6B
100
AcDbEntity
  8
0
  6
ByBlock
 62
     0
370
    -2
100
AcDbLine
 10
-668.9363211574217
 20
38.54598629137506
 30
0.0
 11
-669.6061936574217
 21
36.04598629137506
 31
0.0
  0
LINE
  5
12FA
330
6B
100
AcDbEntity
  8
0
  6
ByBlock
 62
     0
370
    -2
100
AcDbLine
 10
-669.6061936574217
 20
36.04598629137506
 30
0.0
 11
-670.2760661574217
 21
38.54598629137506
 31
0.0
  0
LINE
  5
12FB
330
6B
100
AcDbEntity
  8
0
  6
ByBlock
 62
     0
370
    -2
100
AcDbLine
 10
-669.6061936574217
 20
36.04598629137506
 30
0.0
 11
-669.6061936574217
 21
38.54598629137506
 31
0.0
  0
TEXT
  5
12FC
330
6B
100
AcDbEntity
  8
0
 62
     4
100
AcDbText
 10
-624.2570432036479
 20
76.64027265665082
 30
0.0
 40
3.0
  1
\U+220550
 50
298.4770020669827
100
AcDbText
  0
LINE
  5
12FD
330
6B
100
AcDbEntity
  8
0
  6
ByBlock
 62
     0
370
    -2
100
AcDbLine
 10
-634.3353593903531
 20
92.50428066060655
 30
0.0
 11
-634.9385506574219
 21
95.02120129137507
 31
0.0
  0
LINE
  5
12FE
330
6B
100
AcDbEntity
  8
0
  6
ByBlock
 62
     0
370
    -2
100
AcDbLine
 10
-634.9385506574219
 20
95.02120129137507
 30
0.0
 11
-633.1577120558137
 21
93.14307907988867
 31
0.0
  0
LINE
  5
12FF
330
6B
100
AcDbEntity
  8
0
  6
ByBlock
 62
     0
370
    -2
100
AcDbLine
 10
-634.9385506574219
 20
95.02120129137507
 30
0.0
 11
-633.7465357230834
 21
92.82367987024761
 31
0.0
  0
LINE
  5
1300
330
6B
100
AcDbEntity
  8
0
  6
ByBlock
 62
     0
370
    -2
100
AcDbLine
 10
-611.7014429244908
 20
53.58769292214354
 30
0.0
 11
-611.0982516574219
 21
51.07077229137502
 31
0.0
  0
LINE
  5
1301
330
6B
100
AcDbEntity
  8
0
  6
ByBlock
 62
     0
370
    -2
100
AcDbLine
 10
-611.0982516574219
 20
51.07077229137502
 30
0.0
 11
-612.8790902590301
 21
52.94889450286141
 31
0.0
  0
LINE
  5
1302
330
6B
100
AcDbEntity
  8
0
  6
ByBlock
 62
     0
370
    -2
100
AcDbLine
 10
-611.0982516574219
 20
51.07077229137502
 30
0.0
 11
-612.2902665917604
 21
53.26829371250247
 31
0.0
  0
TEXT
  5
1303
330
6B
100
AcDbEntity
  8
0
 62
     4
100
AcDbText
 10
-618.5417876574217
 20
9.00120529137504
 30
0.0
 40
3.0
  1
88
100
AcDbText
  0
LINE
  5
1304
330
6B
100
AcDbEntity
  8
0
  6
ByBlock
 62
     0
370
    -2
100
AcDbLine
 10
-574.5601246574217
 20
9.04607779137504
 30
0.0
 11
-572.0601246574217
 21
8.37620529137504
 31
0.0
  0
LINE
  5
1305
330
6B
100
AcDbEntity
  8
0
  6
ByBlock
 62
     0
370
    -2
100
AcDbLine
 10
-572.0601246574217
 20
8.37620529137504
 30
0.0
 11
-574.5601246574217
 21
7.706332791375039
 31
0.0
  0
LINE
  5
1306
330
6B
100
AcDbEntity
  8
0
  6
ByBlock
 62
     0
370
    -2
100
AcDbLine
 10
-572.0601246574217
 20
8.37620529137504
 30
0.0
 11
-574.5601246574217
 21
8.37620529137504
 31
0.0
  0
LINE
  5
1307
330
6B
100
AcDbEntity
  8
0
  6
ByBlock
 62
     0
370
    -2
100
AcDbLine
 10
-657.5234506574217
 20
7.706332791375039
 30
0.0
 11
-660.0234506574216
 21
8.37620529137504
 31
0.0
  0
LINE
  5
1308
330
6B
100
AcDbEntity
  8
0
  6
ByBlock
 62
     0
370
    -2
100
AcDbLine
 10
-660.0234506574216
 20
8.37620529137504
 30
0.0
 11
-657.5234506574217
 21
9.04607779137504
 31
0.0
  0
LINE
  5
1309
330
6B
100
AcDbEntity
  8
0
  6
ByBlock
 62
     0
370
    -2
100
AcDbLine
 10
-660.0234506574216
 20
8.37620529137504
 30
0.0
 11
-657.5234506574217
 21
8.37620529137504
 31
0.0
  0
TEXT
  5
130A
330
6B
100
AcDbEntity
  8
0
 62
     4
100
AcDbText
 10
-444.3178256574217
 20
79.86631429137498
 30
0.0
 40
3.0
  1
2t
 50
90.0
100
AcDbText
  0
LINE
  5
130B
330
6B
100
AcDbEntity
  8
0
  6
ByBlock
 62
     0
370
    -2
100
AcDbLine
 10
-443.0229531574217
 20
76.74131429137505
 30
0.0
 11
-443.6928256574217
 21
74.24131429137505
 31
0.0
  0
LINE
  5
130C
330
6B
100
AcDbEntity
  8
0
  6
ByBlock
 62
     0
370
    -2
100
AcDbLine
 10
-443.6928256574217
 20
74.24131429137505
 30
0.0
 11
-444.3626981574217
 21
76.74131429137505
 31
0.0
  0
LINE
  5
130D
330
6B
100
AcDbEntity
  8
0
  6
ByBlock
 62
     0
370
    -2
100
AcDbLine
 10
-443.6928256574217
 20
74.24131429137505
 30
0.0
 11
-443.6928256574217
 21
76.74131429137505
 31
0.0
  0
LINE
  5
130E
330
6B
100
AcDbEntity
  8
0
  6
ByBlock
 62
     0
370
    -2
100
AcDbLine
 10
-444.3626981574217
 20
68.74131429137505
 30
0.0
 11
-443.6928256574217
 21
71.24131429137505
 31
0.0
  0
LINE
  5
130F
330
6B
100
AcDbEntity
  8
0
  6
ByBlock
 62
     0
370
    -2
100
AcDbLine
 10
-443.6928256574217
 20
71.24131429137505
 30
0.0
 11
-443.0229531574217
 21
68.74131429137505
 31
0.0
  0
LINE
  5
1310
330
6B
100
AcDbEntity
  8
0
  6
ByBlock
 62
     0
370
    -2
100
AcDbLine
 10
-443.6928256574217
 20
71.24131429137505
 30
0.0
 11
-443.6928256574217
 21
68.74131429137505
 31
0.0
  0
TEXT
  5
1311
330
6B
100
AcDbEntity
  8
0
 62
     4
100
AcDbText
 10
-398.9304426701213
 20
-32.64718670862502
 30
0.0
 40
3.0
  1
15
 50
90.0
100
AcDbText
  0
LINE
  5
1312
330
6B
100
AcDbEntity
  8
0
  6
ByBlock
 62
     0
370
    -2
100
AcDbLine
 10
-398.9753151701213
 20
-25.52218670862496
 30
0.0
 11
-398.3054426701213
 21
-23.02218670862496
 31
0.0
  0
LINE
  5
1313
330
6B
100
AcDbEntity
  8
0
  6
ByBlock
 62
     0
370
    -2
100
AcDbLine
 10
-398.3054426701213
 20
-23.02218670862496
 30
0.0
 11
-397.6355701701213
 21
-25.52218670862496
 31
0.0
  0
LINE
  5
1314
330
6B
100
AcDbEntity
  8
0
  6
ByBlock
 62
     0
370
    -2
100
AcDbLine
 10
-398.3054426701213
 20
-23.02218670862496
 30
0.0
 11
-398.3054426701213
 21
-25.52218670862496
 31
0.0
  0
LINE
  5
1315
330
6B
100
AcDbEntity
  8
0
  6
ByBlock
 62
     0
370
    -2
100
AcDbLine
 10
-397.6355701701213
 20
-5.432653708624958
 30
0.0
 11
-398.3054426701213
 21
-7.932653708624958
 31
0.0
  0
LINE
  5
1316
330
6B
100
AcDbEntity
  8
0
  6
ByBlock
 62
     0
370
    -2
100
AcDbLine
 10
-398.3054426701213
 20
-7.932653708624958
 30
0.0
 11
-398.9753151701213
 21
-5.432653708624958
 31
0.0
  0
LINE
  5
1317
330
6B
100
AcDbEntity
  8
0
  6
ByBlock
 62
     0
370
    -2
100
AcDbLine
 10
-398.3054426701213
 20
-7.932653708624958
 30
0.0
 11
-398.3054426701213
 21
-5.432653708624958
 31
0.0
  0
TEXT
  5
1318
330
6B
100
AcDbEntity
  8
0
 62
     4
100
AcDbText
 10
-453.8028856574217
 20
9.00120529137504
 30
0.0
 40
3.0
  1
L寸法
100
AcDbText
  0
LINE
  5
1319
330
6B
100
AcDbEntity
  8
0
  6
ByBlock
 62
     0
370
    -2
100
AcDbLine
 10
-328.7120026574218
 20
9.04607779137504
 30
0.0
 11
-326.2120026574218
 21
8.37620529137504
 31
0.0
  0
LINE
  5
131A
330
6B
100
AcDbEntity
  8
0
  6
ByBlock
 62
     0
370
    -2
100
AcDbLine
 10
-326.2120026574218
 20
8.37620529137504
 30
0.0
 11
-328.7120026574218
 21
7.706332791375039
 31
0.0
  0
LINE
  5
131B
330
6B
100
AcDbEntity
  8
0
  6
ByBlock
 62
     0
370
    -2
100
AcDbLine
 10
-326.2120026574218
 20
8.37620529137504
 30
0.0
 11
-328.7120026574218
 21
8.37620529137504
 31
0.0
  0
LINE
  5
131C
330
6B
100
AcDbEntity
  8
0
  6
ByBlock
 62
     0
370
    -2
100
AcDbLine
 10
-569.4937686574217
 20
7.706332791375039
 30
0.0
 11
-571.9937686574216
 21
8.37620529137504
 31
0.0
  0
LINE
  5
131D
330
6B
100
AcDbEntity
  8
0
  6
ByBlock
 62
     0
370
    -2
100
AcDbLine
 10
-571.9937686574216
 20
8.37620529137504
 30
0.0
 11
-569.4937686574217
 21
9.04607779137504
 31
0.0
  0
LINE
  5
131E
330
6B
100
AcDbEntity
  8
0
  6
ByBlock
 62
     0
370
    -2
100
AcDbLine
 10
-571.9937686574216
 20
8.37620529137504
 30
0.0
 11
-569.4937686574217
 21
8.37620529137504
 31
0.0
  0
TEXT
  5
131F
330
6B
100
AcDbEntity
  8
0
 62
     4
100
AcDbText
 10
-318.3625056574218
 20
-17.975005708625
 30
0.0
 40
3.0
  1
24
 50
90.0
100
AcDbText
  0
LINE
  5
1320
330
6B
100
AcDbEntity
  8
0
  6
ByBlock
 62
     0
370
    -2
100
AcDbLine
 10
-318.4073781574218
 20
-5.97500570862496
 30
0.0
 11
-317.7375056574218
 21
-3.47500570862496
 31
0.0
  0
LINE
  5
1321
330
6B
100
AcDbEntity
  8
0
  6
ByBlock
 62
     0
370
    -2
100
AcDbLine
 10
-317.7375056574218
 20
-3.47500570862496
 30
0.0
 11
-317.0676331574218
 21
-5.97500570862496
 31
0.0
  0
LINE
  5
1322
330
6B
100
AcDbEntity
  8
0
  6
ByBlock
 62
     0
370
    -2
100
AcDbLine
 10
-317.7375056574218
 20
-3.47500570862496
 30
0.0
 11
-317.7375056574218
 21
-5.97500570862496
 31
0.0
  0
LINE
  5
1323
330
6B
100
AcDbEntity
  8
0
  6
ByBlock
 62
     0
370
    -2
100
AcDbLine
 10
-317.0676331574218
 20
-24.97500570862495
 30
0.0
 11
-317.7375056574218
 21
-27.47500570862495
 31
0.0
  0
LINE
  5
1324
330
6B
100
AcDbEntity
  8
0
  6
ByBlock
 62
     0
370
    -2
100
AcDbLine
 10
-317.7375056574218
 20
-27.47500570862495
 30
0.0
 11
-318.4073781574218
 21
-24.97500570862495
 31
0.0
  0
LINE
  5
1325
330
6B
100
AcDbEntity
  8
0
  6
ByBlock
 62
     0
370
    -2
100
AcDbLine
 10
-317.7375056574218
 20
-27.47500570862495
 30
0.0
 11
-317.7375056574218
 21
-24.97500570862495
 31
0.0
  0
TEXT
  5
1326
330
6B
100
AcDbEntity
  8
0
 62
     4
100
AcDbText
 10
-316.4080076574218
 20
75.23908329137498
 30
0.0
 40
3.0
  1
10
 50
90.0
100
AcDbText
  0
LINE
  5
1327
330
6B
100
AcDbEntity
  8
0
  6
ByBlock
 62
     0
370
    -2
100
AcDbLine
 10
-316.4528801574218
 20
79.48908329137504
 30
0.0
 11
-315.7830076574218
 21
81.98908329137504
 31
0.0
  0
LINE
  5
1328
330
6B
100
AcDbEntity
  8
0
  6
ByBlock
 62
     0
370
    -2
100
AcDbLine
 10
-315.7830076574218
 20
81.98908329137504
 30
0.0
 11
-315.1131351574218
 21
79.48908329137504
 31
0.0
  0
LINE
  5
1329
330
6B
100
AcDbEntity
  8
0
  6
ByBlock
 62
     0
370
    -2
100
AcDbLine
 10
-315.7830076574218
 20
81.98908329137504
 30
0.0
 11
-315.7830076574218
 21
79.48908329137504
 31
0.0
  0
LINE
  5
132A
330
6B
100
AcDbEntity
  8
0
  6
ByBlock
 62
     0
370
    -2
100
AcDbLine
 10
-315.1131351574218
 20
74.48908329137504
 30
0.0
 11
-315.7830076574218
 21
71.98908329137504
 31
0.0
  0
LINE
  5
132B
330
6B
100
AcDbEntity
  8
0
  6
ByBlock
 62
     0
370
    -2
100
AcDbLine
 10
-315.7830076574218
 20
71.98908329137504
 30
0.0
 11
-316.4528801574218
 21
74.48908329137504
 31
0.0
  0
LINE
  5
132C
330
6B
100
AcDbEntity
  8
0
  6
ByBlock
 62
     0
370
    -2
100
AcDbLine
 10
-315.7830076574218
 20
71.98908329137504
 30
0.0
 11
-315.7830076574218
 21
74.48908329137504
 31
0.0
  0
ENDSEC
  0
SECTION
  2
OBJECTS
  0
DICTIONARY
  5
C
330
0
100
AcDbDictionary
281
     1
  3
ACAD_2007HEADERVARS_RT
350
1330
  3
ACAD_COLOR
350
62
  3
ACAD_GROUP
350
D
  3
ACAD_LAYOUT
350
61
  3
ACAD_MATERIAL
350
10
  3
ACAD_MLEADERSTYLE
350
65
  3
ACAD_MLINESTYLE
350
5E
  3
ACAD_PLOTSETTINGS
350
60
  3
ACAD_PLOTSTYLENAME
350
E
  3
ACAD_SCALELIST
350
42
  3
ACAD_TABLESTYLE
350
63
  3
ACAD_VISUALSTYLE
350
29
  3
ACDB_RECOMPOSE_DATA
350
132E
  3
AcDbVariableDictionary
350
95A
  3
AEC_PROPERTY_SET_DEFS
350
D77
  3
DWGPROPS
350
132F
  0
DICTIONARY
  5
4B2
330
2
100
AcDbDictionary
280
     1
281
     1
  3
ACAD_LAYERSTATES
360
4B3
  0
DICTIONARY
  5
958
330
54
100
AcDbDictionary
280
     1
281
     1
  3
ADSK_XREC_LAYER_RECONCILED
360
959
  0
DICTIONARY
  5
90C
330
6B
100
AcDbDictionary
280
     1
281
     1
  3
ACAD_SORTENTS
360
90D
  0
DICTIONARY
  5
1369
330
A31
100
AcDbDictionary
280
     1
281
     1
  3
ACAD_MTEXT_RT
360
136A
  0
DICTIONARY
  5
136B
330
A83
100
AcDbDictionary
280
     1
281
     1
  3
ACAD_MTEXT_RT
360
136C
  0
DICTIONARY
  5
136D
330
10E3
100
AcDbDictionary
280
     1
281
     1
  3
ACAD_MTEXT_RT
360
136E
  0
DICTIONARY
  5
1330
102
{ACAD_REACTORS
330
C
102
}
330
C
100
AcDbDictionary
281
     1
  3
DIMARCSYM
350
1332
  3
DIMFXL
350
1331
  3
DIMJOGANG
350
1333
  0
DICTIONARY
  5
62
102
{ACAD_REACTORS
330
C
102
}
330
C
100
AcDbDictionary
281
     1
  0
DICTIONARY
  5
D
102
{ACAD_REACTORS
330
C
102
}
330
C
100
AcDbDictionary
281
     1
  0
DICTIONARY
  5
61
102
{ACAD_REACTORS
330
C
102
}
330
C
100
AcDbDictionary
281
     1
  3
Model
350
6E
  3
レイアウト1
350
6A
  0
DICTIONARY
  5
10
102
{ACAD_REACTORS
330
C
102
}
330
C
100
AcDbDictionary
281
     1
  3
ByBlock
350
19
  3
ByLayer
350
11
  3
Global
350
21
  0
DICTIONARY
  5
65
102
{ACAD_REACTORS
330
C
102
}
330
C
100
AcDbDictionary
281
     1
  3
Standard
350
66
  0
DICTIONARY
  5
5E
102
{ACAD_REACTORS
330
C
102
}
330
C
100
AcDbDictionary
281
     1
  3
Standard
350
5F
  0
DICTIONARY
  5
60
102
{ACAD_REACTORS
330
C
102
}
330
C
100
AcDbDictionary
281
     1
  0
ACDBDICTIONARYWDFLT
  5
E
102
{ACAD_REACTORS
330
C
102
}
330
C
100
AcDbDictionary
281
     1
  3
Normal
350
F
100
AcDbDictionaryWithDefault
340
F
  0
DICTIONARY
  5
42
102
{ACAD_REACTORS
330
C
102
}
330
C
100
AcDbDictionary
281
     1
  3
A0
350
43
  3
A1
350
44
  3
A2
350
45
  3
A3
350
46
  3
A4
350
47
  3
A5
350
48
  3
A6
350
49
  3
A7
350
4A
  3
A8
350
4B
  3
A9
350
4C
  3
B0
350
4D
  3
B1
350
4E
  3
B2
350
4F
  3
B3
350
50
  3
B4
350
51
  3
B5
350
52
  3
B6
350
53
  0
DICTIONARY
  5
63
102
{ACAD_REACTORS
330
C
102
}
330
C
100
AcDbDictionary
281
     1
  3
Standard
350
64
  0
DICTIONARY
  5
29
102
{ACAD_REACTORS
330
C
102
}
330
C
100
AcDbDictionary
281
     1
  3
2dWireframe
350
2F
  3
Basic
350
2E
  3
Brighten
350
35
  3
ColorChange
350
39
  3
Conceptual
350
32
  3
Dim
350
34
  3
EdgeColorOff
350
41
  3
Facepattern
350
38
  3
Flat
350
2A
  3
FlatWithEdges
350
2B
  3
Gouraud
350
2C
  3
GouraudWithEdges
350
2D
  3
Hidden
350
31
  3
JitterOff
350
3F
  3
Linepattern
350
37
  3
OverhangOff
350
40
  3
Realistic
350
33
  3
Shaded
350
3E
  3
Shaded with edges
350
3D
  3
Shades of Gray
350
3A
  3
Sketchy
350
3B
  3
Thicken
350
36
  3
Wireframe
350
30
  3
X-Ray
350
3C
  0
XRECORD
  5
132E
102
{ACAD_REACTORS
330
C
102
}
330
C
100
AcDbXrecord
280
     1
 90
        1
330
64
  0
DICTIONARY
  5
95A
102
{ACAD_REACTORS
330
C
102
}
330
C
100
AcDbDictionary
281
     1
  3
CANNOSCALE
350
95D
  3
CMLEADERSTYLE
350
95C
  3
CTABLESTYLE
350
95B
  3
DIMASSOC
350
960
  3
INDEXCTL
350
95F
  3
SORTENTS
350
95E
  3
XCLIPFRAME
350
111C
  0
DICTIONARY
  5
D77
102
{ACAD_REACTORS
330
C
102
}
330
C
100
AcDbDictionary
281
     1
  0
XRECORD
  5
132F
102
{ACAD_REACTORS
330
C
102
}
330
C
100
AcDbXrecord
280
     1
  1
DWGPROPS COOKIE
  2

  3

  4

  6

  7

  8
imamura
  9

300
=
301
=
302
=
303
=
304
=
305
=
306
=
307
=
308
=
309
=
 40
0.0711836458333334
 41
2456321.707640694
 42
2459793.735233901
  1

 90
        0
  0
DICTIONARY
  5
4B3
102
{ACAD_REACTORS
330
4B2
102
}
330
4B2
100
AcDbDictionary
281
     1
  0
XRECORD
  5
959
102
{ACAD_REACTORS
330
958
102
}
330
958
100
AcDbXrecord
280
     1
290
     1
  0
SORTENTSTABLE
  5
90D
102
{ACAD_REACTORS
330
90C
102
}
330
90C
100
AcDbSortentsTable
330
6B
331
672
  5
12B1
331
633
  5
1234
331
1245
  5
1289
331
127C
  5
840
331
515
  5
68E
331
12BB
  5
51F
331
8CF
  5
5AB
331
878
  5
4F6
331
1241
  5
1285
331
1278
  5
850
331
511
  5
68A
331
905
  5
5E0
331
8CB
  5
589
331
50D
  5
686
331
901
  5
5DC
331
8C7
  5
585
331
509
  5
682
331
8FD
  5
5D8
331
8C3
  5
583
331
8F9
  5
5D4
331
5F4
  5
104B
331
5B5
  5
88F
331
57E
  5
857
331
53F
  5
7F0
331
5F0
  5
1047
331
5B1
  5
88B
331
57A
  5
853
331
110C
  5
131E
331
53B
  5
7EC
331
12EF
  5
556
331
5EC
  5
1043
331
5AD
  5
887
331
576
  5
83D
331
1108
  5
131A
331
537
  5
7E8
331
132A
  5
5ED
331
12EB
  5
551
331
5E8
  5
103F
331
5A9
  5
883
331
572
  5
839
331
1104
  5
1316
331
533
  5
7E4
331
1326
  5
5F9
331
12E7
  5
54D
331
1100
  5
1312
331
1322
  5
605
331
12E3
  5
549
331
6A9
  5
12E8
331
908
  5
5E3
331
6A5
  5
12E4
331
62F
  5
122F
331
12B7
  5
51B
331
874
  5
4F2
331
6A1
  5
12E0
331
66A
  5
126B
331
123D
  5
1281
331
1274
  5
84C
331
870
  5
4EE
331
69D
  5
12DC
331
666
  5
1267
331
1239
  5
127D
331
1270
  5
848
331
86C
  5
4EA
331
699
  5
12D8
331
662
  5
1263
331
1235
  5
1279
331
126C
  5
122B
331
12AB
  5
5FB
331
505
  5
67E
331
8BF
  5
57F
331
868
  5
4E6
331
1268
  5
12AC
331
1231
  5
1275
331
501
  5
67A
331
8F5
  5
5D0
331
8BB
  5
57B
331
4FD
  5
676
331
8F1
  5
5CC
331
8B7
  5
577
331
4F9
  5
672
331
8ED
  5
5C8
331
8B3
  5
573
331
8E9
  5
5C4
331
5E4
  5
103B
331
5A5
  5
87F
331
56E
  5
834
331
52F
  5
6A8
331
5E0
  5
1037
331
5A1
  5
87B
331
56A
  5
81C
331
10FC
  5
130E
331
52B
  5
6A4
331
131E
  5
615
331
12DF
  5
545
331
5DC
  5
1033
331
59D
  5
877
331
566
  5
817
331
10F8
  5
130A
331
527
  5
6A0
331
131A
  5
61A
331
12DB
  5
53F
331
5D8
  5
102F
331
599
  5
872
331
562
  5
813
331
523
  5
69C
331
1316
  5
623
331
12D7
  5
53B
331
1312
  5
625
331
12D3
  5
537
331
104A
  5
1306
331
1046
  5
1302
331
1042
  5
12FE
331
695
  5
12D4
331
65E
  5
125F
331
864
  5
4E2
331
691
  5
12D0
331
1264
  5
12A8
331
65A
  5
125B
331
122D
  5
1271
331
860
  5
4DE
331
68D
  5
12CC
331
656
  5
1257
331
617
  5
1119
331
1260
  5
12A4
331
129F
  5
620
331
85C
  5
4DA
331
689
  5
12C8
331
652
  5
1253
331
125C
  5
12A0
331
613
  5
1114
331
4F5
  5
66E
331
8AF
  5
56F
331
858
  5
4D6
331
1258
  5
129C
331
4F1
  5
66A
331
8E5
  5
5C0
331
8AB
  5
56B
331
4ED
  5
666
331
8E1
  5
5BC
331
8A7
  5
567
331
4E9
  5
662
331
8DD
  5
5B8
331
8A3
  5
563
331
8D9
  5
5B4
331
5D4
  5
8AE
331
55E
  5
80F
331
60F
  5
1110
331
5D0
  5
8AA
331
55A
  5
80B
331
130E
  5
62E
331
60B
  5
110C
331
5CC
  5
8A6
331
595
  5
86E
331
556
  5
807
331
130A
  5
634
331
5C8
  5
8A2
331
591
  5
86A
331
552
  5
803
331
1306
  5
63D
331
103E
  5
12FA
331
1302
  5
642
331
103A
  5
12F6
331
1036
  5
12F2
331
1032
  5
12EE
331
64E
  5
124F
331
1297
  5
62C
331
854
  5
4D2
331
64A
  5
124B
331
850
  5
4CE
331
88F
  5
50D
331
685
  5
12C4
331
646
  5
1247
331
128F
  5
636
331
12CE
  5
532
331
84C
  5
4CA
331
88B
  5
509
331
681
  5
12C0
331
642
  5
1243
331
1254
  5
1298
331
4E5
  5
65E
331
12CA
  5
52E
331
89F
  5
55F
331
848
  5
4C6
331
1250
  5
1294
331
4E1
  5
65A
331
51C
  5
695
331
4DD
  5
656
331
8D6
  5
5B2
331
897
  5
515
331
518
  5
691
331
8D2
  5
5AE
331
893
  5
511
331
607
  5
1108
331
603
  5
1104
331
5C4
  5
89E
331
58D
  5
866
331
54E
  5
7FF
331
5FF
  5
1100
331
5C0
  5
89A
331
589
  5
862
331
111B
  5
132C
331
54A
  5
7FB
331
12FE
  5
644
331
5FB
  5
10FC
331
5BC
  5
896
331
585
  5
85E
331
1117
  5
1329
331
546
  5
7F7
331
12FA
  5
64D
331
5B8
  5
892
331
581
  5
85A
331
1113
  5
1325
331
542
  5
7F3
331
12F6
  5
64F
331
12F2
  5
559
331
887
  5
505
331
883
  5
501
331
67D
  5
12BC
331
63E
  5
123F
331
12C6
  5
52A
331
844
  5
4C2
331
679
  5
12B8
331
63A
  5
123B
331
124C
  5
1290
331
1283
  5
847
331
12C2
  5
526
331
87F
  5
4FD
331
675
  5
12B4
331
636
  5
1237
331
1248
  5
128C
331
127F
  5
843
331
12BE
  5
522
331
87B
  5
4F9
331
671
  5
12B0
331
632
  5
1233
331
1244
  5
1288
331
127B
  5
83F
331
514
  5
68D
331
12BA
  5
51E
331
8CE
  5
5AA
331
1240
  5
1284
331
510
  5
689
331
904
  5
5DF
331
8CA
  5
588
331
50C
  5
685
331
900
  5
5DB
331
508
  5
681
331
8FC
  5
5D7
331
8C2
  5
582
331
8F8
  5
5D3
331
5F7
  5
10F8
331
5F3
  5
104A
331
5B4
  5
88E
331
57D
  5
856
331
110F
  5
1321
331
53E
  5
7EF
331
5EF
  5
1046
331
5B0
  5
88A
331
579
  5
852
331
110B
  5
131D
331
53A
  5
7EB
331
12EE
  5
554
331
5EB
  5
1042
331
5AC
  5
886
331
575
  5
83C
331
1107
  5
1319
331
536
  5
7E7
331
1329
  5
5F5
331
12EA
  5
550
331
5A8
  5
882
331
571
  5
838
331
1103
  5
1315
331
532
  5
6AB
331
1325
  5
602
331
12E6
  5
54C
331
1321
  5
604
331
12E2
  5
548
331
6A8
  5
12E7
331
90B
  5
5E6
331
877
  5
4F5
331
6A4
  5
12E3
331
66D
  5
126E
331
62E
  5
122E
331
1277
  5
84F
331
12B6
  5
51A
331
873
  5
4F1
331
6A0
  5
12DF
331
669
  5
126A
331
123C
  5
1280
331
1273
  5
84B
331
12B2
  5
5E9
331
86F
  5
4ED
331
69C
  5
12DB
331
665
  5
1266
331
1238
  5
127C
331
126F
  5
1117
331
86B
  5
4E9
331
698
  5
12D7
331
661
  5
1262
331
1234
  5
1278
331
126B
  5
1231
331
12AA
  5
5FA
331
504
  5
67D
331
8BE
  5
57E
331
1230
  5
1274
331
500
  5
679
331
8F4
  5
5CF
331
8BA
  5
57A
331
4FC
  5
675
331
8F0
  5
5CB
331
8B6
  5
576
331
4F8
  5
671
331
8EC
  5
5C7
331
8B2
  5
572
331
8E8
  5
5C3
331
5E7
  5
103E
331
5E3
  5
103A
331
5A4
  5
87E
331
56D
  5
833
331
10FF
  5
1311
331
52E
  5
6A7
331
5DF
  5
1036
331
5A0
  5
87A
331
569
  5
81A
331
10FB
  5
130D
331
52A
  5
6A3
331
131D
  5
614
331
12DE
  5
542
331
5DB
  5
1032
331
59C
  5
876
331
565
  5
816
331
526
  5
69F
331
1319
  5
619
331
12DA
  5
53E
331
598
  5
871
331
561
  5
812
331
522
  5
69B
331
1315
  5
622
331
12D6
  5
53A
331
1311
  5
628
331
104D
  5
1309
331
12D2
  5
536
331
1049
  5
1305
331
1045
  5
1301
331
1041
  5
12FD
331
867
  5
4E5
331
694
  5
12D3
331
65D
  5
125E
331
1267
  5
12AB
331
12A6
  5
60F
331
863
  5
4E1
331
690
  5
12CF
331
1263
  5
12A7
331
659
  5
125A
331
122C
  5
1270
331
85F
  5
4DD
331
68C
  5
12CB
331
655
  5
1256
331
616
  5
1118
331
125F
  5
12A3
331
129E
  5
61F
331
85B
  5
4D9
331
688
  5
12C7
331
651
  5
1252
331
125B
  5
129F
331
612
  5
1113
331
4F4
  5
66D
331
8AE
  5
56E
331
4F0
  5
669
331
8E4
  5
5BF
331
8AA
  5
56A
331
4EC
  5
665
331
8E0
  5
5BB
331
8A6
  5
566
331
4E8
  5
661
331
8DC
  5
5B7
331
8A2
  5
562
331
8D8
  5
5B3
331
5D7
  5
8B1
331
5D3
  5
8AD
331
55D
  5
80E
331
60E
  5
110F
331
5CF
  5
8A9
331
559
  5
80A
331
130D
  5
633
331
60A
  5
110B
331
5CB
  5
8A5
331
594
  5
86D
331
555
  5
806
331
1309
  5
63A
331
590
  5
869
331
551
  5
802
331
1305
  5
63C
331
103D
  5
12F9
331
1301
  5
641
331
1039
  5
12F5
331
1035
  5
12F1
331
1031
  5
12ED
331
857
  5
4D5
331
64D
  5
124E
331
1296
  5
62B
331
853
  5
4D1
331
649
  5
124A
331
84F
  5
4CD
331
88E
  5
50C
331
684
  5
12C3
331
645
  5
1246
331
1257
  5
129B
331
128E
  5
635
331
12CD
  5
531
331
84B
  5
4C9
331
88A
  5
508
331
680
  5
12BF
331
641
  5
1242
331
1253
  5
1297
331
128A
  5
63F
331
4E4
  5
65D
331
12C9
  5
52D
331
89E
  5
55E
331
51F
  5
698
331
4E0
  5
659
331
89A
  5
518
331
51B
  5
694
331
4DC
  5
655
331
8D5
  5
5B1
331
896
  5
514
331
8D1
  5
5AD
331
892
  5
510
331
606
  5
1107
331
5C7
  5
8A1
331
602
  5
1103
331
5C3
  5
89D
331
58C
  5
865
331
54D
  5
7FE
331
5FE
  5
10FF
331
5BF
  5
899
331
588
  5
861
331
549
  5
7FA
331
12FD
  5
643
331
5FA
  5
10FB
331
5BB
  5
895
331
584
  5
85D
331
1116
  5
1328
331
545
  5
7F6
331
12F9
  5
64C
331
580
  5
859
331
1112
  5
1324
331
541
  5
7F2
331
12F5
  5
652
331
12F1
  5
558
331
847
  5
4C5
331
886
  5
504
331
882
  5
500
331
67C
  5
12BB
331
63D
  5
123E
331
124F
  5
1293
331
1286
  5
64B
331
12C5
  5
529
331
843
  5
4C1
331
678
  5
12B7
331
639
  5
123A
331
124B
  5
128F
331
1282
  5
846
331
12C1
  5
525
331
83F
  5
4BD
331
87E
  5
4FC
331
674
  5
12B3
331
635
  5
1236
331
1247
  5
128B
331
127E
  5
842
331
517
  5
690
331
12BD
  5
521
331
87A
  5
4F8
331
670
  5
12AF
331
631
  5
1232
331
1243
  5
1287
331
127A
  5
83E
331
513
  5
68C
331
12B9
  5
51D
331
907
  5
5E2
331
8CD
  5
5A9
331
50F
  5
688
331
903
  5
5DE
331
8C9
  5
587
331
50B
  5
684
331
8FF
  5
5DA
331
8FB
  5
5D6
331
8C1
  5
581
331
5F6
  5
104D
331
5B7
  5
891
331
5F2
  5
1049
331
5B3
  5
88D
331
57C
  5
855
331
110E
  5
1320
331
53D
  5
7EE
331
5EE
  5
1045
331
5AF
  5
889
331
110A
  5
131C
331
539
  5
7EA
331
132C
  5
5EF
331
12ED
  5
553
331
5EA
  5
1041
331
5AB
  5
885
331
574
  5
83B
331
1106
  5
1318
331
535
  5
7E6
331
1328
  5
5F4
331
12E9
  5
54F
331
570
  5
837
331
1102
  5
1314
331
531
  5
6AA
331
1324
  5
601
331
12E5
  5
54B
331
1320
  5
603
331
12E1
  5
547
331
6AB
  5
12EA
331
90A
  5
5E5
331
6A7
  5
12E6
331
876
  5
4F4
331
6A3
  5
12E2
331
66C
  5
126D
331
62D
  5
122D
331
123F
  5
1283
331
1276
  5
84E
331
872
  5
4F0
331
69F
  5
12DE
331
668
  5
1269
331
123B
  5
127F
331
1272
  5
84A
331
12B1
  5
5E8
331
86E
  5
4EC
331
69B
  5
12DA
331
664
  5
1265
331
1237
  5
127B
331
126E
  5
1116
331
507
  5
680
331
86A
  5
4E8
331
660
  5
1261
331
1233
  5
1277
331
126A
  5
1230
331
503
  5
67C
331
8F7
  5
5D2
331
8BD
  5
57D
331
4FF
  5
678
331
8F3
  5
5CE
331
8B9
  5
579
331
4FB
  5
674
331
8EF
  5
5CA
331
8B5
  5
575
331
8EB
  5
5C6
331
8B1
  5
571
331
5E6
  5
103D
331
5A7
  5
881
331
5E2
  5
1039
331
5A3
  5
87D
331
56C
  5
81E
331
10FE
  5
1310
331
52D
  5
6A6
331
5DE
  5
1035
331
59F
  5
879
331
568
  5
819
331
10FA
  5
130C
331
529
  5
6A2
331
131C
  5
613
331
12DD
  5
541
331
5DA
  5
1031
331
59B
  5
875
331
564
  5
815
331
525
  5
69E
331
1318
  5
61C
331
12D9
  5
53D
331
560
  5
811
331
521
  5
69A
331
1314
  5
627
331
12D5
  5
539
331
1310
  5
630
331
104C
  5
1308
331
12D1
  5
535
331
1048
  5
1304
331
1044
  5
1300
331
1040
  5
12FC
331
697
  5
12D6
331
866
  5
4E4
331
693
  5
12D2
331
65C
  5
125D
331
1266
  5
12AA
331
12A5
  5
60B
331
122F
  5
1273
331
862
  5
4E0
331
68F
  5
12CE
331
1262
  5
12A6
331
658
  5
1259
331
122B
  5
126F
331
85E
  5
4DC
331
68B
  5
12CA
331
654
  5
1255
331
125E
  5
12A2
331
129D
  5
61E
331
4F7
  5
670
331
85A
  5
4D8
331
650
  5
1251
331
125A
  5
129E
331
611
  5
1112
331
4F3
  5
66C
331
8E7
  5
5C2
331
8AD
  5
56D
331
4EF
  5
668
331
8E3
  5
5BE
331
8A9
  5
569
331
4EB
  5
664
331
8DF
  5
5BA
331
8A5
  5
565
331
8DB
  5
5B6
331
8A1
  5
561
331
5D6
  5
8B0
331
5D2
  5
8AC
331
55C
  5
80D
331
60D
  5
110E
331
5CE
  5
8A8
331
597
  5
870
331
558
  5
809
331
130C
  5
632
331
609
  5
110A
331
5CA
  5
8A4
331
593
  5
86C
331
554
  5
805
331
1308
  5
639
331
550
  5
801
331
1304
  5
63B
331
103C
  5
12F8
331
1300
  5
640
331
1038
  5
12F4
331
1034
  5
12F0
331
1030
  5
12EC
331
856
  5
4D4
331
64C
  5
124D
331
1295
  5
62A
331
852
  5
4D0
331
687
  5
12C6
331
648
  5
1249
331
84E
  5
4CC
331
88D
  5
50B
331
683
  5
12C2
331
644
  5
1245
331
1256
  5
129A
331
4E7
  5
660
331
12CC
  5
530
331
84A
  5
4C8
331
889
  5
507
331
640
  5
1241
331
1252
  5
1296
331
4E3
  5
65C
331
12C8
  5
52C
331
89D
  5
55D
331
51E
  5
697
331
4DF
  5
658
331
899
  5
517
331
51A
  5
693
331
4DB
  5
654
331
8D4
  5
5B0
331
895
  5
513
331
8D0
  5
5AC
331
891
  5
50F
331
605
  5
1106
331
5C6
  5
8A0
331
58F
  5
868
331
601
  5
1102
331
5C2
  5
89C
331
58B
  5
864
331
54C
  5
7FD
331
5FD
  5
10FE
331
5BE
  5
898
331
587
  5
860
331
1119
  5
132B
331
548
  5
7F9
331
12FC
  5
648
331
5F9
  5
10FA
331
5BA
  5
894
331
583
  5
85C
331
1115
  5
1327
331
544
  5
7F5
331
12F8
  5
651
331
1111
  5
1323
331
540
  5
7F1
331
12F4
  5
55B
331
12F0
  5
557
331
67F
  5
12BE
331
846
  5
4C4
331
885
  5
503
331
881
  5
4FF
331
67B
  5
12BA
331
63C
  5
123D
331
124E
  5
1292
331
1285
  5
64A
331
12C4
  5
528
331
842
  5
4C0
331
677
  5
12B6
331
638
  5
1239
331
124A
  5
128E
331
1281
  5
845
331
12C0
  5
524
331
83E
  5
4BC
331
87D
  5
4FB
331
673
  5
12B2
331
634
  5
1235
331
1246
  5
128A
331
127D
  5
841
331
516
  5
68F
331
12BC
  5
520
331
879
  5
4F7
331
1242
  5
1286
331
1279
  5
851
331
512
  5
68B
331
12B8
  5
51C
331
906
  5
5E1
331
8CC
  5
5A8
331
50E
  5
687
331
902
  5
5DD
331
8C8
  5
586
331
50A
  5
683
331
8FE
  5
5D9
331
8C4
  5
584
331
8FA
  5
5D5
331
8C0
  5
580
331
5F5
  5
104C
331
5B6
  5
890
331
57F
  5
858
331
5F1
  5
1048
331
5B2
  5
88C
331
57B
  5
854
331
110D
  5
131F
331
53C
  5
7ED
331
5ED
  5
1044
331
5AE
  5
888
331
1109
  5
131B
331
538
  5
7E9
331
132B
  5
5EE
331
12EC
  5
552
331
5E9
  5
1040
331
5AA
  5
884
331
573
  5
83A
331
1105
  5
1317
331
534
  5
7E5
331
1327
  5
5F3
331
12E8
  5
54E
331
1101
  5
1313
331
530
  5
6A9
331
1323
  5
5FD
331
12E4
  5
54A
331
12E0
  5
546
331
6AA
  5
12E9
331
909
  5
5E4
331
6A6
  5
12E5
331
66F
  5
12AE
331
875
  5
4F3
331
6A2
  5
12E1
331
66B
  5
126C
331
123E
  5
1282
331
1275
  5
84D
331
871
  5
4EF
331
69E
  5
12DD
331
667
  5
1268
331
123A
  5
127E
331
1271
  5
849
331
12B0
  5
5E7
331
86D
  5
4EB
331
69A
  5
12D9
331
663
  5
1264
331
1236
  5
127A
331
126D
  5
122C
331
12AC
  5
5FC
331
506
  5
67F
331
869
  5
4E7
331
1269
  5
12AD
331
1232
  5
1276
331
502
  5
67B
331
8F6
  5
5D1
331
8BC
  5
57C
331
4FE
  5
677
331
8F2
  5
5CD
331
8B8
  5
578
331
4FA
  5
673
331
8EE
  5
5C9
331
8B4
  5
574
331
8EA
  5
5C5
331
8B0
  5
570
331
5E5
  5
103C
331
5A6
  5
880
331
56F
  5
835
331
5E1
  5
1038
331
5A2
  5
87C
331
56B
  5
81D
331
10FD
  5
130F
331
52C
  5
6A5
331
131F
  5
609
331
5DD
  5
1034
331
59E
  5
878
331
567
  5
818
331
10F9
  5
130B
331
528
  5
6A1
331
131B
  5
61B
331
12DC
  5
540
331
5D9
  5
1030
331
59A
  5
873
331
563
  5
814
331
524
  5
69D
331
1317
  5
624
331
12D8
  5
53C
331
520
  5
699
331
1313
  5
626
331
12D4
  5
538
331
104B
  5
1307
331
12D0
  5
534
331
1047
  5
1303
331
1043
  5
12FF
331
696
  5
12D5
331
65F
  5
1260
331
865
  5
4E3
331
692
  5
12D1
331
65B
  5
125C
331
1265
  5
12A9
331
12A4
  5
60A
331
122E
  5
1272
331
861
  5
4DF
331
68E
  5
12CD
331
657
  5
1258
331
618
  5
111B
331
1261
  5
12A5
331
12A0
  5
621
331
85D
  5
4DB
331
68A
  5
12C9
331
653
  5
1254
331
614
  5
1115
331
125D
  5
12A1
331
129C
  5
61D
331
4F6
  5
66F
331
859
  5
4D7
331
610
  5
1111
331
1259
  5
129D
331
1298
  5
62D
331
4F2
  5
66B
331
8E6
  5
5C1
331
8AC
  5
56C
331
4EE
  5
667
331
8E2
  5
5BD
331
8A8
  5
568
331
4EA
  5
663
331
8DE
  5
5B9
331
8A4
  5
564
331
8DA
  5
5B5
331
8A0
  5
560
331
5D5
  5
8AF
331
55F
  5
810
331
5D1
  5
8AB
331
55B
  5
80C
331
130F
  5
62F
331
60C
  5
110D
331
5CD
  5
8A7
331
596
  5
86F
331
557
  5
808
331
130B
  5
631
331
608
  5
1109
331
5C9
  5
8A3
331
592
  5
86B
331
553
  5
804
331
1307
  5
638
331
103F
  5
12FB
331
1303
  5
63E
331
103B
  5
12F7
331
1037
  5
12F3
331
1033
  5
12EF
331
64F
  5
1250
331
855
  5
4D3
331
64B
  5
124C
331
1294
  5
629
331
851
  5
4CF
331
686
  5
12C5
331
647
  5
1248
331
1290
  5
637
331
12CF
  5
533
331
84D
  5
4CB
331
88C
  5
50A
331
682
  5
12C1
331
643
  5
1244
331
1255
  5
1299
331
4E6
  5
65F
331
12CB
  5
52F
331
849
  5
4C7
331
888
  5
506
331
1251
  5
1295
331
4E2
  5
65B
331
89C
  5
55C
331
51D
  5
696
331
4DE
  5
657
331
898
  5
516
331
519
  5
692
331
4DA
  5
653
331
8D3
  5
5AF
331
894
  5
512
331
890
  5
50E
331
604
  5
1105
331
5C5
  5
89F
331
58E
  5
867
331
54F
  5
800
331
600
  5
1101
331
5C1
  5
89B
331
58A
  5
863
331
54B
  5
7FC
331
12FF
  5
647
331
5FC
  5
10FD
331
5BD
  5
897
331
586
  5
85F
331
1118
  5
132A
331
547
  5
7F8
331
12FB
  5
64E
331
5F8
  5
10F9
331
5B9
  5
893
331
582
  5
85B
331
1114
  5
1326
331
543
  5
7F4
331
12F7
  5
650
331
1110
  5
1322
331
102F
  5
12EB
331
12F3
  5
55A
331
884
  5
502
331
67E
  5
12BD
331
63F
  5
1240
331
12C7
  5
52B
331
845
  5
4C3
331
880
  5
4FE
331
67A
  5
12B9
331
63B
  5
123C
331
124D
  5
1291
331
1284
  5
649
331
12C3
  5
527
331
841
  5
4BF
331
676
  5
12B5
331
637
  5
1238
331
1249
  5
128D
331
1280
  5
844
331
12BF
  5
523
331
87C
  5
4FA
  0
XRECORD
  5
136A
102
{ACAD_REACTORS
330
1369
102
}
330
1369
100
AcDbXrecord
280
     1
 40
2356.0
  1
\U+220550
  0
XRECORD
  5
136C
102
{ACAD_REACTORS
330
136B
102
}
330
136B
100
AcDbXrecord
280
     1
 40
2356.0
  1
\U+220550
  0
XRECORD
  5
136E
102
{ACAD_REACTORS
330
136D
102
}
330
136D
100
AcDbXrecord
280
     1
 40
2356.0
  1
\U+220550
  0
XRECORD
  5
1332
102
{ACAD_REACTORS
330
1330
102
}
330
1330
100
AcDbXrecord
280
     1
 70
     2
  0
XRECORD
  5
1331
102
{ACAD_REACTORS
330
1330
102
}
330
1330
100
AcDbXrecord
280
     1
 40
1.25
  0
XRECORD
  5
1333
102
{ACAD_REACTORS
330
1330
102
}
330
1330
100
AcDbXrecord
280
     1
 40
1.570796326794896
  0
LAYOUT
  5
6E
102
{ACAD_XDICTIONARY
360
1367
102
}
102
{ACAD_REACTORS
330
61
102
}
330
61
100
AcDbPlotSettings
  1

  2
FX DP 205
  4

  6

 40
0.0
 41
0.0
 42
0.0
 43
0.0
 44
0.0
 45
0.0
 46
0.0
 47
0.0
 48
0.0
 49
0.0
140
0.0
141
0.0
142
1.0
143
1.0
 70
  1712
 72
     0
 73
     0
 74
     0
  7

 75
     0
147
1.0
148
0.0
149
0.0
100
AcDbLayout
  1
Model
 70
     1
 71
     0
 10
0.0
 20
0.0
 11
12.0
 21
9.0
 12
0.0
 22
0.0
 32
0.0
 14
0.0
 24
0.0
 34
0.0
 15
0.0
 25
0.0
 35
0.0
146
0.0
 13
0.0
 23
0.0
 33
0.0
 16
1.0
 26
0.0
 36
0.0
 17
0.0
 27
1.0
 37
0.0
 76
     0
330
6B
331
8C
  0
LAYOUT
  5
6A
102
{ACAD_XDICTIONARY
360
1365
102
}
102
{ACAD_REACTORS
330
61
102
}
330
61
100
AcDbPlotSettings
  1

  2
FX DP 205
  4

  6

 40
0.0
 41
0.0
 42
0.0
 43
0.0
 44
0.0
 45
0.0
 46
0.0
 47
0.0
 48
0.0
 49
0.0
140
0.0
141
0.0
142
1.0
143
1.0
 70
   688
 72
     0
 73
     0
 74
     5
  7

 75
    16
147
1.0
148
0.0
149
0.0
100
AcDbLayout
  1
レイアウト1
 70
     1
 71
     1
 10
0.0
 20
0.0
 11
12.0
 21
9.0
 12
0.0
 22
0.0
 32
0.0
 14
1.000000000000000E+20
 24
1.000000000000000E+20
 34
1.000000000000000E+20
 15
-1.000000000000000E+20
 25
-1.000000000000000E+20
 35
-1.000000000000000E+20
146
0.0
 13
0.0
 23
0.0
 33
0.0
 16
1.0
 26
0.0
 36
0.0
 17
0.0
 27
1.0
 37
0.0
 76
     0
330
67
  0
MATERIAL
  5
19
102
{ACAD_XDICTIONARY
360
1A
102
}
102
{ACAD_REACTORS
330
10
102
}
330
10
100
AcDbMaterial
  1
ByBlock
 72
     0
 43
0.0208333333333333
 43
0.0
 43
0.0
 43
0.0
 43
0.0
 43
0.0208333333333333
 43
0.0
 43
0.0
 43
0.0
 43
0.0
 43
1.0
 43
0.0
 43
0.0
 43
0.0
 43
0.0
 43
1.0
 77
     0
 47
0.0208333333333333
 47
0.0
 47
0.0
 47
0.0
 47
0.0
 47
0.0208333333333333
 47
0.0
 47
0.0
 47
0.0
 47
0.0
 47
1.0
 47
0.0
 47
0.0
 47
0.0
 47
0.0
 47
1.0
171
     0
 49
0.0208333333333333
 49
0.0
 49
0.0
 49
0.0
 49
0.0
 49
0.0208333333333333
 49
0.0
 49
0.0
 49
0.0
 49
0.0
 49
1.0
 49
0.0
 49
0.0
 49
0.0
 49
0.0
 49
1.0
175
     0
142
0.0208333333333333
142
0.0
142
0.0
142
0.0
142
0.0
142
0.0208333333333333
142
0.0
142
0.0
142
0.0
142
0.0
142
1.0
142
0.0
142
0.0
142
0.0
142
0.0
142
1.0
179
     0
144
0.0208333333333333
144
0.0
144
0.0
144
0.0
144
0.0
144
0.0208333333333333
144
0.0
144
0.0
144
0.0
144
0.0
144
1.0
144
0.0
144
0.0
144
0.0
144
0.0
144
1.0
147
0.0208333333333333
147
0.0
147
0.0
147
0.0
147
0.0
147
0.0208333333333333
147
0.0
147
0.0
147
0.0
147
0.0
147
1.0
147
0.0
147
0.0
147
0.0
147
0.0
147
1.0
  0
MATERIAL
  5
11
102
{ACAD_XDICTIONARY
360
12
102
}
102
{ACAD_REACTORS
330
10
102
}
330
10
100
AcDbMaterial
  1
ByLayer
 72
     0
 43
0.0208333333333333
 43
0.0
 43
0.0
 43
0.0
 43
0.0
 43
0.0208333333333333
 43
0.0
 43
0.0
 43
0.0
 43
0.0
 43
1.0
 43
0.0
 43
0.0
 43
0.0
 43
0.0
 43
1.0
 77
     0
 47
0.0208333333333333
 47
0.0
 47
0.0
 47
0.0
 47
0.0
 47
0.0208333333333333
 47
0.0
 47
0.0
 47
0.0
 47
0.0
 47
1.0
 47
0.0
 47
0.0
 47
0.0
 47
0.0
 47
1.0
171
     0
 49
0.0208333333333333
 49
0.0
 49
0.0
 49
0.0
 49
0.0
 49
0.0208333333333333
 49
0.0
 49
0.0
 49
0.0
 49
0.0
 49
1.0
 49
0.0
 49
0.0
 49
0.0
 49
0.0
 49
1.0
175
     0
142
0.0208333333333333
142
0.0
142
0.0
142
0.0
142
0.0
142
0.0208333333333333
142
0.0
142
0.0
142
0.0
142
0.0
142
1.0
142
0.0
142
0.0
142
0.0
142
0.0
142
1.0
179
     0
144
0.0208333333333333
144
0.0
144
0.0
144
0.0
144
0.0
144
0.0208333333333333
144
0.0
144
0.0
144
0.0
144
0.0
144
1.0
144
0.0
144
0.0
144
0.0
144
0.0
144
1.0
147
0.0208333333333333
147
0.0
147
0.0
147
0.0
147
0.0
147
0.0208333333333333
147
0.0
147
0.0
147
0.0
147
0.0
147
1.0
147
0.0
147
0.0
147
0.0
147
0.0
147
1.0
  0
MATERIAL
  5
21
102
{ACAD_XDICTIONARY
360
22
102
}
102
{ACAD_REACTORS
330
10
102
}
330
10
100
AcDbMaterial
  1
Global
 72
     0
 43
0.0208333333333333
 43
0.0
 43
0.0
 43
0.0
 43
0.0
 43
0.0208333333333333
 43
0.0
 43
0.0
 43
0.0
 43
0.0
 43
1.0
 43
0.0
 43
0.0
 43
0.0
 43
0.0
 43
1.0
 77
     0
 47
0.0208333333333333
 47
0.0
 47
0.0
 47
0.0
 47
0.0
 47
0.0208333333333333
 47
0.0
 47
0.0
 47
0.0
 47
0.0
 47
1.0
 47
0.0
 47
0.0
 47
0.0
 47
0.0
 47
1.0
171
     0
 49
0.0208333333333333
 49
0.0
 49
0.0
 49
0.0
 49
0.0
 49
0.0208333333333333
 49
0.0
 49
0.0
 49
0.0
 49
0.0
 49
1.0
 49
0.0
 49
0.0
 49
0.0
 49
0.0
 49
1.0
175
     0
142
0.0208333333333333
142
0.0
142
0.0
142
0.0
142
0.0
142
0.0208333333333333
142
0.0
142
0.0
142
0.0
142
0.0
142
1.0
142
0.0
142
0.0
142
0.0
142
0.0
142
1.0
179
     0
144
0.0208333333333333
144
0.0
144
0.0
144
0.0
144
0.0
144
0.0208333333333333
144
0.0
144
0.0
144
0.0
144
0.0
144
1.0
144
0.0
144
0.0
144
0.0
144
0.0
144
1.0
147
0.0208333333333333
147
0.0
147
0.0
147
0.0
147
0.0
147
0.0208333333333333
147
0.0
147
0.0
147
0.0
147
0.0
147
1.0
147
0.0
147
0.0
147
0.0
147
0.0
147
1.0
  0
MLEADERSTYLE
  5
66
102
{ACAD_REACTORS
330
65
102
}
330
65
100
AcDbMLeaderStyle
170
     2
171
     1
172
     0
 90
        2
 40
0.0
 41
0.0
173
     1
 91
-1056964608
340
5A
 92
       -2
290
     1
 42
0.09
291
     1
 43
0.36
  3
Standard
 44
0.18
300

342
55
174
     1
178
     6
175
     1
176
     0
 93
-1056964608
 45
0.18
292
     0
297
     0
 46
0.18
 94
-1056964608
 47
1.0
 49
1.0
140
1.0
293
     1
141
0.0
294
     1
177
     0
142
1.0
295
     0
296
     0
143
0.125
1001
ACAD_MLEADERVER
1070
     2
  0
MLINESTYLE
  5
5F
102
{ACAD_REACTORS
330
5E
102
}
330
5E
100
AcDbMlineStyle
  2
STANDARD
 70
     0
  3

 62
   256
 51
90.0
 52
90.0
 71
     2
 49
0.5
 62
   256
  6
BYLAYER
 49
-0.5
 62
   256
  6
BYLAYER
  0
ACDBPLACEHOLDER
  5
F
102
{ACAD_REACTORS
330
E
102
}
330
E
  0
SCALE
  5
43
102
{ACAD_REACTORS
330
42
102
}
330
42
100
AcDbScale
 70
     0
300
1:1
140
1.0
141
1.0
290
     1
  0
SCALE
  5
44
102
{ACAD_REACTORS
330
42
102
}
330
42
100
AcDbScale
 70
     0
300
1/128" = 1'-0"
140
0.0078125
141
12.0
290
     0
  0
SCALE
  5
45
102
{ACAD_REACTORS
330
42
102
}
330
42
100
AcDbScale
 70
     0
300
1/64" = 1'-0"
140
0.015625
141
12.0
290
     0
  0
SCALE
  5
46
102
{ACAD_REACTORS
330
42
102
}
330
42
100
AcDbScale
 70
     0
300
1/32" = 1'-0"
140
0.03125
141
12.0
290
     0
  0
SCALE
  5
47
102
{ACAD_REACTORS
330
42
102
}
330
42
100
AcDbScale
 70
     0
300
1/16" = 1'-0"
140
0.0625
141
12.0
290
     0
  0
SCALE
  5
48
102
{ACAD_REACTORS
330
42
102
}
330
42
100
AcDbScale
 70
     0
300
3/32" = 1'-0"
140
0.09375
141
12.0
290
     0
  0
SCALE
  5
49
102
{ACAD_REACTORS
330
42
102
}
330
42
100
AcDbScale
 70
     0
300
1/8" = 1'-0"
140
0.125
141
12.0
290
     0
  0
SCALE
  5
4A
102
{ACAD_REACTORS
330
42
102
}
330
42
100
AcDbScale
 70
     0
300
3/16" = 1'-0"
140
0.1875
141
12.0
290
     0
  0
SCALE
  5
4B
102
{ACAD_REACTORS
330
42
102
}
330
42
100
AcDbScale
 70
     0
300
1/4" = 1'-0"
140
0.25
141
12.0
290
     0
  0
SCALE
  5
4C
102
{ACAD_REACTORS
330
42
102
}
330
42
100
AcDbScale
 70
     0
300
3/8" = 1'-0"
140
0.375
141
12.0
290
     0
  0
SCALE
  5
4D
102
{ACAD_REACTORS
330
42
102
}
330
42
100
AcDbScale
 70
     0
300
1/2" = 1'-0"
140
0.5
141
12.0
290
     0
  0
SCALE
  5
4E
102
{ACAD_REACTORS
330
42
102
}
330
42
100
AcDbScale
 70
     0
300
3/4" = 1'-0"
140
0.75
141
12.0
290
     0
  0
SCALE
  5
4F
102
{ACAD_REACTORS
330
42
102
}
330
42
100
AcDbScale
 70
     0
300
1" = 1'-0"
140
1.0
141
12.0
290
     0
  0
SCALE
  5
50
102
{ACAD_REACTORS
330
42
102
}
330
42
100
AcDbScale
 70
     0
300
1-1/2" = 1'-0"
140
1.5
141
12.0
290
     0
  0
SCALE
  5
51
102
{ACAD_REACTORS
330
42
102
}
330
42
100
AcDbScale
 70
     0
300
3" = 1'-0"
140
3.0
141
12.0
290
     0
  0
SCALE
  5
52
102
{ACAD_REACTORS
330
42
102
}
330
42
100
AcDbScale
 70
     0
300
6" = 1'-0"
140
6.0
141
12.0
290
     0
  0
SCALE
  5
53
102
{ACAD_REACTORS
330
42
102
}
330
42
100
AcDbScale
 70
     0
300
1'-0" = 1'-0"
140
12.0
141
12.0
290
     0
  0
TABLESTYLE
  5
64
102
{ACAD_XDICTIONARY
360
962
102
}
102
{ACAD_REACTORS
330
63
102
}
330
63
100
AcDbTableStyle
  3
Standard
 70
     0
 71
     0
 40
0.06
 41
0.06
280
     0
281
     0
  7
STANDARD
140
0.18
170
     2
 62
     0
 63
     7
283
     0
274
    -2
284
     1
 64
     0
275
    -2
285
     1
 65
     0
276
    -2
286
     1
 66
     0
277
    -2
287
     1
 67
     0
278
    -2
288
     1
 68
     0
279
    -2
289
     1
 69
     0
  7
STANDARD
140
0.25
170
     5
 62
     0
 63
     7
283
     0
274
    -2
284
     1
 64
     0
275
    -2
285
     1
 65
     0
276
    -2
286
     1
 66
     0
277
    -2
287
     1
 67
     0
278
    -2
288
     1
 68
     0
279
    -2
289
     1
 69
     0
  7
STANDARD
140
0.18
170
     5
 62
     0
 63
     7
283
     0
274
    -2
284
     1
 64
     0
275
    -2
285
     1
 65
     0
276
    -2
286
     1
 66
     0
277
    -2
287
     1
 67
     0
278
    -2
288
     1
 68
     0
279
    -2
289
     1
 69
     0
  0
VISUALSTYLE
  5
2F
102
{ACAD_XDICTIONARY
360
133E
102
}
102
{ACAD_REACTORS
330
29
102
}
330
29
100
AcDbVisualStyle
  2

 70
     4
 71
     0
 72
     2
 73
     0
 90
        0
 40
-0.6
 41
-30.0
 62
     5
 63
     7
 74
     1
 91
        4
 64
     7
 65
   257
 75
     1
175
     1
 42
1.0
 92
        0
 66
   257
 43
1.0
 76
     1
 77
     6
 78
     2
 67
     7
 79
     5
170
     0
171
     0
290
     0
174
     0
 93
        1
 44
0.0
173
     0
291
     0
 45
0.0
1001
ACAD
1000
AcDbSavedByObjectVersion
1070
     0
  0
VISUALSTYLE
  5
2E
102
{ACAD_XDICTIONARY
360
133C
102
}
102
{ACAD_REACTORS
330
29
102
}
330
29
100
AcDbVisualStyle
  2

 70
     7
 71
     1
 72
     0
 73
     1
 90
        0
 40
-0.6
 41
-30.0
 62
     5
 63
     7
 74
     0
 91
        4
 64
     7
 65
   257
 75
     1
175
     1
 42
1.0
 92
        8
 66
     7
 43
1.0
 76
     1
 77
     6
 78
     2
 67
     7
 79
     5
170
     0
171
     0
290
     0
174
     0
 93
        1
 44
0.0
173
     0
291
     1
 45
0.0
1001
ACAD
1000
AcDbSavedByObjectVersion
1070
     0
  0
VISUALSTYLE
  5
35
102
{ACAD_XDICTIONARY
360
134A
102
}
102
{ACAD_REACTORS
330
29
102
}
330
29
100
AcDbVisualStyle
  2

 70
    12
 71
     2
 72
     2
 73
     0
 90
        0
 40
-0.6
 41
-30.0
 62
     5
 63
     7
 74
     1
 91
        4
 64
     7
 65
   257
 75
     1
175
     1
 42
1.0
 92
        8
 66
     7
 43
1.0
 76
     1
 77
     6
 78
     2
 67
     7
 79
     5
170
     0
171
     0
290
     0
174
     0
 93
        1
 44
50.0
173
     0
291
     1
 45
0.0
1001
ACAD
1000
AcDbSavedByObjectVersion
1070
     0
  0
VISUALSTYLE
  5
39
102
{ACAD_XDICTIONARY
360
1352
102
}
102
{ACAD_REACTORS
330
29
102
}
330
29
100
AcDbVisualStyle
  2

 70
    16
 71
     2
 72
     2
 73
     3
 90
        0
 40
-0.6
 41
-30.0
 62
     5
 63
     8
 74
     1
 91
        4
 64
     7
 65
   257
 75
     1
175
     1
 42
1.0
 92
        8
 66
     8
 43
1.0
 76
     1
 77
     6
 78
     2
 67
     7
 79
     5
170
     0
171
     0
290
     0
174
     0
 93
        1
 44
0.0
173
     0
291
     1
 45
0.0
1001
ACAD
1000
AcDbSavedByObjectVersion
1070
     0
  0
VISUALSTYLE
  5
32
102
{ACAD_XDICTIONARY
360
1344
102
}
102
{ACAD_REACTORS
330
29
102
}
330
29
100
AcDbVisualStyle
  2

 70
     9
 71
     3
 72
     2
 73
     0
 90
        0
 40
-0.6
 41
-30.0
 62
     5
 63
     7
 74
     2
 91
        2
 64
     7
 65
   257
 75
     1
175
     1
 42
179.0
 92
        8
 66
     7
 43
1.0
 76
     1
 77
     6
 78
     2
 67
     7
 79
     3
170
     0
171
     0
290
     0
174
     0
 93
        1
 44
0.0
173
     0
291
     0
 45
0.0
1001
ACAD
1000
AcDbSavedByObjectVersion
1070
     0
  0
VISUALSTYLE
  5
34
102
{ACAD_XDICTIONARY
360
1348
102
}
102
{ACAD_REACTORS
330
29
102
}
330
29
100
AcDbVisualStyle
  2

 70
    11
 71
     2
 72
     2
 73
     0
 90
        0
 40
-0.6
 41
-30.0
 62
     5
 63
     7
 74
     1
 91
        4
 64
     7
 65
   257
 75
     1
175
     1
 42
1.0
 92
        8
 66
     7
 43
1.0
 76
     1
 77
     6
 78
     2
 67
     7
 79
     5
170
     0
171
     0
290
     0
174
     0
 93
        1
 44
-50.0
173
     0
291
     1
 45
0.0
1001
ACAD
1000
AcDbSavedByObjectVersion
1070
     0
  0
VISUALSTYLE
  5
41
102
{ACAD_XDICTIONARY
360
1362
102
}
102
{ACAD_REACTORS
330
29
102
}
330
29
100
AcDbVisualStyle
  2

 70
    22
 71
     2
 72
     2
 73
     0
 90
        0
 40
-0.6
 41
-30.0
 62
     5
 63
     7
 74
     1
 91
        4
 64
     7
 65
   257
 75
     1
175
     1
 42
1.0
 92
        8
 66
     7
 43
1.0
 76
     1
 77
     6
 78
     2
 67
     7
 79
     5
170
     0
171
     0
290
     0
174
     0
 93
        1
 44
0.0
173
     0
291
     1
 45
0.0
1001
ACAD
1000
AcDbSavedByObjectVersion
1070
     0
  0
VISUALSTYLE
  5
38
102
{ACAD_XDICTIONARY
360
1350
102
}
102
{ACAD_REACTORS
330
29
102
}
330
29
100
AcDbVisualStyle
  2

 70
    15
 71
     2
 72
     2
 73
     0
 90
        0
 40
-0.6
 41
-30.0
 62
     5
 63
     7
 74
     1
 91
        4
 64
     7
 65
   257
 75
     1
175
     1
 42
1.0
 92
        8
 66
     7
 43
1.0
 76
     1
 77
     6
 78
     2
 67
     7
 79
     5
170
     0
171
     0
290
     0
174
     0
 93
        1
 44
0.0
173
     0
291
     1
 45
0.0
1001
ACAD
1000
AcDbSavedByObjectVersion
1070
     0
  0
VISUALSTYLE
  5
2A
102
{ACAD_XDICTIONARY
360
1334
102
}
102
{ACAD_REACTORS
330
29
102
}
330
29
100
AcDbVisualStyle
  2

 70
     0
 71
     2
 72
     1
 73
     1
 90
        2
 40
-0.6
 41
30.0
 62
     5
 63
     7
 74
     0
 91
        0
 64
     7
 65
   257
 75
     1
175
     1
 42
1.0
 92
        8
 66
     7
 43
1.0
 76
     1
 77
     6
 78
     2
 67
     7
 79
     5
170
     0
171
     0
290
     0
174
     0
 93
       13
 44
0.0
173
     0
291
     1
 45
0.0
1001
ACAD
1000
AcDbSavedByObjectVersion
1070
     0
  0
VISUALSTYLE
  5
2B
102
{ACAD_XDICTIONARY
360
1336
102
}
102
{ACAD_REACTORS
330
29
102
}
330
29
100
AcDbVisualStyle
  2

 70
     1
 71
     2
 72
     1
 73
     1
 90
        2
 40
-0.6
 41
30.0
 62
     5
 63
     7
 74
     1
 91
        0
 64
     7
 65
   257
 75
     1
175
     1
 42
1.0
 92
        0
 66
   257
 43
1.0
 76
     1
 77
     6
 78
     2
 67
     7
 79
     5
170
     0
171
     0
290
     0
174
     0
 93
       13
 44
0.0
173
     0
291
     1
 45
0.0
1001
ACAD
1000
AcDbSavedByObjectVersion
1070
     0
  0
VISUALSTYLE
  5
2C
102
{ACAD_XDICTIONARY
360
1338
102
}
102
{ACAD_REACTORS
330
29
102
}
330
29
100
AcDbVisualStyle
  2

 70
     2
 71
     2
 72
     2
 73
     1
 90
        2
 40
-0.6
 41
30.0
 62
     5
 63
     7
 74
     0
 91
        0
 64
     7
 65
   257
 75
     1
175
     1
 42
1.0
 92
        0
 66
     7
 43
1.0
 76
     1
 77
     6
 78
     2
 67
     7
 79
     5
170
     0
171
     0
290
     0
174
     0
 93
       13
 44
0.0
173
     0
291
     1
 45
0.0
1001
ACAD
1000
AcDbSavedByObjectVersion
1070
     0
  0
VISUALSTYLE
  5
2D
102
{ACAD_XDICTIONARY
360
133A
102
}
102
{ACAD_REACTORS
330
29
102
}
330
29
100
AcDbVisualStyle
  2

 70
     3
 71
     2
 72
     2
 73
     1
 90
        2
 40
-0.6
 41
30.0
 62
     5
 63
     7
 74
     1
 91
        0
 64
     7
 65
   257
 75
     1
175
     1
 42
1.0
 92
        0
 66
   257
 43
1.0
 76
     1
 77
     6
 78
     2
 67
     7
 79
     5
170
     0
171
     0
290
     0
174
     0
 93
       13
 44
0.0
173
     0
291
     1
 45
0.0
1001
ACAD
1000
AcDbSavedByObjectVersion
1070
     0
  0
VISUALSTYLE
  5
31
102
{ACAD_XDICTIONARY
360
1342
102
}
102
{ACAD_REACTORS
330
29
102
}
330
29
100
AcDbVisualStyle
  2

 70
     6
 71
     1
 72
     2
 73
     2
 90
        0
 40
-0.6
 41
-30.0
 62
     5
 63
     7
 74
     2
 91
        2
 64
     7
 65
   257
 75
     2
175
     1
 42
40.0
 92
        0
 66
   257
 43
1.0
 76
     1
 77
     6
 78
     2
 67
     7
 79
     3
170
     0
171
     0
290
     0
174
     0
 93
        1
 44
0.0
173
     0
291
     0
 45
0.0
1001
ACAD
1000
AcDbSavedByObjectVersion
1070
     0
  0
VISUALSTYLE
  5
3F
102
{ACAD_XDICTIONARY
360
135E
102
}
102
{ACAD_REACTORS
330
29
102
}
330
29
100
AcDbVisualStyle
  2

 70
    20
 71
     2
 72
     2
 73
     0
 90
        0
 40
-0.6
 41
-30.0
 62
     5
 63
     7
 74
     1
 91
        4
 64
     7
 65
   257
 75
     1
175
     1
 42
1.0
 92
       10
 66
     7
 43
1.0
 76
     1
 77
     6
 78
     2
 67
     7
 79
     5
170
     0
171
     0
290
     0
174
     0
 93
        1
 44
0.0
173
     0
291
     1
 45
0.0
1001
ACAD
1000
AcDbSavedByObjectVersion
1070
     0
  0
VISUALSTYLE
  5
37
102
{ACAD_XDICTIONARY
360
134E
102
}
102
{ACAD_REACTORS
330
29
102
}
330
29
100
AcDbVisualStyle
  2

 70
    14
 71
     2
 72
     2
 73
     0
 90
        0
 40
-0.6
 41
-30.0
 62
     5
 63
     7
 74
     1
 91
        4
 64
     7
 65
   257
 75
     7
175
     7
 42
1.0
 92
        8
 66
     7
 43
1.0
 76
     1
 77
     6
 78
     2
 67
     7
 79
     5
170
     0
171
     0
290
     0
174
     0
 93
        1
 44
0.0
173
     0
291
     1
 45
0.0
1001
ACAD
1000
AcDbSavedByObjectVersion
1070
     0
  0
VISUALSTYLE
  5
40
102
{ACAD_XDICTIONARY
360
1360
102
}
102
{ACAD_REACTORS
330
29
102
}
330
29
100
AcDbVisualStyle
  2

 70
    21
 71
     2
 72
     2
 73
     0
 90
        0
 40
-0.6
 41
-30.0
 62
     5
 63
     7
 74
     1
 91
        4
 64
     7
 65
   257
 75
     1
175
     1
 42
1.0
 92
        9
 66
     7
 43
1.0
 76
     1
 77
     6
 78
     2
 67
     7
 79
     5
170
     0
171
     0
290
     0
174
     0
 93
        1
 44
0.0
173
     0
291
     1
 45
0.0
1001
ACAD
1000
AcDbSavedByObjectVersion
1070
     0
  0
VISUALSTYLE
  5
33
102
{ACAD_XDICTIONARY
360
1346
102
}
102
{ACAD_REACTORS
330
29
102
}
330
29
100
AcDbVisualStyle
  2

 70
     8
 71
     2
 72
     3
 73
     0
 90
        2
 40
-0.6
 41
30.0
 62
     5
 63
     7
 74
     0
 91
        0
 64
     7
 65
   257
 75
     1
175
     1
 42
1.0
 92
        8
 66
   257
 43
1.0
 76
     1
 77
     6
 78
     2
 67
     7
 79
     3
170
     0
171
     0
290
     0
174
     0
 93
       13
 44
0.0
173
     0
291
     0
 45
0.0
1001
ACAD
1000
AcDbSavedByObjectVersion
1070
     0
  0
VISUALSTYLE
  5
3E
102
{ACAD_XDICTIONARY
360
135C
102
}
102
{ACAD_REACTORS
330
29
102
}
330
29
100
AcDbVisualStyle
  2

 70
    27
 71
     2
 72
     2
 73
     1
 90
        2
 40
-0.6
 41
30.0
 62
     5
 63
     7
 74
     0
 91
        4
 64
     7
 65
   257
 75
     1
175
     1
 42
1.0
 92
        8
 66
   257
 43
1.0
 76
     1
 77
     6
 78
     2
 67
     8
 79
     3
170
     0
171
     0
290
     0
174
     0
 93
        5
 44
0.0
173
     0
291
     0
 45
0.0
1001
ACAD
1000
AcDbSavedByObjectVersion
1070
     0
  0
VISUALSTYLE
  5
3D
102
{ACAD_XDICTIONARY
360
135A
102
}
102
{ACAD_REACTORS
330
29
102
}
330
29
100
AcDbVisualStyle
  2

 70
    26
 71
     2
 72
     2
 73
     1
 90
        2
 40
-0.6
 41
30.0
 62
     5
 63
     7
 74
     1
 91
       10
 64
     7
 65
   257
 75
     2
175
     1
 42
1.0
 92
        8
 66
   257
 43
1.0
 76
     1
 77
     6
 78
     2
 67
     7
 79
     3
170
     0
171
     0
290
     0
174
     0
 93
        5
 44
0.0
173
     0
291
     0
 45
0.0
1001
ACAD
1000
AcDbSavedByObjectVersion
1070
     0
  0
VISUALSTYLE
  5
3A
102
{ACAD_XDICTIONARY
360
1354
102
}
102
{ACAD_REACTORS
330
29
102
}
330
29
100
AcDbVisualStyle
  2

 70
    23
 71
     2
 72
     2
 73
     3
 90
        0
 40
-0.6
 41
-30.0
 62
     5
 63
     7
 74
     2
 91
        2
 64
     7
 65
     7
 75
     1
175
     1
 42
40.0
 92
        8
 66
     7
 43
1.0
 76
     1
 77
     6
 78
     2
 67
     7
 79
     3
170
     0
171
     0
290
     0
174
     0
 93
        1
 44
0.0
173
     0
291
     0
 45
0.0
1001
ACAD
1000
AcDbSavedByObjectVersion
1070
     0
  0
VISUALSTYLE
  5
3B
102
{ACAD_XDICTIONARY
360
1356
102
}
102
{ACAD_REACTORS
330
29
102
}
330
29
100
AcDbVisualStyle
  2

 70
    24
 71
     1
 72
     2
 73
     2
 90
        0
 40
-0.6
 41
-30.0
 62
     5
 63
     7
 74
     2
 91
        2
 64
     7
 65
     7
 75
     1
175
     1
 42
40.0
 92
       11
 66
     7
 43
1.0
 76
     1
 77
     6
 78
     2
 67
     7
 79
     6
170
     0
171
     0
290
     0
174
     0
 93
        1
 44
0.0
173
     0
291
     0
 45
0.0
1001
ACAD
1000
AcDbSavedByObjectVersion
1070
     0
  0
VISUALSTYLE
  5
36
102
{ACAD_XDICTIONARY
360
134C
102
}
102
{ACAD_REACTORS
330
29
102
}
330
29
100
AcDbVisualStyle
  2

 70
    13
 71
     2
 72
     2
 73
     0
 90
        0
 40
-0.6
 41
-30.0
 62
     5
 63
     7
 74
     1
 91
        4
 64
     7
 65
   257
 75
     1
175
     1
 42
1.0
 92
       12
 66
     7
 43
1.0
 76
     1
 77
     6
 78
     2
 67
     7
 79
     5
170
     0
171
     0
290
     0
174
     0
 93
        1
 44
0.0
173
     0
291
     1
 45
0.0
1001
ACAD
1000
AcDbSavedByObjectVersion
1070
     0
  0
VISUALSTYLE
  5
30
102
{ACAD_XDICTIONARY
360
1340
102
}
102
{ACAD_REACTORS
330
29
102
}
330
29
100
AcDbVisualStyle
  2

 70
     5
 71
     0
 72
     2
 73
     0
 90
        0
 40
-0.6
 41
-30.0
 62
     5
 63
     7
 74
     1
 91
        4
 64
     7
 65
   257
 75
     1
175
     1
 42
1.0
 92
        0
 66
   257
 43
1.0
 76
     1
 77
     6
 78
     2
 67
     7
 79
     3
170
     0
171
     0
290
     0
174
     0
 93
        1
 44
0.0
173
     0
291
     0
 45
0.0
1001
ACAD
1000
AcDbSavedByObjectVersion
1070
     0
  0
VISUALSTYLE
  5
3C
102
{ACAD_XDICTIONARY
360
1358
102
}
102
{ACAD_REACTORS
330
29
102
}
330
29
100
AcDbVisualStyle
  2

 70
    25
 71
     2
 72
     2
 73
     1
 90
        1
 40
0.5
 41
-30.0
 62
     5
 63
     7
 74
     1
 91
        0
 64
     7
 65
   257
 75
     1
175
     1
 42
1.0
 92
        8
 66
     7
 43
1.0
 76
     1
 77
     6
 78
     2
 67
     7
 79
     3
170
     0
171
     0
290
     0
174
     0
 93
       13
 44
0.0
173
     0
291
     0
 45
0.0
1001
ACAD
1000
AcDbSavedByObjectVersion
1070
     0
  0
DICTIONARYVAR
  5
95D
102
{ACAD_REACTORS
330
95A
102
}
330
95A
100
DictionaryVariables
280
     0
  1
1:1
  0
DICTIONARYVAR
  5
95C
102
{ACAD_REACTORS
330
95A
102
}
330
95A
100
DictionaryVariables
280
     0
  1
STANDARD
  0
DICTIONARYVAR
  5
95B
102
{ACAD_REACTORS
330
95A
102
}
330
95A
100
DictionaryVariables
280
     0
  1
STANDARD
  0
DICTIONARYVAR
  5
960
102
{ACAD_REACTORS
330
95A
102
}
330
95A
100
DictionaryVariables
280
     0
  1
1
  0
DICTIONARYVAR
  5
95F
102
{ACAD_REACTORS
330
95A
102
}
330
95A
100
DictionaryVariables
280
     0
  1
0
  0
DICTIONARYVAR
  5
95E
102
{ACAD_REACTORS
330
95A
102
}
330
95A
100
DictionaryVariables
280
     0
  1
127
  0
DICTIONARYVAR
  5
111C
102
{ACAD_REACTORS
330
95A
102
}
330
95A
100
DictionaryVariables
280
     0
  1
2
  0
DICTIONARY
  5
1367
330
6E
100
AcDbDictionary
280
     1
281
     1
  3
ACAD_XREC_ROUNDTRIP
360
1368
  0
DICTIONARY
  5
1365
330
6A
100
AcDbDictionary
280
     1
281
     1
  3
ACAD_XREC_ROUNDTRIP
360
1366
  0
DICTIONARY
  5
1A
330
19
100
AcDbDictionary
280
     1
281
     1
  3
ACAD_XREC_ROUNDTRIP
360
96B
  3
BUMPTILE
360
1C
  3
DIFFUSETILE
360
1B
  3
OPACITYTILE
360
1F
  3
REFLECTIONTILE
360
1E
  3
REFRACTIONTILE
360
20
  3
SPECULARTILE
360
1D
  0
DICTIONARY
  5
12
330
11
100
AcDbDictionary
280
     1
281
     1
  3
ACAD_XREC_ROUNDTRIP
360
96A
  3
BUMPTILE
360
14
  3
DIFFUSETILE
360
13
  3
OPACITYTILE
360
17
  3
REFLECTIONTILE
360
16
  3
REFRACTIONTILE
360
18
  3
SPECULARTILE
360
15
  0
DICTIONARY
  5
22
330
21
100
AcDbDictionary
280
     1
281
     1
  3
ACAD_XREC_ROUNDTRIP
360
96C
  3
BUMPTILE
360
24
  3
DIFFUSETILE
360
23
  3
OPACITYTILE
360
27
  3
REFLECTIONTILE
360
26
  3
REFRACTIONTILE
360
28
  3
SPECULARTILE
360
25
  0
DICTIONARY
  5
962
330
64
100
AcDbDictionary
280
     1
281
     1
  3
ACAD_ROUNDTRIP_2008_TABLESTYLE_CELLSTYLEMAP
360
132D
  3
ACAD_XREC_ROUNDTRIP
360
1364
  0
DICTIONARY
  5
133E
330
2F
100
AcDbDictionary
280
     1
281
     1
  3
ACAD_XREC_ROUNDTRIP
360
133F
  0
DICTIONARY
  5
133C
330
2E
100
AcDbDictionary
280
     1
281
     1
  3
ACAD_XREC_ROUNDTRIP
360
133D
  0
DICTIONARY
  5
134A
330
35
100
AcDbDictionary
280
     1
281
     1
  3
ACAD_XREC_ROUNDTRIP
360
134B
  0
DICTIONARY
  5
1352
330
39
100
AcDbDictionary
280
     1
281
     1
  3
ACAD_XREC_ROUNDTRIP
360
1353
  0
DICTIONARY
  5
1344
330
32
100
AcDbDictionary
280
     1
281
     1
  3
ACAD_XREC_ROUNDTRIP
360
1345
  0
DICTIONARY
  5
1348
330
34
100
AcDbDictionary
280
     1
281
     1
  3
ACAD_XREC_ROUNDTRIP
360
1349
  0
DICTIONARY
  5
1362
330
41
100
AcDbDictionary
280
     1
281
     1
  3
ACAD_XREC_ROUNDTRIP
360
1363
  0
DICTIONARY
  5
1350
330
38
100
AcDbDictionary
280
     1
281
     1
  3
ACAD_XREC_ROUNDTRIP
360
1351
  0
DICTIONARY
  5
1334
330
2A
100
AcDbDictionary
280
     1
281
     1
  3
ACAD_XREC_ROUNDTRIP
360
1335
  0
DICTIONARY
  5
1336
330
2B
100
AcDbDictionary
280
     1
281
     1
  3
ACAD_XREC_ROUNDTRIP
360
1337
  0
DICTIONARY
  5
1338
330
2C
100
AcDbDictionary
280
     1
281
     1
  3
ACAD_XREC_ROUNDTRIP
360
1339
  0
DICTIONARY
  5
133A
330
2D
100
AcDbDictionary
280
     1
281
     1
  3
ACAD_XREC_ROUNDTRIP
360
133B
  0
DICTIONARY
  5
1342
330
31
100
AcDbDictionary
280
     1
281
     1
  3
ACAD_XREC_ROUNDTRIP
360
1343
  0
DICTIONARY
  5
135E
330
3F
100
AcDbDictionary
280
     1
281
     1
  3
ACAD_XREC_ROUNDTRIP
360
135F
  0
DICTIONARY
  5
134E
330
37
100
AcDbDictionary
280
     1
281
     1
  3
ACAD_XREC_ROUNDTRIP
360
134F
  0
DICTIONARY
  5
1360
330
40
100
AcDbDictionary
280
     1
281
     1
  3
ACAD_XREC_ROUNDTRIP
360
1361
  0
DICTIONARY
  5
1346
330
33
100
AcDbDictionary
280
     1
281
     1
  3
ACAD_XREC_ROUNDTRIP
360
1347
  0
DICTIONARY
  5
135C
330
3E
100
AcDbDictionary
280
     1
281
     1
  3
ACAD_XREC_ROUNDTRIP
360
135D
  0
DICTIONARY
  5
135A
330
3D
100
AcDbDictionary
280
     1
281
     1
  3
ACAD_XREC_ROUNDTRIP
360
135B
  0
DICTIONARY
  5
1354
330
3A
100
AcDbDictionary
280
     1
281
     1
  3
ACAD_XREC_ROUNDTRIP
360
1355
  0
DICTIONARY
  5
1356
330
3B
100
AcDbDictionary
280
     1
281
     1
  3
ACAD_XREC_ROUNDTRIP
360
1357
  0
DICTIONARY
  5
134C
330
36
100
AcDbDictionary
280
     1
281
     1
  3
ACAD_XREC_ROUNDTRIP
360
134D
  0
DICTIONARY
  5
1340
330
30
100
AcDbDictionary
280
     1
281
     1
  3
ACAD_XREC_ROUNDTRIP
360
1341
  0
DICTIONARY
  5
1358
330
3C
100
AcDbDictionary
280
     1
281
     1
  3
ACAD_XREC_ROUNDTRIP
360
1359
  0
XRECORD
  5
1368
102
{ACAD_REACTORS
330
1367
102
}
330
1367
100
AcDbXrecord
280
     1
102
SHADEPLOT
 70
     0
102
SHADEPLOTRESLEVEL
 70
     2
102
SHADEPLOTCUSTOMDPI
 70
   300
  0
XRECORD
  5
1366
102
{ACAD_REACTORS
330
1365
102
}
330
1365
100
AcDbXrecord
280
     1
102
SHADEPLOT
 70
     0
102
SHADEPLOTRESLEVEL
 70
     2
102
SHADEPLOTCUSTOMDPI
 70
   300
  0
XRECORD
  5
96B
102
{ACAD_REACTORS
330
1A
102
}
330
1A
100
AcDbXrecord
280
     1
102
MATERIAL
148
0.0
149
0.0
149
0.0
 93
        0
 94
      127
282
     0
 72
     0
 77
     0
171
     0
175
     0
179
     0
273
     0
  0
XRECORD
  5
1C
102
{ACAD_REACTORS
330
1A
102
}
330
1A
100
AcDbXrecord
280
     1
270
     1
271
     1
  0
XRECORD
  5
1B
102
{ACAD_REACTORS
330
1A
102
}
330
1A
100
AcDbXrecord
280
     1
270
     1
271
     1
  0
XRECORD
  5
1F
102
{ACAD_REACTORS
330
1A
102
}
330
1A
100
AcDbXrecord
280
     1
270
     1
271
     1
  0
XRECORD
  5
1E
102
{ACAD_REACTORS
330
1A
102
}
330
1A
100
AcDbXrecord
280
     1
270
     1
271
     1
  0
XRECORD
  5
20
102
{ACAD_REACTORS
330
1A
102
}
330
1A
100
AcDbXrecord
280
     1
270
     1
271
     1
  0
XRECORD
  5
1D
102
{ACAD_REACTORS
330
1A
102
}
330
1A
100
AcDbXrecord
280
     1
270
     1
271
     1
  0
XRECORD
  5
96A
102
{ACAD_REACTORS
330
12
102
}
330
12
100
AcDbXrecord
280
     1
102
MATERIAL
148
0.0
149
0.0
149
0.0
 93
        0
 94
      127
282
     0
 72
     0
 77
     0
171
     0
175
     0
179
     0
273
     0
  0
XRECORD
  5
14
102
{ACAD_REACTORS
330
12
102
}
330
12
100
AcDbXrecord
280
     1
270
     1
271
     1
  0
XRECORD
  5
13
102
{ACAD_REACTORS
330
12
102
}
330
12
100
AcDbXrecord
280
     1
270
     1
271
     1
  0
XRECORD
  5
17
102
{ACAD_REACTORS
330
12
102
}
330
12
100
AcDbXrecord
280
     1
270
     1
271
     1
  0
XRECORD
  5
16
102
{ACAD_REACTORS
330
12
102
}
330
12
100
AcDbXrecord
280
     1
270
     1
271
     1
  0
XRECORD
  5
18
102
{ACAD_REACTORS
330
12
102
}
330
12
100
AcDbXrecord
280
     1
270
     1
271
     1
  0
XRECORD
  5
15
102
{ACAD_REACTORS
330
12
102
}
330
12
100
AcDbXrecord
280
     1
270
     1
271
     1
  0
XRECORD
  5
96C
102
{ACAD_REACTORS
330
22
102
}
330
22
100
AcDbXrecord
280
     1
102
MATERIAL
148
0.0
149
0.0
149
0.0
 93
        0
 94
      127
282
     0
 72
     0
 77
     0
171
     0
175
     0
179
     0
273
     0
  0
XRECORD
  5
24
102
{ACAD_REACTORS
330
22
102
}
330
22
100
AcDbXrecord
280
     1
270
     1
271
     1
  0
XRECORD
  5
23
102
{ACAD_REACTORS
330
22
102
}
330
22
100
AcDbXrecord
280
     1
270
     1
271
     1
  0
XRECORD
  5
27
102
{ACAD_REACTORS
330
22
102
}
330
22
100
AcDbXrecord
280
     1
270
     1
271
     1
  0
XRECORD
  5
26
102
{ACAD_REACTORS
330
22
102
}
330
22
100
AcDbXrecord
280
     1
270
     1
271
     1
  0
XRECORD
  5
28
102
{ACAD_REACTORS
330
22
102
}
330
22
100
AcDbXrecord
280
     1
270
     1
271
     1
  0
XRECORD
  5
25
102
{ACAD_REACTORS
330
22
102
}
330
22
100
AcDbXrecord
280
     1
270
     1
271
     1
  0
CELLSTYLEMAP
  5
132D
102
{ACAD_REACTORS
330
962
102
}
330
962
100
AcDbCellStyleMap
 90
        3
300
CELLSTYLE
  1
TABLEFORMAT_BEGIN
 90
        5
170
     1
 91
        0
 92
    32768
 62
   257
 93
        1
300
CONTENTFORMAT
  1
CONTENTFORMAT_BEGIN
 90
        0
 91
        0
 92
      512
 93
        0
300

 40
0.0
140
1.0
 94
        5
 62
     0
340
55
144
0.25
309
CONTENTFORMAT_END
171
     1
301
MARGIN
  1
CELLMARGIN_BEGIN
 40
0.06
 40
0.06
 40
0.06
 40
0.06
 40
0.18
 40
0.18
309
CELLMARGIN_END
 94
        6
 95
        1
302
GRIDFORMAT
  1
GRIDFORMAT_BEGIN
 90
        0
 91
        1
 62
     0
 92
       -2
340
0
 93
        0
 40
0.045
309
GRIDFORMAT_END
 95
        2
302
GRIDFORMAT
  1
GRIDFORMAT_BEGIN
 90
        0
 91
        1
 62
     0
 92
       -2
340
0
 93
        0
 40
0.045
309
GRIDFORMAT_END
 95
        4
302
GRIDFORMAT
  1
GRIDFORMAT_BEGIN
 90
        0
 91
        1
 62
     0
 92
       -2
340
0
 93
        0
 40
0.045
309
GRIDFORMAT_END
 95
        8
302
GRIDFORMAT
  1
GRIDFORMAT_BEGIN
 90
        0
 91
        1
 62
     0
 92
       -2
340
0
 93
        0
 40
0.045
309
GRIDFORMAT_END
 95
       16
302
GRIDFORMAT
  1
GRIDFORMAT_BEGIN
 90
        0
 91
        1
 62
     0
 92
       -2
340
0
 93
        0
 40
0.045
309
GRIDFORMAT_END
 95
       32
302
GRIDFORMAT
  1
GRIDFORMAT_BEGIN
 90
        0
 91
        1
 62
     0
 92
       -2
340
0
 93
        0
 40
0.045
309
GRIDFORMAT_END
309
TABLEFORMAT_END
  1
CELLSTYLE_BEGIN
 90
        1
 91
        1
300
_TITLE
309
CELLSTYLE_END
300
CELLSTYLE
  1
TABLEFORMAT_BEGIN
 90
        5
170
     1
 91
        0
 92
        0
 62
   257
 93
        1
300
CONTENTFORMAT
  1
CONTENTFORMAT_BEGIN
 90
        0
 91
        0
 92
      512
 93
        0
300

 40
0.0
140
1.0
 94
        5
 62
     0
340
55
144
0.18
309
CONTENTFORMAT_END
171
     1
301
MARGIN
  1
CELLMARGIN_BEGIN
 40
0.06
 40
0.06
 40
0.06
 40
0.06
 40
0.18
 40
0.18
309
CELLMARGIN_END
 94
        6
 95
        1
302
GRIDFORMAT
  1
GRIDFORMAT_BEGIN
 90
        0
 91
        1
 62
     0
 92
       -2
340
0
 93
        0
 40
0.045
309
GRIDFORMAT_END
 95
        2
302
GRIDFORMAT
  1
GRIDFORMAT_BEGIN
 90
        0
 91
        1
 62
     0
 92
       -2
340
0
 93
        0
 40
0.045
309
GRIDFORMAT_END
 95
        4
302
GRIDFORMAT
  1
GRIDFORMAT_BEGIN
 90
        0
 91
        1
 62
     0
 92
       -2
340
0
 93
        0
 40
0.045
309
GRIDFORMAT_END
 95
        8
302
GRIDFORMAT
  1
GRIDFORMAT_BEGIN
 90
        0
 91
        1
 62
     0
 92
       -2
340
0
 93
        0
 40
0.045
309
GRIDFORMAT_END
 95
       16
302
GRIDFORMAT
  1
GRIDFORMAT_BEGIN
 90
        0
 91
        1
 62
     0
 92
       -2
340
0
 93
        0
 40
0.045
309
GRIDFORMAT_END
 95
       32
302
GRIDFORMAT
  1
GRIDFORMAT_BEGIN
 90
        0
 91
        1
 62
     0
 92
       -2
340
0
 93
        0
 40
0.045
309
GRIDFORMAT_END
309
TABLEFORMAT_END
  1
CELLSTYLE_BEGIN
 90
        2
 91
        1
300
_HEADER
309
CELLSTYLE_END
300
CELLSTYLE
  1
TABLEFORMAT_BEGIN
 90
        5
170
     1
 91
        0
 92
        0
 62
   257
 93
        1
300
CONTENTFORMAT
  1
CONTENTFORMAT_BEGIN
 90
        0
 91
        0
 92
      512
 93
        0
300

 40
0.0
140
1.0
 94
        2
 62
     0
340
55
144
0.18
309
CONTENTFORMAT_END
171
     1
301
MARGIN
  1
CELLMARGIN_BEGIN
 40
0.06
 40
0.06
 40
0.06
 40
0.06
 40
0.18
 40
0.18
309
CELLMARGIN_END
 94
        6
 95
        1
302
GRIDFORMAT
  1
GRIDFORMAT_BEGIN
 90
        0
 91
        1
 62
     0
 92
       -2
340
0
 93
        0
 40
0.045
309
GRIDFORMAT_END
 95
        2
302
GRIDFORMAT
  1
GRIDFORMAT_BEGIN
 90
        0
 91
        1
 62
     0
 92
       -2
340
0
 93
        0
 40
0.045
309
GRIDFORMAT_END
 95
        4
302
GRIDFORMAT
  1
GRIDFORMAT_BEGIN
 90
        0
 91
        1
 62
     0
 92
       -2
340
0
 93
        0
 40
0.045
309
GRIDFORMAT_END
 95
        8
302
GRIDFORMAT
  1
GRIDFORMAT_BEGIN
 90
        0
 91
        1
 62
     0
 92
       -2
340
0
 93
        0
 40
0.045
309
GRIDFORMAT_END
 95
       16
302
GRIDFORMAT
  1
GRIDFORMAT_BEGIN
 90
        0
 91
        1
 62
     0
 92
       -2
340
0
 93
        0
 40
0.045
309
GRIDFORMAT_END
 95
       32
302
GRIDFORMAT
  1
GRIDFORMAT_BEGIN
 90
        0
 91
        1
 62
     0
 92
       -2
340
0
 93
        0
 40
0.045
309
GRIDFORMAT_END
309
TABLEFORMAT_END
  1
CELLSTYLE_BEGIN
 90
        3
 91
        2
300
_DATA
309
CELLSTYLE_END
  0
XRECORD
  5
1364
102
{ACAD_REACTORS
330
962
102
}
330
962
100
AcDbXrecord
280
     1
102
ACAD_ROUNDTRIP_PRE2007_TABLESTYLE
 90
      512
 91
        0
  1

 92
      512
 93
        0
  2

 94
      512
 95
        0
  3

  0
XRECORD
  5
133F
102
{ACAD_REACTORS
330
133E
102
}
330
133E
100
AcDbXrecord
280
     1
102
RTVSPropertyOp0
 70
     1
102
RTVSPropertyOp1
 70
     1
102
RTVSPropertyOp2
 70
     1
102
RTVSPropertyOp3
 70
     1
102
RTVSPropertyOp4
 70
     1
102
RTVSPropertyOp5
 70
     1
102
RTVSPropertyOp6
 70
     1
102
RTVSPropertyOp7
 70
     1
102
RTVSPropertyOp8
 70
     1
102
RTVSPropertyOp9
 70
     1
102
RTVSPropertyOp10
 70
     1
102
RTVSPropertyOp11
 70
     1
102
RTVSPropertyOp12
 70
     1
102
RTVSPropertyOp13
 70
     1
102
RTVSPropertyOp14
 70
     1
102
RTVSPropertyOp15
 70
     1
102
RTVSPropertyOp16
 70
     1
102
RTVSPropertyOp17
 70
     1
102
RTVSPropertyOp18
 70
     1
102
RTVSPropertyOp19
 70
     1
102
RTVSPropertyOp20
 70
     1
102
RTVSPropertyOp21
 70
     1
102
RTVSPropertyOp22
 70
     1
102
RTVSPropertyOp23
 70
     1
102
RTVSPropertyOp24
 70
     1
102
RTVSPropertyOp25
 70
     1
102
RTVSPropertyOp26
 70
     1
102
RTVSPropertyOp27
 70
     1
102
RTVSPropertyOp28
 70
     1
102
RTVSPropertyOp29
 70
     1
102
RTVSPropertyOp30
 70
     1
102
RTVSPropertyOp31
 70
     1
102
RTVSPropertyOp32
 70
     1
  0
XRECORD
  5
133D
102
{ACAD_REACTORS
330
133C
102
}
330
133C
100
AcDbXrecord
280
     1
102
RTVSPropertyOp0
 70
     1
102
RTVSPropertyOp1
 70
     1
102
RTVSPropertyOp2
 70
     1
102
RTVSPropertyOp3
 70
     1
102
RTVSPropertyOp4
 70
     1
102
RTVSPropertyOp5
 70
     1
102
RTVSPropertyOp6
 70
     1
102
RTVSPropertyOp7
 70
     1
102
RTVSPropertyOp8
 70
     1
102
RTVSPropertyOp9
 70
     1
102
RTVSPropertyOp10
 70
     1
102
RTVSPropertyOp11
 70
     1
102
RTVSPropertyOp12
 70
     1
102
RTVSPropertyOp13
 70
     1
102
RTVSPropertyOp14
 70
     1
102
RTVSPropertyOp15
 70
     1
102
RTVSPropertyOp16
 70
     1
102
RTVSPropertyOp17
 70
     1
102
RTVSPropertyOp18
 70
     1
102
RTVSPropertyOp19
 70
     1
102
RTVSPropertyOp20
 70
     1
102
RTVSPropertyOp21
 70
     1
102
RTVSPropertyOp22
 70
     1
102
RTVSPropertyOp23
 70
     1
102
RTVSPropertyOp24
 70
     1
102
RTVSPropertyOp25
 70
     1
102
RTVSPropertyOp26
 70
     1
102
RTVSPropertyOp27
 70
     1
102
RTVSPropertyOp28
 70
     1
102
RTVSPropertyOp29
 70
     1
102
RTVSPropertyOp30
 70
     1
102
RTVSPropertyOp31
 70
     1
102
RTVSPropertyOp32
 70
     1
  0
XRECORD
  5
134B
102
{ACAD_REACTORS
330
134A
102
}
330
134A
100
AcDbXrecord
280
     1
102
RTVSPropertyOp0
 70
     1
102
RTVSPropertyOp1
 70
     1
102
RTVSPropertyOp2
 70
     1
102
RTVSPropertyOp3
 70
     1
102
RTVSPropertyOp4
 70
     1
102
RTVSPropertyOp5
 70
     1
102
RTVSPropertyOp6
 70
     1
102
RTVSPropertyOp7
 70
     1
102
RTVSPropertyOp8
 70
     1
102
RTVSPropertyOp9
 70
     1
102
RTVSPropertyOp10
 70
     1
102
RTVSPropertyOp11
 70
     1
102
RTVSPropertyOp12
 70
     1
102
RTVSPropertyOp13
 70
     1
102
RTVSPropertyOp14
 70
     1
102
RTVSPropertyOp15
 70
     1
102
RTVSPropertyOp16
 70
     1
102
RTVSPropertyOp17
 70
     1
102
RTVSPropertyOp18
 70
     1
102
RTVSPropertyOp19
 70
     1
102
RTVSPropertyOp20
 70
     1
102
RTVSPropertyOp21
 70
     1
102
RTVSPropertyOp22
 70
     1
102
RTVSPropertyOp23
 70
     1
102
RTVSPropertyOp24
 70
     1
102
RTVSPropertyOp25
 70
     1
102
RTVSPropertyOp26
 70
     1
102
RTVSPropertyOp27
 70
     1
102
RTVSPropertyOp28
 70
     1
102
RTVSPropertyOp29
 70
     1
102
RTVSPropertyOp30
 70
     1
102
RTVSPropertyOp31
 70
     1
102
RTVSPropertyOp32
 70
     1
  0
XRECORD
  5
1353
102
{ACAD_REACTORS
330
1352
102
}
330
1352
100
AcDbXrecord
280
     1
102
RTVSPropertyOp0
 70
     1
102
RTVSPropertyOp1
 70
     1
102
RTVSPropertyOp2
 70
     1
102
RTVSPropertyOp3
 70
     1
102
RTVSPropertyOp4
 70
     1
102
RTVSPropertyOp5
 70
     1
102
RTVSPropertyOp6
 70
     1
102
RTVSPropertyOp7
 70
     1
102
RTVSPropertyOp8
 70
     1
102
RTVSPropertyOp9
 70
     1
102
RTVSPropertyOp10
 70
     1
102
RTVSPropertyOp11
 70
     1
102
RTVSPropertyOp12
 70
     1
102
RTVSPropertyOp13
 70
     1
102
RTVSPropertyOp14
 70
     1
102
RTVSPropertyOp15
 70
     1
102
RTVSPropertyOp16
 70
     1
102
RTVSPropertyOp17
 70
     1
102
RTVSPropertyOp18
 70
     1
102
RTVSPropertyOp19
 70
     1
102
RTVSPropertyOp20
 70
     1
102
RTVSPropertyOp21
 70
     1
102
RTVSPropertyOp22
 70
     1
102
RTVSPropertyOp23
 70
     1
102
RTVSPropertyOp24
 70
     1
102
RTVSPropertyOp25
 70
     1
102
RTVSPropertyOp26
 70
     1
102
RTVSPropertyOp27
 70
     1
102
RTVSPropertyOp28
 70
     1
102
RTVSPropertyOp29
 70
     1
102
RTVSPropertyOp30
 70
     1
102
RTVSPropertyOp31
 70
     1
102
RTVSPropertyOp32
 70
     1
  0
XRECORD
  5
1345
102
{ACAD_REACTORS
330
1344
102
}
330
1344
100
AcDbXrecord
280
     1
102
RTVSPropertyOp0
 70
     1
102
RTVSPropertyOp1
 70
     1
102
RTVSPropertyOp2
 70
     1
102
RTVSPropertyOp3
 70
     1
102
RTVSPropertyOp4
 70
     1
102
RTVSPropertyOp5
 70
     1
102
RTVSPropertyOp6
 70
     1
102
RTVSPropertyOp7
 70
     1
102
RTVSPropertyOp8
 70
     1
102
RTVSPropertyOp9
 70
     1
102
RTVSPropertyOp10
 70
     1
102
RTVSPropertyOp11
 70
     1
102
RTVSPropertyOp12
 70
     1
102
RTVSPropertyOp13
 70
     1
102
RTVSPropertyOp14
 70
     1
102
RTVSPropertyOp15
 70
     1
102
RTVSPropertyOp16
 70
     1
102
RTVSPropertyOp17
 70
     1
102
RTVSPropertyOp18
 70
     1
102
RTVSPropertyOp19
 70
     1
102
RTVSPropertyOp20
 70
     1
102
RTVSPropertyOp21
 70
     1
102
RTVSPropertyOp22
 70
     1
102
RTVSPropertyOp23
 70
     1
102
RTVSPropertyOp24
 70
     1
102
RTVSPropertyOp25
 70
     1
102
RTVSPropertyOp26
 70
     1
102
RTVSPropertyOp27
 70
     1
102
RTVSPropertyOp28
 70
     1
102
RTVSPropertyOp29
 70
     1
102
RTVSPropertyOp30
 70
     1
102
RTVSPropertyOp31
 70
     1
102
RTVSPropertyOp32
 70
     1
  0
XRECORD
  5
1349
102
{ACAD_REACTORS
330
1348
102
}
330
1348
100
AcDbXrecord
280
     1
102
RTVSPropertyOp0
 70
     1
102
RTVSPropertyOp1
 70
     1
102
RTVSPropertyOp2
 70
     1
102
RTVSPropertyOp3
 70
     1
102
RTVSPropertyOp4
 70
     1
102
RTVSPropertyOp5
 70
     1
102
RTVSPropertyOp6
 70
     1
102
RTVSPropertyOp7
 70
     1
102
RTVSPropertyOp8
 70
     1
102
RTVSPropertyOp9
 70
     1
102
RTVSPropertyOp10
 70
     1
102
RTVSPropertyOp11
 70
     1
102
RTVSPropertyOp12
 70
     1
102
RTVSPropertyOp13
 70
     1
102
RTVSPropertyOp14
 70
     1
102
RTVSPropertyOp15
 70
     1
102
RTVSPropertyOp16
 70
     1
102
RTVSPropertyOp17
 70
     1
102
RTVSPropertyOp18
 70
     1
102
RTVSPropertyOp19
 70
     1
102
RTVSPropertyOp20
 70
     1
102
RTVSPropertyOp21
 70
     1
102
RTVSPropertyOp22
 70
     1
102
RTVSPropertyOp23
 70
     1
102
RTVSPropertyOp24
 70
     1
102
RTVSPropertyOp25
 70
     1
102
RTVSPropertyOp26
 70
     1
102
RTVSPropertyOp27
 70
     1
102
RTVSPropertyOp28
 70
     1
102
RTVSPropertyOp29
 70
     1
102
RTVSPropertyOp30
 70
     1
102
RTVSPropertyOp31
 70
     1
102
RTVSPropertyOp32
 70
     1
  0
XRECORD
  5
1363
102
{ACAD_REACTORS
330
1362
102
}
330
1362
100
AcDbXrecord
280
     1
102
RTVSPropertyOp0
 70
     0
102
RTVSPropertyOp1
 70
     0
102
RTVSPropertyOp2
 70
     0
102
RTVSPropertyOp3
 70
     0
102
RTVSPropertyOp4
 70
     0
102
RTVSPropertyOp5
 70
     0
102
RTVSPropertyOp6
 70
     0
102
RTVSPropertyOp7
 70
     0
102
RTVSPropertyOp8
 70
     0
102
RTVSPropertyOp9
 70
     0
102
RTVSPropertyOp10
 70
     0
102
RTVSPropertyOp11
 70
     0
102
RTVSPropertyOp12
 70
     0
102
RTVSPropertyOp13
 70
     0
102
RTVSPropertyOp14
 70
     2
102
RTVSPropertyOp15
 70
     0
102
RTVSPropertyOp16
 70
     0
102
RTVSPropertyOp17
 70
     0
102
RTVSPropertyOp18
 70
     0
102
RTVSPropertyOp19
 70
     0
102
RTVSPropertyOp20
 70
     0
102
RTVSPropertyOp21
 70
     0
102
RTVSPropertyOp22
 70
     0
102
RTVSPropertyOp23
 70
     0
102
RTVSPropertyOp24
 70
     0
102
RTVSPropertyOp25
 70
     0
102
RTVSPropertyOp26
 70
     0
102
RTVSPropertyOp27
 70
     0
102
RTVSPropertyOp28
 70
     0
102
RTVSPropertyOp29
 70
     0
102
RTVSPropertyOp30
 70
     0
102
RTVSPropertyOp31
 70
     0
102
RTVSPropertyOp32
 70
     0
  0
XRECORD
  5
1351
102
{ACAD_REACTORS
330
1350
102
}
330
1350
100
AcDbXrecord
280
     1
102
RTVSPropertyOp0
 70
     1
102
RTVSPropertyOp1
 70
     1
102
RTVSPropertyOp2
 70
     1
102
RTVSPropertyOp3
 70
     1
102
RTVSPropertyOp4
 70
     1
102
RTVSPropertyOp5
 70
     1
102
RTVSPropertyOp6
 70
     1
102
RTVSPropertyOp7
 70
     1
102
RTVSPropertyOp8
 70
     1
102
RTVSPropertyOp9
 70
     1
102
RTVSPropertyOp10
 70
     1
102
RTVSPropertyOp11
 70
     1
102
RTVSPropertyOp12
 70
     1
102
RTVSPropertyOp13
 70
     1
102
RTVSPropertyOp14
 70
     1
102
RTVSPropertyOp15
 70
     1
102
RTVSPropertyOp16
 70
     1
102
RTVSPropertyOp17
 70
     1
102
RTVSPropertyOp18
 70
     1
102
RTVSPropertyOp19
 70
     1
102
RTVSPropertyOp20
 70
     1
102
RTVSPropertyOp21
 70
     1
102
RTVSPropertyOp22
 70
     1
102
RTVSPropertyOp23
 70
     1
102
RTVSPropertyOp24
 70
     1
102
RTVSPropertyOp25
 70
     1
102
RTVSPropertyOp26
 70
     1
102
RTVSPropertyOp27
 70
     1
102
RTVSPropertyOp28
 70
     1
102
RTVSPropertyOp29
 70
     1
102
RTVSPropertyOp30
 70
     1
102
RTVSPropertyOp31
 70
     1
102
RTVSPropertyOp32
 70
     1
  0
XRECORD
  5
1335
102
{ACAD_REACTORS
330
1334
102
}
330
1334
100
AcDbXrecord
280
     1
102
RTVSPropertyOp0
 70
     1
102
RTVSPropertyOp1
 70
     1
102
RTVSPropertyOp2
 70
     1
102
RTVSPropertyOp3
 70
     1
102
RTVSPropertyOp4
 70
     1
102
RTVSPropertyOp5
 70
     1
102
RTVSPropertyOp6
 70
     1
102
RTVSPropertyOp7
 70
     1
102
RTVSPropertyOp8
 70
     1
102
RTVSPropertyOp9
 70
     1
102
RTVSPropertyOp10
 70
     1
102
RTVSPropertyOp11
 70
     1
102
RTVSPropertyOp12
 70
     1
102
RTVSPropertyOp13
 70
     1
102
RTVSPropertyOp14
 70
     1
102
RTVSPropertyOp15
 70
     1
102
RTVSPropertyOp16
 70
     1
102
RTVSPropertyOp17
 70
     1
102
RTVSPropertyOp18
 70
     1
102
RTVSPropertyOp19
 70
     1
102
RTVSPropertyOp20
 70
     1
102
RTVSPropertyOp21
 70
     1
102
RTVSPropertyOp22
 70
     1
102
RTVSPropertyOp23
 70
     1
102
RTVSPropertyOp24
 70
     1
102
RTVSPropertyOp25
 70
     1
102
RTVSPropertyOp26
 70
     1
102
RTVSPropertyOp27
 70
     1
102
RTVSPropertyOp28
 70
     1
102
RTVSPropertyOp29
 70
     1
102
RTVSPropertyOp30
 70
     1
102
RTVSPropertyOp31
 70
     1
102
RTVSPropertyOp32
 70
     1
  0
XRECORD
  5
1337
102
{ACAD_REACTORS
330
1336
102
}
330
1336
100
AcDbXrecord
280
     1
102
RTVSPropertyOp0
 70
     1
102
RTVSPropertyOp1
 70
     1
102
RTVSPropertyOp2
 70
     1
102
RTVSPropertyOp3
 70
     1
102
RTVSPropertyOp4
 70
     1
102
RTVSPropertyOp5
 70
     1
102
RTVSPropertyOp6
 70
     1
102
RTVSPropertyOp7
 70
     1
102
RTVSPropertyOp8
 70
     1
102
RTVSPropertyOp9
 70
     1
102
RTVSPropertyOp10
 70
     1
102
RTVSPropertyOp11
 70
     1
102
RTVSPropertyOp12
 70
     1
102
RTVSPropertyOp13
 70
     1
102
RTVSPropertyOp14
 70
     1
102
RTVSPropertyOp15
 70
     1
102
RTVSPropertyOp16
 70
     1
102
RTVSPropertyOp17
 70
     1
102
RTVSPropertyOp18
 70
     1
102
RTVSPropertyOp19
 70
     1
102
RTVSPropertyOp20
 70
     1
102
RTVSPropertyOp21
 70
     1
102
RTVSPropertyOp22
 70
     1
102
RTVSPropertyOp23
 70
     1
102
RTVSPropertyOp24
 70
     1
102
RTVSPropertyOp25
 70
     1
102
RTVSPropertyOp26
 70
     1
102
RTVSPropertyOp27
 70
     1
102
RTVSPropertyOp28
 70
     1
102
RTVSPropertyOp29
 70
     1
102
RTVSPropertyOp30
 70
     1
102
RTVSPropertyOp31
 70
     1
102
RTVSPropertyOp32
 70
     1
  0
XRECORD
  5
1339
102
{ACAD_REACTORS
330
1338
102
}
330
1338
100
AcDbXrecord
280
     1
102
RTVSPropertyOp0
 70
     1
102
RTVSPropertyOp1
 70
     1
102
RTVSPropertyOp2
 70
     1
102
RTVSPropertyOp3
 70
     1
102
RTVSPropertyOp4
 70
     1
102
RTVSPropertyOp5
 70
     1
102
RTVSPropertyOp6
 70
     1
102
RTVSPropertyOp7
 70
     1
102
RTVSPropertyOp8
 70
     1
102
RTVSPropertyOp9
 70
     1
102
RTVSPropertyOp10
 70
     1
102
RTVSPropertyOp11
 70
     1
102
RTVSPropertyOp12
 70
     1
102
RTVSPropertyOp13
 70
     1
102
RTVSPropertyOp14
 70
     1
102
RTVSPropertyOp15
 70
     1
102
RTVSPropertyOp16
 70
     1
102
RTVSPropertyOp17
 70
     1
102
RTVSPropertyOp18
 70
     1
102
RTVSPropertyOp19
 70
     1
102
RTVSPropertyOp20
 70
     1
102
RTVSPropertyOp21
 70
     1
102
RTVSPropertyOp22
 70
     1
102
RTVSPropertyOp23
 70
     1
102
RTVSPropertyOp24
 70
     1
102
RTVSPropertyOp25
 70
     1
102
RTVSPropertyOp26
 70
     1
102
RTVSPropertyOp27
 70
     1
102
RTVSPropertyOp28
 70
     1
102
RTVSPropertyOp29
 70
     1
102
RTVSPropertyOp30
 70
     1
102
RTVSPropertyOp31
 70
     1
102
RTVSPropertyOp32
 70
     1
  0
XRECORD
  5
133B
102
{ACAD_REACTORS
330
133A
102
}
330
133A
100
AcDbXrecord
280
     1
102
RTVSPropertyOp0
 70
     1
102
RTVSPropertyOp1
 70
     1
102
RTVSPropertyOp2
 70
     1
102
RTVSPropertyOp3
 70
     1
102
RTVSPropertyOp4
 70
     1
102
RTVSPropertyOp5
 70
     1
102
RTVSPropertyOp6
 70
     1
102
RTVSPropertyOp7
 70
     1
102
RTVSPropertyOp8
 70
     1
102
RTVSPropertyOp9
 70
     1
102
RTVSPropertyOp10
 70
     1
102
RTVSPropertyOp11
 70
     1
102
RTVSPropertyOp12
 70
     1
102
RTVSPropertyOp13
 70
     1
102
RTVSPropertyOp14
 70
     1
102
RTVSPropertyOp15
 70
     1
102
RTVSPropertyOp16
 70
     1
102
RTVSPropertyOp17
 70
     1
102
RTVSPropertyOp18
 70
     1
102
RTVSPropertyOp19
 70
     1
102
RTVSPropertyOp20
 70
     1
102
RTVSPropertyOp21
 70
     1
102
RTVSPropertyOp22
 70
     1
102
RTVSPropertyOp23
 70
     1
102
RTVSPropertyOp24
 70
     1
102
RTVSPropertyOp25
 70
     1
102
RTVSPropertyOp26
 70
     1
102
RTVSPropertyOp27
 70
     1
102
RTVSPropertyOp28
 70
     1
102
RTVSPropertyOp29
 70
     1
102
RTVSPropertyOp30
 70
     1
102
RTVSPropertyOp31
 70
     1
102
RTVSPropertyOp32
 70
     1
  0
XRECORD
  5
1343
102
{ACAD_REACTORS
330
1342
102
}
330
1342
100
AcDbXrecord
280
     1
102
RTVSPropertyOp0
 70
     1
102
RTVSPropertyOp1
 70
     1
102
RTVSPropertyOp2
 70
     1
102
RTVSPropertyOp3
 70
     1
102
RTVSPropertyOp4
 70
     1
102
RTVSPropertyOp5
 70
     1
102
RTVSPropertyOp6
 70
     1
102
RTVSPropertyOp7
 70
     1
102
RTVSPropertyOp8
 70
     1
102
RTVSPropertyOp9
 70
     1
102
RTVSPropertyOp10
 70
     1
102
RTVSPropertyOp11
 70
     1
102
RTVSPropertyOp12
 70
     1
102
RTVSPropertyOp13
 70
     1
102
RTVSPropertyOp14
 70
     1
102
RTVSPropertyOp15
 70
     1
102
RTVSPropertyOp16
 70
     1
102
RTVSPropertyOp17
 70
     1
102
RTVSPropertyOp18
 70
     1
102
RTVSPropertyOp19
 70
     1
102
RTVSPropertyOp20
 70
     1
102
RTVSPropertyOp21
 70
     1
102
RTVSPropertyOp22
 70
     1
102
RTVSPropertyOp23
 70
     1
102
RTVSPropertyOp24
 70
     1
102
RTVSPropertyOp25
 70
     1
102
RTVSPropertyOp26
 70
     1
102
RTVSPropertyOp27
 70
     1
102
RTVSPropertyOp28
 70
     1
102
RTVSPropertyOp29
 70
     1
102
RTVSPropertyOp30
 70
     1
102
RTVSPropertyOp31
 70
     1
102
RTVSPropertyOp32
 70
     1
  0
XRECORD
  5
135F
102
{ACAD_REACTORS
330
135E
102
}
330
135E
100
AcDbXrecord
280
     1
102
RTVSPropertyOp0
 70
     0
102
RTVSPropertyOp1
 70
     0
102
RTVSPropertyOp2
 70
     0
102
RTVSPropertyOp3
 70
     0
102
RTVSPropertyOp4
 70
     0
102
RTVSPropertyOp5
 70
     0
102
RTVSPropertyOp6
 70
     0
102
RTVSPropertyOp7
 70
     0
102
RTVSPropertyOp8
 70
     0
102
RTVSPropertyOp9
 70
     0
102
RTVSPropertyOp10
 70
     0
102
RTVSPropertyOp11
 70
     0
102
RTVSPropertyOp12
 70
     0
102
RTVSPropertyOp13
 70
     0
102
RTVSPropertyOp14
 70
     2
102
RTVSPropertyOp15
 70
     0
102
RTVSPropertyOp16
 70
     0
102
RTVSPropertyOp17
 70
     0
102
RTVSPropertyOp18
 70
     0
102
RTVSPropertyOp19
 70
     0
102
RTVSPropertyOp20
 70
     0
102
RTVSPropertyOp21
 70
     0
102
RTVSPropertyOp22
 70
     0
102
RTVSPropertyOp23
 70
     0
102
RTVSPropertyOp24
 70
     0
102
RTVSPropertyOp25
 70
     0
102
RTVSPropertyOp26
 70
     0
102
RTVSPropertyOp27
 70
     0
102
RTVSPropertyOp28
 70
     0
102
RTVSPropertyOp29
 70
     0
102
RTVSPropertyOp30
 70
     0
102
RTVSPropertyOp31
 70
     0
102
RTVSPropertyOp32
 70
     0
  0
XRECORD
  5
134F
102
{ACAD_REACTORS
330
134E
102
}
330
134E
100
AcDbXrecord
280
     1
102
RTVSPropertyOp0
 70
     1
102
RTVSPropertyOp1
 70
     1
102
RTVSPropertyOp2
 70
     1
102
RTVSPropertyOp3
 70
     1
102
RTVSPropertyOp4
 70
     1
102
RTVSPropertyOp5
 70
     1
102
RTVSPropertyOp6
 70
     1
102
RTVSPropertyOp7
 70
     1
102
RTVSPropertyOp8
 70
     1
102
RTVSPropertyOp9
 70
     1
102
RTVSPropertyOp10
 70
     1
102
RTVSPropertyOp11
 70
     1
102
RTVSPropertyOp12
 70
     1
102
RTVSPropertyOp13
 70
     1
102
RTVSPropertyOp14
 70
     1
102
RTVSPropertyOp15
 70
     1
102
RTVSPropertyOp16
 70
     1
102
RTVSPropertyOp17
 70
     1
102
RTVSPropertyOp18
 70
     1
102
RTVSPropertyOp19
 70
     1
102
RTVSPropertyOp20
 70
     1
102
RTVSPropertyOp21
 70
     1
102
RTVSPropertyOp22
 70
     1
102
RTVSPropertyOp23
 70
     1
102
RTVSPropertyOp24
 70
     1
102
RTVSPropertyOp25
 70
     1
102
RTVSPropertyOp26
 70
     1
102
RTVSPropertyOp27
 70
     1
102
RTVSPropertyOp28
 70
     1
102
RTVSPropertyOp29
 70
     1
102
RTVSPropertyOp30
 70
     1
102
RTVSPropertyOp31
 70
     1
102
RTVSPropertyOp32
 70
     1
  0
XRECORD
  5
1361
102
{ACAD_REACTORS
330
1360
102
}
330
1360
100
AcDbXrecord
280
     1
102
RTVSPropertyOp0
 70
     0
102
RTVSPropertyOp1
 70
     0
102
RTVSPropertyOp2
 70
     0
102
RTVSPropertyOp3
 70
     0
102
RTVSPropertyOp4
 70
     0
102
RTVSPropertyOp5
 70
     0
102
RTVSPropertyOp6
 70
     0
102
RTVSPropertyOp7
 70
     0
102
RTVSPropertyOp8
 70
     0
102
RTVSPropertyOp9
 70
     0
102
RTVSPropertyOp10
 70
     0
102
RTVSPropertyOp11
 70
     0
102
RTVSPropertyOp12
 70
     0
102
RTVSPropertyOp13
 70
     0
102
RTVSPropertyOp14
 70
     2
102
RTVSPropertyOp15
 70
     0
102
RTVSPropertyOp16
 70
     0
102
RTVSPropertyOp17
 70
     0
102
RTVSPropertyOp18
 70
     0
102
RTVSPropertyOp19
 70
     0
102
RTVSPropertyOp20
 70
     0
102
RTVSPropertyOp21
 70
     0
102
RTVSPropertyOp22
 70
     0
102
RTVSPropertyOp23
 70
     0
102
RTVSPropertyOp24
 70
     0
102
RTVSPropertyOp25
 70
     0
102
RTVSPropertyOp26
 70
     0
102
RTVSPropertyOp27
 70
     0
102
RTVSPropertyOp28
 70
     0
102
RTVSPropertyOp29
 70
     0
102
RTVSPropertyOp30
 70
     0
102
RTVSPropertyOp31
 70
     0
102
RTVSPropertyOp32
 70
     0
  0
XRECORD
  5
1347
102
{ACAD_REACTORS
330
1346
102
}
330
1346
100
AcDbXrecord
280
     1
102
RTVSPropertyOp0
 70
     1
102
RTVSPropertyOp1
 70
     1
102
RTVSPropertyOp2
 70
     1
102
RTVSPropertyOp3
 70
     1
102
RTVSPropertyOp4
 70
     1
102
RTVSPropertyOp5
 70
     1
102
RTVSPropertyOp6
 70
     1
102
RTVSPropertyOp7
 70
     1
102
RTVSPropertyOp8
 70
     1
102
RTVSPropertyOp9
 70
     1
102
RTVSPropertyOp10
 70
     1
102
RTVSPropertyOp11
 70
     1
102
RTVSPropertyOp12
 70
     1
102
RTVSPropertyOp13
 70
     1
102
RTVSPropertyOp14
 70
     1
102
RTVSPropertyOp15
 70
     1
102
RTVSPropertyOp16
 70
     1
102
RTVSPropertyOp17
 70
     1
102
RTVSPropertyOp18
 70
     1
102
RTVSPropertyOp19
 70
     1
102
RTVSPropertyOp20
 70
     1
102
RTVSPropertyOp21
 70
     1
102
RTVSPropertyOp22
 70
     1
102
RTVSPropertyOp23
 70
     1
102
RTVSPropertyOp24
 70
     1
102
RTVSPropertyOp25
 70
     1
102
RTVSPropertyOp26
 70
     1
102
RTVSPropertyOp27
 70
     1
102
RTVSPropertyOp28
 70
     1
102
RTVSPropertyOp29
 70
     1
102
RTVSPropertyOp30
 70
     1
102
RTVSPropertyOp31
 70
     1
102
RTVSPropertyOp32
 70
     1
  0
XRECORD
  5
135D
102
{ACAD_REACTORS
330
135C
102
}
330
135C
100
AcDbXrecord
280
     1
102
RTVSPropertyOp0
 70
     1
102
RTVSPropertyOp1
 70
     1
102
RTVSPropertyOp2
 70
     1
102
RTVSPropertyOp3
 70
     1
102
RTVSPropertyOp4
 70
     1
102
RTVSPropertyOp5
 70
     1
102
RTVSPropertyOp6
 70
     1
102
RTVSPropertyOp7
 70
     1
102
RTVSPropertyOp8
 70
     1
102
RTVSPropertyOp9
 70
     1
102
RTVSPropertyOp10
 70
     1
102
RTVSPropertyOp11
 70
     1
102
RTVSPropertyOp12
 70
     1
102
RTVSPropertyOp13
 70
     1
102
RTVSPropertyOp14
 70
     1
102
RTVSPropertyOp15
 70
     1
102
RTVSPropertyOp16
 70
     1
102
RTVSPropertyOp17
 70
     1
102
RTVSPropertyOp18
 70
     1
102
RTVSPropertyOp19
 70
     1
102
RTVSPropertyOp20
 70
     1
102
RTVSPropertyOp21
 70
     1
102
RTVSPropertyOp22
 70
     1
102
RTVSPropertyOp23
 70
     1
102
RTVSPropertyOp24
 70
     1
102
RTVSPropertyOp25
 70
     1
102
RTVSPropertyOp26
 70
     1
102
RTVSPropertyOp27
 70
     1
102
RTVSPropertyOp28
 70
     1
102
RTVSPropertyOp29
 70
     1
102
RTVSPropertyOp30
 70
     1
102
RTVSPropertyOp31
 70
     1
102
RTVSPropertyOp32
 70
     1
  0
XRECORD
  5
135B
102
{ACAD_REACTORS
330
135A
102
}
330
135A
100
AcDbXrecord
280
     1
102
RTVSPropertyOp0
 70
     1
102
RTVSPropertyOp1
 70
     1
102
RTVSPropertyOp2
 70
     1
102
RTVSPropertyOp3
 70
     1
102
RTVSPropertyOp4
 70
     1
102
RTVSPropertyOp5
 70
     1
102
RTVSPropertyOp6
 70
     1
102
RTVSPropertyOp7
 70
     1
102
RTVSPropertyOp8
 70
     1
102
RTVSPropertyOp9
 70
     1
102
RTVSPropertyOp10
 70
     1
102
RTVSPropertyOp11
 70
     1
102
RTVSPropertyOp12
 70
     1
102
RTVSPropertyOp13
 70
     1
102
RTVSPropertyOp14
 70
     1
102
RTVSPropertyOp15
 70
     1
102
RTVSPropertyOp16
 70
     1
102
RTVSPropertyOp17
 70
     1
102
RTVSPropertyOp18
 70
     1
102
RTVSPropertyOp19
 70
     1
102
RTVSPropertyOp20
 70
     1
102
RTVSPropertyOp21
 70
     1
102
RTVSPropertyOp22
 70
     1
102
RTVSPropertyOp23
 70
     1
102
RTVSPropertyOp24
 70
     1
102
RTVSPropertyOp25
 70
     1
102
RTVSPropertyOp26
 70
     1
102
RTVSPropertyOp27
 70
     1
102
RTVSPropertyOp28
 70
     1
102
RTVSPropertyOp29
 70
     1
102
RTVSPropertyOp30
 70
     1
102
RTVSPropertyOp31
 70
     1
102
RTVSPropertyOp32
 70
     1
  0
XRECORD
  5
1355
102
{ACAD_REACTORS
330
1354
102
}
330
1354
100
AcDbXrecord
280
     1
102
RTVSPropertyOp0
 70
     1
102
RTVSPropertyOp1
 70
     1
102
RTVSPropertyOp2
 70
     1
102
RTVSPropertyOp3
 70
     1
102
RTVSPropertyOp4
 70
     1
102
RTVSPropertyOp5
 70
     1
102
RTVSPropertyOp6
 70
     1
102
RTVSPropertyOp7
 70
     1
102
RTVSPropertyOp8
 70
     1
102
RTVSPropertyOp9
 70
     1
102
RTVSPropertyOp10
 70
     1
102
RTVSPropertyOp11
 70
     1
102
RTVSPropertyOp12
 70
     1
102
RTVSPropertyOp13
 70
     1
102
RTVSPropertyOp14
 70
     1
102
RTVSPropertyOp15
 70
     1
102
RTVSPropertyOp16
 70
     1
102
RTVSPropertyOp17
 70
     1
102
RTVSPropertyOp18
 70
     1
102
RTVSPropertyOp19
 70
     1
102
RTVSPropertyOp20
 70
     1
102
RTVSPropertyOp21
 70
     1
102
RTVSPropertyOp22
 70
     1
102
RTVSPropertyOp23
 70
     1
102
RTVSPropertyOp24
 70
     1
102
RTVSPropertyOp25
 70
     1
102
RTVSPropertyOp26
 70
     1
102
RTVSPropertyOp27
 70
     1
102
RTVSPropertyOp28
 70
     1
102
RTVSPropertyOp29
 70
     1
102
RTVSPropertyOp30
 70
     1
102
RTVSPropertyOp31
 70
     1
102
RTVSPropertyOp32
 70
     1
  0
XRECORD
  5
1357
102
{ACAD_REACTORS
330
1356
102
}
330
1356
100
AcDbXrecord
280
     1
102
RTVSPropertyOp0
 70
     1
102
RTVSPropertyOp1
 70
     1
102
RTVSPropertyOp2
 70
     1
102
RTVSPropertyOp3
 70
     1
102
RTVSPropertyOp4
 70
     1
102
RTVSPropertyOp5
 70
     1
102
RTVSPropertyOp6
 70
     1
102
RTVSPropertyOp7
 70
     1
102
RTVSPropertyOp8
 70
     1
102
RTVSPropertyOp9
 70
     1
102
RTVSPropertyOp10
 70
     1
102
RTVSPropertyOp11
 70
     1
102
RTVSPropertyOp12
 70
     1
102
RTVSPropertyOp13
 70
     1
102
RTVSPropertyOp14
 70
     1
102
RTVSPropertyOp15
 70
     1
102
RTVSPropertyOp16
 70
     1
102
RTVSPropertyOp17
 70
     1
102
RTVSPropertyOp18
 70
     1
102
RTVSPropertyOp19
 70
     1
102
RTVSPropertyOp20
 70
     1
102
RTVSPropertyOp21
 70
     1
102
RTVSPropertyOp22
 70
     1
102
RTVSPropertyOp23
 70
     1
102
RTVSPropertyOp24
 70
     1
102
RTVSPropertyOp25
 70
     1
102
RTVSPropertyOp26
 70
     1
102
RTVSPropertyOp27
 70
     1
102
RTVSPropertyOp28
 70
     1
102
RTVSPropertyOp29
 70
     1
102
RTVSPropertyOp30
 70
     1
102
RTVSPropertyOp31
 70
     1
102
RTVSPropertyOp32
 70
     1
  0
XRECORD
  5
134D
102
{ACAD_REACTORS
330
134C
102
}
330
134C
100
AcDbXrecord
280
     1
102
RTVSPropertyOp0
 70
     1
102
RTVSPropertyOp1
 70
     1
102
RTVSPropertyOp2
 70
     1
102
RTVSPropertyOp3
 70
     1
102
RTVSPropertyOp4
 70
     1
102
RTVSPropertyOp5
 70
     1
102
RTVSPropertyOp6
 70
     1
102
RTVSPropertyOp7
 70
     1
102
RTVSPropertyOp8
 70
     1
102
RTVSPropertyOp9
 70
     1
102
RTVSPropertyOp10
 70
     1
102
RTVSPropertyOp11
 70
     1
102
RTVSPropertyOp12
 70
     1
102
RTVSPropertyOp13
 70
     1
102
RTVSPropertyOp14
 70
     1
102
RTVSPropertyOp15
 70
     1
102
RTVSPropertyOp16
 70
     1
102
RTVSPropertyOp17
 70
     1
102
RTVSPropertyOp18
 70
     1
102
RTVSPropertyOp19
 70
     1
102
RTVSPropertyOp20
 70
     1
102
RTVSPropertyOp21
 70
     1
102
RTVSPropertyOp22
 70
     1
102
RTVSPropertyOp23
 70
     1
102
RTVSPropertyOp24
 70
     1
102
RTVSPropertyOp25
 70
     1
102
RTVSPropertyOp26
 70
     1
102
RTVSPropertyOp27
 70
     1
102
RTVSPropertyOp28
 70
     1
102
RTVSPropertyOp29
 70
     1
102
RTVSPropertyOp30
 70
     1
102
RTVSPropertyOp31
 70
     1
102
RTVSPropertyOp32
 70
     1
  0
XRECORD
  5
1341
102
{ACAD_REACTORS
330
1340
102
}
330
1340
100
AcDbXrecord
280
     1
102
RTVSPropertyOp0
 70
     1
102
RTVSPropertyOp1
 70
     1
102
RTVSPropertyOp2
 70
     1
102
RTVSPropertyOp3
 70
     1
102
RTVSPropertyOp4
 70
     1
102
RTVSPropertyOp5
 70
     1
102
RTVSPropertyOp6
 70
     1
102
RTVSPropertyOp7
 70
     1
102
RTVSPropertyOp8
 70
     1
102
RTVSPropertyOp9
 70
     1
102
RTVSPropertyOp10
 70
     1
102
RTVSPropertyOp11
 70
     1
102
RTVSPropertyOp12
 70
     1
102
RTVSPropertyOp13
 70
     1
102
RTVSPropertyOp14
 70
     1
102
RTVSPropertyOp15
 70
     1
102
RTVSPropertyOp16
 70
     1
102
RTVSPropertyOp17
 70
     1
102
RTVSPropertyOp18
 70
     1
102
RTVSPropertyOp19
 70
     1
102
RTVSPropertyOp20
 70
     1
102
RTVSPropertyOp21
 70
     1
102
RTVSPropertyOp22
 70
     1
102
RTVSPropertyOp23
 70
     1
102
RTVSPropertyOp24
 70
     1
102
RTVSPropertyOp25
 70
     1
102
RTVSPropertyOp26
 70
     1
102
RTVSPropertyOp27
 70
     1
102
RTVSPropertyOp28
 70
     1
102
RTVSPropertyOp29
 70
     1
102
RTVSPropertyOp30
 70
     1
102
RTVSPropertyOp31
 70
     1
102
RTVSPropertyOp32
 70
     1
  0
XRECORD
  5
1359
102
{ACAD_REACTORS
330
1358
102
}
330
1358
100
AcDbXrecord
280
     1
102
RTVSPropertyOp0
 70
     1
102
RTVSPropertyOp1
 70
     1
102
RTVSPropertyOp2
 70
     1
102
RTVSPropertyOp3
 70
     1
102
RTVSPropertyOp4
 70
     1
102
RTVSPropertyOp5
 70
     1
102
RTVSPropertyOp6
 70
     1
102
RTVSPropertyOp7
 70
     1
102
RTVSPropertyOp8
 70
     1
102
RTVSPropertyOp9
 70
     1
102
RTVSPropertyOp10
 70
     1
102
RTVSPropertyOp11
 70
     1
102
RTVSPropertyOp12
 70
     1
102
RTVSPropertyOp13
 70
     1
102
RTVSPropertyOp14
 70
     1
102
RTVSPropertyOp15
 70
     1
102
RTVSPropertyOp16
 70
     1
102
RTVSPropertyOp17
 70
     1
102
RTVSPropertyOp18
 70
     1
102
RTVSPropertyOp19
 70
     1
102
RTVSPropertyOp20
 70
     1
102
RTVSPropertyOp21
 70
     1
102
RTVSPropertyOp22
 70
     1
102
RTVSPropertyOp23
 70
     1
102
RTVSPropertyOp24
 70
     1
102
RTVSPropertyOp25
 70
     1
102
RTVSPropertyOp26
 70
     1
102
RTVSPropertyOp27
 70
     1
102
RTVSPropertyOp28
 70
     1
102
RTVSPropertyOp29
 70
     1
102
RTVSPropertyOp30
 70
     1
102
RTVSPropertyOp31
 70
     1
102
RTVSPropertyOp32
 70
     1
  0
ENDSEC
  0
EOF
