  0
SECTION
  2
HEADER
  9
$ACADVER
  1
AC1015
  9
$ACADMAINTVER
 70
    20
  9
$DWGCODEPAGE
  3
ANSI_932
  9
$INSBASE
 10
0.0
 20
0.0
 30
0.0
  9
$EXTMIN
 10
-680.4056032388018
 20
-182.1561734070976
 30
0.0
  9
$EXTMAX
 10
197.0269853910172
 20
151.7803815981852
 30
0.0
  9
$LIMMIN
 10
-233.474999
 20
-131.992165
  9
$LIMMAX
 10
171.549996
 20
145.031426
  9
$ORTHOMODE
 70
     1
  9
$REGENMODE
 70
     1
  9
$FILLMODE
 70
     1
  9
$QTEXTMODE
 70
     0
  9
$MIRRTEXT
 70
     0
  9
$LTSCALE
 40
6.750383
  9
$ATTMODE
 70
     1
  9
$TEXTSIZE
 40
3.2
  9
$TRACEWID
 40
0.05
  9
$TEXTSTYLE
  7
高3.2
  9
$CLAYER
  8
0
  9
$CELTYPE
  6
ByLayer
  9
$CECOLOR
 62
   256
  9
$CELTSCALE
 40
1.0
  9
$DISPSILH
 70
     0
  9
$DIMSCALE
 40
1.0
  9
$DIMASZ
 40
2.5
  9
$DIMEXO
 40
0.25
  9
$DIMDLI
 40
0.2
  9
$DIMRND
 40
0.0
  9
$DIMDLE
 40
0.0
  9
$DIMEXE
 40
1.25
  9
$DIMTP
 40
0.0
  9
$DIMTM
 40
0.0
  9
$DIMTXT
 40
3.0
  9
$DIMCEN
 40
0.0
  9
$DIMTSZ
 40
0.0
  9
$DIMTOL
 70
     0
  9
$DIMLIM
 70
     0
  9
$DIMTIH
 70
     0
  9
$DIMTOH
 70
     0
  9
$DIMSE1
 70
     0
  9
$DIMSE2
 70
     0
  9
$DIMTAD
 70
     3
  9
$DIMZIN
 70
     8
  9
$DIMBLK
  1
Open30
  9
$DIMASO
 70
     1
  9
$DIMSHO
 70
     1
  9
$DIMPOST
  1

  9
$DIMAPOST
  1

  9
$DIMALT
 70
     0
  9
$DIMALTD
 70
     3
  9
$DIMALTF
 40
0.03937007874016
  9
$DIMLFAC
 40
1.0
  9
$DIMTOFL
 70
     1
  9
$DIMTVP
 40
0.0
  9
$DIMTIX
 70
     0
  9
$DIMSOXD
 70
     0
  9
$DIMSAH
 70
     0
  9
$DIMBLK1
  1

  9
$DIMBLK2
  1

  9
$DIMSTYLE
  2
FREE
  9
$DIMCLRD
 70
     0
  9
$DIMCLRE
 70
     0
  9
$DIMCLRT
 70
     4
  9
$DIMTFAC
 40
1.0
  9
$DIMGAP
 40
0.625
  9
$DIMJUST
 70
     0
  9
$DIMSD1
 70
     0
  9
$DIMSD2
 70
     0
  9
$DIMTOLJ
 70
     0
  9
$DIMTZIN
 70
     8
  9
$DIMALTZ
 70
     0
  9
$DIMALTTZ
 70
     0
  9
$DIMUPT
 70
     1
  9
$DIMDEC
 70
     2
  9
$DIMTDEC
 70
     2
  9
$DIMALTU
 70
     2
  9
$DIMALTTD
 70
     3
  9
$DIMTXSTY
  7
STANDARD
  9
$DIMAUNIT
 70
     0
  9
$DIMADEC
 70
     1
  9
$DIMALTRND
 40
0.0
  9
$DIMAZIN
 70
     2
  9
$DIMDSEP
 70
    46
  9
$DIMATFIT
 70
     0
  9
$DIMFRAC
 70
     0
  9
$DIMLDRBLK
  1
Open30
  9
$DIMLUNIT
 70
     2
  9
$DIMLWD
 70
    -2
  9
$DIMLWE
 70
    -2
  9
$DIMTMOVE
 70
     0
  9
$LUNITS
 70
     2
  9
$LUPREC
 70
     4
  9
$SKETCHINC
 40
0.1
  9
$FILLETRAD
 40
0.0
  9
$AUNITS
 70
     0
  9
$AUPREC
 70
     0
  9
$MENU
  1
.
  9
$ELEVATION
 40
0.0
  9
$PELEVATION
 40
0.0
  9
$THICKNESS
 40
0.0
  9
$LIMCHECK
 70
     0
  9
$CHAMFERA
 40
0.0
  9
$CHAMFERB
 40
0.0
  9
$CHAMFERC
 40
0.0
  9
$CHAMFERD
 40
0.0
  9
$SKPOLY
 70
     0
  9
$TDCREATE
 40
2456321.701804665
  9
$TDUCREATE
 40
2456321.326804665
  9
$TDUPDATE
 40
2459793.734938588
  9
$TDUUPDATE
 40
2459793.359938588
  9
$TDINDWG
 40
0.0838431019
  9
$TDUSRTIMER
 40
0.0838429745
  9
$USRTIMER
 70
     1
  9
$ANGBASE
 50
0.0
  9
$ANGDIR
 70
     0
  9
$PDMODE
 70
     0
  9
$PDSIZE
 40
0.0
  9
$PLINEWID
 40
0.0
  9
$SPLFRAME
 70
     0
  9
$SPLINETYPE
 70
     6
  9
$SPLINESEGS
 70
     8
  9
$HANDSEED
  5
151B
  9
$SURFTAB1
 70
     6
  9
$SURFTAB2
 70
     6
  9
$SURFTYPE
 70
     6
  9
$SURFU
 70
     6
  9
$SURFV
 70
     6
  9
$UCSBASE
  2

  9
$UCSNAME
  2

  9
$UCSORG
 10
0.0
 20
0.0
 30
0.0
  9
$UCSXDIR
 10
1.0
 20
0.0
 30
0.0
  9
$UCSYDIR
 10
0.0
 20
1.0
 30
0.0
  9
$UCSORTHOREF
  2

  9
$UCSORTHOVIEW
 70
     0
  9
$UCSORGTOP
 10
0.0
 20
0.0
 30
0.0
  9
$UCSORGBOTTOM
 10
0.0
 20
0.0
 30
0.0
  9
$UCSORGLEFT
 10
0.0
 20
0.0
 30
0.0
  9
$UCSORGRIGHT
 10
0.0
 20
0.0
 30
0.0
  9
$UCSORGFRONT
 10
0.0
 20
0.0
 30
0.0
  9
$UCSORGBACK
 10
0.0
 20
0.0
 30
0.0
  9
$PUCSBASE
  2

  9
$PUCSNAME
  2

  9
$PUCSORG
 10
0.0
 20
0.0
 30
0.0
  9
$PUCSXDIR
 10
1.0
 20
0.0
 30
0.0
  9
$PUCSYDIR
 10
0.0
 20
1.0
 30
0.0
  9
$PUCSORTHOREF
  2

  9
$PUCSORTHOVIEW
 70
     0
  9
$PUCSORGTOP
 10
0.0
 20
0.0
 30
0.0
  9
$PUCSORGBOTTOM
 10
0.0
 20
0.0
 30
0.0
  9
$PUCSORGLEFT
 10
0.0
 20
0.0
 30
0.0
  9
$PUCSORGRIGHT
 10
0.0
 20
0.0
 30
0.0
  9
$PUCSORGFRONT
 10
0.0
 20
0.0
 30
0.0
  9
$PUCSORGBACK
 10
0.0
 20
0.0
 30
0.0
  9
$USERI1
 70
     0
  9
$USERI2
 70
     0
  9
$USERI3
 70
     0
  9
$USERI4
 70
     0
  9
$USERI5
 70
     0
  9
$USERR1
 40
0.0
  9
$USERR2
 40
0.0
  9
$USERR3
 40
0.0
  9
$USERR4
 40
0.0
  9
$USERR5
 40
0.0
  9
$WORLDVIEW
 70
     1
  9
$SHADEDGE
 70
     3
  9
$SHADEDIF
 70
    70
  9
$TILEMODE
 70
     1
  9
$MAXACTVP
 70
    64
  9
$PINSBASE
 10
0.0
 20
0.0
 30
0.0
  9
$PLIMCHECK
 70
     0
  9
$PEXTMIN
 10
1.000000000000000E+20
 20
1.000000000000000E+20
 30
1.000000000000000E+20
  9
$PEXTMAX
 10
-1.000000000000000E+20
 20
-1.000000000000000E+20
 30
-1.000000000000000E+20
  9
$PLIMMIN
 10
0.0
 20
0.0
  9
$PLIMMAX
 10
12.0
 20
9.0
  9
$UNITMODE
 70
     0
  9
$VISRETAIN
 70
     1
  9
$PLINEGEN
 70
     0
  9
$PSLTSCALE
 70
     1
  9
$TREEDEPTH
 70
  3020
  9
$CMLSTYLE
  2
Standard
  9
$CMLJUST
 70
     0
  9
$CMLSCALE
 40
1.0
  9
$PROXYGRAPHICS
 70
     1
  9
$MEASUREMENT
 70
     0
  9
$CELWEIGHT
370
    -1
  9
$ENDCAPS
280
     0
  9
$JOINSTYLE
280
     0
  9
$LWDISPLAY
290
     0
  9
$INSUNITS
 70
     0
  9
$HYPERLINKBASE
  1

  9
$STYLESHEET
  1

  9
$XEDIT
290
     1
  9
$CEPSNTYPE
380
     0
  9
$PSTYLEMODE
290
     1
  9
$FINGERPRINTGUID
  2
{29A1F7A6-AA98-4C44-9847-1A2B834BCFC9}
  9
$VERSIONGUID
  2
{DEF1A7C2-55AE-4F93-933A-42888FDA81D5}
  9
$EXTNAMES
290
     1
  9
$PSVPSCALE
 40
0.0
  9
$OLESTARTUP
290
     0
  0
ENDSEC
  0
SECTION
  2
CLASSES
  0
CLASS
  1
ACDBDICTIONARYWDFLT
  2
AcDbDictionaryWithDefault
  3
ObjectDBX Classes
 90
        0
280
     0
281
     0
  0
CLASS
  1
MATERIAL
  2
AcDbMaterial
  3
ObjectDBX Classes
 90
     1153
280
     0
281
     0
  0
CLASS
  1
VISUALSTYLE
  2
AcDbVisualStyle
  3
ObjectDBX Classes
 90
     4095
280
     0
281
     0
  0
CLASS
  1
SCALE
  2
AcDbScale
  3
ObjectDBX Classes
 90
     1153
280
     0
281
     0
  0
CLASS
  1
TABLESTYLE
  2
AcDbTableStyle
  3
ObjectDBX Classes
 90
     4095
280
     0
281
     0
  0
CLASS
  1
MLEADERSTYLE
  2
AcDbMLeaderStyle
  3
ACDB_MLEADERSTYLE_CLASS
 90
     4095
280
     0
281
     0
  0
CLASS
  1
SORTENTSTABLE
  2
AcDbSortentsTable
  3
ObjectDBX Classes
 90
        0
280
     0
281
     0
  0
CLASS
  1
DICTIONARYVAR
  2
AcDbDictionaryVar
  3
ObjectDBX Classes
 90
        0
280
     0
281
     0
  0
CLASS
  1
CELLSTYLEMAP
  2
AcDbCellStyleMap
  3
ObjectDBX Classes
 90
     1152
280
     0
281
     0
  0
CLASS
  1
ACDBPLACEHOLDER
  2
AcDbPlaceHolder
  3
ObjectDBX Classes
 90
        0
280
     0
281
     0
  0
CLASS
  1
LAYOUT
  2
AcDbLayout
  3
ObjectDBX Classes
 90
        0
280
     0
281
     0
  0
CLASS
  1
AEC_REFEDIT_STATUS_TRACKER
  2
AecDbRefEditStatusTracker
  3
AecArchBase60|Product Desc: Autodesk Architectural Desktop 2007 |Company: Autodesk,Inc. |WEB Address: www.autodesk.com
 90
      129
280
     0
281
     0
  0
CLASS
  1
NPOCOLLECTION
  2
AcDbImpNonPersistentObjectsCollection
  3
ObjectDBX Classes
 90
     1153
280
     0
281
     0
  0
ENDSEC
  0
SECTION
  2
TABLES
  0
TABLE
  2
VPORT
  5
8
330
0
100
AcDbSymbolTable
 70
     1
  0
VPORT
  5
8C
330
8
100
AcDbSymbolTableRecord
100
AcDbViewportTableRecord
  2
*Active
 70
     0
 10
0.0
 20
0.0
 11
1.0
 21
1.0
 12
-427.3343204589731
 22
-86.27447017062218
 13
0.0
 23
0.0
 14
1.0
 24
1.0
 15
0.0
 25
0.0
 16
0.0
 26
0.0
 36
1.0
 17
0.0
 27
0.0
 37
0.0
 40
685.0131484325093
 41
1.21203830369357
 42
50.0
 43
0.0
 44
0.0
 50
0.0
 51
0.0
 71
     0
 72
   100
 73
     1
 74
     1
 75
     0
 76
     0
 77
     0
 78
     0
281
     0
 65
     1
110
0.0
120
0.0
130
0.0
111
1.0
121
0.0
131
0.0
112
0.0
122
1.0
132
0.0
 79
     0
146
0.0
  0
ENDTAB
  0
TABLE
  2
LTYPE
  5
5
330
0
100
AcDbSymbolTable
 70
     6
  0
LTYPE
  5
5A
330
5
100
AcDbSymbolTableRecord
100
AcDbLinetypeTableRecord
  2
ByBlock
 70
     0
  3

 72
    65
 73
     0
 40
0.0
  0
LTYPE
  5
5B
330
5
100
AcDbSymbolTableRecord
100
AcDbLinetypeTableRecord
  2
ByLayer
 70
     0
  3

 72
    65
 73
     0
 40
0.0
  0
LTYPE
  5
5C
330
5
100
AcDbSymbolTableRecord
100
AcDbLinetypeTableRecord
  2
CONTINUOUS
 70
     0
  3
Solid-line
 72
    65
 73
     0
 40
0.0
  0
LTYPE
  5
78
330
5
100
AcDbSymbolTableRecord
100
AcDbLinetypeTableRecord
  2
DASHED
 70
     0
  3
DASHED
 72
    65
 73
     2
 40
0.75
 49
0.5
 74
     0
 49
-0.25
 74
     0
  0
LTYPE
  5
81
330
5
100
AcDbSymbolTableRecord
100
AcDbLinetypeTableRecord
  2
HIDDEN
 70
     0
  3
HIDDEN
 72
    65
 73
     2
 40
0.375
 49
0.25
 74
     0
 49
-0.125
 74
     0
  0
LTYPE
  5
84
330
5
100
AcDbSymbolTableRecord
100
AcDbLinetypeTableRecord
  2
PHANTOM
 70
     0
  3
PHANTOM
 72
    65
 73
     6
 40
2.5
 49
1.25
 74
     0
 49
-0.25
 74
     0
 49
0.25
 74
     0
 49
-0.25
 74
     0
 49
0.25
 74
     0
 49
-0.25
 74
     0
  0
ENDTAB
  0
TABLE
  2
LAYER
  5
2
102
{ACAD_XDICTIONARY
360
4AA
102
}
330
0
100
AcDbSymbolTable
 70
     2
  0
LAYER
  5
54
102
{ACAD_XDICTIONARY
360
B3F
102
}
330
2
100
AcDbSymbolTableRecord
100
AcDbLayerTableRecord
  2
0
 70
     0
 62
     7
  6
CONTINUOUS
370
    -3
390
F
  0
LAYER
  5
69C
330
2
100
AcDbSymbolTableRecord
100
AcDbLayerTableRecord
  2
Defpoints
 70
     0
 62
     7
  6
CONTINUOUS
290
     0
370
    -3
390
F
  0
ENDTAB
  0
TABLE
  2
STYLE
  5
3
330
0
100
AcDbSymbolTable
 70
     6
  0
STYLE
  5
55
330
3
100
AcDbSymbolTableRecord
100
AcDbTextStyleTableRecord
  2
STANDARD
 70
     0
 40
0.0
 41
1.0
 50
0.0
 71
     0
 42
0.2
  3
TXT
  4
BIGFONT
  0
STYLE
  5
49F
330
3
100
AcDbSymbolTableRecord
100
AcDbTextStyleTableRecord
  2
高3.2
 70
     0
 40
3.2
 41
1.0
 50
0.0
 71
     0
 42
3.2
  3
txt.shx
  4
bigfont.shx
  0
STYLE
  5
4A0
330
3
100
AcDbSymbolTableRecord
100
AcDbTextStyleTableRecord
  2
高6.3
 70
     0
 40
6.299999999999998
 41
1.0
 50
0.0
 71
     0
 42
6.299999999999998
  3
txt.shx
  4
bigfont.shx
  0
STYLE
  5
4A1
330
3
100
AcDbSymbolTableRecord
100
AcDbTextStyleTableRecord
  2
高2.5
 70
     0
 40
2.5
 41
1.0
 50
0.0
 71
     0
 42
0.2
  3
txt.shx
  4
bigfont.shx
  0
STYLE
  5
4A2
330
3
100
AcDbSymbolTableRecord
100
AcDbTextStyleTableRecord
  2
高4.5
 70
     0
 40
4.5
 41
1.0
 50
0.0
 71
     0
 42
6.299999999999998
  3
txt.shx
  4
bigfont.shx
  0
STYLE
  5
4A3
330
3
100
AcDbSymbolTableRecord
100
AcDbTextStyleTableRecord
  2
高2
 70
     0
 40
2.0
 41
1.0
 50
0.0
 71
     0
 42
6.299999999999998
  3
txt.shx
  4
bigfont.shx
  0
ENDTAB
  0
TABLE
  2
VIEW
  5
6
330
0
100
AcDbSymbolTable
 70
     0
  0
ENDTAB
  0
TABLE
  2
UCS
  5
7
330
0
100
AcDbSymbolTable
 70
     0
  0
ENDTAB
  0
TABLE
  2
APPID
  5
9
330
0
100
AcDbSymbolTable
 70
    10
  0
APPID
  5
56
330
9
100
AcDbSymbolTableRecord
100
AcDbRegAppTableRecord
  2
ACAD
 70
     0
  0
APPID
  5
5D
330
9
100
AcDbSymbolTableRecord
100
AcDbRegAppTableRecord
  2
AcadAnnotative
 70
     0
  0
APPID
  5
4A9
330
9
100
AcDbSymbolTableRecord
100
AcDbRegAppTableRecord
  2
ACAD_DSTYLE_DIMJOGGED_JOGANGLE_SYMBOL
 70
     0
  0
APPID
  5
827
330
9
100
AcDbSymbolTableRecord
100
AcDbRegAppTableRecord
  2
ACAD_DSTYLE_DIMJAG
 70
     0
  0
APPID
  5
828
330
9
100
AcDbSymbolTableRecord
100
AcDbRegAppTableRecord
  2
ACAD_DSTYLE_DIMBREAK
 70
     0
  0
APPID
  5
829
330
9
100
AcDbSymbolTableRecord
100
AcDbRegAppTableRecord
  2
ACAD_DSTYLE_DIMTALN
 70
     0
  0
APPID
  5
982
330
9
100
AcDbSymbolTableRecord
100
AcDbRegAppTableRecord
  2
ACAD_EXEMPT_FROM_CAD_STANDARDS
 70
     0
  0
APPID
  5
B85
330
9
100
AcDbSymbolTableRecord
100
AcDbRegAppTableRecord
  2
ACAD_MLEADERVER
 70
     0
  0
APPID
  5
B8A
330
9
100
AcDbSymbolTableRecord
100
AcDbRegAppTableRecord
  2
ACAD_DSTYLE_DIMARC_LENGTH_SYMBOL
 70
     0
  0
APPID
  5
B8B
330
9
100
AcDbSymbolTableRecord
100
AcDbRegAppTableRecord
  2
ACAD_DSTYLE_DIMEXT_LENGTH
 70
     0
  0
ENDTAB
  0
TABLE
  2
DIMSTYLE
  5
A
330
0
100
AcDbSymbolTable
 70
     4
100
AcDbDimStyleTable
 71
     1
340
826
  0
DIMSTYLE
105
57
330
A
100
AcDbSymbolTableRecord
100
AcDbDimStyleTableRecord
  2
Standard
 70
     0
340
55
  0
DIMSTYLE
105
826
330
A
100
AcDbSymbolTableRecord
100
AcDbDimStyleTableRecord
  2
FREE
 70
     0
 41
2.5
 42
0.25
 43
0.2
 44
1.25
 73
     0
 74
     0
 77
     3
 78
     8
 79
     2
140
3.0
141
0.0
143
0.03937007874016
147
0.625
171
     3
172
     1
178
     4
179
     1
271
     2
272
     2
274
     3
283
     0
284
     8
288
     1
289
     0
340
55
341
3C4
342
3C4
1001
ACAD_DSTYLE_DIMBREAK
1070
   391
1040
3.75
1001
ACAD_DSTYLE_DIMJAG
1070
   388
1040
1.5
1001
ACAD_DSTYLE_DIMTALN
1070
   392
1070
     0
1001
ACAD_DSTYLE_DIMARC_LENGTH_SYMBOL
1070
   379
1070
     2
1001
ACAD_DSTYLE_DIMEXT_LENGTH
1070
   378
1040
1.25
1001
ACAD_DSTYLE_DIMJOGGED_JOGANGLE_SYMBOL
1070
   384
1040
1.570796326794896
  0
DIMSTYLE
105
C3F
102
{ACAD_REACTORS
330
D12
330
D11
330
D10
330
D0F
330
D0E
330
D0D
330
D0C
330
D0B
102
}
330
A
100
AcDbSymbolTableRecord
100
AcDbDimStyleTableRecord
  2
1：1
 70
     0
 41
2.5
 42
0.25
 43
0.2
 44
1.25
 73
     0
 74
     0
 77
     3
 78
     8
 79
     2
140
3.0
141
0.0
143
0.03937007874016
147
0.625
171
     3
172
     1
178
     4
179
     1
271
     2
272
     2
274
     3
283
     0
284
     8
288
     1
289
     0
340
55
341
3C4
342
3C4
1001
ACAD_DSTYLE_DIMARC_LENGTH_SYMBOL
1070
   379
1070
     2
1001
ACAD_DSTYLE_DIMEXT_LENGTH
1070
   378
1040
1.25
1001
ACAD_DSTYLE_DIMJOGGED_JOGANGLE_SYMBOL
1070
   384
1040
1.570796326794896
  0
ENDTAB
  0
TABLE
  2
BLOCK_RECORD
  5
1
330
0
100
AcDbSymbolTable
 70
    27
  0
BLOCK_RECORD
  5
6B
102
{ACAD_XDICTIONARY
360
A99
102
}
330
1
100
AcDbSymbolTableRecord
100
AcDbBlockTableRecord
  2
*Model_Space
340
6E
  0
BLOCK_RECORD
  5
67
330
1
100
AcDbSymbolTableRecord
100
AcDbBlockTableRecord
  2
*Paper_Space
340
6A
  0
BLOCK_RECORD
  5
3C4
330
1
100
AcDbSymbolTableRecord
100
AcDbBlockTableRecord
  2
_Open30
340
0
102
{BLKREFS
331
B99
331
B9A
331
BA4
331
BA5
331
BAD
331
BAE
331
BB6
331
BB7
331
BBF
331
BC0
331
BC8
331
BC9
331
BD1
331
BD2
331
BD8
331
BD9
331
C0A
331
C17
331
C18
331
C21
331
C22
331
C2C
331
C2D
331
C38
331
C39
331
BE3
331
BE4
331
BEF
331
BF0
331
BFB
331
BFC
331
C09
331
1253
331
1254
331
125C
331
125D
331
1265
331
1266
331
1270
331
1271
331
127B
331
127C
331
1282
331
1283
331
128A
331
128B
331
1293
331
1294
102
}
  0
BLOCK_RECORD
  5
69D
330
1
100
AcDbSymbolTableRecord
100
AcDbBlockTableRecord
  2
*D1
340
0
  0
BLOCK_RECORD
  5
6A8
330
1
100
AcDbSymbolTableRecord
100
AcDbBlockTableRecord
  2
*D2
340
0
  0
BLOCK_RECORD
  5
6B5
330
1
100
AcDbSymbolTableRecord
100
AcDbBlockTableRecord
  2
*D3
340
0
  0
BLOCK_RECORD
  5
6C2
330
1
100
AcDbSymbolTableRecord
100
AcDbBlockTableRecord
  2
*D4
340
0
  0
BLOCK_RECORD
  5
6CF
330
1
100
AcDbSymbolTableRecord
100
AcDbBlockTableRecord
  2
*D5
340
0
  0
BLOCK_RECORD
  5
6DC
330
1
100
AcDbSymbolTableRecord
100
AcDbBlockTableRecord
  2
*D6
340
0
  0
BLOCK_RECORD
  5
6E9
330
1
100
AcDbSymbolTableRecord
100
AcDbBlockTableRecord
  2
*D7
340
0
  0
BLOCK_RECORD
  5
6F6
330
1
100
AcDbSymbolTableRecord
100
AcDbBlockTableRecord
  2
*D8
340
0
  0
BLOCK_RECORD
  5
BDE
330
1
100
AcDbSymbolTableRecord
100
AcDbBlockTableRecord
  2
*D9
340
0
  0
BLOCK_RECORD
  5
BEA
330
1
100
AcDbSymbolTableRecord
100
AcDbBlockTableRecord
  2
*D10
340
0
  0
BLOCK_RECORD
  5
BF6
330
1
100
AcDbSymbolTableRecord
100
AcDbBlockTableRecord
  2
*D11
340
0
  0
BLOCK_RECORD
  5
C02
330
1
100
AcDbSymbolTableRecord
100
AcDbBlockTableRecord
  2
*D12
340
0
  0
BLOCK_RECORD
  5
C10
330
1
100
AcDbSymbolTableRecord
100
AcDbBlockTableRecord
  2
*D13
340
0
  0
BLOCK_RECORD
  5
C1E
330
1
100
AcDbSymbolTableRecord
100
AcDbBlockTableRecord
  2
*D14
340
0
  0
BLOCK_RECORD
  5
C27
330
1
100
AcDbSymbolTableRecord
100
AcDbBlockTableRecord
  2
*D15
340
0
  0
BLOCK_RECORD
  5
C33
330
1
100
AcDbSymbolTableRecord
100
AcDbBlockTableRecord
  2
*D16
340
0
  0
BLOCK_RECORD
  5
11EF
330
1
100
AcDbSymbolTableRecord
100
AcDbBlockTableRecord
  2
*D18
340
0
  0
BLOCK_RECORD
  5
11FB
330
1
100
AcDbSymbolTableRecord
100
AcDbBlockTableRecord
  2
*D19
340
0
  0
BLOCK_RECORD
  5
1207
330
1
100
AcDbSymbolTableRecord
100
AcDbBlockTableRecord
  2
*D20
340
0
  0
BLOCK_RECORD
  5
1213
330
1
100
AcDbSymbolTableRecord
100
AcDbBlockTableRecord
  2
*D21
340
0
  0
BLOCK_RECORD
  5
1221
330
1
100
AcDbSymbolTableRecord
100
AcDbBlockTableRecord
  2
*D22
340
0
  0
BLOCK_RECORD
  5
122F
330
1
100
AcDbSymbolTableRecord
100
AcDbBlockTableRecord
  2
*D23
340
0
  0
BLOCK_RECORD
  5
1238
330
1
100
AcDbSymbolTableRecord
100
AcDbBlockTableRecord
  2
*D24
340
0
  0
BLOCK_RECORD
  5
1244
330
1
100
AcDbSymbolTableRecord
100
AcDbBlockTableRecord
  2
*D25
340
0
  0
ENDTAB
  0
ENDSEC
  0
SECTION
  2
BLOCKS
  0
BLOCK
  5
6C
330
6B
100
AcDbEntity
  8
0
100
AcDbBlockBegin
  2
*Model_Space
 70
     0
 10
0.0
 20
0.0
 30
0.0
  3
*Model_Space
  1

  0
ENDBLK
  5
6D
330
6B
100
AcDbEntity
  8
0
100
AcDbBlockEnd
  0
BLOCK
  5
68
330
67
100
AcDbEntity
 67
     1
  8
0
100
AcDbBlockBegin
  2
*Paper_Space
 70
     0
 10
0.0
 20
0.0
 30
0.0
  3
*Paper_Space
  1

  0
ENDBLK
  5
69
330
67
100
AcDbEntity
 67
     1
  8
0
100
AcDbBlockEnd
  0
BLOCK
  5
3C5
330
3C4
100
AcDbEntity
  8
0
100
AcDbBlockBegin
  2
_Open30
 70
     0
 10
0.0
 20
0.0
 30
0.0
  3
_Open30
  1

  0
LINE
  5
3C6
330
3C4
100
AcDbEntity
  8
0
  6
ByBlock
 62
     0
370
    -2
100
AcDbLine
 10
-1.0
 20
0.267949
 30
0.0
 11
0.0
 21
0.0
 31
0.0
  0
LINE
  5
3C7
330
3C4
100
AcDbEntity
  8
0
  6
ByBlock
 62
     0
370
    -2
100
AcDbLine
 10
0.0
 20
0.0
 30
0.0
 11
-1.0
 21
-0.267949
 31
0.0
  0
LINE
  5
3C8
330
3C4
100
AcDbEntity
  8
0
  6
ByBlock
 62
     0
370
    -2
100
AcDbLine
 10
0.0
 20
0.0
 30
0.0
 11
-1.0
 21
0.0
 31
0.0
  0
ENDBLK
  5
3C9
330
3C4
100
AcDbEntity
  8
0
100
AcDbBlockEnd
  0
BLOCK
  5
69E
330
69D
100
AcDbEntity
  8
0
100
AcDbBlockBegin
  2
*D1
 70
     1
 10
0.0
 20
0.0
 30
0.0
  3
*D1
  1

  0
LINE
  5
BD7
330
69D
100
AcDbEntity
  8
0
 62
     0
370
    -2
100
AcDbLine
 10
-590.7027822305853
 20
66.51754285016338
 30
0.0
 11
-602.9074122470181
 21
88.33604454620715
 31
0.0
  0
INSERT
  5
BD8
330
69D
100
AcDbEntity
  8
0
 62
     0
370
    -2
100
AcDbBlockReference
  2
_Open30
 10
-589.4823192388018
 20
64.33569269818534
 30
0.0
 41
2.5
 42
2.5
 43
2.5
 50
299.2213694603109
  0
INSERT
  5
BD9
330
69D
100
AcDbEntity
  8
0
 62
     0
370
    -2
100
AcDbBlockReference
  2
_Open30
 10
-604.1278752388016
 20
90.51789469818515
 30
0.0
 41
2.5
 42
2.5
 43
2.5
 50
119.2213694603109
  0
MTEXT
  5
BDA
102
{ACAD_XDICTIONARY
360
1515
102
}
330
69D
100
AcDbEntity
  8
0
 62
     4
100
AcDbMText
 10
-594.9505246096204
 20
78.46418724120147
 30
0.0
 40
3.0
 41
0.0
 71
     5
 72
     1
  1
\U+220530
 11
0.4881851967134458
 21
-0.8727400607912153
 31
0.0
 73
     1
 44
1.0
1001
ACAD
1000
MTEXTBEGIN
1070
    73
1070
     1
1070
    44
1040
1.0
1070
    74
1070
     0
1000
MTEXTEND
  0
POINT
  5
BDB
330
69D
100
AcDbEntity
  8
Defpoints
 62
     0
100
AcDbPoint
 10
-604.1278752388016
 20
90.51789469818515
 30
0.0
  0
POINT
  5
BDC
330
69D
100
AcDbEntity
  8
Defpoints
 62
     0
100
AcDbPoint
 10
-589.4823192388018
 20
64.33569269818534
 30
0.0
  0
ENDBLK
  5
69F
330
69D
100
AcDbEntity
  8
0
100
AcDbBlockEnd
  0
BLOCK
  5
6A9
330
6A8
100
AcDbEntity
  8
0
100
AcDbBlockBegin
  2
*D2
 70
     1
 10
0.0
 20
0.0
 30
0.0
  3
*D2
  1

  0
LINE
  5
BCE
330
6A8
100
AcDbEntity
  8
0
 62
     0
370
    -2
100
AcDbLine
 10
-597.0550972388017
 20
52.42679369818525
 30
0.0
 11
-636.2015792388018
 21
52.42679369818525
 31
0.0
  0
LINE
  5
BCF
330
6A8
100
AcDbEntity
  8
0
 62
     0
370
    -2
100
AcDbLine
 10
-588.9320142388016
 20
107.1139296981852
 30
0.0
 11
-636.2015792388018
 21
107.1139296981852
 31
0.0
  0
LINE
  5
BD0
330
6A8
100
AcDbEntity
  8
0
 62
     0
370
    -2
100
AcDbLine
 10
-634.9515792388018
 20
54.92679369818525
 30
0.0
 11
-634.9515792388018
 21
104.6139296981852
 31
0.0
  0
INSERT
  5
BD1
330
6A8
100
AcDbEntity
  8
0
 62
     0
370
    -2
100
AcDbBlockReference
  2
_Open30
 10
-634.9515792388018
 20
52.42679369818525
 30
0.0
 41
2.5
 42
2.5
 43
2.5
 50
270.0
  0
INSERT
  5
BD2
330
6A8
100
AcDbEntity
  8
0
 62
     0
370
    -2
100
AcDbBlockReference
  2
_Open30
 10
-634.9515792388018
 20
107.1139296981852
 30
0.0
 41
2.5
 42
2.5
 43
2.5
 50
90.0
  0
MTEXT
  5
BD3
330
6A8
100
AcDbEntity
  8
0
 62
     4
100
AcDbMText
 10
-637.0765792388018
 20
79.77036169818514
 30
0.0
 40
3.0
 41
0.0
 71
     5
 72
     1
  1
53
 11
0.0000000000000001
 21
1.0
 31
0.0
 73
     1
 44
1.0
1001
ACAD
1000
MTEXTBEGIN
1070
    73
1070
     1
1070
    44
1040
1.0
1070
    74
1070
     0
1000
MTEXTEND
  0
POINT
  5
BD4
330
6A8
100
AcDbEntity
  8
Defpoints
 62
     0
100
AcDbPoint
 10
-596.8050972388017
 20
52.42679369818525
 30
0.0
  0
POINT
  5
BD5
330
6A8
100
AcDbEntity
  8
Defpoints
 62
     0
100
AcDbPoint
 10
-588.6820142388017
 20
107.1139296981852
 30
0.0
  0
POINT
  5
BD6
330
6A8
100
AcDbEntity
  8
Defpoints
 62
     0
100
AcDbPoint
 10
-634.9515792388018
 20
107.1139296981852
 30
0.0
  0
ENDBLK
  5
6AA
330
6A8
100
AcDbEntity
  8
0
100
AcDbBlockEnd
  0
BLOCK
  5
6B6
330
6B5
100
AcDbEntity
  8
0
100
AcDbBlockBegin
  2
*D3
 70
     1
 10
0.0
 20
0.0
 30
0.0
  3
*D3
  1

  0
LINE
  5
BC5
330
6B5
100
AcDbEntity
  8
0
 62
     0
370
    -2
100
AcDbLine
 10
-313.5582122388019
 20
76.72829269818523
 30
0.0
 11
-302.2816732388019
 21
76.72829269818523
 31
0.0
  0
LINE
  5
BC6
330
6B5
100
AcDbEntity
  8
0
 62
     0
370
    -2
100
AcDbLine
 10
-314.5557122388019
 20
86.72829269818523
 30
0.0
 11
-302.2816732388019
 21
86.72829269818523
 31
0.0
  0
LINE
  5
BC7
330
6B5
100
AcDbEntity
  8
0
 62
     0
370
    -2
100
AcDbLine
 10
-303.5316732388019
 20
79.22829269818523
 30
0.0
 11
-303.5316732388019
 21
84.22829269818523
 31
0.0
  0
INSERT
  5
BC8
330
6B5
100
AcDbEntity
  8
0
 62
     0
370
    -2
100
AcDbBlockReference
  2
_Open30
 10
-303.5316732388019
 20
76.72829269818523
 30
0.0
 41
2.5
 42
2.5
 43
2.5
 50
270.0
  0
INSERT
  5
BC9
330
6B5
100
AcDbEntity
  8
0
 62
     0
370
    -2
100
AcDbBlockReference
  2
_Open30
 10
-303.5316732388019
 20
86.72829269818523
 30
0.0
 41
2.5
 42
2.5
 43
2.5
 50
90.0
  0
MTEXT
  5
BCA
330
6B5
100
AcDbEntity
  8
0
 62
     4
100
AcDbMText
 10
-305.6566732388019
 20
81.72829269818517
 30
0.0
 40
3.0
 41
0.0
 71
     5
 72
     1
  1
10
 11
0.0000000000000001
 21
1.0
 31
0.0
 73
     1
 44
1.0
1001
ACAD
1000
MTEXTBEGIN
1070
    73
1070
     1
1070
    44
1040
1.0
1070
    74
1070
     0
1000
MTEXTEND
  0
POINT
  5
BCB
330
6B5
100
AcDbEntity
  8
Defpoints
 62
     0
100
AcDbPoint
 10
-313.8082122388019
 20
76.72829269818523
 30
0.0
  0
POINT
  5
BCC
330
6B5
100
AcDbEntity
  8
Defpoints
 62
     0
100
AcDbPoint
 10
-314.8057122388019
 20
86.72829269818523
 30
0.0
  0
POINT
  5
BCD
330
6B5
100
AcDbEntity
  8
Defpoints
 62
     0
100
AcDbPoint
 10
-303.5316732388019
 20
86.72829269818523
 30
0.0
  0
ENDBLK
  5
6B7
330
6B5
100
AcDbEntity
  8
0
100
AcDbBlockEnd
  0
BLOCK
  5
6C3
330
6C2
100
AcDbEntity
  8
0
100
AcDbBlockBegin
  2
*D4
 70
     1
 10
0.0
 20
0.0
 30
0.0
  3
*D4
  1

  0
LINE
  5
BBC
330
6C2
100
AcDbEntity
  8
0
 62
     0
370
    -2
100
AcDbLine
 10
-315.2106682388019
 20
-7.735796301814764
 30
0.0
 11
-304.2361712388019
 21
-7.735796301814768
 31
0.0
  0
LINE
  5
BBD
330
6C2
100
AcDbEntity
  8
0
 62
     0
370
    -2
100
AcDbLine
 10
-315.2106682388019
 20
16.26420369818523
 30
0.0
 11
-304.2361712388019
 21
16.26420369818523
 31
0.0
  0
LINE
  5
BBE
330
6C2
100
AcDbEntity
  8
0
 62
     0
370
    -2
100
AcDbLine
 10
-305.4861712388019
 20
-5.235796301814768
 30
0.0
 11
-305.4861712388019
 21
13.76420369818523
 31
0.0
  0
INSERT
  5
BBF
330
6C2
100
AcDbEntity
  8
0
 62
     0
370
    -2
100
AcDbBlockReference
  2
_Open30
 10
-305.4861712388019
 20
-7.735796301814768
 30
0.0
 41
2.5
 42
2.5
 43
2.5
 50
270.0
  0
INSERT
  5
BC0
330
6C2
100
AcDbEntity
  8
0
 62
     0
370
    -2
100
AcDbBlockReference
  2
_Open30
 10
-305.4861712388019
 20
16.26420369818523
 30
0.0
 41
2.5
 42
2.5
 43
2.5
 50
90.0
  0
MTEXT
  5
BC1
330
6C2
100
AcDbEntity
  8
0
 62
     4
100
AcDbMText
 10
-307.6111712388019
 20
4.26420369818518
 30
0.0
 40
3.0
 41
0.0
 71
     5
 72
     1
  1
24
 11
0.0000000000000001
 21
1.0
 31
0.0
 73
     1
 44
1.0
1001
ACAD
1000
MTEXTBEGIN
1070
    73
1070
     1
1070
    44
1040
1.0
1070
    74
1070
     0
1000
MTEXTEND
  0
POINT
  5
BC2
330
6C2
100
AcDbEntity
  8
Defpoints
 62
     0
100
AcDbPoint
 10
-315.4606682388019
 20
-7.735796301814764
 30
0.0
  0
POINT
  5
BC3
330
6C2
100
AcDbEntity
  8
Defpoints
 62
     0
100
AcDbPoint
 10
-315.4606682388019
 20
16.26420369818523
 30
0.0
  0
POINT
  5
BC4
330
6C2
100
AcDbEntity
  8
Defpoints
 62
     0
100
AcDbPoint
 10
-305.4861712388019
 20
16.26420369818523
 30
0.0
  0
ENDBLK
  5
6C4
330
6C2
100
AcDbEntity
  8
0
100
AcDbBlockEnd
  0
BLOCK
  5
6D0
330
6CF
100
AcDbEntity
  8
0
100
AcDbBlockBegin
  2
*D5
 70
     1
 10
0.0
 20
0.0
 30
0.0
  3
*D5
  1

  0
LINE
  5
BB3
330
6CF
100
AcDbEntity
  8
0
 62
     0
370
    -2
100
AcDbLine
 10
-621.7779862388018
 20
9.251199698185232
 30
0.0
 11
-621.7779862388018
 21
29.36541469818524
 31
0.0
  0
LINE
  5
BB4
330
6CF
100
AcDbEntity
  8
0
 62
     0
370
    -2
100
AcDbLine
 10
-559.7424342388019
 20
8.981640698185232
 30
0.0
 11
-559.7424342388019
 21
29.36541469818524
 31
0.0
  0
LINE
  5
BB5
330
6CF
100
AcDbEntity
  8
0
 62
     0
370
    -2
100
AcDbLine
 10
-619.2779862388018
 20
28.11541469818524
 30
0.0
 11
-562.2424342388019
 21
28.11541469818524
 31
0.0
  0
INSERT
  5
BB6
330
6CF
100
AcDbEntity
  8
0
 62
     0
370
    -2
100
AcDbBlockReference
  2
_Open30
 10
-621.7779862388018
 20
28.11541469818524
 30
0.0
 41
2.5
 42
2.5
 43
2.5
 50
180.0
  0
INSERT
  5
BB7
330
6CF
100
AcDbEntity
  8
0
 62
     0
370
    -2
100
AcDbBlockReference
  2
_Open30
 10
-559.7424342388019
 20
28.11541469818524
 30
0.0
 41
2.5
 42
2.5
 43
2.5
  0
MTEXT
  5
BB8
330
6CF
100
AcDbEntity
  8
0
 62
     4
100
AcDbMText
 10
-590.7602102388018
 20
30.24041469818524
 30
0.0
 40
3.0
 41
0.0
 71
     5
 72
     1
  1
65
 73
     1
 44
1.0
1001
ACAD
1000
MTEXTBEGIN
1070
    73
1070
     1
1070
    44
1040
1.0
1070
    74
1070
     0
1000
MTEXTEND
  0
POINT
  5
BB9
330
6CF
100
AcDbEntity
  8
Defpoints
 62
     0
100
AcDbPoint
 10
-621.7779862388018
 20
9.001199698185232
 30
0.0
  0
POINT
  5
BBA
330
6CF
100
AcDbEntity
  8
Defpoints
 62
     0
100
AcDbPoint
 10
-559.7424342388019
 20
8.731640698185232
 30
0.0
  0
POINT
  5
BBB
330
6CF
100
AcDbEntity
  8
Defpoints
 62
     0
100
AcDbPoint
 10
-559.7424342388019
 20
28.11541469818524
 30
0.0
  0
ENDBLK
  5
6D1
330
6CF
100
AcDbEntity
  8
0
100
AcDbBlockEnd
  0
BLOCK
  5
6DD
330
6DC
100
AcDbEntity
  8
0
100
AcDbBlockBegin
  2
*D6
 70
     1
 10
0.0
 20
0.0
 30
0.0
  3
*D6
  1

  0
LINE
  5
BAA
330
6DC
100
AcDbEntity
  8
0
 62
     0
370
    -2
100
AcDbLine
 10
-559.7424342388019
 20
8.981640698185232
 30
0.0
 11
-559.7424342388019
 21
29.36541469818524
 31
0.0
  0
LINE
  5
BAB
330
6DC
100
AcDbEntity
  8
0
 62
     0
370
    -2
100
AcDbLine
 10
-313.9606682388019
 20
15.01420369818523
 30
0.0
 11
-313.9606682388019
 21
29.36541469818524
 31
0.0
  0
LINE
  5
BAC
330
6DC
100
AcDbEntity
  8
0
 62
     0
370
    -2
100
AcDbLine
 10
-557.2424342388019
 20
28.11541469818524
 30
0.0
 11
-316.4606682388019
 21
28.11541469818524
 31
0.0
  0
INSERT
  5
BAD
330
6DC
100
AcDbEntity
  8
0
 62
     0
370
    -2
100
AcDbBlockReference
  2
_Open30
 10
-559.7424342388019
 20
28.11541469818524
 30
0.0
 41
2.5
 42
2.5
 43
2.5
 50
180.0
  0
INSERT
  5
BAE
330
6DC
100
AcDbEntity
  8
0
 62
     0
370
    -2
100
AcDbBlockReference
  2
_Open30
 10
-313.9606682388019
 20
28.11541469818524
 30
0.0
 41
2.5
 42
2.5
 43
2.5
  0
MTEXT
  5
BAF
330
6DC
100
AcDbEntity
  8
0
 62
     4
100
AcDbMText
 10
-436.8515512388019
 20
30.24041469818524
 30
0.0
 40
3.0
 41
0.0
 71
     5
 72
     1
  1
L寸法
 73
     1
 44
1.0
1001
ACAD
1000
MTEXTBEGIN
1070
    73
1070
     1
1070
    44
1040
1.0
1070
    74
1070
     0
1000
MTEXTEND
  0
POINT
  5
BB0
330
6DC
100
AcDbEntity
  8
Defpoints
 62
     0
100
AcDbPoint
 10
-559.7424342388019
 20
8.731640698185232
 30
0.0
  0
POINT
  5
BB1
330
6DC
100
AcDbEntity
  8
Defpoints
 62
     0
100
AcDbPoint
 10
-313.9606682388019
 20
14.76420369818523
 30
0.0
  0
POINT
  5
BB2
330
6DC
100
AcDbEntity
  8
Defpoints
 62
     0
100
AcDbPoint
 10
-313.9606682388019
 20
28.11541469818524
 30
0.0
  0
ENDBLK
  5
6DE
330
6DC
100
AcDbEntity
  8
0
100
AcDbBlockEnd
  0
BLOCK
  5
6EA
330
6E9
100
AcDbEntity
  8
0
100
AcDbBlockBegin
  2
*D7
 70
     1
 10
0.0
 20
0.0
 30
0.0
  3
*D7
  1

  0
LINE
  5
B9F
330
6E9
100
AcDbEntity
  8
0
 62
     0
370
    -2
100
AcDbLine
 10
-393.8327362388019
 20
-3.282977301814765
 30
0.0
 11
-385.1706725065499
 21
-3.282977301814768
 31
0.0
  0
LINE
  5
BA0
330
6E9
100
AcDbEntity
  8
0
 62
     0
370
    -2
100
AcDbLine
 10
-393.6004052388019
 20
11.80655569818523
 30
0.0
 11
-385.1706725065499
 21
11.80655569818523
 31
0.0
  0
LINE
  5
BA1
330
6E9
100
AcDbEntity
  8
0
 62
     0
370
    -2
100
AcDbLine
 10
-386.4206725065498
 20
14.30655569818522
 30
0.0
 11
-386.4206725065498
 21
16.80655569818522
 31
0.0
  0
LINE
  5
BA2
330
6E9
100
AcDbEntity
  8
0
 62
     0
370
    -2
100
AcDbLine
 10
-386.4206725065498
 20
-5.782977301814767
 30
0.0
 11
-386.4206725065498
 21
-13.9079773018147
 31
0.0
  0
LINE
  5
BA3
330
6E9
100
AcDbEntity
  8
0
 62
     0
370
    -2
100
AcDbLine
 10
-386.4206725065498
 20
11.80655569818523
 30
0.0
 11
-386.4206725065498
 21
-3.282977301814768
 31
0.0
  0
INSERT
  5
BA4
330
6E9
100
AcDbEntity
  8
0
 62
     0
370
    -2
100
AcDbBlockReference
  2
_Open30
 10
-386.4206725065498
 20
11.80655569818523
 30
0.0
 41
2.5
 42
2.5
 43
2.5
 50
270.0
  0
INSERT
  5
BA5
330
6E9
100
AcDbEntity
  8
0
 62
     0
370
    -2
100
AcDbBlockReference
  2
_Open30
 10
-386.4206725065498
 20
-3.282977301814768
 30
0.0
 41
2.5
 42
2.5
 43
2.5
 50
90.0
  0
MTEXT
  5
BA6
330
6E9
100
AcDbEntity
  8
0
 62
     4
100
AcDbMText
 10
-388.5456725065499
 20
-11.28297730181476
 30
0.0
 40
3.0
 41
0.0
 71
     5
 72
     1
  1
15
 11
0.0000000000000001
 21
1.0
 31
0.0
 73
     1
 44
1.0
1001
ACAD
1000
MTEXTBEGIN
1070
    73
1070
     1
1070
    44
1040
1.0
1070
    74
1070
     0
1000
MTEXTEND
  0
POINT
  5
BA7
330
6E9
100
AcDbEntity
  8
Defpoints
 62
     0
100
AcDbPoint
 10
-394.0827362388019
 20
-3.282977301814765
 30
0.0
  0
POINT
  5
BA8
330
6E9
100
AcDbEntity
  8
Defpoints
 62
     0
100
AcDbPoint
 10
-393.8504052388019
 20
11.80655569818523
 30
0.0
  0
POINT
  5
BA9
330
6E9
100
AcDbEntity
  8
Defpoints
 62
     0
100
AcDbPoint
 10
-386.4206725065498
 20
11.80655569818523
 30
0.0
  0
ENDBLK
  5
6EB
330
6E9
100
AcDbEntity
  8
0
100
AcDbBlockEnd
  0
BLOCK
  5
6F7
330
6F6
100
AcDbEntity
  8
0
100
AcDbBlockBegin
  2
*D8
 70
     1
 10
0.0
 20
0.0
 30
0.0
  3
*D8
  1

  0
LINE
  5
B94
330
6F6
100
AcDbEntity
  8
0
 62
     0
370
    -2
100
AcDbLine
 10
-437.5979722388018
 20
75.98052369818524
 30
0.0
 11
-430.1914912388018
 21
75.98052369818524
 31
0.0
  0
LINE
  5
B95
330
6F6
100
AcDbEntity
  8
0
 62
     0
370
    -2
100
AcDbLine
 10
-437.8748392388018
 20
78.98052369818524
 30
0.0
 11
-430.1914912388018
 21
78.98052369818524
 31
0.0
  0
LINE
  5
B96
330
6F6
100
AcDbEntity
  8
0
 62
     0
370
    -2
100
AcDbLine
 10
-431.4414912388018
 20
73.48052369818524
 30
0.0
 11
-431.4414912388018
 21
70.98052369818524
 31
0.0
  0
LINE
  5
B97
330
6F6
100
AcDbEntity
  8
0
 62
     0
370
    -2
100
AcDbLine
 10
-431.4414912388018
 20
81.48052369818524
 30
0.0
 11
-431.4414912388018
 21
90.23052369818524
 31
0.0
  0
LINE
  5
B98
330
6F6
100
AcDbEntity
  8
0
 62
     0
370
    -2
100
AcDbLine
 10
-431.4414912388018
 20
75.98052369818524
 30
0.0
 11
-431.4414912388018
 21
78.98052369818524
 31
0.0
  0
INSERT
  5
B99
330
6F6
100
AcDbEntity
  8
0
 62
     0
370
    -2
100
AcDbBlockReference
  2
_Open30
 10
-431.4414912388018
 20
75.98052369818524
 30
0.0
 41
2.5
 42
2.5
 43
2.5
 50
90.0
  0
INSERT
  5
B9A
330
6F6
100
AcDbEntity
  8
0
 62
     0
370
    -2
100
AcDbBlockReference
  2
_Open30
 10
-431.4414912388018
 20
78.98052369818524
 30
0.0
 41
2.5
 42
2.5
 43
2.5
 50
270.0
  0
MTEXT
  5
B9B
330
6F6
100
AcDbEntity
  8
0
 62
     4
100
AcDbMText
 10
-433.5664912388018
 20
87.10552369818516
 30
0.0
 40
3.0
 41
0.0
 71
     5
 72
     1
  1
2t
 11
0.0000000000000001
 21
1.0
 31
0.0
 73
     1
 44
1.0
1001
ACAD
1000
MTEXTBEGIN
1070
    73
1070
     1
1070
    44
1040
1.0
1070
    74
1070
     0
1000
MTEXTEND
  0
POINT
  5
B9C
330
6F6
100
AcDbEntity
  8
Defpoints
 62
     0
100
AcDbPoint
 10
-437.8479722388019
 20
75.98052369818524
 30
0.0
  0
POINT
  5
B9D
330
6F6
100
AcDbEntity
  8
Defpoints
 62
     0
100
AcDbPoint
 10
-438.1248392388019
 20
78.98052369818524
 30
0.0
  0
POINT
  5
B9E
330
6F6
100
AcDbEntity
  8
Defpoints
 62
     0
100
AcDbPoint
 10
-431.4414912388018
 20
78.98052369818524
 30
0.0
  0
ENDBLK
  5
6F8
330
6F6
100
AcDbEntity
  8
0
100
AcDbBlockEnd
  0
BLOCK
  5
BDF
330
BDE
100
AcDbEntity
  8
0
100
AcDbBlockBegin
  2
*D9
 70
     1
 10
0.0
 20
0.0
 30
0.0
  3
*D9
  1

  0
LINE
  5
BE0
330
BDE
100
AcDbEntity
  8
0
 62
     0
370
    -2
100
AcDbLine
 10
-304.380102276051
 20
74.45435414718531
 30
0.0
 11
-293.103563276051
 21
74.45435414718531
 31
0.0
  0
LINE
  5
BE1
330
BDE
100
AcDbEntity
  8
0
 62
     0
370
    -2
100
AcDbLine
 10
-305.3776022760509
 20
84.45435414718531
 30
0.0
 11
-293.103563276051
 21
84.45435414718531
 31
0.0
  0
LINE
  5
BE2
330
BDE
100
AcDbEntity
  8
0
 62
     0
370
    -2
100
AcDbLine
 10
-294.353563276051
 20
76.95435414718531
 30
0.0
 11
-294.353563276051
 21
81.95435414718531
 31
0.0
  0
INSERT
  5
BE3
330
BDE
100
AcDbEntity
  8
0
 62
     0
370
    -2
100
AcDbBlockReference
  2
_Open30
 10
-294.353563276051
 20
74.45435414718531
 30
0.0
 41
2.5
 42
2.5
 43
2.5
 50
270.0
  0
INSERT
  5
BE4
330
BDE
100
AcDbEntity
  8
0
 62
     0
370
    -2
100
AcDbBlockReference
  2
_Open30
 10
-294.353563276051
 20
84.45435414718531
 30
0.0
 41
2.5
 42
2.5
 43
2.5
 50
90.0
  0
MTEXT
  5
BE5
330
BDE
100
AcDbEntity
  8
0
 62
     4
100
AcDbMText
 10
-296.478563276051
 20
79.45435414718525
 30
0.0
 40
3.0
 41
0.0
 71
     5
 72
     1
  1
10
 11
0.0000000000000001
 21
1.0
 31
0.0
 73
     1
 44
1.0
1001
ACAD
1000
MTEXTBEGIN
1070
    73
1070
     1
1070
    44
1040
1.0
1070
    74
1070
     0
1000
MTEXTEND
  0
POINT
  5
BE6
330
BDE
100
AcDbEntity
  8
Defpoints
 62
     0
100
AcDbPoint
 10
-304.630102276051
 20
74.45435414718531
 30
0.0
  0
POINT
  5
BE7
330
BDE
100
AcDbEntity
  8
Defpoints
 62
     0
100
AcDbPoint
 10
-305.6276022760509
 20
84.45435414718531
 30
0.0
  0
POINT
  5
BE8
330
BDE
100
AcDbEntity
  8
Defpoints
 62
     0
100
AcDbPoint
 10
-294.353563276051
 20
84.45435414718531
 30
0.0
  0
ENDBLK
  5
BE9
330
BDE
100
AcDbEntity
  8
0
100
AcDbBlockEnd
  0
BLOCK
  5
BEB
330
BEA
100
AcDbEntity
  8
0
100
AcDbBlockBegin
  2
*D10
 70
     1
 10
0.0
 20
0.0
 30
0.0
  3
*D10
  1

  0
LINE
  5
BEC
330
BEA
100
AcDbEntity
  8
0
 62
     0
370
    -2
100
AcDbLine
 10
-306.032558276051
 20
-25.0097348528147
 30
0.0
 11
-295.0580612760509
 21
-25.0097348528147
 31
0.0
  0
LINE
  5
BED
330
BEA
100
AcDbEntity
  8
0
 62
     0
370
    -2
100
AcDbLine
 10
-306.032558276051
 20
-1.009734852814689
 30
0.0
 11
-295.0580612760509
 21
-1.009734852814692
 31
0.0
  0
LINE
  5
BEE
330
BEA
100
AcDbEntity
  8
0
 62
     0
370
    -2
100
AcDbLine
 10
-296.3080612760509
 20
-22.5097348528147
 30
0.0
 11
-296.3080612760509
 21
-3.509734852814692
 31
0.0
  0
INSERT
  5
BEF
330
BEA
100
AcDbEntity
  8
0
 62
     0
370
    -2
100
AcDbBlockReference
  2
_Open30
 10
-296.3080612760509
 20
-25.0097348528147
 30
0.0
 41
2.5
 42
2.5
 43
2.5
 50
270.0
  0
INSERT
  5
BF0
330
BEA
100
AcDbEntity
  8
0
 62
     0
370
    -2
100
AcDbBlockReference
  2
_Open30
 10
-296.3080612760509
 20
-1.009734852814692
 30
0.0
 41
2.5
 42
2.5
 43
2.5
 50
90.0
  0
MTEXT
  5
BF1
330
BEA
100
AcDbEntity
  8
0
 62
     4
100
AcDbMText
 10
-298.4330612760508
 20
-13.00973485281474
 30
0.0
 40
3.0
 41
0.0
 71
     5
 72
     1
  1
24
 11
0.0000000000000001
 21
1.0
 31
0.0
 73
     1
 44
1.0
1001
ACAD
1000
MTEXTBEGIN
1070
    73
1070
     1
1070
    44
1040
1.0
1070
    74
1070
     0
1000
MTEXTEND
  0
POINT
  5
BF2
330
BEA
100
AcDbEntity
  8
Defpoints
 62
     0
100
AcDbPoint
 10
-306.282558276051
 20
-25.0097348528147
 30
0.0
  0
POINT
  5
BF3
330
BEA
100
AcDbEntity
  8
Defpoints
 62
     0
100
AcDbPoint
 10
-306.282558276051
 20
-1.009734852814689
 30
0.0
  0
POINT
  5
BF4
330
BEA
100
AcDbEntity
  8
Defpoints
 62
     0
100
AcDbPoint
 10
-296.3080612760509
 20
-1.009734852814692
 30
0.0
  0
ENDBLK
  5
BF5
330
BEA
100
AcDbEntity
  8
0
100
AcDbBlockEnd
  0
BLOCK
  5
BF7
330
BF6
100
AcDbEntity
  8
0
100
AcDbBlockBegin
  2
*D11
 70
     1
 10
0.0
 20
0.0
 30
0.0
  3
*D11
  1

  0
LINE
  5
BF8
330
BF6
100
AcDbEntity
  8
0
 62
     0
370
    -2
100
AcDbLine
 10
-550.5643242760509
 20
-8.292296852814686
 30
0.0
 11
-550.5643242760509
 21
12.09147614718531
 31
0.0
  0
LINE
  5
BF9
330
BF6
100
AcDbEntity
  8
0
 62
     0
370
    -2
100
AcDbLine
 10
-304.782558276051
 20
-2.259734852814688
 30
0.0
 11
-304.782558276051
 21
12.09147614718531
 31
0.0
  0
LINE
  5
BFA
330
BF6
100
AcDbEntity
  8
0
 62
     0
370
    -2
100
AcDbLine
 10
-548.0643242760509
 20
10.84147614718531
 30
0.0
 11
-307.2825582760509
 21
10.84147614718531
 31
0.0
  0
INSERT
  5
BFB
330
BF6
100
AcDbEntity
  8
0
 62
     0
370
    -2
100
AcDbBlockReference
  2
_Open30
 10
-550.5643242760509
 20
10.84147614718531
 30
0.0
 41
2.5
 42
2.5
 43
2.5
 50
180.0
  0
INSERT
  5
BFC
330
BF6
100
AcDbEntity
  8
0
 62
     0
370
    -2
100
AcDbBlockReference
  2
_Open30
 10
-304.782558276051
 20
10.84147614718531
 30
0.0
 41
2.5
 42
2.5
 43
2.5
  0
MTEXT
  5
BFD
330
BF6
100
AcDbEntity
  8
0
 62
     4
100
AcDbMText
 10
-427.6734412760509
 20
12.96647614718531
 30
0.0
 40
3.0
 41
0.0
 71
     5
 72
     1
  1
L寸法
 73
     1
 44
1.0
1001
ACAD
1000
MTEXTBEGIN
1070
    73
1070
     1
1070
    44
1040
1.0
1070
    74
1070
     0
1000
MTEXTEND
  0
POINT
  5
BFE
330
BF6
100
AcDbEntity
  8
Defpoints
 62
     0
100
AcDbPoint
 10
-550.5643242760509
 20
-8.542296852814686
 30
0.0
  0
POINT
  5
BFF
330
BF6
100
AcDbEntity
  8
Defpoints
 62
     0
100
AcDbPoint
 10
-304.782558276051
 20
-2.509734852814688
 30
0.0
  0
POINT
  5
C00
330
BF6
100
AcDbEntity
  8
Defpoints
 62
     0
100
AcDbPoint
 10
-304.782558276051
 20
10.84147614718531
 30
0.0
  0
ENDBLK
  5
C01
330
BF6
100
AcDbEntity
  8
0
100
AcDbBlockEnd
  0
BLOCK
  5
C03
330
C02
100
AcDbEntity
  8
0
100
AcDbBlockBegin
  2
*D12
 70
     1
 10
0.0
 20
0.0
 30
0.0
  3
*D12
  1

  0
LINE
  5
C04
330
C02
100
AcDbEntity
  8
0
 62
     0
370
    -2
100
AcDbLine
 10
-384.654626276051
 20
-20.55691585281469
 30
0.0
 11
-375.6100827901123
 21
-20.55691585281469
 31
0.0
  0
LINE
  5
C05
330
C02
100
AcDbEntity
  8
0
 62
     0
370
    -2
100
AcDbLine
 10
-384.4222952760509
 20
-5.467382852814688
 30
0.0
 11
-375.6100827901123
 21
-5.467382852814691
 31
0.0
  0
LINE
  5
C06
330
C02
100
AcDbEntity
  8
0
 62
     0
370
    -2
100
AcDbLine
 10
-376.8600827901123
 20
-2.967382852814691
 30
0.0
 11
-376.8600827901123
 21
-0.4673828528146914
 31
0.0
  0
LINE
  5
C07
330
C02
100
AcDbEntity
  8
0
 62
     0
370
    -2
100
AcDbLine
 10
-376.8600827901123
 20
-23.05691585281469
 30
0.0
 11
-376.8600827901123
 21
-31.18191585281463
 31
0.0
  0
LINE
  5
C08
330
C02
100
AcDbEntity
  8
0
 62
     0
370
    -2
100
AcDbLine
 10
-376.8600827901123
 20
-5.467382852814691
 30
0.0
 11
-376.8600827901123
 21
-20.55691585281469
 31
0.0
  0
INSERT
  5
C09
330
C02
100
AcDbEntity
  8
0
 62
     0
370
    -2
100
AcDbBlockReference
  2
_Open30
 10
-376.8600827901123
 20
-5.467382852814691
 30
0.0
 41
2.5
 42
2.5
 43
2.5
 50
270.0
  0
INSERT
  5
C0A
330
C02
100
AcDbEntity
  8
0
 62
     0
370
    -2
100
AcDbBlockReference
  2
_Open30
 10
-376.8600827901123
 20
-20.55691585281469
 30
0.0
 41
2.5
 42
2.5
 43
2.5
 50
90.0
  0
MTEXT
  5
C0B
330
C02
100
AcDbEntity
  8
0
 62
     4
100
AcDbMText
 10
-378.9850827901123
 20
-28.55691585281469
 30
0.0
 40
3.0
 41
0.0
 71
     5
 72
     1
  1
15
 11
0.0000000000000001
 21
1.0
 31
0.0
 73
     1
 44
1.0
1001
ACAD
1000
MTEXTBEGIN
1070
    73
1070
     1
1070
    44
1040
1.0
1070
    74
1070
     0
1000
MTEXTEND
  0
POINT
  5
C0C
330
C02
100
AcDbEntity
  8
Defpoints
 62
     0
100
AcDbPoint
 10
-384.904626276051
 20
-20.55691585281469
 30
0.0
  0
POINT
  5
C0D
330
C02
100
AcDbEntity
  8
Defpoints
 62
     0
100
AcDbPoint
 10
-384.6722952760509
 20
-5.467382852814688
 30
0.0
  0
POINT
  5
C0E
330
C02
100
AcDbEntity
  8
Defpoints
 62
     0
100
AcDbPoint
 10
-376.8600827901123
 20
-5.467382852814691
 30
0.0
  0
ENDBLK
  5
C0F
330
C02
100
AcDbEntity
  8
0
100
AcDbBlockEnd
  0
BLOCK
  5
C11
330
C10
100
AcDbEntity
  8
0
100
AcDbBlockBegin
  2
*D13
 70
     1
 10
0.0
 20
0.0
 30
0.0
  3
*D13
  1

  0
LINE
  5
C12
330
C10
100
AcDbEntity
  8
0
 62
     0
370
    -2
100
AcDbLine
 10
-428.4198622760508
 20
73.70658514718532
 30
0.0
 11
-421.0133812760508
 21
73.70658514718532
 31
0.0
  0
LINE
  5
C13
330
C10
100
AcDbEntity
  8
0
 62
     0
370
    -2
100
AcDbLine
 10
-428.696729276051
 20
76.70658514718532
 30
0.0
 11
-421.0133812760508
 21
76.70658514718532
 31
0.0
  0
LINE
  5
C14
330
C10
100
AcDbEntity
  8
0
 62
     0
370
    -2
100
AcDbLine
 10
-422.2633812760508
 20
71.20658514718532
 30
0.0
 11
-422.2633812760508
 21
68.70658514718532
 31
0.0
  0
LINE
  5
C15
330
C10
100
AcDbEntity
  8
0
 62
     0
370
    -2
100
AcDbLine
 10
-422.2633812760508
 20
79.20658514718532
 30
0.0
 11
-422.2633812760508
 21
87.95658514718532
 31
0.0
  0
LINE
  5
C16
330
C10
100
AcDbEntity
  8
0
 62
     0
370
    -2
100
AcDbLine
 10
-422.2633812760508
 20
73.70658514718532
 30
0.0
 11
-422.2633812760508
 21
76.70658514718532
 31
0.0
  0
INSERT
  5
C17
330
C10
100
AcDbEntity
  8
0
 62
     0
370
    -2
100
AcDbBlockReference
  2
_Open30
 10
-422.2633812760508
 20
73.70658514718532
 30
0.0
 41
2.5
 42
2.5
 43
2.5
 50
90.0
  0
INSERT
  5
C18
330
C10
100
AcDbEntity
  8
0
 62
     0
370
    -2
100
AcDbBlockReference
  2
_Open30
 10
-422.2633812760508
 20
76.70658514718532
 30
0.0
 41
2.5
 42
2.5
 43
2.5
 50
270.0
  0
MTEXT
  5
C19
330
C10
100
AcDbEntity
  8
0
 62
     4
100
AcDbMText
 10
-424.3883812760508
 20
84.83158514718525
 30
0.0
 40
3.0
 41
0.0
 71
     5
 72
     1
  1
2t
 11
0.0000000000000001
 21
1.0
 31
0.0
 73
     1
 44
1.0
1001
ACAD
1000
MTEXTBEGIN
1070
    73
1070
     1
1070
    44
1040
1.0
1070
    74
1070
     0
1000
MTEXTEND
  0
POINT
  5
C1A
330
C10
100
AcDbEntity
  8
Defpoints
 62
     0
100
AcDbPoint
 10
-428.6698622760509
 20
73.70658514718532
 30
0.0
  0
POINT
  5
C1B
330
C10
100
AcDbEntity
  8
Defpoints
 62
     0
100
AcDbPoint
 10
-428.946729276051
 20
76.70658514718532
 30
0.0
  0
POINT
  5
C1C
330
C10
100
AcDbEntity
  8
Defpoints
 62
     0
100
AcDbPoint
 10
-422.2633812760508
 20
76.70658514718532
 30
0.0
  0
ENDBLK
  5
C1D
330
C10
100
AcDbEntity
  8
0
100
AcDbBlockEnd
  0
BLOCK
  5
C1F
330
C1E
100
AcDbEntity
  8
0
100
AcDbBlockBegin
  2
*D14
 70
     1
 10
0.0
 20
0.0
 30
0.0
  3
*D14
  1

  0
LINE
  5
C20
330
C1E
100
AcDbEntity
  8
0
 62
     0
370
    -2
100
AcDbLine
 10
-590.8608222103896
 20
55.73356456831266
 30
0.0
 11
-612.3170913417127
 21
95.28895072605797
 31
0.0
  0
INSERT
  5
C21
330
C1E
100
AcDbEntity
  8
0
 62
     0
370
    -2
100
AcDbBlockReference
  2
_Open30
 10
-589.6688072760512
 20
53.53604314718523
 30
0.0
 41
2.5
 42
2.5
 43
2.5
 50
298.4770020669826
  0
INSERT
  5
C22
330
C1E
100
AcDbEntity
  8
0
 62
     0
370
    -2
100
AcDbBlockReference
  2
_Open30
 10
-613.5091062760511
 20
97.48647214718538
 30
0.0
 41
2.5
 42
2.5
 43
2.5
 50
118.4770020669826
  0
MTEXT
  5
C23
102
{ACAD_XDICTIONARY
360
1517
102
}
330
C1E
100
AcDbEntity
  8
0
 62
     4
100
AcDbMText
 10
-599.721063568093
 20
76.52447034137299
 30
0.0
 40
3.0
 41
0.0
 71
     5
 72
     1
  1
\U+220550
 11
0.476805973735393
 21
-0.8790085684509815
 31
0.0
 73
     1
 44
1.0
1001
ACAD
1000
MTEXTBEGIN
1070
    73
1070
     1
1070
    44
1040
1.0
1070
    74
1070
     0
1000
MTEXTEND
  0
POINT
  5
C24
330
C1E
100
AcDbEntity
  8
Defpoints
 62
     0
100
AcDbPoint
 10
-613.5091062760511
 20
97.48647214718538
 30
0.0
  0
POINT
  5
C25
330
C1E
100
AcDbEntity
  8
Defpoints
 62
     0
100
AcDbPoint
 10
-589.6688072760512
 20
53.53604314718523
 30
0.0
  0
ENDBLK
  5
C26
330
C1E
100
AcDbEntity
  8
0
100
AcDbBlockEnd
  0
BLOCK
  5
C28
330
C27
100
AcDbEntity
  8
0
100
AcDbBlockBegin
  2
*D15
 70
     1
 10
0.0
 20
0.0
 30
0.0
  3
*D15
  1

  0
LINE
  5
C29
330
C27
100
AcDbEntity
  8
0
 62
     0
370
    -2
100
AcDbLine
 10
-601.838956276051
 20
38.51125814718531
 30
0.0
 11
-649.4267492760508
 21
38.51125814718532
 31
0.0
  0
LINE
  5
C2A
330
C27
100
AcDbEntity
  8
0
 62
     0
370
    -2
100
AcDbLine
 10
-592.2260052760508
 20
120.2481301471853
 30
0.0
 11
-649.4267492760508
 21
120.2481301471853
 31
0.0
  0
LINE
  5
C2B
330
C27
100
AcDbEntity
  8
0
 62
     0
370
    -2
100
AcDbLine
 10
-648.1767492760508
 20
41.01125814718531
 30
0.0
 11
-648.1767492760508
 21
117.7481301471853
 31
0.0
  0
INSERT
  5
C2C
330
C27
100
AcDbEntity
  8
0
 62
     0
370
    -2
100
AcDbBlockReference
  2
_Open30
 10
-648.1767492760508
 20
38.51125814718532
 30
0.0
 41
2.5
 42
2.5
 43
2.5
 50
270.0
  0
INSERT
  5
C2D
330
C27
100
AcDbEntity
  8
0
 62
     0
370
    -2
100
AcDbBlockReference
  2
_Open30
 10
-648.1767492760508
 20
120.2481301471853
 30
0.0
 41
2.5
 42
2.5
 43
2.5
 50
90.0
  0
MTEXT
  5
C2E
330
C27
100
AcDbEntity
  8
0
 62
     4
100
AcDbMText
 10
-650.3017492760508
 20
79.37969414718522
 30
0.0
 40
3.0
 41
0.0
 71
     5
 72
     1
  1
82
 11
0.0000000000000001
 21
1.0
 31
0.0
 73
     1
 44
1.0
1001
ACAD
1000
MTEXTBEGIN
1070
    73
1070
     1
1070
    44
1040
1.0
1070
    74
1070
     0
1000
MTEXTEND
  0
POINT
  5
C2F
330
C27
100
AcDbEntity
  8
Defpoints
 62
     0
100
AcDbPoint
 10
-601.588956276051
 20
38.51125814718531
 30
0.0
  0
POINT
  5
C30
330
C27
100
AcDbEntity
  8
Defpoints
 62
     0
100
AcDbPoint
 10
-591.9760052760508
 20
120.2481301471853
 30
0.0
  0
POINT
  5
C31
330
C27
100
AcDbEntity
  8
Defpoints
 62
     0
100
AcDbPoint
 10
-648.1767492760508
 20
120.2481301471853
 30
0.0
  0
ENDBLK
  5
C32
330
C27
100
AcDbEntity
  8
0
100
AcDbBlockEnd
  0
BLOCK
  5
C34
330
C33
100
AcDbEntity
  8
0
100
AcDbBlockBegin
  2
*D16
 70
     1
 10
0.0
 20
0.0
 30
0.0
  3
*D16
  1

  0
LINE
  5
C35
330
C33
100
AcDbEntity
  8
0
 62
     0
370
    -2
100
AcDbLine
 10
-638.594006276051
 20
-12.89719185281469
 30
0.0
 11
-638.594006276051
 21
12.09147614718531
 31
0.0
  0
LINE
  5
C36
330
C33
100
AcDbEntity
  8
0
 62
     0
370
    -2
100
AcDbLine
 10
-550.6306802760508
 20
-8.382275852814688
 30
0.0
 11
-550.6306802760508
 21
12.09147614718531
 31
0.0
  0
LINE
  5
C37
330
C33
100
AcDbEntity
  8
0
 62
     0
370
    -2
100
AcDbLine
 10
-636.0940062760509
 20
10.84147614718531
 30
0.0
 11
-553.1306802760508
 21
10.84147614718531
 31
0.0
  0
INSERT
  5
C38
330
C33
100
AcDbEntity
  8
0
 62
     0
370
    -2
100
AcDbBlockReference
  2
_Open30
 10
-638.594006276051
 20
10.84147614718531
 30
0.0
 41
2.5
 42
2.5
 43
2.5
 50
180.0
  0
INSERT
  5
C39
330
C33
100
AcDbEntity
  8
0
 62
     0
370
    -2
100
AcDbBlockReference
  2
_Open30
 10
-550.6306802760508
 20
10.84147614718531
 30
0.0
 41
2.5
 42
2.5
 43
2.5
  0
MTEXT
  5
C3A
330
C33
100
AcDbEntity
  8
0
 62
     4
100
AcDbMText
 10
-594.612343276051
 20
12.96647614718531
 30
0.0
 40
3.0
 41
0.0
 71
     5
 72
     1
  1
88
 73
     1
 44
1.0
1001
ACAD
1000
MTEXTBEGIN
1070
    73
1070
     1
1070
    44
1040
1.0
1070
    74
1070
     0
1000
MTEXTEND
  0
POINT
  5
C3B
330
C33
100
AcDbEntity
  8
Defpoints
 62
     0
100
AcDbPoint
 10
-638.594006276051
 20
-13.14719185281469
 30
0.0
  0
POINT
  5
C3C
330
C33
100
AcDbEntity
  8
Defpoints
 62
     0
100
AcDbPoint
 10
-550.6306802760508
 20
-8.632275852814688
 30
0.0
  0
POINT
  5
C3D
330
C33
100
AcDbEntity
  8
Defpoints
 62
     0
100
AcDbPoint
 10
-550.6306802760508
 20
10.84147614718531
 30
0.0
  0
ENDBLK
  5
C3E
330
C33
100
AcDbEntity
  8
0
100
AcDbBlockEnd
  0
BLOCK
  5
11F0
330
11EF
100
AcDbEntity
  8
0
100
AcDbBlockBegin
  2
*D18
 70
     1
 10
0.0
 20
0.0
 30
0.0
  3
*D18
  1

  0
LINE
  5
1250
330
11EF
100
AcDbEntity
  8
0
 62
     0
370
    -2
100
AcDbLine
 10
170.4659623910172
 20
69.29746796826885
 30
0.0
 11
181.7425013910173
 21
69.29746796826885
 31
0.0
  0
LINE
  5
1251
330
11EF
100
AcDbEntity
  8
0
 62
     0
370
    -2
100
AcDbLine
 10
169.4684623910174
 20
79.29746796826885
 30
0.0
 11
181.7425013910173
 21
79.29746796826885
 31
0.0
  0
LINE
  5
1252
330
11EF
100
AcDbEntity
  8
0
 62
     0
370
    -2
100
AcDbLine
 10
180.4925013910173
 20
71.79746796826885
 30
0.0
 11
180.4925013910173
 21
76.79746796826885
 31
0.0
  0
INSERT
  5
1253
330
11EF
100
AcDbEntity
  8
0
 62
     0
370
    -2
100
AcDbBlockReference
  2
_Open30
 10
180.4925013910173
 20
69.29746796826885
 30
0.0
 41
2.5
 42
2.5
 43
2.5
 50
270.0
  0
INSERT
  5
1254
330
11EF
100
AcDbEntity
  8
0
 62
     0
370
    -2
100
AcDbBlockReference
  2
_Open30
 10
180.4925013910173
 20
79.29746796826885
 30
0.0
 41
2.5
 42
2.5
 43
2.5
 50
90.0
  0
MTEXT
  5
1255
330
11EF
100
AcDbEntity
  8
0
 62
     4
100
AcDbMText
 10
178.3675013910172
 20
74.29746796826887
 30
0.0
 40
3.0
 41
0.0
 71
     5
 72
     1
  1
10
 11
0.0000000000000001
 21
1.0
 31
0.0
 73
     1
 44
1.0
1001
ACAD
1000
MTEXTBEGIN
1070
    73
1070
     1
1070
    44
1040
1.0
1070
    74
1070
     0
1000
MTEXTEND
  0
POINT
  5
1256
330
11EF
100
AcDbEntity
  8
Defpoints
 62
     0
100
AcDbPoint
 10
170.2159623910173
 20
69.29746796826885
 30
0.0
  0
POINT
  5
1257
330
11EF
100
AcDbEntity
  8
Defpoints
 62
     0
100
AcDbPoint
 10
169.2184623910174
 20
79.29746796826885
 30
0.0
  0
POINT
  5
1258
330
11EF
100
AcDbEntity
  8
Defpoints
 62
     0
100
AcDbPoint
 10
180.4925013910173
 20
79.29746796826885
 30
0.0
  0
ENDBLK
  5
11F1
330
11EF
100
AcDbEntity
  8
0
100
AcDbBlockEnd
  0
BLOCK
  5
11FC
330
11FB
100
AcDbEntity
  8
0
100
AcDbBlockBegin
  2
*D19
 70
     1
 10
0.0
 20
0.0
 30
0.0
  3
*D19
  1

  0
LINE
  5
1259
330
11FB
100
AcDbEntity
  8
0
 62
     0
370
    -2
100
AcDbLine
 10
168.8135063910173
 20
-30.16662103173116
 30
0.0
 11
179.7880033910174
 21
-30.16662103173116
 31
0.0
  0
LINE
  5
125A
330
11FB
100
AcDbEntity
  8
0
 62
     0
370
    -2
100
AcDbLine
 10
168.8135063910173
 20
-6.166621031731153
 30
0.0
 11
179.7880033910174
 21
-6.166621031731157
 31
0.0
  0
LINE
  5
125B
330
11FB
100
AcDbEntity
  8
0
 62
     0
370
    -2
100
AcDbLine
 10
178.5380033910174
 20
-27.66662103173116
 30
0.0
 11
178.5380033910174
 21
-8.666621031731157
 31
0.0
  0
INSERT
  5
125C
330
11FB
100
AcDbEntity
  8
0
 62
     0
370
    -2
100
AcDbBlockReference
  2
_Open30
 10
178.5380033910174
 20
-30.16662103173116
 30
0.0
 41
2.5
 42
2.5
 43
2.5
 50
270.0
  0
INSERT
  5
125D
330
11FB
100
AcDbEntity
  8
0
 62
     0
370
    -2
100
AcDbBlockReference
  2
_Open30
 10
178.5380033910174
 20
-6.166621031731157
 30
0.0
 41
2.5
 42
2.5
 43
2.5
 50
90.0
  0
MTEXT
  5
125E
330
11FB
100
AcDbEntity
  8
0
 62
     4
100
AcDbMText
 10
176.4130033910174
 20
-18.16662103173113
 30
0.0
 40
3.0
 41
0.0
 71
     5
 72
     1
  1
24
 11
0.0000000000000001
 21
1.0
 31
0.0
 73
     1
 44
1.0
1001
ACAD
1000
MTEXTBEGIN
1070
    73
1070
     1
1070
    44
1040
1.0
1070
    74
1070
     0
1000
MTEXTEND
  0
POINT
  5
125F
330
11FB
100
AcDbEntity
  8
Defpoints
 62
     0
100
AcDbPoint
 10
168.5635063910173
 20
-30.16662103173116
 30
0.0
  0
POINT
  5
1260
330
11FB
100
AcDbEntity
  8
Defpoints
 62
     0
100
AcDbPoint
 10
168.5635063910173
 20
-6.166621031731153
 30
0.0
  0
POINT
  5
1261
330
11FB
100
AcDbEntity
  8
Defpoints
 62
     0
100
AcDbPoint
 10
178.5380033910174
 20
-6.166621031731157
 30
0.0
  0
ENDBLK
  5
11FD
330
11FB
100
AcDbEntity
  8
0
100
AcDbBlockEnd
  0
BLOCK
  5
1208
330
1207
100
AcDbEntity
  8
0
100
AcDbBlockBegin
  2
*D20
 70
     1
 10
0.0
 20
0.0
 30
0.0
  3
*D20
  1

  0
LINE
  5
1262
330
1207
100
AcDbEntity
  8
0
 62
     0
370
    -2
100
AcDbLine
 10
-75.71825960898263
 20
-13.44918303173115
 30
0.0
 11
-75.71825960898263
 21
6.934589968268852
 31
0.0
  0
LINE
  5
1263
330
1207
100
AcDbEntity
  8
0
 62
     0
370
    -2
100
AcDbLine
 10
170.0635063910173
 20
-7.416621031731153
 30
0.0
 11
170.0635063910173
 21
6.934589968268852
 31
0.0
  0
LINE
  5
1264
330
1207
100
AcDbEntity
  8
0
 62
     0
370
    -2
100
AcDbLine
 10
-73.21825960898263
 20
5.684589968268852
 30
0.0
 11
167.5635063910173
 21
5.684589968268852
 31
0.0
  0
INSERT
  5
1265
330
1207
100
AcDbEntity
  8
0
 62
     0
370
    -2
100
AcDbBlockReference
  2
_Open30
 10
-75.71825960898263
 20
5.684589968268852
 30
0.0
 41
2.5
 42
2.5
 43
2.5
 50
180.0
  0
INSERT
  5
1266
330
1207
100
AcDbEntity
  8
0
 62
     0
370
    -2
100
AcDbBlockReference
  2
_Open30
 10
170.0635063910173
 20
5.684589968268852
 30
0.0
 41
2.5
 42
2.5
 43
2.5
  0
MTEXT
  5
1267
330
1207
100
AcDbEntity
  8
0
 62
     4
100
AcDbMText
 10
47.17262339101734
 20
7.809589968268852
 30
0.0
 40
3.0
 41
0.0
 71
     5
 72
     1
  1
L寸法
 73
     1
 44
1.0
1001
ACAD
1000
MTEXTBEGIN
1070
    73
1070
     1
1070
    44
1040
1.0
1070
    74
1070
     0
1000
MTEXTEND
  0
POINT
  5
1268
330
1207
100
AcDbEntity
  8
Defpoints
 62
     0
100
AcDbPoint
 10
-75.71825960898263
 20
-13.69918303173115
 30
0.0
  0
POINT
  5
1269
330
1207
100
AcDbEntity
  8
Defpoints
 62
     0
100
AcDbPoint
 10
170.0635063910173
 20
-7.666621031731153
 30
0.0
  0
POINT
  5
126A
330
1207
100
AcDbEntity
  8
Defpoints
 62
     0
100
AcDbPoint
 10
170.0635063910173
 20
5.684589968268852
 30
0.0
  0
ENDBLK
  5
1209
330
1207
100
AcDbEntity
  8
0
100
AcDbBlockEnd
  0
BLOCK
  5
1214
330
1213
100
AcDbEntity
  8
0
100
AcDbBlockBegin
  2
*D21
 70
     1
 10
0.0
 20
0.0
 30
0.0
  3
*D21
  1

  0
LINE
  5
126B
330
1213
100
AcDbEntity
  8
0
 62
     0
370
    -2
100
AcDbLine
 10
90.19143839101724
 20
-25.71380203173115
 30
0.0
 11
99.23598187695597
 21
-25.71380203173115
 31
0.0
  0
LINE
  5
126C
330
1213
100
AcDbEntity
  8
0
 62
     0
370
    -2
100
AcDbLine
 10
90.42376939101741
 20
-10.62426903173116
 30
0.0
 11
99.23598187695597
 21
-10.62426903173116
 31
0.0
  0
LINE
  5
126D
330
1213
100
AcDbEntity
  8
0
 62
     0
370
    -2
100
AcDbLine
 10
97.98598187695597
 20
-8.124269031731161
 30
0.0
 11
97.98598187695597
 21
-5.624269031731161
 31
0.0
  0
LINE
  5
126E
330
1213
100
AcDbEntity
  8
0
 62
     0
370
    -2
100
AcDbLine
 10
97.98598187695597
 20
-28.21380203173115
 30
0.0
 11
97.98598187695596
 21
-36.33880203173118
 31
0.0
  0
LINE
  5
126F
330
1213
100
AcDbEntity
  8
0
 62
     0
370
    -2
100
AcDbLine
 10
97.98598187695597
 20
-10.62426903173116
 30
0.0
 11
97.98598187695597
 21
-25.71380203173115
 31
0.0
  0
INSERT
  5
1270
330
1213
100
AcDbEntity
  8
0
 62
     0
370
    -2
100
AcDbBlockReference
  2
_Open30
 10
97.98598187695597
 20
-10.62426903173116
 30
0.0
 41
2.5
 42
2.5
 43
2.5
 50
270.0
  0
INSERT
  5
1271
330
1213
100
AcDbEntity
  8
0
 62
     0
370
    -2
100
AcDbBlockReference
  2
_Open30
 10
97.98598187695597
 20
-25.71380203173115
 30
0.0
 41
2.5
 42
2.5
 43
2.5
 50
90.0
  0
MTEXT
  5
1272
330
1213
100
AcDbEntity
  8
0
 62
     4
100
AcDbMText
 10
95.86098187695597
 20
-33.71380203173116
 30
0.0
 40
3.0
 41
0.0
 71
     5
 72
     1
  1
15
 11
0.0000000000000001
 21
1.0
 31
0.0
 73
     1
 44
1.0
1001
ACAD
1000
MTEXTBEGIN
1070
    73
1070
     1
1070
    44
1040
1.0
1070
    74
1070
     0
1000
MTEXTEND
  0
POINT
  5
1273
330
1213
100
AcDbEntity
  8
Defpoints
 62
     0
100
AcDbPoint
 10
89.94143839101724
 20
-25.71380203173115
 30
0.0
  0
POINT
  5
1274
330
1213
100
AcDbEntity
  8
Defpoints
 62
     0
100
AcDbPoint
 10
90.1737693910174
 20
-10.62426903173116
 30
0.0
  0
POINT
  5
1275
330
1213
100
AcDbEntity
  8
Defpoints
 62
     0
100
AcDbPoint
 10
97.98598187695597
 20
-10.62426903173116
 30
0.0
  0
ENDBLK
  5
1215
330
1213
100
AcDbEntity
  8
0
100
AcDbBlockEnd
  0
BLOCK
  5
1222
330
1221
100
AcDbEntity
  8
0
100
AcDbBlockBegin
  2
*D22
 70
     1
 10
0.0
 20
0.0
 30
0.0
  3
*D22
  1

  0
LINE
  5
1276
330
1221
100
AcDbEntity
  8
0
 62
     0
370
    -2
100
AcDbLine
 10
46.4262023910174
 20
68.54969896826884
 30
0.0
 11
53.83268339101738
 21
68.54969896826884
 31
0.0
  0
LINE
  5
1277
330
1221
100
AcDbEntity
  8
0
 62
     0
370
    -2
100
AcDbLine
 10
46.14933539101724
 20
71.54969896826884
 30
0.0
 11
53.83268339101738
 21
71.54969896826884
 31
0.0
  0
LINE
  5
1278
330
1221
100
AcDbEntity
  8
0
 62
     0
370
    -2
100
AcDbLine
 10
52.58268339101738
 20
66.04969896826884
 30
0.0
 11
52.58268339101738
 21
63.54969896826884
 31
0.0
  0
LINE
  5
1279
330
1221
100
AcDbEntity
  8
0
 62
     0
370
    -2
100
AcDbLine
 10
52.58268339101738
 20
74.04969896826884
 30
0.0
 11
52.58268339101739
 21
82.79969896826884
 31
0.0
  0
LINE
  5
127A
330
1221
100
AcDbEntity
  8
0
 62
     0
370
    -2
100
AcDbLine
 10
52.58268339101738
 20
68.54969896826884
 30
0.0
 11
52.58268339101738
 21
71.54969896826884
 31
0.0
  0
INSERT
  5
127B
330
1221
100
AcDbEntity
  8
0
 62
     0
370
    -2
100
AcDbBlockReference
  2
_Open30
 10
52.58268339101738
 20
68.54969896826884
 30
0.0
 41
2.5
 42
2.5
 43
2.5
 50
90.0
  0
INSERT
  5
127C
330
1221
100
AcDbEntity
  8
0
 62
     0
370
    -2
100
AcDbBlockReference
  2
_Open30
 10
52.58268339101738
 20
71.54969896826884
 30
0.0
 41
2.5
 42
2.5
 43
2.5
 50
270.0
  0
MTEXT
  5
127D
330
1221
100
AcDbEntity
  8
0
 62
     4
100
AcDbMText
 10
50.45768339101737
 20
79.67469896826885
 30
0.0
 40
3.0
 41
0.0
 71
     5
 72
     1
  1
2t
 11
0.0000000000000001
 21
1.0
 31
0.0
 73
     1
 44
1.0
1001
ACAD
1000
MTEXTBEGIN
1070
    73
1070
     1
1070
    44
1040
1.0
1070
    74
1070
     0
1000
MTEXTEND
  0
POINT
  5
127E
330
1221
100
AcDbEntity
  8
Defpoints
 62
     0
100
AcDbPoint
 10
46.17620239101739
 20
68.54969896826884
 30
0.0
  0
POINT
  5
127F
330
1221
100
AcDbEntity
  8
Defpoints
 62
     0
100
AcDbPoint
 10
45.89933539101724
 20
71.54969896826884
 30
0.0
  0
POINT
  5
1280
330
1221
100
AcDbEntity
  8
Defpoints
 62
     0
100
AcDbPoint
 10
52.58268339101738
 20
71.54969896826884
 30
0.0
  0
ENDBLK
  5
1223
330
1221
100
AcDbEntity
  8
0
100
AcDbBlockEnd
  0
BLOCK
  5
1230
330
122F
100
AcDbEntity
  8
0
100
AcDbBlockBegin
  2
*D23
 70
     1
 10
0.0
 20
0.0
 30
0.0
  3
*D23
  1

  0
LINE
  5
1281
330
122F
100
AcDbEntity
  8
0
 62
     0
370
    -2
100
AcDbLine
 10
-116.0147575433214
 20
50.57667838939622
 30
0.0
 11
-137.4710266746444
 21
90.13206454714145
 31
0.0
  0
INSERT
  5
1282
330
122F
100
AcDbEntity
  8
0
 62
     0
370
    -2
100
AcDbBlockReference
  2
_Open30
 10
-114.8227426089829
 20
48.37915696826876
 30
0.0
 41
2.5
 42
2.5
 43
2.5
 50
298.4770020669826
  0
INSERT
  5
1283
330
122F
100
AcDbEntity
  8
0
 62
     0
370
    -2
100
AcDbBlockReference
  2
_Open30
 10
-138.6630416089829
 20
92.3295859682689
 30
0.0
 41
2.5
 42
2.5
 43
2.5
 50
118.4770020669826
  0
MTEXT
  5
1284
102
{ACAD_XDICTIONARY
360
1519
102
}
330
122F
100
AcDbEntity
  8
0
 62
     4
100
AcDbMText
 10
-124.8749989010246
 20
71.36758416245655
 30
0.0
 40
3.0
 41
0.0
 71
     5
 72
     1
  1
\U+220550
 11
0.476805973735393
 21
-0.8790085684509815
 31
0.0
 73
     1
 44
1.0
1001
ACAD
1000
MTEXTBEGIN
1070
    73
1070
     1
1070
    44
1040
1.0
1070
    74
1070
     0
1000
MTEXTEND
  0
POINT
  5
1285
330
122F
100
AcDbEntity
  8
Defpoints
 62
     0
100
AcDbPoint
 10
-138.6630416089829
 20
92.3295859682689
 30
0.0
  0
POINT
  5
1286
330
122F
100
AcDbEntity
  8
Defpoints
 62
     0
100
AcDbPoint
 10
-114.8227426089829
 20
48.37915696826876
 30
0.0
  0
ENDBLK
  5
1231
330
122F
100
AcDbEntity
  8
0
100
AcDbBlockEnd
  0
BLOCK
  5
1239
330
1238
100
AcDbEntity
  8
0
100
AcDbBlockBegin
  2
*D24
 70
     1
 10
0.0
 20
0.0
 30
0.0
  3
*D24
  1

  0
LINE
  5
1287
330
1238
100
AcDbEntity
  8
0
 62
     0
370
    -2
100
AcDbLine
 10
-126.9928916089827
 20
33.35437196826885
 30
0.0
 11
-174.5806846089825
 21
33.35437196826886
 31
0.0
  0
LINE
  5
1288
330
1238
100
AcDbEntity
  8
0
 62
     0
370
    -2
100
AcDbLine
 10
-117.3799406089825
 20
115.0912439682688
 30
0.0
 11
-174.5806846089825
 21
115.0912439682688
 31
0.0
  0
LINE
  5
1289
330
1238
100
AcDbEntity
  8
0
 62
     0
370
    -2
100
AcDbLine
 10
-173.3306846089825
 20
35.85437196826886
 30
0.0
 11
-173.3306846089825
 21
112.5912439682688
 31
0.0
  0
INSERT
  5
128A
330
1238
100
AcDbEntity
  8
0
 62
     0
370
    -2
100
AcDbBlockReference
  2
_Open30
 10
-173.3306846089825
 20
33.35437196826886
 30
0.0
 41
2.5
 42
2.5
 43
2.5
 50
270.0
  0
INSERT
  5
128B
330
1238
100
AcDbEntity
  8
0
 62
     0
370
    -2
100
AcDbBlockReference
  2
_Open30
 10
-173.3306846089825
 20
115.0912439682688
 30
0.0
 41
2.5
 42
2.5
 43
2.5
 50
90.0
  0
MTEXT
  5
128C
330
1238
100
AcDbEntity
  8
0
 62
     4
100
AcDbMText
 10
-175.4556846089825
 20
74.22280796826882
 30
0.0
 40
3.0
 41
0.0
 71
     5
 72
     1
  1
82
 11
0.0000000000000001
 21
1.0
 31
0.0
 73
     1
 44
1.0
1001
ACAD
1000
MTEXTBEGIN
1070
    73
1070
     1
1070
    44
1040
1.0
1070
    74
1070
     0
1000
MTEXTEND
  0
POINT
  5
128D
330
1238
100
AcDbEntity
  8
Defpoints
 62
     0
100
AcDbPoint
 10
-126.7428916089827
 20
33.35437196826885
 30
0.0
  0
POINT
  5
128E
330
1238
100
AcDbEntity
  8
Defpoints
 62
     0
100
AcDbPoint
 10
-117.1299406089825
 20
115.0912439682688
 30
0.0
  0
POINT
  5
128F
330
1238
100
AcDbEntity
  8
Defpoints
 62
     0
100
AcDbPoint
 10
-173.3306846089825
 20
115.0912439682688
 30
0.0
  0
ENDBLK
  5
123A
330
1238
100
AcDbEntity
  8
0
100
AcDbBlockEnd
  0
BLOCK
  5
1245
330
1244
100
AcDbEntity
  8
0
100
AcDbBlockBegin
  2
*D25
 70
     1
 10
0.0
 20
0.0
 30
0.0
  3
*D25
  1

  0
LINE
  5
1290
330
1244
100
AcDbEntity
  8
0
 62
     0
370
    -2
100
AcDbLine
 10
-163.7479416089827
 20
-18.05407803173115
 30
0.0
 11
-163.7479416089827
 21
6.934589968268852
 31
0.0
  0
LINE
  5
1291
330
1244
100
AcDbEntity
  8
0
 62
     0
370
    -2
100
AcDbLine
 10
-75.78461560898256
 20
-13.53916203173115
 30
0.0
 11
-75.78461560898256
 21
6.934589968268852
 31
0.0
  0
LINE
  5
1292
330
1244
100
AcDbEntity
  8
0
 62
     0
370
    -2
100
AcDbLine
 10
-161.2479416089827
 20
5.684589968268852
 30
0.0
 11
-78.28461560898256
 21
5.684589968268852
 31
0.0
  0
INSERT
  5
1293
330
1244
100
AcDbEntity
  8
0
 62
     0
370
    -2
100
AcDbBlockReference
  2
_Open30
 10
-163.7479416089827
 20
5.684589968268852
 30
0.0
 41
2.5
 42
2.5
 43
2.5
 50
180.0
  0
INSERT
  5
1294
330
1244
100
AcDbEntity
  8
0
 62
     0
370
    -2
100
AcDbBlockReference
  2
_Open30
 10
-75.78461560898256
 20
5.684589968268852
 30
0.0
 41
2.5
 42
2.5
 43
2.5
  0
MTEXT
  5
1295
330
1244
100
AcDbEntity
  8
0
 62
     4
100
AcDbMText
 10
-119.7662786089826
 20
7.809589968268852
 30
0.0
 40
3.0
 41
0.0
 71
     5
 72
     1
  1
88
 73
     1
 44
1.0
1001
ACAD
1000
MTEXTBEGIN
1070
    73
1070
     1
1070
    44
1040
1.0
1070
    74
1070
     0
1000
MTEXTEND
  0
POINT
  5
1296
330
1244
100
AcDbEntity
  8
Defpoints
 62
     0
100
AcDbPoint
 10
-163.7479416089827
 20
-18.30407803173115
 30
0.0
  0
POINT
  5
1297
330
1244
100
AcDbEntity
  8
Defpoints
 62
     0
100
AcDbPoint
 10
-75.78461560898256
 20
-13.78916203173115
 30
0.0
  0
POINT
  5
1298
330
1244
100
AcDbEntity
  8
Defpoints
 62
     0
100
AcDbPoint
 10
-75.78461560898256
 20
5.684589968268852
 30
0.0
  0
ENDBLK
  5
1246
330
1244
100
AcDbEntity
  8
0
100
AcDbBlockEnd
  0
ENDSEC
  0
SECTION
  2
ENTITIES
  0
LINE
  5
4D2
330
6B
100
AcDbEntity
  8
0
 62
     3
100
AcDbLine
 10
-465.3022612388018
 20
77.48052369818523
 30
0.0
 11
-465.3022612388018
 21
75.98052369818524
 31
0.0
  0
LINE
  5
4D3
330
6B
100
AcDbEntity
  8
0
 62
     3
100
AcDbLine
 10
-465.3022612388018
 20
77.48052369818523
 30
0.0
 11
-460.8022612388018
 21
77.48052369818523
 31
0.0
  0
LINE
  5
4D4
330
6B
100
AcDbEntity
  8
0
 62
     3
100
AcDbLine
 10
-460.8022612388018
 20
77.48052369818523
 30
0.0
 11
-456.3022612388018
 21
75.98052369818524
 31
0.0
  0
LINE
  5
4D5
330
6B
100
AcDbEntity
  8
0
 62
     3
100
AcDbLine
 10
-453.3022612388018
 20
75.98052369818524
 30
0.0
 11
-456.3022612388018
 21
75.98052369818524
 31
0.0
  0
LINE
  5
4D6
330
6B
100
AcDbEntity
  8
0
 62
     3
100
AcDbLine
 10
-465.3022612388018
 20
75.98052369818524
 30
0.0
 11
-468.4140282388018
 21
75.98052369818524
 31
0.0
  0
LINE
  5
4D7
330
6B
100
AcDbEntity
  8
0
 62
     3
100
AcDbLine
 10
-453.3022612388018
 20
77.48052369818523
 30
0.0
 11
-448.8022612388018
 21
77.48052369818523
 31
0.0
  0
LINE
  5
4D8
330
6B
100
AcDbEntity
  8
0
 62
     3
100
AcDbLine
 10
-453.3022612388018
 20
77.48052369818523
 30
0.0
 11
-453.3022612388018
 21
75.98052369818524
 31
0.0
  0
LINE
  5
4D9
330
6B
100
AcDbEntity
  8
0
 62
     3
100
AcDbLine
 10
-439.0334992388019
 20
78.98052369818524
 30
0.0
 11
-471.2919222388018
 21
78.98052369818524
 31
0.0
  0
LINE
  5
4DA
330
6B
100
AcDbEntity
  8
0
 62
     3
100
AcDbLine
 10
-471.3712852388018
 20
77.00353169818523
 30
0.0
 11
-468.3022612388018
 21
75.98052369818524
 31
0.0
  0
LINE
  5
4DB
330
6B
100
AcDbEntity
  8
0
 62
     3
100
AcDbLine
 10
-448.8022612388018
 20
77.48052369818523
 30
0.0
 11
-444.3022612388018
 21
75.98052369818524
 31
0.0
  0
LINE
  5
4DC
330
6B
100
AcDbEntity
  8
0
 62
     3
100
AcDbLine
 10
-444.3022612388018
 20
75.98052369818524
 30
0.0
 11
-440.0891852388018
 21
75.98052369818524
 31
0.0
  0
LINE
  5
4DD
330
6B
100
AcDbEntity
  8
0
 62
     3
100
AcDbLine
 10
-338.7843902388019
 20
78.25268269818524
 30
0.0
 11
-356.7190502388019
 21
78.25268269818524
 31
0.0
  0
ARC
  5
4DE
330
6B
100
AcDbEntity
  8
0
 62
     3
100
AcDbCircle
 10
-314.8057122388019
 20
85.97829269818523
 30
0.0
 40
0.75
100
AcDbArc
 50
0.0
 51
90.0
  0
LINE
  5
4DF
330
6B
100
AcDbEntity
  8
0
 62
     3
100
AcDbLine
 10
-323.0905212388019
 20
86.72829269818523
 30
0.0
 11
-314.8057122388019
 21
86.72829269818523
 31
0.0
  0
ARC
  5
4E0
330
6B
100
AcDbEntity
  8
0
 62
     3
100
AcDbCircle
 10
-323.0905212388019
 20
85.97829269818523
 30
0.0
 40
0.75
100
AcDbArc
 50
90.0
 51
178.363303
  0
LINE
  5
4E1
330
6B
100
AcDbEntity
  8
0
  6
HIDDEN
 62
    15
100
AcDbLine
 10
-323.8402152388019
 20
84.99971369818522
 30
0.0
 11
-323.8400962388019
 21
85.00388369818523
 31
0.0
  0
LINE
  5
4E2
330
6B
100
AcDbEntity
  8
0
 62
     3
100
AcDbLine
 10
-338.4487402388018
 20
78.60329269818523
 30
0.0
 11
-338.4487402388018
 21
78.66934469818523
 31
0.0
  0
ARC
  5
4E3
330
6B
100
AcDbEntity
  8
0
 62
     3
100
AcDbCircle
 10
-337.6987402388019
 20
78.66934469818523
 30
0.0
 40
0.75
100
AcDbArc
 50
95.27473400000014
 51
180.0
  0
ARC
  5
4E4
330
6B
100
AcDbEntity
  8
0
 62
     3
100
AcDbCircle
 10
-338.8237402388019
 20
78.60329269818523
 30
0.0
 40
0.375
100
AcDbArc
 50
270.0
 51
0.0
  0
LINE
  5
4E5
330
6B
100
AcDbEntity
  8
0
 62
     3
100
AcDbLine
 10
-539.7826062388019
 20
78.25413569818524
 30
0.0
 11
-539.7826062388019
 21
76.75413569818523
 31
0.0
  0
LINE
  5
4E6
330
6B
100
AcDbEntity
  8
0
 62
     3
100
AcDbLine
 10
-536.2974062388018
 20
79.91265769818522
 30
0.0
 11
-550.3010832388017
 21
79.91265769818522
 31
0.0
  0
ARC
  5
4E7
330
6B
100
AcDbEntity
  8
0
 62
     3
100
AcDbCircle
 10
-536.2974062388018
 20
77.41265769818522
 30
0.0
 40
2.5
100
AcDbArc
 50
17.45760299999987
 51
90.0
  0
CIRCLE
  5
4E8
330
6B
100
AcDbEntity
  8
0
100
AcDbCircle
 10
-454.8056032388019
 20
75.92829169818523
 30
0.0
 40
16.957712
  0
LINE
  5
4E9
330
6B
100
AcDbEntity
  8
0
 62
     3
100
AcDbLine
 10
-533.9125582388019
 20
76.66265769818521
 30
0.0
 11
-550.3010832388017
 21
74.96489069818522
 31
0.0
  0
LINE
  5
4EA
330
6B
100
AcDbEntity
  8
0
 62
     3
100
AcDbLine
 10
-313.8082122388019
 20
76.72829269818523
 30
0.0
 11
-314.0557122388019
 21
85.97829269818523
 31
0.0
  0
LINE
  5
4EB
330
6B
100
AcDbEntity
  8
0
 62
     3
100
AcDbLine
 10
-329.5528782388019
 20
82.52018169818525
 30
0.0
 11
-323.8502202388019
 21
85.50173869818523
 31
0.0
  0
LINE
  5
4EC
330
6B
100
AcDbEntity
  8
0
 62
     3
100
AcDbLine
 10
-550.8052882388018
 20
80.46147969818523
 30
0.0
 11
-550.2856302388019
 21
79.89583669818523
 31
0.0
  0
LINE
  5
4ED
330
6B
100
AcDbEntity
  8
0
 62
     3
100
AcDbLine
 10
-550.8052882388018
 20
74.46147969818523
 30
0.0
 11
-550.2856302388019
 21
74.96852269818524
 31
0.0
  0
LINE
  5
4EE
330
6B
100
AcDbEntity
  8
0
 62
     3
100
AcDbLine
 10
-550.3010832388017
 20
79.91265769818522
 30
0.0
 11
-550.3010832388017
 21
74.96625069818524
 31
0.0
  0
LINE
  5
4EF
330
6B
100
AcDbEntity
  8
0
 62
     3
100
AcDbLine
 10
-329.5528782388019
 20
83.50052269818524
 30
0.0
 11
-333.5359052388019
 21
83.50052269818524
 31
0.0
  0
LINE
  5
4F0
330
6B
100
AcDbEntity
  8
0
 62
     3
100
AcDbLine
 10
-333.5359052388019
 20
80.73068969818523
 30
0.0
 11
-333.5359052388019
 21
83.50052269818524
 31
0.0
  0
LINE
  5
4F1
330
6B
100
AcDbEntity
  8
0
 62
     3
100
AcDbLine
 10
-329.5528782388019
 20
83.50052269818524
 30
0.0
 11
-329.5528782388019
 21
81.96793969818523
 31
0.0
  0
LINE
  5
4F2
330
6B
100
AcDbEntity
  8
0
 62
     3
100
AcDbLine
 10
-338.6907062388019
 20
78.25268269818524
 30
0.0
 11
-338.6907062388019
 21
76.72829269818523
 31
0.0
  0
LINE
  5
4F3
330
6B
100
AcDbEntity
  8
0
 62
     3
100
AcDbLine
 10
-323.885850238802
 20
83.72829269818522
 30
0.0
 11
-337.767688238802
 21
79.41616869818523
 31
0.0
  0
LINE
  5
4F4
330
6B
100
AcDbEntity
  8
0
 62
     3
100
AcDbLine
 10
-323.8402152388019
 20
85.99971369818524
 30
0.0
 11
-323.8618312388019
 21
83.73575369818523
 31
0.0
  0
LINE
  5
4F5
330
6B
100
AcDbEntity
  8
0
 62
     3
100
AcDbLine
 10
-569.0437782388019
 20
82.4271016981852
 30
0.0
 11
-565.2607322388019
 21
82.4271016981852
 31
0.0
  0
LINE
  5
4F6
330
6B
100
AcDbEntity
  8
0
 62
     3
100
AcDbLine
 10
-566.1337032388017
 20
72.42710169818521
 30
0.0
 11
-565.2607322388019
 21
72.42710169818521
 31
0.0
  0
ARC
  5
4F7
330
6B
100
AcDbEntity
  8
0
 62
     3
100
AcDbCircle
 10
-566.1780682388019
 20
67.42679369818525
 30
0.0
 40
5.0
100
AcDbArc
 50
90.0
 51
136.0903720000011
  0
LINE
  5
4F8
330
6B
100
AcDbEntity
  8
0
 62
     3
100
AcDbLine
 10
-572.5846482388018
 20
70.86500469818523
 30
0.0
 11
-580.9555362388017
 21
62.16928969818522
 31
0.0
  0
LINE
  5
4F9
330
6B
100
AcDbEntity
  8
0
 62
     3
100
AcDbLine
 10
-563.7606492388019
 20
82.96147969818523
 30
0.0
 11
-563.7606492388019
 21
71.96147969818523
 31
0.0
  0
ARC
  5
4FA
330
6B
100
AcDbEntity
  8
0
 62
     3
100
AcDbCircle
 10
-561.7606492388017
 20
71.96147969818523
 30
0.0
 40
2.0
100
AcDbArc
 50
180.0
 51
270.0
  0
ARC
  5
4FB
330
6B
100
AcDbEntity
  8
0
 62
     3
100
AcDbCircle
 10
-561.7606492388017
 20
82.96147969818523
 30
0.0
 40
2.0
100
AcDbArc
 50
90.0
 51
180.0
  0
LINE
  5
4FC
330
6B
100
AcDbEntity
  8
0
 62
     3
100
AcDbLine
 10
-563.7223632388017
 20
83.26329669818523
 30
0.0
 11
-565.2223632388019
 21
82.73103869818525
 31
0.0
  0
LINE
  5
4FD
330
6B
100
AcDbEntity
  8
0
 62
     3
100
AcDbLine
 10
-565.2606492388017
 20
72.20550769818522
 30
0.0
 11
-565.2606492388017
 21
82.71745269818522
 31
0.0
  0
LINE
  5
4FE
330
6B
100
AcDbEntity
  8
0
 62
     3
100
AcDbLine
 10
-552.7606492388017
 20
69.96147969818522
 30
0.0
 11
-561.7606492388017
 21
69.96147969818522
 31
0.0
  0
LINE
  5
4FF
330
6B
100
AcDbEntity
  8
0
 62
     3
100
AcDbLine
 10
-552.7606492388017
 20
84.96147969818521
 30
0.0
 11
-561.7606492388017
 21
84.96147969818521
 31
0.0
  0
LINE
  5
500
330
6B
100
AcDbEntity
  8
0
 62
     3
100
AcDbLine
 10
-559.9606492388017
 20
72.26147969818524
 30
0.0
 11
-559.9606492388017
 21
82.66147969818524
 31
0.0
  0
LINE
  5
501
330
6B
100
AcDbEntity
  8
0
 62
     3
100
AcDbLine
 10
-555.7606492388019
 20
72.26147969818524
 30
0.0
 11
-559.9606492388017
 21
72.26147969818524
 31
0.0
  0
ARC
  5
502
330
6B
100
AcDbEntity
  8
0
 62
     3
100
AcDbCircle
 10
-552.7606492388017
 20
71.96147969818523
 30
0.0
 40
2.0
100
AcDbArc
 50
270.0
 51
0.0
  0
LINE
  5
503
330
6B
100
AcDbEntity
  8
0
 62
     3
100
AcDbLine
 10
-550.7606492388019
 20
71.96147969818523
 30
0.0
 11
-550.7606492388019
 21
74.36147969818524
 31
0.0
  0
LINE
  5
504
330
6B
100
AcDbEntity
  8
0
 62
     3
100
AcDbLine
 10
-550.7606492388019
 20
82.96147969818523
 30
0.0
 11
-550.7606492388019
 21
80.56147969818523
 31
0.0
  0
ARC
  5
505
330
6B
100
AcDbEntity
  8
0
 62
     3
100
AcDbCircle
 10
-552.7606492388017
 20
82.96147969818523
 30
0.0
 40
2.0
100
AcDbArc
 50
0.0
 51
90.0
  0
LINE
  5
506
330
6B
100
AcDbEntity
  8
0
 62
     3
100
AcDbLine
 10
-555.7606492388019
 20
82.66147969818524
 30
0.0
 11
-559.9606492388017
 21
82.66147969818524
 31
0.0
  0
LINE
  5
507
330
6B
100
AcDbEntity
  8
0
 62
     3
100
AcDbLine
 10
-550.7606492388019
 20
74.36147969818524
 30
0.0
 11
-555.7606492388019
 21
74.36147969818524
 31
0.0
  0
LINE
  5
508
330
6B
100
AcDbEntity
  8
0
 62
     3
100
AcDbLine
 10
-550.7606492388019
 20
80.56147969818523
 30
0.0
 11
-555.7606492388019
 21
80.56147969818523
 31
0.0
  0
ARC
  5
509
330
6B
100
AcDbEntity
  8
0
 62
     3
100
AcDbCircle
 10
-596.8050972388017
 20
77.42679369818524
 30
0.0
 40
22.0
100
AcDbArc
 50
101.7204239999995
 51
316.090372000001
  0
ARC
  5
50A
330
6B
100
AcDbEntity
  8
0
 62
     3
100
AcDbCircle
 10
-597.1905232388019
 20
77.46147969818522
 30
0.0
 40
21.890875
100
AcDbArc
 50
82.24429899999973
 51
100.7510630000001
  0
LINE
  5
50B
330
6B
100
AcDbEntity
  8
0
 62
     3
100
AcDbLine
 10
-563.7223632388017
 20
71.65966369818523
 30
0.0
 11
-565.2223632388019
 21
72.19192169818524
 31
0.0
  0
LINE
  5
50C
330
6B
100
AcDbEntity
  8
0
 62
     3
100
AcDbLine
 10
-565.7084892388019
 20
76.85924369818524
 30
0.0
 11
-567.6696232388019
 21
74.95711269818523
 31
0.0
  0
LINE
  5
50D
330
6B
100
AcDbEntity
  8
0
 62
     3
100
AcDbLine
 10
-567.7971672388017
 20
79.01271169818523
 30
0.0
 11
-569.7583012388019
 21
77.11058069818523
 31
0.0
  0
ARC
  5
50E
330
6B
100
AcDbEntity
  8
0
 62
     3
100
AcDbCircle
 10
-568.7139622388018
 20
76.03384669818523
 30
0.0
 40
1.5
100
AcDbArc
 50
134.1250050000002
 51
314.1250050000002
  0
ARC
  5
50F
330
6B
100
AcDbEntity
  8
0
 62
     3
100
AcDbCircle
 10
-566.7528282388018
 20
77.93597769818521
 30
0.0
 40
1.5
100
AcDbArc
 50
314.1250050000002
 51
134.1250050000002
  0
ARC
  5
510
330
6B
100
AcDbEntity
  8
0
 62
     3
100
AcDbCircle
 10
-574.0255172388018
 20
72.25205069818525
 30
0.0
 40
2.0
100
AcDbArc
 50
316.090372000001
 51
136.0903780000009
  0
LINE
  5
511
330
6B
100
AcDbEntity
  8
0
 62
     3
100
AcDbLine
 10
-586.9909742388017
 20
100.0770836981852
 30
0.0
 11
-589.0641962388018
 21
98.25161169818523
 31
0.0
  0
LINE
  5
512
330
6B
100
AcDbEntity
  8
0
 62
     3
100
AcDbLine
 10
-588.9734922388019
 20
102.3286656981852
 30
0.0
 11
-591.0467142388019
 21
100.5031926981852
 31
0.0
  0
ARC
  5
513
330
6B
100
AcDbEntity
  8
0
 62
     3
100
AcDbCircle
 10
-587.9822332388019
 20
101.2028746981852
 30
0.0
 40
1.5
100
AcDbArc
 50
311.3639260000009
 51
131.363922999999
  0
ARC
  5
514
330
6B
100
AcDbEntity
  8
0
 62
     3
100
AcDbCircle
 10
-590.0554552388017
 20
99.37740169818525
 30
0.0
 40
1.5
100
AcDbArc
 50
131.3639260000008
 51
311.3639260000009
  0
LINE
  5
515
330
6B
100
AcDbEntity
  8
0
 62
     3
100
AcDbLine
 10
-585.4296812388017
 20
102.9792686981852
 30
0.0
 11
-588.0540402388019
 21
106.7842006981852
 31
0.0
  0
ARC
  5
516
330
6B
100
AcDbEntity
  8
0
 62
     3
100
AcDbCircle
 10
-588.6820142388017
 20
106.3510716981852
 30
0.0
 40
0.7628580000000002
100
AcDbArc
 50
34.5950219999995
 51
201.9794969999995
  0
LINE
  5
517
330
6B
100
AcDbEntity
  8
0
 62
     3
100
AcDbLine
 10
-592.3722992388019
 20
93.34023069818524
 30
0.0
 11
-585.9167202388017
 21
99.02436969818523
 31
0.0
  0
LINE
  5
518
330
6B
100
AcDbEntity
  8
0
 62
     3
100
AcDbLine
 10
-589.0285112388019
 20
104.2788166981852
 30
0.0
 11
-592.5940362388018
 21
101.1393706981852
 31
0.0
  0
LINE
  5
519
330
6B
100
AcDbEntity
  8
0
  6
HIDDEN
 62
    15
100
AcDbLine
 10
-591.3640042388018
 20
94.22803469818523
 30
0.0
 11
-591.7104362388019
 21
93.92300169818524
 31
0.0
  0
ARC
  5
51A
330
6B
100
AcDbEntity
  8
0
 62
     3
100
AcDbCircle
 10
-592.9244562388019
 20
101.5146336981852
 30
0.0
 40
0.5
100
AcDbArc
 50
259.9426090000011
 51
311.3639260000009
  0
ARC
  5
51B
330
6B
100
AcDbEntity
  8
0
 62
     3
100
AcDbCircle
 10
-587.8992382388019
 20
101.2759516981852
 30
0.0
 40
3.0
100
AcDbArc
 50
311.3639260000009
 51
34.5950219999995
  0
LINE
  5
51C
330
6B
100
AcDbEntity
  8
0
 62
     3
100
AcDbLine
 10
-572.6459512388019
 20
80.89471669818523
 30
0.0
 11
-585.9985782388019
 21
67.02394969818525
 31
0.0
  0
ARC
  5
51D
330
6B
100
AcDbEntity
  8
0
 62
     3
100
AcDbCircle
 10
-596.8050972388017
 20
77.42679369818524
 30
0.0
 40
15.0
100
AcDbArc
 50
84.5958139999991
 51
316.090372000001
  0
ARC
  5
51E
330
6B
100
AcDbEntity
  8
0
 62
     3
100
AcDbCircle
 10
-595.0156572388017
 20
96.34233969818524
 30
0.0
 40
4.0
100
AcDbArc
 50
264.5958139999991
 51
311.3639260000009
  0
ARC
  5
51F
330
6B
100
AcDbEntity
  8
0
 62
     3
100
AcDbCircle
 10
-569.0437782388019
 20
77.42710169818521
 30
0.0
 40
5.0
100
AcDbArc
 50
90.0
 51
136.0903720000011
  0
LINE
  5
520
330
6B
100
AcDbEntity
  8
0
  6
HIDDEN
 62
    15
100
AcDbLine
 10
-572.6459512388019
 20
80.89471669818523
 30
0.0
 11
-571.9786322388017
 21
81.58793069818523
 31
0.0
  0
LINE
  5
521
330
6B
100
AcDbEntity
  8
0
 62
     3
100
AcDbLine
 10
-575.4663862388017
 20
73.63909569818523
 30
0.0
 11
-577.5636522388018
 21
75.78618769818525
 31
0.0
  0
LINE
  5
522
330
6B
100
AcDbEntity
  8
0
 62
     3
100
AcDbLine
 10
-579.6518302388018
 20
69.29123869818524
 30
0.0
 11
-581.6612892388018
 21
71.52954469818523
 31
0.0
  0
LINE
  5
523
330
6B
100
AcDbEntity
  8
0
 62
     3
100
AcDbLine
 10
-597.1905232388019
 20
92.42184069818524
 30
0.0
 11
-597.1905232388019
 21
95.42266669818522
 31
0.0
  0
LINE
  5
524
330
6B
100
AcDbEntity
  8
0
 62
     3
100
AcDbLine
 10
-589.0285112388019
 20
104.2788166981852
 30
0.0
 11
-588.5337282388019
 21
104.6747326981852
 31
0.0
  0
LINE
  5
525
330
6B
100
AcDbEntity
  8
0
 62
     3
100
AcDbLine
 10
-589.3894252388019
 20
106.0655526981852
 30
0.0
 11
-588.5337282388019
 21
104.6747326981852
 31
0.0
  0
ARC
  5
526
330
6B
100
AcDbEntity
  8
0
 62
     3
100
AcDbCircle
 10
-596.8050972388017
 20
77.42679369818524
 30
0.0
 40
25.0
100
AcDbArc
 50
95.95313600000149
 51
316.090372000001
  0
LINE
  5
527
330
6B
100
AcDbEntity
  8
0
 62
     3
100
AcDbLine
 10
-569.780240238802
 20
70.89440769818523
 30
0.0
 11
-578.7942322388017
 21
60.08872069818522
 31
0.0
  0
LINE
  5
528
330
6B
100
AcDbEntity
  8
0
 62
     3
100
AcDbLine
 10
-593.0117732388017
 20
101.0223176981852
 30
0.0
 11
-599.3979712388019
 21
102.2919696981852
 31
0.0
  0
ARC
  5
529
330
6B
100
AcDbEntity
  8
0
 62
     3
100
AcDbCircle
 10
-596.8050972388017
 20
77.42679369818524
 30
0.0
 40
18.5
100
AcDbArc
 50
83.35525899999987
 51
316.090372000001
  0
LINE
  5
52A
330
6B
100
AcDbEntity
  8
0
 62
     3
100
AcDbLine
 10
-575.4663862388017
 20
73.63909569818523
 30
0.0
 11
-583.4770572388017
 21
64.59661969818522
 31
0.0
  0
ARC
  5
52B
330
6B
100
AcDbEntity
  8
0
 62
     3
100
AcDbCircle
 10
-594.4346012388017
 20
97.47546369818524
 30
0.0
 40
1.688324
100
AcDbArc
 50
263.256823000001
 51
83.25682300000094
  0
LINE
  5
52C
330
6B
100
AcDbEntity
  8
0
 62
     3
100
AcDbLine
 10
-576.7721502388018
 20
66.51500869818523
 30
0.0
 11
-574.7710522388017
 21
64.60436769818523
 31
0.0
  0
LINE
  5
52D
330
6B
100
AcDbEntity
  8
0
 62
     3
100
AcDbLine
 10
-572.6713572388018
 20
70.77492969818523
 30
0.0
 11
-571.1487112388018
 21
69.21461969818523
 31
0.0
  0
LINE
  5
52E
330
6B
100
AcDbEntity
  8
0
 62
     3
100
AcDbLine
 10
-601.1043322388019
 20
95.42030869818523
 30
0.0
 11
-600.2206232388019
 21
92.03275769818523
 31
0.0
  0
LINE
  5
52F
330
6B
100
AcDbEntity
  8
0
 62
     3
100
AcDbLine
 10
-602.0841802388019
 20
98.78402369818523
 30
0.0
 11
-602.9238302388018
 21
101.6664526981852
 31
0.0
  0
LINE
  5
530
330
6B
100
AcDbEntity
  8
0
 62
     3
100
AcDbLine
 10
-555.7606492388019
 20
72.26147969818524
 30
0.0
 11
-555.7606492388019
 21
82.66147969818524
 31
0.0
  0
LINE
  5
531
330
6B
100
AcDbEntity
  8
0
 62
     3
100
AcDbLine
 10
-550.7606492388019
 20
77.46147969818522
 30
0.0
 11
-555.7606492388019
 21
77.46147969818522
 31
0.0
  0
LINE
  5
532
330
6B
100
AcDbEntity
  8
0
  6
DASHED
100
AcDbLine
 10
-495.2205892388017
 20
-0.9882113018147665
 30
0.0
 11
-495.2205892388017
 21
9.511788698185233
 31
0.0
  0
LINE
  5
533
330
6B
100
AcDbEntity
  8
0
  6
DASHED
100
AcDbLine
 10
-447.9705892388017
 20
9.511788698185233
 30
0.0
 11
-447.9705892388017
 21
-0.9882113018147665
 31
0.0
  0
LINE
  5
534
330
6B
100
AcDbEntity
  8
0
  6
DASHED
100
AcDbLine
 10
-443.4705892388017
 20
9.511788698185233
 30
0.0
 11
-443.4705892388017
 21
-0.9882113018147665
 31
0.0
  0
LINE
  5
535
330
6B
100
AcDbEntity
  8
0
  6
DASHED
100
AcDbLine
 10
-445.7205892388017
 20
9.511788698185233
 30
0.0
 11
-445.7205892388017
 21
-0.9882113018147665
 31
0.0
  0
LINE
  5
536
330
6B
100
AcDbEntity
  8
0
 62
     3
100
AcDbLine
 10
-481.4175002388019
 20
11.80655569818523
 30
0.0
 11
-502.1980302388017
 21
11.80655569818523
 31
0.0
  0
LINE
  5
537
330
6B
100
AcDbEntity
  8
0
 62
     3
100
AcDbLine
 10
-338.9714512388019
 20
-3.282977301814765
 30
0.0
 11
-338.2707152388019
 21
-3.282977301814765
 31
0.0
  0
LINE
  5
538
330
6B
100
AcDbEntity
  8
0
 62
     3
100
AcDbLine
 10
-338.9714512388019
 20
11.80655569818523
 30
0.0
 11
-338.2707152388019
 21
11.80655569818523
 31
0.0
  0
LINE
  5
539
330
6B
100
AcDbEntity
  8
0
  6
DASHED
100
AcDbLine
 10
-449.4705892388019
 20
4.302634698185232
 30
0.0
 11
-449.4705892388019
 21
-0.9882113018147665
 31
0.0
  0
LINE
  5
53A
330
6B
100
AcDbEntity
  8
0
  6
DASHED
100
AcDbLine
 10
-447.9705892388017
 20
-0.9882113018147665
 30
0.0
 11
-443.4705892388017
 21
-0.9882113018147665
 31
0.0
  0
LINE
  5
53B
330
6B
100
AcDbEntity
  8
0
  6
DASHED
100
AcDbLine
 10
-447.9705892388017
 20
9.511788698185233
 30
0.0
 11
-443.4705892388017
 21
9.511788698185233
 31
0.0
  0
LINE
  5
53C
330
6B
100
AcDbEntity
  8
0
  6
DASHED
100
AcDbLine
 10
-453.2205892388017
 20
9.511788698185233
 30
0.0
 11
-453.2205892388017
 21
-0.9882113018147665
 31
0.0
  0
LINE
  5
53D
330
6B
100
AcDbEntity
  8
0
  6
DASHED
100
AcDbLine
 10
-450.9705892388018
 20
9.511788698185233
 30
0.0
 11
-450.9705892388018
 21
4.947228698185233
 31
0.0
  0
LINE
  5
53E
330
6B
100
AcDbEntity
  8
0
 62
     3
100
AcDbLine
 10
-318.4606682388019
 20
-0.2357963018147666
 30
0.0
 11
-318.4606682388019
 21
8.764203698185232
 31
0.0
  0
ARC
  5
53F
330
6B
100
AcDbEntity
  8
0
 62
     3
100
AcDbCircle
 10
-315.4606682388019
 20
14.76420369818523
 30
0.0
 40
1.5
100
AcDbArc
 50
0.0
 51
90.0
  0
ARC
  5
540
330
6B
100
AcDbEntity
  8
0
 62
     3
100
AcDbCircle
 10
-315.4606682388019
 20
-6.235796301814764
 30
0.0
 40
1.5
100
AcDbArc
 50
270.0
 51
0.0
  0
LINE
  5
541
330
6B
100
AcDbEntity
  8
0
 62
     3
100
AcDbLine
 10
-317.7106682388019
 20
-3.235796301814765
 30
0.0
 11
-317.7106682388019
 21
-2.860796301814765
 31
0.0
  0
LINE
  5
542
330
6B
100
AcDbEntity
  8
0
 62
     3
100
AcDbLine
 10
-317.7106682388019
 20
11.76420369818523
 30
0.0
 11
-317.7106682388019
 21
11.38920369818523
 31
0.0
  0
ARC
  5
543
330
6B
100
AcDbEntity
  8
0
 62
     3
100
AcDbCircle
 10
-318.0856682388019
 20
11.76420369818523
 30
0.0
 40
0.375
100
AcDbArc
 50
0.0
 51
90.0
  0
ARC
  5
544
330
6B
100
AcDbEntity
  8
0
 62
     3
100
AcDbCircle
 10
-318.0856682388019
 20
-3.235796301814765
 30
0.0
 40
0.375
100
AcDbArc
 50
270.0
 51
0.0
  0
LINE
  5
545
330
6B
100
AcDbEntity
  8
0
 62
     3
100
AcDbLine
 10
-319.5856682388019
 20
12.13920369818523
 30
0.0
 11
-318.0856682388019
 21
12.13920369818523
 31
0.0
  0
LINE
  5
546
330
6B
100
AcDbEntity
  8
0
 62
     3
100
AcDbLine
 10
-319.5856682388019
 20
-3.610796301814765
 30
0.0
 11
-318.0856682388019
 21
-3.610796301814765
 31
0.0
  0
LINE
  5
547
330
6B
100
AcDbEntity
  8
0
 62
     3
100
AcDbLine
 10
-319.9606682388019
 20
-3.235796301814765
 30
0.0
 11
-319.9606682388019
 21
-1.735796301814765
 31
0.0
  0
LINE
  5
548
330
6B
100
AcDbEntity
  8
0
 62
     3
100
AcDbLine
 10
-319.9606682388019
 20
11.76420369818523
 30
0.0
 11
-319.9606682388019
 21
10.26420369818523
 31
0.0
  0
ARC
  5
549
330
6B
100
AcDbEntity
  8
0
 62
     3
100
AcDbCircle
 10
-319.5856682388019
 20
11.76420369818523
 30
0.0
 40
0.375
100
AcDbArc
 50
90.0
 51
180.0
  0
ARC
  5
54A
330
6B
100
AcDbEntity
  8
0
 62
     3
100
AcDbCircle
 10
-319.5856682388019
 20
-3.235796301814765
 30
0.0
 40
0.375
100
AcDbArc
 50
180.0
 51
270.0
  0
LINE
  5
54B
330
6B
100
AcDbEntity
  8
0
 62
     3
100
AcDbLine
 10
-314.7106682388019
 20
2.014203698185233
 30
0.0
 11
-317.7106682388019
 21
2.014203698185233
 31
0.0
  0
LINE
  5
54C
330
6B
100
AcDbEntity
  8
0
 62
     3
100
AcDbLine
 10
-314.7106682388019
 20
6.514203698185232
 30
0.0
 11
-317.7106682388019
 21
6.514203698185232
 31
0.0
  0
LINE
  5
54D
330
6B
100
AcDbEntity
  8
0
 62
     3
100
AcDbLine
 10
-317.7106682388019
 20
11.38920369818523
 30
0.0
 11
-317.7106682388019
 21
6.514203698185232
 31
0.0
  0
LINE
  5
54E
330
6B
100
AcDbEntity
  8
0
 62
     3
100
AcDbLine
 10
-317.7106682388019
 20
2.014203698185233
 30
0.0
 11
-317.7106682388019
 21
-2.860796301814765
 31
0.0
  0
LINE
  5
54F
330
6B
100
AcDbEntity
  8
0
 62
     3
100
AcDbLine
 10
-332.1448262388019
 20
-0.2357963018147666
 30
0.0
 11
-332.7131172388019
 21
-0.2357963018147666
 31
0.0
  0
LINE
  5
550
330
6B
100
AcDbEntity
  8
0
 62
     3
100
AcDbLine
 10
-332.1448262388019
 20
8.764203698185232
 30
0.0
 11
-332.7131172388019
 21
8.764203698185232
 31
0.0
  0
LINE
  5
551
330
6B
100
AcDbEntity
  8
0
 62
     3
100
AcDbLine
 10
-320.7131172388019
 20
0.1392036981852334
 30
0.0
 11
-320.7131172388019
 21
2.764203698185232
 31
0.0
  0
LINE
  5
552
330
6B
100
AcDbEntity
  8
0
 62
     3
100
AcDbLine
 10
-333.4631172388019
 20
0.5142036981852334
 30
0.0
 11
-333.4631172388019
 21
8.014203698185232
 31
0.0
  0
LINE
  5
553
330
6B
100
AcDbEntity
  8
0
 62
     3
100
AcDbLine
 10
-326.3818102388019
 20
3.139203698185232
 30
0.0
 11
-329.002109238802
 21
3.139203698185232
 31
0.0
  0
LINE
  5
554
330
6B
100
AcDbEntity
  8
0
 62
     3
100
AcDbLine
 10
-323.3600742388019
 20
5.389203698185232
 30
0.0
 11
-321.0881172388019
 21
5.389203698185232
 31
0.0
  0
LINE
  5
555
330
6B
100
AcDbEntity
  8
0
 62
     3
100
AcDbLine
 10
-321.955595238802
 20
8.389203698185232
 30
0.0
 11
-321.955595238802
 21
5.389203698185232
 31
0.0
  0
LINE
  5
556
330
6B
100
AcDbEntity
  8
0
 62
     3
100
AcDbLine
 10
-321.955595238802
 20
0.1392036981852334
 30
0.0
 11
-321.955595238802
 21
3.139203698185232
 31
0.0
  0
LINE
  5
557
330
6B
100
AcDbEntity
  8
0
 62
     3
100
AcDbLine
 10
-334.5881172388019
 20
9.514203698185234
 30
0.0
 11
-334.5881172388019
 21
-0.9857963018147666
 31
0.0
  0
ARC
  5
558
330
6B
100
AcDbEntity
  8
0
 62
     3
100
AcDbCircle
 10
-333.8381172388019
 20
-0.9857963018147666
 30
0.0
 40
0.75
100
AcDbArc
 50
180.0
 51
270.0
  0
ARC
  5
559
330
6B
100
AcDbEntity
  8
0
 62
     3
100
AcDbCircle
 10
-333.8381172388019
 20
9.514203698185234
 30
0.0
 40
0.75
100
AcDbArc
 50
90.0
 51
180.0
  0
ARC
  5
55A
330
6B
100
AcDbEntity
  8
0
 62
     3
100
AcDbCircle
 10
-332.7131172388019
 20
8.014203698185232
 30
0.0
 40
0.75
100
AcDbArc
 50
90.0
 51
180.0
  0
ARC
  5
55B
330
6B
100
AcDbEntity
  8
0
 62
     3
100
AcDbCircle
 10
-332.7131172388019
 20
0.5142036981852334
 30
0.0
 40
0.75
100
AcDbArc
 50
180.0
 51
270.0
  0
ARC
  5
55C
330
6B
100
AcDbEntity
  8
0
 62
     3
100
AcDbCircle
 10
-314.7106682388019
 20
1.264203698185232
 30
0.0
 40
0.75
100
AcDbArc
 50
0.0
 51
90.0
  0
ARC
  5
55D
330
6B
100
AcDbEntity
  8
0
 62
     3
100
AcDbCircle
 10
-314.7106682388019
 20
7.264203698185232
 30
0.0
 40
0.75
100
AcDbArc
 50
270.0
 51
0.0
  0
LINE
  5
55E
330
6B
100
AcDbEntity
  8
0
 62
     3
100
AcDbLine
 10
-322.3100742388019
 20
-7.735796301814764
 30
0.0
 11
-315.4606682388019
 21
-7.735796301814764
 31
0.0
  0
LINE
  5
55F
330
6B
100
AcDbEntity
  8
0
 62
     3
100
AcDbLine
 10
-322.2350742388019
 20
16.26420369818523
 30
0.0
 11
-315.4606682388019
 21
16.26420369818523
 31
0.0
  0
LINE
  5
560
330
6B
100
AcDbEntity
  8
0
 62
     3
100
AcDbLine
 10
-323.7350742388019
 20
-5.455562301814764
 30
0.0
 11
-323.7350742388019
 21
-5.485796301814764
 31
0.0
  0
ARC
  5
561
330
6B
100
AcDbEntity
  8
0
 62
     3
100
AcDbCircle
 10
-322.2350742388019
 20
-6.235796301814764
 30
0.0
 40
1.5
100
AcDbArc
 50
180.0
 51
270.0
  0
LINE
  5
562
330
6B
100
AcDbEntity
  8
0
  6
HIDDEN
 62
    15
100
AcDbLine
 10
-323.7350742388019
 20
-5.485796301814764
 30
0.0
 11
-323.7350742388019
 21
-5.530562301814766
 31
0.0
  0
LINE
  5
563
330
6B
100
AcDbEntity
  8
0
 62
     3
100
AcDbLine
 10
-326.0068102388019
 20
8.764203698185232
 30
0.0
 11
-326.0068102388019
 21
10.26420369818523
 31
0.0
  0
LINE
  5
564
330
6B
100
AcDbEntity
  8
0
 62
     3
100
AcDbLine
 10
-326.0068102388019
 20
-0.2357963018147666
 30
0.0
 11
-326.0068102388019
 21
-1.735796301814765
 31
0.0
  0
LINE
  5
565
330
6B
100
AcDbEntity
  8
0
 62
     3
100
AcDbLine
 10
-332.1448262388019
 20
-0.2357963018147666
 30
0.0
 11
-326.0068102388019
 21
-0.2357963018147666
 31
0.0
  0
LINE
  5
566
330
6B
100
AcDbEntity
  8
0
 62
     3
100
AcDbLine
 10
-320.338117238802
 20
-0.2357963018147666
 30
0.0
 11
-318.4606682388019
 21
-0.2357963018147666
 31
0.0
  0
LINE
  5
567
330
6B
100
AcDbEntity
  8
0
 62
     3
100
AcDbLine
 10
-332.1448262388019
 20
8.764203698185232
 30
0.0
 11
-326.0068102388019
 21
8.764203698185232
 31
0.0
  0
LINE
  5
568
330
6B
100
AcDbEntity
  8
0
 62
     3
100
AcDbLine
 10
-320.338117238802
 20
8.764203698185232
 30
0.0
 11
-318.4606682388019
 21
8.764203698185232
 31
0.0
  0
ARC
  5
569
330
6B
100
AcDbEntity
  8
0
 62
     3
100
AcDbCircle
 10
-321.0881172388019
 20
2.764203698185232
 30
0.0
 40
0.375
100
AcDbArc
 50
0.0
 51
90.0
  0
LINE
  5
56A
330
6B
100
AcDbEntity
  8
0
 62
     3
100
AcDbLine
 10
-320.7131172388019
 20
8.389203698185232
 30
0.0
 11
-320.7131172388019
 21
5.764203698185232
 31
0.0
  0
ARC
  5
56B
330
6B
100
AcDbEntity
  8
0
 62
     3
100
AcDbCircle
 10
-321.0881172388019
 20
5.764203698185232
 30
0.0
 40
0.375
100
AcDbArc
 50
270.0
 51
0.0
  0
LINE
  5
56C
330
6B
100
AcDbEntity
  8
0
 62
     3
100
AcDbLine
 10
-323.3600742388019
 20
3.139203698185232
 30
0.0
 11
-321.0881172388019
 21
3.139203698185232
 31
0.0
  0
LINE
  5
56D
330
6B
100
AcDbEntity
  8
0
 62
     3
100
AcDbLine
 10
-326.3818102388019
 20
5.389203698185232
 30
0.0
 11
-329.002109238802
 21
5.389203698185232
 31
0.0
  0
LINE
  5
56E
330
6B
100
AcDbEntity
  8
0
 62
     3
100
AcDbLine
 10
-320.7131172388019
 20
2.764203698185232
 30
0.0
 11
-320.7131172388019
 21
5.764203698185232
 31
0.0
  0
LINE
  5
56F
330
6B
100
AcDbEntity
  8
0
 62
     3
100
AcDbLine
 10
-323.3600742388019
 20
3.139203698185232
 30
0.0
 11
-326.3818102388019
 21
3.139203698185232
 31
0.0
  0
LINE
  5
570
330
6B
100
AcDbEntity
  8
0
 62
     3
100
AcDbLine
 10
-323.3600742388019
 20
5.389203698185232
 30
0.0
 11
-326.3818102388019
 21
5.389203698185232
 31
0.0
  0
ARC
  5
571
330
6B
100
AcDbEntity
  8
0
 62
     3
100
AcDbCircle
 10
-322.2350742388019
 20
14.76420369818523
 30
0.0
 40
1.5
100
AcDbArc
 50
90.0
 51
180.0
  0
LINE
  5
572
330
6B
100
AcDbEntity
  8
0
  6
HIDDEN
 62
    15
100
AcDbLine
 10
-323.7350742388019
 20
14.01420369818523
 30
0.0
 11
-323.7350742388019
 21
14.05896969818523
 31
0.0
  0
ARC
  5
573
330
6B
100
AcDbEntity
  8
0
 62
     3
100
AcDbCircle
 10
-337.5881172388019
 20
-3.951179301814765
 30
0.0
 40
0.75
100
AcDbArc
 50
180.0
 51
263.820121000001
  0
LINE
  5
574
330
6B
100
AcDbEntity
  8
0
  6
HIDDEN
 62
    15
100
AcDbLine
 10
-338.3381172388019
 20
-3.201179301814765
 30
0.0
 11
-338.3381172388019
 21
-3.205562301814765
 31
0.0
  0
ARC
  5
575
330
6B
100
AcDbEntity
  8
0
 62
     3
100
AcDbCircle
 10
-337.5881172388019
 20
12.55484269818523
 30
0.0
 40
0.75
100
AcDbArc
 50
95.99681099999862
 51
180.0
  0
LINE
  5
576
330
6B
100
AcDbEntity
  8
0
  6
HIDDEN
 62
    15
100
AcDbLine
 10
-338.3381172388019
 20
11.80484269818523
 30
0.0
 11
-338.3381172388019
 21
11.80896969818523
 31
0.0
  0
ARC
  5
577
330
6B
100
AcDbEntity
  8
0
 62
     3
100
AcDbCircle
 10
-320.338117238802
 20
0.1392036981852334
 30
0.0
 40
0.375
100
AcDbArc
 50
180.0
 51
270.0
  0
LINE
  5
578
330
6B
100
AcDbEntity
  8
0
 62
     3
100
AcDbLine
 10
-321.580595238802
 20
-0.2357963018147666
 30
0.0
 11
-320.338117238802
 21
-0.2357963018147666
 31
0.0
  0
ARC
  5
579
330
6B
100
AcDbEntity
  8
0
 62
     3
100
AcDbCircle
 10
-321.580595238802
 20
0.1392036981852334
 30
0.0
 40
0.375
100
AcDbArc
 50
180.0
 51
270.0
  0
ARC
  5
57A
330
6B
100
AcDbEntity
  8
0
 62
     3
100
AcDbCircle
 10
-320.338117238802
 20
8.389203698185232
 30
0.0
 40
0.375
100
AcDbArc
 50
90.0
 51
180.0
  0
LINE
  5
57B
330
6B
100
AcDbEntity
  8
0
 62
     3
100
AcDbLine
 10
-321.580595238802
 20
8.764203698185232
 30
0.0
 11
-320.338117238802
 21
8.764203698185232
 31
0.0
  0
ARC
  5
57C
330
6B
100
AcDbEntity
  8
0
 62
     3
100
AcDbCircle
 10
-321.580595238802
 20
8.389203698185232
 30
0.0
 40
0.375
100
AcDbArc
 50
90.0
 51
180.0
  0
LINE
  5
57D
330
6B
100
AcDbEntity
  8
0
 62
     3
100
AcDbLine
 10
-321.580595238802
 20
-0.2357963018147666
 30
0.0
 11
-323.7350742388019
 21
-0.2357963018147666
 31
0.0
  0
LINE
  5
57E
330
6B
100
AcDbEntity
  8
0
 62
     3
100
AcDbLine
 10
-321.580595238802
 20
8.764203698185232
 30
0.0
 11
-323.7350742388019
 21
8.764203698185232
 31
0.0
  0
LINE
  5
57F
330
6B
100
AcDbEntity
  8
0
 62
     3
100
AcDbLine
 10
-325.4017062388019
 20
-7.112273301814764
 30
0.0
 11
-322.2350742388019
 21
-7.735796301814764
 31
0.0
  0
LINE
  5
580
330
6B
100
AcDbEntity
  8
0
 62
     3
100
AcDbLine
 10
-325.3995412388019
 20
15.67869269818523
 30
0.0
 11
-322.5205362388019
 21
16.23678969818523
 31
0.0
  0
LINE
  5
581
330
6B
100
AcDbEntity
  8
0
 62
     3
100
AcDbLine
 10
-325.4017062388019
 20
-7.112273301814764
 30
0.0
 11
-337.6688542388019
 21
-4.696820301814764
 31
0.0
  0
LINE
  5
582
330
6B
100
AcDbEntity
  8
0
 62
     3
100
AcDbLine
 10
-325.3995412388019
 20
15.67869269818523
 30
0.0
 11
-337.666471238802
 21
13.30073869818523
 31
0.0
  0
LINE
  5
583
330
6B
100
AcDbEntity
  8
0
 62
     3
100
AcDbLine
 10
-326.0068102388019
 20
-0.2357963018147666
 30
0.0
 11
-326.0068102388019
 21
3.139203698185232
 31
0.0
  0
LINE
  5
584
330
6B
100
AcDbEntity
  8
0
 62
     3
100
AcDbLine
 10
-326.0068102388019
 20
8.764203698185232
 30
0.0
 11
-326.0068102388019
 21
5.389203698185232
 31
0.0
  0
LINE
  5
585
330
6B
100
AcDbEntity
  8
0
 62
     3
100
AcDbLine
 10
-532.6225292388019
 20
-2.656346301814764
 30
0.0
 11
-539.3999632388019
 21
1.776705698185233
 31
0.0
  0
LINE
  5
586
330
6B
100
AcDbEntity
  8
0
 62
     3
100
AcDbLine
 10
-532.6225292388019
 20
11.20975669818523
 30
0.0
 11
-539.3999632388019
 21
6.776705698185232
 31
0.0
  0
ARC
  5
587
330
6B
100
AcDbEntity
  8
0
 62
     3
100
AcDbCircle
 10
-530.5698082388017
 20
0.4819386981852336
 30
0.0
 40
3.75
100
AcDbArc
 50
236.811702000001
 51
270.0
  0
ARC
  5
588
330
6B
100
AcDbEntity
  8
0
 62
     3
100
AcDbCircle
 10
-530.5698082388017
 20
8.071471698185233
 30
0.0
 40
3.75
100
AcDbArc
 50
90.0
 51
123.1882979999989
  0
LINE
  5
589
330
6B
100
AcDbEntity
  8
0
 62
     3
100
AcDbLine
 10
-536.1547482388018
 20
1.776705698185233
 30
0.0
 11
-550.1427882388019
 21
1.776705698185233
 31
0.0
  0
LINE
  5
58A
330
6B
100
AcDbEntity
  8
0
 62
     3
100
AcDbLine
 10
-536.1547482388018
 20
6.776705698185232
 30
0.0
 11
-550.1427882388019
 21
6.776705698185232
 31
0.0
  0
ARC
  5
58B
330
6B
100
AcDbEntity
  8
0
 62
     3
100
AcDbCircle
 10
-534.1547482388018
 20
4.276705698185232
 30
0.0
 40
2.5
100
AcDbArc
 50
270.0
 51
90.0
  0
LINE
  5
58C
330
6B
100
AcDbEntity
  8
0
 62
     3
100
AcDbLine
 10
-534.1547482388018
 20
1.776705698185233
 30
0.0
 11
-536.6596982388017
 21
1.776705698185233
 31
0.0
  0
LINE
  5
58D
330
6B
100
AcDbEntity
  8
0
 62
     3
100
AcDbLine
 10
-534.1547482388018
 20
6.776705698185232
 30
0.0
 11
-536.6596982388017
 21
6.776705698185232
 31
0.0
  0
ARC
  5
58E
330
6B
100
AcDbEntity
  8
0
 62
     2
100
AcDbCircle
 10
-500.3036082388018
 20
4.230988698185234
 30
0.0
 40
1.954384
100
AcDbArc
 50
296.4480559999986
 51
63.55194400000133
  0
ARC
  5
58F
330
6B
100
AcDbEntity
  8
0
 62
     2
100
AcDbCircle
 10
-504.7932312388018
 20
-4.794282301814766
 30
0.0
 40
11.635073
100
AcDbArc
 50
63.55194400000133
 51
81.8382250000006
  0
ARC
  5
590
330
6B
100
AcDbEntity
  8
0
 62
     2
100
AcDbCircle
 10
-513.0220292388019
 20
-62.16930130181477
 30
0.0
 40
69.99678
100
AcDbArc
 50
81.8382250000006
 51
99.17448699999857
  0
ARC
  5
591
330
6B
100
AcDbEntity
  8
0
 62
     2
100
AcDbCircle
 10
-504.7932312388018
 20
-4.794282301814766
 30
0.0
 40
12.034673
100
AcDbArc
 50
63.55194400000133
 51
81.8382250000006
  0
ARC
  5
592
330
6B
100
AcDbEntity
  8
0
 62
     2
100
AcDbCircle
 10
-513.0407642388019
 20
-62.36906330181476
 30
0.0
 40
69.796915
100
AcDbArc
 50
81.73606200000069
 51
99.05376299999891
  0
ARC
  5
593
330
6B
100
AcDbEntity
  8
0
 62
     2
100
AcDbCircle
 10
-500.3036082388018
 20
4.230988698185234
 30
0.0
 40
1.554783999999999
100
AcDbArc
 50
296.4480559999986
 51
63.55194400000133
  0
ARC
  5
594
330
6B
100
AcDbEntity
  8
0
 62
     2
100
AcDbCircle
 10
-504.7932312388018
 20
13.25626069818523
 30
0.0
 40
12.034673
100
AcDbArc
 50
278.1617749999994
 51
296.4480559999986
  0
ARC
  5
595
330
6B
100
AcDbEntity
  8
0
 62
     2
100
AcDbCircle
 10
-513.0407642388019
 20
70.83104169818523
 30
0.0
 40
69.796915
100
AcDbArc
 50
260.9462370000011
 51
278.2639379999993
  0
ARC
  5
596
330
6B
100
AcDbEntity
  8
0
 62
     2
100
AcDbCircle
 10
-504.7932312388018
 20
13.25626069818523
 30
0.0
 40
11.635073
100
AcDbArc
 50
278.1617749999994
 51
296.4480559999986
  0
ARC
  5
597
330
6B
100
AcDbEntity
  8
0
 62
     2
100
AcDbCircle
 10
-513.0220292388019
 20
70.63127969818521
 30
0.0
 40
69.99678
100
AcDbArc
 50
260.8255130000014
 51
278.1617749999994
  0
ARC
  5
598
330
6B
100
AcDbEntity
  8
0
 62
     2
100
AcDbCircle
 10
-521.4756192388017
 20
13.25626069818523
 30
0.0
 40
12.034673
100
AcDbArc
 50
243.5519440000013
 51
257.0019650000014
  0
ARC
  5
599
330
6B
100
AcDbEntity
  8
0
 62
     2
100
AcDbCircle
 10
-521.4756192388017
 20
13.25626069818523
 30
0.0
 40
11.635073
100
AcDbArc
 50
243.5519440000013
 51
257.3477330000014
  0
ARC
  5
59A
330
6B
100
AcDbEntity
  8
0
 62
     2
100
AcDbCircle
 10
-525.9652412388019
 20
4.230988698185234
 30
0.0
 40
1.554783999999999
100
AcDbArc
 50
116.4480559999986
 51
243.5519440000013
  0
ARC
  5
59B
330
6B
100
AcDbEntity
  8
0
 62
     2
100
AcDbCircle
 10
-525.9652412388019
 20
4.230988698185234
 30
0.0
 40
1.954384
100
AcDbArc
 50
116.4480559999986
 51
243.5519440000013
  0
ARC
  5
59C
330
6B
100
AcDbEntity
  8
0
 62
     2
100
AcDbCircle
 10
-521.4756192388017
 20
-4.794282301814766
 30
0.0
 40
11.635073
100
AcDbArc
 50
102.6522669999985
 51
116.4480559999986
  0
ARC
  5
59D
330
6B
100
AcDbEntity
  8
0
 62
     2
100
AcDbCircle
 10
-521.4756192388017
 20
-4.794282301814766
 30
0.0
 40
12.034673
100
AcDbArc
 50
102.9980349999986
 51
116.4480559999986
  0
LINE
  5
59E
330
6B
100
AcDbEntity
  8
0
 62
     3
100
AcDbLine
 10
-508.5698082388018
 20
-3.268061301814765
 30
0.0
 11
-481.9080182388018
 21
-3.268061301814765
 31
0.0
  0
LINE
  5
59F
330
6B
100
AcDbEntity
  8
0
 62
     3
100
AcDbLine
 10
-550.6626312388018
 20
1.261788698185232
 30
0.0
 11
-550.2188232388017
 21
1.701390698185234
 31
0.0
  0
LINE
  5
5A0
330
6B
100
AcDbEntity
  8
0
 62
     3
100
AcDbLine
 10
-550.6626312388018
 20
7.261788698185233
 30
0.0
 11
-550.1836282388019
 21
6.734289698185232
 31
0.0
  0
LINE
  5
5A1
330
6B
100
AcDbEntity
  8
0
 62
     3
100
AcDbLine
 10
-508.5698082388018
 20
-3.268061301814765
 30
0.0
 11
-530.5698082388017
 21
-3.268061301814765
 31
0.0
  0
LINE
  5
5A2
330
6B
100
AcDbEntity
  8
0
 62
     3
100
AcDbLine
 10
-502.1980302388017
 20
11.80655569818523
 30
0.0
 11
-530.5698082388017
 21
11.80655569818523
 31
0.0
  0
LINE
  5
5A3
330
6B
100
AcDbEntity
  8
0
 62
     3
100
AcDbLine
 10
-357.4460902388019
 20
-3.282977301814765
 30
0.0
 11
-380.1183042388019
 21
-3.282977301814765
 31
0.0
  0
LINE
  5
5A4
330
6B
100
AcDbEntity
  8
0
 62
     3
100
AcDbLine
 10
-356.9583632388019
 20
11.80655569818523
 30
0.0
 11
-379.6305772388019
 21
11.80655569818523
 31
0.0
  0
LINE
  5
5A5
330
6B
100
AcDbEntity
  8
0
  6
DASHED
100
AcDbLine
 10
-492.9205892388019
 20
-0.9882113018147665
 30
0.0
 11
-492.9205892388019
 21
9.511788698185233
 31
0.0
  0
LINE
  5
5A6
330
6B
100
AcDbEntity
  8
0
  6
DASHED
100
AcDbLine
 10
-490.6205892388018
 20
-0.9882113018147665
 30
0.0
 11
-490.6205892388018
 21
9.511788698185233
 31
0.0
  0
LINE
  5
5A7
330
6B
100
AcDbEntity
  8
0
  6
DASHED
100
AcDbLine
 10
-488.3205892388017
 20
-0.9882113018147665
 30
0.0
 11
-488.3205892388017
 21
9.511788698185233
 31
0.0
  0
LINE
  5
5A8
330
6B
100
AcDbEntity
  8
0
  6
DASHED
100
AcDbLine
 10
-486.0205892388019
 20
-0.9882113018147665
 30
0.0
 11
-486.0205892388019
 21
9.511788698185233
 31
0.0
  0
LINE
  5
5A9
330
6B
100
AcDbEntity
  8
0
  6
DASHED
100
AcDbLine
 10
-483.7205892388019
 20
-0.9882113018147665
 30
0.0
 11
-483.7205892388019
 21
9.511788698185233
 31
0.0
  0
LINE
  5
5AA
330
6B
100
AcDbEntity
  8
0
  6
DASHED
100
AcDbLine
 10
-495.2205892388017
 20
-0.9882113018147665
 30
0.0
 11
-490.6205892388018
 21
-0.9882113018147665
 31
0.0
  0
LINE
  5
5AB
330
6B
100
AcDbEntity
  8
0
  6
DASHED
100
AcDbLine
 10
-488.3205892388017
 20
-0.9882113018147665
 30
0.0
 11
-483.7205892388019
 21
-0.9882113018147665
 31
0.0
  0
LINE
  5
5AC
330
6B
100
AcDbEntity
  8
0
  6
DASHED
100
AcDbLine
 10
-488.3205892388017
 20
9.511788698185233
 30
0.0
 11
-483.7205892388019
 21
9.511788698185233
 31
0.0
  0
LINE
  5
5AD
330
6B
100
AcDbEntity
  8
0
  6
DASHED
100
AcDbLine
 10
-495.2205892388017
 20
9.511788698185233
 30
0.0
 11
-490.6205892388018
 21
9.511788698185233
 31
0.0
  0
ARC
  5
5B0
330
6B
100
AcDbEntity
  8
0
 62
     3
100
AcDbCircle
 10
-333.4854752388019
 20
4.264203698185232
 30
0.0
 40
4.622358999999998
100
AcDbArc
 50
283.2125340000015
 51
76.78746599999853
  0
LINE
  5
5B1
330
6B
100
AcDbEntity
  8
0
 62
     3
100
AcDbLine
 10
-338.3381172388019
 20
-3.951179301814765
 30
0.0
 11
-338.3381172388019
 21
12.55484269818523
 31
0.0
  0
LINE
  5
5B2
330
6B
100
AcDbEntity
  8
0
 62
     3
100
AcDbLine
 10
-313.9606682388019
 20
-6.235796301814764
 30
0.0
 11
-313.9606682388019
 21
1.264203698185232
 31
0.0
  0
LINE
  5
5B3
330
6B
100
AcDbEntity
  8
0
 62
     3
100
AcDbLine
 10
-313.9606682388019
 20
7.264203698185232
 30
0.0
 11
-313.9606682388019
 21
14.76420369818523
 31
0.0
  0
LINE
  5
5B4
330
6B
100
AcDbEntity
  8
0
 62
     3
100
AcDbLine
 10
-323.7350742388019
 20
-6.235796301814764
 30
0.0
 11
-323.7350742388019
 21
3.139203698185232
 31
0.0
  0
LINE
  5
5B5
330
6B
100
AcDbEntity
  8
0
 62
     3
100
AcDbLine
 10
-323.7350742388019
 20
14.76420369818523
 30
0.0
 11
-323.7350742388019
 21
5.389203698185232
 31
0.0
  0
LINE
  5
5B6
330
6B
100
AcDbEntity
  8
0
 62
     3
100
AcDbLine
 10
-319.9606682388019
 20
-1.735796301814765
 30
0.0
 11
-338.3381172388019
 21
-1.735796301814765
 31
0.0
  0
LINE
  5
5B7
330
6B
100
AcDbEntity
  8
0
 62
     3
100
AcDbLine
 10
-319.9606682388019
 20
10.26420369818523
 30
0.0
 11
-338.3381172388019
 21
10.26420369818523
 31
0.0
  0
LINE
  5
5B8
330
6B
100
AcDbEntity
  8
0
 62
     3
100
AcDbLine
 10
-338.3381172388019
 20
-3.282977301814765
 30
0.0
 11
-449.8273552388019
 21
-3.282977301814765
 31
0.0
  0
LINE
  5
5B9
330
6B
100
AcDbEntity
  8
0
 62
     3
100
AcDbLine
 10
-451.8629072388018
 20
-3.282981301814765
 30
0.0
 11
-479.6947492388018
 21
-3.282981301814765
 31
0.0
  0
LINE
  5
5BA
330
6B
100
AcDbEntity
  8
0
 62
     3
100
AcDbLine
 10
-338.3381172388019
 20
11.80655569818523
 30
0.0
 11
-449.3626942388019
 21
11.80655569818523
 31
0.0
  0
LINE
  5
5BB
330
6B
100
AcDbEntity
  8
0
 62
     3
100
AcDbLine
 10
-451.3897762388018
 20
11.80655569818523
 30
0.0
 11
-479.2559742388018
 21
11.80655569818523
 31
0.0
  0
CIRCLE
  5
5BC
330
6B
100
AcDbEntity
  8
0
 62
     3
100
AcDbCircle
 10
-363.3381172388019
 20
4.264203698185232
 30
0.0
 40
2.0
  0
CIRCLE
  5
5BD
330
6B
100
AcDbEntity
  8
0
 62
     3
100
AcDbCircle
 10
-373.3381172388019
 20
4.264203698185232
 30
0.0
 40
2.0
  0
CIRCLE
  5
5BE
330
6B
100
AcDbEntity
  8
0
 62
     3
100
AcDbCircle
 10
-383.3381172388019
 20
4.264203698185232
 30
0.0
 40
2.0
  0
LINE
  5
5BF
330
6B
100
AcDbEntity
  8
0
  6
PHANTOM
100
AcDbLine
 10
-449.4705892388019
 20
-0.9882113018147665
 30
0.0
 11
-450.9407572388019
 21
-0.9882113018147665
 31
0.0
  0
TEXT
  5
5C0
330
6B
100
AcDbEntity
  8
0
100
AcDbText
 10
-434.7620072388018
 20
-0.5476893018147662
 30
0.0
 40
2.027519999999999
  1
JAPAN
 50
90.00000300000001
 41
0.800781
100
AcDbText
  0
TEXT
  5
5C1
330
6B
100
AcDbEntity
  8
0
100
AcDbText
 10
-431.2891132388018
 20
-0.6029183018147668
 30
0.0
 40
2.433024
  1
MULTI
 50
90.00000300000001
 41
0.8579799999999998
100
AcDbText
  0
TEXT
  5
5C2
330
6B
100
AcDbEntity
  8
0
100
AcDbText
 10
-425.4274102388018
 20
-1.220374301814765
 30
0.0
 40
2.2176
  1
PAT.TED
 50
90.00000300000001
 41
0.7317610000000001
100
AcDbText
  0
TEXT
  5
5C3
330
6B
100
AcDbEntity
  8
0
100
AcDbText
 10
-428.6700412388019
 20
0.0610786981852334
 30
0.0
 40
2.433024
  1
HOOK
 50
90.00000300000001
 41
0.8262459999999999
100
AcDbText
  0
TEXT
  5
5C4
330
6B
100
AcDbEntity
  8
0
100
AcDbText
 10
-407.3441292388018
 20
1.788378698185233
 30
0.0
 40
2.5344
  1
EP
 50
90.00000300000001
100
AcDbText
  0
LINE
  5
5C5
330
6B
100
AcDbEntity
  8
0
100
AcDbLine
 10
-434.2298652388017
 20
10.23756369818523
 30
0.0
 11
-434.2298652388017
 21
-1.731073301814765
 31
0.0
  0
LINE
  5
5C6
330
6B
100
AcDbEntity
  8
0
100
AcDbLine
 10
-428.2623622388018
 20
10.23756369818523
 30
0.0
 11
-428.2623622388018
 21
-1.731073301814765
 31
0.0
  0
LINE
  5
5C7
330
6B
100
AcDbEntity
  8
0
 62
     3
100
AcDbLine
 10
-437.6154312388019
 20
9.247563698185233
 30
0.0
 11
-437.6154312388019
 21
-0.7410733018147662
 31
0.0
  0
ARC
  5
5C8
330
6B
100
AcDbEntity
  8
0
 62
     3
100
AcDbCircle
 10
-436.6254312388019
 20
9.247563698185233
 30
0.0
 40
0.99
100
AcDbArc
 50
90.0
 51
180.0
  0
LINE
  5
5C9
330
6B
100
AcDbEntity
  8
0
 62
     3
100
AcDbLine
 10
-391.0448782388018
 20
10.23756369818523
 30
0.0
 11
-436.6254312388019
 21
10.23756369818523
 31
0.0
  0
ARC
  5
5CA
330
6B
100
AcDbEntity
  8
0
 62
     3
100
AcDbCircle
 10
-436.6254312388019
 20
-0.7410733018147662
 30
0.0
 40
0.99
100
AcDbArc
 50
180.0
 51
270.0
  0
LINE
  5
5CB
330
6B
100
AcDbEntity
  8
0
 62
     3
100
AcDbLine
 10
-391.0448782388018
 20
-1.731073301814765
 30
0.0
 11
-436.6254312388019
 21
-1.731073301814765
 31
0.0
  0
LINE
  5
5CC
330
6B
100
AcDbEntity
  8
0
100
AcDbLine
 10
-393.6039552388018
 20
10.23756369818523
 30
0.0
 11
-393.6039552388018
 21
-1.731073301814765
 31
0.0
  0
ARC
  5
5CD
330
6B
100
AcDbEntity
  8
0
 62
     3
100
AcDbCircle
 10
-391.0448782388018
 20
-0.7410733018147662
 30
0.0
 40
0.99
100
AcDbArc
 50
270.0
 51
0.0
  0
LINE
  5
5CE
330
6B
100
AcDbEntity
  8
0
 62
     3
100
AcDbLine
 10
-390.0548782388019
 20
-0.7410733018147662
 30
0.0
 11
-390.0548782388019
 21
9.247563698185233
 31
0.0
  0
ARC
  5
5CF
330
6B
100
AcDbEntity
  8
0
 62
     3
100
AcDbCircle
 10
-391.0448782388018
 20
9.247563698185233
 30
0.0
 40
0.99
100
AcDbArc
 50
0.0
 51
90.0
  0
TEXT
  5
5D0
330
6B
100
AcDbEntity
  8
0
100
AcDbText
 10
-419.3825292388019
 20
1.788378698185233
 30
0.0
 40
2.5344
  1
TW
 50
90.00000300000001
 41
0.8571429999999999
100
AcDbText
  0
TEXT
  5
5D1
330
6B
100
AcDbEntity
  8
0
100
AcDbText
 10
-422.3093012388019
 20
1.567503698185233
 30
0.0
 40
2.5344
  1
JP
 50
90.00000300000001
100
AcDbText
  0
TEXT
  5
5D2
330
6B
100
AcDbEntity
  8
0
100
AcDbText
 10
-416.3729292388018
 20
1.788378698185233
 30
0.0
 40
2.5344
  1
KR
 50
90.00000300000001
100
AcDbText
  0
TEXT
  5
5D3
330
6B
100
AcDbEntity
  8
0
100
AcDbText
 10
-413.3633292388019
 20
1.788378698185233
 30
0.0
 40
2.5344
  1
CN
 50
90.00000300000001
100
AcDbText
  0
TEXT
  5
5D4
330
6B
100
AcDbEntity
  8
0
100
AcDbText
 10
-410.3537292388018
 20
1.788378698185233
 30
0.0
 40
2.5344
  1
HK
 50
90.00000300000001
100
AcDbText
  0
TEXT
  5
5D5
330
6B
100
AcDbEntity
  8
0
100
AcDbText
 10
-404.3345292388019
 20
1.788378698185233
 30
0.0
 40
2.5344
  1
US
 50
90.00000300000001
100
AcDbText
  0
TEXT
  5
5D6
330
6B
100
AcDbEntity
  8
0
100
AcDbText
 10
-401.3249292388018
 20
1.788378698185233
 30
0.0
 40
2.5344
  1
CA
 50
90.00000300000001
100
AcDbText
  0
TEXT
  5
5D7
330
6B
100
AcDbEntity
  8
0
100
AcDbText
 10
-398.3678902388019
 20
1.788378698185233
 30
0.0
 40
2.5344
  1
AU
 50
90.00000300000001
100
AcDbText
  0
LINE
  5
5D8
330
6B
100
AcDbEntity
  8
0
  6
DASHED
100
AcDbLine
 10
-481.4205892388018
 20
-0.9882113018147665
 30
0.0
 11
-481.4205892388018
 21
9.511788698185233
 31
0.0
  0
LINE
  5
5D9
330
6B
100
AcDbEntity
  8
0
  6
DASHED
100
AcDbLine
 10
-479.1205892388019
 20
-0.9882113018147665
 30
0.0
 11
-479.1205892388019
 21
9.511788698185233
 31
0.0
  0
LINE
  5
5DA
330
6B
100
AcDbEntity
  8
0
  6
DASHED
100
AcDbLine
 10
-476.8205892388018
 20
-0.9882113018147665
 30
0.0
 11
-476.8205892388018
 21
9.511788698185233
 31
0.0
  0
LINE
  5
5DB
330
6B
100
AcDbEntity
  8
0
  6
DASHED
100
AcDbLine
 10
-481.4205892388018
 20
-0.9882113018147665
 30
0.0
 11
-476.8205892388018
 21
-0.9882113018147665
 31
0.0
  0
LINE
  5
5DC
330
6B
100
AcDbEntity
  8
0
  6
DASHED
100
AcDbLine
 10
-481.4205892388018
 20
9.511788698185233
 30
0.0
 11
-476.8205892388018
 21
9.511788698185233
 31
0.0
  0
LINE
  5
5DD
330
6B
100
AcDbEntity
  8
0
  6
DASHED
100
AcDbLine
 10
-474.5205892388018
 20
-0.9882113018147665
 30
0.0
 11
-474.5205892388018
 21
9.511788698185233
 31
0.0
  0
LINE
  5
5DE
330
6B
100
AcDbEntity
  8
0
  6
DASHED
100
AcDbLine
 10
-472.2205892388019
 20
-0.9882113018147665
 30
0.0
 11
-472.2205892388019
 21
9.511788698185233
 31
0.0
  0
LINE
  5
5DF
330
6B
100
AcDbEntity
  8
0
  6
DASHED
100
AcDbLine
 10
-469.9205892388018
 20
-0.9882113018147665
 30
0.0
 11
-469.9205892388018
 21
9.511788698185233
 31
0.0
  0
LINE
  5
5E0
330
6B
100
AcDbEntity
  8
0
  6
DASHED
100
AcDbLine
 10
-474.5205892388018
 20
-0.9882113018147665
 30
0.0
 11
-469.9205892388018
 21
-0.9882113018147665
 31
0.0
  0
LINE
  5
5E1
330
6B
100
AcDbEntity
  8
0
  6
DASHED
100
AcDbLine
 10
-474.5205892388018
 20
9.511788698185233
 30
0.0
 11
-469.9205892388018
 21
9.511788698185233
 31
0.0
  0
LINE
  5
5E2
330
6B
100
AcDbEntity
  8
0
  6
DASHED
100
AcDbLine
 10
-467.6205892388018
 20
-0.9882113018147665
 30
0.0
 11
-467.6205892388018
 21
9.511788698185233
 31
0.0
  0
LINE
  5
5E3
330
6B
100
AcDbEntity
  8
0
  6
DASHED
100
AcDbLine
 10
-465.3205892388018
 20
-0.9882113018147665
 30
0.0
 11
-465.3205892388018
 21
9.511788698185233
 31
0.0
  0
LINE
  5
5E4
330
6B
100
AcDbEntity
  8
0
  6
DASHED
100
AcDbLine
 10
-463.0205892388017
 20
-0.9882113018147665
 30
0.0
 11
-463.0205892388017
 21
9.511788698185233
 31
0.0
  0
LINE
  5
5E5
330
6B
100
AcDbEntity
  8
0
  6
DASHED
100
AcDbLine
 10
-467.6205892388018
 20
-0.9882113018147665
 30
0.0
 11
-463.0205892388017
 21
-0.9882113018147665
 31
0.0
  0
LINE
  5
5E6
330
6B
100
AcDbEntity
  8
0
  6
DASHED
100
AcDbLine
 10
-467.6205892388018
 20
9.511788698185233
 30
0.0
 11
-463.0205892388017
 21
9.511788698185233
 31
0.0
  0
LINE
  5
5E7
330
6B
100
AcDbEntity
  8
0
  6
DASHED
100
AcDbLine
 10
-460.7205892388019
 20
-0.9882113018147665
 30
0.0
 11
-460.7205892388019
 21
9.511788698185233
 31
0.0
  0
LINE
  5
5E8
330
6B
100
AcDbEntity
  8
0
  6
DASHED
100
AcDbLine
 10
-458.4205892388019
 20
-0.9882113018147665
 30
0.0
 11
-458.4205892388019
 21
9.511788698185233
 31
0.0
  0
LINE
  5
5E9
330
6B
100
AcDbEntity
  8
0
  6
DASHED
100
AcDbLine
 10
-456.1205892388018
 20
-0.9882113018147665
 30
0.0
 11
-456.1205892388018
 21
9.511788698185233
 31
0.0
  0
LINE
  5
5EA
330
6B
100
AcDbEntity
  8
0
  6
DASHED
100
AcDbLine
 10
-460.7205892388019
 20
-0.9882113018147665
 30
0.0
 11
-456.1205892388018
 21
-0.9882113018147665
 31
0.0
  0
LINE
  5
5EB
330
6B
100
AcDbEntity
  8
0
  6
DASHED
100
AcDbLine
 10
-460.7205892388019
 20
9.511788698185233
 30
0.0
 11
-456.1205892388018
 21
9.511788698185233
 31
0.0
  0
LINE
  5
5EC
330
6B
100
AcDbEntity
  8
0
100
AcDbLine
 10
-453.2205892388017
 20
9.511788698185233
 30
0.0
 11
-450.4109452388019
 21
9.511788698185233
 31
0.0
  0
LINE
  5
5ED
330
6B
100
AcDbEntity
  8
0
 62
     3
100
AcDbLine
 10
-550.7424342388019
 20
7.231640698185232
 30
0.0
 11
-550.2986272388018
 21
6.792039698185233
 31
0.0
  0
LINE
  5
5EE
330
6B
100
AcDbEntity
  8
0
 62
     3
100
AcDbLine
 10
-550.7424342388019
 20
1.231640698185232
 30
0.0
 11
-550.2634322388018
 21
1.759139698185233
 31
0.0
  0
LINE
  5
5EF
330
6B
100
AcDbEntity
  8
0
 62
     3
100
AcDbLine
 10
-550.2225922388019
 20
6.716724698185232
 30
0.0
 11
-550.2225922388019
 21
1.716724698185233
 31
0.0
  0
LINE
  5
5F0
330
6B
100
AcDbEntity
  8
0
 62
     3
100
AcDbLine
 10
-563.7335392388019
 20
-1.268359301814765
 30
0.0
 11
-563.7335392388019
 21
9.731640698185234
 31
0.0
  0
ARC
  5
5F1
330
6B
100
AcDbEntity
  8
0
 62
     3
100
AcDbCircle
 10
-561.7335392388017
 20
9.731640698185234
 30
0.0
 40
2.0
100
AcDbArc
 50
90.0
 51
180.0
  0
ARC
  5
5F2
330
6B
100
AcDbEntity
  8
0
 62
     3
100
AcDbCircle
 10
-561.7335392388017
 20
-1.268359301814765
 30
0.0
 40
2.0
100
AcDbArc
 50
180.0
 51
270.0
  0
LINE
  5
5F3
330
6B
100
AcDbEntity
  8
0
 62
     3
100
AcDbLine
 10
-563.6952522388019
 20
-1.570175301814765
 30
0.0
 11
-565.1952522388019
 21
-1.037917301814765
 31
0.0
  0
LINE
  5
5F4
330
6B
100
AcDbEntity
  8
0
 62
     3
100
AcDbLine
 10
-552.7335392388017
 20
11.73164069818523
 30
0.0
 11
-561.7335392388017
 21
11.73164069818523
 31
0.0
  0
LINE
  5
5F5
330
6B
100
AcDbEntity
  8
0
 62
     3
100
AcDbLine
 10
-552.7335392388017
 20
-3.268359301814765
 30
0.0
 11
-561.7335392388017
 21
-3.268359301814765
 31
0.0
  0
LINE
  5
5F6
330
6B
100
AcDbEntity
  8
0
 62
     3
100
AcDbLine
 10
-563.6952522388019
 20
10.03345769818523
 30
0.0
 11
-565.1952522388019
 21
9.501199698185232
 31
0.0
  0
ARC
  5
5F7
330
6B
100
AcDbEntity
  8
0
 62
     3
100
AcDbCircle
 10
-552.7335392388017
 20
9.731640698185234
 30
0.0
 40
2.0
100
AcDbArc
 50
0.0
 51
90.0
  0
ARC
  5
5F8
330
6B
100
AcDbEntity
  8
0
 62
     3
100
AcDbCircle
 10
-552.7335392388017
 20
-1.268359301814765
 30
0.0
 40
2.0
100
AcDbArc
 50
270.0
 51
0.0
  0
LINE
  5
5F9
330
6B
100
AcDbEntity
  8
0
 62
     3
100
AcDbLine
 10
-621.7779862388018
 20
-0.5379173018147663
 30
0.0
 11
-621.7779862388018
 21
9.001199698185232
 31
0.0
  0
LINE
  5
5FA
330
6B
100
AcDbEntity
  8
0
 62
     3
100
AcDbLine
 10
-621.2779862388019
 20
9.501199698185232
 30
0.0
 11
-565.1952522388019
 21
9.501199698185232
 31
0.0
  0
LINE
  5
5FB
330
6B
100
AcDbEntity
  8
0
 62
     3
100
AcDbLine
 10
-621.2779862388019
 20
-1.037917301814765
 30
0.0
 11
-565.1952522388019
 21
-1.037917301814765
 31
0.0
  0
ARC
  5
5FC
330
6B
100
AcDbEntity
  8
0
 62
     3
100
AcDbCircle
 10
-621.2779862388019
 20
9.001199698185232
 30
0.0
 40
0.5
100
AcDbArc
 50
90.0
 51
180.0
  0
ARC
  5
5FD
330
6B
100
AcDbEntity
  8
0
 62
     3
100
AcDbCircle
 10
-621.2779862388019
 20
-0.5379173018147663
 30
0.0
 40
0.5
100
AcDbArc
 50
180.0
 51
270.0
  0
LINE
  5
5FE
330
6B
100
AcDbEntity
  8
0
 62
     3
100
AcDbLine
 10
-539.7826062388019
 20
78.25413569818524
 30
0.0
 11
-471.1676542388017
 21
78.25413569818524
 31
0.0
  0
LINE
  5
5FF
330
6B
100
AcDbEntity
  8
0
 62
     3
100
AcDbLine
 10
-539.7826062388019
 20
76.75413569818523
 30
0.0
 11
-471.6240112388018
 21
76.75413569818523
 31
0.0
  0
LINE
  5
600
330
6B
100
AcDbEntity
  8
0
 62
     3
100
AcDbLine
 10
-338.956773238802
 20
78.25268269818524
 30
0.0
 11
-436.3865962388018
 21
78.25268269818524
 31
0.0
  0
LINE
  5
601
330
6B
100
AcDbEntity
  8
0
 62
     3
100
AcDbLine
 10
-313.8082122388019
 20
76.72829269818523
 30
0.0
 11
-436.3865962388018
 21
76.72829269818523
 31
0.0
  0
TEXT
  5
602
330
6B
100
AcDbEntity
  8
0
100
AcDbText
 10
-391.0145342388019
 20
0.8627526981852334
 30
0.0
 40
2.027519999999999
  1
PA6
 50
90.00000300000001
 41
1.067708
100
AcDbText
  0
LINE
  5
603
330
6B
100
AcDbEntity
  8
0
 62
     3
100
AcDbLine
 10
-550.7335392388019
 20
9.731640698185234
 30
0.0
 11
-550.7335392388019
 21
-1.268359301814765
 31
0.0
  0
LINE
  5
605
330
6B
100
AcDbEntity
  8
0
100
AcDbLine
 10
-372.5967572388019
 20
1.867479698185233
 30
0.0
 11
-362.9102222388019
 21
-14.88188530181476
 31
0.0
  0
LINE
  5
606
330
6B
100
AcDbEntity
  8
0
100
AcDbLine
 10
-362.9102222388019
 20
-14.88188530181476
 30
0.0
 11
-338.8477222388019
 21
-14.88188530181476
 31
0.0
  0
TEXT
  5
607
330
6B
100
AcDbEntity
  8
0
 62
     4
100
AcDbText
 10
-359.4727222388019
 20
-13.63188430181477
 30
0.0
 40
4.0
  1
3-%%C4穴
 41
0.716146
100
AcDbText
  0
TEXT
  5
608
330
6B
100
AcDbEntity
  8
0
 62
     3
100
AcDbText
 10
-359.0208402388019
 20
1.943370698185233
 30
0.0
 40
4.5
  1
BH-400
 41
0.7306600000000003
100
AcDbText
  0
LINE
  5
61D
330
6B
100
AcDbEntity
  8
0
100
AcDbLine
 10
-505.4751302388019
 20
78.25413569818524
 30
0.0
 11
-505.0713692388018
 21
98.59691669818523
 31
0.0
  0
CIRCLE
  5
61E
330
6B
100
AcDbEntity
  8
0
100
AcDbCircle
 10
-504.9721492388019
 20
103.5959326981852
 30
0.0
 40
5.0
  0
TEXT
  5
61F
330
6B
100
AcDbEntity
  8
0
 62
     4
100
AcDbText
 10
-506.0300635847521
 20
100.4939480005432
 30
0.0
 40
6.299999999999998
  1
1
  7
高6.3
100
AcDbText
  0
LINE
  5
621
330
6B
100
AcDbEntity
  8
0
100
AcDbLine
 10
-567.1522552388019
 20
82.4271016981852
 30
0.0
 11
-563.1222552388019
 21
97.77390569818523
 31
0.0
  0
CIRCLE
  5
622
330
6B
100
AcDbEntity
  8
0
100
AcDbCircle
 10
-561.8523322388019
 20
102.6099466981852
 30
0.0
 40
5.0
  0
TEXT
  5
623
330
6B
100
AcDbEntity
  8
0
 62
     4
100
AcDbText
 10
-563.987198500261
 20
99.46081148994664
 30
0.0
 40
6.299999999999998
  1
2
  7
高6.3
100
AcDbText
  0
LINE
  5
624
330
6B
100
AcDbEntity
  8
0
 62
     2
100
AcDbLine
 10
-510.0510442388018
 20
5.659715698185232
 30
0.0
 11
-510.2304992388019
 21
5.659715698185232
 31
0.0
  0
ARC
  5
625
330
6B
100
AcDbEntity
  8
0
 62
     2
100
AcDbCircle
 10
-510.0510442388018
 20
5.424628698185232
 30
0.0
 40
0.235086
100
AcDbArc
 50
0.0
 51
90.0
  0
LINE
  5
626
330
6B
100
AcDbEntity
  8
0
 62
     2
100
AcDbLine
 10
-509.8159572388019
 20
5.424628698185232
 30
0.0
 11
-509.8159572388019
 21
2.937379698185232
 31
0.0
  0
LINE
  5
627
330
6B
100
AcDbEntity
  8
0
 62
     2
100
AcDbLine
 10
-508.0752422388019
 20
2.205202698185233
 30
0.0
 11
-510.2304992388019
 21
2.205202698185233
 31
0.0
  0
LINE
  5
628
330
6B
100
AcDbEntity
  8
0
 62
     2
100
AcDbLine
 10
-508.0752422388019
 20
2.702293698185232
 30
0.0
 11
-508.0752422388019
 21
2.205202698185233
 31
0.0
  0
LINE
  5
629
330
6B
100
AcDbEntity
  8
0
 62
     2
100
AcDbLine
 10
-508.2546972388017
 20
2.702293698185232
 30
0.0
 11
-508.0752422388019
 21
2.702293698185232
 31
0.0
  0
ARC
  5
62A
330
6B
100
AcDbEntity
  8
0
 62
     2
100
AcDbCircle
 10
-508.2546972388017
 20
2.937379698185232
 30
0.0
 40
0.235086
100
AcDbArc
 50
180.0
 51
270.0
  0
LINE
  5
62B
330
6B
100
AcDbEntity
  8
0
 62
     2
100
AcDbLine
 10
-510.6670812388018
 20
6.156712698185232
 30
0.0
 11
-512.6841572388018
 21
6.156712698185232
 31
0.0
  0
LINE
  5
62C
330
6B
100
AcDbEntity
  8
0
 62
     2
100
AcDbLine
 10
-510.6670812388018
 20
6.156712698185232
 30
0.0
 11
-510.6670812388018
 21
5.656333698185233
 31
0.0
  0
LINE
  5
62D
330
6B
100
AcDbEntity
  8
0
 62
     2
100
AcDbLine
 10
-510.8166272388018
 20
5.656333698185233
 30
0.0
 11
-510.6670812388018
 21
5.656333698185233
 31
0.0
  0
ARC
  5
62E
330
6B
100
AcDbEntity
  8
0
 62
     2
100
AcDbCircle
 10
-510.7774462388018
 20
5.424534698185232
 30
0.0
 40
0.235086
100
AcDbArc
 50
99.59406799999896
 51
180.0
  0
LINE
  5
62F
330
6B
100
AcDbEntity
  8
0
 62
     2
100
AcDbLine
 10
-511.0125322388019
 20
5.424534698185232
 30
0.0
 11
-511.0125322388019
 21
2.937285698185232
 31
0.0
  0
ARC
  5
630
330
6B
100
AcDbEntity
  8
0
 62
     2
100
AcDbCircle
 10
-510.7774462388018
 20
2.937285698185232
 30
0.0
 40
0.235086
100
AcDbArc
 50
180.0
 51
260.405932000001
  0
LINE
  5
631
330
6B
100
AcDbEntity
  8
0
 62
     2
100
AcDbLine
 10
-510.8166272388018
 20
2.705487698185232
 30
0.0
 11
-510.6670812388018
 21
2.705487698185232
 31
0.0
  0
LINE
  5
632
330
6B
100
AcDbEntity
  8
0
 62
     2
100
AcDbLine
 10
-510.6670812388018
 20
2.705487698185232
 30
0.0
 11
-510.6670812388018
 21
2.205108698185232
 31
0.0
  0
LINE
  5
633
330
6B
100
AcDbEntity
  8
0
 62
     2
100
AcDbLine
 10
-510.6670812388018
 20
2.205108698185232
 30
0.0
 11
-512.6841572388018
 21
2.205108698185232
 31
0.0
  0
ARC
  5
634
330
6B
100
AcDbEntity
  8
0
 62
     2
100
AcDbCircle
 10
-508.2546972388017
 20
5.424628698185232
 30
0.0
 40
0.235086
100
AcDbArc
 50
90.0
 51
180.0
  0
LINE
  5
635
330
6B
100
AcDbEntity
  8
0
 62
     2
100
AcDbLine
 10
-508.4897832388018
 20
5.424628698185232
 30
0.0
 11
-508.4897832388018
 21
2.937379698185232
 31
0.0
  0
LINE
  5
636
330
6B
100
AcDbEntity
  8
0
 62
     2
100
AcDbLine
 10
-508.0752422388019
 20
6.156806698185232
 30
0.0
 11
-508.0752422388019
 21
5.659715698185232
 31
0.0
  0
LINE
  5
637
330
6B
100
AcDbEntity
  8
0
 62
     2
100
AcDbLine
 10
-508.2546972388017
 20
5.659715698185232
 30
0.0
 11
-508.0752422388019
 21
5.659715698185232
 31
0.0
  0
LINE
  5
638
330
6B
100
AcDbEntity
  8
0
 62
     2
100
AcDbLine
 10
-508.0752422388019
 20
6.156806698185232
 30
0.0
 11
-510.2304992388019
 21
6.156806698185232
 31
0.0
  0
LINE
  5
639
330
6B
100
AcDbEntity
  8
0
 62
     2
100
AcDbLine
 10
-510.2304992388019
 20
6.156806698185232
 30
0.0
 11
-510.2304992388019
 21
5.659715698185232
 31
0.0
  0
LINE
  5
63A
330
6B
100
AcDbEntity
  8
0
 62
     2
100
AcDbLine
 10
-507.6715762388017
 20
2.702293698185232
 30
0.0
 11
-507.6715762388017
 21
2.205202698185233
 31
0.0
  0
ARC
  5
63B
330
6B
100
AcDbEntity
  8
0
 62
     2
100
AcDbCircle
 10
-507.4921212388018
 20
2.937379698185232
 30
0.0
 40
0.235086
100
AcDbArc
 50
270.0
 51
0.0
  0
LINE
  5
63C
330
6B
100
AcDbEntity
  8
0
 62
     2
100
AcDbLine
 10
-507.4921212388018
 20
2.702293698185232
 30
0.0
 11
-507.6715762388017
 21
2.702293698185232
 31
0.0
  0
LINE
  5
63D
330
6B
100
AcDbEntity
  8
0
 62
     2
100
AcDbLine
 10
-505.3443282388019
 20
2.205202698185233
 30
0.0
 11
-507.6715762388017
 21
2.205202698185233
 31
0.0
  0
LINE
  5
63E
330
6B
100
AcDbEntity
  8
0
 62
     2
100
AcDbLine
 10
-507.2570342388019
 20
5.424628698185232
 30
0.0
 11
-507.2570342388019
 21
2.937379698185232
 31
0.0
  0
LINE
  5
63F
330
6B
100
AcDbEntity
  8
0
 62
     2
100
AcDbLine
 10
-505.9308602388019
 20
5.521534698185233
 30
0.0
 11
-505.9308602388019
 21
2.840473698185233
 31
0.0
  0
LINE
  5
640
330
6B
100
AcDbEntity
  8
0
 62
     2
100
AcDbLine
 10
-505.9308602388019
 20
2.840473698185233
 30
0.0
 11
-505.7500602388017
 21
2.840473698185233
 31
0.0
  0
ARC
  5
641
330
6B
100
AcDbEntity
  8
0
 62
     2
100
AcDbCircle
 10
-506.6745532388019
 20
4.181004698185232
 30
0.0
 40
1.628406999999999
100
AcDbArc
 50
304.5919550000006
 51
55.40804499999939
  0
ARC
  5
642
330
6B
100
AcDbEntity
  8
0
 62
     2
100
AcDbCircle
 10
-505.3443282388019
 20
3.766462698185232
 30
0.0
 40
1.56126
100
AcDbArc
 50
270.0
 51
342.6912509999998
  0
ARC
  5
643
330
6B
100
AcDbEntity
  8
0
 62
     2
100
AcDbCircle
 10
-505.3443282388019
 20
4.595545698185233
 30
0.0
 40
1.56126
100
AcDbArc
 50
17.30874900000007
 51
90.0
  0
LINE
  5
644
330
6B
100
AcDbEntity
  8
0
 62
     2
100
AcDbLine
 10
-505.3443282388019
 20
6.156806698185232
 30
0.0
 11
-507.6715762388017
 21
6.156806698185232
 31
0.0
  0
LINE
  5
645
330
6B
100
AcDbEntity
  8
0
 62
     2
100
AcDbLine
 10
-507.6715762388017
 20
6.156806698185232
 30
0.0
 11
-507.6715762388017
 21
5.659715698185232
 31
0.0
  0
LINE
  5
646
330
6B
100
AcDbEntity
  8
0
 62
     2
100
AcDbLine
 10
-507.4921212388018
 20
5.659715698185232
 30
0.0
 11
-507.6715762388017
 21
5.659715698185232
 31
0.0
  0
ARC
  5
647
330
6B
100
AcDbEntity
  8
0
 62
     2
100
AcDbCircle
 10
-507.4921212388018
 20
5.424628698185232
 30
0.0
 40
0.235086
100
AcDbArc
 50
0.0
 51
90.0
  0
ARC
  5
648
330
6B
100
AcDbEntity
  8
0
 62
     2
100
AcDbCircle
 10
-510.0510442388018
 20
2.937379698185232
 30
0.0
 40
0.235086
100
AcDbArc
 50
270.0
 51
0.0
  0
LINE
  5
649
330
6B
100
AcDbEntity
  8
0
 62
     2
100
AcDbLine
 10
-510.0510442388018
 20
2.702293698185232
 30
0.0
 11
-510.2304992388019
 21
2.702293698185232
 31
0.0
  0
LINE
  5
64A
330
6B
100
AcDbEntity
  8
0
 62
     2
100
AcDbLine
 10
-510.2304992388019
 20
2.702293698185232
 30
0.0
 11
-510.2304992388019
 21
2.205202698185233
 31
0.0
  0
LINE
  5
64B
330
6B
100
AcDbEntity
  8
0
 62
     2
100
AcDbLine
 10
-505.9308602388019
 20
5.521534698185233
 30
0.0
 11
-505.7500602388017
 21
5.521534698185233
 31
0.0
  0
ARC
  5
64C
330
6B
100
AcDbEntity
  8
0
 62
     2
100
AcDbCircle
 10
-506.6745532388019
 20
4.181004698185232
 30
0.0
 40
2.954581
100
AcDbArc
 50
342.6912509999998
 51
17.30856599999997
  0
ARC
  5
64D
330
6B
100
AcDbEntity
  8
0
 62
     2
100
AcDbCircle
 10
-506.2301502388018
 20
4.432415698185233
 30
0.0
 40
2.802941
100
AcDbArc
 50
333.6752840000004
 51
19.69063499999966
  0
ARC
  5
64E
330
6B
100
AcDbEntity
  8
0
 62
     2
100
AcDbCircle
 10
-499.8354652388019
 20
4.150505698185233
 30
0.0
 40
2.621769
100
AcDbArc
 50
149.3344129999993
 51
209.361467
  0
ARC
  5
64F
330
6B
100
AcDbEntity
  8
0
 62
     2
100
AcDbCircle
 10
-502.0129962388018
 20
4.187997698185232
 30
0.0
 40
1.975802
100
AcDbArc
 50
210.35784
 51
143.0080790000007
  0
ARC
  5
650
330
6B
100
AcDbEntity
  8
0
 62
     2
100
AcDbCircle
 10
-504.1905272388019
 20
4.150502698185232
 30
0.0
 40
2.621769
100
AcDbArc
 50
330.3722729999993
 51
30.84052499999997
  0
ARC
  5
651
330
6B
100
AcDbEntity
  8
0
 62
     2
100
AcDbCircle
 10
-502.0117202388019
 20
5.418105698185232
 30
0.0
 40
0.105179
100
AcDbArc
 50
46.62177100000085
 51
138.5892689999997
  0
ARC
  5
652
330
6B
100
AcDbEntity
  8
0
 62
     2
100
AcDbCircle
 10
-502.0117202388019
 20
2.943902698185232
 30
0.0
 40
0.13434
100
AcDbArc
 50
215.9651230000005
 51
318.2218159999998
  0
LINE
  5
653
330
6B
100
AcDbEntity
  8
0
 62
     2
100
AcDbLine
 10
-518.9800002388018
 20
5.424617698185232
 30
0.0
 11
-518.9800442388018
 21
2.937367698185232
 31
0.0
  0
LINE
  5
654
330
6B
100
AcDbEntity
  8
0
 62
     2
100
AcDbLine
 10
-518.7449622388019
 20
2.702277698185232
 30
0.0
 11
-518.5655062388018
 21
2.702274698185232
 31
0.0
  0
ARC
  5
655
330
6B
100
AcDbEntity
  8
0
 62
     2
100
AcDbCircle
 10
-518.7449582388019
 20
2.937363698185232
 30
0.0
 40
0.235086
100
AcDbArc
 50
179.999
 51
269.9990000000003
  0
LINE
  5
656
330
6B
100
AcDbEntity
  8
0
 62
     2
100
AcDbLine
 10
-518.5655062388018
 20
2.702274698185232
 30
0.0
 11
-518.5655152388019
 21
2.205183698185233
 31
0.0
  0
LINE
  5
657
330
6B
100
AcDbEntity
  8
0
 62
     2
100
AcDbLine
 10
-520.7207722388018
 20
2.205221698185233
 30
0.0
 11
-518.5655152388019
 21
2.205183698185233
 31
0.0
  0
LINE
  5
658
330
6B
100
AcDbEntity
  8
0
 62
     2
100
AcDbLine
 10
-523.8780792388019
 20
4.522543698185233
 30
0.0
 11
-523.8780792388019
 21
2.937379698185232
 31
0.0
  0
ARC
  5
659
330
6B
100
AcDbEntity
  8
0
 62
     2
100
AcDbCircle
 10
-523.6429932388017
 20
2.937379698185232
 30
0.0
 40
0.235086
100
AcDbArc
 50
180.0
 51
270.0
  0
LINE
  5
65A
330
6B
100
AcDbEntity
  8
0
 62
     2
100
AcDbLine
 10
-524.9278922388018
 20
2.205202698185233
 30
0.0
 11
-523.4635372388019
 21
2.205202698185233
 31
0.0
  0
ARC
  5
65B
330
6B
100
AcDbEntity
  8
0
 62
     2
100
AcDbCircle
 10
-516.6136482388018
 20
4.181004698185232
 30
0.0
 40
1.975802
100
AcDbArc
 50
46.75287999999889
 51
312.8231200000005
  0
ARC
  5
65C
330
6B
100
AcDbEntity
  8
0
 62
     2
100
AcDbCircle
 10
-529.1879882388018
 20
4.227530698185232
 30
0.0
 40
13.997507
100
AcDbArc
 50
353.866006
 51
357.694034
  0
LINE
  5
65D
330
6B
100
AcDbEntity
  8
0
 62
     2
100
AcDbLine
 10
-516.1389482388018
 20
3.667796698185232
 30
0.0
 11
-515.2018172388019
 21
3.664329698185232
 31
0.0
  0
LINE
  5
65F
330
6B
100
AcDbEntity
  8
0
 62
     2
100
AcDbLine
 10
-516.1351632388018
 20
4.690684698185233
 30
0.0
 11
-515.1980322388018
 21
4.687217698185233
 31
0.0
  0
ARC
  5
660
330
6B
100
AcDbEntity
  8
0
 62
     2
100
AcDbCircle
 10
-529.1879882388018
 20
4.227530698185232
 30
0.0
 40
13.997507
100
AcDbArc
 50
1.881966000000026
 51
5.709993999999952
  0
ARC
  5
661
330
6B
100
AcDbEntity
  8
0
 62
     2
100
AcDbCircle
 10
-518.7449142388019
 20
5.424613698185233
 30
0.0
 40
0.235086
100
AcDbArc
 50
89.99902800000048
 51
179.999
  0
LINE
  5
662
330
6B
100
AcDbEntity
  8
0
 62
     2
100
AcDbLine
 10
-518.5654462388018
 20
6.156787698185232
 30
0.0
 11
-518.5654552388018
 21
5.659696698185232
 31
0.0
  0
LINE
  5
663
330
6B
100
AcDbEntity
  8
0
 62
     2
100
AcDbLine
 10
-520.7207032388017
 20
6.156824698185232
 30
0.0
 11
-518.5654462388018
 21
6.156787698185232
 31
0.0
  0
LINE
  5
664
330
6B
100
AcDbEntity
  8
0
 62
     2
100
AcDbLine
 10
-518.7449102388019
 20
5.659699698185232
 30
0.0
 11
-518.5654552388018
 21
5.659696698185232
 31
0.0
  0
ARC
  5
665
330
6B
100
AcDbEntity
  8
0
 62
     2
100
AcDbCircle
 10
-520.5412782388018
 20
5.424631698185232
 30
0.0
 40
0.235086
100
AcDbArc
 50
359.999803
 51
89.99977399999876
  0
LINE
  5
666
330
6B
100
AcDbEntity
  8
0
 62
     2
100
AcDbLine
 10
-520.3061922388018
 20
5.424631698185232
 30
0.0
 11
-520.3062012388019
 21
2.937381698185232
 31
0.0
  0
ARC
  5
667
330
6B
100
AcDbEntity
  8
0
 62
     2
100
AcDbCircle
 10
-520.5413042388019
 20
2.937395698185232
 30
0.0
 40
0.235086
100
AcDbArc
 50
269.9990000000003
 51
359.999
  0
LINE
  5
668
330
6B
100
AcDbEntity
  8
0
 62
     2
100
AcDbLine
 10
-520.7207642388018
 20
2.702311698185233
 30
0.0
 11
-520.7207722388018
 21
2.205221698185233
 31
0.0
  0
LINE
  5
669
330
6B
100
AcDbEntity
  8
0
 62
     2
100
AcDbLine
 10
-520.5413082388019
 20
2.702308698185232
 30
0.0
 11
-520.7207642388018
 21
2.702311698185233
 31
0.0
  0
LINE
  5
66A
330
6B
100
AcDbEntity
  8
0
 62
     2
100
AcDbLine
 10
-520.7207032388017
 20
6.156824698185232
 30
0.0
 11
-520.720712238802
 21
5.659733698185233
 31
0.0
  0
LINE
  5
66B
330
6B
100
AcDbEntity
  8
0
 62
     2
100
AcDbLine
 10
-520.5412572388019
 20
5.659730698185232
 30
0.0
 11
-520.720712238802
 21
5.659733698185233
 31
0.0
  0
LINE
  5
66C
330
6B
100
AcDbEntity
  8
0
 62
     2
100
AcDbLine
 10
-523.4635372388019
 20
2.702293698185232
 30
0.0
 11
-523.4635372388019
 21
2.205202698185233
 31
0.0
  0
LINE
  5
66D
330
6B
100
AcDbEntity
  8
0
 62
     2
100
AcDbLine
 10
-523.6429932388017
 20
2.702293698185232
 30
0.0
 11
-523.4635372388019
 21
2.702293698185232
 31
0.0
  0
LINE
  5
66E
330
6B
100
AcDbEntity
  8
0
 62
     2
100
AcDbLine
 10
-523.8780792388019
 20
4.522543698185233
 30
0.0
 11
-522.4297402388018
 21
2.205202698185233
 31
0.0
  0
LINE
  5
66F
330
6B
100
AcDbEntity
  8
0
 62
     2
100
AcDbLine
 10
-522.4297402388018
 20
2.205202698185233
 30
0.0
 11
-521.4599202388018
 21
2.205202698185233
 31
0.0
  0
LINE
  5
670
330
6B
100
AcDbEntity
  8
0
 62
     2
100
AcDbLine
 10
-521.4599202388018
 20
5.286448698185233
 30
0.0
 11
-521.4599202388018
 21
2.205202698185233
 31
0.0
  0
ARC
  5
671
330
6B
100
AcDbEntity
  8
0
 62
     2
100
AcDbCircle
 10
-521.0866532388019
 20
5.286448698185233
 30
0.0
 40
0.373267
100
AcDbArc
 50
83.65142599999908
 51
180.0
  0
LINE
  5
672
330
6B
100
AcDbEntity
  8
0
 62
     2
100
AcDbLine
 10
-521.0453782388018
 20
6.156806698185232
 30
0.0
 11
-521.0453782388018
 21
5.657426698185233
 31
0.0
  0
LINE
  5
673
330
6B
100
AcDbEntity
  8
0
 62
     2
100
AcDbLine
 10
-522.5097332388019
 20
6.156806698185232
 30
0.0
 11
-521.0453782388018
 21
6.156806698185232
 31
0.0
  0
LINE
  5
674
330
6B
100
AcDbEntity
  8
0
 62
     2
100
AcDbLine
 10
-522.5097332388019
 20
6.156806698185232
 30
0.0
 11
-522.5097332388019
 21
5.659715698185232
 31
0.0
  0
LINE
  5
675
330
6B
100
AcDbEntity
  8
0
 62
     2
100
AcDbLine
 10
-522.5097332388019
 20
5.659715698185232
 30
0.0
 11
-522.3302782388018
 21
5.659715698185232
 31
0.0
  0
ARC
  5
676
330
6B
100
AcDbEntity
  8
0
 62
     2
100
AcDbCircle
 10
-522.3302782388018
 20
5.424628698185232
 30
0.0
 40
0.235086
100
AcDbArc
 50
0.0
 51
90.0
  0
LINE
  5
677
330
6B
100
AcDbEntity
  8
0
 62
     2
100
AcDbLine
 10
-522.0951912388019
 20
4.366999698185233
 30
0.0
 11
-522.0951912388019
 21
5.424628698185232
 31
0.0
  0
LINE
  5
678
330
6B
100
AcDbEntity
  8
0
 62
     2
100
AcDbLine
 10
-522.0951912388019
 20
4.366999698185233
 30
0.0
 11
-523.2697522388018
 21
6.156806698185232
 31
0.0
  0
LINE
  5
679
330
6B
100
AcDbEntity
  8
0
 62
     2
100
AcDbLine
 10
-524.9278922388018
 20
6.156806698185232
 30
0.0
 11
-523.2697522388018
 21
6.156806698185232
 31
0.0
  0
LINE
  5
67A
330
6B
100
AcDbEntity
  8
0
 62
     2
100
AcDbLine
 10
-514.5495942388017
 20
2.937285698185232
 30
0.0
 11
-514.5495942388017
 21
5.424534698185232
 31
0.0
  0
LINE
  5
67B
330
6B
100
AcDbEntity
  8
0
 62
     2
100
AcDbLine
 10
-514.8950462388019
 20
6.156712698185232
 30
0.0
 11
-512.8779692388018
 21
6.156712698185232
 31
0.0
  0
ARC
  5
67C
330
6B
100
AcDbEntity
  8
0
 62
     2
100
AcDbCircle
 10
-514.715590238802
 20
5.424534698185232
 30
0.0
 40
0.165996
100
AcDbArc
 50
0.0
 51
90.0
  0
LINE
  5
67D
330
6B
100
AcDbEntity
  8
0
 62
     2
100
AcDbLine
 10
-514.715590238802
 20
5.590530698185232
 30
0.0
 11
-514.8950462388019
 21
5.590530698185232
 31
0.0
  0
LINE
  5
67E
330
6B
100
AcDbEntity
  8
0
 62
     2
100
AcDbLine
 10
-514.8950462388019
 20
5.590530698185232
 30
0.0
 11
-514.8950462388019
 21
6.156712698185232
 31
0.0
  0
ARC
  5
67F
330
6B
100
AcDbEntity
  8
0
 62
     2
100
AcDbCircle
 10
-514.715590238802
 20
2.937285698185232
 30
0.0
 40
0.165996
100
AcDbArc
 50
270.0
 51
0.0
  0
LINE
  5
680
330
6B
100
AcDbEntity
  8
0
 62
     2
100
AcDbLine
 10
-514.715590238802
 20
2.771289698185233
 30
0.0
 11
-514.8950462388019
 21
2.771289698185233
 31
0.0
  0
LINE
  5
681
330
6B
100
AcDbEntity
  8
0
 62
     2
100
AcDbLine
 10
-514.8950462388019
 20
2.205108698185232
 30
0.0
 11
-514.8950462388019
 21
2.771289698185233
 31
0.0
  0
LINE
  5
682
330
6B
100
AcDbEntity
  8
0
 62
     2
100
AcDbLine
 10
-514.8950462388019
 20
2.205108698185232
 30
0.0
 11
-512.8779692388018
 21
2.205108698185232
 31
0.0
  0
ARC
  5
683
330
6B
100
AcDbEntity
  8
0
 62
     2
100
AcDbCircle
 10
-512.5737922388018
 20
5.424534698185232
 30
0.0
 40
0.235086
100
AcDbArc
 50
0.0
 51
80.40593200000104
  0
LINE
  5
684
330
6B
100
AcDbEntity
  8
0
 62
     2
100
AcDbLine
 10
-512.5346112388021
 20
5.656333698185233
 30
0.0
 11
-512.6841572388018
 21
5.656333698185233
 31
0.0
  0
LINE
  5
685
330
6B
100
AcDbEntity
  8
0
 62
     2
100
AcDbLine
 10
-512.3387062388019
 20
4.498545698185233
 30
0.0
 11
-512.3387062388019
 21
5.424534698185232
 31
0.0
  0
LINE
  5
686
330
6B
100
AcDbEntity
  8
0
 62
     2
100
AcDbLine
 10
-512.3387062388019
 20
4.498545698185233
 30
0.0
 11
-513.2234202388018
 21
4.498545698185233
 31
0.0
  0
LINE
  5
687
330
6B
100
AcDbEntity
  8
0
 62
     2
100
AcDbLine
 10
-512.3387062388019
 20
3.863274698185232
 30
0.0
 11
-513.2234202388018
 21
3.863274698185232
 31
0.0
  0
LINE
  5
688
330
6B
100
AcDbEntity
  8
0
 62
     2
100
AcDbLine
 10
-512.3387062388019
 20
2.937285698185232
 30
0.0
 11
-512.3387062388019
 21
3.863274698185232
 31
0.0
  0
ARC
  5
689
330
6B
100
AcDbEntity
  8
0
 62
     2
100
AcDbCircle
 10
-512.5737922388018
 20
2.937285698185232
 30
0.0
 40
0.235086
100
AcDbArc
 50
279.594067999999
 51
0.0
  0
LINE
  5
68A
330
6B
100
AcDbEntity
  8
0
 62
     2
100
AcDbLine
 10
-512.5346112388021
 20
2.705487698185232
 30
0.0
 11
-512.6841572388018
 21
2.705487698185232
 31
0.0
  0
LINE
  5
68B
330
6B
100
AcDbEntity
  8
0
 62
     2
100
AcDbLine
 10
-512.6841572388018
 20
2.705487698185232
 30
0.0
 11
-512.6841572388018
 21
2.205108698185232
 31
0.0
  0
LINE
  5
68C
330
6B
100
AcDbEntity
  8
0
 62
     2
100
AcDbLine
 10
-512.8779692388018
 20
2.705487698185232
 30
0.0
 11
-512.8779692388018
 21
2.205108698185232
 31
0.0
  0
LINE
  5
68D
330
6B
100
AcDbEntity
  8
0
 62
     2
100
AcDbLine
 10
-513.0275152388019
 20
2.705487698185232
 30
0.0
 11
-512.8779692388018
 21
2.705487698185232
 31
0.0
  0
ARC
  5
68E
330
6B
100
AcDbEntity
  8
0
 62
     2
100
AcDbCircle
 10
-512.9883342388018
 20
2.937285698185232
 30
0.0
 40
0.235086
100
AcDbArc
 50
180.0
 51
260.405932000001
  0
LINE
  5
68F
330
6B
100
AcDbEntity
  8
0
 62
     2
100
AcDbLine
 10
-513.2234202388018
 20
2.937285698185232
 30
0.0
 11
-513.2234202388018
 21
3.863274698185232
 31
0.0
  0
LINE
  5
690
330
6B
100
AcDbEntity
  8
0
 62
     2
100
AcDbLine
 10
-513.2234202388018
 20
4.498545698185233
 30
0.0
 11
-513.2234202388018
 21
5.424534698185232
 31
0.0
  0
ARC
  5
691
330
6B
100
AcDbEntity
  8
0
 62
     2
100
AcDbCircle
 10
-512.9883342388018
 20
5.424534698185232
 30
0.0
 40
0.235086
100
AcDbArc
 50
99.59406799999896
 51
180.0
  0
LINE
  5
692
330
6B
100
AcDbEntity
  8
0
 62
     2
100
AcDbLine
 10
-513.0275152388019
 20
5.656333698185233
 30
0.0
 11
-512.8779692388018
 21
5.656333698185233
 31
0.0
  0
LINE
  5
693
330
6B
100
AcDbEntity
  8
0
 62
     2
100
AcDbLine
 10
-512.8779692388018
 20
5.656333698185233
 30
0.0
 11
-512.8779692388018
 21
6.156712698185232
 31
0.0
  0
LINE
  5
694
330
6B
100
AcDbEntity
  8
0
 62
     2
100
AcDbLine
 10
-512.6841572388018
 20
5.656333698185233
 30
0.0
 11
-512.6841572388018
 21
6.156712698185232
 31
0.0
  0
LINE
  5
695
330
6B
100
AcDbEntity
  8
0
 62
     2
100
AcDbLine
 10
-524.9278922388018
 20
2.702293698185232
 30
0.0
 11
-524.9278922388018
 21
2.205202698185233
 31
0.0
  0
LINE
  5
696
330
6B
100
AcDbEntity
  8
0
 62
     2
100
AcDbLine
 10
-524.5133502388019
 20
5.424628698185232
 30
0.0
 11
-524.5133502388019
 21
2.937379698185232
 31
0.0
  0
ARC
  5
697
330
6B
100
AcDbEntity
  8
0
 62
     2
100
AcDbCircle
 10
-524.7484372388019
 20
2.937379698185232
 30
0.0
 40
0.235086
100
AcDbArc
 50
270.0
 51
0.0
  0
LINE
  5
698
330
6B
100
AcDbEntity
  8
0
 62
     2
100
AcDbLine
 10
-524.7484372388019
 20
2.702293698185232
 30
0.0
 11
-524.9278922388018
 21
2.702293698185232
 31
0.0
  0
ARC
  5
699
330
6B
100
AcDbEntity
  8
0
 62
     2
100
AcDbCircle
 10
-524.7484372388019
 20
5.424628698185232
 30
0.0
 40
0.235086
100
AcDbArc
 50
0.0
 51
90.0
  0
LINE
  5
69A
330
6B
100
AcDbEntity
  8
0
 62
     2
100
AcDbLine
 10
-524.9278922388018
 20
6.156806698185232
 30
0.0
 11
-524.9278922388018
 21
5.659715698185232
 31
0.0
  0
LINE
  5
69B
330
6B
100
AcDbEntity
  8
0
 62
     2
100
AcDbLine
 10
-524.7484372388019
 20
5.659715698185232
 30
0.0
 11
-524.9278922388018
 21
5.659715698185232
 31
0.0
  0
LINE
  5
9CB
330
6B
100
AcDbEntity
  8
0
 62
     3
100
AcDbLine
 10
-665.405603238802
 20
146.0051156981852
 30
0.0
 11
-665.405603238802
 21
-127.9948843018147
 31
0.0
  0
LINE
  5
9CC
330
6B
100
AcDbEntity
  8
0
 62
     3
100
AcDbLine
 10
-275.4056032388019
 20
-127.9948843018147
 30
0.0
 11
-275.4056032388019
 21
146.0051156981852
 31
0.0
  0
LINE
  5
9CE
330
6B
100
AcDbEntity
  8
0
 62
     3
100
AcDbLine
 10
-665.405603238802
 20
-127.9948843018147
 30
0.0
 11
-275.4056032388019
 21
-127.9948843018147
 31
0.0
  0
LINE
  5
9CF
330
6B
100
AcDbEntity
  8
0
 62
     3
100
AcDbLine
 10
-487.630713768802
 20
148.4451178381853
 30
0.0
 11
-487.0082167588019
 21
148.1201633581852
 31
0.0
  0
LINE
  5
9D0
330
6B
100
AcDbEntity
  8
0
 62
     3
100
AcDbLine
 10
-487.630713768802
 20
143.1156457381852
 30
0.0
 11
-487.0082167588019
 21
143.4406002181853
 31
0.0
  0
LINE
  5
9D1
330
6B
100
AcDbEntity
  8
0
 62
     3
100
AcDbLine
 10
-487.0082167588019
 20
148.1201633581852
 30
0.0
 11
-487.0082167588019
 21
143.4406002181853
 31
0.0
  0
LINE
  5
9D2
330
6B
100
AcDbEntity
  8
0
 62
     3
100
AcDbLine
 10
-485.431763298802
 20
143.1156457381852
 30
0.0
 11
-486.054260308802
 21
143.4406002181853
 31
0.0
  0
LINE
  5
9D3
330
6B
100
AcDbEntity
  8
0
 62
     3
100
AcDbLine
 10
-486.054260308802
 20
146.2932556681852
 30
0.0
 11
-486.054260308802
 21
143.4406002181853
 31
0.0
  0
LINE
  5
9D4
330
6B
100
AcDbEntity
  8
0
 62
     3
100
AcDbLine
 10
-481.800530758802
 20
148.4451178381853
 30
0.0
 11
-482.4230277588019
 21
148.1201633581852
 31
0.0
  0
LINE
  5
9D5
330
6B
100
AcDbEntity
  8
0
 62
     3
100
AcDbLine
 10
-483.9994812288018
 20
148.4451178381853
 30
0.0
 11
-483.3769842188018
 21
148.1201633581852
 31
0.0
  0
LINE
  5
9D6
330
6B
100
AcDbEntity
  8
0
 62
     3
100
AcDbLine
 10
-483.3769842188018
 20
148.1201633581852
 30
0.0
 11
-483.3769842188018
 21
146.0596818381852
 31
0.0
  0
LINE
  5
9D7
330
6B
100
AcDbEntity
  8
0
 62
     3
100
AcDbLine
 10
-482.4230277588019
 20
148.1201633581852
 30
0.0
 11
-482.4230277588019
 21
142.8134155281852
 31
0.0
  0
LINE
  5
9D8
330
6B
100
AcDbEntity
  8
0
 62
     3
100
AcDbLine
 10
-481.4929633188018
 20
148.4451140881852
 30
0.0
 11
-480.870468558802
 21
148.1201553181852
 31
0.0
  0
LINE
  5
9D9
330
6B
100
AcDbEntity
  8
0
 62
     3
100
AcDbLine
 10
-481.4930747088019
 20
143.1157171281852
 30
0.0
 11
-480.8705663588018
 21
143.4406498781852
 31
0.0
  0
LINE
  5
9DA
330
6B
100
AcDbEntity
  8
0
 62
     3
100
AcDbLine
 10
-480.870468558802
 20
148.1201553181852
 30
0.0
 11
-480.870468558802
 21
143.4406498781852
 31
0.0
  0
LINE
  5
9DB
330
6B
100
AcDbEntity
  8
0
 62
     3
100
AcDbLine
 10
-478.7364827588018
 20
148.4450802681853
 30
0.0
 11
-479.3589843188018
 21
148.1201345081853
 31
0.0
  0
LINE
  5
9DC
330
6B
100
AcDbEntity
  8
0
 62
     3
100
AcDbLine
 10
-479.3589843188018
 20
148.1201345081853
 30
0.0
 11
-479.3589843188018
 21
143.4406290681852
 31
0.0
  0
LINE
  5
9DD
330
6B
100
AcDbEntity
  8
0
 62
     3
100
AcDbLine
 10
-478.7364827588018
 20
143.1156833081852
 30
0.0
 11
-479.3589843188018
 21
143.4406290681852
 31
0.0
  0
LINE
  5
9DE
330
6B
100
AcDbEntity
  8
0
 62
     3
100
AcDbLine
 10
-473.4646921288018
 20
148.4450216981852
 30
0.0
 11
-472.8421962488019
 21
148.1200650781852
 31
0.0
  0
LINE
  5
9DF
330
6B
100
AcDbEntity
  8
0
 62
     3
100
AcDbLine
 10
-472.8421962488019
 20
148.1200650781852
 30
0.0
 11
-472.842277918802
 21
143.4405596281852
 31
0.0
  0
LINE
  5
9E0
330
6B
100
AcDbEntity
  8
0
 62
     3
100
AcDbLine
 10
-473.4647851488018
 20
143.1156247381852
 30
0.0
 11
-472.842277918802
 21
143.4405596281852
 31
0.0
  0
LINE
  5
9E1
330
6B
100
AcDbEntity
  8
0
 62
     3
100
AcDbLine
 10
-470.675747888802
 20
148.4450216981852
 30
0.0
 11
-471.298243778802
 21
148.1200650781852
 31
0.0
  0
LINE
  5
9E2
330
6B
100
AcDbEntity
  8
0
 62
     3
100
AcDbLine
 10
-470.6756548788018
 20
143.1156247381852
 30
0.0
 11
-471.298162108802
 21
143.4405596281852
 31
0.0
  0
LINE
  5
9E3
330
6B
100
AcDbEntity
  8
0
 62
     3
100
AcDbLine
 10
-470.3847080888018
 20
148.4450216981852
 30
0.0
 11
-469.7622122088018
 21
148.1200650781852
 31
0.0
  0
LINE
  5
9E4
330
6B
100
AcDbEntity
  8
0
 62
     3
100
AcDbLine
 10
-470.384801108802
 20
143.1156247381852
 30
0.0
 11
-469.7622938788018
 21
143.4405596281852
 31
0.0
  0
LINE
  5
9E5
330
6B
100
AcDbEntity
  8
0
 62
     3
100
AcDbLine
 10
-467.5957638588021
 20
148.4450216981852
 30
0.0
 11
-468.218259738802
 21
148.1200650781852
 31
0.0
  0
LINE
  5
9E6
330
6B
100
AcDbEntity
  8
0
 62
     3
100
AcDbLine
 10
-468.218259738802
 20
148.1200650781852
 30
0.0
 11
-468.2181780688019
 21
143.4405596281852
 31
0.0
  0
LINE
  5
9E7
330
6B
100
AcDbEntity
  8
0
 62
     3
100
AcDbLine
 10
-467.595670838802
 20
143.1156247381852
 30
0.0
 11
-468.2181780688019
 21
143.4405596281852
 31
0.0
  0
LINE
  5
9E8
330
6B
100
AcDbEntity
  8
0
 62
     3
100
AcDbLine
 10
-469.7622477888018
 20
146.0813034781853
 30
0.0
 11
-471.2982081988019
 21
146.0813034781853
 31
0.0
  0
LINE
  5
9E9
330
6B
100
AcDbEntity
  8
0
 62
     3
100
AcDbLine
 10
-469.7622582888018
 20
145.4794600981852
 30
0.0
 11
-471.2981976988018
 21
145.4794600981852
 31
0.0
  0
LINE
  5
9EA
330
6B
100
AcDbEntity
  8
0
 62
     3
100
AcDbLine
 10
-469.7622122088018
 20
148.1200650781852
 30
0.0
 11
-469.7622477888018
 21
146.0813034781853
 31
0.0
  0
LINE
  5
9EB
330
6B
100
AcDbEntity
  8
0
 62
     3
100
AcDbLine
 10
-469.7622582888018
 20
145.4794600981852
 30
0.0
 11
-469.7622938788018
 21
143.4405596281852
 31
0.0
  0
LINE
  5
9EC
330
6B
100
AcDbEntity
  8
0
 62
     3
100
AcDbLine
 10
-471.298243778802
 20
148.1200650781852
 30
0.0
 11
-471.2982081988019
 21
146.0813034781853
 31
0.0
  0
LINE
  5
9ED
330
6B
100
AcDbEntity
  8
0
 62
     3
100
AcDbLine
 10
-471.2981976988018
 20
145.4794600981852
 30
0.0
 11
-471.298162108802
 21
143.4405596281852
 31
0.0
  0
LINE
  5
9EE
330
6B
100
AcDbEntity
  8
0
 62
     3
100
AcDbLine
 10
-467.3001079688019
 20
148.4450216981852
 30
0.0
 11
-466.677612078802
 21
148.1200650781852
 31
0.0
  0
LINE
  5
9EF
330
6B
100
AcDbEntity
  8
0
 62
     3
100
AcDbLine
 10
-466.677612078802
 20
148.1200650781852
 30
0.0
 11
-466.677693758802
 21
143.4405596281852
 31
0.0
  0
LINE
  5
9F0
330
6B
100
AcDbEntity
  8
0
 62
     3
100
AcDbLine
 10
-467.3002009888018
 20
143.1156247381852
 30
0.0
 11
-466.677693758802
 21
143.4405596281852
 31
0.0
  0
LINE
  5
9F1
330
6B
100
AcDbEntity
  8
0
 62
     3
100
AcDbLine
 10
-464.543664728802
 20
148.4450216981852
 30
0.0
 11
-465.166160618802
 21
148.1200650781852
 31
0.0
  0
LINE
  5
9F2
330
6B
100
AcDbEntity
  8
0
 62
     3
100
AcDbLine
 10
-465.166160618802
 20
148.1200650781852
 30
0.0
 11
-465.166078938802
 21
143.4405596281852
 31
0.0
  0
LINE
  5
9F3
330
6B
100
AcDbEntity
  8
0
 62
     3
100
AcDbLine
 10
-464.543571708802
 20
143.1156247381852
 30
0.0
 11
-465.166078938802
 21
143.4405596281852
 31
0.0
  0
LINE
  5
9F4
330
6B
100
AcDbEntity
  8
0
 62
     3
100
AcDbLine
 10
-464.237436778802
 20
148.4450216981852
 30
0.0
 11
-463.614940888802
 21
148.1200650781852
 31
0.0
  0
LINE
  5
9F5
330
6B
100
AcDbEntity
  8
0
 62
     3
100
AcDbLine
 10
-463.614940888802
 20
148.1200650781852
 30
0.0
 11
-463.6150225588018
 21
143.4405596281852
 31
0.0
  0
LINE
  5
9F6
330
6B
100
AcDbEntity
  8
0
 62
     3
100
AcDbLine
 10
-464.237529788802
 20
143.1156247381852
 30
0.0
 11
-463.6150225588018
 21
143.4405596281852
 31
0.0
  0
ARC
  5
9F7
330
6B
100
AcDbEntity
  8
0
 62
     3
100
AcDbCircle
 10
-475.453136798802
 20
145.7937957281852
 30
0.0
 40
2.98040844
100
AcDbArc
 50
97.70152351000369
 51
270.0
  0
ARC
  5
9F8
330
6B
100
AcDbEntity
  8
0
 62
     3
100
AcDbCircle
 10
-457.0522784588018
 20
145.7638576881852
 30
0.0
 40
3.012776259999998
100
AcDbArc
 50
0.3142502699992948
 51
69.00558244999635
  0
ARC
  5
9F9
330
6B
100
AcDbEntity
  8
0
 62
     3
100
AcDbCircle
 10
-456.394170848802
 20
145.7638576881852
 30
0.0
 40
3.012776259999998
100
AcDbArc
 50
110.9944175500036
 51
148.1166110200014
  0
ARC
  5
9FA
330
6B
100
AcDbEntity
  8
0
 62
     3
100
AcDbCircle
 10
-457.0522784588018
 20
145.7969058881853
 30
0.0
 40
3.012776259999998
100
AcDbArc
 50
290.9944175500036
 51
359.6857497300007
  0
ARC
  5
9FB
330
6B
100
AcDbEntity
  8
0
 62
     3
100
AcDbCircle
 10
-456.394170848802
 20
145.7969058881853
 30
0.0
 40
3.012776259999998
100
AcDbArc
 50
211.8833889799985
 51
249.0055824499964
  0
ARC
  5
9FC
330
6B
100
AcDbEntity
  8
0
 62
     3
100
AcDbCircle
 10
-456.7232246488019
 20
147.0129609181853
 30
0.0
 40
1.73438712
100
AcDbArc
 50
64.36517189999993
 51
115.6348281
  0
ARC
  5
9FD
330
6B
100
AcDbEntity
  8
0
 62
     3
100
AcDbCircle
 10
-456.7232246488019
 20
144.5478026581852
 30
0.0
 40
1.73438712
100
AcDbArc
 50
244.3651718999999
 51
295.6348281
  0
ARC
  5
9FE
330
6B
100
AcDbEntity
  8
0
 62
     3
100
AcDbCircle
 10
-456.7232246488019
 20
147.0459061781852
 30
0.0
 40
0.85122233
100
AcDbArc
 50
19.48660554000132
 51
160.5133944599986
  0
ARC
  5
9FF
330
6B
100
AcDbEntity
  8
0
 62
     3
100
AcDbCircle
 10
-456.7232246488019
 20
144.5478026581852
 30
0.0
 40
1.73438712
100
AcDbArc
 50
244.3651718999999
 51
295.6348281
  0
ARC
  5
A00
330
6B
100
AcDbEntity
  8
0
 62
     3
100
AcDbCircle
 10
-456.7232246488019
 20
144.5148573981852
 30
0.0
 40
0.85122233
100
AcDbArc
 50
199.4866055400013
 51
340.5133944599987
  0
ARC
  5
A01
330
6B
100
AcDbEntity
  8
0
 62
     3
100
AcDbCircle
 10
-463.4981853688018
 20
114.0260105881852
 30
0.0
 40
37.20000000000001
100
AcDbArc
 50
69.50571480000154
 51
81.68998807000383
  0
ARC
  5
A02
330
6B
100
AcDbEntity
  8
0
 62
     3
100
AcDbCircle
 10
-463.4981853688018
 20
177.5347529881852
 30
0.0
 40
37.20000000000001
100
AcDbArc
 50
278.3100119299961
 51
290.4942851999985
  0
ARC
  5
A03
330
6B
100
AcDbEntity
  8
0
 62
     3
100
AcDbCircle
 10
-451.629322328802
 20
145.7803817881852
 30
0.0
 40
3.299999999999998
100
AcDbArc
 50
290.4942851999985
 51
69.50571480000154
  0
ARC
  5
A04
330
6B
100
AcDbEntity
  8
0
 62
     3
100
AcDbCircle
 10
-490.6293223288018
 20
145.7803817881852
 30
0.0
 40
3.299999999999998
100
AcDbArc
 50
110.4942851999985
 51
249.5057148000015
  0
ARC
  5
A05
330
6B
100
AcDbEntity
  8
0
 62
     3
100
AcDbCircle
 10
-478.7604592988018
 20
114.0260105881852
 30
0.0
 40
37.20000000000001
100
AcDbArc
 50
98.31001192999615
 51
110.4942851999985
  0
ARC
  5
A06
330
6B
100
AcDbEntity
  8
0
 62
     3
100
AcDbCircle
 10
-478.7604592988018
 20
177.5347529881852
 30
0.0
 40
37.20000000000001
100
AcDbArc
 50
249.5057148000015
 51
261.6899880699974
  0
ARC
  5
A07
330
6B
100
AcDbEntity
  8
0
 62
     3
100
AcDbCircle
 10
-471.129322328802
 20
61.78038178818519
 30
0.0
 40
89.99999981
100
AcDbArc
 50
81.68998807000383
 51
98.31001192999615
  0
ARC
  5
A08
330
6B
100
AcDbEntity
  8
0
 62
     3
100
AcDbCircle
 10
-471.129322328802
 20
229.7803817881852
 30
0.0
 40
89.99999981
100
AcDbArc
 50
261.6899880699974
 51
278.3100119299961
  0
ARC
  5
A09
330
6B
100
AcDbEntity
  8
0
 62
     3
100
AcDbCircle
 10
-471.129322328802
 20
61.78038178818519
 30
0.0
 40
89.09999981
100
AcDbArc
 50
81.68998807000383
 51
98.31001192999615
  0
ARC
  5
A0A
330
6B
100
AcDbEntity
  8
0
 62
     3
100
AcDbCircle
 10
-471.129322328802
 20
229.7803817881852
 30
0.0
 40
89.09999981
100
AcDbArc
 50
261.6899880699974
 51
278.3100119299961
  0
ARC
  5
A0B
330
6B
100
AcDbEntity
  8
0
 62
     3
100
AcDbCircle
 10
-463.4981853688018
 20
177.5347529881852
 30
0.0
 40
36.3
100
AcDbArc
 50
278.3100119299961
 51
290.4942851999985
  0
ARC
  5
A0C
330
6B
100
AcDbEntity
  8
0
 62
     3
100
AcDbCircle
 10
-463.4981853688018
 20
114.0260105881852
 30
0.0
 40
36.3
100
AcDbArc
 50
69.50571480000154
 51
81.68998807000383
  0
ARC
  5
A0D
330
6B
100
AcDbEntity
  8
0
 62
     3
100
AcDbCircle
 10
-451.629322328802
 20
145.7803817881852
 30
0.0
 40
2.399999999999999
100
AcDbArc
 50
290.4942851999985
 51
69.50571480000154
  0
ARC
  5
A0E
330
6B
100
AcDbEntity
  8
0
 62
     3
100
AcDbCircle
 10
-490.6293223288018
 20
145.7803817881852
 30
0.0
 40
2.399999999999999
100
AcDbArc
 50
110.4942851999985
 51
249.5057148000015
  0
ARC
  5
A0F
330
6B
100
AcDbEntity
  8
0
 62
     3
100
AcDbCircle
 10
-478.7604592988018
 20
114.0260105881852
 30
0.0
 40
36.3
100
AcDbArc
 50
98.31001192999615
 51
110.4942851999985
  0
ARC
  5
A10
330
6B
100
AcDbEntity
  8
0
 62
     3
100
AcDbCircle
 10
-478.7604592988018
 20
177.5347529881852
 30
0.0
 40
36.3
100
AcDbArc
 50
249.5057148000015
 51
261.6899880699974
  0
LINE
  5
A11
330
6B
100
AcDbEntity
  8
0
 62
     3
100
AcDbLine
 10
-464.543663608802
 20
142.8134155281852
 30
0.0
 11
-467.3001090888019
 21
142.8134155281852
 31
0.0
  0
LINE
  5
A12
330
6B
100
AcDbEntity
  8
0
 62
     3
100
AcDbLine
 10
-464.543663608802
 20
143.1156457381852
 30
0.0
 11
-464.543663608802
 21
142.8134155281852
 31
0.0
  0
LINE
  5
A13
330
6B
100
AcDbEntity
  8
0
 62
     3
100
AcDbLine
 10
-467.595762738802
 20
148.7472070181852
 30
0.0
 11
-470.3847092088018
 21
148.7472070181852
 31
0.0
  0
LINE
  5
A14
330
6B
100
AcDbEntity
  8
0
 62
     3
100
AcDbLine
 10
-467.595762738802
 20
148.7472070181852
 30
0.0
 11
-467.595762738802
 21
148.4451178381853
 31
0.0
  0
LINE
  5
A15
330
6B
100
AcDbEntity
  8
0
 62
     3
100
AcDbLine
 10
-467.595762738802
 20
143.1156457381852
 30
0.0
 11
-467.595762738802
 21
142.8132745081852
 31
0.0
  0
LINE
  5
A16
330
6B
100
AcDbEntity
  8
0
 62
     3
100
AcDbLine
 10
-467.595762738802
 20
142.8132745081852
 30
0.0
 11
-470.3847092088018
 21
142.8132745081852
 31
0.0
  0
LINE
  5
A17
330
6B
100
AcDbEntity
  8
0
 62
     3
100
AcDbLine
 10
-464.543663608802
 20
148.7473480481852
 30
0.0
 11
-464.543663608802
 21
148.4451178381853
 31
0.0
  0
LINE
  5
A18
330
6B
100
AcDbEntity
  8
0
 62
     3
100
AcDbLine
 10
-464.543663608802
 20
148.7473480481852
 30
0.0
 11
-467.3001090888019
 21
148.7473480481852
 31
0.0
  0
LINE
  5
A19
330
6B
100
AcDbEntity
  8
0
 62
     3
100
AcDbLine
 10
-467.3001090888019
 20
148.7473480481852
 30
0.0
 11
-467.3001090888019
 21
148.4451178381853
 31
0.0
  0
LINE
  5
A1A
330
6B
100
AcDbEntity
  8
0
 62
     3
100
AcDbLine
 10
-464.2374378988018
 20
143.1156457381852
 30
0.0
 11
-464.2374378988018
 21
142.8134155281852
 31
0.0
  0
LINE
  5
A1B
330
6B
100
AcDbEntity
  8
0
 62
     3
100
AcDbLine
 10
-461.4027228088018
 20
142.8134155281852
 30
0.0
 11
-464.2374378988018
 21
142.8134155281852
 31
0.0
  0
LINE
  5
A1C
330
6B
100
AcDbEntity
  8
0
 62
     3
100
AcDbLine
 10
-462.1034894188018
 20
147.7933915881853
 30
0.0
 11
-462.1034894188018
 21
143.7673719881852
 31
0.0
  0
LINE
  5
A1D
330
6B
100
AcDbEntity
  8
0
 62
     3
100
AcDbLine
 10
-462.1034894188018
 20
143.7673719881852
 30
0.0
 11
-461.8319908988019
 21
143.7673719881852
 31
0.0
  0
ARC
  5
A1E
330
6B
100
AcDbEntity
  8
0
 62
     3
100
AcDbCircle
 10
-463.220256238802
 20
145.7803817881852
 30
0.0
 40
2.44529939
100
AcDbArc
 50
304.591955269996
 51
55.40804473000399
  0
LINE
  5
A1F
330
6B
100
AcDbEntity
  8
0
 62
     3
100
AcDbLine
 10
-461.4027228088018
 20
148.7473480481852
 30
0.0
 11
-464.2374378988018
 21
148.7473480481852
 31
0.0
  0
LINE
  5
A20
330
6B
100
AcDbEntity
  8
0
 62
     3
100
AcDbLine
 10
-464.2374378988018
 20
148.7473480481852
 30
0.0
 11
-464.2374378988018
 21
148.4451178381853
 31
0.0
  0
LINE
  5
A21
330
6B
100
AcDbEntity
  8
0
 62
     3
100
AcDbLine
 10
-467.3001090888019
 20
143.1156457381852
 30
0.0
 11
-467.3001090888019
 21
142.8134155281852
 31
0.0
  0
LINE
  5
A22
330
6B
100
AcDbEntity
  8
0
 62
     3
100
AcDbLine
 10
-462.1034894188018
 20
147.7933915881853
 30
0.0
 11
-461.8319908988019
 21
147.7933915881853
 31
0.0
  0
LINE
  5
A23
330
6B
100
AcDbEntity
  8
0
 62
     3
100
AcDbLine
 10
-478.7365746588019
 20
143.1156457381852
 30
0.0
 11
-478.736579928802
 21
142.8133872881852
 31
0.0
  0
LINE
  5
A24
330
6B
100
AcDbEntity
  8
0
 62
     3
100
AcDbLine
 10
-481.4930254088018
 20
142.8134437781853
 30
0.0
 11
-478.736579928802
 21
142.8133956681852
 31
0.0
  0
LINE
  5
A25
330
6B
100
AcDbEntity
  8
0
 62
     3
100
AcDbLine
 10
-487.630713768802
 20
142.8134155281852
 30
0.0
 11
-485.431763298802
 21
142.8134155281852
 31
0.0
  0
ARC
  5
A26
330
6B
100
AcDbEntity
  8
0
 62
     3
100
AcDbCircle
 10
-494.747774738802
 20
145.8502483981853
 30
0.0
 40
21.01937947
100
AcDbArc
 50
353.8660061899999
 51
357.6940342600001
  0
LINE
  5
A27
330
6B
100
AcDbEntity
  8
0
 62
     3
100
AcDbLine
 10
-475.1526606488019
 20
145.0097231781852
 30
0.0
 11
-473.745416528802
 21
145.0045162081852
 31
0.0
  0
LINE
  5
A29
330
6B
100
AcDbEntity
  8
0
 62
     3
100
AcDbLine
 10
-475.146977198802
 20
146.5457442381852
 30
0.0
 11
-473.7397330788018
 21
146.5405372681853
 31
0.0
  0
ARC
  5
A2A
330
6B
100
AcDbEntity
  8
0
 62
     3
100
AcDbCircle
 10
-494.747774738802
 20
145.8502483981853
 30
0.0
 40
21.01937947
100
AcDbArc
 50
1.881965739999571
 51
5.709993809999575
  0
LINE
  5
A2B
330
6B
100
AcDbEntity
  8
0
 62
     3
100
AcDbLine
 10
-478.7364763688018
 20
148.7473197981852
 30
0.0
 11
-478.7364816388018
 21
148.4451178381853
 31
0.0
  0
LINE
  5
A2C
330
6B
100
AcDbEntity
  8
0
 62
     3
100
AcDbLine
 10
-481.4929218488019
 20
148.7473762881852
 30
0.0
 11
-478.7364763688018
 21
148.7473281781853
 31
0.0
  0
LINE
  5
A2D
330
6B
100
AcDbEntity
  8
0
 62
     3
100
AcDbLine
 10
-481.4930201388018
 20
143.1156457381852
 30
0.0
 11
-481.4930254088018
 21
142.8134437781853
 31
0.0
  0
LINE
  5
A2E
330
6B
100
AcDbEntity
  8
0
 62
     3
100
AcDbLine
 10
-481.4929218488019
 20
148.7473762881852
 30
0.0
 11
-481.4929271188018
 21
148.4451178381853
 31
0.0
  0
LINE
  5
A2F
330
6B
100
AcDbEntity
  8
0
 62
     3
100
AcDbLine
 10
-485.431763298802
 20
143.1156457381852
 30
0.0
 11
-485.431763298802
 21
142.8134155281852
 31
0.0
  0
LINE
  5
A30
330
6B
100
AcDbEntity
  8
0
 62
     3
100
AcDbLine
 10
-486.054260308802
 20
146.2932556681852
 30
0.0
 11
-483.8793602288019
 21
142.8134155281852
 31
0.0
  0
LINE
  5
A31
330
6B
100
AcDbEntity
  8
0
 62
     3
100
AcDbLine
 10
-483.8793602288019
 20
142.8134155281852
 30
0.0
 11
-482.4230277588019
 21
142.8134155281852
 31
0.0
  0
LINE
  5
A32
330
6B
100
AcDbEntity
  8
0
 62
     3
100
AcDbLine
 10
-481.800530758802
 20
148.7473480481852
 30
0.0
 11
-481.800530758802
 21
148.4451178381853
 31
0.0
  0
LINE
  5
A33
330
6B
100
AcDbEntity
  8
0
 62
     3
100
AcDbLine
 10
-483.9994812288018
 20
148.7473480481852
 30
0.0
 11
-481.800530758802
 21
148.7473480481852
 31
0.0
  0
LINE
  5
A34
330
6B
100
AcDbEntity
  8
0
 62
     3
100
AcDbLine
 10
-483.9994812288018
 20
148.7473480481852
 30
0.0
 11
-483.9994812288018
 21
148.4451178381853
 31
0.0
  0
LINE
  5
A35
330
6B
100
AcDbEntity
  8
0
 62
     3
100
AcDbLine
 10
-483.3769842188018
 20
146.0596818381852
 30
0.0
 11
-485.140765158802
 21
148.7473480481852
 31
0.0
  0
LINE
  5
A36
330
6B
100
AcDbEntity
  8
0
 62
     3
100
AcDbLine
 10
-487.630713768802
 20
148.7473480481852
 30
0.0
 11
-485.140765158802
 21
148.7473480481852
 31
0.0
  0
LINE
  5
A37
330
6B
100
AcDbEntity
  8
0
 62
     3
100
AcDbLine
 10
-473.4646932488018
 20
148.7472070181852
 30
0.0
 11
-470.675746768802
 21
148.7472070181852
 31
0.0
  0
LINE
  5
A38
330
6B
100
AcDbEntity
  8
0
 62
     3
100
AcDbLine
 10
-473.4646932488018
 20
148.4451178381853
 30
0.0
 11
-473.4646932488018
 21
148.7472070181852
 31
0.0
  0
LINE
  5
A39
330
6B
100
AcDbEntity
  8
0
 62
     3
100
AcDbLine
 10
-473.4646932488018
 20
142.8132745081852
 30
0.0
 11
-473.4646932488018
 21
143.1156457381852
 31
0.0
  0
LINE
  5
A3A
330
6B
100
AcDbEntity
  8
0
 62
     3
100
AcDbLine
 10
-473.4646932488018
 20
142.8132745081852
 30
0.0
 11
-470.675746768802
 21
142.8132745081852
 31
0.0
  0
LINE
  5
A3B
330
6B
100
AcDbEntity
  8
0
 62
     3
100
AcDbLine
 10
-470.3847092088018
 20
143.1156457381852
 30
0.0
 11
-470.3847092088018
 21
142.8132745081852
 31
0.0
  0
LINE
  5
A3C
330
6B
100
AcDbEntity
  8
0
 62
     3
100
AcDbLine
 10
-470.675746768802
 20
143.1156457381852
 30
0.0
 11
-470.675746768802
 21
142.8132745081852
 31
0.0
  0
LINE
  5
A3D
330
6B
100
AcDbEntity
  8
0
 62
     3
100
AcDbLine
 10
-470.675746768802
 20
148.4451178381853
 30
0.0
 11
-470.675746768802
 21
148.7472070181852
 31
0.0
  0
LINE
  5
A3E
330
6B
100
AcDbEntity
  8
0
 62
     3
100
AcDbLine
 10
-470.3847092088018
 20
148.4451178381853
 30
0.0
 11
-470.3847092088018
 21
148.7472070181852
 31
0.0
  0
LINE
  5
A3F
330
6B
100
AcDbEntity
  8
0
 62
     3
100
AcDbLine
 10
-487.630713768802
 20
143.1156457381852
 30
0.0
 11
-487.630713768802
 21
142.8134155281852
 31
0.0
  0
LINE
  5
A40
330
6B
100
AcDbEntity
  8
0
 62
     3
100
AcDbLine
 10
-487.630713768802
 20
148.7473480481852
 30
0.0
 11
-487.630713768802
 21
148.4451178381853
 31
0.0
  0
ARC
  5
A41
330
6B
100
AcDbEntity
  8
0
 62
     3
100
AcDbCircle
 10
-461.102722808802
 20
146.4028787981852
 30
0.0
 40
2.344469249999999
100
AcDbArc
 50
17.30874897999955
 51
23.76507095999893
  0
ARC
  5
A42
330
6B
100
AcDbEntity
  8
0
 62
     3
100
AcDbCircle
 10
-463.100256238802
 20
145.7803817881852
 30
0.0
 40
4.43675086
100
AcDbArc
 50
342.6912510200005
 51
17.30856644000122
  0
ARC
  5
A43
330
6B
100
AcDbEntity
  8
0
 62
     3
100
AcDbCircle
 10
-461.102722808802
 20
145.1578847781852
 30
0.0
 40
2.344469249999999
100
AcDbArc
 50
336.2349290399984
 51
342.6912510200005
  0
ARC
  5
A44
330
6B
100
AcDbEntity
  8
0
 62
     3
100
AcDbCircle
 10
-461.4027228088018
 20
146.4028787981852
 30
0.0
 40
2.344469249999999
100
AcDbArc
 50
17.30874897999955
 51
90.0
  0
ARC
  5
A45
330
6B
100
AcDbEntity
  8
0
 62
     3
100
AcDbCircle
 10
-463.4002562388018
 20
145.7803817881852
 30
0.0
 40
4.43675086
100
AcDbArc
 50
342.6912510200005
 51
17.30856644000122
  0
ARC
  5
A46
330
6B
100
AcDbEntity
  8
0
 62
     3
100
AcDbCircle
 10
-461.4027228088018
 20
145.1578847781852
 30
0.0
 40
2.344469249999999
100
AcDbArc
 50
270.0
 51
342.6912510200005
  0
ARC
  5
A47
330
6B
100
AcDbEntity
  8
0
 62
     3
100
AcDbCircle
 10
-475.865494778802
 20
145.7803817881852
 30
0.0
 40
2.966966259999998
100
AcDbArc
 50
46.75287961000178
 51
89.74999828999569
  0
ARC
  5
A48
330
6B
100
AcDbEntity
  8
0
 62
     3
100
AcDbCircle
 10
-475.865494778802
 20
145.7803817881852
 30
0.0
 40
2.966966259999998
100
AcDbArc
 50
273.9763331499971
 51
312.8231203899991
  0
ARC
  5
A49
330
6B
100
AcDbEntity
  8
0
 62
     3
100
AcDbCircle
 10
-459.5200548488018
 20
145.7345796081853
 30
0.0
 40
3.936984289999998
100
AcDbArc
 50
0.6665840599997753
 51
23.90392827000101
  0
ARC
  5
A4A
330
6B
100
AcDbEntity
  8
0
 62
     3
100
AcDbCircle
 10
-453.9263944588019
 20
145.7345796081853
 30
0.0
 40
3.936984289999998
100
AcDbArc
 50
156.096071729999
 51
179.3334159400002
  0
ARC
  5
A4B
330
6B
100
AcDbEntity
  8
0
 62
     3
100
AcDbCircle
 10
-459.5200548488018
 20
145.8261839681852
 30
0.0
 40
3.936984289999998
100
AcDbArc
 50
336.096071729999
 51
359.3334159400003
  0
ARC
  5
A4C
330
6B
100
AcDbEntity
  8
0
 62
     3
100
AcDbCircle
 10
-453.9263944588019
 20
145.8261839681852
 30
0.0
 40
3.936984289999998
100
AcDbArc
 50
180.6665840599997
 51
203.903928270001
  0
LINE
  5
A4D
330
6B
100
AcDbEntity
  8
0
 62
     3
100
AcDbLine
 10
-446.748878058802
 20
146.0051156981852
 30
0.0
 11
-275.405603238802
 21
146.0051156981852
 31
0.0
  0
LINE
  5
A4E
330
6B
100
AcDbEntity
  8
0
 62
     3
100
AcDbLine
 10
-495.302912728802
 20
146.0051156981852
 30
0.0
 11
-665.405603238802
 21
146.0051156981852
 31
0.0
  0
LINE
  5
A4F
330
6B
100
AcDbEntity
  8
0
 62
     3
100
AcDbLine
 10
-677.807527028802
 20
12.44975464818523
 30
0.0
 11
-680.4056032388018
 21
10.94975464818523
 31
0.0
  0
LINE
  5
A50
330
6B
100
AcDbEntity
  8
0
 62
     3
100
AcDbLine
 10
-677.807527028802
 20
12.44975464818523
 30
0.0
 11
-680.4056032388018
 21
13.94975464818523
 31
0.0
  0
LINE
  5
A51
330
6B
100
AcDbEntity
  8
0
 62
     3
100
AcDbLine
 10
-680.4056032388018
 20
10.94975464818523
 30
0.0
 11
-680.4056032388018
 21
13.94975464818523
 31
0.0
  0
LINE
  5
A54
330
6B
100
AcDbEntity
  8
0
 62
     3
100
AcDbLine
 10
-327.4056032388019
 20
-127.9948843018147
 30
0.0
 11
-327.4056032388019
 21
-87.99488430181469
 31
0.0
  0
LINE
  5
A55
330
6B
100
AcDbEntity
  8
0
 62
     3
100
AcDbLine
 10
-314.4056032388018
 20
-117.9948843018147
 30
0.0
 11
-314.4056032388018
 21
-89.99488430181472
 31
0.0
  0
LINE
  5
A56
330
6B
100
AcDbEntity
  8
0
 62
     3
100
AcDbLine
 10
-354.4056032388019
 20
-117.9948843018147
 30
0.0
 11
-354.4056032388019
 21
-103.9948843018147
 31
0.0
  0
LINE
  5
A57
330
6B
100
AcDbEntity
  8
0
 62
     3
100
AcDbLine
 10
-344.4056032388019
 20
-103.9948843018147
 30
0.0
 11
-344.4056032388019
 21
-127.9948843018147
 31
0.0
  0
LINE
  5
A58
330
6B
100
AcDbEntity
  8
0
 62
     3
100
AcDbLine
 10
-373.4056032388019
 20
-87.99488430181472
 30
0.0
 11
-373.4056032388019
 21
-110.9948843018147
 31
0.0
  0
LINE
  5
A59
330
6B
100
AcDbEntity
  8
0
 62
     3
100
AcDbLine
 10
-314.4056032388018
 20
-89.99488430181472
 30
0.0
 11
-314.4056032388018
 21
-87.99488430181472
 31
0.0
  0
LINE
  5
A5A
330
6B
100
AcDbEntity
  8
0
 62
     3
100
AcDbLine
 10
-301.4056032388019
 20
-110.9948843018147
 30
0.0
 11
-301.4056032388019
 21
-87.99488430181472
 31
0.0
  0
LINE
  5
A5B
330
6B
100
AcDbEntity
  8
0
 62
     3
100
AcDbLine
 10
-275.4056032388019
 20
-87.99488430181472
 30
0.0
 11
-386.6510378788019
 21
-87.99488430181471
 31
0.0
  0
LINE
  5
A5C
330
6B
100
AcDbEntity
  8
0
 62
     3
100
AcDbLine
 10
-275.4056032388019
 20
-96.99488430181473
 30
0.0
 11
-386.6510378788019
 21
-96.99488430181473
 31
0.0
  0
LINE
  5
A5D
330
6B
100
AcDbEntity
  8
0
 62
     3
100
AcDbLine
 10
-275.4056032388019
 20
-110.9948843018147
 30
0.0
 11
-386.6510378788019
 21
-110.9948843018147
 31
0.0
  0
LINE
  5
A5E
330
6B
100
AcDbEntity
  8
0
 62
     3
100
AcDbLine
 10
-275.4056032388019
 20
-117.9948843018147
 30
0.0
 11
-386.6510378788019
 21
-117.9948843018147
 31
0.0
  0
LINE
  5
A5F
330
6B
100
AcDbEntity
  8
0
 62
     3
100
AcDbLine
 10
-288.4056032388019
 20
-110.9948843018147
 30
0.0
 11
-288.4056032388019
 21
-87.99488430181472
 31
0.0
  0
LINE
  5
A60
330
6B
100
AcDbEntity
  8
0
 62
     3
100
AcDbLine
 10
-386.6510378788019
 20
-87.99488430181471
 30
0.0
 11
-386.6510378788019
 21
-127.9948843018147
 31
0.0
  0
LINE
  5
A61
330
6B
100
AcDbEntity
  8
0
 62
     3
100
AcDbLine
 10
-327.4056032388019
 20
-103.9948843018147
 30
0.0
 11
-386.6510378788019
 21
-103.9948843018147
 31
0.0
  0
LINE
  5
A62
330
6B
100
AcDbEntity
  8
0
 62
     3
100
AcDbLine
 10
-344.127278308802
 20
-123.1620230418147
 30
0.0
 11
-327.4056032388019
 21
-123.1620230418147
 31
0.0
  0
LINE
  5
A63
330
6B
100
AcDbEntity
  8
0
 62
     3
100
AcDbLine
 10
-340.4056032388019
 20
-96.99488430181473
 30
0.0
 11
-332.4056032388019
 21
-96.99488430181473
 31
0.0
  0
TEXT
  5
A65
330
6B
100
AcDbEntity
  8
0
 62
     3
100
AcDbText
 10
-372.2092345435497
 20
-108.6970698968308
 30
0.0
 40
2.5
  1
PA6
  7
高2.5
100
AcDbText
  0
TEXT
  5
A66
330
6B
100
AcDbEntity
  8
0
 62
     3
100
AcDbText
 10
-371.9443267888523
 20
-95.68263477805684
 30
0.0
 40
4.5
  1
万能フッカー
  7
高4.5
100
AcDbText
1001
ACAD
1000
ACAD_MTEXT_DEFINED_HEIGHT_BEGIN
1070
    46
1040
0.0
1000
ACAD_MTEXT_DEFINED_HEIGHT_END
  0
TEXT
  5
A67
330
6B
100
AcDbEntity
  8
0
 62
     3
100
AcDbText
 10
-285.3400141453278
 20
-91.48119220311114
 30
0.0
 40
2.0
  1
DEF
  7
高2
100
AcDbText
  0
TEXT
  5
A68
330
6B
100
AcDbEntity
  8
0
 62
     3
100
AcDbText
 10
-299.2791124990361
 20
-91.48119220311121
 30
0.0
 40
2.0
  1
DESN
  7
高2
100
AcDbText
  0
TEXT
  5
A69
330
6B
100
AcDbEntity
  8
0
 62
     3
100
AcDbText
 10
-325.5334794390362
 20
-91.48119220311114
 30
0.0
 40
2.0
  1
APPD
  7
高2
100
AcDbText
  0
TEXT
  5
A6A
330
6B
100
AcDbEntity
  8
0
 62
     3
100
AcDbText
 10
-312.4207433388018
 20
-91.48119220311114
 30
0.0
 40
2.0
  1
CHCK
  7
高2
100
AcDbText
  0
TEXT
  5
A6B
330
6B
100
AcDbEntity
  8
0
 62
     3
100
AcDbText
 10
-353.4784375996492
 20
-113.826485478584
 30
0.0
 40
2.0
  1
SCALE
 41
0.8
  7
高2
100
AcDbText
  0
TEXT
  5
A6C
330
6B
100
AcDbEntity
  8
0
 62
     3
100
AcDbText
 10
-384.9664591757557
 20
-113.826485478584
 30
0.0
 40
2.0
  1
3AD　ANGLE
 41
1.5
  7
高2
100
AcDbText
  0
TEXT
  5
A6D
330
6B
100
AcDbEntity
  8
0
 62
     3
100
AcDbText
 10
-354.2090319088003
 20
-107.0749474096269
 30
0.0
 40
2.0
  1
REMARKS
 41
0.7
  7
高2
100
AcDbText
  0
TEXT
  5
A6E
330
6B
100
AcDbEntity
  8
0
 62
     3
100
AcDbText
 10
-385.1833675288018
 20
-106.9948843018147
 30
0.0
 40
2.0
  1
MATERIAL
 41
0.7
  7
高2
100
AcDbText
  0
TEXT
  5
A6F
330
6B
100
AcDbEntity
  8
0
 62
     3
100
AcDbText
 10
-384.6068803260477
 20
-99.99488430181472
 30
0.0
 40
2.0
  1
MODEL
  7
高2
100
AcDbText
  0
TEXT
  5
A70
330
6B
100
AcDbEntity
  8
0
 62
     3
100
AcDbText
 10
-384.9699594447167
 20
-91.28786295121573
 30
0.0
 40
2.0
  1
CONPONENTS
 41
0.5
  7
高2
100
AcDbText
  0
TEXT
  5
A71
330
6B
100
AcDbEntity
  8
0
 62
     3
100
AcDbText
 10
-372.2628439735497
 20
-102.9074031740027
 30
0.0
 40
4.5
  1
BH-400SH(-□□)
 41
0.8
  7
高4.5
100
AcDbText
  0
TEXT
  5
A72
330
6B
100
AcDbEntity
  8
0
 62
     3
100
AcDbText
 10
-324.3405575081833
 20
-125.9564229064491
 30
0.0
 40
6.299999999999998
  1
BH-400SH
 41
0.9
  7
高6.3
100
AcDbText
1001
ACAD
1000
ACAD_MTEXT_DEFINED_HEIGHT_BEGIN
1070
    46
1040
0.0
1000
ACAD_MTEXT_DEFINED_HEIGHT_END
  0
TEXT
  5
A73
330
6B
100
AcDbEntity
  8
0
 62
     3
100
AcDbText
 10
-310.8420934884723
 20
-116.8939951435817
 30
0.0
 40
3.2
  1
2005.8.30
  7
高3.2
100
AcDbText
1001
ACAD
1000
ACAD_MTEXT_DEFINED_HEIGHT_BEGIN
1070
    46
1040
0.0
1000
ACAD_MTEXT_DEFINED_HEIGHT_END
  0
TEXT
  5
A74
330
6B
100
AcDbEntity
  8
0
 62
     3
100
AcDbText
 10
-340.6180053441556
 20
-116.8939672992468
 30
0.0
 40
3.2
  1
FREE
  7
高3.2
100
AcDbText
  0
TEXT
  5
A75
330
6B
100
AcDbEntity
  8
0
 62
     3
100
AcDbText
 10
-343.540676368802
 20
-127.1780061286787
 30
0.0
 40
3.2
  1
ZK-A3X
 41
0.8
  7
高3.2
100
AcDbText
  0
TEXT
  5
A76
330
6B
100
AcDbEntity
  8
0
 62
     3
100
AcDbText
 10
-385.820336838802
 20
-121.4702638796269
 30
0.0
 40
2.0
  1
NICHIDO IND.CO.LTD
 41
1.3
  7
高2
100
AcDbText
  0
TEXT
  5
A77
330
6B
100
AcDbEntity
  8
0
 62
     3
100
AcDbText
 10
-384.6388135738449
 20
-95.8543560939298
 30
0.0
 40
3.2
  1
品 名
  7
高3.2
100
AcDbText
1001
ACAD
1000
ACAD_MTEXT_DEFINED_HEIGHT_BEGIN
1070
    46
1040
0.0
1000
ACAD_MTEXT_DEFINED_HEIGHT_END
  0
TEXT
  5
A78
330
6B
100
AcDbEntity
  8
0
 62
     3
100
AcDbText
 10
-384.6388135738449
 20
-103.4948843018147
 30
0.0
 40
3.2
  1
型 式
  7
高3.2
100
AcDbText
1001
ACAD
1000
ACAD_MTEXT_DEFINED_HEIGHT_BEGIN
1070
    46
1040
3.064735913775954
1000
ACAD_MTEXT_DEFINED_HEIGHT_END
  0
TEXT
  5
A79
330
6B
100
AcDbEntity
  8
0
 62
     3
100
AcDbText
 10
-384.6388135738449
 20
-110.4948843018147
 30
0.0
 40
3.2
  1
材 質
  7
高3.2
100
AcDbText
1001
ACAD
1000
ACAD_MTEXT_DEFINED_HEIGHT_BEGIN
1070
    46
1040
0.0
1000
ACAD_MTEXT_DEFINED_HEIGHT_END
  0
TEXT
  5
A7A
330
6B
100
AcDbEntity
  8
0
 62
     3
100
AcDbText
 10
-384.9438485238447
 20
-117.5274443095684
 30
0.0
 40
3.2
  1
第 三 角 法
  7
高3.2
100
AcDbText
1001
ACAD
1000
ACAD_MTEXT_DEFINED_HEIGHT_BEGIN
1070
    46
1040
0.0
1000
ACAD_MTEXT_DEFINED_HEIGHT_END
  0
TEXT
  5
A7B
330
6B
100
AcDbEntity
  8
0
 62
     3
100
AcDbText
 10
-386.5373159163159
 20
-126.8543560939298
 30
0.0
 40
3.2
  1
日動工業株式会社
 41
1.199999999999999
  7
高3.2
100
AcDbText
1001
ACAD
1000
ACAD_MTEXT_DEFINED_HEIGHT_BEGIN
1070
    46
1040
0.0
1000
ACAD_MTEXT_DEFINED_HEIGHT_END
  0
TEXT
  5
A7C
330
6B
100
AcDbEntity
  8
0
 62
     3
100
AcDbText
 10
-352.9016917168374
 20
-110.6103057686471
 30
0.0
 40
3.2
  1
備考
  7
高3.2
100
AcDbText
1001
ACAD
1000
ACAD_MTEXT_DEFINED_HEIGHT_BEGIN
1070
    46
1040
0.0
1000
ACAD_MTEXT_DEFINED_HEIGHT_END
  0
TEXT
  5
A7D
330
6B
100
AcDbEntity
  8
0
 62
     3
100
AcDbText
 10
-343.252634269802
 20
-121.8486542762444
 30
0.0
 40
2.5
  1
出図コード
  7
高2.5
100
AcDbText
1001
ACAD
1000
ACAD_MTEXT_DEFINED_HEIGHT_BEGIN
1070
    46
1040
0.0
1000
ACAD_MTEXT_DEFINED_HEIGHT_END
  0
TEXT
  5
A7E
330
6B
100
AcDbEntity
  8
0
 62
     3
100
AcDbText
 10
-353.0604578349249
 20
-117.5416493914018
 30
0.0
 40
3.2
  1
尺度
  7
高3.2
100
AcDbText
1001
ACAD
1000
ACAD_MTEXT_DEFINED_HEIGHT_BEGIN
1070
    46
1040
0.0
1000
ACAD_MTEXT_DEFINED_HEIGHT_END
  0
TEXT
  5
A7F
330
6B
100
AcDbEntity
  8
0
 62
     3
100
AcDbText
 10
-325.914196353146
 20
-116.4101709432843
 30
0.0
 40
3.2
  1
作成日
  7
高3.2
100
AcDbText
1001
ACAD
1000
ACAD_MTEXT_DEFINED_HEIGHT_BEGIN
1070
    46
1040
0.0
1000
ACAD_MTEXT_DEFINED_HEIGHT_END
  0
TEXT
  5
A80
330
6B
100
AcDbEntity
  8
0
 62
     3
100
AcDbText
 10
-326.0197223462821
 20
-95.8543560939298
 30
0.0
 40
3.2
  1
承 認
  7
高3.2
100
AcDbText
1001
ACAD
1000
ACAD_MTEXT_DEFINED_HEIGHT_BEGIN
1070
    46
1040
0.0
1000
ACAD_MTEXT_DEFINED_HEIGHT_END
  0
TEXT
  5
A81
330
6B
100
AcDbEntity
  8
0
 62
     3
100
AcDbText
 10
-313.0197223462821
 20
-95.8543560939298
 30
0.0
 40
3.2
  1
検 図
  7
高3.2
100
AcDbText
1001
ACAD
1000
ACAD_MTEXT_DEFINED_HEIGHT_BEGIN
1070
    46
1040
0.0
1000
ACAD_MTEXT_DEFINED_HEIGHT_END
  0
TEXT
  5
A82
330
6B
100
AcDbEntity
  8
0
 62
     3
100
AcDbText
 10
-300.0197223462822
 20
-95.8543560939298
 30
0.0
 40
3.2
  1
設 計
  7
高3.2
100
AcDbText
1001
ACAD
1000
ACAD_MTEXT_DEFINED_HEIGHT_BEGIN
1070
    46
1040
0.0
1000
ACAD_MTEXT_DEFINED_HEIGHT_END
  0
TEXT
  5
A83
330
6B
100
AcDbEntity
  8
0
 62
     3
100
AcDbText
 10
-286.7190858262823
 20
-95.8543560939298
 30
0.0
 40
3.2
  1
製 図
  7
高3.2
100
AcDbText
1001
ACAD
1000
ACAD_MTEXT_DEFINED_HEIGHT_BEGIN
1070
    46
1040
0.0
1000
ACAD_MTEXT_DEFINED_HEIGHT_END
  0
TEXT
  5
A84
330
6B
100
AcDbEntity
  8
0
 62
     3
100
AcDbText
 10
-287.905603238802
 20
136.5051156981852
 30
0.0
 40
3.2
  1
担　当
  7
高3.2
100
AcDbText
  0
TEXT
  5
A85
330
6B
100
AcDbEntity
  8
0
 62
     3
100
AcDbText
 10
-331.905603238802
 20
136.5051156981852
 30
0.0
 40
3.2
  1
変更・追記内容
  7
高3.2
100
AcDbText
  0
TEXT
  5
A86
330
6B
100
AcDbEntity
  8
0
 62
     3
100
AcDbText
 10
-356.7920882384627
 20
131.834577188277
 30
0.0
 40
2.0
  1
1
  7
高2
100
AcDbText
  0
TEXT
  5
A87
330
6B
100
AcDbEntity
  8
0
 62
     3
100
AcDbText
 10
-357.10059971522
 20
126.664760476004
 30
0.0
 40
2.0
  1
2
  7
高2
100
AcDbText
  0
TEXT
  5
A88
330
6B
100
AcDbEntity
  8
0
 62
     3
100
AcDbText
 10
-349.905603238802
 20
136.5051156981852
 30
0.0
 40
3.2
  1
日　付
  7
高3.2
100
AcDbText
  0
TEXT
  5
A89
330
6B
100
AcDbEntity
  8
0
 62
     3
100
AcDbText
 10
-349.905603238802
 20
141.5051156981852
 30
0.0
 40
3.2
  1
図　　　　面　　　　略　　　　歴
  7
高3.2
100
AcDbText
  0
TEXT
  5
A8A
330
6B
100
AcDbEntity
  8
0
 62
     3
100
AcDbText
 10
-359.905603238802
 20
136.5051156981852
 30
0.0
 40
3.2
  1
記号
  7
高3.2
100
AcDbText
  0
LINE
  5
A8B
330
6B
100
AcDbEntity
  8
0
 62
     7
100
AcDbLine
 10
-356.405603238802
 20
129.7960116981853
 30
0.0
 11
-358.3056032388019
 21
126.5051156981852
 31
0.0
  0
LINE
  5
A8C
330
6B
100
AcDbEntity
  8
0
 62
     7
100
AcDbLine
 10
-356.405603238802
 20
129.7960116981853
 30
0.0
 11
-354.505603238802
 21
126.5051156981852
 31
0.0
  0
LINE
  5
A8D
330
6B
100
AcDbEntity
  8
0
 62
     7
100
AcDbLine
 10
-358.3056032388019
 20
126.5051156981852
 30
0.0
 11
-354.505603238802
 21
126.5051156981852
 31
0.0
  0
LINE
  5
A8E
330
6B
100
AcDbEntity
  8
0
 62
     7
100
AcDbLine
 10
-356.405603238802
 20
134.7960126981853
 30
0.0
 11
-358.3056032388019
 21
131.5051156981852
 31
0.0
  0
LINE
  5
A8F
330
6B
100
AcDbEntity
  8
0
 62
     7
100
AcDbLine
 10
-356.405603238802
 20
134.7960126981853
 30
0.0
 11
-354.505603238802
 21
131.5051156981852
 31
0.0
  0
LINE
  5
A90
330
6B
100
AcDbEntity
  8
0
 62
     7
100
AcDbLine
 10
-358.3056032388019
 20
131.5051156981852
 30
0.0
 11
-354.505603238802
 21
131.5051156981852
 31
0.0
  0
LINE
  5
A91
330
6B
100
AcDbEntity
  8
0
 62
     3
100
AcDbLine
 10
-361.405603238802
 20
141.0051156981852
 30
0.0
 11
-275.405603238802
 21
141.0051156981852
 31
0.0
  0
LINE
  5
A92
330
6B
100
AcDbEntity
  8
0
 62
     3
100
AcDbLine
 10
-361.405603238802
 20
136.0051156981852
 30
0.0
 11
-275.405603238802
 21
136.0051156981852
 31
0.0
  0
LINE
  5
A93
330
6B
100
AcDbEntity
  8
0
 62
     7
100
AcDbLine
 10
-361.405603238802
 20
131.0051156981852
 30
0.0
 11
-275.405603238802
 21
131.0051156981852
 31
0.0
  0
LINE
  5
A94
330
6B
100
AcDbEntity
  8
0
 62
     3
100
AcDbLine
 10
-361.405603238802
 20
126.0051156981852
 30
0.0
 11
-275.405603238802
 21
126.0051156981852
 31
0.0
  0
LINE
  5
A95
330
6B
100
AcDbEntity
  8
0
 62
     7
100
AcDbLine
 10
-289.4056032388021
 20
126.0051156981852
 30
0.0
 11
-289.405603238802
 21
141.0051156981852
 31
0.0
  0
LINE
  5
A96
330
6B
100
AcDbEntity
  8
0
 62
     7
100
AcDbLine
 10
-333.405603238802
 20
126.0051156981852
 30
0.0
 11
-333.405603238802
 21
141.0051156981852
 31
0.0
  0
LINE
  5
A97
330
6B
100
AcDbEntity
  8
0
 62
     7
100
AcDbLine
 10
-351.405603238802
 20
126.0051156981852
 30
0.0
 11
-351.405603238802
 21
141.0051156981852
 31
0.0
  0
LINE
  5
A98
330
6B
100
AcDbEntity
  8
0
 62
     3
100
AcDbLine
 10
-361.405603238802
 20
126.0051156981852
 30
0.0
 11
-361.405603238802
 21
146.0051156981852
 31
0.0
  0
TEXT
  5
11AD
330
6B
100
AcDbEntity
  8
0
 62
     3
100
AcDbText
 10
-512.156868238802
 20
-74.06606530181462
 30
0.0
 40
4.5
  1
-20℃～80℃
  7
高4.5
100
AcDbText
  0
TEXT
  5
11AE
330
6B
100
AcDbEntity
  8
0
 62
     3
100
AcDbText
 10
-547.1568682388021
 20
-74.06606530181462
 30
0.0
 40
4.5
  1
使用環境温度
  7
高4.5
100
AcDbText
  0
TEXT
  5
11AF
330
6B
100
AcDbEntity
  8
0
 62
     3
100
AcDbText
 10
-547.1568682388021
 20
-46.06606530181461
 30
0.0
 40
4.5
  1
型　　　式
  7
高4.5
100
AcDbText
  0
TEXT
  5
11B0
330
6B
100
AcDbEntity
  8
0
 62
     3
100
AcDbText
 10
-547.1568682388021
 20
-67.06606530181462
 30
0.0
 40
4.5
  1
耐　荷　重
  7
高4.5
100
AcDbText
  0
TEXT
  5
11B1
330
6B
100
AcDbEntity
  8
0
 62
     3
100
AcDbText
 10
-512.156868238802
 20
-67.06606530181462
 30
0.0
 40
4.5
  1
10.0kg　(at25℃)
  7
高4.5
100
AcDbText
  0
TEXT
  5
11B2
330
6B
100
AcDbEntity
  8
0
 62
     3
100
AcDbText
 10
-512.156868238802
 20
-46.06606530181461
 30
0.0
 40
4.5
  1
BH-400SH
  7
高4.5
100
AcDbText
  0
TEXT
  5
11B3
330
6B
100
AcDbEntity
  8
0
 62
     3
100
AcDbText
 10
-512.156868238802
 20
-60.06606530181461
 30
0.0
 40
4.5
  1
%%C30～100
  7
高4.5
100
AcDbText
  0
TEXT
  5
11B4
330
6B
100
AcDbEntity
  8
0
 62
     3
100
AcDbText
 10
-547.1568682388021
 20
-60.06606530181461
 30
0.0
 40
4.5
  1
結　束　径
  7
高4.5
100
AcDbText
  0
TEXT
  5
11B5
330
6B
100
AcDbEntity
  8
0
 62
     3
100
AcDbText
 10
-547.1568682388021
 20
-53.06606530181461
 30
0.0
 40
4.5
  1
L　寸　法
  7
高4.5
100
AcDbText
  0
TEXT
  5
11B6
330
6B
100
AcDbEntity
  8
0
 62
     3
100
AcDbText
 10
-512.156868238802
 20
-53.06606530181461
 30
0.0
 40
4.5
  1
400
  7
高4.5
100
AcDbText
  0
LINE
  5
11B7
330
6B
100
AcDbEntity
  8
0
 62
     3
100
AcDbLine
 10
-454.156868238802
 20
-40.06606530181461
 30
0.0
 11
-549.156868238802
 21
-40.06606530181461
 31
0.0
  0
LINE
  5
11B8
330
6B
100
AcDbEntity
  8
0
 62
     3
100
AcDbLine
 10
-549.156868238802
 20
-40.06606530181461
 30
0.0
 11
-549.156868238802
 21
-75.06606530181461
 31
0.0
  0
LINE
  5
11B9
330
6B
100
AcDbEntity
  8
0
 62
     3
100
AcDbLine
 10
-514.1568682388021
 20
-40.06606530181461
 30
0.0
 11
-514.1568682388021
 21
-75.06606530181461
 31
0.0
  0
LINE
  5
11BA
330
6B
100
AcDbEntity
  8
0
 62
     3
100
AcDbLine
 10
-454.156868238802
 20
-40.06606530181461
 30
0.0
 11
-454.156868238802
 21
-75.06606530181461
 31
0.0
  0
LINE
  5
11BB
330
6B
100
AcDbEntity
  8
0
100
AcDbLine
 10
-549.156868238802
 20
-54.06606530181462
 30
0.0
 11
-454.156868238802
 21
-54.06606530181462
 31
0.0
  0
LINE
  5
11BC
330
6B
100
AcDbEntity
  8
0
100
AcDbLine
 10
-454.156868238802
 20
-61.0660653018145
 30
0.0
 11
-549.156868238802
 21
-61.06606530181462
 31
0.0
  0
LINE
  5
11BD
330
6B
100
AcDbEntity
  8
0
100
AcDbLine
 10
-454.156868238802
 20
-47.06606530181462
 30
0.0
 11
-549.156868238802
 21
-47.06606530181462
 31
0.0
  0
LINE
  5
11BE
330
6B
100
AcDbEntity
  8
0
100
AcDbLine
 10
-549.156868238802
 20
-68.06606530181461
 30
0.0
 11
-454.156868238802
 21
-68.06606530181451
 31
0.0
  0
LINE
  5
11BF
330
6B
100
AcDbEntity
  8
0
 62
     3
100
AcDbLine
 10
-454.156868238802
 20
-75.0660653018145
 30
0.0
 11
-549.156868238802
 21
-75.06606530181461
 31
0.0
  0
TEXT
  5
11C0
330
6B
100
AcDbEntity
  8
0
 62
     3
100
AcDbText
 10
-654.9056032388021
 20
-127.4948843018147
 30
0.0
 40
3.2
  1
部品名
  7
高3.2
100
AcDbText
  0
TEXT
  5
11C1
330
6B
100
AcDbEntity
  8
0
 62
     3
100
AcDbText
 10
-663.9056032388021
 20
-127.4948843018147
 30
0.0
 40
3.2
  1
No.
  7
高3.2
100
AcDbText
  0
TEXT
  5
11C2
330
6B
100
AcDbEntity
  8
0
 62
     3
100
AcDbText
 10
-629.9056032388021
 20
-127.4948843018147
 30
0.0
 40
3.2
  1
個数
  7
高3.2
100
AcDbText
  0
TEXT
  5
11C3
330
6B
100
AcDbEntity
  8
0
 62
     3
100
AcDbText
 10
-629.9056032388021
 20
-122.4948843018147
 30
0.0
 40
3.2
  1
1
  7
高3.2
100
AcDbText
  0
TEXT
  5
11C4
330
6B
100
AcDbEntity
  8
0
 62
     3
100
AcDbText
 10
-629.9056032388021
 20
-117.4948843018147
 30
0.0
 40
3.2
  1
1
  7
高3.2
100
AcDbText
  0
TEXT
  5
11C5
330
6B
100
AcDbEntity
  8
0
 62
     3
100
AcDbText
 10
-654.9056032388021
 20
-117.4948843018147
 30
0.0
 40
3.2
  1
丸フック
  7
高3.2
100
AcDbText
  0
TEXT
  5
11C6
330
6B
100
AcDbEntity
  8
0
 62
     3
100
AcDbText
 10
-654.9056032388021
 20
-122.4948843018147
 30
0.0
 40
3.2
  1
連結ベルト
  7
高3.2
100
AcDbText
  0
TEXT
  5
11C7
330
6B
100
AcDbEntity
  8
0
 62
     3
100
AcDbText
 10
-663.9056032388021
 20
-122.4948843018147
 30
0.0
 40
3.2
  1
1
  7
高3.2
100
AcDbText
  0
TEXT
  5
11C8
330
6B
100
AcDbEntity
  8
0
 62
     3
100
AcDbText
 10
-663.9056032388021
 20
-117.4948843018147
 30
0.0
 40
3.2
  1
2
  7
高3.2
100
AcDbText
  0
LINE
  5
11C9
330
6B
100
AcDbEntity
  8
0
 62
     7
100
AcDbLine
 10
-656.4056032388021
 20
-112.9948843018147
 30
0.0
 11
-656.4056032388021
 21
-127.9948843018147
 31
0.0
  0
LINE
  5
11CA
330
6B
100
AcDbEntity
  8
0
 62
     7
100
AcDbLine
 10
-631.4056032388021
 20
-112.9948843018147
 30
0.0
 11
-631.4056032388021
 21
-127.9948843018147
 31
0.0
  0
LINE
  5
11CB
330
6B
100
AcDbEntity
  8
0
 62
     3
100
AcDbLine
 10
-622.4056032388021
 20
-112.9948843018147
 30
0.0
 11
-622.4056032388021
 21
-127.9948843018147
 31
0.0
  0
LINE
  5
11CC
330
6B
100
AcDbEntity
  8
0
 62
     7
100
AcDbLine
 10
-665.405603238802
 20
-122.9948843018147
 30
0.0
 11
-622.4056032388021
 21
-122.9948843018147
 31
0.0
  0
LINE
  5
11CD
330
6B
100
AcDbEntity
  8
0
 62
     7
100
AcDbLine
 10
-665.405603238802
 20
-117.9948843018147
 30
0.0
 11
-622.4056032388021
 21
-117.9948843018147
 31
0.0
  0
LINE
  5
11CE
330
6B
100
AcDbEntity
  8
0
 62
     3
100
AcDbLine
 10
-665.405603238802
 20
-112.9948843018147
 30
0.0
 11
-622.4056032388021
 21
-112.9948843018147
 31
0.0
  0
TEXT
  5
129A
330
6B
100
AcDbEntity
  8
0
 62
     3
100
AcDbText
 10
-343.2092345435497
 20
-108.6970698968308
 30
0.0
 40
2.5
  1
－
  7
高2.5
100
AcDbText
  0
LINE
  5
129B
330
6B
100
AcDbEntity
  8
0
 62
     7
100
AcDbLine
 10
-275.4568282388019
 20
-81.99488430181471
 30
0.0
 11
-373.4056032388019
 21
-81.99488430181482
 31
0.0
  0
TEXT
  5
129C
330
6B
100
AcDbEntity
  8
0
 62
     3
100
AcDbText
 10
-326.0066782388019
 20
-87.43879930181476
 30
0.0
 40
4.5
  1
サンド
  7
高4.5
100
AcDbText
  0
TEXT
  5
129D
330
6B
100
AcDbEntity
  8
0
 62
     3
100
AcDbText
 10
-299.7634012388018
 20
-87.49652830181453
 30
0.0
 40
4.5
  1
29945
  7
高4.5
100
AcDbText
  0
LINE
  5
129E
330
6B
100
AcDbEntity
  8
0
 62
     7
100
AcDbLine
 10
-275.4568282388019
 20
-75.9948843018147
 30
0.0
 11
-373.4056032388019
 21
-75.9948843018147
 31
0.0
  0
TEXT
  5
129F
330
6B
100
AcDbEntity
  8
0
 62
     3
100
AcDbText
 10
-326.0066782388019
 20
-81.43879930181476
 30
0.0
 40
4.5
  1
オリーブグリーン
 41
0.5
  7
高4.5
100
AcDbText
  0
TEXT
  5
12A0
330
6B
100
AcDbEntity
  8
0
 62
     3
100
AcDbText
 10
-299.7634012388018
 20
-81.49652830181453
 30
0.0
 40
4.5
  1
29939
  7
高4.5
100
AcDbText
  0
LINE
  5
12A1
330
6B
100
AcDbEntity
  8
0
 62
     7
100
AcDbLine
 10
-275.4568282388019
 20
-69.99488430181471
 30
0.0
 11
-373.4056032388019
 21
-69.99488430181482
 31
0.0
  0
TEXT
  5
12A2
330
6B
100
AcDbEntity
  8
0
 62
     3
100
AcDbText
 10
-326.0066782388019
 20
-75.43879930181477
 30
0.0
 40
4.5
  1
グレー
  7
高4.5
100
AcDbText
  0
TEXT
  5
12A3
330
6B
100
AcDbEntity
  8
0
 62
     3
100
AcDbText
 10
-299.7634012388018
 20
-75.49652830181454
 30
0.0
 40
4.5
  1
29933
  7
高4.5
100
AcDbText
  0
LINE
  5
12A4
330
6B
100
AcDbEntity
  8
0
 62
     7
100
AcDbLine
 10
-275.4568282388019
 20
-63.9948843018147
 30
0.0
 11
-373.4056032388019
 21
-63.9948843018147
 31
0.0
  0
TEXT
  5
12A5
330
6B
100
AcDbEntity
  8
0
 62
     3
100
AcDbText
 10
-326.0066782388019
 20
-69.43879930181477
 30
0.0
 40
4.5
  1
ホワイト
  7
高4.5
100
AcDbText
  0
TEXT
  5
12A6
330
6B
100
AcDbEntity
  8
0
 62
     3
100
AcDbText
 10
-299.7634012388018
 20
-69.49652830181453
 30
0.0
 40
4.5
  1
29927
  7
高4.5
100
AcDbText
  0
LINE
  5
12A7
330
6B
100
AcDbEntity
  8
0
 62
     7
100
AcDbLine
 10
-275.4568282388019
 20
-57.99488430181471
 30
0.0
 11
-373.4056032388019
 21
-57.99488430181471
 31
0.0
  0
TEXT
  5
12A8
330
6B
100
AcDbEntity
  8
0
 62
     3
100
AcDbText
 10
-326.0066782388019
 20
-63.43879930181477
 30
0.0
 40
4.5
  1
ブラック
  7
高4.5
100
AcDbText
  0
TEXT
  5
12A9
330
6B
100
AcDbEntity
  8
0
 62
     3
100
AcDbText
 10
-299.7634012388018
 20
-63.49652830181454
 30
0.0
 40
4.5
  1
29921
  7
高4.5
100
AcDbText
  0
LINE
  5
12AA
330
6B
100
AcDbEntity
  8
0
 62
     7
100
AcDbLine
 10
-275.4568282388019
 20
-51.99488430181471
 30
0.0
 11
-373.4056032388019
 21
-51.99488430181471
 31
0.0
  0
TEXT
  5
12AB
330
6B
100
AcDbEntity
  8
0
 62
     3
100
AcDbText
 10
-326.0066782388019
 20
-57.43879930181477
 30
0.0
 40
4.5
  1
オレンジ
  7
高4.5
100
AcDbText
  0
TEXT
  5
12AC
330
6B
100
AcDbEntity
  8
0
 62
     3
100
AcDbText
 10
-299.7634012388018
 20
-57.49652830181453
 30
0.0
 40
4.5
  1
29629
  7
高4.5
100
AcDbText
  0
LINE
  5
12AD
330
6B
100
AcDbEntity
  8
0
 62
     3
100
AcDbLine
 10
-275.4568282388019
 20
-45.9948843018147
 30
0.0
 11
-373.4056032388019
 21
-45.9948843018147
 31
0.0
  0
TEXT
  5
12AE
330
6B
100
AcDbEntity
  8
0
 62
     3
100
AcDbText
 10
-326.0066782388019
 20
-51.43879930181476
 30
0.0
 40
4.5
  1
色
  7
高4.5
100
AcDbText
  0
TEXT
  5
12AF
330
6B
100
AcDbEntity
  8
0
 62
     3
100
AcDbText
 10
-299.7634012388018
 20
-51.49652830181453
 30
0.0
 40
4.5
  1
コード
  7
高4.5
100
AcDbText
  0
LINE
  5
12B0
330
6B
100
AcDbEntity
  8
0
100
AcDbLine
 10
-327.4056032388018
 20
-87.99488430181471
 30
0.0
 11
-327.4056032388018
 21
-45.9948843018147
 31
0.0
  0
LINE
  5
12B1
330
6B
100
AcDbEntity
  8
0
 62
     3
100
AcDbLine
 10
-373.4056032388019
 20
-87.99488430181471
 30
0.0
 11
-373.4056032388019
 21
-45.9948843018147
 31
0.0
  0
TEXT
  5
12B2
330
6B
100
AcDbEntity
  8
0
 62
     3
100
AcDbText
 10
-372.006678238802
 20
-87.43879930181476
 30
0.0
 40
4.5
  1
BH-400SH-SN
 41
0.9
  7
高4.5
100
AcDbText
  0
TEXT
  5
12B3
330
6B
100
AcDbEntity
  8
0
 62
     3
100
AcDbText
 10
-372.006678238802
 20
-81.43879930181476
 30
0.0
 40
4.5
  1
BH-400SH-OG
 41
0.9
  7
高4.5
100
AcDbText
  0
TEXT
  5
12B4
330
6B
100
AcDbEntity
  8
0
 62
     3
100
AcDbText
 10
-372.006678238802
 20
-75.43879930181477
 30
0.0
 40
4.5
  1
BH-400SH-GY
 41
0.9
  7
高4.5
100
AcDbText
  0
TEXT
  5
12B5
330
6B
100
AcDbEntity
  8
0
 62
     3
100
AcDbText
 10
-372.006678238802
 20
-69.43879930181477
 30
0.0
 40
4.5
  1
BH-400SH-WH
 41
0.9
  7
高4.5
100
AcDbText
  0
TEXT
  5
12B6
330
6B
100
AcDbEntity
  8
0
 62
     3
100
AcDbText
 10
-372.006678238802
 20
-63.43879930181477
 30
0.0
 40
4.5
  1
BH-400SH-BK
 41
0.9
  7
高4.5
100
AcDbText
  0
TEXT
  5
12B7
330
6B
100
AcDbEntity
  8
0
 62
     3
100
AcDbText
 10
-372.006678238802
 20
-57.43879930181477
 30
0.0
 40
4.5
  1
BH-400SH
 41
0.9
  7
高4.5
100
AcDbText
  0
TEXT
  5
12B8
330
6B
100
AcDbEntity
  8
0
 62
     3
100
AcDbText
 10
-372.006678238802
 20
-51.43879930181476
 30
0.0
 40
4.5
  1
型番
  7
高4.5
100
AcDbText
  0
LINE
  5
12B9
330
6B
100
AcDbEntity
  8
0
100
AcDbLine
 10
-301.4056032388018
 20
-87.99488430181471
 30
0.0
 11
-301.4056032388018
 21
-45.9948843018147
 31
0.0
  0
LINE
  5
13D5
330
6B
100
AcDbEntity
  8
0
 62
     2
100
AcDbLine
 10
-516.1351632388018
 20
4.690684698185233
 30
0.0
 11
-516.1528842388019
 21
4.804147698185233
 31
0.0
  0
LINE
  5
13D6
330
6B
100
AcDbEntity
  8
0
 62
     2
100
AcDbLine
 10
-516.1528842388019
 20
4.804147698185233
 30
0.0
 11
-516.1741662388018
 21
4.912794698185233
 31
0.0
  0
LINE
  5
13D7
330
6B
100
AcDbEntity
  8
0
 62
     2
100
AcDbLine
 10
-516.1741662388018
 20
4.912794698185233
 30
0.0
 11
-516.1988462388019
 21
5.015785698185233
 31
0.0
  0
LINE
  5
13D8
330
6B
100
AcDbEntity
  8
0
 62
     2
100
AcDbLine
 10
-516.1988462388019
 20
5.015785698185233
 30
0.0
 11
-516.2267312388019
 21
5.112323698185233
 31
0.0
  0
LINE
  5
13D9
330
6B
100
AcDbEntity
  8
0
 62
     2
100
AcDbLine
 10
-516.2267312388019
 20
5.112323698185233
 30
0.0
 11
-516.2576082388019
 21
5.201662698185233
 31
0.0
  0
LINE
  5
13DA
330
6B
100
AcDbEntity
  8
0
 62
     2
100
AcDbLine
 10
-516.2576082388019
 20
5.201662698185233
 30
0.0
 11
-516.2912362388018
 21
5.283112698185233
 31
0.0
  0
LINE
  5
13DB
330
6B
100
AcDbEntity
  8
0
 62
     2
100
AcDbLine
 10
-516.2912362388018
 20
5.283112698185233
 30
0.0
 11
-516.3273562388018
 21
5.356044698185233
 31
0.0
  0
LINE
  5
13DC
330
6B
100
AcDbEntity
  8
0
 62
     2
100
AcDbLine
 10
-516.3273562388018
 20
5.356044698185233
 30
0.0
 11
-516.3656892388019
 21
5.419893698185233
 31
0.0
  0
LINE
  5
13DD
330
6B
100
AcDbEntity
  8
0
 62
     2
100
AcDbLine
 10
-516.3656892388019
 20
5.419893698185233
 30
0.0
 11
-516.4059392388018
 21
5.474166698185232
 31
0.0
  0
LINE
  5
13DE
330
6B
100
AcDbEntity
  8
0
 62
     2
100
AcDbLine
 10
-516.4059392388018
 20
5.474166698185232
 30
0.0
 11
-516.4477952388018
 21
5.518444698185232
 31
0.0
  0
LINE
  5
13DF
330
6B
100
AcDbEntity
  8
0
 62
     2
100
AcDbLine
 10
-516.4477952388018
 20
5.518444698185232
 30
0.0
 11
-516.4909322388019
 21
5.552384698185233
 31
0.0
  0
LINE
  5
13E0
330
6B
100
AcDbEntity
  8
0
 62
     2
100
AcDbLine
 10
-516.4909322388019
 20
5.552384698185233
 30
0.0
 11
-516.5350182388018
 21
5.575723698185233
 31
0.0
  0
LINE
  5
13E1
330
6B
100
AcDbEntity
  8
0
 62
     2
100
AcDbLine
 10
-516.5350182388018
 20
5.575723698185233
 30
0.0
 11
-516.5797112388019
 21
5.588283698185232
 31
0.0
  0
LINE
  5
13E2
330
6B
100
AcDbEntity
  8
0
 62
     2
100
AcDbLine
 10
-516.5797112388019
 20
5.588283698185232
 30
0.0
 11
-516.6246672388019
 21
5.589965698185232
 31
0.0
  0
LINE
  5
13E3
330
6B
100
AcDbEntity
  8
0
 62
     2
100
AcDbLine
 10
-516.6246672388019
 20
5.589965698185232
 30
0.0
 11
-516.6695382388019
 21
5.580756698185233
 31
0.0
  0
LINE
  5
13E4
330
6B
100
AcDbEntity
  8
0
 62
     2
100
AcDbLine
 10
-516.6695382388019
 20
5.580756698185233
 30
0.0
 11
-516.7139772388019
 21
5.560728698185233
 31
0.0
  0
LINE
  5
13E5
330
6B
100
AcDbEntity
  8
0
 62
     2
100
AcDbLine
 10
-516.7139772388019
 20
5.560728698185233
 30
0.0
 11
-516.7576402388021
 21
5.530035698185232
 31
0.0
  0
LINE
  5
13E6
330
6B
100
AcDbEntity
  8
0
 62
     2
100
AcDbLine
 10
-516.7576402388021
 20
5.530035698185232
 30
0.0
 11
-516.8001902388017
 21
5.488915698185232
 31
0.0
  0
LINE
  5
13E7
330
6B
100
AcDbEntity
  8
0
 62
     2
100
AcDbLine
 10
-516.8001902388017
 20
5.488915698185232
 30
0.0
 11
-516.8412982388018
 21
5.437686698185232
 31
0.0
  0
LINE
  5
13E8
330
6B
100
AcDbEntity
  8
0
 62
     2
100
AcDbLine
 10
-516.8412982388018
 20
5.437686698185232
 30
0.0
 11
-516.8806472388019
 21
5.376743698185232
 31
0.0
  0
LINE
  5
13E9
330
6B
100
AcDbEntity
  8
0
 62
     2
100
AcDbLine
 10
-516.8806472388019
 20
5.376743698185232
 30
0.0
 11
-516.9179322388019
 21
5.306557698185233
 31
0.0
  0
LINE
  5
13EA
330
6B
100
AcDbEntity
  8
0
 62
     2
100
AcDbLine
 10
-516.9179322388019
 20
5.306557698185233
 30
0.0
 11
-516.9528652388017
 21
5.227672698185233
 31
0.0
  0
LINE
  5
13EB
330
6B
100
AcDbEntity
  8
0
 62
     2
100
AcDbLine
 10
-516.9528652388017
 20
5.227672698185233
 30
0.0
 11
-516.9851762388018
 21
5.140696698185233
 31
0.0
  0
LINE
  5
13EC
330
6B
100
AcDbEntity
  8
0
 62
     2
100
AcDbLine
 10
-516.9851762388018
 20
5.140696698185233
 30
0.0
 11
-517.0146152388017
 21
5.046303698185233
 31
0.0
  0
LINE
  5
13ED
330
6B
100
AcDbEntity
  8
0
 62
     2
100
AcDbLine
 10
-517.0146152388017
 20
5.046303698185233
 30
0.0
 11
-517.0409552388019
 21
4.945221698185233
 31
0.0
  0
LINE
  5
13EE
330
6B
100
AcDbEntity
  8
0
 62
     2
100
AcDbLine
 10
-517.0409552388019
 20
4.945221698185233
 30
0.0
 11
-517.0639932388019
 21
4.838232698185233
 31
0.0
  0
LINE
  5
13EF
330
6B
100
AcDbEntity
  8
0
 62
     2
100
AcDbLine
 10
-517.0639932388019
 20
4.838232698185233
 30
0.0
 11
-517.0835492388017
 21
4.726163698185233
 31
0.0
  0
LINE
  5
13F0
330
6B
100
AcDbEntity
  8
0
 62
     2
100
AcDbLine
 10
-517.0835492388017
 20
4.726163698185233
 30
0.0
 11
-517.0994732388018
 21
4.609881698185233
 31
0.0
  0
LINE
  5
13F1
330
6B
100
AcDbEntity
  8
0
 62
     2
100
AcDbLine
 10
-517.0994732388018
 20
4.609881698185233
 30
0.0
 11
-517.1116422388019
 21
4.490283698185233
 31
0.0
  0
LINE
  5
13F2
330
6B
100
AcDbEntity
  8
0
 62
     2
100
AcDbLine
 10
-517.1116422388019
 20
4.490283698185233
 30
0.0
 11
-517.1199622388019
 21
4.368295698185233
 31
0.0
  0
LINE
  5
13F3
330
6B
100
AcDbEntity
  8
0
 62
     2
100
AcDbLine
 10
-517.1199622388019
 20
4.368295698185233
 30
0.0
 11
-517.1243682388019
 21
4.244859698185234
 31
0.0
  0
LINE
  5
13F4
330
6B
100
AcDbEntity
  8
0
 62
     2
100
AcDbLine
 10
-517.1243682388019
 20
4.244859698185234
 30
0.0
 11
-517.1248262388019
 21
4.120929698185232
 31
0.0
  0
LINE
  5
13F5
330
6B
100
AcDbEntity
  8
0
 62
     2
100
AcDbLine
 10
-517.1248262388019
 20
4.120929698185232
 30
0.0
 11
-517.1213342388019
 21
3.997464698185233
 31
0.0
  0
LINE
  5
13F6
330
6B
100
AcDbEntity
  8
0
 62
     2
100
AcDbLine
 10
-517.1213342388019
 20
3.997464698185233
 30
0.0
 11
-517.1139172388018
 21
3.875418698185232
 31
0.0
  0
LINE
  5
13F7
330
6B
100
AcDbEntity
  8
0
 62
     2
100
AcDbLine
 10
-517.1139172388018
 20
3.875418698185232
 30
0.0
 11
-517.1026332388017
 21
3.755733698185232
 31
0.0
  0
LINE
  5
13F8
330
6B
100
AcDbEntity
  8
0
 62
     2
100
AcDbLine
 10
-517.1026332388017
 20
3.755733698185232
 30
0.0
 11
-517.0875702388018
 21
3.639336698185232
 31
0.0
  0
LINE
  5
13F9
330
6B
100
AcDbEntity
  8
0
 62
     2
100
AcDbLine
 10
-517.0875702388018
 20
3.639336698185232
 30
0.0
 11
-517.0688442388018
 21
3.527126698185232
 31
0.0
  0
LINE
  5
13FA
330
6B
100
AcDbEntity
  8
0
 62
     2
100
AcDbLine
 10
-517.0688442388018
 20
3.527126698185232
 30
0.0
 11
-517.0465992388018
 21
3.419969698185232
 31
0.0
  0
LINE
  5
13FB
330
6B
100
AcDbEntity
  8
0
 62
     2
100
AcDbLine
 10
-517.0465992388018
 20
3.419969698185232
 30
0.0
 11
-517.0210082388019
 21
3.318695698185232
 31
0.0
  0
LINE
  5
13FC
330
6B
100
AcDbEntity
  8
0
 62
     2
100
AcDbLine
 10
-517.0210082388019
 20
3.318695698185232
 30
0.0
 11
-516.9922682388017
 21
3.224086698185232
 31
0.0
  0
LINE
  5
13FD
330
6B
100
AcDbEntity
  8
0
 62
     2
100
AcDbLine
 10
-516.9922682388017
 20
3.224086698185232
 30
0.0
 11
-516.9606012388019
 21
3.136874698185232
 31
0.0
  0
LINE
  5
13FE
330
6B
100
AcDbEntity
  8
0
 62
     2
100
AcDbLine
 10
-516.9606012388019
 20
3.136874698185232
 30
0.0
 11
-516.9262532388017
 21
3.057732698185232
 31
0.0
  0
LINE
  5
13FF
330
6B
100
AcDbEntity
  8
0
 62
     2
100
AcDbLine
 10
-516.9262532388017
 20
3.057732698185232
 30
0.0
 11
-516.8894882388018
 21
2.987273698185232
 31
0.0
  0
LINE
  5
1400
330
6B
100
AcDbEntity
  8
0
 62
     2
100
AcDbLine
 10
-516.8894882388018
 20
2.987273698185232
 30
0.0
 11
-516.8505922388018
 21
2.926041698185232
 31
0.0
  0
LINE
  5
1401
330
6B
100
AcDbEntity
  8
0
 62
     2
100
AcDbLine
 10
-516.8505922388018
 20
2.926041698185232
 30
0.0
 11
-516.8098642388017
 21
2.874508698185232
 31
0.0
  0
LINE
  5
1402
330
6B
100
AcDbEntity
  8
0
 62
     2
100
AcDbLine
 10
-516.8098642388017
 20
2.874508698185232
 30
0.0
 11
-516.7676192388019
 21
2.833075698185232
 31
0.0
  0
LINE
  5
1403
330
6B
100
AcDbEntity
  8
0
 62
     2
100
AcDbLine
 10
-516.7676192388019
 20
2.833075698185232
 30
0.0
 11
-516.7241842388018
 21
2.802060698185234
 31
0.0
  0
LINE
  5
1404
330
6B
100
AcDbEntity
  8
0
 62
     2
100
AcDbLine
 10
-516.7241842388018
 20
2.802060698185234
 30
0.0
 11
-516.6798952388019
 21
2.781703698185232
 31
0.0
  0
LINE
  5
1405
330
6B
100
AcDbEntity
  8
0
 62
     2
100
AcDbLine
 10
-516.6798952388019
 20
2.781703698185232
 30
0.0
 11
-516.6350932388019
 21
2.772163698185232
 31
0.0
  0
LINE
  5
1406
330
6B
100
AcDbEntity
  8
0
 62
     2
100
AcDbLine
 10
-516.6350932388019
 20
2.772163698185232
 30
0.0
 11
-516.5901262388017
 21
2.773512698185232
 31
0.0
  0
LINE
  5
1407
330
6B
100
AcDbEntity
  8
0
 62
     2
100
AcDbLine
 10
-516.5901262388017
 20
2.773512698185232
 30
0.0
 11
-516.5453412388018
 21
2.785740698185232
 31
0.0
  0
LINE
  5
1408
330
6B
100
AcDbEntity
  8
0
 62
     2
100
AcDbLine
 10
-516.5453412388018
 20
2.785740698185232
 30
0.0
 11
-516.5010842388019
 21
2.808753698185233
 31
0.0
  0
LINE
  5
1409
330
6B
100
AcDbEntity
  8
0
 62
     2
100
AcDbLine
 10
-516.5010842388019
 20
2.808753698185233
 30
0.0
 11
-516.4576962388017
 21
2.842373698185232
 31
0.0
  0
LINE
  5
140A
330
6B
100
AcDbEntity
  8
0
 62
     2
100
AcDbLine
 10
-516.4576962388017
 20
2.842373698185232
 30
0.0
 11
-516.4155152388018
 21
2.886339698185232
 31
0.0
  0
LINE
  5
140B
330
6B
100
AcDbEntity
  8
0
 62
     2
100
AcDbLine
 10
-516.4155152388018
 20
2.886339698185232
 30
0.0
 11
-516.3748642388019
 21
2.940313698185232
 31
0.0
  0
LINE
  5
140C
330
6B
100
AcDbEntity
  8
0
 62
     2
100
AcDbLine
 10
-516.3748642388019
 20
2.940313698185232
 30
0.0
 11
-516.3360592388019
 21
3.003877698185232
 31
0.0
  0
LINE
  5
140D
330
6B
100
AcDbEntity
  8
0
 62
     2
100
AcDbLine
 10
-516.3360592388019
 20
3.003877698185232
 30
0.0
 11
-516.2994002388018
 21
3.076539698185233
 31
0.0
  0
LINE
  5
140E
330
6B
100
AcDbEntity
  8
0
 62
     2
100
AcDbLine
 10
-516.2994002388018
 20
3.076539698185233
 30
0.0
 11
-516.2651702388018
 21
3.157738698185232
 31
0.0
  0
LINE
  5
140F
330
6B
100
AcDbEntity
  8
0
 62
     2
100
AcDbLine
 10
-516.2651702388018
 20
3.157738698185232
 30
0.0
 11
-516.2336342388019
 21
3.246847698185232
 31
0.0
  0
LINE
  5
1410
330
6B
100
AcDbEntity
  8
0
 62
     2
100
AcDbLine
 10
-516.2336342388019
 20
3.246847698185232
 30
0.0
 11
-516.2050342388019
 21
3.343176698185232
 31
0.0
  0
LINE
  5
1411
330
6B
100
AcDbEntity
  8
0
 62
     2
100
AcDbLine
 10
-516.2050342388019
 20
3.343176698185232
 30
0.0
 11
-516.1795942388017
 21
3.445981698185232
 31
0.0
  0
LINE
  5
1412
330
6B
100
AcDbEntity
  8
0
 62
     2
100
AcDbLine
 10
-516.1795942388017
 20
3.445981698185232
 30
0.0
 11
-516.1575082388018
 21
3.554467698185233
 31
0.0
  0
LINE
  5
1413
330
6B
100
AcDbEntity
  8
0
 62
     2
100
AcDbLine
 10
-516.1575082388018
 20
3.554467698185233
 30
0.0
 11
-516.1389482388018
 21
3.667796698185232
 31
0.0
  0
LINE
  5
1414
330
6B
100
AcDbEntity
  8
0
100
AcDbLine
 10
-567.1626112388016
 20
84.4976286981852
 30
0.0
 11
-567.1522552388019
 21
82.4271016981852
 31
0.0
  0
LINE
  5
1415
330
6B
100
AcDbEntity
  8
0
100
AcDbLine
 10
-567.1522552388019
 20
82.4271016981852
 30
0.0
 11
-566.1259612388017
 21
84.22540869818524
 31
0.0
  0
LINE
  5
1416
330
6B
100
AcDbEntity
  8
0
100
AcDbLine
 10
-505.9712352388018
 20
80.26437569818524
 30
0.0
 11
-505.4751302388019
 21
78.25413569818524
 31
0.0
  0
LINE
  5
1417
330
6B
100
AcDbEntity
  8
0
100
AcDbLine
 10
-505.4751302388019
 20
78.25413569818524
 30
0.0
 11
-504.8996492388019
 21
80.24310769818523
 31
0.0
  0
LINE
  5
1418
330
6B
100
AcDbEntity
  8
0
100
AcDbLine
 10
-370.7652962388019
 20
0.038687698185234
 30
0.0
 11
-372.5967572388019
 21
1.867479698185233
 31
0.0
  0
LINE
  5
1419
330
6B
100
AcDbEntity
  8
0
100
AcDbLine
 10
-372.5967572388019
 20
1.867479698185233
 30
0.0
 11
-371.9250622388019
 21
-0.6320313018147666
 31
0.0
  0
LINE
  5
141A
330
6B
100
AcDbEntity
  8
0
100
AcDbLine
 10
-451.1668242388019
 20
14.78732869818523
 30
0.0
 11
-449.8534342388018
 21
12.68332169818523
 31
0.0
  0
LINE
  5
141B
330
6B
100
AcDbEntity
  8
0
100
AcDbLine
 10
-449.8534342388018
 20
12.68332169818523
 30
0.0
 11
-448.7881652388018
 21
10.59865069818523
 31
0.0
  0
LINE
  5
141C
330
6B
100
AcDbEntity
  8
0
100
AcDbLine
 10
-448.7881652388018
 20
10.59865069818523
 30
0.0
 11
-448.2191362388018
 21
8.552650698185232
 31
0.0
  0
LINE
  5
141D
330
6B
100
AcDbEntity
  8
0
100
AcDbLine
 10
-448.2191362388018
 20
8.552650698185232
 30
0.0
 11
-448.3944672388019
 21
6.564656698185232
 31
0.0
  0
LINE
  5
141E
330
6B
100
AcDbEntity
  8
0
100
AcDbLine
 10
-448.3944672388019
 20
6.564656698185232
 30
0.0
 11
-449.7603932388019
 21
4.074901698185232
 31
0.0
  0
LINE
  5
141F
330
6B
100
AcDbEntity
  8
0
100
AcDbLine
 10
-449.7603932388019
 20
4.074901698185232
 30
0.0
 11
-451.0624882388019
 21
1.601243698185233
 31
0.0
  0
LINE
  5
1420
330
6B
100
AcDbEntity
  8
0
100
AcDbLine
 10
-451.0624882388019
 20
1.601243698185233
 30
0.0
 11
-451.1220872388019
 21
-0.273333301814767
 31
0.0
  0
LINE
  5
1421
330
6B
100
AcDbEntity
  8
0
100
AcDbLine
 10
-451.1220872388019
 20
-0.273333301814767
 30
0.0
 11
-450.4439002388018
 21
-2.188148301814766
 31
0.0
  0
LINE
  5
1422
330
6B
100
AcDbEntity
  8
0
100
AcDbLine
 10
-450.4439002388018
 20
-2.188148301814766
 30
0.0
 11
-449.2738562388018
 21
-4.129788301814765
 31
0.0
  0
LINE
  5
1423
330
6B
100
AcDbEntity
  8
0
100
AcDbLine
 10
-449.2738562388018
 20
-4.129788301814765
 30
0.0
 11
-447.8578822388017
 21
-6.084842301814767
 31
0.0
  0
LINE
  5
1424
330
6B
100
AcDbEntity
  8
0
100
AcDbLine
 10
-453.1384082388019
 20
14.68324969818523
 30
0.0
 11
-451.8250182388018
 21
12.57924369818523
 31
0.0
  0
LINE
  5
1425
330
6B
100
AcDbEntity
  8
0
100
AcDbLine
 10
-451.8250182388018
 20
12.57924369818523
 30
0.0
 11
-450.7597492388018
 21
10.49457269818523
 31
0.0
  0
LINE
  5
1426
330
6B
100
AcDbEntity
  8
0
100
AcDbLine
 10
-450.7597492388018
 20
10.49457269818523
 30
0.0
 11
-450.1907202388018
 21
8.448571698185233
 31
0.0
  0
LINE
  5
1427
330
6B
100
AcDbEntity
  8
0
100
AcDbLine
 10
-450.1907202388018
 20
8.448571698185233
 30
0.0
 11
-450.3660512388019
 21
6.460578698185233
 31
0.0
  0
LINE
  5
1428
330
6B
100
AcDbEntity
  8
0
100
AcDbLine
 10
-450.3660512388019
 20
6.460578698185233
 30
0.0
 11
-451.7319762388019
 21
3.970823698185233
 31
0.0
  0
LINE
  5
1429
330
6B
100
AcDbEntity
  8
0
100
AcDbLine
 10
-451.7319762388019
 20
3.970823698185233
 30
0.0
 11
-453.0340722388018
 21
1.497165698185233
 31
0.0
  0
LINE
  5
142A
330
6B
100
AcDbEntity
  8
0
100
AcDbLine
 10
-453.0340722388018
 20
1.497165698185233
 30
0.0
 11
-453.0936712388019
 21
-0.3774113018147664
 31
0.0
  0
LINE
  5
142B
330
6B
100
AcDbEntity
  8
0
100
AcDbLine
 10
-453.0936712388019
 20
-0.3774113018147664
 30
0.0
 11
-452.4154842388019
 21
-2.292227301814766
 31
0.0
  0
LINE
  5
142C
330
6B
100
AcDbEntity
  8
0
100
AcDbLine
 10
-452.4154842388019
 20
-2.292227301814766
 30
0.0
 11
-451.2454402388017
 21
-4.233867301814767
 31
0.0
  0
LINE
  5
142D
330
6B
100
AcDbEntity
  8
0
100
AcDbLine
 10
-451.2454402388017
 20
-4.233867301814767
 30
0.0
 11
-449.8294662388017
 21
-6.188920301814767
 31
0.0
  0
LINE
  5
142E
330
6B
100
AcDbEntity
  8
0
100
AcDbLine
 10
-437.5979722388018
 20
75.98052369818524
 30
0.0
 11
-430.1914912388018
 21
75.98052369818524
 31
0.0
  0
LINE
  5
142F
330
6B
100
AcDbEntity
  8
0
100
AcDbLine
 10
-437.8748392388018
 20
78.98052369818524
 30
0.0
 11
-430.1914912388018
 21
78.98052369818524
 31
0.0
  0
LINE
  5
1430
330
6B
100
AcDbEntity
  8
0
100
AcDbLine
 10
-431.4414912388018
 20
73.48052369818524
 30
0.0
 11
-431.4414912388018
 21
70.98052369818524
 31
0.0
  0
LINE
  5
1431
330
6B
100
AcDbEntity
  8
0
100
AcDbLine
 10
-431.4414912388018
 20
81.48052369818524
 30
0.0
 11
-431.4414912388018
 21
90.23052369818524
 31
0.0
  0
LINE
  5
1432
330
6B
100
AcDbEntity
  8
0
100
AcDbLine
 10
-431.4414912388018
 20
75.98052369818524
 30
0.0
 11
-431.4414912388018
 21
78.98052369818524
 31
0.0
  0
LINE
  5
1436
330
6B
100
AcDbEntity
  8
0
100
AcDbLine
 10
-393.8327362388019
 20
-3.282977301814765
 30
0.0
 11
-385.1706725065499
 21
-3.282977301814768
 31
0.0
  0
LINE
  5
1437
330
6B
100
AcDbEntity
  8
0
100
AcDbLine
 10
-393.6004052388019
 20
11.80655569818523
 30
0.0
 11
-385.1706725065499
 21
11.80655569818523
 31
0.0
  0
LINE
  5
1438
330
6B
100
AcDbEntity
  8
0
100
AcDbLine
 10
-386.4206725065498
 20
14.30655569818522
 30
0.0
 11
-386.4206725065498
 21
16.80655569818522
 31
0.0
  0
LINE
  5
1439
330
6B
100
AcDbEntity
  8
0
100
AcDbLine
 10
-386.4206725065498
 20
-5.782977301814767
 30
0.0
 11
-386.4206725065498
 21
-13.9079773018147
 31
0.0
  0
LINE
  5
143A
330
6B
100
AcDbEntity
  8
0
100
AcDbLine
 10
-386.4206725065498
 20
11.80655569818523
 30
0.0
 11
-386.4206725065498
 21
-3.282977301814768
 31
0.0
  0
LINE
  5
143E
330
6B
100
AcDbEntity
  8
0
100
AcDbLine
 10
-559.7424342388019
 20
8.981640698185232
 30
0.0
 11
-559.7424342388019
 21
29.36541469818524
 31
0.0
  0
LINE
  5
143F
330
6B
100
AcDbEntity
  8
0
100
AcDbLine
 10
-313.9606682388019
 20
15.01420369818523
 30
0.0
 11
-313.9606682388019
 21
29.36541469818524
 31
0.0
  0
LINE
  5
1440
330
6B
100
AcDbEntity
  8
0
100
AcDbLine
 10
-557.2424342388019
 20
28.11541469818524
 30
0.0
 11
-316.4606682388019
 21
28.11541469818524
 31
0.0
  0
LINE
  5
1444
330
6B
100
AcDbEntity
  8
0
100
AcDbLine
 10
-621.7779862388018
 20
9.251199698185232
 30
0.0
 11
-621.7779862388018
 21
29.36541469818524
 31
0.0
  0
LINE
  5
1445
330
6B
100
AcDbEntity
  8
0
100
AcDbLine
 10
-559.7424342388019
 20
8.981640698185232
 30
0.0
 11
-559.7424342388019
 21
29.36541469818524
 31
0.0
  0
LINE
  5
1446
330
6B
100
AcDbEntity
  8
0
100
AcDbLine
 10
-619.2779862388018
 20
28.11541469818524
 30
0.0
 11
-562.2424342388019
 21
28.11541469818524
 31
0.0
  0
LINE
  5
144A
330
6B
100
AcDbEntity
  8
0
100
AcDbLine
 10
-315.2106682388019
 20
-7.735796301814764
 30
0.0
 11
-304.2361712388019
 21
-7.735796301814768
 31
0.0
  0
LINE
  5
144B
330
6B
100
AcDbEntity
  8
0
100
AcDbLine
 10
-315.2106682388019
 20
16.26420369818523
 30
0.0
 11
-304.2361712388019
 21
16.26420369818523
 31
0.0
  0
LINE
  5
144C
330
6B
100
AcDbEntity
  8
0
100
AcDbLine
 10
-305.4861712388019
 20
-5.235796301814768
 30
0.0
 11
-305.4861712388019
 21
13.76420369818523
 31
0.0
  0
LINE
  5
1450
330
6B
100
AcDbEntity
  8
0
100
AcDbLine
 10
-313.5582122388019
 20
76.72829269818523
 30
0.0
 11
-302.2816732388019
 21
76.72829269818523
 31
0.0
  0
LINE
  5
1451
330
6B
100
AcDbEntity
  8
0
100
AcDbLine
 10
-314.5557122388019
 20
86.72829269818523
 30
0.0
 11
-302.2816732388019
 21
86.72829269818523
 31
0.0
  0
LINE
  5
1452
330
6B
100
AcDbEntity
  8
0
100
AcDbLine
 10
-303.5316732388019
 20
79.22829269818523
 30
0.0
 11
-303.5316732388019
 21
84.22829269818523
 31
0.0
  0
LINE
  5
1456
330
6B
100
AcDbEntity
  8
0
100
AcDbLine
 10
-597.0550972388017
 20
52.42679369818525
 30
0.0
 11
-636.2015792388018
 21
52.42679369818525
 31
0.0
  0
LINE
  5
1457
330
6B
100
AcDbEntity
  8
0
100
AcDbLine
 10
-588.9320142388016
 20
107.1139296981852
 30
0.0
 11
-636.2015792388018
 21
107.1139296981852
 31
0.0
  0
LINE
  5
1458
330
6B
100
AcDbEntity
  8
0
100
AcDbLine
 10
-634.9515792388018
 20
54.92679369818525
 30
0.0
 11
-634.9515792388018
 21
104.6139296981852
 31
0.0
  0
LINE
  5
145C
330
6B
100
AcDbEntity
  8
0
100
AcDbLine
 10
-590.7027822305853
 20
66.51754285016338
 30
0.0
 11
-602.9074122470181
 21
88.33604454620715
 31
0.0
  0
LINE
  5
1460
330
6B
100
AcDbEntity
  8
0
 62
     3
100
AcDbLine
 10
-475.146977198802
 20
146.5457442381852
 30
0.0
 11
-475.1735879488018
 21
146.7161267581853
 31
0.0
  0
LINE
  5
1461
330
6B
100
AcDbEntity
  8
0
 62
     3
100
AcDbLine
 10
-475.1735879488018
 20
146.7161267581853
 30
0.0
 11
-475.2055467788018
 21
146.8792764481852
 31
0.0
  0
LINE
  5
1462
330
6B
100
AcDbEntity
  8
0
 62
     3
100
AcDbLine
 10
-475.2055467788018
 20
146.8792764481852
 30
0.0
 11
-475.2426066788019
 21
147.0339322481852
 31
0.0
  0
LINE
  5
1463
330
6B
100
AcDbEntity
  8
0
 62
     3
100
AcDbLine
 10
-475.2426066788019
 20
147.0339322481852
 30
0.0
 11
-475.284481178802
 21
147.1788987481852
 31
0.0
  0
LINE
  5
1464
330
6B
100
AcDbEntity
  8
0
 62
     3
100
AcDbLine
 10
-475.284481178802
 20
147.1788987481852
 30
0.0
 11
-475.3308466088019
 21
147.3130554381853
 31
0.0
  0
LINE
  5
1465
330
6B
100
AcDbEntity
  8
0
 62
     3
100
AcDbLine
 10
-475.3308466088019
 20
147.3130554381853
 30
0.0
 11
-475.3813445988019
 21
147.4353653381852
 31
0.0
  0
LINE
  5
1466
330
6B
100
AcDbEntity
  8
0
 62
     3
100
AcDbLine
 10
-475.3813445988019
 20
147.4353653381852
 30
0.0
 11
-475.4355848188018
 21
147.5448830781852
 31
0.0
  0
LINE
  5
1467
330
6B
100
AcDbEntity
  8
0
 62
     3
100
AcDbLine
 10
-475.4355848188018
 20
147.5448830781852
 30
0.0
 11
-475.493148018802
 21
147.6407621281852
 31
0.0
  0
LINE
  5
1468
330
6B
100
AcDbEntity
  8
0
 62
     3
100
AcDbLine
 10
-475.493148018802
 20
147.6407621281852
 30
0.0
 11
-475.5535892688018
 21
147.7222613981852
 31
0.0
  0
LINE
  5
1469
330
6B
100
AcDbEntity
  8
0
 62
     3
100
AcDbLine
 10
-475.5535892688018
 20
147.7222613981852
 30
0.0
 11
-475.6164413888019
 21
147.7887509381852
 31
0.0
  0
LINE
  5
146A
330
6B
100
AcDbEntity
  8
0
 62
     3
100
AcDbLine
 10
-475.6164413888019
 20
147.7887509381852
 30
0.0
 11
-475.681218568802
 21
147.8397168181852
 31
0.0
  0
LINE
  5
146B
330
6B
100
AcDbEntity
  8
0
 62
     3
100
AcDbLine
 10
-475.681218568802
 20
147.8397168181852
 30
0.0
 11
-475.747420098802
 21
147.8747650981852
 31
0.0
  0
LINE
  5
146C
330
6B
100
AcDbEntity
  8
0
 62
     3
100
AcDbLine
 10
-475.747420098802
 20
147.8747650981852
 30
0.0
 11
-475.814534288802
 21
147.8936248681852
 31
0.0
  0
LINE
  5
146D
330
6B
100
AcDbEntity
  8
0
 62
     3
100
AcDbLine
 10
-475.814534288802
 20
147.8936248681852
 30
0.0
 11
-475.8820423788018
 21
147.8961503681852
 31
0.0
  0
LINE
  5
146E
330
6B
100
AcDbEntity
  8
0
 62
     3
100
AcDbLine
 10
-475.8820423788018
 20
147.8961503681852
 30
0.0
 11
-475.949422568802
 21
147.8823220581852
 31
0.0
  0
LINE
  5
146F
330
6B
100
AcDbEntity
  8
0
 62
     3
100
AcDbLine
 10
-475.949422568802
 20
147.8823220581852
 30
0.0
 11
-476.0161540388017
 21
147.8522468281852
 31
0.0
  0
LINE
  5
1470
330
6B
100
AcDbEntity
  8
0
 62
     3
100
AcDbLine
 10
-476.0161540388017
 20
147.8522468281852
 30
0.0
 11
-476.081720978802
 21
147.8061571581852
 31
0.0
  0
LINE
  5
1471
330
6B
100
AcDbEntity
  8
0
 62
     3
100
AcDbLine
 10
-476.081720978802
 20
147.8061571581852
 30
0.0
 11
-476.145616618802
 21
147.7444092781852
 31
0.0
  0
LINE
  5
1472
330
6B
100
AcDbEntity
  8
0
 62
     3
100
AcDbLine
 10
-476.145616618802
 20
147.7444092781852
 30
0.0
 11
-476.2073470488018
 21
147.6674804881852
 31
0.0
  0
LINE
  5
1473
330
6B
100
AcDbEntity
  8
0
 62
     3
100
AcDbLine
 10
-476.2073470488018
 20
147.6674804881852
 30
0.0
 11
-476.266435138802
 21
147.5759653881853
 31
0.0
  0
LINE
  5
1474
330
6B
100
AcDbEntity
  8
0
 62
     3
100
AcDbLine
 10
-476.266435138802
 20
147.5759653881853
 30
0.0
 11
-476.3224241688019
 21
147.4705713581852
 31
0.0
  0
LINE
  5
1475
330
6B
100
AcDbEntity
  8
0
 62
     3
100
AcDbLine
 10
-476.3224241688019
 20
147.4705713581852
 30
0.0
 11
-476.3748813688018
 21
147.3521130281852
 31
0.0
  0
LINE
  5
1476
330
6B
100
AcDbEntity
  8
0
 62
     3
100
AcDbLine
 10
-476.3748813688018
 20
147.3521130281852
 30
0.0
 11
-476.4234012688018
 21
147.2215060181852
 31
0.0
  0
LINE
  5
1477
330
6B
100
AcDbEntity
  8
0
 62
     3
100
AcDbLine
 10
-476.4234012688018
 20
147.2215060181852
 30
0.0
 11
-476.4676088488021
 21
147.0797598681852
 31
0.0
  0
LINE
  5
1478
330
6B
100
AcDbEntity
  8
0
 62
     3
100
AcDbLine
 10
-476.4676088488021
 20
147.0797598681852
 30
0.0
 11
-476.507162388802
 21
146.9279701981852
 31
0.0
  0
LINE
  5
1479
330
6B
100
AcDbEntity
  8
0
 62
     3
100
AcDbLine
 10
-476.507162388802
 20
146.9279701981852
 30
0.0
 11
-476.5417561688018
 21
146.7673102581852
 31
0.0
  0
LINE
  5
147A
330
6B
100
AcDbEntity
  8
0
 62
     3
100
AcDbLine
 10
-476.5417561688018
 20
146.7673102581852
 30
0.0
 11
-476.571122798802
 21
146.5990218681852
 31
0.0
  0
LINE
  5
147B
330
6B
100
AcDbEntity
  8
0
 62
     3
100
AcDbLine
 10
-476.571122798802
 20
146.5990218681852
 30
0.0
 11
-476.5950352888018
 21
146.4244058081852
 31
0.0
  0
LINE
  5
147C
330
6B
100
AcDbEntity
  8
0
 62
     3
100
AcDbLine
 10
-476.5950352888018
 20
146.4244058081852
 30
0.0
 11
-476.613308798802
 21
146.2448117781853
 31
0.0
  0
LINE
  5
147D
330
6B
100
AcDbEntity
  8
0
 62
     3
100
AcDbLine
 10
-476.613308798802
 20
146.2448117781853
 30
0.0
 11
-476.6258020988018
 21
146.0616279381851
 31
0.0
  0
LINE
  5
147E
330
6B
100
AcDbEntity
  8
0
 62
     3
100
AcDbLine
 10
-476.6258020988018
 20
146.0616279381851
 30
0.0
 11
-476.632418608802
 21
145.8762702181852
 31
0.0
  0
LINE
  5
147F
330
6B
100
AcDbEntity
  8
0
 62
     3
100
AcDbLine
 10
-476.632418608802
 20
145.8762702181852
 30
0.0
 11
-476.633107198802
 21
145.6901713181852
 31
0.0
  0
LINE
  5
1480
330
6B
100
AcDbEntity
  8
0
 62
     3
100
AcDbLine
 10
-476.633107198802
 20
145.6901713181852
 30
0.0
 11
-476.627862538802
 21
145.5047697081852
 31
0.0
  0
LINE
  5
1481
330
6B
100
AcDbEntity
  8
0
 62
     3
100
AcDbLine
 10
-476.627862538802
 20
145.5047697081852
 30
0.0
 11
-476.616725168802
 21
145.3214984381852
 31
0.0
  0
LINE
  5
1482
330
6B
100
AcDbEntity
  8
0
 62
     3
100
AcDbLine
 10
-476.616725168802
 20
145.3214984381852
 30
0.0
 11
-476.599781168802
 21
145.1417740981852
 31
0.0
  0
LINE
  5
1483
330
6B
100
AcDbEntity
  8
0
 62
     3
100
AcDbLine
 10
-476.599781168802
 20
145.1417740981852
 30
0.0
 11
-476.5771615188018
 21
144.9669858681852
 31
0.0
  0
LINE
  5
1484
330
6B
100
AcDbEntity
  8
0
 62
     3
100
AcDbLine
 10
-476.5771615188018
 20
144.9669858681852
 30
0.0
 11
-476.549041048802
 21
144.7984847681853
 31
0.0
  0
LINE
  5
1485
330
6B
100
AcDbEntity
  8
0
 62
     3
100
AcDbLine
 10
-476.549041048802
 20
144.7984847681853
 30
0.0
 11
-476.515637118802
 21
144.6375732281852
 31
0.0
  0
LINE
  5
1486
330
6B
100
AcDbEntity
  8
0
 62
     3
100
AcDbLine
 10
-476.515637118802
 20
144.6375732281852
 30
0.0
 11
-476.4772079188018
 21
144.4854950081852
 31
0.0
  0
LINE
  5
1487
330
6B
100
AcDbEntity
  8
0
 62
     3
100
AcDbLine
 10
-476.4772079188018
 20
144.4854950081852
 30
0.0
 11
-476.434050498802
 21
144.3434255981852
 31
0.0
  0
LINE
  5
1488
330
6B
100
AcDbEntity
  8
0
 62
     3
100
AcDbLine
 10
-476.434050498802
 20
144.3434255981852
 30
0.0
 11
-476.386498428802
 21
144.2124631181853
 31
0.0
  0
LINE
  5
1489
330
6B
100
AcDbEntity
  8
0
 62
     3
100
AcDbLine
 10
-476.386498428802
 20
144.2124631181853
 30
0.0
 11
-476.334919278802
 21
144.0936198381853
 31
0.0
  0
LINE
  5
148A
330
6B
100
AcDbEntity
  8
0
 62
     3
100
AcDbLine
 10
-476.334919278802
 20
144.0936198381853
 30
0.0
 11
-476.279711708802
 21
143.9878143681852
 31
0.0
  0
LINE
  5
148B
330
6B
100
AcDbEntity
  8
0
 62
     3
100
AcDbLine
 10
-476.279711708802
 20
143.9878143681852
 30
0.0
 11
-476.221302458802
 21
143.8958645081852
 31
0.0
  0
LINE
  5
148C
330
6B
100
AcDbEntity
  8
0
 62
     3
100
AcDbLine
 10
-476.221302458802
 20
143.8958645081852
 30
0.0
 11
-476.160142998802
 21
143.8184810081852
 31
0.0
  0
LINE
  5
148D
330
6B
100
AcDbEntity
  8
0
 62
     3
100
AcDbLine
 10
-476.160142998802
 20
143.8184810081852
 30
0.0
 11
-476.0967060588018
 21
143.7562619881852
 31
0.0
  0
LINE
  5
148E
330
6B
100
AcDbEntity
  8
0
 62
     3
100
AcDbLine
 10
-476.0967060588018
 20
143.7562619881852
 30
0.0
 11
-476.0314819788018
 21
143.7096883781852
 31
0.0
  0
LINE
  5
148F
330
6B
100
AcDbEntity
  8
0
 62
     3
100
AcDbLine
 10
-476.0314819788018
 20
143.7096883781852
 30
0.0
 11
-475.9649748988018
 21
143.6791201481852
 31
0.0
  0
LINE
  5
1490
330
6B
100
AcDbEntity
  8
0
 62
     3
100
AcDbLine
 10
-475.9649748988018
 20
143.6791201481852
 30
0.0
 11
-475.897698888802
 21
143.6647935981851
 31
0.0
  0
LINE
  5
1491
330
6B
100
AcDbEntity
  8
0
 62
     3
100
AcDbLine
 10
-475.897698888802
 20
143.6647935981851
 30
0.0
 11
-475.8301739588018
 21
143.6668194581852
 31
0.0
  0
LINE
  5
1492
330
6B
100
AcDbEntity
  8
0
 62
     3
100
AcDbLine
 10
-475.8301739588018
 20
143.6668194581852
 30
0.0
 11
-475.762922038802
 21
143.6851820581852
 31
0.0
  0
LINE
  5
1493
330
6B
100
AcDbEntity
  8
0
 62
     3
100
AcDbLine
 10
-475.762922038802
 20
143.6851820581852
 30
0.0
 11
-475.6964629588019
 21
143.7197394781852
 31
0.0
  0
LINE
  5
1494
330
6B
100
AcDbEntity
  8
0
 62
     3
100
AcDbLine
 10
-475.6964629588019
 20
143.7197394781852
 30
0.0
 11
-475.631310398802
 21
143.7702246081852
 31
0.0
  0
LINE
  5
1495
330
6B
100
AcDbEntity
  8
0
 62
     3
100
AcDbLine
 10
-475.631310398802
 20
143.7702246081852
 30
0.0
 11
-475.567967968802
 21
143.8362472081852
 31
0.0
  0
LINE
  5
1496
330
6B
100
AcDbEntity
  8
0
 62
     3
100
AcDbLine
 10
-475.567967968802
 20
143.8362472081852
 30
0.0
 11
-475.5069252688018
 21
143.9172969681852
 31
0.0
  0
LINE
  5
1497
330
6B
100
AcDbEntity
  8
0
 62
     3
100
AcDbLine
 10
-475.5069252688018
 20
143.9172969681852
 30
0.0
 11
-475.4486541288018
 21
144.0127474181852
 31
0.0
  0
LINE
  5
1498
330
6B
100
AcDbEntity
  8
0
 62
     3
100
AcDbLine
 10
-475.4486541288018
 20
144.0127474181852
 30
0.0
 11
-475.393604948802
 21
144.1218607781852
 31
0.0
  0
LINE
  5
1499
330
6B
100
AcDbEntity
  8
0
 62
     3
100
AcDbLine
 10
-475.393604948802
 20
144.1218607781852
 30
0.0
 11
-475.3422032288018
 21
144.2437936381852
 31
0.0
  0
LINE
  5
149A
330
6B
100
AcDbEntity
  8
0
 62
     3
100
AcDbLine
 10
-475.3422032288018
 20
144.2437936381852
 30
0.0
 11
-475.294846288802
 21
144.3776035481852
 31
0.0
  0
LINE
  5
149B
330
6B
100
AcDbEntity
  8
0
 62
     3
100
AcDbLine
 10
-475.294846288802
 20
144.3776035481852
 30
0.0
 11
-475.2519001688018
 21
144.5222561981852
 31
0.0
  0
LINE
  5
149C
330
6B
100
AcDbEntity
  8
0
 62
     3
100
AcDbLine
 10
-475.2519001688018
 20
144.5222561981852
 30
0.0
 11
-475.2136968188018
 21
144.6766335181852
 31
0.0
  0
LINE
  5
149D
330
6B
100
AcDbEntity
  8
0
 62
     3
100
AcDbLine
 10
-475.2136968188018
 20
144.6766335181852
 30
0.0
 11
-475.180531528802
 21
144.8395422481852
 31
0.0
  0
LINE
  5
149E
330
6B
100
AcDbEntity
  8
0
 62
     3
100
AcDbLine
 10
-475.180531528802
 20
144.8395422481852
 30
0.0
 11
-475.1526606488019
 21
145.0097231781852
 31
0.0
  0
TEXT
  5
149F
330
6B
100
AcDbEntity
  8
0
 62
     4
100
AcDbText
 10
-432.0664912388018
 20
84.60552369818516
 30
0.0
 40
3.0
  1
2t
 50
90.0
100
AcDbText
  0
LINE
  5
14A0
330
6B
100
AcDbEntity
  8
0
  6
ByBlock
 62
     0
370
    -2
100
AcDbLine
 10
-430.7716187388018
 20
81.48052369818524
 30
0.0
 11
-431.4414912388018
 21
78.98052369818524
 31
0.0
  0
LINE
  5
14A1
330
6B
100
AcDbEntity
  8
0
  6
ByBlock
 62
     0
370
    -2
100
AcDbLine
 10
-431.4414912388018
 20
78.98052369818524
 30
0.0
 11
-432.1113637388018
 21
81.48052369818524
 31
0.0
  0
LINE
  5
14A2
330
6B
100
AcDbEntity
  8
0
  6
ByBlock
 62
     0
370
    -2
100
AcDbLine
 10
-431.4414912388018
 20
78.98052369818524
 30
0.0
 11
-431.4414912388018
 21
81.48052369818524
 31
0.0
  0
LINE
  5
14A3
330
6B
100
AcDbEntity
  8
0
  6
ByBlock
 62
     0
370
    -2
100
AcDbLine
 10
-432.1113637388018
 20
73.48052369818524
 30
0.0
 11
-431.4414912388018
 21
75.98052369818524
 31
0.0
  0
LINE
  5
14A4
330
6B
100
AcDbEntity
  8
0
  6
ByBlock
 62
     0
370
    -2
100
AcDbLine
 10
-431.4414912388018
 20
75.98052369818524
 30
0.0
 11
-430.7716187388018
 21
73.48052369818524
 31
0.0
  0
LINE
  5
14A5
330
6B
100
AcDbEntity
  8
0
  6
ByBlock
 62
     0
370
    -2
100
AcDbLine
 10
-431.4414912388018
 20
75.98052369818524
 30
0.0
 11
-431.4414912388018
 21
73.48052369818524
 31
0.0
  0
TEXT
  5
14A6
330
6B
100
AcDbEntity
  8
0
 62
     4
100
AcDbText
 10
-387.0456725065499
 20
-13.28297730181476
 30
0.0
 40
3.0
  1
15
 50
90.0
100
AcDbText
  0
LINE
  5
14A7
330
6B
100
AcDbEntity
  8
0
  6
ByBlock
 62
     0
370
    -2
100
AcDbLine
 10
-387.0905450065499
 20
-5.782977301814767
 30
0.0
 11
-386.4206725065498
 21
-3.282977301814768
 31
0.0
  0
LINE
  5
14A8
330
6B
100
AcDbEntity
  8
0
  6
ByBlock
 62
     0
370
    -2
100
AcDbLine
 10
-386.4206725065498
 20
-3.282977301814768
 30
0.0
 11
-385.7508000065499
 21
-5.782977301814767
 31
0.0
  0
LINE
  5
14A9
330
6B
100
AcDbEntity
  8
0
  6
ByBlock
 62
     0
370
    -2
100
AcDbLine
 10
-386.4206725065498
 20
-3.282977301814768
 30
0.0
 11
-386.4206725065498
 21
-5.782977301814767
 31
0.0
  0
LINE
  5
14AA
330
6B
100
AcDbEntity
  8
0
  6
ByBlock
 62
     0
370
    -2
100
AcDbLine
 10
-385.7508000065499
 20
14.30655569818522
 30
0.0
 11
-386.4206725065498
 21
11.80655569818523
 31
0.0
  0
LINE
  5
14AB
330
6B
100
AcDbEntity
  8
0
  6
ByBlock
 62
     0
370
    -2
100
AcDbLine
 10
-386.4206725065498
 20
11.80655569818523
 30
0.0
 11
-387.0905450065499
 21
14.30655569818522
 31
0.0
  0
LINE
  5
14AC
330
6B
100
AcDbEntity
  8
0
  6
ByBlock
 62
     0
370
    -2
100
AcDbLine
 10
-386.4206725065498
 20
11.80655569818523
 30
0.0
 11
-386.4206725065498
 21
14.30655569818522
 31
0.0
  0
TEXT
  5
14AD
330
6B
100
AcDbEntity
  8
0
 62
     4
100
AcDbText
 10
-441.5515512388019
 20
28.74041469818524
 30
0.0
 40
3.0
  1
L寸法
100
AcDbText
  0
LINE
  5
14AE
330
6B
100
AcDbEntity
  8
0
  6
ByBlock
 62
     0
370
    -2
100
AcDbLine
 10
-316.4606682388019
 20
28.78528719818524
 30
0.0
 11
-313.9606682388019
 21
28.11541469818524
 31
0.0
  0
LINE
  5
14AF
330
6B
100
AcDbEntity
  8
0
  6
ByBlock
 62
     0
370
    -2
100
AcDbLine
 10
-313.9606682388019
 20
28.11541469818524
 30
0.0
 11
-316.4606682388019
 21
27.44554219818524
 31
0.0
  0
LINE
  5
14B0
330
6B
100
AcDbEntity
  8
0
  6
ByBlock
 62
     0
370
    -2
100
AcDbLine
 10
-313.9606682388019
 20
28.11541469818524
 30
0.0
 11
-316.4606682388019
 21
28.11541469818524
 31
0.0
  0
LINE
  5
14B1
330
6B
100
AcDbEntity
  8
0
  6
ByBlock
 62
     0
370
    -2
100
AcDbLine
 10
-557.2424342388019
 20
27.44554219818524
 30
0.0
 11
-559.7424342388019
 21
28.11541469818524
 31
0.0
  0
LINE
  5
14B2
330
6B
100
AcDbEntity
  8
0
  6
ByBlock
 62
     0
370
    -2
100
AcDbLine
 10
-559.7424342388019
 20
28.11541469818524
 30
0.0
 11
-557.2424342388019
 21
28.78528719818524
 31
0.0
  0
LINE
  5
14B3
330
6B
100
AcDbEntity
  8
0
  6
ByBlock
 62
     0
370
    -2
100
AcDbLine
 10
-559.7424342388019
 20
28.11541469818524
 30
0.0
 11
-557.2424342388019
 21
28.11541469818524
 31
0.0
  0
TEXT
  5
14B4
330
6B
100
AcDbEntity
  8
0
 62
     4
100
AcDbText
 10
-593.2602102388018
 20
28.74041469818524
 30
0.0
 40
3.0
  1
65
100
AcDbText
  0
LINE
  5
14B5
330
6B
100
AcDbEntity
  8
0
  6
ByBlock
 62
     0
370
    -2
100
AcDbLine
 10
-562.2424342388019
 20
28.78528719818524
 30
0.0
 11
-559.7424342388019
 21
28.11541469818524
 31
0.0
  0
LINE
  5
14B6
330
6B
100
AcDbEntity
  8
0
  6
ByBlock
 62
     0
370
    -2
100
AcDbLine
 10
-559.7424342388019
 20
28.11541469818524
 30
0.0
 11
-562.2424342388019
 21
27.44554219818524
 31
0.0
  0
LINE
  5
14B7
330
6B
100
AcDbEntity
  8
0
  6
ByBlock
 62
     0
370
    -2
100
AcDbLine
 10
-559.7424342388019
 20
28.11541469818524
 30
0.0
 11
-562.2424342388019
 21
28.11541469818524
 31
0.0
  0
LINE
  5
14B8
330
6B
100
AcDbEntity
  8
0
  6
ByBlock
 62
     0
370
    -2
100
AcDbLine
 10
-619.2779862388018
 20
27.44554219818524
 30
0.0
 11
-621.7779862388018
 21
28.11541469818524
 31
0.0
  0
LINE
  5
14B9
330
6B
100
AcDbEntity
  8
0
  6
ByBlock
 62
     0
370
    -2
100
AcDbLine
 10
-621.7779862388018
 20
28.11541469818524
 30
0.0
 11
-619.2779862388018
 21
28.78528719818524
 31
0.0
  0
LINE
  5
14BA
330
6B
100
AcDbEntity
  8
0
  6
ByBlock
 62
     0
370
    -2
100
AcDbLine
 10
-621.7779862388018
 20
28.11541469818524
 30
0.0
 11
-619.2779862388018
 21
28.11541469818524
 31
0.0
  0
TEXT
  5
14BB
330
6B
100
AcDbEntity
  8
0
 62
     4
100
AcDbText
 10
-306.1111712388019
 20
1.764203698185179
 30
0.0
 40
3.0
  1
24
 50
90.0
100
AcDbText
  0
LINE
  5
14BC
330
6B
100
AcDbEntity
  8
0
  6
ByBlock
 62
     0
370
    -2
100
AcDbLine
 10
-306.1560437388019
 20
13.76420369818523
 30
0.0
 11
-305.4861712388019
 21
16.26420369818523
 31
0.0
  0
LINE
  5
14BD
330
6B
100
AcDbEntity
  8
0
  6
ByBlock
 62
     0
370
    -2
100
AcDbLine
 10
-305.4861712388019
 20
16.26420369818523
 30
0.0
 11
-304.8162987388019
 21
13.76420369818523
 31
0.0
  0
LINE
  5
14BE
330
6B
100
AcDbEntity
  8
0
  6
ByBlock
 62
     0
370
    -2
100
AcDbLine
 10
-305.4861712388019
 20
16.26420369818523
 30
0.0
 11
-305.4861712388019
 21
13.76420369818523
 31
0.0
  0
LINE
  5
14BF
330
6B
100
AcDbEntity
  8
0
  6
ByBlock
 62
     0
370
    -2
100
AcDbLine
 10
-304.8162987388019
 20
-5.235796301814768
 30
0.0
 11
-305.4861712388019
 21
-7.735796301814768
 31
0.0
  0
LINE
  5
14C0
330
6B
100
AcDbEntity
  8
0
  6
ByBlock
 62
     0
370
    -2
100
AcDbLine
 10
-305.4861712388019
 20
-7.735796301814768
 30
0.0
 11
-306.1560437388019
 21
-5.235796301814768
 31
0.0
  0
LINE
  5
14C1
330
6B
100
AcDbEntity
  8
0
  6
ByBlock
 62
     0
370
    -2
100
AcDbLine
 10
-305.4861712388019
 20
-7.735796301814768
 30
0.0
 11
-305.4861712388019
 21
-5.235796301814768
 31
0.0
  0
TEXT
  5
14C2
330
6B
100
AcDbEntity
  8
0
 62
     4
100
AcDbText
 10
-304.1566732388019
 20
79.97829269818517
 30
0.0
 40
3.0
  1
10
 50
90.0
100
AcDbText
  0
LINE
  5
14C3
330
6B
100
AcDbEntity
  8
0
  6
ByBlock
 62
     0
370
    -2
100
AcDbLine
 10
-304.2015457388019
 20
84.22829269818523
 30
0.0
 11
-303.5316732388019
 21
86.72829269818523
 31
0.0
  0
LINE
  5
14C4
330
6B
100
AcDbEntity
  8
0
  6
ByBlock
 62
     0
370
    -2
100
AcDbLine
 10
-303.5316732388019
 20
86.72829269818523
 30
0.0
 11
-302.8618007388019
 21
84.22829269818523
 31
0.0
  0
LINE
  5
14C5
330
6B
100
AcDbEntity
  8
0
  6
ByBlock
 62
     0
370
    -2
100
AcDbLine
 10
-303.5316732388019
 20
86.72829269818523
 30
0.0
 11
-303.5316732388019
 21
84.22829269818523
 31
0.0
  0
LINE
  5
14C6
330
6B
100
AcDbEntity
  8
0
  6
ByBlock
 62
     0
370
    -2
100
AcDbLine
 10
-302.8618007388019
 20
79.22829269818523
 30
0.0
 11
-303.5316732388019
 21
76.72829269818523
 31
0.0
  0
LINE
  5
14C7
330
6B
100
AcDbEntity
  8
0
  6
ByBlock
 62
     0
370
    -2
100
AcDbLine
 10
-303.5316732388019
 20
76.72829269818523
 30
0.0
 11
-304.2015457388019
 21
79.22829269818523
 31
0.0
  0
LINE
  5
14C8
330
6B
100
AcDbEntity
  8
0
  6
ByBlock
 62
     0
370
    -2
100
AcDbLine
 10
-303.5316732388019
 20
76.72829269818523
 30
0.0
 11
-303.5316732388019
 21
79.22829269818523
 31
0.0
  0
TEXT
  5
14C9
330
6B
100
AcDbEntity
  8
0
 62
     4
100
AcDbText
 10
-635.5765792388019
 20
77.27036169818514
 30
0.0
 40
3.0
  1
53
 50
90.0
100
AcDbText
  0
LINE
  5
14CA
330
6B
100
AcDbEntity
  8
0
  6
ByBlock
 62
     0
370
    -2
100
AcDbLine
 10
-635.6214517388018
 20
104.6139296981852
 30
0.0
 11
-634.9515792388018
 21
107.1139296981852
 31
0.0
  0
LINE
  5
14CB
330
6B
100
AcDbEntity
  8
0
  6
ByBlock
 62
     0
370
    -2
100
AcDbLine
 10
-634.9515792388018
 20
107.1139296981852
 30
0.0
 11
-634.2817067388018
 21
104.6139296981852
 31
0.0
  0
LINE
  5
14CC
330
6B
100
AcDbEntity
  8
0
  6
ByBlock
 62
     0
370
    -2
100
AcDbLine
 10
-634.9515792388018
 20
107.1139296981852
 30
0.0
 11
-634.9515792388018
 21
104.6139296981852
 31
0.0
  0
LINE
  5
14CD
330
6B
100
AcDbEntity
  8
0
  6
ByBlock
 62
     0
370
    -2
100
AcDbLine
 10
-634.2817067388018
 20
54.92679369818525
 30
0.0
 11
-634.9515792388018
 21
52.42679369818525
 31
0.0
  0
LINE
  5
14CE
330
6B
100
AcDbEntity
  8
0
  6
ByBlock
 62
     0
370
    -2
100
AcDbLine
 10
-634.9515792388018
 20
52.42679369818525
 30
0.0
 11
-635.6214517388018
 21
54.92679369818525
 31
0.0
  0
LINE
  5
14CF
330
6B
100
AcDbEntity
  8
0
  6
ByBlock
 62
     0
370
    -2
100
AcDbLine
 10
-634.9515792388018
 20
52.42679369818525
 30
0.0
 11
-634.9515792388018
 21
54.92679369818525
 31
0.0
  0
TEXT
  5
14D0
330
6B
100
AcDbEntity
  8
0
 62
     4
100
AcDbText
 10
-598.0903291884827
 20
81.00468467409838
 30
0.0
 40
3.0
  1
\U+220530
 50
299.2213694603109
100
AcDbText
  0
LINE
  5
14D1
330
6B
100
AcDbEntity
  8
0
  6
ByBlock
 62
     0
370
    -2
100
AcDbLine
 10
-603.4920368133903
 20
88.00902270802168
 30
0.0
 11
-604.1278752388016
 21
90.51789469818515
 31
0.0
  0
LINE
  5
14D2
330
6B
100
AcDbEntity
  8
0
  6
ByBlock
 62
     0
370
    -2
100
AcDbLine
 10
-604.1278752388016
 20
90.51789469818515
 30
0.0
 11
-602.3227876806457
 21
88.66306638439255
 31
0.0
  0
LINE
  5
14D3
330
6B
100
AcDbEntity
  8
0
  6
ByBlock
 62
     0
370
    -2
100
AcDbLine
 10
-604.1278752388016
 20
90.51789469818515
 30
0.0
 11
-602.907412247018
 21
88.33604454620711
 31
0.0
  0
LINE
  5
14D4
330
6B
100
AcDbEntity
  8
0
  6
ByBlock
 62
     0
370
    -2
100
AcDbLine
 10
-590.118157664213
 20
66.84456468834881
 30
0.0
 11
-589.4823192388018
 21
64.33569269818534
 31
0.0
  0
LINE
  5
14D5
330
6B
100
AcDbEntity
  8
0
  6
ByBlock
 62
     0
370
    -2
100
AcDbLine
 10
-589.4823192388018
 20
64.33569269818534
 30
0.0
 11
-591.2874067969577
 21
66.19052101197794
 31
0.0
  0
LINE
  5
14D6
330
6B
100
AcDbEntity
  8
0
  6
ByBlock
 62
     0
370
    -2
100
AcDbLine
 10
-589.4823192388018
 20
64.33569269818534
 30
0.0
 11
-590.7027822305853
 21
66.51754285016338
 31
0.0
  0
ENDSEC
  0
SECTION
  2
OBJECTS
  0
DICTIONARY
  5
C
330
0
100
AcDbDictionary
281
     1
  3
ACAD_2007HEADERVARS_RT
350
14DA
  3
ACAD_COLOR
350
62
  3
ACAD_GROUP
350
D
  3
ACAD_LAYOUT
350
61
  3
ACAD_MATERIAL
350
10
  3
ACAD_MLEADERSTYLE
350
65
  3
ACAD_MLINESTYLE
350
5E
  3
ACAD_PLOTSETTINGS
350
60
  3
ACAD_PLOTSTYLENAME
350
E
  3
ACAD_SCALELIST
350
42
  3
ACAD_TABLESTYLE
350
63
  3
ACAD_VISUALSTYLE
350
29
  3
ACDB_RECOMPOSE_DATA
350
14D8
  3
AcDbVariableDictionary
350
B41
  3
AEC_PROPERTY_SET_DEFS
350
F18
  3
DWGPROPS
350
14D9
  0
DICTIONARY
  5
4AA
330
2
100
AcDbDictionary
280
     1
281
     1
  3
ACAD_LAYERSTATES
360
4AB
  0
DICTIONARY
  5
B3F
330
54
100
AcDbDictionary
280
     1
281
     1
  3
ADSK_XREC_LAYER_RECONCILED
360
B40
  0
DICTIONARY
  5
A99
330
6B
100
AcDbDictionary
280
     1
281
     1
  3
ACAD_SORTENTS
360
A9A
  0
DICTIONARY
  5
1515
330
BDA
100
AcDbDictionary
280
     1
281
     1
  3
ACAD_MTEXT_RT
360
1516
  0
DICTIONARY
  5
1517
330
C23
100
AcDbDictionary
280
     1
281
     1
  3
ACAD_MTEXT_RT
360
1518
  0
DICTIONARY
  5
1519
330
1284
100
AcDbDictionary
280
     1
281
     1
  3
ACAD_MTEXT_RT
360
151A
  0
DICTIONARY
  5
14DA
102
{ACAD_REACTORS
330
C
102
}
330
C
100
AcDbDictionary
281
     1
  3
DIMARCSYM
350
14DC
  3
DIMFXL
350
14DB
  3
DIMJOGANG
350
14DD
  0
DICTIONARY
  5
62
102
{ACAD_REACTORS
330
C
102
}
330
C
100
AcDbDictionary
281
     1
  0
DICTIONARY
  5
D
102
{ACAD_REACTORS
330
C
102
}
330
C
100
AcDbDictionary
281
     1
  0
DICTIONARY
  5
61
102
{ACAD_REACTORS
330
C
102
}
330
C
100
AcDbDictionary
281
     1
  3
Model
350
6E
  3
レイアウト1
350
6A
  0
DICTIONARY
  5
10
102
{ACAD_REACTORS
330
C
102
}
330
C
100
AcDbDictionary
281
     1
  3
ByBlock
350
19
  3
ByLayer
350
11
  3
Global
350
21
  0
DICTIONARY
  5
65
102
{ACAD_REACTORS
330
C
102
}
330
C
100
AcDbDictionary
281
     1
  3
Standard
350
66
  0
DICTIONARY
  5
5E
102
{ACAD_REACTORS
330
C
102
}
330
C
100
AcDbDictionary
281
     1
  3
Standard
350
5F
  0
DICTIONARY
  5
60
102
{ACAD_REACTORS
330
C
102
}
330
C
100
AcDbDictionary
281
     1
  0
ACDBDICTIONARYWDFLT
  5
E
102
{ACAD_REACTORS
330
C
102
}
330
C
100
AcDbDictionary
281
     1
  3
Normal
350
F
100
AcDbDictionaryWithDefault
340
F
  0
DICTIONARY
  5
42
102
{ACAD_REACTORS
330
C
102
}
330
C
100
AcDbDictionary
281
     1
  3
A0
350
43
  3
A1
350
44
  3
A2
350
45
  3
A3
350
46
  3
A4
350
47
  3
A5
350
48
  3
A6
350
49
  3
A7
350
4A
  3
A8
350
4B
  3
A9
350
4C
  3
B0
350
4D
  3
B1
350
4E
  3
B2
350
4F
  3
B3
350
50
  3
B4
350
51
  3
B5
350
52
  3
B6
350
53
  0
DICTIONARY
  5
63
102
{ACAD_REACTORS
330
C
102
}
330
C
100
AcDbDictionary
281
     1
  3
Standard
350
64
  0
DICTIONARY
  5
29
102
{ACAD_REACTORS
330
C
102
}
330
C
100
AcDbDictionary
281
     1
  3
2dWireframe
350
2F
  3
3dWireframe
350
82A
  3
Basic
350
2E
  3
Brighten
350
35
  3
ColorChange
350
39
  3
Conceptual
350
32
  3
Dim
350
34
  3
EdgeColorOff
350
41
  3
Facepattern
350
38
  3
Flat
350
2A
  3
FlatWithEdges
350
2B
  3
Gouraud
350
2C
  3
GouraudWithEdges
350
2D
  3
Hidden
350
31
  3
JitterOff
350
3F
  3
Linepattern
350
37
  3
OverhangOff
350
40
  3
Realistic
350
33
  3
Shaded
350
3E
  3
Shaded with edges
350
3D
  3
Shades of Gray
350
3A
  3
Sketchy
350
3B
  3
Thicken
350
36
  3
Wireframe
350
30
  3
X-Ray
350
3C
  0
XRECORD
  5
14D8
102
{ACAD_REACTORS
330
C
102
}
330
C
100
AcDbXrecord
280
     1
 90
        1
330
64
  0
DICTIONARY
  5
B41
102
{ACAD_REACTORS
330
C
102
}
330
C
100
AcDbDictionary
281
     1
  3
CANNOSCALE
350
B44
  3
CMLEADERSTYLE
350
B43
  3
CTABLESTYLE
350
B42
  3
DIMASSOC
350
B47
  3
INDEXCTL
350
B46
  3
SORTENTS
350
B45
  3
XCLIPFRAME
350
12BA
  0
DICTIONARY
  5
F18
102
{ACAD_REACTORS
330
C
102
}
330
C
100
AcDbDictionary
281
     1
  0
XRECORD
  5
14D9
102
{ACAD_REACTORS
330
C
102
}
330
C
100
AcDbXrecord
280
     1
  1
DWGPROPS COOKIE
  2

  3

  4

  6

  7

  8
imamura
  9

300
=
301
=
302
=
303
=
304
=
305
=
306
=
307
=
308
=
309
=
 40
0.0838429282407408
 41
2456321.701804665
 42
2459793.734938588
  1

 90
        0
  0
DICTIONARY
  5
4AB
102
{ACAD_REACTORS
330
4AA
102
}
330
4AA
100
AcDbDictionary
281
     1
  0
XRECORD
  5
B40
102
{ACAD_REACTORS
330
B3F
102
}
330
B3F
100
AcDbXrecord
280
     1
290
     1
  0
SORTENTSTABLE
  5
A9A
102
{ACAD_REACTORS
330
A99
102
}
330
A99
100
AcDbSortentsTable
330
6B
331
A8A
  5
5D0
331
A13
  5
4FC
331
57E
  5
A32
331
53F
  5
9DD
331
12B9
  5
14D6
331
508
  5
681
331
9D4
  5
4BD
331
57A
  5
A2E
331
53B
  5
9D9
331
12B5
  5
14D2
331
504
  5
67B
331
9D0
  5
4B9
331
12B1
  5
14CE
331
500
  5
677
331
665
  5
145E
331
626
  5
13E1
331
5EF
  5
129F
331
661
  5
145A
331
622
  5
13DD
331
5EB
  5
129B
331
5AC
  5
A61
331
65D
  5
1418
331
61E
  5
13D8
331
5E7
  5
11CC
331
5A8
  5
A5D
331
659
  5
1414
331
5E3
  5
11C8
331
5A4
  5
A59
331
5A0
  5
A55
331
14C6
  5
609
331
14C2
  5
612
331
11BC
  5
14A4
331
14BE
  5
61B
331
11B8
  5
14A0
331
14BA
  5
622
331
148D
  5
541
331
1417
  5
13D6
331
A4E
  5
579
331
11B4
  5
149C
331
144A
  5
613
331
1489
  5
53D
331
1413
  5
1457
331
A4A
  5
575
331
11B0
  5
1498
331
1446
  5
61F
331
1485
  5
537
331
140F
  5
1453
331
A46
  5
571
331
A86
  5
5CC
331
A0F
  5
4F8
331
1481
  5
533
331
140B
  5
144F
331
A42
  5
56D
331
A82
  5
5C8
331
576
  5
A2A
331
537
  5
9D5
331
9CC
  5
4B5
331
A0B
  5
4F4
331
A7E
  5
5C4
331
572
  5
A26
331
533
  5
9D1
331
12AD
  5
14CA
331
4FC
  5
673
331
A07
  5
4F0
331
A7A
  5
5C0
331
694
  5
148D
331
56E
  5
A22
331
52F
  5
9CD
331
12A9
  5
14C6
331
4F8
  5
66F
331
A03
  5
4EC
331
690
  5
1489
331
56A
  5
A1E
331
52B
  5
843
331
12A5
  5
14C2
331
4F4
  5
66B
331
12A1
  5
14BE
331
4F0
  5
667
331
655
  5
1410
331
5DF
  5
11C4
331
651
  5
140C
331
5DB
  5
11C0
331
59C
  5
A50
331
64D
  5
1408
331
5D7
  5
11BC
331
598
  5
A4C
331
649
  5
1404
331
5D3
  5
11B8
331
594
  5
A48
331
590
  5
A44
331
14B6
  5
624
331
14B2
  5
62B
331
14AE
  5
62D
331
14AA
  5
636
331
143E
  5
627
331
147D
  5
52F
331
1407
  5
144B
331
A3E
  5
569
331
143A
  5
635
331
1479
  5
52B
331
1403
  5
1447
331
A3A
  5
565
331
1436
  5
631
331
1475
  5
527
331
13FF
  5
1443
331
A36
  5
561
331
A76
  5
5BC
331
9FF
  5
4E8
331
1432
  5
641
331
1471
  5
523
331
13FB
  5
143F
331
A32
  5
55D
331
A72
  5
5B8
331
68C
  5
1485
331
566
  5
A1A
331
527
  5
83F
331
9FB
  5
4E4
331
A6E
  5
5B4
331
688
  5
1481
331
562
  5
A16
331
523
  5
83B
331
129D
  5
14BA
331
4EC
  5
663
331
9F7
  5
4E0
331
A6A
  5
5B0
331
684
  5
147D
331
55E
  5
A11
331
51F
  5
698
331
4E8
  5
65F
331
9F3
  5
4DC
331
680
  5
1479
331
55A
  5
9F9
331
51B
  5
694
331
4E4
  5
65B
331
4E0
  5
657
331
645
  5
1400
331
5CF
  5
11B4
331
641
  5
13FC
331
5CB
  5
11B0
331
67C
  5
1475
331
63D
  5
13F8
331
606
  5
12B7
331
5C7
  5
A8E
331
678
  5
1471
331
639
  5
13F4
331
602
  5
12B2
331
5C3
  5
A8A
331
A98
  5
5DE
331
13F7
  5
143B
331
A2E
  5
559
331
146D
  5
51F
331
13F3
  5
1437
331
A2A
  5
555
331
1469
  5
51B
331
14A4
  5
643
331
13EF
  5
1433
331
142E
  5
63D
331
A65
  5
5AB
331
1465
  5
517
331
9EF
  5
4D8
331
14A0
  5
645
331
13EB
  5
142F
331
142A
  5
A69
331
A61
  5
5A8
331
1461
  5
513
331
556
  5
9F4
331
9EB
  5
4D4
331
552
  5
9F0
331
4DC
  5
653
331
9E7
  5
4D0
331
A26
  5
50F
331
A22
  5
50B
331
58D
  5
A41
331
54E
  5
9EC
331
517
  5
690
331
4D8
  5
64F
331
9E3
  5
4CC
331
589
  5
A3D
331
54A
  5
9E8
331
513
  5
68C
331
4D4
  5
64B
331
674
  5
146D
331
635
  5
13F0
331
5FE
  5
12AE
331
5BF
  5
A86
331
670
  5
1469
331
631
  5
13EC
331
5FA
  5
12AA
331
5BB
  5
A82
331
66C
  5
1465
331
62D
  5
13E8
331
5F6
  5
12A6
331
699
  5
1492
331
5B7
  5
A7E
331
668
  5
1461
331
629
  5
13E4
331
5F2
  5
12A2
331
5B3
  5
A7A
331
14D5
  5
5E4
331
14D1
  5
5E9
331
11CB
  5
14B3
331
14CD
  5
5F6
331
11C7
  5
14AF
331
14C9
  5
602
331
149C
  5
551
331
13E7
  5
142B
331
1426
  5
A65
331
A5D
  5
5A4
331
11C3
  5
14AB
331
1498
  5
54C
331
13E3
  5
1427
331
1422
  5
A75
331
A59
  5
5A0
331
1494
  5
548
331
13DF
  5
1423
331
141E
  5
A71
331
A55
  5
57E
331
A95
  5
5DB
331
9DF
  5
4C8
331
A1E
  5
507
331
1451
  5
604
331
1490
  5
544
331
13DB
  5
141F
331
141A
  5
A6D
331
A51
  5
57C
331
A91
  5
5D7
331
585
  5
A39
331
546
  5
9E4
331
50F
  5
688
331
9DB
  5
4C4
331
A1A
  5
503
331
A8D
  5
5D3
331
581
  5
A35
331
542
  5
9E0
331
50B
  5
684
331
9D7
  5
4C0
331
A16
  5
4FF
331
A89
  5
5CF
331
A12
  5
4FB
331
57D
  5
A31
331
53E
  5
9DC
331
12B8
  5
14D5
331
507
  5
680
331
9D3
  5
4BC
331
579
  5
A2D
331
53A
  5
9D8
331
12B4
  5
14D1
331
503
  5
67A
331
12B0
  5
14CD
331
664
  5
145D
331
625
  5
13E0
331
5EE
  5
129E
331
660
  5
1459
331
621
  5
13DC
331
5EA
  5
129A
331
5AB
  5
A60
331
65C
  5
1417
331
61D
  5
13D7
331
5E6
  5
11CB
331
5A7
  5
A5C
331
658
  5
1413
331
5E2
  5
11C7
331
5A3
  5
A58
331
14C5
  5
611
331
11BF
  5
14A7
331
14C1
  5
618
331
11BB
  5
14A3
331
14BD
  5
61A
331
11B7
  5
149F
331
14B9
  5
621
331
148C
  5
540
331
13D7
  5
141B
331
1416
  5
13D5
331
A4D
  5
578
331
11B3
  5
149B
331
1488
  5
53A
331
1412
  5
1456
331
A49
  5
574
331
1445
  5
61E
331
1484
  5
536
331
140E
  5
1452
331
A45
  5
570
331
A85
  5
5CB
331
9CF
  5
4B8
331
A0E
  5
4F7
331
1480
  5
532
331
140A
  5
144E
331
A41
  5
56C
331
A81
  5
5C7
331
575
  5
A29
331
536
  5
9D4
331
4FF
  5
676
331
9CB
  5
4B4
331
A0A
  5
4F3
331
A7D
  5
5C3
331
697
  5
1490
331
571
  5
A25
331
532
  5
9D0
331
12AC
  5
14C9
331
4FB
  5
672
331
A06
  5
4EF
331
A79
  5
5BF
331
693
  5
148C
331
56D
  5
A21
331
52E
  5
9CC
331
12A8
  5
14C5
331
4F7
  5
66E
331
A02
  5
4EB
331
569
  5
A1D
331
52A
  5
842
331
12A4
  5
14C1
331
4F3
  5
66A
331
12A0
  5
14BD
331
654
  5
140F
331
5DE
  5
11C3
331
59F
  5
A54
331
650
  5
140B
331
5DA
  5
11BF
331
59B
  5
A4F
331
64C
  5
1407
331
5D6
  5
11BB
331
597
  5
A4B
331
648
  5
1403
331
5D2
  5
11B7
331
593
  5
A47
331
14B5
  5
623
331
11AF
  5
1497
331
14B1
  5
62A
331
14AD
  5
630
331
14A9
  5
63B
331
147C
  5
52E
331
1406
  5
144A
331
A3D
  5
568
331
1439
  5
634
331
1478
  5
52A
331
1402
  5
1446
331
A39
  5
564
331
1474
  5
526
331
13FE
  5
1442
331
A35
  5
560
331
A75
  5
5BB
331
68F
  5
1488
331
9FE
  5
4E7
331
1431
  5
640
331
1470
  5
522
331
13FA
  5
143E
331
A31
  5
55C
331
A71
  5
5B7
331
68B
  5
1484
331
565
  5
A19
331
526
  5
83E
331
4EF
  5
666
331
9FA
  5
4E3
331
A6D
  5
5B3
331
687
  5
1480
331
561
  5
A15
331
522
  5
69B
331
129C
  5
14B9
331
4EB
  5
662
331
9F6
  5
4DF
331
A69
  5
5AF
331
683
  5
147C
331
55D
  5
A10
331
51E
  5
697
331
4E7
  5
65E
331
9F2
  5
4DB
331
559
  5
9F8
331
51A
  5
693
331
4E3
  5
65A
331
644
  5
13FF
331
5CE
  5
11B3
331
67F
  5
1478
331
640
  5
13FB
331
5CA
  5
11AF
331
67B
  5
1474
331
63C
  5
13F7
331
605
  5
12B6
331
5C6
  5
A8D
331
638
  5
13F3
331
601
  5
12B1
331
5C2
  5
A89
331
13F6
  5
143A
331
A2D
  5
558
331
146C
  5
51E
331
14A7
  5
639
331
13F2
  5
1436
331
A29
  5
554
331
1468
  5
51A
331
14A3
  5
642
331
13EE
  5
1432
331
142D
  5
A6C
331
1464
  5
516
331
9EE
  5
4D7
331
13EA
  5
142E
331
1429
  5
A68
331
A60
  5
5A7
331
1460
  5
512
331
555
  5
9F3
331
4DF
  5
656
331
9EA
  5
4D3
331
551
  5
9EF
331
4DB
  5
652
331
9E6
  5
4CF
331
A25
  5
50E
331
A21
  5
50A
331
58C
  5
A40
331
54D
  5
9EB
331
516
  5
68F
331
4D7
  5
64E
331
9E2
  5
4CB
331
588
  5
A3C
331
549
  5
9E7
331
512
  5
68B
331
4D3
  5
64A
331
677
  5
1470
331
673
  5
146C
331
634
  5
13EF
331
5FD
  5
12AD
331
5BE
  5
A85
331
66F
  5
1468
331
630
  5
13EB
331
5F9
  5
12A9
331
5BA
  5
A81
331
66B
  5
1464
331
62C
  5
13E7
331
5F5
  5
12A5
331
698
  5
1491
331
5B6
  5
A7D
331
628
  5
13E3
331
5F1
  5
12A1
331
5B2
  5
A79
331
14D4
  5
5E3
331
11CE
  5
14B6
331
14D0
  5
5EF
331
11CA
  5
14B2
331
14CC
  5
601
331
149F
  5
648
331
11C6
  5
14AE
331
14C8
  5
60B
331
145C
  5
5DF
331
149B
  5
550
331
13E6
  5
142A
331
1425
  5
A64
331
A5C
  5
5A3
331
11C2
  5
14AA
331
1458
  5
5F5
331
1497
  5
54B
331
13E2
  5
1426
331
1421
  5
A74
331
A58
  5
581
331
1493
  5
547
331
13DE
  5
1422
331
141D
  5
A70
331
A54
  5
57D
331
A94
  5
5DA
331
9DE
  5
4C7
331
A1D
  5
506
331
1450
  5
603
331
13DA
  5
141E
331
1419
  5
12B5
331
A50
  5
57B
331
A90
  5
5D6
331
584
  5
A38
331
545
  5
9E3
331
50E
  5
687
331
9DA
  5
4C3
331
A19
  5
502
331
A8C
  5
5D2
331
580
  5
A34
331
541
  5
9DF
331
50A
  5
683
331
9D6
  5
4BF
331
A15
  5
4FE
331
A88
  5
5CE
331
A11
  5
4FA
331
57C
  5
A30
331
53D
  5
9DB
331
12B7
  5
14D4
331
506
  5
67F
331
9D2
  5
4BB
331
578
  5
A2C
331
539
  5
9D7
331
12B3
  5
14D0
331
502
  5
679
331
667
  5
1460
331
663
  5
145C
331
624
  5
13DF
331
5ED
  5
129D
331
65F
  5
1458
331
5E9
  5
11CE
331
5AA
  5
A5F
331
65B
  5
1416
331
5E5
  5
11CA
331
5A6
  5
A5B
331
5E1
  5
11C6
331
5A2
  5
A57
331
14C4
  5
60D
331
11BE
  5
14A6
331
14C0
  5
617
331
11BA
  5
14A2
331
14BC
  5
619
331
148F
  5
543
331
11B6
  5
149E
331
14B8
  5
620
331
144C
  5
615
331
148B
  5
53F
331
13D6
  5
141A
331
1415
  5
13DB
331
A4C
  5
577
331
11B2
  5
149A
331
1487
  5
539
331
1411
  5
1455
331
A48
  5
573
331
1444
  5
61D
331
1483
  5
535
331
140D
  5
1451
331
A44
  5
56F
331
A84
  5
5CA
331
9CE
  5
4B7
331
A0D
  5
4F6
331
1440
  5
629
331
1409
  5
144D
331
A40
  5
56B
331
A80
  5
5C6
331
574
  5
A28
331
535
  5
9D3
331
12AF
  5
14CC
331
4FE
  5
675
331
A09
  5
4F2
331
A7C
  5
5C2
331
696
  5
148F
331
570
  5
A24
331
531
  5
9CF
331
12AB
  5
14C8
331
4FA
  5
671
331
A05
  5
4EE
331
A78
  5
5BE
331
692
  5
148B
331
56C
  5
A20
331
52D
  5
9CB
331
12A7
  5
14C4
331
4F6
  5
66D
331
A01
  5
4EA
331
568
  5
A1C
331
529
  5
841
331
12A3
  5
14C0
331
4F2
  5
669
331
657
  5
1412
331
653
  5
140E
331
5DD
  5
11C2
331
59E
  5
A53
331
64F
  5
140A
331
5D9
  5
11BE
331
59A
  5
A4E
331
64B
  5
1406
331
5D5
  5
11BA
331
596
  5
A4A
331
608
  5
12B9
331
5D1
  5
11B6
331
592
  5
A46
331
14B4
  5
626
331
11AE
  5
1496
331
14B0
  5
62F
331
14AC
  5
638
331
147F
  5
531
331
14A8
  5
63A
331
147B
  5
52D
331
1405
  5
1449
331
A3C
  5
567
331
1438
  5
633
331
1477
  5
529
331
1401
  5
1445
331
A38
  5
563
331
1473
  5
525
331
13FD
  5
1441
331
A34
  5
55F
331
A74
  5
5BA
331
68E
  5
1487
331
9FD
  5
4E6
331
1430
  5
63F
331
13F9
  5
143D
331
A30
  5
55B
331
A70
  5
5B6
331
68A
  5
1483
331
564
  5
A18
331
525
  5
83D
331
129F
  5
14BC
331
4EE
  5
665
331
9F9
  5
4E2
331
A6C
  5
5B2
331
686
  5
147F
331
560
  5
A14
331
521
  5
69A
331
129B
  5
14B8
331
4EA
  5
661
331
9F5
  5
4DE
331
A68
  5
5AE
331
682
  5
147B
331
55C
  5
9FB
331
51D
  5
696
331
4E6
  5
65D
331
9F1
  5
4DA
331
558
  5
9F6
331
519
  5
692
331
4E2
  5
659
331
647
  5
1402
331
643
  5
13FE
331
5CD
  5
11B2
331
67E
  5
1477
331
63F
  5
13FA
331
5C9
  5
11AE
331
67A
  5
1473
331
63B
  5
13F6
331
5C5
  5
A8C
331
600
  5
12B0
331
5C1
  5
A88
331
146F
  5
521
331
13F5
  5
1439
331
A2C
  5
557
331
146B
  5
51D
331
14A6
  5
63C
331
13F1
  5
1435
331
A67
  5
5AD
331
1467
  5
519
331
14A2
  5
647
331
13ED
  5
1431
331
142C
  5
A6B
331
A63
  5
5AA
331
1463
  5
515
331
9ED
  5
4D6
331
13E9
  5
142D
331
1428
  5
A67
331
554
  5
9F2
331
4DE
  5
655
331
9E9
  5
4D2
331
A24
  5
50D
331
58F
  5
A43
331
550
  5
9EE
331
4DA
  5
651
331
9E5
  5
4CE
331
A20
  5
509
331
58B
  5
A3F
331
54C
  5
9EA
331
515
  5
68E
331
4D6
  5
64D
331
9E1
  5
4CA
331
548
  5
9E6
331
511
  5
68A
331
4D2
  5
649
331
676
  5
146F
331
637
  5
13F2
331
672
  5
146B
331
633
  5
13EE
331
5FC
  5
12AC
331
5BD
  5
A84
331
66E
  5
1467
331
62F
  5
13EA
331
5F8
  5
12A8
331
69B
  5
1494
331
5B9
  5
A80
331
66A
  5
1463
331
62B
  5
13E6
331
5F4
  5
12A4
331
5B5
  5
A7C
331
5F0
  5
12A0
331
5B1
  5
A78
331
14D3
  5
5EB
331
11CD
  5
14B5
331
14CF
  5
5FB
331
11C9
  5
14B1
331
14CB
  5
5FD
331
149E
  5
553
331
A5F
  5
5A6
331
11C5
  5
14AD
331
149A
  5
54F
331
13E5
  5
1429
331
1424
  5
A63
331
A5B
  5
5A2
331
11C1
  5
14A9
331
1457
  5
5F1
331
1496
  5
54A
331
13E1
  5
1425
331
1420
  5
A73
331
A57
  5
580
331
A97
  5
5DD
331
13DD
  5
1421
331
141C
  5
A6F
331
1492
  5
546
331
A93
  5
5D9
331
587
  5
A3B
331
9DD
  5
4C6
331
A1C
  5
505
331
13D9
  5
141D
331
1418
  5
12B4
331
A8F
  5
5D5
331
583
  5
A37
331
544
  5
9E2
331
50D
  5
686
331
9D9
  5
4C2
331
A18
  5
501
331
A8B
  5
5D1
331
57F
  5
A33
331
540
  5
9DE
331
509
  5
682
331
9D5
  5
4BE
331
A14
  5
4FD
331
A10
  5
4F9
331
57B
  5
A2F
331
53C
  5
9DA
331
12B6
  5
14D3
331
505
  5
67E
331
9D1
  5
4BA
331
538
  5
9D6
331
12B2
  5
14CF
331
501
  5
678
331
666
  5
145F
331
627
  5
13E2
331
662
  5
145B
331
623
  5
13DE
331
5EC
  5
129C
331
5AD
  5
A62
331
61F
  5
13D9
331
5E8
  5
11CD
331
5A9
  5
A5E
331
65A
  5
1415
331
5E4
  5
11C9
331
5A5
  5
A5A
331
5E0
  5
11C5
331
5A1
  5
A56
331
14C7
  5
60A
331
14C3
  5
60C
331
11BD
  5
14A5
331
14BF
  5
616
331
11B9
  5
14A1
331
14BB
  5
61C
331
148E
  5
542
331
A4F
  5
57A
331
11B5
  5
149D
331
144B
  5
614
331
148A
  5
53E
331
13D5
  5
1419
331
1414
  5
13DA
331
A4B
  5
576
331
11B1
  5
1499
331
1486
  5
538
331
1410
  5
1454
331
A47
  5
572
331
A87
  5
5CD
331
1482
  5
534
331
140C
  5
1450
331
A43
  5
56E
331
A83
  5
5C9
331
577
  5
A2B
331
A0C
  5
4F5
331
1408
  5
144C
331
A7F
  5
5C5
331
573
  5
A27
331
534
  5
9D2
331
12AE
  5
14CB
331
4FD
  5
674
331
A08
  5
4F1
331
A7B
  5
5C1
331
695
  5
148E
331
56F
  5
A23
331
530
  5
9CE
331
12AA
  5
14C7
331
4F9
  5
670
331
A04
  5
4ED
331
691
  5
148A
331
56B
  5
A1F
331
52C
  5
844
331
12A6
  5
14C3
331
4F5
  5
66C
331
A00
  5
4E9
331
528
  5
840
331
12A2
  5
14BF
331
4F1
  5
668
331
656
  5
1411
331
652
  5
140D
331
5DC
  5
11C1
331
59D
  5
A52
331
64E
  5
1409
331
5D8
  5
11BD
331
599
  5
A4D
331
64A
  5
1405
331
5D4
  5
11B9
331
595
  5
A49
331
5D0
  5
11B5
331
591
  5
A45
331
14B7
  5
625
331
14B3
  5
62C
331
11AD
  5
1495
331
14AF
  5
62E
331
14AB
  5
637
331
143F
  5
628
331
147E
  5
530
331
A3F
  5
56A
331
147A
  5
52C
331
1404
  5
1448
331
A3B
  5
566
331
1437
  5
632
331
1476
  5
528
331
1400
  5
1444
331
A37
  5
562
331
A77
  5
5BD
331
1472
  5
524
331
13FC
  5
1440
331
A33
  5
55E
331
A73
  5
5B9
331
68D
  5
1486
331
567
  5
A1B
331
9FC
  5
4E5
331
13F8
  5
143C
331
A6F
  5
5B5
331
689
  5
1482
331
563
  5
A17
331
524
  5
83C
331
129E
  5
14BB
331
4ED
  5
664
331
9F8
  5
4E1
331
A6B
  5
5B1
331
685
  5
147E
331
55F
  5
A12
331
520
  5
699
331
129A
  5
14B7
331
4E9
  5
660
331
9F4
  5
4DD
331
681
  5
147A
331
55B
  5
9FA
331
51C
  5
695
331
4E5
  5
65C
331
9F0
  5
4D9
331
518
  5
691
331
4E1
  5
658
331
646
  5
1401
331
642
  5
13FD
331
5CC
  5
11B1
331
67D
  5
1476
331
63E
  5
13F9
331
607
  5
12B8
331
5C8
  5
11AD
331
679
  5
1472
331
63A
  5
13F5
331
603
  5
12B3
331
5C4
  5
A8B
331
5C0
  5
A87
331
A2F
  5
55A
331
146E
  5
520
331
13F4
  5
1438
331
A2B
  5
556
331
146A
  5
51C
331
14A5
  5
644
331
13F0
  5
1434
331
142F
  5
63E
331
A66
  5
5AC
331
1466
  5
518
331
14A1
  5
646
331
13EC
  5
1430
331
142B
  5
A6A
331
A62
  5
5A9
331
1462
  5
514
331
557
  5
9F5
331
9EC
  5
4D5
331
13E8
  5
142C
331
553
  5
9F1
331
4DD
  5
654
331
9E8
  5
4D1
331
A27
  5
510
331
A23
  5
50C
331
58E
  5
A42
331
54F
  5
9ED
331
4D9
  5
650
331
9E4
  5
4CD
331
58A
  5
A3E
331
54B
  5
9E9
331
514
  5
68D
331
4D5
  5
64C
331
9E0
  5
4C9
331
510
  5
689
331
675
  5
146E
331
636
  5
13F1
331
5FF
  5
12AF
331
671
  5
146A
331
632
  5
13ED
331
5FB
  5
12AB
331
5BC
  5
A83
331
66D
  5
1466
331
62E
  5
13E9
331
5F7
  5
12A7
331
69A
  5
1493
331
5B8
  5
A7F
331
669
  5
1462
331
62A
  5
13E5
331
5F3
  5
12A3
331
5B4
  5
A7B
331
5B0
  5
A77
331
14D6
  5
5E5
331
14D2
  5
5EA
331
11CC
  5
14B4
331
14CE
  5
5F7
331
11C8
  5
14B0
331
14CA
  5
5FC
331
149D
  5
552
331
1427
  5
A66
331
A5E
  5
5A5
331
11C4
  5
14AC
331
1499
  5
54E
331
13E4
  5
1428
331
1423
  5
A76
331
A5A
  5
5A1
331
11C0
  5
14A8
331
1456
  5
5F0
331
1495
  5
549
331
13E0
  5
1424
331
141F
  5
A72
331
A56
  5
57F
331
A96
  5
5DC
331
A1F
  5
508
331
13DC
  5
1420
331
141B
  5
A6E
331
1452
  5
605
331
1491
  5
545
331
A92
  5
5D8
331
586
  5
A3A
331
547
  5
9E5
331
9DC
  5
4C5
331
A1B
  5
504
331
13D8
  5
141C
331
A8E
  5
5D4
331
582
  5
A36
331
543
  5
9E1
331
50C
  5
685
331
9D8
  5
4C1
331
A17
  5
500
  0
XRECORD
  5
1516
102
{ACAD_REACTORS
330
1515
102
}
330
1515
100
AcDbXrecord
280
     1
 40
2340.0
  1
\U+220530
  0
XRECORD
  5
1518
102
{ACAD_REACTORS
330
1517
102
}
330
1517
100
AcDbXrecord
280
     1
 40
2356.0
  1
\U+220550
  0
XRECORD
  5
151A
102
{ACAD_REACTORS
330
1519
102
}
330
1519
100
AcDbXrecord
280
     1
 40
2356.0
  1
\U+220550
  0
XRECORD
  5
14DC
102
{ACAD_REACTORS
330
14DA
102
}
330
14DA
100
AcDbXrecord
280
     1
 70
     2
  0
XRECORD
  5
14DB
102
{ACAD_REACTORS
330
14DA
102
}
330
14DA
100
AcDbXrecord
280
     1
 40
1.25
  0
XRECORD
  5
14DD
102
{ACAD_REACTORS
330
14DA
102
}
330
14DA
100
AcDbXrecord
280
     1
 40
1.570796326794896
  0
LAYOUT
  5
6E
102
{ACAD_XDICTIONARY
360
1511
102
}
102
{ACAD_REACTORS
330
61
102
}
330
61
100
AcDbPlotSettings
  1

  2
FX DP 205
  4

  6

 40
0.0
 41
0.0
 42
0.0
 43
0.0
 44
0.0
 45
0.0
 46
0.0
 47
0.0
 48
0.0
 49
0.0
140
0.0
141
0.0
142
1.0
143
1.0
 70
  1712
 72
     0
 73
     0
 74
     0
  7

 75
     0
147
1.0
148
0.0
149
0.0
100
AcDbLayout
  1
Model
 70
     1
 71
     0
 10
0.0
 20
0.0
 11
12.0
 21
9.0
 12
0.0
 22
0.0
 32
0.0
 14
0.0
 24
0.0
 34
0.0
 15
0.0
 25
0.0
 35
0.0
146
0.0
 13
0.0
 23
0.0
 33
0.0
 16
1.0
 26
0.0
 36
0.0
 17
0.0
 27
1.0
 37
0.0
 76
     0
330
6B
331
8C
  0
LAYOUT
  5
6A
102
{ACAD_XDICTIONARY
360
150F
102
}
102
{ACAD_REACTORS
330
61
102
}
330
61
100
AcDbPlotSettings
  1

  2
FX DP 205
  4

  6

 40
0.0
 41
0.0
 42
0.0
 43
0.0
 44
0.0
 45
0.0
 46
0.0
 47
0.0
 48
0.0
 49
0.0
140
0.0
141
0.0
142
1.0
143
1.0
 70
   688
 72
     0
 73
     0
 74
     5
  7

 75
    16
147
1.0
148
0.0
149
0.0
100
AcDbLayout
  1
レイアウト1
 70
     1
 71
     1
 10
0.0
 20
0.0
 11
12.0
 21
9.0
 12
0.0
 22
0.0
 32
0.0
 14
1.000000000000000E+20
 24
1.000000000000000E+20
 34
1.000000000000000E+20
 15
-1.000000000000000E+20
 25
-1.000000000000000E+20
 35
-1.000000000000000E+20
146
0.0
 13
0.0
 23
0.0
 33
0.0
 16
1.0
 26
0.0
 36
0.0
 17
0.0
 27
1.0
 37
0.0
 76
     0
330
67
  0
MATERIAL
  5
19
102
{ACAD_XDICTIONARY
360
1A
102
}
102
{ACAD_REACTORS
330
10
102
}
330
10
100
AcDbMaterial
  1
ByBlock
 72
     0
 43
0.0208333333333333
 43
0.0
 43
0.0
 43
0.0
 43
0.0
 43
0.0208333333333333
 43
0.0
 43
0.0
 43
0.0
 43
0.0
 43
1.0
 43
0.0
 43
0.0
 43
0.0
 43
0.0
 43
1.0
 77
     0
 47
0.0208333333333333
 47
0.0
 47
0.0
 47
0.0
 47
0.0
 47
0.0208333333333333
 47
0.0
 47
0.0
 47
0.0
 47
0.0
 47
1.0
 47
0.0
 47
0.0
 47
0.0
 47
0.0
 47
1.0
171
     0
 49
0.0208333333333333
 49
0.0
 49
0.0
 49
0.0
 49
0.0
 49
0.0208333333333333
 49
0.0
 49
0.0
 49
0.0
 49
0.0
 49
1.0
 49
0.0
 49
0.0
 49
0.0
 49
0.0
 49
1.0
175
     0
142
0.0208333333333333
142
0.0
142
0.0
142
0.0
142
0.0
142
0.0208333333333333
142
0.0
142
0.0
142
0.0
142
0.0
142
1.0
142
0.0
142
0.0
142
0.0
142
0.0
142
1.0
179
     0
144
0.0208333333333333
144
0.0
144
0.0
144
0.0
144
0.0
144
0.0208333333333333
144
0.0
144
0.0
144
0.0
144
0.0
144
1.0
144
0.0
144
0.0
144
0.0
144
0.0
144
1.0
147
0.0208333333333333
147
0.0
147
0.0
147
0.0
147
0.0
147
0.0208333333333333
147
0.0
147
0.0
147
0.0
147
0.0
147
1.0
147
0.0
147
0.0
147
0.0
147
0.0
147
1.0
  0
MATERIAL
  5
11
102
{ACAD_XDICTIONARY
360
12
102
}
102
{ACAD_REACTORS
330
10
102
}
330
10
100
AcDbMaterial
  1
ByLayer
 72
     0
 43
0.0208333333333333
 43
0.0
 43
0.0
 43
0.0
 43
0.0
 43
0.0208333333333333
 43
0.0
 43
0.0
 43
0.0
 43
0.0
 43
1.0
 43
0.0
 43
0.0
 43
0.0
 43
0.0
 43
1.0
 77
     0
 47
0.0208333333333333
 47
0.0
 47
0.0
 47
0.0
 47
0.0
 47
0.0208333333333333
 47
0.0
 47
0.0
 47
0.0
 47
0.0
 47
1.0
 47
0.0
 47
0.0
 47
0.0
 47
0.0
 47
1.0
171
     0
 49
0.0208333333333333
 49
0.0
 49
0.0
 49
0.0
 49
0.0
 49
0.0208333333333333
 49
0.0
 49
0.0
 49
0.0
 49
0.0
 49
1.0
 49
0.0
 49
0.0
 49
0.0
 49
0.0
 49
1.0
175
     0
142
0.0208333333333333
142
0.0
142
0.0
142
0.0
142
0.0
142
0.0208333333333333
142
0.0
142
0.0
142
0.0
142
0.0
142
1.0
142
0.0
142
0.0
142
0.0
142
0.0
142
1.0
179
     0
144
0.0208333333333333
144
0.0
144
0.0
144
0.0
144
0.0
144
0.0208333333333333
144
0.0
144
0.0
144
0.0
144
0.0
144
1.0
144
0.0
144
0.0
144
0.0
144
0.0
144
1.0
147
0.0208333333333333
147
0.0
147
0.0
147
0.0
147
0.0
147
0.0208333333333333
147
0.0
147
0.0
147
0.0
147
0.0
147
1.0
147
0.0
147
0.0
147
0.0
147
0.0
147
1.0
  0
MATERIAL
  5
21
102
{ACAD_XDICTIONARY
360
22
102
}
102
{ACAD_REACTORS
330
10
102
}
330
10
100
AcDbMaterial
  1
Global
 72
     0
 43
0.0208333333333333
 43
0.0
 43
0.0
 43
0.0
 43
0.0
 43
0.0208333333333333
 43
0.0
 43
0.0
 43
0.0
 43
0.0
 43
1.0
 43
0.0
 43
0.0
 43
0.0
 43
0.0
 43
1.0
 77
     0
 47
0.0208333333333333
 47
0.0
 47
0.0
 47
0.0
 47
0.0
 47
0.0208333333333333
 47
0.0
 47
0.0
 47
0.0
 47
0.0
 47
1.0
 47
0.0
 47
0.0
 47
0.0
 47
0.0
 47
1.0
171
     0
 49
0.0208333333333333
 49
0.0
 49
0.0
 49
0.0
 49
0.0
 49
0.0208333333333333
 49
0.0
 49
0.0
 49
0.0
 49
0.0
 49
1.0
 49
0.0
 49
0.0
 49
0.0
 49
0.0
 49
1.0
175
     0
142
0.0208333333333333
142
0.0
142
0.0
142
0.0
142
0.0
142
0.0208333333333333
142
0.0
142
0.0
142
0.0
142
0.0
142
1.0
142
0.0
142
0.0
142
0.0
142
0.0
142
1.0
179
     0
144
0.0208333333333333
144
0.0
144
0.0
144
0.0
144
0.0
144
0.0208333333333333
144
0.0
144
0.0
144
0.0
144
0.0
144
1.0
144
0.0
144
0.0
144
0.0
144
0.0
144
1.0
147
0.0208333333333333
147
0.0
147
0.0
147
0.0
147
0.0
147
0.0208333333333333
147
0.0
147
0.0
147
0.0
147
0.0
147
1.0
147
0.0
147
0.0
147
0.0
147
0.0
147
1.0
  0
MLEADERSTYLE
  5
66
102
{ACAD_REACTORS
330
65
102
}
330
65
100
AcDbMLeaderStyle
170
     2
171
     1
172
     0
 90
        2
 40
0.0
 41
0.0
173
     1
 91
-1056964608
340
5A
 92
       -2
290
     1
 42
0.09
291
     1
 43
0.36
  3
Standard
 44
0.18
300

342
55
174
     1
178
     6
175
     1
176
     0
 93
-1056964608
 45
0.18
292
     0
297
     0
 46
0.18
 94
-1056964608
 47
1.0
 49
1.0
140
1.0
293
     1
141
0.0
294
     1
177
     0
142
1.0
295
     0
296
     0
143
0.125
1001
ACAD_MLEADERVER
1070
     2
  0
MLINESTYLE
  5
5F
102
{ACAD_REACTORS
330
5E
102
}
330
5E
100
AcDbMlineStyle
  2
STANDARD
 70
     0
  3

 62
   256
 51
90.0
 52
90.0
 71
     2
 49
0.5
 62
   256
  6
BYLAYER
 49
-0.5
 62
   256
  6
BYLAYER
  0
ACDBPLACEHOLDER
  5
F
102
{ACAD_REACTORS
330
E
102
}
330
E
  0
SCALE
  5
43
102
{ACAD_REACTORS
330
42
102
}
330
42
100
AcDbScale
 70
     0
300
1:1
140
1.0
141
1.0
290
     1
  0
SCALE
  5
44
102
{ACAD_REACTORS
330
42
102
}
330
42
100
AcDbScale
 70
     0
300
1/128" = 1'-0"
140
0.0078125
141
12.0
290
     0
  0
SCALE
  5
45
102
{ACAD_REACTORS
330
42
102
}
330
42
100
AcDbScale
 70
     0
300
1/64" = 1'-0"
140
0.015625
141
12.0
290
     0
  0
SCALE
  5
46
102
{ACAD_REACTORS
330
42
102
}
330
42
100
AcDbScale
 70
     0
300
1/32" = 1'-0"
140
0.03125
141
12.0
290
     0
  0
SCALE
  5
47
102
{ACAD_REACTORS
330
42
102
}
330
42
100
AcDbScale
 70
     0
300
1/16" = 1'-0"
140
0.0625
141
12.0
290
     0
  0
SCALE
  5
48
102
{ACAD_REACTORS
330
42
102
}
330
42
100
AcDbScale
 70
     0
300
3/32" = 1'-0"
140
0.09375
141
12.0
290
     0
  0
SCALE
  5
49
102
{ACAD_REACTORS
330
42
102
}
330
42
100
AcDbScale
 70
     0
300
1/8" = 1'-0"
140
0.125
141
12.0
290
     0
  0
SCALE
  5
4A
102
{ACAD_REACTORS
330
42
102
}
330
42
100
AcDbScale
 70
     0
300
3/16" = 1'-0"
140
0.1875
141
12.0
290
     0
  0
SCALE
  5
4B
102
{ACAD_REACTORS
330
42
102
}
330
42
100
AcDbScale
 70
     0
300
1/4" = 1'-0"
140
0.25
141
12.0
290
     0
  0
SCALE
  5
4C
102
{ACAD_REACTORS
330
42
102
}
330
42
100
AcDbScale
 70
     0
300
3/8" = 1'-0"
140
0.375
141
12.0
290
     0
  0
SCALE
  5
4D
102
{ACAD_REACTORS
330
42
102
}
330
42
100
AcDbScale
 70
     0
300
1/2" = 1'-0"
140
0.5
141
12.0
290
     0
  0
SCALE
  5
4E
102
{ACAD_REACTORS
330
42
102
}
330
42
100
AcDbScale
 70
     0
300
3/4" = 1'-0"
140
0.75
141
12.0
290
     0
  0
SCALE
  5
4F
102
{ACAD_REACTORS
330
42
102
}
330
42
100
AcDbScale
 70
     0
300
1" = 1'-0"
140
1.0
141
12.0
290
     0
  0
SCALE
  5
50
102
{ACAD_REACTORS
330
42
102
}
330
42
100
AcDbScale
 70
     0
300
1-1/2" = 1'-0"
140
1.5
141
12.0
290
     0
  0
SCALE
  5
51
102
{ACAD_REACTORS
330
42
102
}
330
42
100
AcDbScale
 70
     0
300
3" = 1'-0"
140
3.0
141
12.0
290
     0
  0
SCALE
  5
52
102
{ACAD_REACTORS
330
42
102
}
330
42
100
AcDbScale
 70
     0
300
6" = 1'-0"
140
6.0
141
12.0
290
     0
  0
SCALE
  5
53
102
{ACAD_REACTORS
330
42
102
}
330
42
100
AcDbScale
 70
     0
300
1'-0" = 1'-0"
140
12.0
141
12.0
290
     0
  0
TABLESTYLE
  5
64
102
{ACAD_XDICTIONARY
360
B49
102
}
102
{ACAD_REACTORS
330
63
102
}
330
63
100
AcDbTableStyle
  3
Standard
 70
     0
 71
     0
 40
0.06
 41
0.06
280
     0
281
     0
  7
STANDARD
140
0.18
170
     2
 62
     0
 63
     7
283
     0
274
    -2
284
     1
 64
     0
275
    -2
285
     1
 65
     0
276
    -2
286
     1
 66
     0
277
    -2
287
     1
 67
     0
278
    -2
288
     1
 68
     0
279
    -2
289
     1
 69
     0
  7
STANDARD
140
0.25
170
     5
 62
     0
 63
     7
283
     0
274
    -2
284
     1
 64
     0
275
    -2
285
     1
 65
     0
276
    -2
286
     1
 66
     0
277
    -2
287
     1
 67
     0
278
    -2
288
     1
 68
     0
279
    -2
289
     1
 69
     0
  7
STANDARD
140
0.18
170
     5
 62
     0
 63
     7
283
     0
274
    -2
284
     1
 64
     0
275
    -2
285
     1
 65
     0
276
    -2
286
     1
 66
     0
277
    -2
287
     1
 67
     0
278
    -2
288
     1
 68
     0
279
    -2
289
     1
 69
     0
  0
VISUALSTYLE
  5
2F
102
{ACAD_XDICTIONARY
360
14E8
102
}
102
{ACAD_REACTORS
330
29
102
}
330
29
100
AcDbVisualStyle
  2

 70
     4
 71
     0
 72
     2
 73
     0
 90
        0
 40
-0.6
 41
-30.0
 62
     5
 63
     7
 74
     1
 91
        4
 64
     7
 65
   257
 75
     1
175
     1
 42
1.0
 92
        0
 66
   257
 43
1.0
 76
     1
 77
     6
 78
     2
 67
     7
 79
     5
170
     0
171
     0
290
     0
174
     0
 93
        1
 44
0.0
173
     0
291
     0
 45
0.0
1001
ACAD
1000
AcDbSavedByObjectVersion
1070
     0
  0
VISUALSTYLE
  5
82A
102
{ACAD_XDICTIONARY
360
1513
102
}
102
{ACAD_REACTORS
330
29
102
}
330
29
100
AcDbVisualStyle
  2

 70
     5
 71
     0
 72
     2
 73
     1
 90
        0
 40
-0.6
 41
-30.0
 62
     5
 63
     7
 74
     1
 91
        4
 64
     7
 65
   257
 75
     1
175
     1
 42
1.0
 92
        0
 66
   257
 43
1.0
 76
     1
 77
     6
 78
     2
 67
     7
 79
     5
170
     0
171
     0
290
     0
174
     0
 93
        1
 44
0.0
173
     0
291
     0
 45
0.0
1001
ACAD
1000
AcDbSavedByObjectVersion
1070
     0
  0
VISUALSTYLE
  5
2E
102
{ACAD_XDICTIONARY
360
14E6
102
}
102
{ACAD_REACTORS
330
29
102
}
330
29
100
AcDbVisualStyle
  2

 70
     7
 71
     1
 72
     0
 73
     1
 90
        0
 40
-0.6
 41
-30.0
 62
     5
 63
     7
 74
     0
 91
        4
 64
     7
 65
   257
 75
     1
175
     1
 42
1.0
 92
        8
 66
     7
 43
1.0
 76
     1
 77
     6
 78
     2
 67
     7
 79
     5
170
     0
171
     0
290
     0
174
     0
 93
        1
 44
0.0
173
     0
291
     1
 45
0.0
1001
ACAD
1000
AcDbSavedByObjectVersion
1070
     0
  0
VISUALSTYLE
  5
35
102
{ACAD_XDICTIONARY
360
14F4
102
}
102
{ACAD_REACTORS
330
29
102
}
330
29
100
AcDbVisualStyle
  2

 70
    12
 71
     2
 72
     2
 73
     0
 90
        0
 40
-0.6
 41
-30.0
 62
     5
 63
     7
 74
     1
 91
        4
 64
     7
 65
   257
 75
     1
175
     1
 42
1.0
 92
        8
 66
     7
 43
1.0
 76
     1
 77
     6
 78
     2
 67
     7
 79
     5
170
     0
171
     0
290
     0
174
     0
 93
        1
 44
50.0
173
     0
291
     1
 45
0.0
1001
ACAD
1000
AcDbSavedByObjectVersion
1070
     0
  0
VISUALSTYLE
  5
39
102
{ACAD_XDICTIONARY
360
14FC
102
}
102
{ACAD_REACTORS
330
29
102
}
330
29
100
AcDbVisualStyle
  2

 70
    16
 71
     2
 72
     2
 73
     3
 90
        0
 40
-0.6
 41
-30.0
 62
     5
 63
     8
 74
     1
 91
        4
 64
     7
 65
   257
 75
     1
175
     1
 42
1.0
 92
        8
 66
     8
 43
1.0
 76
     1
 77
     6
 78
     2
 67
     7
 79
     5
170
     0
171
     0
290
     0
174
     0
 93
        1
 44
0.0
173
     0
291
     1
 45
0.0
1001
ACAD
1000
AcDbSavedByObjectVersion
1070
     0
  0
VISUALSTYLE
  5
32
102
{ACAD_XDICTIONARY
360
14EE
102
}
102
{ACAD_REACTORS
330
29
102
}
330
29
100
AcDbVisualStyle
  2

 70
     9
 71
     3
 72
     2
 73
     0
 90
        0
 40
-0.6
 41
-30.0
 62
     5
 63
     7
 74
     2
 91
        2
 64
     7
 65
   257
 75
     1
175
     1
 42
179.0
 92
        8
 66
     7
 43
1.0
 76
     1
 77
     6
 78
     2
 67
     7
 79
     3
170
     0
171
     0
290
     0
174
     0
 93
        1
 44
0.0
173
     0
291
     0
 45
0.0
1001
ACAD
1000
AcDbSavedByObjectVersion
1070
     0
  0
VISUALSTYLE
  5
34
102
{ACAD_XDICTIONARY
360
14F2
102
}
102
{ACAD_REACTORS
330
29
102
}
330
29
100
AcDbVisualStyle
  2

 70
    11
 71
     2
 72
     2
 73
     0
 90
        0
 40
-0.6
 41
-30.0
 62
     5
 63
     7
 74
     1
 91
        4
 64
     7
 65
   257
 75
     1
175
     1
 42
1.0
 92
        8
 66
     7
 43
1.0
 76
     1
 77
     6
 78
     2
 67
     7
 79
     5
170
     0
171
     0
290
     0
174
     0
 93
        1
 44
-50.0
173
     0
291
     1
 45
0.0
1001
ACAD
1000
AcDbSavedByObjectVersion
1070
     0
  0
VISUALSTYLE
  5
41
102
{ACAD_XDICTIONARY
360
150C
102
}
102
{ACAD_REACTORS
330
29
102
}
330
29
100
AcDbVisualStyle
  2

 70
    22
 71
     2
 72
     2
 73
     0
 90
        0
 40
-0.6
 41
-30.0
 62
     5
 63
     7
 74
     1
 91
        4
 64
     7
 65
   257
 75
     1
175
     1
 42
1.0
 92
        8
 66
     7
 43
1.0
 76
     1
 77
     6
 78
     2
 67
     7
 79
     5
170
     0
171
     0
290
     0
174
     0
 93
        1
 44
0.0
173
     0
291
     1
 45
0.0
1001
ACAD
1000
AcDbSavedByObjectVersion
1070
     0
  0
VISUALSTYLE
  5
38
102
{ACAD_XDICTIONARY
360
14FA
102
}
102
{ACAD_REACTORS
330
29
102
}
330
29
100
AcDbVisualStyle
  2

 70
    15
 71
     2
 72
     2
 73
     0
 90
        0
 40
-0.6
 41
-30.0
 62
     5
 63
     7
 74
     1
 91
        4
 64
     7
 65
   257
 75
     1
175
     1
 42
1.0
 92
        8
 66
     7
 43
1.0
 76
     1
 77
     6
 78
     2
 67
     7
 79
     5
170
     0
171
     0
290
     0
174
     0
 93
        1
 44
0.0
173
     0
291
     1
 45
0.0
1001
ACAD
1000
AcDbSavedByObjectVersion
1070
     0
  0
VISUALSTYLE
  5
2A
102
{ACAD_XDICTIONARY
360
14DE
102
}
102
{ACAD_REACTORS
330
29
102
}
330
29
100
AcDbVisualStyle
  2

 70
     0
 71
     2
 72
     1
 73
     1
 90
        2
 40
-0.6
 41
30.0
 62
     5
 63
     7
 74
     0
 91
        0
 64
     7
 65
   257
 75
     1
175
     1
 42
1.0
 92
        8
 66
     7
 43
1.0
 76
     1
 77
     6
 78
     2
 67
     7
 79
     5
170
     0
171
     0
290
     0
174
     0
 93
       13
 44
0.0
173
     0
291
     1
 45
0.0
1001
ACAD
1000
AcDbSavedByObjectVersion
1070
     0
  0
VISUALSTYLE
  5
2B
102
{ACAD_XDICTIONARY
360
14E0
102
}
102
{ACAD_REACTORS
330
29
102
}
330
29
100
AcDbVisualStyle
  2

 70
     1
 71
     2
 72
     1
 73
     1
 90
        2
 40
-0.6
 41
30.0
 62
     5
 63
     7
 74
     1
 91
        0
 64
     7
 65
   257
 75
     1
175
     1
 42
1.0
 92
        0
 66
   257
 43
1.0
 76
     1
 77
     6
 78
     2
 67
     7
 79
     5
170
     0
171
     0
290
     0
174
     0
 93
       13
 44
0.0
173
     0
291
     1
 45
0.0
1001
ACAD
1000
AcDbSavedByObjectVersion
1070
     0
  0
VISUALSTYLE
  5
2C
102
{ACAD_XDICTIONARY
360
14E2
102
}
102
{ACAD_REACTORS
330
29
102
}
330
29
100
AcDbVisualStyle
  2

 70
     2
 71
     2
 72
     2
 73
     1
 90
        2
 40
-0.6
 41
30.0
 62
     5
 63
     7
 74
     0
 91
        0
 64
     7
 65
   257
 75
     1
175
     1
 42
1.0
 92
        0
 66
     7
 43
1.0
 76
     1
 77
     6
 78
     2
 67
     7
 79
     5
170
     0
171
     0
290
     0
174
     0
 93
       13
 44
0.0
173
     0
291
     1
 45
0.0
1001
ACAD
1000
AcDbSavedByObjectVersion
1070
     0
  0
VISUALSTYLE
  5
2D
102
{ACAD_XDICTIONARY
360
14E4
102
}
102
{ACAD_REACTORS
330
29
102
}
330
29
100
AcDbVisualStyle
  2

 70
     3
 71
     2
 72
     2
 73
     1
 90
        2
 40
-0.6
 41
30.0
 62
     5
 63
     7
 74
     1
 91
        0
 64
     7
 65
   257
 75
     1
175
     1
 42
1.0
 92
        0
 66
   257
 43
1.0
 76
     1
 77
     6
 78
     2
 67
     7
 79
     5
170
     0
171
     0
290
     0
174
     0
 93
       13
 44
0.0
173
     0
291
     1
 45
0.0
1001
ACAD
1000
AcDbSavedByObjectVersion
1070
     0
  0
VISUALSTYLE
  5
31
102
{ACAD_XDICTIONARY
360
14EC
102
}
102
{ACAD_REACTORS
330
29
102
}
330
29
100
AcDbVisualStyle
  2

 70
     6
 71
     1
 72
     2
 73
     2
 90
        0
 40
-0.6
 41
-30.0
 62
     5
 63
     7
 74
     2
 91
        2
 64
     7
 65
   257
 75
     2
175
     1
 42
40.0
 92
        0
 66
   257
 43
1.0
 76
     1
 77
     6
 78
     2
 67
     7
 79
     3
170
     0
171
     0
290
     0
174
     0
 93
        1
 44
0.0
173
     0
291
     0
 45
0.0
1001
ACAD
1000
AcDbSavedByObjectVersion
1070
     0
  0
VISUALSTYLE
  5
3F
102
{ACAD_XDICTIONARY
360
1508
102
}
102
{ACAD_REACTORS
330
29
102
}
330
29
100
AcDbVisualStyle
  2

 70
    20
 71
     2
 72
     2
 73
     0
 90
        0
 40
-0.6
 41
-30.0
 62
     5
 63
     7
 74
     1
 91
        4
 64
     7
 65
   257
 75
     1
175
     1
 42
1.0
 92
       10
 66
     7
 43
1.0
 76
     1
 77
     6
 78
     2
 67
     7
 79
     5
170
     0
171
     0
290
     0
174
     0
 93
        1
 44
0.0
173
     0
291
     1
 45
0.0
1001
ACAD
1000
AcDbSavedByObjectVersion
1070
     0
  0
VISUALSTYLE
  5
37
102
{ACAD_XDICTIONARY
360
14F8
102
}
102
{ACAD_REACTORS
330
29
102
}
330
29
100
AcDbVisualStyle
  2

 70
    14
 71
     2
 72
     2
 73
     0
 90
        0
 40
-0.6
 41
-30.0
 62
     5
 63
     7
 74
     1
 91
        4
 64
     7
 65
   257
 75
     7
175
     7
 42
1.0
 92
        8
 66
     7
 43
1.0
 76
     1
 77
     6
 78
     2
 67
     7
 79
     5
170
     0
171
     0
290
     0
174
     0
 93
        1
 44
0.0
173
     0
291
     1
 45
0.0
1001
ACAD
1000
AcDbSavedByObjectVersion
1070
     0
  0
VISUALSTYLE
  5
40
102
{ACAD_XDICTIONARY
360
150A
102
}
102
{ACAD_REACTORS
330
29
102
}
330
29
100
AcDbVisualStyle
  2

 70
    21
 71
     2
 72
     2
 73
     0
 90
        0
 40
-0.6
 41
-30.0
 62
     5
 63
     7
 74
     1
 91
        4
 64
     7
 65
   257
 75
     1
175
     1
 42
1.0
 92
        9
 66
     7
 43
1.0
 76
     1
 77
     6
 78
     2
 67
     7
 79
     5
170
     0
171
     0
290
     0
174
     0
 93
        1
 44
0.0
173
     0
291
     1
 45
0.0
1001
ACAD
1000
AcDbSavedByObjectVersion
1070
     0
  0
VISUALSTYLE
  5
33
102
{ACAD_XDICTIONARY
360
14F0
102
}
102
{ACAD_REACTORS
330
29
102
}
330
29
100
AcDbVisualStyle
  2

 70
     8
 71
     2
 72
     3
 73
     0
 90
        2
 40
-0.6
 41
30.0
 62
     5
 63
     7
 74
     0
 91
        0
 64
     7
 65
   257
 75
     1
175
     1
 42
1.0
 92
        8
 66
   257
 43
1.0
 76
     1
 77
     6
 78
     2
 67
     7
 79
     3
170
     0
171
     0
290
     0
174
     0
 93
       13
 44
0.0
173
     0
291
     0
 45
0.0
1001
ACAD
1000
AcDbSavedByObjectVersion
1070
     0
  0
VISUALSTYLE
  5
3E
102
{ACAD_XDICTIONARY
360
1506
102
}
102
{ACAD_REACTORS
330
29
102
}
330
29
100
AcDbVisualStyle
  2

 70
    27
 71
     2
 72
     2
 73
     1
 90
        2
 40
-0.6
 41
30.0
 62
     5
 63
     7
 74
     0
 91
        4
 64
     7
 65
   257
 75
     1
175
     1
 42
1.0
 92
        8
 66
   257
 43
1.0
 76
     1
 77
     6
 78
     2
 67
     8
 79
     3
170
     0
171
     0
290
     0
174
     0
 93
        5
 44
0.0
173
     0
291
     0
 45
0.0
1001
ACAD
1000
AcDbSavedByObjectVersion
1070
     0
  0
VISUALSTYLE
  5
3D
102
{ACAD_XDICTIONARY
360
1504
102
}
102
{ACAD_REACTORS
330
29
102
}
330
29
100
AcDbVisualStyle
  2

 70
    26
 71
     2
 72
     2
 73
     1
 90
        2
 40
-0.6
 41
30.0
 62
     5
 63
     7
 74
     1
 91
       10
 64
     7
 65
   257
 75
     2
175
     1
 42
1.0
 92
        8
 66
   257
 43
1.0
 76
     1
 77
     6
 78
     2
 67
     7
 79
     3
170
     0
171
     0
290
     0
174
     0
 93
        5
 44
0.0
173
     0
291
     0
 45
0.0
1001
ACAD
1000
AcDbSavedByObjectVersion
1070
     0
  0
VISUALSTYLE
  5
3A
102
{ACAD_XDICTIONARY
360
14FE
102
}
102
{ACAD_REACTORS
330
29
102
}
330
29
100
AcDbVisualStyle
  2

 70
    23
 71
     2
 72
     2
 73
     3
 90
        0
 40
-0.6
 41
-30.0
 62
     5
 63
     7
 74
     2
 91
        2
 64
     7
 65
     7
 75
     1
175
     1
 42
40.0
 92
        8
 66
     7
 43
1.0
 76
     1
 77
     6
 78
     2
 67
     7
 79
     3
170
     0
171
     0
290
     0
174
     0
 93
        1
 44
0.0
173
     0
291
     0
 45
0.0
1001
ACAD
1000
AcDbSavedByObjectVersion
1070
     0
  0
VISUALSTYLE
  5
3B
102
{ACAD_XDICTIONARY
360
1500
102
}
102
{ACAD_REACTORS
330
29
102
}
330
29
100
AcDbVisualStyle
  2

 70
    24
 71
     1
 72
     2
 73
     2
 90
        0
 40
-0.6
 41
-30.0
 62
     5
 63
     7
 74
     2
 91
        2
 64
     7
 65
     7
 75
     1
175
     1
 42
40.0
 92
       11
 66
     7
 43
1.0
 76
     1
 77
     6
 78
     2
 67
     7
 79
     6
170
     0
171
     0
290
     0
174
     0
 93
        1
 44
0.0
173
     0
291
     0
 45
0.0
1001
ACAD
1000
AcDbSavedByObjectVersion
1070
     0
  0
VISUALSTYLE
  5
36
102
{ACAD_XDICTIONARY
360
14F6
102
}
102
{ACAD_REACTORS
330
29
102
}
330
29
100
AcDbVisualStyle
  2

 70
    13
 71
     2
 72
     2
 73
     0
 90
        0
 40
-0.6
 41
-30.0
 62
     5
 63
     7
 74
     1
 91
        4
 64
     7
 65
   257
 75
     1
175
     1
 42
1.0
 92
       12
 66
     7
 43
1.0
 76
     1
 77
     6
 78
     2
 67
     7
 79
     5
170
     0
171
     0
290
     0
174
     0
 93
        1
 44
0.0
173
     0
291
     1
 45
0.0
1001
ACAD
1000
AcDbSavedByObjectVersion
1070
     0
  0
VISUALSTYLE
  5
30
102
{ACAD_XDICTIONARY
360
14EA
102
}
102
{ACAD_REACTORS
330
29
102
}
330
29
100
AcDbVisualStyle
  2

 70
     5
 71
     0
 72
     2
 73
     0
 90
        0
 40
-0.6
 41
-30.0
 62
     5
 63
     7
 74
     1
 91
        4
 64
     7
 65
   257
 75
     1
175
     1
 42
1.0
 92
        0
 66
   257
 43
1.0
 76
     1
 77
     6
 78
     2
 67
     7
 79
     3
170
     0
171
     0
290
     0
174
     0
 93
        1
 44
0.0
173
     0
291
     0
 45
0.0
1001
ACAD
1000
AcDbSavedByObjectVersion
1070
     0
  0
VISUALSTYLE
  5
3C
102
{ACAD_XDICTIONARY
360
1502
102
}
102
{ACAD_REACTORS
330
29
102
}
330
29
100
AcDbVisualStyle
  2

 70
    25
 71
     2
 72
     2
 73
     1
 90
        1
 40
0.5
 41
-30.0
 62
     5
 63
     7
 74
     1
 91
        0
 64
     7
 65
   257
 75
     1
175
     1
 42
1.0
 92
        8
 66
     7
 43
1.0
 76
     1
 77
     6
 78
     2
 67
     7
 79
     3
170
     0
171
     0
290
     0
174
     0
 93
       13
 44
0.0
173
     0
291
     0
 45
0.0
1001
ACAD
1000
AcDbSavedByObjectVersion
1070
     0
  0
DICTIONARYVAR
  5
B44
102
{ACAD_REACTORS
330
B41
102
}
330
B41
100
DictionaryVariables
280
     0
  1
1:1
  0
DICTIONARYVAR
  5
B43
102
{ACAD_REACTORS
330
B41
102
}
330
B41
100
DictionaryVariables
280
     0
  1
STANDARD
  0
DICTIONARYVAR
  5
B42
102
{ACAD_REACTORS
330
B41
102
}
330
B41
100
DictionaryVariables
280
     0
  1
STANDARD
  0
DICTIONARYVAR
  5
B47
102
{ACAD_REACTORS
330
B41
102
}
330
B41
100
DictionaryVariables
280
     0
  1
1
  0
DICTIONARYVAR
  5
B46
102
{ACAD_REACTORS
330
B41
102
}
330
B41
100
DictionaryVariables
280
     0
  1
0
  0
DICTIONARYVAR
  5
B45
102
{ACAD_REACTORS
330
B41
102
}
330
B41
100
DictionaryVariables
280
     0
  1
127
  0
DICTIONARYVAR
  5
12BA
102
{ACAD_REACTORS
330
B41
102
}
330
B41
100
DictionaryVariables
280
     0
  1
2
  0
DICTIONARY
  5
1511
330
6E
100
AcDbDictionary
280
     1
281
     1
  3
ACAD_XREC_ROUNDTRIP
360
1512
  0
DICTIONARY
  5
150F
330
6A
100
AcDbDictionary
280
     1
281
     1
  3
ACAD_XREC_ROUNDTRIP
360
1510
  0
DICTIONARY
  5
1A
330
19
100
AcDbDictionary
280
     1
281
     1
  3
ACAD_XREC_ROUNDTRIP
360
B52
  3
BUMPTILE
360
1C
  3
DIFFUSETILE
360
1B
  3
OPACITYTILE
360
1F
  3
REFLECTIONTILE
360
1E
  3
REFRACTIONTILE
360
20
  3
SPECULARTILE
360
1D
  0
DICTIONARY
  5
12
330
11
100
AcDbDictionary
280
     1
281
     1
  3
ACAD_XREC_ROUNDTRIP
360
B51
  3
BUMPTILE
360
14
  3
DIFFUSETILE
360
13
  3
OPACITYTILE
360
17
  3
REFLECTIONTILE
360
16
  3
REFRACTIONTILE
360
18
  3
SPECULARTILE
360
15
  0
DICTIONARY
  5
22
330
21
100
AcDbDictionary
280
     1
281
     1
  3
ACAD_XREC_ROUNDTRIP
360
B53
  3
BUMPTILE
360
24
  3
DIFFUSETILE
360
23
  3
OPACITYTILE
360
27
  3
REFLECTIONTILE
360
26
  3
REFRACTIONTILE
360
28
  3
SPECULARTILE
360
25
  0
DICTIONARY
  5
B49
330
64
100
AcDbDictionary
280
     1
281
     1
  3
ACAD_ROUNDTRIP_2008_TABLESTYLE_CELLSTYLEMAP
360
14D7
  3
ACAD_XREC_ROUNDTRIP
360
150E
  0
DICTIONARY
  5
14E8
330
2F
100
AcDbDictionary
280
     1
281
     1
  3
ACAD_XREC_ROUNDTRIP
360
14E9
  0
DICTIONARY
  5
1513
330
82A
100
AcDbDictionary
280
     1
281
     1
  3
ACAD_XREC_ROUNDTRIP
360
1514
  0
DICTIONARY
  5
14E6
330
2E
100
AcDbDictionary
280
     1
281
     1
  3
ACAD_XREC_ROUNDTRIP
360
14E7
  0
DICTIONARY
  5
14F4
330
35
100
AcDbDictionary
280
     1
281
     1
  3
ACAD_XREC_ROUNDTRIP
360
14F5
  0
DICTIONARY
  5
14FC
330
39
100
AcDbDictionary
280
     1
281
     1
  3
ACAD_XREC_ROUNDTRIP
360
14FD
  0
DICTIONARY
  5
14EE
330
32
100
AcDbDictionary
280
     1
281
     1
  3
ACAD_XREC_ROUNDTRIP
360
14EF
  0
DICTIONARY
  5
14F2
330
34
100
AcDbDictionary
280
     1
281
     1
  3
ACAD_XREC_ROUNDTRIP
360
14F3
  0
DICTIONARY
  5
150C
330
41
100
AcDbDictionary
280
     1
281
     1
  3
ACAD_XREC_ROUNDTRIP
360
150D
  0
DICTIONARY
  5
14FA
330
38
100
AcDbDictionary
280
     1
281
     1
  3
ACAD_XREC_ROUNDTRIP
360
14FB
  0
DICTIONARY
  5
14DE
330
2A
100
AcDbDictionary
280
     1
281
     1
  3
ACAD_XREC_ROUNDTRIP
360
14DF
  0
DICTIONARY
  5
14E0
330
2B
100
AcDbDictionary
280
     1
281
     1
  3
ACAD_XREC_ROUNDTRIP
360
14E1
  0
DICTIONARY
  5
14E2
330
2C
100
AcDbDictionary
280
     1
281
     1
  3
ACAD_XREC_ROUNDTRIP
360
14E3
  0
DICTIONARY
  5
14E4
330
2D
100
AcDbDictionary
280
     1
281
     1
  3
ACAD_XREC_ROUNDTRIP
360
14E5
  0
DICTIONARY
  5
14EC
330
31
100
AcDbDictionary
280
     1
281
     1
  3
ACAD_XREC_ROUNDTRIP
360
14ED
  0
DICTIONARY
  5
1508
330
3F
100
AcDbDictionary
280
     1
281
     1
  3
ACAD_XREC_ROUNDTRIP
360
1509
  0
DICTIONARY
  5
14F8
330
37
100
AcDbDictionary
280
     1
281
     1
  3
ACAD_XREC_ROUNDTRIP
360
14F9
  0
DICTIONARY
  5
150A
330
40
100
AcDbDictionary
280
     1
281
     1
  3
ACAD_XREC_ROUNDTRIP
360
150B
  0
DICTIONARY
  5
14F0
330
33
100
AcDbDictionary
280
     1
281
     1
  3
ACAD_XREC_ROUNDTRIP
360
14F1
  0
DICTIONARY
  5
1506
330
3E
100
AcDbDictionary
280
     1
281
     1
  3
ACAD_XREC_ROUNDTRIP
360
1507
  0
DICTIONARY
  5
1504
330
3D
100
AcDbDictionary
280
     1
281
     1
  3
ACAD_XREC_ROUNDTRIP
360
1505
  0
DICTIONARY
  5
14FE
330
3A
100
AcDbDictionary
280
     1
281
     1
  3
ACAD_XREC_ROUNDTRIP
360
14FF
  0
DICTIONARY
  5
1500
330
3B
100
AcDbDictionary
280
     1
281
     1
  3
ACAD_XREC_ROUNDTRIP
360
1501
  0
DICTIONARY
  5
14F6
330
36
100
AcDbDictionary
280
     1
281
     1
  3
ACAD_XREC_ROUNDTRIP
360
14F7
  0
DICTIONARY
  5
14EA
330
30
100
AcDbDictionary
280
     1
281
     1
  3
ACAD_XREC_ROUNDTRIP
360
14EB
  0
DICTIONARY
  5
1502
330
3C
100
AcDbDictionary
280
     1
281
     1
  3
ACAD_XREC_ROUNDTRIP
360
1503
  0
XRECORD
  5
1512
102
{ACAD_REACTORS
330
1511
102
}
330
1511
100
AcDbXrecord
280
     1
102
SHADEPLOT
 70
     0
102
SHADEPLOTRESLEVEL
 70
     2
102
SHADEPLOTCUSTOMDPI
 70
   300
  0
XRECORD
  5
1510
102
{ACAD_REACTORS
330
150F
102
}
330
150F
100
AcDbXrecord
280
     1
102
SHADEPLOT
 70
     0
102
SHADEPLOTRESLEVEL
 70
     2
102
SHADEPLOTCUSTOMDPI
 70
   300
  0
XRECORD
  5
B52
102
{ACAD_REACTORS
330
1A
102
}
330
1A
100
AcDbXrecord
280
     1
102
MATERIAL
148
0.0
149
0.0
149
0.0
 93
        0
 94
      127
282
     0
 72
     0
 77
     0
171
     0
175
     0
179
     0
273
     0
  0
XRECORD
  5
1C
102
{ACAD_REACTORS
330
1A
102
}
330
1A
100
AcDbXrecord
280
     1
270
     1
271
     1
  0
XRECORD
  5
1B
102
{ACAD_REACTORS
330
1A
102
}
330
1A
100
AcDbXrecord
280
     1
270
     1
271
     1
  0
XRECORD
  5
1F
102
{ACAD_REACTORS
330
1A
102
}
330
1A
100
AcDbXrecord
280
     1
270
     1
271
     1
  0
XRECORD
  5
1E
102
{ACAD_REACTORS
330
1A
102
}
330
1A
100
AcDbXrecord
280
     1
270
     1
271
     1
  0
XRECORD
  5
20
102
{ACAD_REACTORS
330
1A
102
}
330
1A
100
AcDbXrecord
280
     1
270
     1
271
     1
  0
XRECORD
  5
1D
102
{ACAD_REACTORS
330
1A
102
}
330
1A
100
AcDbXrecord
280
     1
270
     1
271
     1
  0
XRECORD
  5
B51
102
{ACAD_REACTORS
330
12
102
}
330
12
100
AcDbXrecord
280
     1
102
MATERIAL
148
0.0
149
0.0
149
0.0
 93
        0
 94
      127
282
     0
 72
     0
 77
     0
171
     0
175
     0
179
     0
273
     0
  0
XRECORD
  5
14
102
{ACAD_REACTORS
330
12
102
}
330
12
100
AcDbXrecord
280
     1
270
     1
271
     1
  0
XRECORD
  5
13
102
{ACAD_REACTORS
330
12
102
}
330
12
100
AcDbXrecord
280
     1
270
     1
271
     1
  0
XRECORD
  5
17
102
{ACAD_REACTORS
330
12
102
}
330
12
100
AcDbXrecord
280
     1
270
     1
271
     1
  0
XRECORD
  5
16
102
{ACAD_REACTORS
330
12
102
}
330
12
100
AcDbXrecord
280
     1
270
     1
271
     1
  0
XRECORD
  5
18
102
{ACAD_REACTORS
330
12
102
}
330
12
100
AcDbXrecord
280
     1
270
     1
271
     1
  0
XRECORD
  5
15
102
{ACAD_REACTORS
330
12
102
}
330
12
100
AcDbXrecord
280
     1
270
     1
271
     1
  0
XRECORD
  5
B53
102
{ACAD_REACTORS
330
22
102
}
330
22
100
AcDbXrecord
280
     1
102
MATERIAL
148
0.0
149
0.0
149
0.0
 93
        0
 94
      127
282
     0
 72
     0
 77
     0
171
     0
175
     0
179
     0
273
     0
  0
XRECORD
  5
24
102
{ACAD_REACTORS
330
22
102
}
330
22
100
AcDbXrecord
280
     1
270
     1
271
     1
  0
XRECORD
  5
23
102
{ACAD_REACTORS
330
22
102
}
330
22
100
AcDbXrecord
280
     1
270
     1
271
     1
  0
XRECORD
  5
27
102
{ACAD_REACTORS
330
22
102
}
330
22
100
AcDbXrecord
280
     1
270
     1
271
     1
  0
XRECORD
  5
26
102
{ACAD_REACTORS
330
22
102
}
330
22
100
AcDbXrecord
280
     1
270
     1
271
     1
  0
XRECORD
  5
28
102
{ACAD_REACTORS
330
22
102
}
330
22
100
AcDbXrecord
280
     1
270
     1
271
     1
  0
XRECORD
  5
25
102
{ACAD_REACTORS
330
22
102
}
330
22
100
AcDbXrecord
280
     1
270
     1
271
     1
  0
CELLSTYLEMAP
  5
14D7
102
{ACAD_REACTORS
330
B49
102
}
330
B49
100
AcDbCellStyleMap
 90
        3
300
CELLSTYLE
  1
TABLEFORMAT_BEGIN
 90
        5
170
     1
 91
        0
 92
    32768
 62
   257
 93
        1
300
CONTENTFORMAT
  1
CONTENTFORMAT_BEGIN
 90
        0
 91
        0
 92
      512
 93
        0
300

 40
0.0
140
1.0
 94
        5
 62
     0
340
55
144
0.25
309
CONTENTFORMAT_END
171
     1
301
MARGIN
  1
CELLMARGIN_BEGIN
 40
0.06
 40
0.06
 40
0.06
 40
0.06
 40
0.18
 40
0.18
309
CELLMARGIN_END
 94
        6
 95
        1
302
GRIDFORMAT
  1
GRIDFORMAT_BEGIN
 90
        0
 91
        1
 62
     0
 92
       -2
340
0
 93
        0
 40
0.045
309
GRIDFORMAT_END
 95
        2
302
GRIDFORMAT
  1
GRIDFORMAT_BEGIN
 90
        0
 91
        1
 62
     0
 92
       -2
340
0
 93
        0
 40
0.045
309
GRIDFORMAT_END
 95
        4
302
GRIDFORMAT
  1
GRIDFORMAT_BEGIN
 90
        0
 91
        1
 62
     0
 92
       -2
340
0
 93
        0
 40
0.045
309
GRIDFORMAT_END
 95
        8
302
GRIDFORMAT
  1
GRIDFORMAT_BEGIN
 90
        0
 91
        1
 62
     0
 92
       -2
340
0
 93
        0
 40
0.045
309
GRIDFORMAT_END
 95
       16
302
GRIDFORMAT
  1
GRIDFORMAT_BEGIN
 90
        0
 91
        1
 62
     0
 92
       -2
340
0
 93
        0
 40
0.045
309
GRIDFORMAT_END
 95
       32
302
GRIDFORMAT
  1
GRIDFORMAT_BEGIN
 90
        0
 91
        1
 62
     0
 92
       -2
340
0
 93
        0
 40
0.045
309
GRIDFORMAT_END
309
TABLEFORMAT_END
  1
CELLSTYLE_BEGIN
 90
        1
 91
        1
300
_TITLE
309
CELLSTYLE_END
300
CELLSTYLE
  1
TABLEFORMAT_BEGIN
 90
        5
170
     1
 91
        0
 92
        0
 62
   257
 93
        1
300
CONTENTFORMAT
  1
CONTENTFORMAT_BEGIN
 90
        0
 91
        0
 92
      512
 93
        0
300

 40
0.0
140
1.0
 94
        5
 62
     0
340
55
144
0.18
309
CONTENTFORMAT_END
171
     1
301
MARGIN
  1
CELLMARGIN_BEGIN
 40
0.06
 40
0.06
 40
0.06
 40
0.06
 40
0.18
 40
0.18
309
CELLMARGIN_END
 94
        6
 95
        1
302
GRIDFORMAT
  1
GRIDFORMAT_BEGIN
 90
        0
 91
        1
 62
     0
 92
       -2
340
0
 93
        0
 40
0.045
309
GRIDFORMAT_END
 95
        2
302
GRIDFORMAT
  1
GRIDFORMAT_BEGIN
 90
        0
 91
        1
 62
     0
 92
       -2
340
0
 93
        0
 40
0.045
309
GRIDFORMAT_END
 95
        4
302
GRIDFORMAT
  1
GRIDFORMAT_BEGIN
 90
        0
 91
        1
 62
     0
 92
       -2
340
0
 93
        0
 40
0.045
309
GRIDFORMAT_END
 95
        8
302
GRIDFORMAT
  1
GRIDFORMAT_BEGIN
 90
        0
 91
        1
 62
     0
 92
       -2
340
0
 93
        0
 40
0.045
309
GRIDFORMAT_END
 95
       16
302
GRIDFORMAT
  1
GRIDFORMAT_BEGIN
 90
        0
 91
        1
 62
     0
 92
       -2
340
0
 93
        0
 40
0.045
309
GRIDFORMAT_END
 95
       32
302
GRIDFORMAT
  1
GRIDFORMAT_BEGIN
 90
        0
 91
        1
 62
     0
 92
       -2
340
0
 93
        0
 40
0.045
309
GRIDFORMAT_END
309
TABLEFORMAT_END
  1
CELLSTYLE_BEGIN
 90
        2
 91
        1
300
_HEADER
309
CELLSTYLE_END
300
CELLSTYLE
  1
TABLEFORMAT_BEGIN
 90
        5
170
     1
 91
        0
 92
        0
 62
   257
 93
        1
300
CONTENTFORMAT
  1
CONTENTFORMAT_BEGIN
 90
        0
 91
        0
 92
      512
 93
        0
300

 40
0.0
140
1.0
 94
        2
 62
     0
340
55
144
0.18
309
CONTENTFORMAT_END
171
     1
301
MARGIN
  1
CELLMARGIN_BEGIN
 40
0.06
 40
0.06
 40
0.06
 40
0.06
 40
0.18
 40
0.18
309
CELLMARGIN_END
 94
        6
 95
        1
302
GRIDFORMAT
  1
GRIDFORMAT_BEGIN
 90
        0
 91
        1
 62
     0
 92
       -2
340
0
 93
        0
 40
0.045
309
GRIDFORMAT_END
 95
        2
302
GRIDFORMAT
  1
GRIDFORMAT_BEGIN
 90
        0
 91
        1
 62
     0
 92
       -2
340
0
 93
        0
 40
0.045
309
GRIDFORMAT_END
 95
        4
302
GRIDFORMAT
  1
GRIDFORMAT_BEGIN
 90
        0
 91
        1
 62
     0
 92
       -2
340
0
 93
        0
 40
0.045
309
GRIDFORMAT_END
 95
        8
302
GRIDFORMAT
  1
GRIDFORMAT_BEGIN
 90
        0
 91
        1
 62
     0
 92
       -2
340
0
 93
        0
 40
0.045
309
GRIDFORMAT_END
 95
       16
302
GRIDFORMAT
  1
GRIDFORMAT_BEGIN
 90
        0
 91
        1
 62
     0
 92
       -2
340
0
 93
        0
 40
0.045
309
GRIDFORMAT_END
 95
       32
302
GRIDFORMAT
  1
GRIDFORMAT_BEGIN
 90
        0
 91
        1
 62
     0
 92
       -2
340
0
 93
        0
 40
0.045
309
GRIDFORMAT_END
309
TABLEFORMAT_END
  1
CELLSTYLE_BEGIN
 90
        3
 91
        2
300
_DATA
309
CELLSTYLE_END
  0
XRECORD
  5
150E
102
{ACAD_REACTORS
330
B49
102
}
330
B49
100
AcDbXrecord
280
     1
102
ACAD_ROUNDTRIP_PRE2007_TABLESTYLE
 90
      512
 91
        0
  1

 92
      512
 93
        0
  2

 94
      512
 95
        0
  3

  0
XRECORD
  5
14E9
102
{ACAD_REACTORS
330
14E8
102
}
330
14E8
100
AcDbXrecord
280
     1
102
RTVSPropertyOp0
 70
     1
102
RTVSPropertyOp1
 70
     1
102
RTVSPropertyOp2
 70
     1
102
RTVSPropertyOp3
 70
     1
102
RTVSPropertyOp4
 70
     1
102
RTVSPropertyOp5
 70
     1
102
RTVSPropertyOp6
 70
     1
102
RTVSPropertyOp7
 70
     1
102
RTVSPropertyOp8
 70
     1
102
RTVSPropertyOp9
 70
     1
102
RTVSPropertyOp10
 70
     1
102
RTVSPropertyOp11
 70
     1
102
RTVSPropertyOp12
 70
     1
102
RTVSPropertyOp13
 70
     1
102
RTVSPropertyOp14
 70
     1
102
RTVSPropertyOp15
 70
     1
102
RTVSPropertyOp16
 70
     1
102
RTVSPropertyOp17
 70
     1
102
RTVSPropertyOp18
 70
     1
102
RTVSPropertyOp19
 70
     1
102
RTVSPropertyOp20
 70
     1
102
RTVSPropertyOp21
 70
     1
102
RTVSPropertyOp22
 70
     1
102
RTVSPropertyOp23
 70
     1
102
RTVSPropertyOp24
 70
     1
102
RTVSPropertyOp25
 70
     1
102
RTVSPropertyOp26
 70
     1
102
RTVSPropertyOp27
 70
     1
102
RTVSPropertyOp28
 70
     1
102
RTVSPropertyOp29
 70
     1
102
RTVSPropertyOp30
 70
     1
102
RTVSPropertyOp31
 70
     1
102
RTVSPropertyOp32
 70
     1
  0
XRECORD
  5
1514
102
{ACAD_REACTORS
330
1513
102
}
330
1513
100
AcDbXrecord
280
     1
102
RTVSPropertyOp0
 70
     1
102
RTVSPropertyOp1
 70
     1
102
RTVSPropertyOp2
 70
     1
102
RTVSPropertyOp3
 70
     1
102
RTVSPropertyOp4
 70
     1
102
RTVSPropertyOp5
 70
     1
102
RTVSPropertyOp6
 70
     1
102
RTVSPropertyOp7
 70
     1
102
RTVSPropertyOp8
 70
     1
102
RTVSPropertyOp9
 70
     1
102
RTVSPropertyOp10
 70
     1
102
RTVSPropertyOp11
 70
     1
102
RTVSPropertyOp12
 70
     1
102
RTVSPropertyOp13
 70
     1
102
RTVSPropertyOp14
 70
     1
102
RTVSPropertyOp15
 70
     1
102
RTVSPropertyOp16
 70
     1
102
RTVSPropertyOp17
 70
     1
102
RTVSPropertyOp18
 70
     1
102
RTVSPropertyOp19
 70
     1
102
RTVSPropertyOp20
 70
     1
102
RTVSPropertyOp21
 70
     1
102
RTVSPropertyOp22
 70
     1
102
RTVSPropertyOp23
 70
     1
102
RTVSPropertyOp24
 70
     1
102
RTVSPropertyOp25
 70
     1
102
RTVSPropertyOp26
 70
     1
102
RTVSPropertyOp27
 70
     1
102
RTVSPropertyOp28
 70
     1
102
RTVSPropertyOp29
 70
     1
102
RTVSPropertyOp30
 70
     1
102
RTVSPropertyOp31
 70
     1
102
RTVSPropertyOp32
 70
     1
  0
XRECORD
  5
14E7
102
{ACAD_REACTORS
330
14E6
102
}
330
14E6
100
AcDbXrecord
280
     1
102
RTVSPropertyOp0
 70
     1
102
RTVSPropertyOp1
 70
     1
102
RTVSPropertyOp2
 70
     1
102
RTVSPropertyOp3
 70
     1
102
RTVSPropertyOp4
 70
     1
102
RTVSPropertyOp5
 70
     1
102
RTVSPropertyOp6
 70
     1
102
RTVSPropertyOp7
 70
     1
102
RTVSPropertyOp8
 70
     1
102
RTVSPropertyOp9
 70
     1
102
RTVSPropertyOp10
 70
     1
102
RTVSPropertyOp11
 70
     1
102
RTVSPropertyOp12
 70
     1
102
RTVSPropertyOp13
 70
     1
102
RTVSPropertyOp14
 70
     1
102
RTVSPropertyOp15
 70
     1
102
RTVSPropertyOp16
 70
     1
102
RTVSPropertyOp17
 70
     1
102
RTVSPropertyOp18
 70
     1
102
RTVSPropertyOp19
 70
     1
102
RTVSPropertyOp20
 70
     1
102
RTVSPropertyOp21
 70
     1
102
RTVSPropertyOp22
 70
     1
102
RTVSPropertyOp23
 70
     1
102
RTVSPropertyOp24
 70
     1
102
RTVSPropertyOp25
 70
     1
102
RTVSPropertyOp26
 70
     1
102
RTVSPropertyOp27
 70
     1
102
RTVSPropertyOp28
 70
     1
102
RTVSPropertyOp29
 70
     1
102
RTVSPropertyOp30
 70
     1
102
RTVSPropertyOp31
 70
     1
102
RTVSPropertyOp32
 70
     1
  0
XRECORD
  5
14F5
102
{ACAD_REACTORS
330
14F4
102
}
330
14F4
100
AcDbXrecord
280
     1
102
RTVSPropertyOp0
 70
     1
102
RTVSPropertyOp1
 70
     1
102
RTVSPropertyOp2
 70
     1
102
RTVSPropertyOp3
 70
     1
102
RTVSPropertyOp4
 70
     1
102
RTVSPropertyOp5
 70
     1
102
RTVSPropertyOp6
 70
     1
102
RTVSPropertyOp7
 70
     1
102
RTVSPropertyOp8
 70
     1
102
RTVSPropertyOp9
 70
     1
102
RTVSPropertyOp10
 70
     1
102
RTVSPropertyOp11
 70
     1
102
RTVSPropertyOp12
 70
     1
102
RTVSPropertyOp13
 70
     1
102
RTVSPropertyOp14
 70
     1
102
RTVSPropertyOp15
 70
     1
102
RTVSPropertyOp16
 70
     1
102
RTVSPropertyOp17
 70
     1
102
RTVSPropertyOp18
 70
     1
102
RTVSPropertyOp19
 70
     1
102
RTVSPropertyOp20
 70
     1
102
RTVSPropertyOp21
 70
     1
102
RTVSPropertyOp22
 70
     1
102
RTVSPropertyOp23
 70
     1
102
RTVSPropertyOp24
 70
     1
102
RTVSPropertyOp25
 70
     1
102
RTVSPropertyOp26
 70
     1
102
RTVSPropertyOp27
 70
     1
102
RTVSPropertyOp28
 70
     1
102
RTVSPropertyOp29
 70
     1
102
RTVSPropertyOp30
 70
     1
102
RTVSPropertyOp31
 70
     1
102
RTVSPropertyOp32
 70
     1
  0
XRECORD
  5
14FD
102
{ACAD_REACTORS
330
14FC
102
}
330
14FC
100
AcDbXrecord
280
     1
102
RTVSPropertyOp0
 70
     1
102
RTVSPropertyOp1
 70
     1
102
RTVSPropertyOp2
 70
     1
102
RTVSPropertyOp3
 70
     1
102
RTVSPropertyOp4
 70
     1
102
RTVSPropertyOp5
 70
     1
102
RTVSPropertyOp6
 70
     1
102
RTVSPropertyOp7
 70
     1
102
RTVSPropertyOp8
 70
     1
102
RTVSPropertyOp9
 70
     1
102
RTVSPropertyOp10
 70
     1
102
RTVSPropertyOp11
 70
     1
102
RTVSPropertyOp12
 70
     1
102
RTVSPropertyOp13
 70
     1
102
RTVSPropertyOp14
 70
     1
102
RTVSPropertyOp15
 70
     1
102
RTVSPropertyOp16
 70
     1
102
RTVSPropertyOp17
 70
     1
102
RTVSPropertyOp18
 70
     1
102
RTVSPropertyOp19
 70
     1
102
RTVSPropertyOp20
 70
     1
102
RTVSPropertyOp21
 70
     1
102
RTVSPropertyOp22
 70
     1
102
RTVSPropertyOp23
 70
     1
102
RTVSPropertyOp24
 70
     1
102
RTVSPropertyOp25
 70
     1
102
RTVSPropertyOp26
 70
     1
102
RTVSPropertyOp27
 70
     1
102
RTVSPropertyOp28
 70
     1
102
RTVSPropertyOp29
 70
     1
102
RTVSPropertyOp30
 70
     1
102
RTVSPropertyOp31
 70
     1
102
RTVSPropertyOp32
 70
     1
  0
XRECORD
  5
14EF
102
{ACAD_REACTORS
330
14EE
102
}
330
14EE
100
AcDbXrecord
280
     1
102
RTVSPropertyOp0
 70
     1
102
RTVSPropertyOp1
 70
     1
102
RTVSPropertyOp2
 70
     1
102
RTVSPropertyOp3
 70
     1
102
RTVSPropertyOp4
 70
     1
102
RTVSPropertyOp5
 70
     1
102
RTVSPropertyOp6
 70
     1
102
RTVSPropertyOp7
 70
     1
102
RTVSPropertyOp8
 70
     1
102
RTVSPropertyOp9
 70
     1
102
RTVSPropertyOp10
 70
     1
102
RTVSPropertyOp11
 70
     1
102
RTVSPropertyOp12
 70
     1
102
RTVSPropertyOp13
 70
     1
102
RTVSPropertyOp14
 70
     1
102
RTVSPropertyOp15
 70
     1
102
RTVSPropertyOp16
 70
     1
102
RTVSPropertyOp17
 70
     1
102
RTVSPropertyOp18
 70
     1
102
RTVSPropertyOp19
 70
     1
102
RTVSPropertyOp20
 70
     1
102
RTVSPropertyOp21
 70
     1
102
RTVSPropertyOp22
 70
     1
102
RTVSPropertyOp23
 70
     1
102
RTVSPropertyOp24
 70
     1
102
RTVSPropertyOp25
 70
     1
102
RTVSPropertyOp26
 70
     1
102
RTVSPropertyOp27
 70
     1
102
RTVSPropertyOp28
 70
     1
102
RTVSPropertyOp29
 70
     1
102
RTVSPropertyOp30
 70
     1
102
RTVSPropertyOp31
 70
     1
102
RTVSPropertyOp32
 70
     1
  0
XRECORD
  5
14F3
102
{ACAD_REACTORS
330
14F2
102
}
330
14F2
100
AcDbXrecord
280
     1
102
RTVSPropertyOp0
 70
     1
102
RTVSPropertyOp1
 70
     1
102
RTVSPropertyOp2
 70
     1
102
RTVSPropertyOp3
 70
     1
102
RTVSPropertyOp4
 70
     1
102
RTVSPropertyOp5
 70
     1
102
RTVSPropertyOp6
 70
     1
102
RTVSPropertyOp7
 70
     1
102
RTVSPropertyOp8
 70
     1
102
RTVSPropertyOp9
 70
     1
102
RTVSPropertyOp10
 70
     1
102
RTVSPropertyOp11
 70
     1
102
RTVSPropertyOp12
 70
     1
102
RTVSPropertyOp13
 70
     1
102
RTVSPropertyOp14
 70
     1
102
RTVSPropertyOp15
 70
     1
102
RTVSPropertyOp16
 70
     1
102
RTVSPropertyOp17
 70
     1
102
RTVSPropertyOp18
 70
     1
102
RTVSPropertyOp19
 70
     1
102
RTVSPropertyOp20
 70
     1
102
RTVSPropertyOp21
 70
     1
102
RTVSPropertyOp22
 70
     1
102
RTVSPropertyOp23
 70
     1
102
RTVSPropertyOp24
 70
     1
102
RTVSPropertyOp25
 70
     1
102
RTVSPropertyOp26
 70
     1
102
RTVSPropertyOp27
 70
     1
102
RTVSPropertyOp28
 70
     1
102
RTVSPropertyOp29
 70
     1
102
RTVSPropertyOp30
 70
     1
102
RTVSPropertyOp31
 70
     1
102
RTVSPropertyOp32
 70
     1
  0
XRECORD
  5
150D
102
{ACAD_REACTORS
330
150C
102
}
330
150C
100
AcDbXrecord
280
     1
102
RTVSPropertyOp0
 70
     0
102
RTVSPropertyOp1
 70
     0
102
RTVSPropertyOp2
 70
     0
102
RTVSPropertyOp3
 70
     0
102
RTVSPropertyOp4
 70
     0
102
RTVSPropertyOp5
 70
     0
102
RTVSPropertyOp6
 70
     0
102
RTVSPropertyOp7
 70
     0
102
RTVSPropertyOp8
 70
     0
102
RTVSPropertyOp9
 70
     0
102
RTVSPropertyOp10
 70
     0
102
RTVSPropertyOp11
 70
     0
102
RTVSPropertyOp12
 70
     0
102
RTVSPropertyOp13
 70
     0
102
RTVSPropertyOp14
 70
     2
102
RTVSPropertyOp15
 70
     0
102
RTVSPropertyOp16
 70
     0
102
RTVSPropertyOp17
 70
     0
102
RTVSPropertyOp18
 70
     0
102
RTVSPropertyOp19
 70
     0
102
RTVSPropertyOp20
 70
     0
102
RTVSPropertyOp21
 70
     0
102
RTVSPropertyOp22
 70
     0
102
RTVSPropertyOp23
 70
     0
102
RTVSPropertyOp24
 70
     0
102
RTVSPropertyOp25
 70
     0
102
RTVSPropertyOp26
 70
     0
102
RTVSPropertyOp27
 70
     0
102
RTVSPropertyOp28
 70
     0
102
RTVSPropertyOp29
 70
     0
102
RTVSPropertyOp30
 70
     0
102
RTVSPropertyOp31
 70
     0
102
RTVSPropertyOp32
 70
     0
  0
XRECORD
  5
14FB
102
{ACAD_REACTORS
330
14FA
102
}
330
14FA
100
AcDbXrecord
280
     1
102
RTVSPropertyOp0
 70
     1
102
RTVSPropertyOp1
 70
     1
102
RTVSPropertyOp2
 70
     1
102
RTVSPropertyOp3
 70
     1
102
RTVSPropertyOp4
 70
     1
102
RTVSPropertyOp5
 70
     1
102
RTVSPropertyOp6
 70
     1
102
RTVSPropertyOp7
 70
     1
102
RTVSPropertyOp8
 70
     1
102
RTVSPropertyOp9
 70
     1
102
RTVSPropertyOp10
 70
     1
102
RTVSPropertyOp11
 70
     1
102
RTVSPropertyOp12
 70
     1
102
RTVSPropertyOp13
 70
     1
102
RTVSPropertyOp14
 70
     1
102
RTVSPropertyOp15
 70
     1
102
RTVSPropertyOp16
 70
     1
102
RTVSPropertyOp17
 70
     1
102
RTVSPropertyOp18
 70
     1
102
RTVSPropertyOp19
 70
     1
102
RTVSPropertyOp20
 70
     1
102
RTVSPropertyOp21
 70
     1
102
RTVSPropertyOp22
 70
     1
102
RTVSPropertyOp23
 70
     1
102
RTVSPropertyOp24
 70
     1
102
RTVSPropertyOp25
 70
     1
102
RTVSPropertyOp26
 70
     1
102
RTVSPropertyOp27
 70
     1
102
RTVSPropertyOp28
 70
     1
102
RTVSPropertyOp29
 70
     1
102
RTVSPropertyOp30
 70
     1
102
RTVSPropertyOp31
 70
     1
102
RTVSPropertyOp32
 70
     1
  0
XRECORD
  5
14DF
102
{ACAD_REACTORS
330
14DE
102
}
330
14DE
100
AcDbXrecord
280
     1
102
RTVSPropertyOp0
 70
     1
102
RTVSPropertyOp1
 70
     1
102
RTVSPropertyOp2
 70
     1
102
RTVSPropertyOp3
 70
     1
102
RTVSPropertyOp4
 70
     1
102
RTVSPropertyOp5
 70
     1
102
RTVSPropertyOp6
 70
     1
102
RTVSPropertyOp7
 70
     1
102
RTVSPropertyOp8
 70
     1
102
RTVSPropertyOp9
 70
     1
102
RTVSPropertyOp10
 70
     1
102
RTVSPropertyOp11
 70
     1
102
RTVSPropertyOp12
 70
     1
102
RTVSPropertyOp13
 70
     1
102
RTVSPropertyOp14
 70
     1
102
RTVSPropertyOp15
 70
     1
102
RTVSPropertyOp16
 70
     1
102
RTVSPropertyOp17
 70
     1
102
RTVSPropertyOp18
 70
     1
102
RTVSPropertyOp19
 70
     1
102
RTVSPropertyOp20
 70
     1
102
RTVSPropertyOp21
 70
     1
102
RTVSPropertyOp22
 70
     1
102
RTVSPropertyOp23
 70
     1
102
RTVSPropertyOp24
 70
     1
102
RTVSPropertyOp25
 70
     1
102
RTVSPropertyOp26
 70
     1
102
RTVSPropertyOp27
 70
     1
102
RTVSPropertyOp28
 70
     1
102
RTVSPropertyOp29
 70
     1
102
RTVSPropertyOp30
 70
     1
102
RTVSPropertyOp31
 70
     1
102
RTVSPropertyOp32
 70
     1
  0
XRECORD
  5
14E1
102
{ACAD_REACTORS
330
14E0
102
}
330
14E0
100
AcDbXrecord
280
     1
102
RTVSPropertyOp0
 70
     1
102
RTVSPropertyOp1
 70
     1
102
RTVSPropertyOp2
 70
     1
102
RTVSPropertyOp3
 70
     1
102
RTVSPropertyOp4
 70
     1
102
RTVSPropertyOp5
 70
     1
102
RTVSPropertyOp6
 70
     1
102
RTVSPropertyOp7
 70
     1
102
RTVSPropertyOp8
 70
     1
102
RTVSPropertyOp9
 70
     1
102
RTVSPropertyOp10
 70
     1
102
RTVSPropertyOp11
 70
     1
102
RTVSPropertyOp12
 70
     1
102
RTVSPropertyOp13
 70
     1
102
RTVSPropertyOp14
 70
     1
102
RTVSPropertyOp15
 70
     1
102
RTVSPropertyOp16
 70
     1
102
RTVSPropertyOp17
 70
     1
102
RTVSPropertyOp18
 70
     1
102
RTVSPropertyOp19
 70
     1
102
RTVSPropertyOp20
 70
     1
102
RTVSPropertyOp21
 70
     1
102
RTVSPropertyOp22
 70
     1
102
RTVSPropertyOp23
 70
     1
102
RTVSPropertyOp24
 70
     1
102
RTVSPropertyOp25
 70
     1
102
RTVSPropertyOp26
 70
     1
102
RTVSPropertyOp27
 70
     1
102
RTVSPropertyOp28
 70
     1
102
RTVSPropertyOp29
 70
     1
102
RTVSPropertyOp30
 70
     1
102
RTVSPropertyOp31
 70
     1
102
RTVSPropertyOp32
 70
     1
  0
XRECORD
  5
14E3
102
{ACAD_REACTORS
330
14E2
102
}
330
14E2
100
AcDbXrecord
280
     1
102
RTVSPropertyOp0
 70
     1
102
RTVSPropertyOp1
 70
     1
102
RTVSPropertyOp2
 70
     1
102
RTVSPropertyOp3
 70
     1
102
RTVSPropertyOp4
 70
     1
102
RTVSPropertyOp5
 70
     1
102
RTVSPropertyOp6
 70
     1
102
RTVSPropertyOp7
 70
     1
102
RTVSPropertyOp8
 70
     1
102
RTVSPropertyOp9
 70
     1
102
RTVSPropertyOp10
 70
     1
102
RTVSPropertyOp11
 70
     1
102
RTVSPropertyOp12
 70
     1
102
RTVSPropertyOp13
 70
     1
102
RTVSPropertyOp14
 70
     1
102
RTVSPropertyOp15
 70
     1
102
RTVSPropertyOp16
 70
     1
102
RTVSPropertyOp17
 70
     1
102
RTVSPropertyOp18
 70
     1
102
RTVSPropertyOp19
 70
     1
102
RTVSPropertyOp20
 70
     1
102
RTVSPropertyOp21
 70
     1
102
RTVSPropertyOp22
 70
     1
102
RTVSPropertyOp23
 70
     1
102
RTVSPropertyOp24
 70
     1
102
RTVSPropertyOp25
 70
     1
102
RTVSPropertyOp26
 70
     1
102
RTVSPropertyOp27
 70
     1
102
RTVSPropertyOp28
 70
     1
102
RTVSPropertyOp29
 70
     1
102
RTVSPropertyOp30
 70
     1
102
RTVSPropertyOp31
 70
     1
102
RTVSPropertyOp32
 70
     1
  0
XRECORD
  5
14E5
102
{ACAD_REACTORS
330
14E4
102
}
330
14E4
100
AcDbXrecord
280
     1
102
RTVSPropertyOp0
 70
     1
102
RTVSPropertyOp1
 70
     1
102
RTVSPropertyOp2
 70
     1
102
RTVSPropertyOp3
 70
     1
102
RTVSPropertyOp4
 70
     1
102
RTVSPropertyOp5
 70
     1
102
RTVSPropertyOp6
 70
     1
102
RTVSPropertyOp7
 70
     1
102
RTVSPropertyOp8
 70
     1
102
RTVSPropertyOp9
 70
     1
102
RTVSPropertyOp10
 70
     1
102
RTVSPropertyOp11
 70
     1
102
RTVSPropertyOp12
 70
     1
102
RTVSPropertyOp13
 70
     1
102
RTVSPropertyOp14
 70
     1
102
RTVSPropertyOp15
 70
     1
102
RTVSPropertyOp16
 70
     1
102
RTVSPropertyOp17
 70
     1
102
RTVSPropertyOp18
 70
     1
102
RTVSPropertyOp19
 70
     1
102
RTVSPropertyOp20
 70
     1
102
RTVSPropertyOp21
 70
     1
102
RTVSPropertyOp22
 70
     1
102
RTVSPropertyOp23
 70
     1
102
RTVSPropertyOp24
 70
     1
102
RTVSPropertyOp25
 70
     1
102
RTVSPropertyOp26
 70
     1
102
RTVSPropertyOp27
 70
     1
102
RTVSPropertyOp28
 70
     1
102
RTVSPropertyOp29
 70
     1
102
RTVSPropertyOp30
 70
     1
102
RTVSPropertyOp31
 70
     1
102
RTVSPropertyOp32
 70
     1
  0
XRECORD
  5
14ED
102
{ACAD_REACTORS
330
14EC
102
}
330
14EC
100
AcDbXrecord
280
     1
102
RTVSPropertyOp0
 70
     1
102
RTVSPropertyOp1
 70
     1
102
RTVSPropertyOp2
 70
     1
102
RTVSPropertyOp3
 70
     1
102
RTVSPropertyOp4
 70
     1
102
RTVSPropertyOp5
 70
     1
102
RTVSPropertyOp6
 70
     1
102
RTVSPropertyOp7
 70
     1
102
RTVSPropertyOp8
 70
     1
102
RTVSPropertyOp9
 70
     1
102
RTVSPropertyOp10
 70
     1
102
RTVSPropertyOp11
 70
     1
102
RTVSPropertyOp12
 70
     1
102
RTVSPropertyOp13
 70
     1
102
RTVSPropertyOp14
 70
     1
102
RTVSPropertyOp15
 70
     1
102
RTVSPropertyOp16
 70
     1
102
RTVSPropertyOp17
 70
     1
102
RTVSPropertyOp18
 70
     1
102
RTVSPropertyOp19
 70
     1
102
RTVSPropertyOp20
 70
     1
102
RTVSPropertyOp21
 70
     1
102
RTVSPropertyOp22
 70
     1
102
RTVSPropertyOp23
 70
     1
102
RTVSPropertyOp24
 70
     1
102
RTVSPropertyOp25
 70
     1
102
RTVSPropertyOp26
 70
     1
102
RTVSPropertyOp27
 70
     1
102
RTVSPropertyOp28
 70
     1
102
RTVSPropertyOp29
 70
     1
102
RTVSPropertyOp30
 70
     1
102
RTVSPropertyOp31
 70
     1
102
RTVSPropertyOp32
 70
     1
  0
XRECORD
  5
1509
102
{ACAD_REACTORS
330
1508
102
}
330
1508
100
AcDbXrecord
280
     1
102
RTVSPropertyOp0
 70
     0
102
RTVSPropertyOp1
 70
     0
102
RTVSPropertyOp2
 70
     0
102
RTVSPropertyOp3
 70
     0
102
RTVSPropertyOp4
 70
     0
102
RTVSPropertyOp5
 70
     0
102
RTVSPropertyOp6
 70
     0
102
RTVSPropertyOp7
 70
     0
102
RTVSPropertyOp8
 70
     0
102
RTVSPropertyOp9
 70
     0
102
RTVSPropertyOp10
 70
     0
102
RTVSPropertyOp11
 70
     0
102
RTVSPropertyOp12
 70
     0
102
RTVSPropertyOp13
 70
     0
102
RTVSPropertyOp14
 70
     2
102
RTVSPropertyOp15
 70
     0
102
RTVSPropertyOp16
 70
     0
102
RTVSPropertyOp17
 70
     0
102
RTVSPropertyOp18
 70
     0
102
RTVSPropertyOp19
 70
     0
102
RTVSPropertyOp20
 70
     0
102
RTVSPropertyOp21
 70
     0
102
RTVSPropertyOp22
 70
     0
102
RTVSPropertyOp23
 70
     0
102
RTVSPropertyOp24
 70
     0
102
RTVSPropertyOp25
 70
     0
102
RTVSPropertyOp26
 70
     0
102
RTVSPropertyOp27
 70
     0
102
RTVSPropertyOp28
 70
     0
102
RTVSPropertyOp29
 70
     0
102
RTVSPropertyOp30
 70
     0
102
RTVSPropertyOp31
 70
     0
102
RTVSPropertyOp32
 70
     0
  0
XRECORD
  5
14F9
102
{ACAD_REACTORS
330
14F8
102
}
330
14F8
100
AcDbXrecord
280
     1
102
RTVSPropertyOp0
 70
     1
102
RTVSPropertyOp1
 70
     1
102
RTVSPropertyOp2
 70
     1
102
RTVSPropertyOp3
 70
     1
102
RTVSPropertyOp4
 70
     1
102
RTVSPropertyOp5
 70
     1
102
RTVSPropertyOp6
 70
     1
102
RTVSPropertyOp7
 70
     1
102
RTVSPropertyOp8
 70
     1
102
RTVSPropertyOp9
 70
     1
102
RTVSPropertyOp10
 70
     1
102
RTVSPropertyOp11
 70
     1
102
RTVSPropertyOp12
 70
     1
102
RTVSPropertyOp13
 70
     1
102
RTVSPropertyOp14
 70
     1
102
RTVSPropertyOp15
 70
     1
102
RTVSPropertyOp16
 70
     1
102
RTVSPropertyOp17
 70
     1
102
RTVSPropertyOp18
 70
     1
102
RTVSPropertyOp19
 70
     1
102
RTVSPropertyOp20
 70
     1
102
RTVSPropertyOp21
 70
     1
102
RTVSPropertyOp22
 70
     1
102
RTVSPropertyOp23
 70
     1
102
RTVSPropertyOp24
 70
     1
102
RTVSPropertyOp25
 70
     1
102
RTVSPropertyOp26
 70
     1
102
RTVSPropertyOp27
 70
     1
102
RTVSPropertyOp28
 70
     1
102
RTVSPropertyOp29
 70
     1
102
RTVSPropertyOp30
 70
     1
102
RTVSPropertyOp31
 70
     1
102
RTVSPropertyOp32
 70
     1
  0
XRECORD
  5
150B
102
{ACAD_REACTORS
330
150A
102
}
330
150A
100
AcDbXrecord
280
     1
102
RTVSPropertyOp0
 70
     0
102
RTVSPropertyOp1
 70
     0
102
RTVSPropertyOp2
 70
     0
102
RTVSPropertyOp3
 70
     0
102
RTVSPropertyOp4
 70
     0
102
RTVSPropertyOp5
 70
     0
102
RTVSPropertyOp6
 70
     0
102
RTVSPropertyOp7
 70
     0
102
RTVSPropertyOp8
 70
     0
102
RTVSPropertyOp9
 70
     0
102
RTVSPropertyOp10
 70
     0
102
RTVSPropertyOp11
 70
     0
102
RTVSPropertyOp12
 70
     0
102
RTVSPropertyOp13
 70
     0
102
RTVSPropertyOp14
 70
     2
102
RTVSPropertyOp15
 70
     0
102
RTVSPropertyOp16
 70
     0
102
RTVSPropertyOp17
 70
     0
102
RTVSPropertyOp18
 70
     0
102
RTVSPropertyOp19
 70
     0
102
RTVSPropertyOp20
 70
     0
102
RTVSPropertyOp21
 70
     0
102
RTVSPropertyOp22
 70
     0
102
RTVSPropertyOp23
 70
     0
102
RTVSPropertyOp24
 70
     0
102
RTVSPropertyOp25
 70
     0
102
RTVSPropertyOp26
 70
     0
102
RTVSPropertyOp27
 70
     0
102
RTVSPropertyOp28
 70
     0
102
RTVSPropertyOp29
 70
     0
102
RTVSPropertyOp30
 70
     0
102
RTVSPropertyOp31
 70
     0
102
RTVSPropertyOp32
 70
     0
  0
XRECORD
  5
14F1
102
{ACAD_REACTORS
330
14F0
102
}
330
14F0
100
AcDbXrecord
280
     1
102
RTVSPropertyOp0
 70
     1
102
RTVSPropertyOp1
 70
     1
102
RTVSPropertyOp2
 70
     1
102
RTVSPropertyOp3
 70
     1
102
RTVSPropertyOp4
 70
     1
102
RTVSPropertyOp5
 70
     1
102
RTVSPropertyOp6
 70
     1
102
RTVSPropertyOp7
 70
     1
102
RTVSPropertyOp8
 70
     1
102
RTVSPropertyOp9
 70
     1
102
RTVSPropertyOp10
 70
     1
102
RTVSPropertyOp11
 70
     1
102
RTVSPropertyOp12
 70
     1
102
RTVSPropertyOp13
 70
     1
102
RTVSPropertyOp14
 70
     1
102
RTVSPropertyOp15
 70
     1
102
RTVSPropertyOp16
 70
     1
102
RTVSPropertyOp17
 70
     1
102
RTVSPropertyOp18
 70
     1
102
RTVSPropertyOp19
 70
     1
102
RTVSPropertyOp20
 70
     1
102
RTVSPropertyOp21
 70
     1
102
RTVSPropertyOp22
 70
     1
102
RTVSPropertyOp23
 70
     1
102
RTVSPropertyOp24
 70
     1
102
RTVSPropertyOp25
 70
     1
102
RTVSPropertyOp26
 70
     1
102
RTVSPropertyOp27
 70
     1
102
RTVSPropertyOp28
 70
     1
102
RTVSPropertyOp29
 70
     1
102
RTVSPropertyOp30
 70
     1
102
RTVSPropertyOp31
 70
     1
102
RTVSPropertyOp32
 70
     1
  0
XRECORD
  5
1507
102
{ACAD_REACTORS
330
1506
102
}
330
1506
100
AcDbXrecord
280
     1
102
RTVSPropertyOp0
 70
     1
102
RTVSPropertyOp1
 70
     1
102
RTVSPropertyOp2
 70
     1
102
RTVSPropertyOp3
 70
     1
102
RTVSPropertyOp4
 70
     1
102
RTVSPropertyOp5
 70
     1
102
RTVSPropertyOp6
 70
     1
102
RTVSPropertyOp7
 70
     1
102
RTVSPropertyOp8
 70
     1
102
RTVSPropertyOp9
 70
     1
102
RTVSPropertyOp10
 70
     1
102
RTVSPropertyOp11
 70
     1
102
RTVSPropertyOp12
 70
     1
102
RTVSPropertyOp13
 70
     1
102
RTVSPropertyOp14
 70
     1
102
RTVSPropertyOp15
 70
     1
102
RTVSPropertyOp16
 70
     1
102
RTVSPropertyOp17
 70
     1
102
RTVSPropertyOp18
 70
     1
102
RTVSPropertyOp19
 70
     1
102
RTVSPropertyOp20
 70
     1
102
RTVSPropertyOp21
 70
     1
102
RTVSPropertyOp22
 70
     1
102
RTVSPropertyOp23
 70
     1
102
RTVSPropertyOp24
 70
     1
102
RTVSPropertyOp25
 70
     1
102
RTVSPropertyOp26
 70
     1
102
RTVSPropertyOp27
 70
     1
102
RTVSPropertyOp28
 70
     1
102
RTVSPropertyOp29
 70
     1
102
RTVSPropertyOp30
 70
     1
102
RTVSPropertyOp31
 70
     1
102
RTVSPropertyOp32
 70
     1
  0
XRECORD
  5
1505
102
{ACAD_REACTORS
330
1504
102
}
330
1504
100
AcDbXrecord
280
     1
102
RTVSPropertyOp0
 70
     1
102
RTVSPropertyOp1
 70
     1
102
RTVSPropertyOp2
 70
     1
102
RTVSPropertyOp3
 70
     1
102
RTVSPropertyOp4
 70
     1
102
RTVSPropertyOp5
 70
     1
102
RTVSPropertyOp6
 70
     1
102
RTVSPropertyOp7
 70
     1
102
RTVSPropertyOp8
 70
     1
102
RTVSPropertyOp9
 70
     1
102
RTVSPropertyOp10
 70
     1
102
RTVSPropertyOp11
 70
     1
102
RTVSPropertyOp12
 70
     1
102
RTVSPropertyOp13
 70
     1
102
RTVSPropertyOp14
 70
     1
102
RTVSPropertyOp15
 70
     1
102
RTVSPropertyOp16
 70
     1
102
RTVSPropertyOp17
 70
     1
102
RTVSPropertyOp18
 70
     1
102
RTVSPropertyOp19
 70
     1
102
RTVSPropertyOp20
 70
     1
102
RTVSPropertyOp21
 70
     1
102
RTVSPropertyOp22
 70
     1
102
RTVSPropertyOp23
 70
     1
102
RTVSPropertyOp24
 70
     1
102
RTVSPropertyOp25
 70
     1
102
RTVSPropertyOp26
 70
     1
102
RTVSPropertyOp27
 70
     1
102
RTVSPropertyOp28
 70
     1
102
RTVSPropertyOp29
 70
     1
102
RTVSPropertyOp30
 70
     1
102
RTVSPropertyOp31
 70
     1
102
RTVSPropertyOp32
 70
     1
  0
XRECORD
  5
14FF
102
{ACAD_REACTORS
330
14FE
102
}
330
14FE
100
AcDbXrecord
280
     1
102
RTVSPropertyOp0
 70
     1
102
RTVSPropertyOp1
 70
     1
102
RTVSPropertyOp2
 70
     1
102
RTVSPropertyOp3
 70
     1
102
RTVSPropertyOp4
 70
     1
102
RTVSPropertyOp5
 70
     1
102
RTVSPropertyOp6
 70
     1
102
RTVSPropertyOp7
 70
     1
102
RTVSPropertyOp8
 70
     1
102
RTVSPropertyOp9
 70
     1
102
RTVSPropertyOp10
 70
     1
102
RTVSPropertyOp11
 70
     1
102
RTVSPropertyOp12
 70
     1
102
RTVSPropertyOp13
 70
     1
102
RTVSPropertyOp14
 70
     1
102
RTVSPropertyOp15
 70
     1
102
RTVSPropertyOp16
 70
     1
102
RTVSPropertyOp17
 70
     1
102
RTVSPropertyOp18
 70
     1
102
RTVSPropertyOp19
 70
     1
102
RTVSPropertyOp20
 70
     1
102
RTVSPropertyOp21
 70
     1
102
RTVSPropertyOp22
 70
     1
102
RTVSPropertyOp23
 70
     1
102
RTVSPropertyOp24
 70
     1
102
RTVSPropertyOp25
 70
     1
102
RTVSPropertyOp26
 70
     1
102
RTVSPropertyOp27
 70
     1
102
RTVSPropertyOp28
 70
     1
102
RTVSPropertyOp29
 70
     1
102
RTVSPropertyOp30
 70
     1
102
RTVSPropertyOp31
 70
     1
102
RTVSPropertyOp32
 70
     1
  0
XRECORD
  5
1501
102
{ACAD_REACTORS
330
1500
102
}
330
1500
100
AcDbXrecord
280
     1
102
RTVSPropertyOp0
 70
     1
102
RTVSPropertyOp1
 70
     1
102
RTVSPropertyOp2
 70
     1
102
RTVSPropertyOp3
 70
     1
102
RTVSPropertyOp4
 70
     1
102
RTVSPropertyOp5
 70
     1
102
RTVSPropertyOp6
 70
     1
102
RTVSPropertyOp7
 70
     1
102
RTVSPropertyOp8
 70
     1
102
RTVSPropertyOp9
 70
     1
102
RTVSPropertyOp10
 70
     1
102
RTVSPropertyOp11
 70
     1
102
RTVSPropertyOp12
 70
     1
102
RTVSPropertyOp13
 70
     1
102
RTVSPropertyOp14
 70
     1
102
RTVSPropertyOp15
 70
     1
102
RTVSPropertyOp16
 70
     1
102
RTVSPropertyOp17
 70
     1
102
RTVSPropertyOp18
 70
     1
102
RTVSPropertyOp19
 70
     1
102
RTVSPropertyOp20
 70
     1
102
RTVSPropertyOp21
 70
     1
102
RTVSPropertyOp22
 70
     1
102
RTVSPropertyOp23
 70
     1
102
RTVSPropertyOp24
 70
     1
102
RTVSPropertyOp25
 70
     1
102
RTVSPropertyOp26
 70
     1
102
RTVSPropertyOp27
 70
     1
102
RTVSPropertyOp28
 70
     1
102
RTVSPropertyOp29
 70
     1
102
RTVSPropertyOp30
 70
     1
102
RTVSPropertyOp31
 70
     1
102
RTVSPropertyOp32
 70
     1
  0
XRECORD
  5
14F7
102
{ACAD_REACTORS
330
14F6
102
}
330
14F6
100
AcDbXrecord
280
     1
102
RTVSPropertyOp0
 70
     1
102
RTVSPropertyOp1
 70
     1
102
RTVSPropertyOp2
 70
     1
102
RTVSPropertyOp3
 70
     1
102
RTVSPropertyOp4
 70
     1
102
RTVSPropertyOp5
 70
     1
102
RTVSPropertyOp6
 70
     1
102
RTVSPropertyOp7
 70
     1
102
RTVSPropertyOp8
 70
     1
102
RTVSPropertyOp9
 70
     1
102
RTVSPropertyOp10
 70
     1
102
RTVSPropertyOp11
 70
     1
102
RTVSPropertyOp12
 70
     1
102
RTVSPropertyOp13
 70
     1
102
RTVSPropertyOp14
 70
     1
102
RTVSPropertyOp15
 70
     1
102
RTVSPropertyOp16
 70
     1
102
RTVSPropertyOp17
 70
     1
102
RTVSPropertyOp18
 70
     1
102
RTVSPropertyOp19
 70
     1
102
RTVSPropertyOp20
 70
     1
102
RTVSPropertyOp21
 70
     1
102
RTVSPropertyOp22
 70
     1
102
RTVSPropertyOp23
 70
     1
102
RTVSPropertyOp24
 70
     1
102
RTVSPropertyOp25
 70
     1
102
RTVSPropertyOp26
 70
     1
102
RTVSPropertyOp27
 70
     1
102
RTVSPropertyOp28
 70
     1
102
RTVSPropertyOp29
 70
     1
102
RTVSPropertyOp30
 70
     1
102
RTVSPropertyOp31
 70
     1
102
RTVSPropertyOp32
 70
     1
  0
XRECORD
  5
14EB
102
{ACAD_REACTORS
330
14EA
102
}
330
14EA
100
AcDbXrecord
280
     1
102
RTVSPropertyOp0
 70
     1
102
RTVSPropertyOp1
 70
     1
102
RTVSPropertyOp2
 70
     1
102
RTVSPropertyOp3
 70
     1
102
RTVSPropertyOp4
 70
     1
102
RTVSPropertyOp5
 70
     1
102
RTVSPropertyOp6
 70
     1
102
RTVSPropertyOp7
 70
     1
102
RTVSPropertyOp8
 70
     1
102
RTVSPropertyOp9
 70
     1
102
RTVSPropertyOp10
 70
     1
102
RTVSPropertyOp11
 70
     1
102
RTVSPropertyOp12
 70
     1
102
RTVSPropertyOp13
 70
     1
102
RTVSPropertyOp14
 70
     1
102
RTVSPropertyOp15
 70
     1
102
RTVSPropertyOp16
 70
     1
102
RTVSPropertyOp17
 70
     1
102
RTVSPropertyOp18
 70
     1
102
RTVSPropertyOp19
 70
     1
102
RTVSPropertyOp20
 70
     1
102
RTVSPropertyOp21
 70
     1
102
RTVSPropertyOp22
 70
     1
102
RTVSPropertyOp23
 70
     1
102
RTVSPropertyOp24
 70
     1
102
RTVSPropertyOp25
 70
     1
102
RTVSPropertyOp26
 70
     1
102
RTVSPropertyOp27
 70
     1
102
RTVSPropertyOp28
 70
     1
102
RTVSPropertyOp29
 70
     1
102
RTVSPropertyOp30
 70
     1
102
RTVSPropertyOp31
 70
     1
102
RTVSPropertyOp32
 70
     1
  0
XRECORD
  5
1503
102
{ACAD_REACTORS
330
1502
102
}
330
1502
100
AcDbXrecord
280
     1
102
RTVSPropertyOp0
 70
     1
102
RTVSPropertyOp1
 70
     1
102
RTVSPropertyOp2
 70
     1
102
RTVSPropertyOp3
 70
     1
102
RTVSPropertyOp4
 70
     1
102
RTVSPropertyOp5
 70
     1
102
RTVSPropertyOp6
 70
     1
102
RTVSPropertyOp7
 70
     1
102
RTVSPropertyOp8
 70
     1
102
RTVSPropertyOp9
 70
     1
102
RTVSPropertyOp10
 70
     1
102
RTVSPropertyOp11
 70
     1
102
RTVSPropertyOp12
 70
     1
102
RTVSPropertyOp13
 70
     1
102
RTVSPropertyOp14
 70
     1
102
RTVSPropertyOp15
 70
     1
102
RTVSPropertyOp16
 70
     1
102
RTVSPropertyOp17
 70
     1
102
RTVSPropertyOp18
 70
     1
102
RTVSPropertyOp19
 70
     1
102
RTVSPropertyOp20
 70
     1
102
RTVSPropertyOp21
 70
     1
102
RTVSPropertyOp22
 70
     1
102
RTVSPropertyOp23
 70
     1
102
RTVSPropertyOp24
 70
     1
102
RTVSPropertyOp25
 70
     1
102
RTVSPropertyOp26
 70
     1
102
RTVSPropertyOp27
 70
     1
102
RTVSPropertyOp28
 70
     1
102
RTVSPropertyOp29
 70
     1
102
RTVSPropertyOp30
 70
     1
102
RTVSPropertyOp31
 70
     1
102
RTVSPropertyOp32
 70
     1
  0
ENDSEC
  0
EOF
