  0
SECTION
  2
HEADER
  9
$ACADVER
  1
AC1015
  9
$ACADMAINTVER
 70
    20
  9
$DWGCODEPAGE
  3
ANSI_932
  9
$INSBASE
 10
0.0
 20
0.0
 30
0.0
  9
$EXTMIN
 10
-682.819079276051
 20
-179.9845165839815
 30
0.0
  9
$EXTMAX
 10
220.5272940415396
 20
150.5626140471852
 30
0.0
  9
$LIMMIN
 10
-233.474999
 20
-131.992165
  9
$LIMMAX
 10
171.549996
 20
145.031426
  9
$ORTHOMODE
 70
     1
  9
$REGENMODE
 70
     1
  9
$FILLMODE
 70
     1
  9
$QTEXTMODE
 70
     0
  9
$MIRRTEXT
 70
     0
  9
$LTSCALE
 40
6.750383
  9
$ATTMODE
 70
     1
  9
$TEXTSIZE
 40
3.2
  9
$TRACEWID
 40
0.05
  9
$TEXTSTYLE
  7
高3.2
  9
$CLAYER
  8
0
  9
$CELTYPE
  6
ByLayer
  9
$CECOLOR
 62
   256
  9
$CELTSCALE
 40
1.0
  9
$DISPSILH
 70
     0
  9
$DIMSCALE
 40
1.0
  9
$DIMASZ
 40
2.5
  9
$DIMEXO
 40
0.25
  9
$DIMDLI
 40
0.2
  9
$DIMRND
 40
0.0
  9
$DIMDLE
 40
0.0
  9
$DIMEXE
 40
1.25
  9
$DIMTP
 40
0.0
  9
$DIMTM
 40
0.0
  9
$DIMTXT
 40
3.0
  9
$DIMCEN
 40
0.0
  9
$DIMTSZ
 40
0.0
  9
$DIMTOL
 70
     0
  9
$DIMLIM
 70
     0
  9
$DIMTIH
 70
     0
  9
$DIMTOH
 70
     0
  9
$DIMSE1
 70
     0
  9
$DIMSE2
 70
     0
  9
$DIMTAD
 70
     3
  9
$DIMZIN
 70
     8
  9
$DIMBLK
  1
Open30
  9
$DIMASO
 70
     1
  9
$DIMSHO
 70
     1
  9
$DIMPOST
  1

  9
$DIMAPOST
  1

  9
$DIMALT
 70
     0
  9
$DIMALTD
 70
     3
  9
$DIMALTF
 40
0.03937007874016
  9
$DIMLFAC
 40
1.0
  9
$DIMTOFL
 70
     1
  9
$DIMTVP
 40
0.0
  9
$DIMTIX
 70
     0
  9
$DIMSOXD
 70
     0
  9
$DIMSAH
 70
     0
  9
$DIMBLK1
  1

  9
$DIMBLK2
  1

  9
$DIMSTYLE
  2
1：1
  9
$DIMCLRD
 70
     0
  9
$DIMCLRE
 70
     0
  9
$DIMCLRT
 70
     4
  9
$DIMTFAC
 40
1.0
  9
$DIMGAP
 40
0.625
  9
$DIMJUST
 70
     0
  9
$DIMSD1
 70
     0
  9
$DIMSD2
 70
     0
  9
$DIMTOLJ
 70
     0
  9
$DIMTZIN
 70
     8
  9
$DIMALTZ
 70
     0
  9
$DIMALTTZ
 70
     0
  9
$DIMUPT
 70
     1
  9
$DIMDEC
 70
     2
  9
$DIMTDEC
 70
     2
  9
$DIMALTU
 70
     2
  9
$DIMALTTD
 70
     3
  9
$DIMTXSTY
  7
STANDARD
  9
$DIMAUNIT
 70
     0
  9
$DIMADEC
 70
     1
  9
$DIMALTRND
 40
0.0
  9
$DIMAZIN
 70
     2
  9
$DIMDSEP
 70
    46
  9
$DIMATFIT
 70
     0
  9
$DIMFRAC
 70
     0
  9
$DIMLDRBLK
  1
Open30
  9
$DIMLUNIT
 70
     2
  9
$DIMLWD
 70
    -2
  9
$DIMLWE
 70
    -2
  9
$DIMTMOVE
 70
     0
  9
$LUNITS
 70
     2
  9
$LUPREC
 70
     4
  9
$SKETCHINC
 40
0.1
  9
$FILLETRAD
 40
0.0
  9
$AUNITS
 70
     0
  9
$AUPREC
 70
     0
  9
$MENU
  1
.
  9
$ELEVATION
 40
0.0
  9
$PELEVATION
 40
0.0
  9
$THICKNESS
 40
0.0
  9
$LIMCHECK
 70
     0
  9
$CHAMFERA
 40
0.0
  9
$CHAMFERB
 40
0.0
  9
$CHAMFERC
 40
0.0
  9
$CHAMFERD
 40
0.0
  9
$SKPOLY
 70
     0
  9
$TDCREATE
 40
2456321.677099711
  9
$TDUCREATE
 40
2456321.302099711
  9
$TDUPDATE
 40
2459793.734625289
  9
$TDUUPDATE
 40
2459793.359625289
  9
$TDINDWG
 40
0.1099203472
  9
$TDUSRTIMER
 40
0.1099202199
  9
$USRTIMER
 70
     1
  9
$ANGBASE
 50
0.0
  9
$ANGDIR
 70
     0
  9
$PDMODE
 70
     0
  9
$PDSIZE
 40
0.0
  9
$PLINEWID
 40
0.0
  9
$SPLFRAME
 70
     0
  9
$SPLINETYPE
 70
     6
  9
$SPLINESEGS
 70
     8
  9
$HANDSEED
  5
13EE
  9
$SURFTAB1
 70
     6
  9
$SURFTAB2
 70
     6
  9
$SURFTYPE
 70
     6
  9
$SURFU
 70
     6
  9
$SURFV
 70
     6
  9
$UCSBASE
  2

  9
$UCSNAME
  2

  9
$UCSORG
 10
0.0
 20
0.0
 30
0.0
  9
$UCSXDIR
 10
1.0
 20
0.0
 30
0.0
  9
$UCSYDIR
 10
0.0
 20
1.0
 30
0.0
  9
$UCSORTHOREF
  2

  9
$UCSORTHOVIEW
 70
     0
  9
$UCSORGTOP
 10
0.0
 20
0.0
 30
0.0
  9
$UCSORGBOTTOM
 10
0.0
 20
0.0
 30
0.0
  9
$UCSORGLEFT
 10
0.0
 20
0.0
 30
0.0
  9
$UCSORGRIGHT
 10
0.0
 20
0.0
 30
0.0
  9
$UCSORGFRONT
 10
0.0
 20
0.0
 30
0.0
  9
$UCSORGBACK
 10
0.0
 20
0.0
 30
0.0
  9
$PUCSBASE
  2

  9
$PUCSNAME
  2

  9
$PUCSORG
 10
0.0
 20
0.0
 30
0.0
  9
$PUCSXDIR
 10
1.0
 20
0.0
 30
0.0
  9
$PUCSYDIR
 10
0.0
 20
1.0
 30
0.0
  9
$PUCSORTHOREF
  2

  9
$PUCSORTHOVIEW
 70
     0
  9
$PUCSORGTOP
 10
0.0
 20
0.0
 30
0.0
  9
$PUCSORGBOTTOM
 10
0.0
 20
0.0
 30
0.0
  9
$PUCSORGLEFT
 10
0.0
 20
0.0
 30
0.0
  9
$PUCSORGRIGHT
 10
0.0
 20
0.0
 30
0.0
  9
$PUCSORGFRONT
 10
0.0
 20
0.0
 30
0.0
  9
$PUCSORGBACK
 10
0.0
 20
0.0
 30
0.0
  9
$USERI1
 70
     0
  9
$USERI2
 70
     0
  9
$USERI3
 70
     0
  9
$USERI4
 70
     0
  9
$USERI5
 70
     0
  9
$USERR1
 40
0.0
  9
$USERR2
 40
0.0
  9
$USERR3
 40
0.0
  9
$USERR4
 40
0.0
  9
$USERR5
 40
0.0
  9
$WORLDVIEW
 70
     1
  9
$SHADEDGE
 70
     3
  9
$SHADEDIF
 70
    70
  9
$TILEMODE
 70
     1
  9
$MAXACTVP
 70
    64
  9
$PINSBASE
 10
0.0
 20
0.0
 30
0.0
  9
$PLIMCHECK
 70
     0
  9
$PEXTMIN
 10
1.000000000000000E+20
 20
1.000000000000000E+20
 30
1.000000000000000E+20
  9
$PEXTMAX
 10
-1.000000000000000E+20
 20
-1.000000000000000E+20
 30
-1.000000000000000E+20
  9
$PLIMMIN
 10
0.0
 20
0.0
  9
$PLIMMAX
 10
12.0
 20
9.0
  9
$UNITMODE
 70
     0
  9
$VISRETAIN
 70
     1
  9
$PLINEGEN
 70
     0
  9
$PSLTSCALE
 70
     1
  9
$TREEDEPTH
 70
  3020
  9
$CMLSTYLE
  2
Standard
  9
$CMLJUST
 70
     0
  9
$CMLSCALE
 40
1.0
  9
$PROXYGRAPHICS
 70
     1
  9
$MEASUREMENT
 70
     0
  9
$CELWEIGHT
370
    -1
  9
$ENDCAPS
280
     0
  9
$JOINSTYLE
280
     0
  9
$LWDISPLAY
290
     0
  9
$INSUNITS
 70
     0
  9
$HYPERLINKBASE
  1

  9
$STYLESHEET
  1

  9
$XEDIT
290
     1
  9
$CEPSNTYPE
380
     0
  9
$PSTYLEMODE
290
     1
  9
$FINGERPRINTGUID
  2
{88DBCE08-F885-409A-ADCD-47F62DFFD151}
  9
$VERSIONGUID
  2
{7390A473-DE02-48CC-80BA-16AFB555A541}
  9
$EXTNAMES
290
     1
  9
$PSVPSCALE
 40
0.0
  9
$OLESTARTUP
290
     0
  0
ENDSEC
  0
SECTION
  2
CLASSES
  0
CLASS
  1
ACDBDICTIONARYWDFLT
  2
AcDbDictionaryWithDefault
  3
ObjectDBX Classes
 90
        0
280
     0
281
     0
  0
CLASS
  1
MATERIAL
  2
AcDbMaterial
  3
ObjectDBX Classes
 90
     1153
280
     0
281
     0
  0
CLASS
  1
VISUALSTYLE
  2
AcDbVisualStyle
  3
ObjectDBX Classes
 90
     4095
280
     0
281
     0
  0
CLASS
  1
SCALE
  2
AcDbScale
  3
ObjectDBX Classes
 90
     1153
280
     0
281
     0
  0
CLASS
  1
TABLESTYLE
  2
AcDbTableStyle
  3
ObjectDBX Classes
 90
     4095
280
     0
281
     0
  0
CLASS
  1
MLEADERSTYLE
  2
AcDbMLeaderStyle
  3
ACDB_MLEADERSTYLE_CLASS
 90
     4095
280
     0
281
     0
  0
CLASS
  1
DICTIONARYVAR
  2
AcDbDictionaryVar
  3
ObjectDBX Classes
 90
        0
280
     0
281
     0
  0
CLASS
  1
SORTENTSTABLE
  2
AcDbSortentsTable
  3
ObjectDBX Classes
 90
        0
280
     0
281
     0
  0
CLASS
  1
CELLSTYLEMAP
  2
AcDbCellStyleMap
  3
ObjectDBX Classes
 90
     1152
280
     0
281
     0
  0
CLASS
  1
ACDBPLACEHOLDER
  2
AcDbPlaceHolder
  3
ObjectDBX Classes
 90
        0
280
     0
281
     0
  0
CLASS
  1
LAYOUT
  2
AcDbLayout
  3
ObjectDBX Classes
 90
        0
280
     0
281
     0
  0
CLASS
  1
AEC_REFEDIT_STATUS_TRACKER
  2
AecDbRefEditStatusTracker
  3
AecArchBase60|Product Desc: Autodesk Architectural Desktop 2007 |Company: Autodesk,Inc. |WEB Address: www.autodesk.com
 90
      129
280
     0
281
     0
  0
CLASS
  1
NPOCOLLECTION
  2
AcDbImpNonPersistentObjectsCollection
  3
ObjectDBX Classes
 90
     1153
280
     0
281
     0
  0
ENDSEC
  0
SECTION
  2
TABLES
  0
TABLE
  2
VPORT
  5
8
330
0
100
AcDbSymbolTable
 70
     1
  0
VPORT
  5
8C
330
8
100
AcDbSymbolTableRecord
100
AcDbViewportTableRecord
  2
*Active
 70
     0
 10
0.0
 20
0.0
 11
1.0
 21
1.0
 12
-480.9631638837273
 22
-49.23300932308859
 13
0.0
 23
0.0
 14
1.0
 24
1.0
 15
0.0
 25
0.0
 16
0.0
 26
0.0
 36
1.0
 17
0.0
 27
0.0
 37
0.0
 40
605.5227781752667
 41
1.396630934150076
 42
50.0
 43
0.0
 44
0.0
 50
0.0
 51
0.0
 71
     0
 72
   100
 73
     1
 74
     1
 75
     0
 76
     0
 77
     0
 78
     0
281
     0
 65
     1
110
0.0
120
0.0
130
0.0
111
1.0
121
0.0
131
0.0
112
0.0
122
1.0
132
0.0
 79
     0
146
0.0
  0
ENDTAB
  0
TABLE
  2
LTYPE
  5
5
330
0
100
AcDbSymbolTable
 70
     6
  0
LTYPE
  5
5A
330
5
100
AcDbSymbolTableRecord
100
AcDbLinetypeTableRecord
  2
ByBlock
 70
     0
  3

 72
    65
 73
     0
 40
0.0
  0
LTYPE
  5
5B
330
5
100
AcDbSymbolTableRecord
100
AcDbLinetypeTableRecord
  2
ByLayer
 70
     0
  3

 72
    65
 73
     0
 40
0.0
  0
LTYPE
  5
5C
330
5
100
AcDbSymbolTableRecord
100
AcDbLinetypeTableRecord
  2
CONTINUOUS
 70
     0
  3
Solid-line
 72
    65
 73
     0
 40
0.0
  0
LTYPE
  5
78
330
5
100
AcDbSymbolTableRecord
100
AcDbLinetypeTableRecord
  2
DASHED
 70
     0
  3
DASHED
 72
    65
 73
     2
 40
0.75
 49
0.5
 74
     0
 49
-0.25
 74
     0
  0
LTYPE
  5
81
330
5
100
AcDbSymbolTableRecord
100
AcDbLinetypeTableRecord
  2
HIDDEN
 70
     0
  3
HIDDEN
 72
    65
 73
     2
 40
0.375
 49
0.25
 74
     0
 49
-0.125
 74
     0
  0
LTYPE
  5
84
330
5
100
AcDbSymbolTableRecord
100
AcDbLinetypeTableRecord
  2
PHANTOM
 70
     0
  3
PHANTOM
 72
    65
 73
     6
 40
2.5
 49
1.25
 74
     0
 49
-0.25
 74
     0
 49
0.25
 74
     0
 49
-0.25
 74
     0
 49
0.25
 74
     0
 49
-0.25
 74
     0
  0
ENDTAB
  0
TABLE
  2
LAYER
  5
2
102
{ACAD_XDICTIONARY
360
4BA
102
}
330
0
100
AcDbSymbolTable
 70
     2
  0
LAYER
  5
54
102
{ACAD_XDICTIONARY
360
95A
102
}
330
2
100
AcDbSymbolTableRecord
100
AcDbLayerTableRecord
  2
0
 70
     0
 62
     7
  6
CONTINUOUS
370
    -3
390
F
  0
LAYER
  5
6A1
330
2
100
AcDbSymbolTableRecord
100
AcDbLayerTableRecord
  2
Defpoints
 70
     0
 62
     7
  6
CONTINUOUS
290
     0
370
    -3
390
F
  0
ENDTAB
  0
TABLE
  2
STYLE
  5
3
330
0
100
AcDbSymbolTable
 70
     6
  0
STYLE
  5
55
330
3
100
AcDbSymbolTableRecord
100
AcDbTextStyleTableRecord
  2
STANDARD
 70
     0
 40
0.0
 41
1.0
 50
0.0
 71
     0
 42
0.2
  3
TXT
  4
BIGFONT
  0
STYLE
  5
4AF
330
3
100
AcDbSymbolTableRecord
100
AcDbTextStyleTableRecord
  2
高3.2
 70
     0
 40
3.2
 41
1.0
 50
0.0
 71
     0
 42
3.2
  3
txt.shx
  4
bigfont.shx
  0
STYLE
  5
4B0
330
3
100
AcDbSymbolTableRecord
100
AcDbTextStyleTableRecord
  2
高6.3
 70
     0
 40
6.299999999999998
 41
1.0
 50
0.0
 71
     0
 42
6.299999999999998
  3
txt.shx
  4
bigfont.shx
  0
STYLE
  5
4B1
330
3
100
AcDbSymbolTableRecord
100
AcDbTextStyleTableRecord
  2
高2.5
 70
     0
 40
2.5
 41
1.0
 50
0.0
 71
     0
 42
0.2
  3
txt.shx
  4
bigfont.shx
  0
STYLE
  5
4B2
330
3
100
AcDbSymbolTableRecord
100
AcDbTextStyleTableRecord
  2
高4.5
 70
     0
 40
4.5
 41
1.0
 50
0.0
 71
     0
 42
6.299999999999998
  3
txt.shx
  4
bigfont.shx
  0
STYLE
  5
4B3
330
3
100
AcDbSymbolTableRecord
100
AcDbTextStyleTableRecord
  2
高2
 70
     0
 40
2.0
 41
1.0
 50
0.0
 71
     0
 42
6.299999999999998
  3
txt.shx
  4
bigfont.shx
  0
ENDTAB
  0
TABLE
  2
VIEW
  5
6
330
0
100
AcDbSymbolTable
 70
     0
  0
ENDTAB
  0
TABLE
  2
UCS
  5
7
330
0
100
AcDbSymbolTable
 70
     0
  0
ENDTAB
  0
TABLE
  2
APPID
  5
9
330
0
100
AcDbSymbolTable
 70
     7
  0
APPID
  5
56
330
9
100
AcDbSymbolTableRecord
100
AcDbRegAppTableRecord
  2
ACAD
 70
     0
  0
APPID
  5
5D
330
9
100
AcDbSymbolTableRecord
100
AcDbRegAppTableRecord
  2
AcadAnnotative
 70
     0
  0
APPID
  5
4B9
330
9
100
AcDbSymbolTableRecord
100
AcDbRegAppTableRecord
  2
ACAD_DSTYLE_DIMJOGGED_JOGANGLE_SYMBOL
 70
     0
  0
APPID
  5
7AF
330
9
100
AcDbSymbolTableRecord
100
AcDbRegAppTableRecord
  2
ACAD_EXEMPT_FROM_CAD_STANDARDS
 70
     0
  0
APPID
  5
9A0
330
9
100
AcDbSymbolTableRecord
100
AcDbRegAppTableRecord
  2
ACAD_MLEADERVER
 70
     0
  0
APPID
  5
9A5
330
9
100
AcDbSymbolTableRecord
100
AcDbRegAppTableRecord
  2
ACAD_DSTYLE_DIMARC_LENGTH_SYMBOL
 70
     0
  0
APPID
  5
9A6
330
9
100
AcDbSymbolTableRecord
100
AcDbRegAppTableRecord
  2
ACAD_DSTYLE_DIMEXT_LENGTH
 70
     0
  0
ENDTAB
  0
TABLE
  2
DIMSTYLE
  5
A
330
0
100
AcDbSymbolTable
 70
     3
100
AcDbDimStyleTable
 71
     1
340
4B4
  0
DIMSTYLE
105
57
330
A
100
AcDbSymbolTableRecord
100
AcDbDimStyleTableRecord
  2
Standard
 70
     0
340
55
  0
DIMSTYLE
105
4B4
330
A
100
AcDbSymbolTableRecord
100
AcDbDimStyleTableRecord
  2
1：1
 70
     0
 41
2.5
 42
0.25
 43
0.2
 44
1.25
 73
     0
 74
     0
 77
     3
 78
     8
 79
     2
140
3.0
141
0.0
143
0.03937007874016
147
0.625
171
     3
172
     1
178
     4
179
     1
271
     2
272
     2
274
     3
283
     0
284
     8
288
     1
289
     0
340
55
341
3D4
342
3D4
1001
ACAD_DSTYLE_DIMARC_LENGTH_SYMBOL
1070
   379
1070
     2
1001
ACAD_DSTYLE_DIMEXT_LENGTH
1070
   378
1040
1.25
1001
ACAD_DSTYLE_DIMJOGGED_JOGANGLE_SYMBOL
1070
   384
1040
1.570796326794896
  0
ENDTAB
  0
TABLE
  2
BLOCK_RECORD
  5
1
330
0
100
AcDbSymbolTable
 70
    28
  0
BLOCK_RECORD
  5
6B
102
{ACAD_XDICTIONARY
360
90E
102
}
330
1
100
AcDbSymbolTableRecord
100
AcDbBlockTableRecord
  2
*Model_Space
340
6E
  0
BLOCK_RECORD
  5
67
330
1
100
AcDbSymbolTableRecord
100
AcDbBlockTableRecord
  2
*Paper_Space
340
6A
  0
BLOCK_RECORD
  5
3D4
330
1
100
AcDbSymbolTableRecord
100
AcDbBlockTableRecord
  2
_Open30
340
0
102
{BLKREFS
331
9F9
331
9FA
331
A02
331
A03
331
A0B
331
A0C
331
A16
331
A17
331
A21
331
A22
331
A28
331
A29
331
A30
331
A31
331
A39
331
A3A
331
A5D
331
A5E
331
A6B
331
A6C
331
A79
331
A7A
331
A83
331
A84
331
A8E
331
A8F
331
A9A
331
A9B
331
A45
331
A46
331
A51
331
A52
331
10BE
331
10BF
331
10C7
331
10C8
331
10D0
331
10D1
331
10DB
331
10DC
331
10E6
331
10E7
331
10ED
331
10EE
331
10F5
331
10F6
331
10FE
331
10FF
102
}
  0
BLOCK_RECORD
  5
6A2
330
1
100
AcDbSymbolTableRecord
100
AcDbBlockTableRecord
  2
*D1
340
0
  0
BLOCK_RECORD
  5
6AF
330
1
100
AcDbSymbolTableRecord
100
AcDbBlockTableRecord
  2
*D2
340
0
  0
BLOCK_RECORD
  5
6BC
330
1
100
AcDbSymbolTableRecord
100
AcDbBlockTableRecord
  2
*D3
340
0
  0
BLOCK_RECORD
  5
6C9
330
1
100
AcDbSymbolTableRecord
100
AcDbBlockTableRecord
  2
*D4
340
0
  0
BLOCK_RECORD
  5
6D6
330
1
100
AcDbSymbolTableRecord
100
AcDbBlockTableRecord
  2
*D5
340
0
  0
BLOCK_RECORD
  5
6E3
330
1
100
AcDbSymbolTableRecord
100
AcDbBlockTableRecord
  2
*D6
340
0
  0
BLOCK_RECORD
  5
6EE
330
1
100
AcDbSymbolTableRecord
100
AcDbBlockTableRecord
  2
*D7
340
0
  0
BLOCK_RECORD
  5
6FB
330
1
100
AcDbSymbolTableRecord
100
AcDbBlockTableRecord
  2
*D8
340
0
  0
BLOCK_RECORD
  5
A40
330
1
100
AcDbSymbolTableRecord
100
AcDbBlockTableRecord
  2
*D9
340
0
  0
BLOCK_RECORD
  5
A4C
330
1
100
AcDbSymbolTableRecord
100
AcDbBlockTableRecord
  2
*D10
340
0
  0
BLOCK_RECORD
  5
A58
330
1
100
AcDbSymbolTableRecord
100
AcDbBlockTableRecord
  2
*D11
340
0
  0
BLOCK_RECORD
  5
A64
330
1
100
AcDbSymbolTableRecord
100
AcDbBlockTableRecord
  2
*D12
340
0
  0
BLOCK_RECORD
  5
A72
330
1
100
AcDbSymbolTableRecord
100
AcDbBlockTableRecord
  2
*D13
340
0
  0
BLOCK_RECORD
  5
A80
330
1
100
AcDbSymbolTableRecord
100
AcDbBlockTableRecord
  2
*D14
340
0
  0
BLOCK_RECORD
  5
A89
330
1
100
AcDbSymbolTableRecord
100
AcDbBlockTableRecord
  2
*D15
340
0
  0
BLOCK_RECORD
  5
A95
330
1
100
AcDbSymbolTableRecord
100
AcDbBlockTableRecord
  2
*D16
340
0
  0
BLOCK_RECORD
  5
105A
330
1
100
AcDbSymbolTableRecord
100
AcDbBlockTableRecord
  2
*D18
340
0
  0
BLOCK_RECORD
  5
1066
330
1
100
AcDbSymbolTableRecord
100
AcDbBlockTableRecord
  2
*D19
340
0
  0
BLOCK_RECORD
  5
1072
330
1
100
AcDbSymbolTableRecord
100
AcDbBlockTableRecord
  2
*D20
340
0
  0
BLOCK_RECORD
  5
107E
330
1
100
AcDbSymbolTableRecord
100
AcDbBlockTableRecord
  2
*D21
340
0
  0
BLOCK_RECORD
  5
108C
330
1
100
AcDbSymbolTableRecord
100
AcDbBlockTableRecord
  2
*D22
340
0
  0
BLOCK_RECORD
  5
109A
330
1
100
AcDbSymbolTableRecord
100
AcDbBlockTableRecord
  2
*D23
340
0
  0
BLOCK_RECORD
  5
10A3
330
1
100
AcDbSymbolTableRecord
100
AcDbBlockTableRecord
  2
*D24
340
0
  0
BLOCK_RECORD
  5
10AF
330
1
100
AcDbSymbolTableRecord
100
AcDbBlockTableRecord
  2
*D25
340
0
  0
ENDTAB
  0
ENDSEC
  0
SECTION
  2
BLOCKS
  0
BLOCK
  5
6C
330
6B
100
AcDbEntity
  8
0
100
AcDbBlockBegin
  2
*Model_Space
 70
     0
 10
0.0
 20
0.0
 30
0.0
  3
*Model_Space
  1

  0
ENDBLK
  5
6D
330
6B
100
AcDbEntity
  8
0
100
AcDbBlockEnd
  0
BLOCK
  5
68
330
67
100
AcDbEntity
 67
     1
  8
0
100
AcDbBlockBegin
  2
*Paper_Space
 70
     0
 10
0.0
 20
0.0
 30
0.0
  3
*Paper_Space
  1

  0
ENDBLK
  5
69
330
67
100
AcDbEntity
 67
     1
  8
0
100
AcDbBlockEnd
  0
BLOCK
  5
3D5
330
3D4
100
AcDbEntity
  8
0
100
AcDbBlockBegin
  2
_Open30
 70
     0
 10
0.0
 20
0.0
 30
0.0
  3
_Open30
  1

  0
LINE
  5
3D6
330
3D4
100
AcDbEntity
  8
0
  6
ByBlock
 62
     0
370
    -2
100
AcDbLine
 10
-1.0
 20
0.267949
 30
0.0
 11
0.0
 21
0.0
 31
0.0
  0
LINE
  5
3D7
330
3D4
100
AcDbEntity
  8
0
  6
ByBlock
 62
     0
370
    -2
100
AcDbLine
 10
0.0
 20
0.0
 30
0.0
 11
-1.0
 21
-0.267949
 31
0.0
  0
LINE
  5
3D8
330
3D4
100
AcDbEntity
  8
0
  6
ByBlock
 62
     0
370
    -2
100
AcDbLine
 10
0.0
 20
0.0
 30
0.0
 11
-1.0
 21
0.0
 31
0.0
  0
ENDBLK
  5
3D9
330
3D4
100
AcDbEntity
  8
0
100
AcDbBlockEnd
  0
BLOCK
  5
6A3
330
6A2
100
AcDbEntity
  8
0
100
AcDbBlockBegin
  2
*D1
 70
     1
 10
0.0
 20
0.0
 30
0.0
  3
*D1
  1

  0
LINE
  5
9F6
330
6A2
100
AcDbEntity
  8
0
 62
     0
370
    -2
100
AcDbLine
 10
-304.380102276051
 20
74.45435414718531
 30
0.0
 11
-293.103563276051
 21
74.45435414718531
 31
0.0
  0
LINE
  5
9F7
330
6A2
100
AcDbEntity
  8
0
 62
     0
370
    -2
100
AcDbLine
 10
-305.3776022760509
 20
84.45435414718531
 30
0.0
 11
-293.103563276051
 21
84.45435414718531
 31
0.0
  0
LINE
  5
9F8
330
6A2
100
AcDbEntity
  8
0
 62
     0
370
    -2
100
AcDbLine
 10
-294.353563276051
 20
76.95435414718531
 30
0.0
 11
-294.353563276051
 21
81.95435414718531
 31
0.0
  0
INSERT
  5
9F9
330
6A2
100
AcDbEntity
  8
0
 62
     0
370
    -2
100
AcDbBlockReference
  2
_Open30
 10
-294.353563276051
 20
74.45435414718531
 30
0.0
 41
2.5
 42
2.5
 43
2.5
 50
270.0
  0
INSERT
  5
9FA
330
6A2
100
AcDbEntity
  8
0
 62
     0
370
    -2
100
AcDbBlockReference
  2
_Open30
 10
-294.353563276051
 20
84.45435414718531
 30
0.0
 41
2.5
 42
2.5
 43
2.5
 50
90.0
  0
MTEXT
  5
9FB
330
6A2
100
AcDbEntity
  8
0
 62
     4
100
AcDbMText
 10
-296.478563276051
 20
79.45435414718525
 30
0.0
 40
3.0
 41
0.0
 71
     5
 72
     1
  1
10
 11
0.0000000000000001
 21
1.0
 31
0.0
 73
     1
 44
1.0
1001
ACAD
1000
MTEXTBEGIN
1070
    73
1070
     1
1070
    44
1040
1.0
1070
    74
1070
     0
1000
MTEXTEND
  0
POINT
  5
9FC
330
6A2
100
AcDbEntity
  8
Defpoints
 62
     0
100
AcDbPoint
 10
-304.630102276051
 20
74.45435414718531
 30
0.0
  0
POINT
  5
9FD
330
6A2
100
AcDbEntity
  8
Defpoints
 62
     0
100
AcDbPoint
 10
-305.6276022760509
 20
84.45435414718531
 30
0.0
  0
POINT
  5
9FE
330
6A2
100
AcDbEntity
  8
Defpoints
 62
     0
100
AcDbPoint
 10
-294.353563276051
 20
84.45435414718531
 30
0.0
  0
ENDBLK
  5
6A4
330
6A2
100
AcDbEntity
  8
0
100
AcDbBlockEnd
  0
BLOCK
  5
6B0
330
6AF
100
AcDbEntity
  8
0
100
AcDbBlockBegin
  2
*D2
 70
     1
 10
0.0
 20
0.0
 30
0.0
  3
*D2
  1

  0
LINE
  5
9FF
330
6AF
100
AcDbEntity
  8
0
 62
     0
370
    -2
100
AcDbLine
 10
-306.032558276051
 20
-25.0097348528147
 30
0.0
 11
-295.0580612760509
 21
-25.0097348528147
 31
0.0
  0
LINE
  5
A00
330
6AF
100
AcDbEntity
  8
0
 62
     0
370
    -2
100
AcDbLine
 10
-306.032558276051
 20
-1.009734852814689
 30
0.0
 11
-295.0580612760509
 21
-1.009734852814692
 31
0.0
  0
LINE
  5
A01
330
6AF
100
AcDbEntity
  8
0
 62
     0
370
    -2
100
AcDbLine
 10
-296.3080612760509
 20
-22.5097348528147
 30
0.0
 11
-296.3080612760509
 21
-3.509734852814692
 31
0.0
  0
INSERT
  5
A02
330
6AF
100
AcDbEntity
  8
0
 62
     0
370
    -2
100
AcDbBlockReference
  2
_Open30
 10
-296.3080612760509
 20
-25.0097348528147
 30
0.0
 41
2.5
 42
2.5
 43
2.5
 50
270.0
  0
INSERT
  5
A03
330
6AF
100
AcDbEntity
  8
0
 62
     0
370
    -2
100
AcDbBlockReference
  2
_Open30
 10
-296.3080612760509
 20
-1.009734852814692
 30
0.0
 41
2.5
 42
2.5
 43
2.5
 50
90.0
  0
MTEXT
  5
A04
330
6AF
100
AcDbEntity
  8
0
 62
     4
100
AcDbMText
 10
-298.4330612760508
 20
-13.00973485281474
 30
0.0
 40
3.0
 41
0.0
 71
     5
 72
     1
  1
24
 11
0.0000000000000001
 21
1.0
 31
0.0
 73
     1
 44
1.0
1001
ACAD
1000
MTEXTBEGIN
1070
    73
1070
     1
1070
    44
1040
1.0
1070
    74
1070
     0
1000
MTEXTEND
  0
POINT
  5
A05
330
6AF
100
AcDbEntity
  8
Defpoints
 62
     0
100
AcDbPoint
 10
-306.282558276051
 20
-25.0097348528147
 30
0.0
  0
POINT
  5
A06
330
6AF
100
AcDbEntity
  8
Defpoints
 62
     0
100
AcDbPoint
 10
-306.282558276051
 20
-1.009734852814689
 30
0.0
  0
POINT
  5
A07
330
6AF
100
AcDbEntity
  8
Defpoints
 62
     0
100
AcDbPoint
 10
-296.3080612760509
 20
-1.009734852814692
 30
0.0
  0
ENDBLK
  5
6B1
330
6AF
100
AcDbEntity
  8
0
100
AcDbBlockEnd
  0
BLOCK
  5
6BD
330
6BC
100
AcDbEntity
  8
0
100
AcDbBlockBegin
  2
*D3
 70
     1
 10
0.0
 20
0.0
 30
0.0
  3
*D3
  1

  0
LINE
  5
A08
330
6BC
100
AcDbEntity
  8
0
 62
     0
370
    -2
100
AcDbLine
 10
-550.5643242760509
 20
-8.292296852814686
 30
0.0
 11
-550.5643242760509
 21
12.09147614718531
 31
0.0
  0
LINE
  5
A09
330
6BC
100
AcDbEntity
  8
0
 62
     0
370
    -2
100
AcDbLine
 10
-304.782558276051
 20
-2.259734852814688
 30
0.0
 11
-304.782558276051
 21
12.09147614718531
 31
0.0
  0
LINE
  5
A0A
330
6BC
100
AcDbEntity
  8
0
 62
     0
370
    -2
100
AcDbLine
 10
-548.0643242760509
 20
10.84147614718531
 30
0.0
 11
-307.2825582760509
 21
10.84147614718531
 31
0.0
  0
INSERT
  5
A0B
330
6BC
100
AcDbEntity
  8
0
 62
     0
370
    -2
100
AcDbBlockReference
  2
_Open30
 10
-550.5643242760509
 20
10.84147614718531
 30
0.0
 41
2.5
 42
2.5
 43
2.5
 50
180.0
  0
INSERT
  5
A0C
330
6BC
100
AcDbEntity
  8
0
 62
     0
370
    -2
100
AcDbBlockReference
  2
_Open30
 10
-304.782558276051
 20
10.84147614718531
 30
0.0
 41
2.5
 42
2.5
 43
2.5
  0
MTEXT
  5
A0D
330
6BC
100
AcDbEntity
  8
0
 62
     4
100
AcDbMText
 10
-427.6734412760509
 20
12.96647614718531
 30
0.0
 40
3.0
 41
0.0
 71
     5
 72
     1
  1
L寸法
 73
     1
 44
1.0
1001
ACAD
1000
MTEXTBEGIN
1070
    73
1070
     1
1070
    44
1040
1.0
1070
    74
1070
     0
1000
MTEXTEND
  0
POINT
  5
A0E
330
6BC
100
AcDbEntity
  8
Defpoints
 62
     0
100
AcDbPoint
 10
-550.5643242760509
 20
-8.542296852814686
 30
0.0
  0
POINT
  5
A0F
330
6BC
100
AcDbEntity
  8
Defpoints
 62
     0
100
AcDbPoint
 10
-304.782558276051
 20
-2.509734852814688
 30
0.0
  0
POINT
  5
A10
330
6BC
100
AcDbEntity
  8
Defpoints
 62
     0
100
AcDbPoint
 10
-304.782558276051
 20
10.84147614718531
 30
0.0
  0
ENDBLK
  5
6BE
330
6BC
100
AcDbEntity
  8
0
100
AcDbBlockEnd
  0
BLOCK
  5
6CA
330
6C9
100
AcDbEntity
  8
0
100
AcDbBlockBegin
  2
*D4
 70
     1
 10
0.0
 20
0.0
 30
0.0
  3
*D4
  1

  0
LINE
  5
A11
330
6C9
100
AcDbEntity
  8
0
 62
     0
370
    -2
100
AcDbLine
 10
-384.654626276051
 20
-20.55691585281469
 30
0.0
 11
-375.6100827901123
 21
-20.55691585281469
 31
0.0
  0
LINE
  5
A12
330
6C9
100
AcDbEntity
  8
0
 62
     0
370
    -2
100
AcDbLine
 10
-384.4222952760509
 20
-5.467382852814688
 30
0.0
 11
-375.6100827901123
 21
-5.467382852814691
 31
0.0
  0
LINE
  5
A13
330
6C9
100
AcDbEntity
  8
0
 62
     0
370
    -2
100
AcDbLine
 10
-376.8600827901123
 20
-2.967382852814691
 30
0.0
 11
-376.8600827901123
 21
-0.4673828528146914
 31
0.0
  0
LINE
  5
A14
330
6C9
100
AcDbEntity
  8
0
 62
     0
370
    -2
100
AcDbLine
 10
-376.8600827901123
 20
-23.05691585281469
 30
0.0
 11
-376.8600827901123
 21
-31.18191585281463
 31
0.0
  0
LINE
  5
A15
330
6C9
100
AcDbEntity
  8
0
 62
     0
370
    -2
100
AcDbLine
 10
-376.8600827901123
 20
-5.467382852814691
 30
0.0
 11
-376.8600827901123
 21
-20.55691585281469
 31
0.0
  0
INSERT
  5
A16
330
6C9
100
AcDbEntity
  8
0
 62
     0
370
    -2
100
AcDbBlockReference
  2
_Open30
 10
-376.8600827901123
 20
-5.467382852814691
 30
0.0
 41
2.5
 42
2.5
 43
2.5
 50
270.0
  0
INSERT
  5
A17
330
6C9
100
AcDbEntity
  8
0
 62
     0
370
    -2
100
AcDbBlockReference
  2
_Open30
 10
-376.8600827901123
 20
-20.55691585281469
 30
0.0
 41
2.5
 42
2.5
 43
2.5
 50
90.0
  0
MTEXT
  5
A18
330
6C9
100
AcDbEntity
  8
0
 62
     4
100
AcDbMText
 10
-378.9850827901123
 20
-28.55691585281469
 30
0.0
 40
3.0
 41
0.0
 71
     5
 72
     1
  1
15
 11
0.0000000000000001
 21
1.0
 31
0.0
 73
     1
 44
1.0
1001
ACAD
1000
MTEXTBEGIN
1070
    73
1070
     1
1070
    44
1040
1.0
1070
    74
1070
     0
1000
MTEXTEND
  0
POINT
  5
A19
330
6C9
100
AcDbEntity
  8
Defpoints
 62
     0
100
AcDbPoint
 10
-384.904626276051
 20
-20.55691585281469
 30
0.0
  0
POINT
  5
A1A
330
6C9
100
AcDbEntity
  8
Defpoints
 62
     0
100
AcDbPoint
 10
-384.6722952760509
 20
-5.467382852814688
 30
0.0
  0
POINT
  5
A1B
330
6C9
100
AcDbEntity
  8
Defpoints
 62
     0
100
AcDbPoint
 10
-376.8600827901123
 20
-5.467382852814691
 30
0.0
  0
ENDBLK
  5
6CB
330
6C9
100
AcDbEntity
  8
0
100
AcDbBlockEnd
  0
BLOCK
  5
6D7
330
6D6
100
AcDbEntity
  8
0
100
AcDbBlockBegin
  2
*D5
 70
     1
 10
0.0
 20
0.0
 30
0.0
  3
*D5
  1

  0
LINE
  5
A1C
330
6D6
100
AcDbEntity
  8
0
 62
     0
370
    -2
100
AcDbLine
 10
-428.4198622760508
 20
73.70658514718532
 30
0.0
 11
-421.0133812760508
 21
73.70658514718532
 31
0.0
  0
LINE
  5
A1D
330
6D6
100
AcDbEntity
  8
0
 62
     0
370
    -2
100
AcDbLine
 10
-428.696729276051
 20
76.70658514718532
 30
0.0
 11
-421.0133812760508
 21
76.70658514718532
 31
0.0
  0
LINE
  5
A1E
330
6D6
100
AcDbEntity
  8
0
 62
     0
370
    -2
100
AcDbLine
 10
-422.2633812760508
 20
71.20658514718532
 30
0.0
 11
-422.2633812760508
 21
68.70658514718532
 31
0.0
  0
LINE
  5
A1F
330
6D6
100
AcDbEntity
  8
0
 62
     0
370
    -2
100
AcDbLine
 10
-422.2633812760508
 20
79.20658514718532
 30
0.0
 11
-422.2633812760508
 21
87.95658514718532
 31
0.0
  0
LINE
  5
A20
330
6D6
100
AcDbEntity
  8
0
 62
     0
370
    -2
100
AcDbLine
 10
-422.2633812760508
 20
73.70658514718532
 30
0.0
 11
-422.2633812760508
 21
76.70658514718532
 31
0.0
  0
INSERT
  5
A21
330
6D6
100
AcDbEntity
  8
0
 62
     0
370
    -2
100
AcDbBlockReference
  2
_Open30
 10
-422.2633812760508
 20
73.70658514718532
 30
0.0
 41
2.5
 42
2.5
 43
2.5
 50
90.0
  0
INSERT
  5
A22
330
6D6
100
AcDbEntity
  8
0
 62
     0
370
    -2
100
AcDbBlockReference
  2
_Open30
 10
-422.2633812760508
 20
76.70658514718532
 30
0.0
 41
2.5
 42
2.5
 43
2.5
 50
270.0
  0
MTEXT
  5
A23
330
6D6
100
AcDbEntity
  8
0
 62
     4
100
AcDbMText
 10
-424.3883812760508
 20
84.83158514718525
 30
0.0
 40
3.0
 41
0.0
 71
     5
 72
     1
  1
2t
 11
0.0000000000000001
 21
1.0
 31
0.0
 73
     1
 44
1.0
1001
ACAD
1000
MTEXTBEGIN
1070
    73
1070
     1
1070
    44
1040
1.0
1070
    74
1070
     0
1000
MTEXTEND
  0
POINT
  5
A24
330
6D6
100
AcDbEntity
  8
Defpoints
 62
     0
100
AcDbPoint
 10
-428.6698622760509
 20
73.70658514718532
 30
0.0
  0
POINT
  5
A25
330
6D6
100
AcDbEntity
  8
Defpoints
 62
     0
100
AcDbPoint
 10
-428.946729276051
 20
76.70658514718532
 30
0.0
  0
POINT
  5
A26
330
6D6
100
AcDbEntity
  8
Defpoints
 62
     0
100
AcDbPoint
 10
-422.2633812760508
 20
76.70658514718532
 30
0.0
  0
ENDBLK
  5
6D8
330
6D6
100
AcDbEntity
  8
0
100
AcDbBlockEnd
  0
BLOCK
  5
6E4
330
6E3
100
AcDbEntity
  8
0
100
AcDbBlockBegin
  2
*D6
 70
     1
 10
0.0
 20
0.0
 30
0.0
  3
*D6
  1

  0
LINE
  5
A27
330
6E3
100
AcDbEntity
  8
0
 62
     0
370
    -2
100
AcDbLine
 10
-590.8608222103896
 20
55.73356456831266
 30
0.0
 11
-612.3170913417127
 21
95.28895072605797
 31
0.0
  0
INSERT
  5
A28
330
6E3
100
AcDbEntity
  8
0
 62
     0
370
    -2
100
AcDbBlockReference
  2
_Open30
 10
-589.6688072760512
 20
53.53604314718523
 30
0.0
 41
2.5
 42
2.5
 43
2.5
 50
298.4770020669826
  0
INSERT
  5
A29
330
6E3
100
AcDbEntity
  8
0
 62
     0
370
    -2
100
AcDbBlockReference
  2
_Open30
 10
-613.5091062760511
 20
97.48647214718538
 30
0.0
 41
2.5
 42
2.5
 43
2.5
 50
118.4770020669826
  0
MTEXT
  5
A2A
102
{ACAD_XDICTIONARY
360
13E8
102
}
330
6E3
100
AcDbEntity
  8
0
 62
     4
100
AcDbMText
 10
-599.721063568093
 20
76.52447034137299
 30
0.0
 40
3.0
 41
0.0
 71
     5
 72
     1
  1
\U+220550
 11
0.476805973735393
 21
-0.8790085684509815
 31
0.0
 73
     1
 44
1.0
1001
ACAD
1000
MTEXTBEGIN
1070
    73
1070
     1
1070
    44
1040
1.0
1070
    74
1070
     0
1000
MTEXTEND
  0
POINT
  5
A2B
330
6E3
100
AcDbEntity
  8
Defpoints
 62
     0
100
AcDbPoint
 10
-613.5091062760511
 20
97.48647214718538
 30
0.0
  0
POINT
  5
A2C
330
6E3
100
AcDbEntity
  8
Defpoints
 62
     0
100
AcDbPoint
 10
-589.6688072760512
 20
53.53604314718523
 30
0.0
  0
ENDBLK
  5
6E5
330
6E3
100
AcDbEntity
  8
0
100
AcDbBlockEnd
  0
BLOCK
  5
6EF
330
6EE
100
AcDbEntity
  8
0
100
AcDbBlockBegin
  2
*D7
 70
     1
 10
0.0
 20
0.0
 30
0.0
  3
*D7
  1

  0
LINE
  5
A2D
330
6EE
100
AcDbEntity
  8
0
 62
     0
370
    -2
100
AcDbLine
 10
-601.838956276051
 20
38.51125814718531
 30
0.0
 11
-649.4267492760508
 21
38.51125814718532
 31
0.0
  0
LINE
  5
A2E
330
6EE
100
AcDbEntity
  8
0
 62
     0
370
    -2
100
AcDbLine
 10
-592.2260052760508
 20
120.2481301471853
 30
0.0
 11
-649.4267492760508
 21
120.2481301471853
 31
0.0
  0
LINE
  5
A2F
330
6EE
100
AcDbEntity
  8
0
 62
     0
370
    -2
100
AcDbLine
 10
-648.1767492760508
 20
41.01125814718531
 30
0.0
 11
-648.1767492760508
 21
117.7481301471853
 31
0.0
  0
INSERT
  5
A30
330
6EE
100
AcDbEntity
  8
0
 62
     0
370
    -2
100
AcDbBlockReference
  2
_Open30
 10
-648.1767492760508
 20
38.51125814718532
 30
0.0
 41
2.5
 42
2.5
 43
2.5
 50
270.0
  0
INSERT
  5
A31
330
6EE
100
AcDbEntity
  8
0
 62
     0
370
    -2
100
AcDbBlockReference
  2
_Open30
 10
-648.1767492760508
 20
120.2481301471853
 30
0.0
 41
2.5
 42
2.5
 43
2.5
 50
90.0
  0
MTEXT
  5
A32
330
6EE
100
AcDbEntity
  8
0
 62
     4
100
AcDbMText
 10
-650.3017492760508
 20
79.37969414718522
 30
0.0
 40
3.0
 41
0.0
 71
     5
 72
     1
  1
82
 11
0.0000000000000001
 21
1.0
 31
0.0
 73
     1
 44
1.0
1001
ACAD
1000
MTEXTBEGIN
1070
    73
1070
     1
1070
    44
1040
1.0
1070
    74
1070
     0
1000
MTEXTEND
  0
POINT
  5
A33
330
6EE
100
AcDbEntity
  8
Defpoints
 62
     0
100
AcDbPoint
 10
-601.588956276051
 20
38.51125814718531
 30
0.0
  0
POINT
  5
A34
330
6EE
100
AcDbEntity
  8
Defpoints
 62
     0
100
AcDbPoint
 10
-591.9760052760508
 20
120.2481301471853
 30
0.0
  0
POINT
  5
A35
330
6EE
100
AcDbEntity
  8
Defpoints
 62
     0
100
AcDbPoint
 10
-648.1767492760508
 20
120.2481301471853
 30
0.0
  0
ENDBLK
  5
6F0
330
6EE
100
AcDbEntity
  8
0
100
AcDbBlockEnd
  0
BLOCK
  5
6FC
330
6FB
100
AcDbEntity
  8
0
100
AcDbBlockBegin
  2
*D8
 70
     1
 10
0.0
 20
0.0
 30
0.0
  3
*D8
  1

  0
LINE
  5
A36
330
6FB
100
AcDbEntity
  8
0
 62
     0
370
    -2
100
AcDbLine
 10
-638.594006276051
 20
-12.89719185281469
 30
0.0
 11
-638.594006276051
 21
12.09147614718531
 31
0.0
  0
LINE
  5
A37
330
6FB
100
AcDbEntity
  8
0
 62
     0
370
    -2
100
AcDbLine
 10
-550.6306802760508
 20
-8.382275852814688
 30
0.0
 11
-550.6306802760508
 21
12.09147614718531
 31
0.0
  0
LINE
  5
A38
330
6FB
100
AcDbEntity
  8
0
 62
     0
370
    -2
100
AcDbLine
 10
-636.0940062760509
 20
10.84147614718531
 30
0.0
 11
-553.1306802760508
 21
10.84147614718531
 31
0.0
  0
INSERT
  5
A39
330
6FB
100
AcDbEntity
  8
0
 62
     0
370
    -2
100
AcDbBlockReference
  2
_Open30
 10
-638.594006276051
 20
10.84147614718531
 30
0.0
 41
2.5
 42
2.5
 43
2.5
 50
180.0
  0
INSERT
  5
A3A
330
6FB
100
AcDbEntity
  8
0
 62
     0
370
    -2
100
AcDbBlockReference
  2
_Open30
 10
-550.6306802760508
 20
10.84147614718531
 30
0.0
 41
2.5
 42
2.5
 43
2.5
  0
MTEXT
  5
A3B
330
6FB
100
AcDbEntity
  8
0
 62
     4
100
AcDbMText
 10
-594.612343276051
 20
12.96647614718531
 30
0.0
 40
3.0
 41
0.0
 71
     5
 72
     1
  1
88
 73
     1
 44
1.0
1001
ACAD
1000
MTEXTBEGIN
1070
    73
1070
     1
1070
    44
1040
1.0
1070
    74
1070
     0
1000
MTEXTEND
  0
POINT
  5
A3C
330
6FB
100
AcDbEntity
  8
Defpoints
 62
     0
100
AcDbPoint
 10
-638.594006276051
 20
-13.14719185281469
 30
0.0
  0
POINT
  5
A3D
330
6FB
100
AcDbEntity
  8
Defpoints
 62
     0
100
AcDbPoint
 10
-550.6306802760508
 20
-8.632275852814688
 30
0.0
  0
POINT
  5
A3E
330
6FB
100
AcDbEntity
  8
Defpoints
 62
     0
100
AcDbPoint
 10
-550.6306802760508
 20
10.84147614718531
 30
0.0
  0
ENDBLK
  5
6FD
330
6FB
100
AcDbEntity
  8
0
100
AcDbBlockEnd
  0
BLOCK
  5
A41
330
A40
100
AcDbEntity
  8
0
100
AcDbBlockBegin
  2
*D9
 70
     1
 10
0.0
 20
0.0
 30
0.0
  3
*D9
  1

  0
LINE
  5
A42
330
A40
100
AcDbEntity
  8
0
 62
     0
370
    -2
100
AcDbLine
 10
-300.5342172058963
 20
-445.1574683244037
 30
0.0
 11
-289.2576792058963
 21
-445.1574683244037
 31
0.0
  0
LINE
  5
A43
330
A40
100
AcDbEntity
  8
0
 62
     0
370
    -2
100
AcDbLine
 10
-301.5317172058963
 20
-435.1574683244036
 30
0.0
 11
-289.2576792058963
 21
-435.1574683244036
 31
0.0
  0
LINE
  5
A44
330
A40
100
AcDbEntity
  8
0
 62
     0
370
    -2
100
AcDbLine
 10
-290.5076792058963
 20
-442.6574683244036
 30
0.0
 11
-290.5076792058963
 21
-437.6574683244036
 31
0.0
  0
INSERT
  5
A45
330
A40
100
AcDbEntity
  8
0
 62
     0
370
    -2
100
AcDbBlockReference
  2
_Open30
 10
-290.5076792058963
 20
-445.1574683244037
 30
0.0
 41
2.5
 42
2.5
 43
2.5
 50
270.0
  0
INSERT
  5
A46
330
A40
100
AcDbEntity
  8
0
 62
     0
370
    -2
100
AcDbBlockReference
  2
_Open30
 10
-290.5076792058963
 20
-435.1574683244036
 30
0.0
 41
2.5
 42
2.5
 43
2.5
 50
90.0
  0
MTEXT
  5
A47
330
A40
100
AcDbEntity
  8
0
 62
     4
100
AcDbMText
 10
-292.6326792058962
 20
-440.1574683244036
 30
0.0
 40
3.0
 41
0.0
 71
     5
 72
     1
  1
10
 11
0.0000000000000001
 21
1.0
 31
0.0
 73
     1
 44
1.0
1001
ACAD
1000
MTEXTBEGIN
1070
    73
1070
     1
1070
    44
1040
1.0
1070
    74
1070
     0
1000
MTEXTEND
  0
POINT
  5
A48
330
A40
100
AcDbEntity
  8
Defpoints
 62
     0
100
AcDbPoint
 10
-300.7842172058963
 20
-445.1574683244037
 30
0.0
  0
POINT
  5
A49
330
A40
100
AcDbEntity
  8
Defpoints
 62
     0
100
AcDbPoint
 10
-301.7817172058963
 20
-435.1574683244036
 30
0.0
  0
POINT
  5
A4A
330
A40
100
AcDbEntity
  8
Defpoints
 62
     0
100
AcDbPoint
 10
-290.5076792058963
 20
-435.1574683244036
 30
0.0
  0
ENDBLK
  5
A4B
330
A40
100
AcDbEntity
  8
0
100
AcDbBlockEnd
  0
BLOCK
  5
A4D
330
A4C
100
AcDbEntity
  8
0
100
AcDbBlockBegin
  2
*D10
 70
     1
 10
0.0
 20
0.0
 30
0.0
  3
*D10
  1

  0
LINE
  5
A4E
330
A4C
100
AcDbEntity
  8
0
 62
     0
370
    -2
100
AcDbLine
 10
-302.1866732058962
 20
-544.6215573244036
 30
0.0
 11
-291.2121762058963
 21
-544.6215573244036
 31
0.0
  0
LINE
  5
A4F
330
A4C
100
AcDbEntity
  8
0
 62
     0
370
    -2
100
AcDbLine
 10
-302.1866732058962
 20
-520.6215573244036
 30
0.0
 11
-291.2121762058963
 21
-520.6215573244036
 31
0.0
  0
LINE
  5
A50
330
A4C
100
AcDbEntity
  8
0
 62
     0
370
    -2
100
AcDbLine
 10
-292.4621762058963
 20
-542.1215573244036
 30
0.0
 11
-292.4621762058963
 21
-523.1215573244035
 31
0.0
  0
INSERT
  5
A51
330
A4C
100
AcDbEntity
  8
0
 62
     0
370
    -2
100
AcDbBlockReference
  2
_Open30
 10
-292.4621762058963
 20
-544.6215573244036
 30
0.0
 41
2.5
 42
2.5
 43
2.5
 50
270.0
  0
INSERT
  5
A52
330
A4C
100
AcDbEntity
  8
0
 62
     0
370
    -2
100
AcDbBlockReference
  2
_Open30
 10
-292.4621762058963
 20
-520.6215573244036
 30
0.0
 41
2.5
 42
2.5
 43
2.5
 50
90.0
  0
MTEXT
  5
A53
330
A4C
100
AcDbEntity
  8
0
 62
     4
100
AcDbMText
 10
-294.5871762058962
 20
-532.6215573244037
 30
0.0
 40
3.0
 41
0.0
 71
     5
 72
     1
  1
24
 11
0.0000000000000001
 21
1.0
 31
0.0
 73
     1
 44
1.0
1001
ACAD
1000
MTEXTBEGIN
1070
    73
1070
     1
1070
    44
1040
1.0
1070
    74
1070
     0
1000
MTEXTEND
  0
POINT
  5
A54
330
A4C
100
AcDbEntity
  8
Defpoints
 62
     0
100
AcDbPoint
 10
-302.4366732058962
 20
-544.6215573244036
 30
0.0
  0
POINT
  5
A55
330
A4C
100
AcDbEntity
  8
Defpoints
 62
     0
100
AcDbPoint
 10
-302.4366732058962
 20
-520.6215573244036
 30
0.0
  0
POINT
  5
A56
330
A4C
100
AcDbEntity
  8
Defpoints
 62
     0
100
AcDbPoint
 10
-292.4621762058963
 20
-520.6215573244036
 30
0.0
  0
ENDBLK
  5
A57
330
A4C
100
AcDbEntity
  8
0
100
AcDbBlockEnd
  0
BLOCK
  5
A59
330
A58
100
AcDbEntity
  8
0
100
AcDbBlockBegin
  2
*D11
 70
     1
 10
0.0
 20
0.0
 30
0.0
  3
*D11
  1

  0
LINE
  5
A5A
330
A58
100
AcDbEntity
  8
0
 62
     0
370
    -2
100
AcDbLine
 10
-546.7847952058962
 20
-527.9940983244036
 30
0.0
 11
-546.7847952058962
 21
-507.5203463244037
 31
0.0
  0
LINE
  5
A5B
330
A58
100
AcDbEntity
  8
0
 62
     0
370
    -2
100
AcDbLine
 10
-300.9366732058962
 20
-521.8715573244036
 30
0.0
 11
-300.9366732058962
 21
-507.5203463244037
 31
0.0
  0
LINE
  5
A5C
330
A58
100
AcDbEntity
  8
0
 62
     0
370
    -2
100
AcDbLine
 10
-544.2847952058961
 20
-508.7703463244037
 30
0.0
 11
-303.4366732058962
 21
-508.7703463244037
 31
0.0
  0
INSERT
  5
A5D
330
A58
100
AcDbEntity
  8
0
 62
     0
370
    -2
100
AcDbBlockReference
  2
_Open30
 10
-546.7847952058962
 20
-508.7703463244037
 30
0.0
 41
2.5
 42
2.5
 43
2.5
 50
180.0
  0
INSERT
  5
A5E
330
A58
100
AcDbEntity
  8
0
 62
     0
370
    -2
100
AcDbBlockReference
  2
_Open30
 10
-300.9366732058962
 20
-508.7703463244037
 30
0.0
 41
2.5
 42
2.5
 43
2.5
  0
MTEXT
  5
A5F
330
A58
100
AcDbEntity
  8
0
 62
     4
100
AcDbMText
 10
-423.8607342058961
 20
-506.6453463244037
 30
0.0
 40
3.0
 41
0.0
 71
     5
 72
     1
  1
L寸法
 73
     1
 44
1.0
1001
ACAD
1000
MTEXTBEGIN
1070
    73
1070
     1
1070
    44
1040
1.0
1070
    74
1070
     0
1000
MTEXTEND
  0
POINT
  5
A60
330
A58
100
AcDbEntity
  8
Defpoints
 62
     0
100
AcDbPoint
 10
-546.7847952058962
 20
-528.2440983244035
 30
0.0
  0
POINT
  5
A61
330
A58
100
AcDbEntity
  8
Defpoints
 62
     0
100
AcDbPoint
 10
-300.9366732058962
 20
-522.1215573244036
 30
0.0
  0
POINT
  5
A62
330
A58
100
AcDbEntity
  8
Defpoints
 62
     0
100
AcDbPoint
 10
-300.9366732058962
 20
-508.7703463244037
 30
0.0
  0
ENDBLK
  5
A63
330
A58
100
AcDbEntity
  8
0
100
AcDbBlockEnd
  0
BLOCK
  5
A65
330
A64
100
AcDbEntity
  8
0
100
AcDbBlockBegin
  2
*D12
 70
     1
 10
0.0
 20
0.0
 30
0.0
  3
*D12
  1

  0
LINE
  5
A66
330
A64
100
AcDbEntity
  8
0
 62
     0
370
    -2
100
AcDbLine
 10
-380.8087412058963
 20
-540.1687383244036
 30
0.0
 11
-371.5558820189909
 21
-540.1687383244036
 31
0.0
  0
LINE
  5
A67
330
A64
100
AcDbEntity
  8
0
 62
     0
370
    -2
100
AcDbLine
 10
-380.5764112058962
 20
-525.0792053244037
 30
0.0
 11
-371.5558820189909
 21
-525.0792053244037
 31
0.0
  0
LINE
  5
A68
330
A64
100
AcDbEntity
  8
0
 62
     0
370
    -2
100
AcDbLine
 10
-372.8058820189909
 20
-522.5792053244036
 30
0.0
 11
-372.8058820189909
 21
-520.0792053244036
 31
0.0
  0
LINE
  5
A69
330
A64
100
AcDbEntity
  8
0
 62
     0
370
    -2
100
AcDbLine
 10
-372.8058820189909
 20
-542.6687383244036
 30
0.0
 11
-372.8058820189909
 21
-550.7937383244035
 31
0.0
  0
LINE
  5
A6A
330
A64
100
AcDbEntity
  8
0
 62
     0
370
    -2
100
AcDbLine
 10
-372.8058820189909
 20
-525.0792053244037
 30
0.0
 11
-372.8058820189909
 21
-540.1687383244036
 31
0.0
  0
INSERT
  5
A6B
330
A64
100
AcDbEntity
  8
0
 62
     0
370
    -2
100
AcDbBlockReference
  2
_Open30
 10
-372.8058820189909
 20
-525.0792053244037
 30
0.0
 41
2.5
 42
2.5
 43
2.5
 50
270.0
  0
INSERT
  5
A6C
330
A64
100
AcDbEntity
  8
0
 62
     0
370
    -2
100
AcDbBlockReference
  2
_Open30
 10
-372.8058820189909
 20
-540.1687383244036
 30
0.0
 41
2.5
 42
2.5
 43
2.5
 50
90.0
  0
MTEXT
  5
A6D
330
A64
100
AcDbEntity
  8
0
 62
     4
100
AcDbMText
 10
-374.9308820189909
 20
-548.1687383244036
 30
0.0
 40
3.0
 41
0.0
 71
     5
 72
     1
  1
15
 11
0.0000000000000001
 21
1.0
 31
0.0
 73
     1
 44
1.0
1001
ACAD
1000
MTEXTBEGIN
1070
    73
1070
     1
1070
    44
1040
1.0
1070
    74
1070
     0
1000
MTEXTEND
  0
POINT
  5
A6E
330
A64
100
AcDbEntity
  8
Defpoints
 62
     0
100
AcDbPoint
 10
-381.0587412058962
 20
-540.1687383244036
 30
0.0
  0
POINT
  5
A6F
330
A64
100
AcDbEntity
  8
Defpoints
 62
     0
100
AcDbPoint
 10
-380.8264112058962
 20
-525.0792053244037
 30
0.0
  0
POINT
  5
A70
330
A64
100
AcDbEntity
  8
Defpoints
 62
     0
100
AcDbPoint
 10
-372.8058820189909
 20
-525.0792053244037
 30
0.0
  0
ENDBLK
  5
A71
330
A64
100
AcDbEntity
  8
0
100
AcDbBlockEnd
  0
BLOCK
  5
A73
330
A72
100
AcDbEntity
  8
0
100
AcDbBlockBegin
  2
*D13
 70
     1
 10
0.0
 20
0.0
 30
0.0
  3
*D13
  1

  0
LINE
  5
A74
330
A72
100
AcDbEntity
  8
0
 62
     0
370
    -2
100
AcDbLine
 10
-424.5739772058962
 20
-445.9052373244036
 30
0.0
 11
-417.1674972058962
 21
-445.9052373244036
 31
0.0
  0
LINE
  5
A75
330
A72
100
AcDbEntity
  8
0
 62
     0
370
    -2
100
AcDbLine
 10
-424.8508452058961
 20
-442.9052373244036
 30
0.0
 11
-417.1674972058962
 21
-442.9052373244036
 31
0.0
  0
LINE
  5
A76
330
A72
100
AcDbEntity
  8
0
 62
     0
370
    -2
100
AcDbLine
 10
-418.4174972058961
 20
-448.4052373244036
 30
0.0
 11
-418.4174972058961
 21
-450.9052373244036
 31
0.0
  0
LINE
  5
A77
330
A72
100
AcDbEntity
  8
0
 62
     0
370
    -2
100
AcDbLine
 10
-418.4174972058961
 20
-440.4052373244036
 30
0.0
 11
-418.4174972058961
 21
-431.6552373244036
 31
0.0
  0
LINE
  5
A78
330
A72
100
AcDbEntity
  8
0
 62
     0
370
    -2
100
AcDbLine
 10
-418.4174972058961
 20
-445.9052373244036
 30
0.0
 11
-418.4174972058961
 21
-442.9052373244036
 31
0.0
  0
INSERT
  5
A79
330
A72
100
AcDbEntity
  8
0
 62
     0
370
    -2
100
AcDbBlockReference
  2
_Open30
 10
-418.4174972058961
 20
-445.9052373244036
 30
0.0
 41
2.5
 42
2.5
 43
2.5
 50
90.0
  0
INSERT
  5
A7A
330
A72
100
AcDbEntity
  8
0
 62
     0
370
    -2
100
AcDbBlockReference
  2
_Open30
 10
-418.4174972058961
 20
-442.9052373244036
 30
0.0
 41
2.5
 42
2.5
 43
2.5
 50
270.0
  0
MTEXT
  5
A7B
330
A72
100
AcDbEntity
  8
0
 62
     4
100
AcDbMText
 10
-420.5424972058961
 20
-434.7802373244037
 30
0.0
 40
3.0
 41
0.0
 71
     5
 72
     1
  1
2t
 11
0.0000000000000001
 21
1.0
 31
0.0
 73
     1
 44
1.0
1001
ACAD
1000
MTEXTBEGIN
1070
    73
1070
     1
1070
    44
1040
1.0
1070
    74
1070
     0
1000
MTEXTEND
  0
POINT
  5
A7C
330
A72
100
AcDbEntity
  8
Defpoints
 62
     0
100
AcDbPoint
 10
-424.8239772058962
 20
-445.9052373244036
 30
0.0
  0
POINT
  5
A7D
330
A72
100
AcDbEntity
  8
Defpoints
 62
     0
100
AcDbPoint
 10
-425.1008452058962
 20
-442.9052373244036
 30
0.0
  0
POINT
  5
A7E
330
A72
100
AcDbEntity
  8
Defpoints
 62
     0
100
AcDbPoint
 10
-418.4174972058961
 20
-442.9052373244036
 30
0.0
  0
ENDBLK
  5
A7F
330
A72
100
AcDbEntity
  8
0
100
AcDbBlockEnd
  0
BLOCK
  5
A81
330
A80
100
AcDbEntity
  8
0
100
AcDbBlockBegin
  2
*D14
 70
     1
 10
0.0
 20
0.0
 30
0.0
  3
*D14
  1

  0
LINE
  5
A82
330
A80
100
AcDbEntity
  8
0
 62
     0
370
    -2
100
AcDbLine
 10
-587.014937140235
 20
-463.8782579032763
 30
0.0
 11
-608.4712062715582
 21
-424.3228717455313
 31
0.0
  0
INSERT
  5
A83
330
A80
100
AcDbEntity
  8
0
 62
     0
370
    -2
100
AcDbBlockReference
  2
_Open30
 10
-585.8229222058964
 20
-466.0757793244037
 30
0.0
 41
2.5
 42
2.5
 43
2.5
 50
298.4770020669829
  0
INSERT
  5
A84
330
A80
100
AcDbEntity
  8
0
 62
     0
370
    -2
100
AcDbBlockReference
  2
_Open30
 10
-609.6632212058968
 20
-422.1253503244038
 30
0.0
 41
2.5
 42
2.5
 43
2.5
 50
118.4770020669829
  0
MTEXT
  5
A85
102
{ACAD_XDICTIONARY
360
13EA
102
}
330
A80
100
AcDbEntity
  8
0
 62
     4
100
AcDbMText
 10
-595.8751784979381
 20
-443.0873521302161
 30
0.0
 40
3.0
 41
0.0
 71
     5
 72
     1
  1
\U+220550
 11
0.4768059737353985
 21
-0.8790085684509785
 31
0.0
 73
     1
 44
1.0
1001
ACAD
1000
MTEXTBEGIN
1070
    73
1070
     1
1070
    44
1040
1.0
1070
    74
1070
     0
1000
MTEXTEND
  0
POINT
  5
A86
330
A80
100
AcDbEntity
  8
Defpoints
 62
     0
100
AcDbPoint
 10
-609.6632212058968
 20
-422.1253503244038
 30
0.0
  0
POINT
  5
A87
330
A80
100
AcDbEntity
  8
Defpoints
 62
     0
100
AcDbPoint
 10
-585.8229222058964
 20
-466.0757793244037
 30
0.0
  0
ENDBLK
  5
A88
330
A80
100
AcDbEntity
  8
0
100
AcDbBlockEnd
  0
BLOCK
  5
A8A
330
A89
100
AcDbEntity
  8
0
100
AcDbBlockBegin
  2
*D15
 70
     1
 10
0.0
 20
0.0
 30
0.0
  3
*D15
  1

  0
LINE
  5
A8B
330
A89
100
AcDbEntity
  8
0
 62
     0
370
    -2
100
AcDbLine
 10
-597.9930722058961
 20
-481.1005653244037
 30
0.0
 11
-645.5808642058961
 21
-481.1005653244036
 31
0.0
  0
LINE
  5
A8C
330
A89
100
AcDbEntity
  8
0
 62
     0
370
    -2
100
AcDbLine
 10
-588.3801212058962
 20
-399.3636923244037
 30
0.0
 11
-645.5808642058961
 21
-399.3636923244037
 31
0.0
  0
LINE
  5
A8D
330
A89
100
AcDbEntity
  8
0
 62
     0
370
    -2
100
AcDbLine
 10
-644.3308642058962
 20
-478.6005653244036
 30
0.0
 11
-644.3308642058962
 21
-401.8636923244036
 31
0.0
  0
INSERT
  5
A8E
330
A89
100
AcDbEntity
  8
0
 62
     0
370
    -2
100
AcDbBlockReference
  2
_Open30
 10
-644.3308642058962
 20
-481.1005653244036
 30
0.0
 41
2.5
 42
2.5
 43
2.5
 50
270.0
  0
INSERT
  5
A8F
330
A89
100
AcDbEntity
  8
0
 62
     0
370
    -2
100
AcDbBlockReference
  2
_Open30
 10
-644.3308642058962
 20
-399.3636923244037
 30
0.0
 41
2.5
 42
2.5
 43
2.5
 50
90.0
  0
MTEXT
  5
A90
330
A89
100
AcDbEntity
  8
0
 62
     4
100
AcDbMText
 10
-646.455864205896
 20
-440.2321288244038
 30
0.0
 40
3.0
 41
0.0
 71
     5
 72
     1
  1
82
 11
0.0000000000000001
 21
1.0
 31
0.0
 73
     1
 44
1.0
1001
ACAD
1000
MTEXTBEGIN
1070
    73
1070
     1
1070
    44
1040
1.0
1070
    74
1070
     0
1000
MTEXTEND
  0
POINT
  5
A91
330
A89
100
AcDbEntity
  8
Defpoints
 62
     0
100
AcDbPoint
 10
-597.7430722058961
 20
-481.1005653244037
 30
0.0
  0
POINT
  5
A92
330
A89
100
AcDbEntity
  8
Defpoints
 62
     0
100
AcDbPoint
 10
-588.1301212058962
 20
-399.3636923244037
 30
0.0
  0
POINT
  5
A93
330
A89
100
AcDbEntity
  8
Defpoints
 62
     0
100
AcDbPoint
 10
-644.3308642058962
 20
-399.3636923244037
 30
0.0
  0
ENDBLK
  5
A94
330
A89
100
AcDbEntity
  8
0
100
AcDbBlockEnd
  0
BLOCK
  5
A96
330
A95
100
AcDbEntity
  8
0
100
AcDbBlockBegin
  2
*D16
 70
     1
 10
0.0
 20
0.0
 30
0.0
  3
*D16
  1

  0
LINE
  5
A97
330
A95
100
AcDbEntity
  8
0
 62
     0
370
    -2
100
AcDbLine
 10
-634.7481222058962
 20
-532.5090143244036
 30
0.0
 11
-634.7481222058962
 21
-507.5203463244037
 31
0.0
  0
LINE
  5
A98
330
A95
100
AcDbEntity
  8
0
 62
     0
370
    -2
100
AcDbLine
 10
-546.7847952058962
 20
-527.9940983244036
 30
0.0
 11
-546.7847952058962
 21
-507.5203463244037
 31
0.0
  0
LINE
  5
A99
330
A95
100
AcDbEntity
  8
0
 62
     0
370
    -2
100
AcDbLine
 10
-632.2481222058963
 20
-508.7703463244037
 30
0.0
 11
-549.2847952058962
 21
-508.7703463244037
 31
0.0
  0
INSERT
  5
A9A
330
A95
100
AcDbEntity
  8
0
 62
     0
370
    -2
100
AcDbBlockReference
  2
_Open30
 10
-634.7481222058962
 20
-508.7703463244037
 30
0.0
 41
2.5
 42
2.5
 43
2.5
 50
180.0
  0
INSERT
  5
A9B
330
A95
100
AcDbEntity
  8
0
 62
     0
370
    -2
100
AcDbBlockReference
  2
_Open30
 10
-546.7847952058962
 20
-508.7703463244037
 30
0.0
 41
2.5
 42
2.5
 43
2.5
  0
MTEXT
  5
A9C
330
A95
100
AcDbEntity
  8
0
 62
     4
100
AcDbMText
 10
-590.7664587058961
 20
-506.6453463244037
 30
0.0
 40
3.0
 41
0.0
 71
     5
 72
     1
  1
88
 73
     1
 44
1.0
1001
ACAD
1000
MTEXTBEGIN
1070
    73
1070
     1
1070
    44
1040
1.0
1070
    74
1070
     0
1000
MTEXTEND
  0
POINT
  5
A9D
330
A95
100
AcDbEntity
  8
Defpoints
 62
     0
100
AcDbPoint
 10
-634.7481222058962
 20
-532.7590143244036
 30
0.0
  0
POINT
  5
A9E
330
A95
100
AcDbEntity
  8
Defpoints
 62
     0
100
AcDbPoint
 10
-546.7847952058962
 20
-528.2440983244035
 30
0.0
  0
POINT
  5
A9F
330
A95
100
AcDbEntity
  8
Defpoints
 62
     0
100
AcDbPoint
 10
-546.7847952058962
 20
-508.7703463244037
 30
0.0
  0
ENDBLK
  5
AA0
330
A95
100
AcDbEntity
  8
0
100
AcDbBlockEnd
  0
BLOCK
  5
105B
330
105A
100
AcDbEntity
  8
0
100
AcDbBlockBegin
  2
*D18
 70
     1
 10
0.0
 20
0.0
 30
0.0
  3
*D18
  1

  0
LINE
  5
10BB
330
105A
100
AcDbEntity
  8
0
 62
     0
370
    -2
100
AcDbLine
 10
191.3870120415395
 20
77.27173524291675
 30
0.0
 11
202.6635500415395
 21
77.27173524291675
 31
0.0
  0
LINE
  5
10BC
330
105A
100
AcDbEntity
  8
0
 62
     0
370
    -2
100
AcDbLine
 10
190.3895120415395
 20
87.2717352429168
 30
0.0
 11
202.6635500415395
 21
87.2717352429168
 31
0.0
  0
LINE
  5
10BD
330
105A
100
AcDbEntity
  8
0
 62
     0
370
    -2
100
AcDbLine
 10
201.4135500415395
 20
79.77173524291675
 30
0.0
 11
201.4135500415395
 21
84.7717352429168
 31
0.0
  0
INSERT
  5
10BE
330
105A
100
AcDbEntity
  8
0
 62
     0
370
    -2
100
AcDbBlockReference
  2
_Open30
 10
201.4135500415395
 20
77.27173524291675
 30
0.0
 41
2.5
 42
2.5
 43
2.5
 50
270.0
  0
INSERT
  5
10BF
330
105A
100
AcDbEntity
  8
0
 62
     0
370
    -2
100
AcDbBlockReference
  2
_Open30
 10
201.4135500415395
 20
87.2717352429168
 30
0.0
 41
2.5
 42
2.5
 43
2.5
 50
90.0
  0
MTEXT
  5
10C0
330
105A
100
AcDbEntity
  8
0
 62
     4
100
AcDbMText
 10
199.2885500415395
 20
82.2717352429168
 30
0.0
 40
3.0
 41
0.0
 71
     5
 72
     1
  1
10
 11
0.0000000000000001
 21
1.0
 31
0.0
 73
     1
 44
1.0
1001
ACAD
1000
MTEXTBEGIN
1070
    73
1070
     1
1070
    44
1040
1.0
1070
    74
1070
     0
1000
MTEXTEND
  0
POINT
  5
10C1
330
105A
100
AcDbEntity
  8
Defpoints
 62
     0
100
AcDbPoint
 10
191.1370120415395
 20
77.27173524291675
 30
0.0
  0
POINT
  5
10C2
330
105A
100
AcDbEntity
  8
Defpoints
 62
     0
100
AcDbPoint
 10
190.1395120415395
 20
87.2717352429168
 30
0.0
  0
POINT
  5
10C3
330
105A
100
AcDbEntity
  8
Defpoints
 62
     0
100
AcDbPoint
 10
201.4135500415395
 20
87.2717352429168
 30
0.0
  0
ENDBLK
  5
105C
330
105A
100
AcDbEntity
  8
0
100
AcDbBlockEnd
  0
BLOCK
  5
1067
330
1066
100
AcDbEntity
  8
0
100
AcDbBlockBegin
  2
*D19
 70
     1
 10
0.0
 20
0.0
 30
0.0
  3
*D19
  1

  0
LINE
  5
10C4
330
1066
100
AcDbEntity
  8
0
 62
     0
370
    -2
100
AcDbLine
 10
189.7345560415396
 20
-22.1923537570832
 30
0.0
 11
200.7090530415395
 21
-22.1923537570832
 31
0.0
  0
LINE
  5
10C5
330
1066
100
AcDbEntity
  8
0
 62
     0
370
    -2
100
AcDbLine
 10
189.7345560415396
 20
1.807646242916803
 30
0.0
 11
200.7090530415395
 21
1.807646242916799
 31
0.0
  0
LINE
  5
10C6
330
1066
100
AcDbEntity
  8
0
 62
     0
370
    -2
100
AcDbLine
 10
199.4590530415395
 20
-19.6923537570832
 30
0.0
 11
199.4590530415395
 21
-0.6923537570831999
 31
0.0
  0
INSERT
  5
10C7
330
1066
100
AcDbEntity
  8
0
 62
     0
370
    -2
100
AcDbBlockReference
  2
_Open30
 10
199.4590530415395
 20
-22.1923537570832
 30
0.0
 41
2.5
 42
2.5
 43
2.5
 50
270.0
  0
INSERT
  5
10C8
330
1066
100
AcDbEntity
  8
0
 62
     0
370
    -2
100
AcDbBlockReference
  2
_Open30
 10
199.4590530415395
 20
1.8076462429168
 30
0.0
 41
2.5
 42
2.5
 43
2.5
 50
90.0
  0
MTEXT
  5
10C9
330
1066
100
AcDbEntity
  8
0
 62
     4
100
AcDbMText
 10
197.3340530415395
 20
-10.19235375708317
 30
0.0
 40
3.0
 41
0.0
 71
     5
 72
     1
  1
24
 11
0.0000000000000001
 21
1.0
 31
0.0
 73
     1
 44
1.0
1001
ACAD
1000
MTEXTBEGIN
1070
    73
1070
     1
1070
    44
1040
1.0
1070
    74
1070
     0
1000
MTEXTEND
  0
POINT
  5
10CA
330
1066
100
AcDbEntity
  8
Defpoints
 62
     0
100
AcDbPoint
 10
189.4845560415396
 20
-22.1923537570832
 30
0.0
  0
POINT
  5
10CB
330
1066
100
AcDbEntity
  8
Defpoints
 62
     0
100
AcDbPoint
 10
189.4845560415396
 20
1.807646242916803
 30
0.0
  0
POINT
  5
10CC
330
1066
100
AcDbEntity
  8
Defpoints
 62
     0
100
AcDbPoint
 10
199.4590530415395
 20
1.8076462429168
 30
0.0
  0
ENDBLK
  5
1068
330
1066
100
AcDbEntity
  8
0
100
AcDbBlockEnd
  0
BLOCK
  5
1073
330
1072
100
AcDbEntity
  8
0
100
AcDbBlockBegin
  2
*D20
 70
     1
 10
0.0
 20
0.0
 30
0.0
  3
*D20
  1

  0
LINE
  5
10CD
330
1072
100
AcDbEntity
  8
0
 62
     0
370
    -2
100
AcDbLine
 10
-54.86356595846041
 20
-5.564894757083152
 30
0.0
 11
-54.86356595846041
 21
14.90885724291672
 31
0.0
  0
LINE
  5
10CE
330
1072
100
AcDbEntity
  8
0
 62
     0
370
    -2
100
AcDbLine
 10
190.9845560415396
 20
0.5576462429168032
 30
0.0
 11
190.9845560415396
 21
14.90885724291672
 31
0.0
  0
LINE
  5
10CF
330
1072
100
AcDbEntity
  8
0
 62
     0
370
    -2
100
AcDbLine
 10
-52.36356595846041
 20
13.65885724291672
 30
0.0
 11
188.4845560415396
 21
13.65885724291672
 31
0.0
  0
INSERT
  5
10D0
330
1072
100
AcDbEntity
  8
0
 62
     0
370
    -2
100
AcDbBlockReference
  2
_Open30
 10
-54.86356595846041
 20
13.65885724291672
 30
0.0
 41
2.5
 42
2.5
 43
2.5
 50
180.0
  0
INSERT
  5
10D1
330
1072
100
AcDbEntity
  8
0
 62
     0
370
    -2
100
AcDbBlockReference
  2
_Open30
 10
190.9845560415396
 20
13.65885724291672
 30
0.0
 41
2.5
 42
2.5
 43
2.5
  0
MTEXT
  5
10D2
330
1072
100
AcDbEntity
  8
0
 62
     4
100
AcDbMText
 10
68.06049504153961
 20
15.78385724291672
 30
0.0
 40
3.0
 41
0.0
 71
     5
 72
     1
  1
L寸法
 73
     1
 44
1.0
1001
ACAD
1000
MTEXTBEGIN
1070
    73
1070
     1
1070
    44
1040
1.0
1070
    74
1070
     0
1000
MTEXTEND
  0
POINT
  5
10D3
330
1072
100
AcDbEntity
  8
Defpoints
 62
     0
100
AcDbPoint
 10
-54.86356595846041
 20
-5.814894757083152
 30
0.0
  0
POINT
  5
10D4
330
1072
100
AcDbEntity
  8
Defpoints
 62
     0
100
AcDbPoint
 10
190.9845560415396
 20
0.3076462429168032
 30
0.0
  0
POINT
  5
10D5
330
1072
100
AcDbEntity
  8
Defpoints
 62
     0
100
AcDbPoint
 10
190.9845560415396
 20
13.65885724291672
 30
0.0
  0
ENDBLK
  5
1074
330
1072
100
AcDbEntity
  8
0
100
AcDbBlockEnd
  0
BLOCK
  5
107F
330
107E
100
AcDbEntity
  8
0
100
AcDbBlockBegin
  2
*D21
 70
     1
 10
0.0
 20
0.0
 30
0.0
  3
*D21
  1

  0
LINE
  5
10D6
330
107E
100
AcDbEntity
  8
0
 62
     0
370
    -2
100
AcDbLine
 10
111.1124880415395
 20
-17.73953475708322
 30
0.0
 11
120.3653472284449
 21
-17.73953475708322
 31
0.0
  0
LINE
  5
10D7
330
107E
100
AcDbEntity
  8
0
 62
     0
370
    -2
100
AcDbLine
 10
111.3448180415395
 20
-2.650001757083259
 30
0.0
 11
120.3653472284449
 21
-2.650001757083261
 31
0.0
  0
LINE
  5
10D8
330
107E
100
AcDbEntity
  8
0
 62
     0
370
    -2
100
AcDbLine
 10
119.1153472284449
 20
-0.1500017570832617
 30
0.0
 11
119.1153472284449
 21
2.349998242916738
 31
0.0
  0
LINE
  5
10D9
330
107E
100
AcDbEntity
  8
0
 62
     0
370
    -2
100
AcDbLine
 10
119.1153472284449
 20
-20.23953475708322
 30
0.0
 11
119.1153472284449
 21
-28.36453475708324
 31
0.0
  0
LINE
  5
10DA
330
107E
100
AcDbEntity
  8
0
 62
     0
370
    -2
100
AcDbLine
 10
119.1153472284449
 20
-2.650001757083261
 30
0.0
 11
119.1153472284449
 21
-17.73953475708322
 31
0.0
  0
INSERT
  5
10DB
330
107E
100
AcDbEntity
  8
0
 62
     0
370
    -2
100
AcDbBlockReference
  2
_Open30
 10
119.1153472284449
 20
-2.650001757083261
 30
0.0
 41
2.5
 42
2.5
 43
2.5
 50
270.0
  0
INSERT
  5
10DC
330
107E
100
AcDbEntity
  8
0
 62
     0
370
    -2
100
AcDbBlockReference
  2
_Open30
 10
119.1153472284449
 20
-17.73953475708322
 30
0.0
 41
2.5
 42
2.5
 43
2.5
 50
90.0
  0
MTEXT
  5
10DD
330
107E
100
AcDbEntity
  8
0
 62
     4
100
AcDbMText
 10
116.9903472284449
 20
-25.73953475708322
 30
0.0
 40
3.0
 41
0.0
 71
     5
 72
     1
  1
15
 11
0.0000000000000001
 21
1.0
 31
0.0
 73
     1
 44
1.0
1001
ACAD
1000
MTEXTBEGIN
1070
    73
1070
     1
1070
    44
1040
1.0
1070
    74
1070
     0
1000
MTEXTEND
  0
POINT
  5
10DE
330
107E
100
AcDbEntity
  8
Defpoints
 62
     0
100
AcDbPoint
 10
110.8624880415395
 20
-17.73953475708322
 30
0.0
  0
POINT
  5
10DF
330
107E
100
AcDbEntity
  8
Defpoints
 62
     0
100
AcDbPoint
 10
111.0948180415395
 20
-2.650001757083259
 30
0.0
  0
POINT
  5
10E0
330
107E
100
AcDbEntity
  8
Defpoints
 62
     0
100
AcDbPoint
 10
119.1153472284449
 20
-2.650001757083261
 30
0.0
  0
ENDBLK
  5
1080
330
107E
100
AcDbEntity
  8
0
100
AcDbBlockEnd
  0
BLOCK
  5
108D
330
108C
100
AcDbEntity
  8
0
100
AcDbBlockBegin
  2
*D22
 70
     1
 10
0.0
 20
0.0
 30
0.0
  3
*D22
  1

  0
LINE
  5
10E1
330
108C
100
AcDbEntity
  8
0
 62
     0
370
    -2
100
AcDbLine
 10
67.3472520415396
 20
76.5239662429168
 30
0.0
 11
74.75373204153959
 21
76.5239662429168
 31
0.0
  0
LINE
  5
10E2
330
108C
100
AcDbEntity
  8
0
 62
     0
370
    -2
100
AcDbLine
 10
67.07038404153957
 20
79.52396624291679
 30
0.0
 11
74.75373204153959
 21
79.52396624291679
 31
0.0
  0
LINE
  5
10E3
330
108C
100
AcDbEntity
  8
0
 62
     0
370
    -2
100
AcDbLine
 10
73.50373204153959
 20
74.0239662429168
 30
0.0
 11
73.50373204153959
 21
71.5239662429168
 31
0.0
  0
LINE
  5
10E4
330
108C
100
AcDbEntity
  8
0
 62
     0
370
    -2
100
AcDbLine
 10
73.50373204153959
 20
82.02396624291679
 30
0.0
 11
73.50373204153959
 21
90.77396624291679
 31
0.0
  0
LINE
  5
10E5
330
108C
100
AcDbEntity
  8
0
 62
     0
370
    -2
100
AcDbLine
 10
73.50373204153959
 20
76.5239662429168
 30
0.0
 11
73.50373204153959
 21
79.52396624291679
 31
0.0
  0
INSERT
  5
10E6
330
108C
100
AcDbEntity
  8
0
 62
     0
370
    -2
100
AcDbBlockReference
  2
_Open30
 10
73.50373204153959
 20
76.5239662429168
 30
0.0
 41
2.5
 42
2.5
 43
2.5
 50
90.0
  0
INSERT
  5
10E7
330
108C
100
AcDbEntity
  8
0
 62
     0
370
    -2
100
AcDbBlockReference
  2
_Open30
 10
73.50373204153959
 20
79.52396624291679
 30
0.0
 41
2.5
 42
2.5
 43
2.5
 50
270.0
  0
MTEXT
  5
10E8
330
108C
100
AcDbEntity
  8
0
 62
     4
100
AcDbMText
 10
71.37873204153958
 20
87.64896624291681
 30
0.0
 40
3.0
 41
0.0
 71
     5
 72
     1
  1
2t
 11
0.0000000000000001
 21
1.0
 31
0.0
 73
     1
 44
1.0
1001
ACAD
1000
MTEXTBEGIN
1070
    73
1070
     1
1070
    44
1040
1.0
1070
    74
1070
     0
1000
MTEXTEND
  0
POINT
  5
10E9
330
108C
100
AcDbEntity
  8
Defpoints
 62
     0
100
AcDbPoint
 10
67.09725204153961
 20
76.5239662429168
 30
0.0
  0
POINT
  5
10EA
330
108C
100
AcDbEntity
  8
Defpoints
 62
     0
100
AcDbPoint
 10
66.82038404153956
 20
79.52396624291679
 30
0.0
  0
POINT
  5
10EB
330
108C
100
AcDbEntity
  8
Defpoints
 62
     0
100
AcDbPoint
 10
73.50373204153959
 20
79.52396624291679
 30
0.0
  0
ENDBLK
  5
108E
330
108C
100
AcDbEntity
  8
0
100
AcDbBlockEnd
  0
BLOCK
  5
109B
330
109A
100
AcDbEntity
  8
0
100
AcDbBlockBegin
  2
*D23
 70
     1
 10
0.0
 20
0.0
 30
0.0
  3
*D23
  1

  0
LINE
  5
10EC
330
109A
100
AcDbEntity
  8
0
 62
     0
370
    -2
100
AcDbLine
 10
-95.09370789279916
 20
58.55094566404407
 30
0.0
 11
-116.5499770241225
 21
98.10633182178918
 31
0.0
  0
INSERT
  5
10ED
330
109A
100
AcDbEntity
  8
0
 62
     0
370
    -2
100
AcDbBlockReference
  2
_Open30
 10
-93.90169295846067
 20
56.35342424291662
 30
0.0
 41
2.5
 42
2.5
 43
2.5
 50
298.4770020669831
  0
INSERT
  5
10EE
330
109A
100
AcDbEntity
  8
0
 62
     0
370
    -2
100
AcDbBlockReference
  2
_Open30
 10
-117.741991958461
 20
100.3038532429166
 30
0.0
 41
2.5
 42
2.5
 43
2.5
 50
118.477002066983
  0
MTEXT
  5
10EF
102
{ACAD_XDICTIONARY
360
13EC
102
}
330
109A
100
AcDbEntity
  8
0
 62
     4
100
AcDbMText
 10
-103.9539492505025
 20
79.34185143710433
 30
0.0
 40
3.0
 41
0.0
 71
     5
 72
     1
  1
\U+220550
 11
0.4768059737354
 21
-0.8790085684509776
 31
0.0
 73
     1
 44
1.0
1001
ACAD
1000
MTEXTBEGIN
1070
    73
1070
     1
1070
    44
1040
1.0
1070
    74
1070
     0
1000
MTEXTEND
  0
POINT
  5
10F0
330
109A
100
AcDbEntity
  8
Defpoints
 62
     0
100
AcDbPoint
 10
-117.741991958461
 20
100.3038532429166
 30
0.0
  0
POINT
  5
10F1
330
109A
100
AcDbEntity
  8
Defpoints
 62
     0
100
AcDbPoint
 10
-93.90169295846067
 20
56.35342424291662
 30
0.0
  0
ENDBLK
  5
109C
330
109A
100
AcDbEntity
  8
0
100
AcDbBlockEnd
  0
BLOCK
  5
10A4
330
10A3
100
AcDbEntity
  8
0
100
AcDbBlockBegin
  2
*D24
 70
     1
 10
0.0
 20
0.0
 30
0.0
  3
*D24
  1

  0
LINE
  5
10F2
330
10A3
100
AcDbEntity
  8
0
 62
     0
370
    -2
100
AcDbLine
 10
-106.0718429584603
 20
41.32863824291672
 30
0.0
 11
-153.6596349584604
 21
41.32863824291674
 31
0.0
  0
LINE
  5
10F3
330
10A3
100
AcDbEntity
  8
0
 62
     0
370
    -2
100
AcDbLine
 10
-96.45889195846041
 20
123.0655112429167
 30
0.0
 11
-153.6596349584604
 21
123.0655112429167
 31
0.0
  0
LINE
  5
10F4
330
10A3
100
AcDbEntity
  8
0
 62
     0
370
    -2
100
AcDbLine
 10
-152.4096349584604
 20
43.82863824291674
 30
0.0
 11
-152.4096349584604
 21
120.5655112429167
 31
0.0
  0
INSERT
  5
10F5
330
10A3
100
AcDbEntity
  8
0
 62
     0
370
    -2
100
AcDbBlockReference
  2
_Open30
 10
-152.4096349584604
 20
41.32863824291674
 30
0.0
 41
2.5
 42
2.5
 43
2.5
 50
270.0
  0
INSERT
  5
10F6
330
10A3
100
AcDbEntity
  8
0
 62
     0
370
    -2
100
AcDbBlockReference
  2
_Open30
 10
-152.4096349584604
 20
123.0655112429167
 30
0.0
 41
2.5
 42
2.5
 43
2.5
 50
90.0
  0
MTEXT
  5
10F7
330
10A3
100
AcDbEntity
  8
0
 62
     4
100
AcDbMText
 10
-154.5346349584604
 20
82.19707474291672
 30
0.0
 40
3.0
 41
0.0
 71
     5
 72
     1
  1
82
 11
0.0000000000000001
 21
1.0
 31
0.0
 73
     1
 44
1.0
1001
ACAD
1000
MTEXTBEGIN
1070
    73
1070
     1
1070
    44
1040
1.0
1070
    74
1070
     0
1000
MTEXTEND
  0
POINT
  5
10F8
330
10A3
100
AcDbEntity
  8
Defpoints
 62
     0
100
AcDbPoint
 10
-105.8218429584603
 20
41.32863824291672
 30
0.0
  0
POINT
  5
10F9
330
10A3
100
AcDbEntity
  8
Defpoints
 62
     0
100
AcDbPoint
 10
-96.20889195846041
 20
123.0655112429167
 30
0.0
  0
POINT
  5
10FA
330
10A3
100
AcDbEntity
  8
Defpoints
 62
     0
100
AcDbPoint
 10
-152.4096349584604
 20
123.0655112429167
 30
0.0
  0
ENDBLK
  5
10A5
330
10A3
100
AcDbEntity
  8
0
100
AcDbBlockEnd
  0
BLOCK
  5
10B0
330
10AF
100
AcDbEntity
  8
0
100
AcDbBlockBegin
  2
*D25
 70
     1
 10
0.0
 20
0.0
 30
0.0
  3
*D25
  1

  0
LINE
  5
10FB
330
10AF
100
AcDbEntity
  8
0
 62
     0
370
    -2
100
AcDbLine
 10
-142.8268929584604
 20
-10.07981075708324
 30
0.0
 11
-142.8268929584604
 21
14.90885724291672
 31
0.0
  0
LINE
  5
10FC
330
10AF
100
AcDbEntity
  8
0
 62
     0
370
    -2
100
AcDbLine
 10
-54.86356595846041
 20
-5.564894757083152
 30
0.0
 11
-54.86356595846041
 21
14.90885724291672
 31
0.0
  0
LINE
  5
10FD
330
10AF
100
AcDbEntity
  8
0
 62
     0
370
    -2
100
AcDbLine
 10
-140.3268929584604
 20
13.65885724291672
 30
0.0
 11
-57.36356595846041
 21
13.65885724291672
 31
0.0
  0
INSERT
  5
10FE
330
10AF
100
AcDbEntity
  8
0
 62
     0
370
    -2
100
AcDbBlockReference
  2
_Open30
 10
-142.8268929584604
 20
13.65885724291672
 30
0.0
 41
2.5
 42
2.5
 43
2.5
 50
180.0
  0
INSERT
  5
10FF
330
10AF
100
AcDbEntity
  8
0
 62
     0
370
    -2
100
AcDbBlockReference
  2
_Open30
 10
-54.86356595846041
 20
13.65885724291672
 30
0.0
 41
2.5
 42
2.5
 43
2.5
  0
MTEXT
  5
1100
330
10AF
100
AcDbEntity
  8
0
 62
     4
100
AcDbMText
 10
-98.84522945846043
 20
15.78385724291672
 30
0.0
 40
3.0
 41
0.0
 71
     5
 72
     1
  1
88
 73
     1
 44
1.0
1001
ACAD
1000
MTEXTBEGIN
1070
    73
1070
     1
1070
    44
1040
1.0
1070
    74
1070
     0
1000
MTEXTEND
  0
POINT
  5
1101
330
10AF
100
AcDbEntity
  8
Defpoints
 62
     0
100
AcDbPoint
 10
-142.8268929584604
 20
-10.32981075708323
 30
0.0
  0
POINT
  5
1102
330
10AF
100
AcDbEntity
  8
Defpoints
 62
     0
100
AcDbPoint
 10
-54.86356595846041
 20
-5.814894757083152
 30
0.0
  0
POINT
  5
1103
330
10AF
100
AcDbEntity
  8
Defpoints
 62
     0
100
AcDbPoint
 10
-54.86356595846041
 20
13.65885724291672
 30
0.0
  0
ENDBLK
  5
10B1
330
10AF
100
AcDbEntity
  8
0
100
AcDbBlockEnd
  0
ENDSEC
  0
SECTION
  2
ENTITIES
  0
LINE
  5
4E2
330
6B
100
AcDbEntity
  8
0
 62
     3
100
AcDbLine
 10
-456.1241512760509
 20
75.2065851471853
 30
0.0
 11
-456.1241512760509
 21
73.70658514718532
 31
0.0
  0
LINE
  5
4E3
330
6B
100
AcDbEntity
  8
0
 62
     3
100
AcDbLine
 10
-456.1241512760509
 20
75.2065851471853
 30
0.0
 11
-451.6241512760508
 21
75.2065851471853
 31
0.0
  0
LINE
  5
4E4
330
6B
100
AcDbEntity
  8
0
 62
     3
100
AcDbLine
 10
-451.6241512760508
 20
75.2065851471853
 30
0.0
 11
-447.1241512760508
 21
73.70658514718532
 31
0.0
  0
LINE
  5
4E5
330
6B
100
AcDbEntity
  8
0
 62
     3
100
AcDbLine
 10
-444.1241512760509
 20
73.70658514718532
 30
0.0
 11
-447.1241512760508
 21
73.70658514718532
 31
0.0
  0
LINE
  5
4E6
330
6B
100
AcDbEntity
  8
0
 62
     3
100
AcDbLine
 10
-456.1241512760509
 20
73.70658514718532
 30
0.0
 11
-459.2359182760509
 21
73.70658514718532
 31
0.0
  0
LINE
  5
4E7
330
6B
100
AcDbEntity
  8
0
 62
     3
100
AcDbLine
 10
-444.1241512760509
 20
75.2065851471853
 30
0.0
 11
-439.6241512760509
 21
75.2065851471853
 31
0.0
  0
LINE
  5
4E8
330
6B
100
AcDbEntity
  8
0
 62
     3
100
AcDbLine
 10
-444.1241512760509
 20
75.2065851471853
 30
0.0
 11
-444.1241512760509
 21
73.70658514718532
 31
0.0
  0
LINE
  5
4E9
330
6B
100
AcDbEntity
  8
0
 62
     3
100
AcDbLine
 10
-429.855389276051
 20
76.70658514718532
 30
0.0
 11
-462.1138122760508
 21
76.70658514718532
 31
0.0
  0
LINE
  5
4EA
330
6B
100
AcDbEntity
  8
0
 62
     3
100
AcDbLine
 10
-462.1931752760509
 20
74.72959314718531
 30
0.0
 11
-459.1241512760508
 21
73.70658514718532
 31
0.0
  0
LINE
  5
4EB
330
6B
100
AcDbEntity
  8
0
 62
     3
100
AcDbLine
 10
-439.6241512760509
 20
75.2065851471853
 30
0.0
 11
-435.1241512760508
 21
73.70658514718532
 31
0.0
  0
LINE
  5
4EC
330
6B
100
AcDbEntity
  8
0
 62
     3
100
AcDbLine
 10
-435.1241512760508
 20
73.70658514718532
 30
0.0
 11
-430.9110752760509
 21
73.70658514718532
 31
0.0
  0
LINE
  5
4ED
330
6B
100
AcDbEntity
  8
0
 62
     3
100
AcDbLine
 10
-329.606280276051
 20
75.97874414718531
 30
0.0
 11
-347.5409402760509
 21
75.97874414718531
 31
0.0
  0
ARC
  5
4EE
330
6B
100
AcDbEntity
  8
0
 62
     3
100
AcDbCircle
 10
-305.6276022760509
 20
83.70435414718532
 30
0.0
 40
0.75
100
AcDbArc
 50
0.0
 51
90.0
  0
LINE
  5
4EF
330
6B
100
AcDbEntity
  8
0
 62
     3
100
AcDbLine
 10
-313.912411276051
 20
84.45435414718531
 30
0.0
 11
-305.6276022760509
 21
84.45435414718531
 31
0.0
  0
ARC
  5
4F0
330
6B
100
AcDbEntity
  8
0
 62
     3
100
AcDbCircle
 10
-313.912411276051
 20
83.70435414718532
 30
0.0
 40
0.75
100
AcDbArc
 50
90.0
 51
178.3633029999999
  0
LINE
  5
4F1
330
6B
100
AcDbEntity
  8
0
  6
HIDDEN
 62
    15
100
AcDbLine
 10
-314.662105276051
 20
82.7257751471853
 30
0.0
 11
-314.6619862760509
 21
82.72994514718531
 31
0.0
  0
LINE
  5
4F2
330
6B
100
AcDbEntity
  8
0
 62
     3
100
AcDbLine
 10
-329.2706302760509
 20
76.32935414718531
 30
0.0
 11
-329.2706302760509
 21
76.39540614718531
 31
0.0
  0
ARC
  5
4F3
330
6B
100
AcDbEntity
  8
0
 62
     3
100
AcDbCircle
 10
-328.520630276051
 20
76.39540614718531
 30
0.0
 40
0.75
100
AcDbArc
 50
95.27473400000014
 51
180.0
  0
ARC
  5
4F4
330
6B
100
AcDbEntity
  8
0
 62
     3
100
AcDbCircle
 10
-329.645630276051
 20
76.32935414718531
 30
0.0
 40
0.375
100
AcDbArc
 50
270.0
 51
0.0
  0
LINE
  5
4F5
330
6B
100
AcDbEntity
  8
0
 62
     3
100
AcDbLine
 10
-530.6044962760507
 20
75.98019714718532
 30
0.0
 11
-530.6044962760507
 21
74.4801971471853
 31
0.0
  0
LINE
  5
4F6
330
6B
100
AcDbEntity
  8
0
 62
     3
100
AcDbLine
 10
-527.1192962760507
 20
77.63872014718531
 30
0.0
 11
-541.1229732760508
 21
77.63872014718531
 31
0.0
  0
ARC
  5
4F7
330
6B
100
AcDbEntity
  8
0
 62
     3
100
AcDbCircle
 10
-527.1192962760507
 20
75.13872014718531
 30
0.0
 40
2.5
100
AcDbArc
 50
17.45760299999989
 51
90.0
  0
CIRCLE
  5
4F8
330
6B
100
AcDbEntity
  8
0
100
AcDbCircle
 10
-445.6274932760508
 20
73.65435414718532
 30
0.0
 40
16.957712
  0
LINE
  5
4F9
330
6B
100
AcDbEntity
  8
0
 62
     3
100
AcDbLine
 10
-524.7344482760508
 20
74.38872014718531
 30
0.0
 11
-541.1229732760508
 21
72.69095314718531
 31
0.0
  0
LINE
  5
4FA
330
6B
100
AcDbEntity
  8
0
 62
     3
100
AcDbLine
 10
-304.630102276051
 20
74.45435414718531
 30
0.0
 11
-304.877602276051
 21
83.70435414718532
 31
0.0
  0
LINE
  5
4FB
330
6B
100
AcDbEntity
  8
0
 62
     3
100
AcDbLine
 10
-320.374768276051
 20
80.24624414718529
 30
0.0
 11
-314.6721102760509
 21
83.2278001471853
 31
0.0
  0
LINE
  5
4FC
330
6B
100
AcDbEntity
  8
0
 62
     3
100
AcDbLine
 10
-541.6271782760509
 20
78.18754214718531
 30
0.0
 11
-541.107520276051
 21
77.6218991471853
 31
0.0
  0
LINE
  5
4FD
330
6B
100
AcDbEntity
  8
0
 62
     3
100
AcDbLine
 10
-541.6271782760509
 20
72.18754214718531
 30
0.0
 11
-541.107520276051
 21
72.69458414718531
 31
0.0
  0
LINE
  5
4FE
330
6B
100
AcDbEntity
  8
0
 62
     3
100
AcDbLine
 10
-320.374768276051
 20
81.22658414718532
 30
0.0
 11
-324.357795276051
 21
81.22658414718532
 31
0.0
  0
LINE
  5
4FF
330
6B
100
AcDbEntity
  8
0
 62
     3
100
AcDbLine
 10
-324.357795276051
 20
78.45675214718531
 30
0.0
 11
-324.357795276051
 21
81.22658414718532
 31
0.0
  0
LINE
  5
500
330
6B
100
AcDbEntity
  8
0
 62
     3
100
AcDbLine
 10
-320.374768276051
 20
81.22658414718532
 30
0.0
 11
-320.374768276051
 21
79.69400214718532
 31
0.0
  0
LINE
  5
501
330
6B
100
AcDbEntity
  8
0
 62
     3
100
AcDbLine
 10
-329.512596276051
 20
75.97874414718531
 30
0.0
 11
-329.512596276051
 21
74.45435414718531
 31
0.0
  0
LINE
  5
502
330
6B
100
AcDbEntity
  8
0
 62
     3
100
AcDbLine
 10
-314.707740276051
 20
81.45435414718532
 30
0.0
 11
-328.5895782760509
 21
77.14223014718531
 31
0.0
  0
LINE
  5
503
330
6B
100
AcDbEntity
  8
0
 62
     3
100
AcDbLine
 10
-314.662105276051
 20
83.7257751471853
 30
0.0
 11
-314.683721276051
 21
81.46181514718533
 31
0.0
  0
LINE
  5
504
330
6B
100
AcDbEntity
  8
0
  6
DASHED
100
AcDbLine
 10
-486.0424792760508
 20
-18.26214885281469
 30
0.0
 11
-486.0424792760508
 21
-7.762148852814688
 31
0.0
  0
LINE
  5
505
330
6B
100
AcDbEntity
  8
0
  6
DASHED
100
AcDbLine
 10
-438.7924792760508
 20
-7.762148852814688
 30
0.0
 11
-438.7924792760508
 21
-18.26214885281469
 31
0.0
  0
LINE
  5
506
330
6B
100
AcDbEntity
  8
0
  6
DASHED
100
AcDbLine
 10
-434.2924792760508
 20
-7.762148852814688
 30
0.0
 11
-434.2924792760508
 21
-18.26214885281469
 31
0.0
  0
LINE
  5
507
330
6B
100
AcDbEntity
  8
0
  6
DASHED
100
AcDbLine
 10
-436.5424792760508
 20
-7.762148852814688
 30
0.0
 11
-436.5424792760508
 21
-18.26214885281469
 31
0.0
  0
LINE
  5
508
330
6B
100
AcDbEntity
  8
0
 62
     3
100
AcDbLine
 10
-329.793341276051
 20
-20.55691585281469
 30
0.0
 11
-329.0926052760509
 21
-20.55691585281469
 31
0.0
  0
LINE
  5
509
330
6B
100
AcDbEntity
  8
0
 62
     3
100
AcDbLine
 10
-329.793341276051
 20
-5.467382852814688
 30
0.0
 11
-329.0926052760509
 21
-5.467382852814688
 31
0.0
  0
LINE
  5
50A
330
6B
100
AcDbEntity
  8
0
  6
DASHED
100
AcDbLine
 10
-440.2924792760508
 20
-12.97130385281469
 30
0.0
 11
-440.2924792760508
 21
-18.26214885281469
 31
0.0
  0
LINE
  5
50B
330
6B
100
AcDbEntity
  8
0
  6
DASHED
100
AcDbLine
 10
-438.7924792760508
 20
-18.26214885281469
 30
0.0
 11
-434.2924792760508
 21
-18.26214885281469
 31
0.0
  0
LINE
  5
50C
330
6B
100
AcDbEntity
  8
0
  6
DASHED
100
AcDbLine
 10
-438.7924792760508
 20
-7.762148852814688
 30
0.0
 11
-434.2924792760508
 21
-7.762148852814688
 31
0.0
  0
LINE
  5
50D
330
6B
100
AcDbEntity
  8
0
  6
DASHED
100
AcDbLine
 10
-444.0424792760508
 20
-7.762148852814688
 30
0.0
 11
-444.0424792760508
 21
-18.26214885281469
 31
0.0
  0
LINE
  5
50E
330
6B
100
AcDbEntity
  8
0
  6
DASHED
100
AcDbLine
 10
-441.7924792760508
 20
-7.762148852814688
 30
0.0
 11
-441.7924792760508
 21
-12.32670985281469
 31
0.0
  0
LINE
  5
50F
330
6B
100
AcDbEntity
  8
0
 62
     3
100
AcDbLine
 10
-309.282558276051
 20
-17.50973485281469
 30
0.0
 11
-309.282558276051
 21
-8.509734852814688
 31
0.0
  0
ARC
  5
510
330
6B
100
AcDbEntity
  8
0
 62
     3
100
AcDbCircle
 10
-306.282558276051
 20
-2.509734852814688
 30
0.0
 40
1.5
100
AcDbArc
 50
0.0
 51
90.0
  0
ARC
  5
511
330
6B
100
AcDbEntity
  8
0
 62
     3
100
AcDbCircle
 10
-306.282558276051
 20
-23.50973485281469
 30
0.0
 40
1.5
100
AcDbArc
 50
270.0
 51
0.0
  0
LINE
  5
512
330
6B
100
AcDbEntity
  8
0
 62
     3
100
AcDbLine
 10
-308.532558276051
 20
-20.50973485281469
 30
0.0
 11
-308.532558276051
 21
-20.13473485281469
 31
0.0
  0
LINE
  5
513
330
6B
100
AcDbEntity
  8
0
 62
     3
100
AcDbLine
 10
-308.532558276051
 20
-5.509734852814688
 30
0.0
 11
-308.532558276051
 21
-5.884734852814688
 31
0.0
  0
ARC
  5
514
330
6B
100
AcDbEntity
  8
0
 62
     3
100
AcDbCircle
 10
-308.907558276051
 20
-5.509734852814688
 30
0.0
 40
0.375
100
AcDbArc
 50
0.0
 51
90.0
  0
ARC
  5
515
330
6B
100
AcDbEntity
  8
0
 62
     3
100
AcDbCircle
 10
-308.907558276051
 20
-20.50973485281469
 30
0.0
 40
0.375
100
AcDbArc
 50
270.0
 51
0.0
  0
LINE
  5
516
330
6B
100
AcDbEntity
  8
0
 62
     3
100
AcDbLine
 10
-310.4075582760509
 20
-5.134734852814688
 30
0.0
 11
-308.907558276051
 21
-5.134734852814688
 31
0.0
  0
LINE
  5
517
330
6B
100
AcDbEntity
  8
0
 62
     3
100
AcDbLine
 10
-310.4075582760509
 20
-20.88473485281469
 30
0.0
 11
-308.907558276051
 21
-20.88473485281469
 31
0.0
  0
LINE
  5
518
330
6B
100
AcDbEntity
  8
0
 62
     3
100
AcDbLine
 10
-310.782558276051
 20
-20.50973485281469
 30
0.0
 11
-310.782558276051
 21
-19.00973485281468
 31
0.0
  0
LINE
  5
519
330
6B
100
AcDbEntity
  8
0
 62
     3
100
AcDbLine
 10
-310.782558276051
 20
-5.509734852814688
 30
0.0
 11
-310.782558276051
 21
-7.009734852814688
 31
0.0
  0
ARC
  5
51A
330
6B
100
AcDbEntity
  8
0
 62
     3
100
AcDbCircle
 10
-310.4075582760509
 20
-5.509734852814688
 30
0.0
 40
0.375
100
AcDbArc
 50
90.0
 51
180.0
  0
ARC
  5
51B
330
6B
100
AcDbEntity
  8
0
 62
     3
100
AcDbCircle
 10
-310.4075582760509
 20
-20.50973485281469
 30
0.0
 40
0.375
100
AcDbArc
 50
180.0
 51
270.0
  0
LINE
  5
51C
330
6B
100
AcDbEntity
  8
0
 62
     3
100
AcDbLine
 10
-305.532558276051
 20
-15.25973485281468
 30
0.0
 11
-308.532558276051
 21
-15.25973485281468
 31
0.0
  0
LINE
  5
51D
330
6B
100
AcDbEntity
  8
0
 62
     3
100
AcDbLine
 10
-305.532558276051
 20
-10.75973485281469
 30
0.0
 11
-308.532558276051
 21
-10.75973485281469
 31
0.0
  0
LINE
  5
51E
330
6B
100
AcDbEntity
  8
0
 62
     3
100
AcDbLine
 10
-308.532558276051
 20
-5.884734852814688
 30
0.0
 11
-308.532558276051
 21
-10.75973485281469
 31
0.0
  0
LINE
  5
51F
330
6B
100
AcDbEntity
  8
0
 62
     3
100
AcDbLine
 10
-308.532558276051
 20
-15.25973485281468
 30
0.0
 11
-308.532558276051
 21
-20.13473485281469
 31
0.0
  0
LINE
  5
520
330
6B
100
AcDbEntity
  8
0
 62
     3
100
AcDbLine
 10
-322.966716276051
 20
-17.50973485281469
 30
0.0
 11
-323.5350072760509
 21
-17.50973485281469
 31
0.0
  0
LINE
  5
521
330
6B
100
AcDbEntity
  8
0
 62
     3
100
AcDbLine
 10
-322.966716276051
 20
-8.509734852814688
 30
0.0
 11
-323.5350072760509
 21
-8.509734852814688
 31
0.0
  0
LINE
  5
522
330
6B
100
AcDbEntity
  8
0
 62
     3
100
AcDbLine
 10
-311.5350072760509
 20
-17.13473485281468
 30
0.0
 11
-311.5350072760509
 21
-14.50973485281469
 31
0.0
  0
LINE
  5
523
330
6B
100
AcDbEntity
  8
0
 62
     3
100
AcDbLine
 10
-324.2850072760508
 20
-16.75973485281469
 30
0.0
 11
-324.2850072760508
 21
-9.259734852814688
 31
0.0
  0
LINE
  5
524
330
6B
100
AcDbEntity
  8
0
 62
     3
100
AcDbLine
 10
-317.203700276051
 20
-14.13473485281469
 30
0.0
 11
-319.8239992760509
 21
-14.13473485281469
 31
0.0
  0
LINE
  5
525
330
6B
100
AcDbEntity
  8
0
 62
     3
100
AcDbLine
 10
-314.181964276051
 20
-11.88473485281469
 30
0.0
 11
-311.9100072760509
 21
-11.88473485281469
 31
0.0
  0
LINE
  5
526
330
6B
100
AcDbEntity
  8
0
 62
     3
100
AcDbLine
 10
-312.7774852760509
 20
-8.884734852814689
 30
0.0
 11
-312.7774852760509
 21
-11.88473485281469
 31
0.0
  0
LINE
  5
527
330
6B
100
AcDbEntity
  8
0
 62
     3
100
AcDbLine
 10
-312.7774852760509
 20
-17.13473485281468
 30
0.0
 11
-312.7774852760509
 21
-14.13473485281469
 31
0.0
  0
LINE
  5
528
330
6B
100
AcDbEntity
  8
0
 62
     3
100
AcDbLine
 10
-325.4100072760508
 20
-7.759734852814688
 30
0.0
 11
-325.4100072760508
 21
-18.25973485281469
 31
0.0
  0
ARC
  5
529
330
6B
100
AcDbEntity
  8
0
 62
     3
100
AcDbCircle
 10
-324.6600072760509
 20
-18.25973485281469
 30
0.0
 40
0.75
100
AcDbArc
 50
180.0
 51
270.0
  0
ARC
  5
52A
330
6B
100
AcDbEntity
  8
0
 62
     3
100
AcDbCircle
 10
-324.6600072760509
 20
-7.759734852814688
 30
0.0
 40
0.75
100
AcDbArc
 50
90.0
 51
180.0
  0
ARC
  5
52B
330
6B
100
AcDbEntity
  8
0
 62
     3
100
AcDbCircle
 10
-323.5350072760509
 20
-9.259734852814688
 30
0.0
 40
0.75
100
AcDbArc
 50
90.0
 51
180.0
  0
ARC
  5
52C
330
6B
100
AcDbEntity
  8
0
 62
     3
100
AcDbCircle
 10
-323.5350072760509
 20
-16.75973485281469
 30
0.0
 40
0.75
100
AcDbArc
 50
180.0
 51
270.0
  0
ARC
  5
52D
330
6B
100
AcDbEntity
  8
0
 62
     3
100
AcDbCircle
 10
-305.532558276051
 20
-16.00973485281469
 30
0.0
 40
0.75
100
AcDbArc
 50
0.0
 51
90.0
  0
ARC
  5
52E
330
6B
100
AcDbEntity
  8
0
 62
     3
100
AcDbCircle
 10
-305.532558276051
 20
-10.00973485281469
 30
0.0
 40
0.75
100
AcDbArc
 50
270.0
 51
0.0
  0
LINE
  5
52F
330
6B
100
AcDbEntity
  8
0
 62
     3
100
AcDbLine
 10
-313.131964276051
 20
-25.0097348528147
 30
0.0
 11
-306.282558276051
 21
-25.0097348528147
 31
0.0
  0
LINE
  5
530
330
6B
100
AcDbEntity
  8
0
 62
     3
100
AcDbLine
 10
-313.056964276051
 20
-1.009734852814689
 30
0.0
 11
-306.282558276051
 21
-1.009734852814689
 31
0.0
  0
LINE
  5
531
330
6B
100
AcDbEntity
  8
0
 62
     3
100
AcDbLine
 10
-314.556964276051
 20
-22.7295008528147
 30
0.0
 11
-314.556964276051
 21
-22.7597348528147
 31
0.0
  0
ARC
  5
532
330
6B
100
AcDbEntity
  8
0
 62
     3
100
AcDbCircle
 10
-313.056964276051
 20
-23.50973485281469
 30
0.0
 40
1.5
100
AcDbArc
 50
180.0
 51
270.0
  0
LINE
  5
533
330
6B
100
AcDbEntity
  8
0
  6
HIDDEN
 62
    15
100
AcDbLine
 10
-314.556964276051
 20
-22.7597348528147
 30
0.0
 11
-314.556964276051
 21
-22.80450085281469
 31
0.0
  0
LINE
  5
534
330
6B
100
AcDbEntity
  8
0
 62
     3
100
AcDbLine
 10
-316.8287002760509
 20
-8.509734852814688
 30
0.0
 11
-316.8287002760509
 21
-7.009734852814688
 31
0.0
  0
LINE
  5
535
330
6B
100
AcDbEntity
  8
0
 62
     3
100
AcDbLine
 10
-316.8287002760509
 20
-17.50973485281469
 30
0.0
 11
-316.8287002760509
 21
-19.00973485281468
 31
0.0
  0
LINE
  5
536
330
6B
100
AcDbEntity
  8
0
 62
     3
100
AcDbLine
 10
-322.966716276051
 20
-17.50973485281469
 30
0.0
 11
-316.8287002760509
 21
-17.50973485281469
 31
0.0
  0
LINE
  5
537
330
6B
100
AcDbEntity
  8
0
 62
     3
100
AcDbLine
 10
-311.1600072760509
 20
-17.50973485281469
 30
0.0
 11
-309.282558276051
 21
-17.50973485281469
 31
0.0
  0
LINE
  5
538
330
6B
100
AcDbEntity
  8
0
 62
     3
100
AcDbLine
 10
-322.966716276051
 20
-8.509734852814688
 30
0.0
 11
-316.8287002760509
 21
-8.509734852814688
 31
0.0
  0
LINE
  5
539
330
6B
100
AcDbEntity
  8
0
 62
     3
100
AcDbLine
 10
-311.1600072760509
 20
-8.509734852814688
 30
0.0
 11
-309.282558276051
 21
-8.509734852814688
 31
0.0
  0
ARC
  5
53A
330
6B
100
AcDbEntity
  8
0
 62
     3
100
AcDbCircle
 10
-311.9100072760509
 20
-14.50973485281469
 30
0.0
 40
0.375
100
AcDbArc
 50
0.0
 51
90.0
  0
LINE
  5
53B
330
6B
100
AcDbEntity
  8
0
 62
     3
100
AcDbLine
 10
-311.5350072760509
 20
-8.884734852814689
 30
0.0
 11
-311.5350072760509
 21
-11.50973485281469
 31
0.0
  0
ARC
  5
53C
330
6B
100
AcDbEntity
  8
0
 62
     3
100
AcDbCircle
 10
-311.9100072760509
 20
-11.50973485281469
 30
0.0
 40
0.375
100
AcDbArc
 50
270.0
 51
0.0
  0
LINE
  5
53D
330
6B
100
AcDbEntity
  8
0
 62
     3
100
AcDbLine
 10
-314.181964276051
 20
-14.13473485281469
 30
0.0
 11
-311.9100072760509
 21
-14.13473485281469
 31
0.0
  0
LINE
  5
53E
330
6B
100
AcDbEntity
  8
0
 62
     3
100
AcDbLine
 10
-317.203700276051
 20
-11.88473485281469
 30
0.0
 11
-319.8239992760509
 21
-11.88473485281469
 31
0.0
  0
LINE
  5
53F
330
6B
100
AcDbEntity
  8
0
 62
     3
100
AcDbLine
 10
-311.5350072760509
 20
-14.50973485281469
 30
0.0
 11
-311.5350072760509
 21
-11.50973485281469
 31
0.0
  0
LINE
  5
540
330
6B
100
AcDbEntity
  8
0
 62
     3
100
AcDbLine
 10
-314.181964276051
 20
-14.13473485281469
 30
0.0
 11
-317.203700276051
 21
-14.13473485281469
 31
0.0
  0
LINE
  5
541
330
6B
100
AcDbEntity
  8
0
 62
     3
100
AcDbLine
 10
-314.181964276051
 20
-11.88473485281469
 30
0.0
 11
-317.203700276051
 21
-11.88473485281469
 31
0.0
  0
ARC
  5
542
330
6B
100
AcDbEntity
  8
0
 62
     3
100
AcDbCircle
 10
-313.056964276051
 20
-2.509734852814688
 30
0.0
 40
1.5
100
AcDbArc
 50
90.0
 51
180.0
  0
LINE
  5
543
330
6B
100
AcDbEntity
  8
0
  6
HIDDEN
 62
    15
100
AcDbLine
 10
-314.556964276051
 20
-3.259734852814688
 30
0.0
 11
-314.556964276051
 21
-3.214968852814688
 31
0.0
  0
LINE
  5
544
330
6B
100
AcDbEntity
  8
0
  6
HIDDEN
 62
    15
100
AcDbLine
 10
-313.056964276051
 20
-1.759734852814688
 30
0.0
 11
-313.131964276051
 21
-1.759734852814688
 31
0.0
  0
ARC
  5
545
330
6B
100
AcDbEntity
  8
0
 62
     3
100
AcDbCircle
 10
-328.4100072760509
 20
-21.22511685281469
 30
0.0
 40
0.75
100
AcDbArc
 50
180.0
 51
263.820121000001
  0
LINE
  5
546
330
6B
100
AcDbEntity
  8
0
  6
HIDDEN
 62
    15
100
AcDbLine
 10
-329.1600072760509
 20
-20.47511685281469
 30
0.0
 11
-329.1600072760509
 21
-20.47950085281469
 31
0.0
  0
ARC
  5
547
330
6B
100
AcDbEntity
  8
0
 62
     3
100
AcDbCircle
 10
-328.4100072760509
 20
-4.719095852814688
 30
0.0
 40
0.75
100
AcDbArc
 50
95.99681099999862
 51
180.0
  0
LINE
  5
548
330
6B
100
AcDbEntity
  8
0
  6
HIDDEN
 62
    15
100
AcDbLine
 10
-329.1600072760509
 20
-5.469095852814688
 30
0.0
 11
-329.1600072760509
 21
-5.464968852814688
 31
0.0
  0
ARC
  5
549
330
6B
100
AcDbEntity
  8
0
 62
     3
100
AcDbCircle
 10
-311.1600072760509
 20
-17.13473485281468
 30
0.0
 40
0.375
100
AcDbArc
 50
180.0
 51
270.0
  0
LINE
  5
54A
330
6B
100
AcDbEntity
  8
0
 62
     3
100
AcDbLine
 10
-312.4024852760509
 20
-17.50973485281469
 30
0.0
 11
-311.1600072760509
 21
-17.50973485281469
 31
0.0
  0
ARC
  5
54B
330
6B
100
AcDbEntity
  8
0
 62
     3
100
AcDbCircle
 10
-312.4024852760509
 20
-17.13473485281468
 30
0.0
 40
0.375
100
AcDbArc
 50
180.0
 51
270.0
  0
ARC
  5
54C
330
6B
100
AcDbEntity
  8
0
 62
     3
100
AcDbCircle
 10
-311.1600072760509
 20
-8.884734852814689
 30
0.0
 40
0.375
100
AcDbArc
 50
90.0
 51
180.0
  0
LINE
  5
54D
330
6B
100
AcDbEntity
  8
0
 62
     3
100
AcDbLine
 10
-312.4024852760509
 20
-8.509734852814688
 30
0.0
 11
-311.1600072760509
 21
-8.509734852814688
 31
0.0
  0
ARC
  5
54E
330
6B
100
AcDbEntity
  8
0
 62
     3
100
AcDbCircle
 10
-312.4024852760509
 20
-8.884734852814689
 30
0.0
 40
0.375
100
AcDbArc
 50
90.0
 51
180.0
  0
LINE
  5
54F
330
6B
100
AcDbEntity
  8
0
 62
     3
100
AcDbLine
 10
-312.4024852760509
 20
-17.50973485281469
 30
0.0
 11
-314.556964276051
 21
-17.50973485281469
 31
0.0
  0
LINE
  5
550
330
6B
100
AcDbEntity
  8
0
 62
     3
100
AcDbLine
 10
-312.4024852760509
 20
-8.509734852814688
 30
0.0
 11
-314.556964276051
 21
-8.509734852814688
 31
0.0
  0
LINE
  5
551
330
6B
100
AcDbEntity
  8
0
  6
HIDDEN
 62
    15
100
AcDbLine
 10
-330.6600072760509
 20
-19.05691585281469
 30
0.0
 11
-330.624365276051
 21
-19.05691585281469
 31
0.0
  0
LINE
  5
552
330
6B
100
AcDbEntity
  8
0
  6
HIDDEN
 62
    15
100
AcDbLine
 10
-330.6600072760509
 20
-6.967382852814687
 30
0.0
 11
-330.624365276051
 21
-6.967382852814687
 31
0.0
  0
LINE
  5
553
330
6B
100
AcDbEntity
  8
0
 62
     3
100
AcDbLine
 10
-316.2235962760509
 20
-24.3862118528147
 30
0.0
 11
-313.056964276051
 21
-25.0097348528147
 31
0.0
  0
LINE
  5
554
330
6B
100
AcDbEntity
  8
0
 62
     3
100
AcDbLine
 10
-316.221431276051
 20
-1.595245852814688
 30
0.0
 11
-313.342426276051
 21
-1.037147852814689
 31
0.0
  0
LINE
  5
555
330
6B
100
AcDbEntity
  8
0
 62
     3
100
AcDbLine
 10
-316.2235962760509
 20
-24.3862118528147
 30
0.0
 11
-328.490744276051
 21
-21.97075885281469
 31
0.0
  0
LINE
  5
556
330
6B
100
AcDbEntity
  8
0
 62
     3
100
AcDbLine
 10
-316.221431276051
 20
-1.595245852814688
 30
0.0
 11
-328.488361276051
 21
-3.973199852814688
 31
0.0
  0
LINE
  5
557
330
6B
100
AcDbEntity
  8
0
 62
     3
100
AcDbLine
 10
-316.8287002760509
 20
-17.50973485281469
 30
0.0
 11
-316.8287002760509
 21
-14.13473485281469
 31
0.0
  0
LINE
  5
558
330
6B
100
AcDbEntity
  8
0
 62
     3
100
AcDbLine
 10
-316.8287002760509
 20
-8.509734852814688
 30
0.0
 11
-316.8287002760509
 21
-11.88473485281469
 31
0.0
  0
LINE
  5
559
330
6B
100
AcDbEntity
  8
0
 62
     3
100
AcDbLine
 10
-523.4444192760507
 20
-19.93028485281469
 30
0.0
 11
-530.221853276051
 21
-15.49723285281469
 31
0.0
  0
LINE
  5
55A
330
6B
100
AcDbEntity
  8
0
 62
     3
100
AcDbLine
 10
-523.4444192760507
 20
-6.064180852814689
 30
0.0
 11
-530.221853276051
 21
-10.49723285281469
 31
0.0
  0
ARC
  5
55B
330
6B
100
AcDbEntity
  8
0
 62
     3
100
AcDbCircle
 10
-521.3916982760508
 20
-16.79199885281469
 30
0.0
 40
3.75
100
AcDbArc
 50
236.811702000001
 51
270.0
  0
ARC
  5
55C
330
6B
100
AcDbEntity
  8
0
 62
     3
100
AcDbCircle
 10
-521.3916982760508
 20
-9.202466852814692
 30
0.0
 40
3.75
100
AcDbArc
 50
90.0
 51
123.1882979999989
  0
LINE
  5
55D
330
6B
100
AcDbEntity
  8
0
 62
     3
100
AcDbLine
 10
-526.9766382760508
 20
-15.49723285281469
 30
0.0
 11
-540.9646782760509
 21
-15.49723285281469
 31
0.0
  0
LINE
  5
55E
330
6B
100
AcDbEntity
  8
0
 62
     3
100
AcDbLine
 10
-526.9766382760508
 20
-10.49723285281469
 30
0.0
 11
-540.9646782760509
 21
-10.49723285281469
 31
0.0
  0
ARC
  5
55F
330
6B
100
AcDbEntity
  8
0
 62
     3
100
AcDbCircle
 10
-524.9766382760508
 20
-12.99723285281469
 30
0.0
 40
2.5
100
AcDbArc
 50
270.0
 51
90.0
  0
LINE
  5
560
330
6B
100
AcDbEntity
  8
0
 62
     3
100
AcDbLine
 10
-524.9766382760508
 20
-15.49723285281469
 30
0.0
 11
-527.4815882760508
 21
-15.49723285281469
 31
0.0
  0
LINE
  5
561
330
6B
100
AcDbEntity
  8
0
 62
     3
100
AcDbLine
 10
-524.9766382760508
 20
-10.49723285281469
 30
0.0
 11
-527.4815882760508
 21
-10.49723285281469
 31
0.0
  0
ARC
  5
562
330
6B
100
AcDbEntity
  8
0
 62
     2
100
AcDbCircle
 10
-491.1254982760508
 20
-13.04294885281469
 30
0.0
 40
1.954384
100
AcDbArc
 50
296.4480559999986
 51
63.55194400000131
  0
ARC
  5
563
330
6B
100
AcDbEntity
  8
0
 62
     2
100
AcDbCircle
 10
-495.6151212760508
 20
-22.06822085281469
 30
0.0
 40
11.635073
100
AcDbArc
 50
63.55194400000131
 51
81.8382250000006
  0
ARC
  5
564
330
6B
100
AcDbEntity
  8
0
 62
     2
100
AcDbCircle
 10
-503.8439192760509
 20
-79.4432398528147
 30
0.0
 40
69.99678
100
AcDbArc
 50
81.8382250000006
 51
99.17448699999857
  0
ARC
  5
565
330
6B
100
AcDbEntity
  8
0
 62
     2
100
AcDbCircle
 10
-495.6151212760508
 20
-22.06822085281469
 30
0.0
 40
12.034673
100
AcDbArc
 50
63.55194400000131
 51
81.8382250000006
  0
ARC
  5
566
330
6B
100
AcDbEntity
  8
0
 62
     2
100
AcDbCircle
 10
-503.8626542760509
 20
-79.64300185281468
 30
0.0
 40
69.796915
100
AcDbArc
 50
81.73606200000069
 51
99.05376299999891
  0
ARC
  5
567
330
6B
100
AcDbEntity
  8
0
 62
     2
100
AcDbCircle
 10
-491.1254982760508
 20
-13.04294885281469
 30
0.0
 40
1.554783999999999
100
AcDbArc
 50
296.4480559999986
 51
63.55194400000131
  0
ARC
  5
568
330
6B
100
AcDbEntity
  8
0
 62
     2
100
AcDbCircle
 10
-495.6151212760508
 20
-4.017677852814689
 30
0.0
 40
12.034673
100
AcDbArc
 50
278.1617749999994
 51
296.4480559999986
  0
ARC
  5
569
330
6B
100
AcDbEntity
  8
0
 62
     2
100
AcDbCircle
 10
-503.8626542760509
 20
53.55710314718532
 30
0.0
 40
69.796915
100
AcDbArc
 50
260.9462370000011
 51
278.2639379999993
  0
ARC
  5
56A
330
6B
100
AcDbEntity
  8
0
 62
     2
100
AcDbCircle
 10
-495.6151212760508
 20
-4.017677852814689
 30
0.0
 40
11.635073
100
AcDbArc
 50
278.1617749999994
 51
296.4480559999986
  0
ARC
  5
56B
330
6B
100
AcDbEntity
  8
0
 62
     2
100
AcDbCircle
 10
-503.8439192760509
 20
53.35734114718531
 30
0.0
 40
69.99678
100
AcDbArc
 50
260.8255130000014
 51
278.1617749999994
  0
ARC
  5
56C
330
6B
100
AcDbEntity
  8
0
 62
     2
100
AcDbCircle
 10
-512.2975092760508
 20
-4.017677852814689
 30
0.0
 40
12.034673
100
AcDbArc
 50
243.5519440000013
 51
257.0019650000014
  0
ARC
  5
56D
330
6B
100
AcDbEntity
  8
0
 62
     2
100
AcDbCircle
 10
-512.2975092760508
 20
-4.017677852814689
 30
0.0
 40
11.635073
100
AcDbArc
 50
243.5519440000013
 51
257.3477330000014
  0
ARC
  5
56E
330
6B
100
AcDbEntity
  8
0
 62
     2
100
AcDbCircle
 10
-516.7871312760508
 20
-13.04294885281469
 30
0.0
 40
1.554783999999999
100
AcDbArc
 50
116.4480559999987
 51
243.5519440000013
  0
ARC
  5
56F
330
6B
100
AcDbEntity
  8
0
 62
     2
100
AcDbCircle
 10
-516.7871312760508
 20
-13.04294885281469
 30
0.0
 40
1.954384
100
AcDbArc
 50
116.4480559999987
 51
243.5519440000013
  0
ARC
  5
570
330
6B
100
AcDbEntity
  8
0
 62
     2
100
AcDbCircle
 10
-512.2975092760508
 20
-22.06822085281469
 30
0.0
 40
11.635073
100
AcDbArc
 50
102.6522669999985
 51
116.4480559999987
  0
ARC
  5
571
330
6B
100
AcDbEntity
  8
0
 62
     2
100
AcDbCircle
 10
-512.2975092760508
 20
-22.06822085281469
 30
0.0
 40
12.034673
100
AcDbArc
 50
102.9980349999986
 51
116.4480559999987
  0
LINE
  5
572
330
6B
100
AcDbEntity
  8
0
 62
     3
100
AcDbLine
 10
-541.4845212760508
 20
-16.01214885281469
 30
0.0
 11
-541.0407132760508
 21
-15.57254785281469
 31
0.0
  0
LINE
  5
573
330
6B
100
AcDbEntity
  8
0
 62
     3
100
AcDbLine
 10
-541.4845212760508
 20
-10.01214885281469
 30
0.0
 11
-541.0055182760507
 21
-10.53964785281469
 31
0.0
  0
LINE
  5
574
330
6B
100
AcDbEntity
  8
0
 62
     3
100
AcDbLine
 10
-348.2679802760509
 20
-20.55691585281469
 30
0.0
 11
-370.9401942760509
 21
-20.55691585281469
 31
0.0
  0
LINE
  5
575
330
6B
100
AcDbEntity
  8
0
 62
     3
100
AcDbLine
 10
-347.7802532760509
 20
-5.467382852814688
 30
0.0
 11
-370.4524672760509
 21
-5.467382852814688
 31
0.0
  0
LINE
  5
576
330
6B
100
AcDbEntity
  8
0
  6
DASHED
100
AcDbLine
 10
-483.742479276051
 20
-18.26214885281469
 30
0.0
 11
-483.742479276051
 21
-7.762148852814688
 31
0.0
  0
LINE
  5
577
330
6B
100
AcDbEntity
  8
0
  6
DASHED
100
AcDbLine
 10
-481.4424792760508
 20
-18.26214885281469
 30
0.0
 11
-481.4424792760508
 21
-7.762148852814688
 31
0.0
  0
LINE
  5
578
330
6B
100
AcDbEntity
  8
0
  6
DASHED
100
AcDbLine
 10
-479.1424792760508
 20
-18.26214885281469
 30
0.0
 11
-479.1424792760508
 21
-7.762148852814688
 31
0.0
  0
LINE
  5
579
330
6B
100
AcDbEntity
  8
0
  6
DASHED
100
AcDbLine
 10
-476.8424792760509
 20
-18.26214885281469
 30
0.0
 11
-476.8424792760509
 21
-7.762148852814688
 31
0.0
  0
LINE
  5
57A
330
6B
100
AcDbEntity
  8
0
  6
DASHED
100
AcDbLine
 10
-474.5424792760508
 20
-18.26214885281469
 30
0.0
 11
-474.5424792760508
 21
-7.762148852814688
 31
0.0
  0
LINE
  5
57B
330
6B
100
AcDbEntity
  8
0
  6
DASHED
100
AcDbLine
 10
-486.0424792760508
 20
-18.26214885281469
 30
0.0
 11
-481.4424792760508
 21
-18.26214885281469
 31
0.0
  0
LINE
  5
57C
330
6B
100
AcDbEntity
  8
0
  6
DASHED
100
AcDbLine
 10
-479.1424792760508
 20
-18.26214885281469
 30
0.0
 11
-474.5424792760508
 21
-18.26214885281469
 31
0.0
  0
LINE
  5
57D
330
6B
100
AcDbEntity
  8
0
  6
DASHED
100
AcDbLine
 10
-479.1424792760508
 20
-7.762148852814688
 30
0.0
 11
-474.5424792760508
 21
-7.762148852814688
 31
0.0
  0
LINE
  5
57E
330
6B
100
AcDbEntity
  8
0
  6
DASHED
100
AcDbLine
 10
-486.0424792760508
 20
-7.762148852814688
 30
0.0
 11
-481.4424792760508
 21
-7.762148852814688
 31
0.0
  0
ARC
  5
581
330
6B
100
AcDbEntity
  8
0
 62
     3
100
AcDbCircle
 10
-324.307365276051
 20
-13.00973485281469
 30
0.0
 40
4.622358999999998
100
AcDbArc
 50
283.2125340000015
 51
76.78746599999853
  0
LINE
  5
582
330
6B
100
AcDbEntity
  8
0
 62
     3
100
AcDbLine
 10
-329.1600072760509
 20
-21.22511685281469
 30
0.0
 11
-329.1600072760509
 21
-4.719095852814688
 31
0.0
  0
LINE
  5
583
330
6B
100
AcDbEntity
  8
0
 62
     3
100
AcDbLine
 10
-304.782558276051
 20
-23.50973485281469
 30
0.0
 11
-304.782558276051
 21
-16.00973485281469
 31
0.0
  0
LINE
  5
584
330
6B
100
AcDbEntity
  8
0
 62
     3
100
AcDbLine
 10
-304.782558276051
 20
-10.00973485281469
 30
0.0
 11
-304.782558276051
 21
-2.509734852814688
 31
0.0
  0
LINE
  5
585
330
6B
100
AcDbEntity
  8
0
 62
     3
100
AcDbLine
 10
-314.556964276051
 20
-23.50973485281469
 30
0.0
 11
-314.556964276051
 21
-14.13473485281469
 31
0.0
  0
LINE
  5
586
330
6B
100
AcDbEntity
  8
0
 62
     3
100
AcDbLine
 10
-314.556964276051
 20
-2.509734852814688
 30
0.0
 11
-314.556964276051
 21
-11.88473485281469
 31
0.0
  0
LINE
  5
587
330
6B
100
AcDbEntity
  8
0
 62
     3
100
AcDbLine
 10
-310.782558276051
 20
-19.00973485281468
 30
0.0
 11
-329.1600072760509
 21
-19.00973485281468
 31
0.0
  0
LINE
  5
588
330
6B
100
AcDbEntity
  8
0
 62
     3
100
AcDbLine
 10
-310.782558276051
 20
-7.009734852814688
 30
0.0
 11
-329.1600072760509
 21
-7.009734852814688
 31
0.0
  0
LINE
  5
589
330
6B
100
AcDbEntity
  8
0
 62
     3
100
AcDbLine
 10
-329.1600072760509
 20
-20.55691585281469
 30
0.0
 11
-440.649245276051
 21
-20.55691585281469
 31
0.0
  0
LINE
  5
58A
330
6B
100
AcDbEntity
  8
0
 62
     3
100
AcDbLine
 10
-329.1600072760509
 20
-5.467382852814688
 30
0.0
 11
-440.1845842760509
 21
-5.467382852814688
 31
0.0
  0
CIRCLE
  5
58B
330
6B
100
AcDbEntity
  8
0
 62
     3
100
AcDbCircle
 10
-354.1600072760509
 20
-13.00973485281469
 30
0.0
 40
2.0
  0
CIRCLE
  5
58C
330
6B
100
AcDbEntity
  8
0
 62
     3
100
AcDbCircle
 10
-364.1600072760509
 20
-13.00973485281469
 30
0.0
 40
2.0
  0
CIRCLE
  5
58D
330
6B
100
AcDbEntity
  8
0
 62
     3
100
AcDbCircle
 10
-374.1600072760509
 20
-13.00973485281469
 30
0.0
 40
2.0
  0
LINE
  5
58E
330
6B
100
AcDbEntity
  8
0
  6
PHANTOM
100
AcDbLine
 10
-440.2924792760508
 20
-18.26214885281469
 30
0.0
 11
-441.7626472760509
 21
-18.26214885281469
 31
0.0
  0
TEXT
  5
58F
330
6B
100
AcDbEntity
  8
0
100
AcDbText
 10
-425.5838972760509
 20
-17.82162785281469
 30
0.0
 40
2.027519999999999
  1
JAPAN
 50
90.00000300000001
 41
0.800781
100
AcDbText
  0
TEXT
  5
590
330
6B
100
AcDbEntity
  8
0
100
AcDbText
 10
-422.1110032760509
 20
-17.87685585281469
 30
0.0
 40
2.433024
  1
MULTI
 50
90.00000300000001
 41
0.8579799999999998
100
AcDbText
  0
TEXT
  5
591
330
6B
100
AcDbEntity
  8
0
100
AcDbText
 10
-416.2493002760508
 20
-18.49431185281469
 30
0.0
 40
2.2176
  1
PAT.TED
 50
90.00000300000001
 41
0.7317610000000001
100
AcDbText
  0
TEXT
  5
592
330
6B
100
AcDbEntity
  8
0
100
AcDbText
 10
-419.4919312760508
 20
-17.21285985281468
 30
0.0
 40
2.433024
  1
HOOK
 50
90.00000300000001
 41
0.8262459999999999
100
AcDbText
  0
TEXT
  5
593
330
6B
100
AcDbEntity
  8
0
100
AcDbText
 10
-398.166019276051
 20
-15.48555985281469
 30
0.0
 40
2.5344
  1
EP
 50
90.00000300000001
100
AcDbText
  0
LINE
  5
594
330
6B
100
AcDbEntity
  8
0
100
AcDbLine
 10
-425.0517552760508
 20
-7.036374852814687
 30
0.0
 11
-425.0517552760508
 21
-19.00501185281469
 31
0.0
  0
LINE
  5
595
330
6B
100
AcDbEntity
  8
0
100
AcDbLine
 10
-419.0842522760508
 20
-7.036374852814687
 30
0.0
 11
-419.0842522760508
 21
-19.00501185281469
 31
0.0
  0
LINE
  5
596
330
6B
100
AcDbEntity
  8
0
 62
     3
100
AcDbLine
 10
-428.437321276051
 20
-8.026374852814686
 30
0.0
 11
-428.437321276051
 21
-18.01501185281469
 31
0.0
  0
ARC
  5
597
330
6B
100
AcDbEntity
  8
0
 62
     3
100
AcDbCircle
 10
-427.447321276051
 20
-8.026374852814686
 30
0.0
 40
0.99
100
AcDbArc
 50
90.0
 51
180.0
  0
LINE
  5
598
330
6B
100
AcDbEntity
  8
0
 62
     3
100
AcDbLine
 10
-381.8667682760509
 20
-6.786374852814687
 30
0.0
 11
-427.447321276051
 21
-6.786374852814687
 31
0.0
  0
ARC
  5
599
330
6B
100
AcDbEntity
  8
0
 62
     3
100
AcDbCircle
 10
-427.447321276051
 20
-18.01501185281469
 30
0.0
 40
0.99
100
AcDbArc
 50
180.0
 51
270.0
  0
LINE
  5
59A
330
6B
100
AcDbEntity
  8
0
 62
     3
100
AcDbLine
 10
-381.8667682760509
 20
-19.00501185281469
 30
0.0
 11
-427.447321276051
 21
-19.00501185281469
 31
0.0
  0
LINE
  5
59B
330
6B
100
AcDbEntity
  8
0
100
AcDbLine
 10
-384.4258452760509
 20
-7.036374852814687
 30
0.0
 11
-384.4258452760509
 21
-19.00501185281469
 31
0.0
  0
ARC
  5
59C
330
6B
100
AcDbEntity
  8
0
 62
     3
100
AcDbCircle
 10
-381.8667682760509
 20
-18.01501185281469
 30
0.0
 40
0.99
100
AcDbArc
 50
270.0
 51
0.0
  0
LINE
  5
59D
330
6B
100
AcDbEntity
  8
0
 62
     3
100
AcDbLine
 10
-380.8767682760509
 20
-18.01501185281469
 30
0.0
 11
-380.8767682760509
 21
-8.026374852814686
 31
0.0
  0
ARC
  5
59E
330
6B
100
AcDbEntity
  8
0
 62
     3
100
AcDbCircle
 10
-381.8667682760509
 20
-8.026374852814686
 30
0.0
 40
0.99
100
AcDbArc
 50
0.0
 51
90.0
  0
TEXT
  5
59F
330
6B
100
AcDbEntity
  8
0
100
AcDbText
 10
-410.2044192760509
 20
-15.48555985281469
 30
0.0
 40
2.5344
  1
TW
 50
90.00000300000001
 41
0.8571429999999999
100
AcDbText
  0
TEXT
  5
5A0
330
6B
100
AcDbEntity
  8
0
100
AcDbText
 10
-413.131191276051
 20
-15.70643485281468
 30
0.0
 40
2.5344
  1
JP
 50
90.00000300000001
100
AcDbText
  0
TEXT
  5
5A1
330
6B
100
AcDbEntity
  8
0
100
AcDbText
 10
-407.1948192760508
 20
-15.48555985281469
 30
0.0
 40
2.5344
  1
KR
 50
90.00000300000001
100
AcDbText
  0
TEXT
  5
5A2
330
6B
100
AcDbEntity
  8
0
100
AcDbText
 10
-404.1852192760508
 20
-15.48555985281469
 30
0.0
 40
2.5344
  1
CN
 50
90.00000300000001
100
AcDbText
  0
TEXT
  5
5A3
330
6B
100
AcDbEntity
  8
0
100
AcDbText
 10
-401.1756192760508
 20
-15.48555985281469
 30
0.0
 40
2.5344
  1
HK
 50
90.00000300000001
100
AcDbText
  0
TEXT
  5
5A4
330
6B
100
AcDbEntity
  8
0
100
AcDbText
 10
-395.156419276051
 20
-15.48555985281469
 30
0.0
 40
2.5344
  1
US
 50
90.00000300000001
100
AcDbText
  0
TEXT
  5
5A5
330
6B
100
AcDbEntity
  8
0
100
AcDbText
 10
-392.146819276051
 20
-15.48555985281469
 30
0.0
 40
2.5344
  1
CA
 50
90.00000300000001
100
AcDbText
  0
TEXT
  5
5A6
330
6B
100
AcDbEntity
  8
0
100
AcDbText
 10
-389.189780276051
 20
-15.48555985281469
 30
0.0
 40
2.5344
  1
AU
 50
90.00000300000001
100
AcDbText
  0
LINE
  5
5A7
330
6B
100
AcDbEntity
  8
0
  6
DASHED
100
AcDbLine
 10
-472.2424792760508
 20
-18.26214885281469
 30
0.0
 11
-472.2424792760508
 21
-7.762148852814688
 31
0.0
  0
LINE
  5
5A8
330
6B
100
AcDbEntity
  8
0
  6
DASHED
100
AcDbLine
 10
-469.9424792760508
 20
-18.26214885281469
 30
0.0
 11
-469.9424792760508
 21
-7.762148852814688
 31
0.0
  0
LINE
  5
5A9
330
6B
100
AcDbEntity
  8
0
  6
DASHED
100
AcDbLine
 10
-467.6424792760508
 20
-18.26214885281469
 30
0.0
 11
-467.6424792760508
 21
-7.762148852814688
 31
0.0
  0
LINE
  5
5AA
330
6B
100
AcDbEntity
  8
0
  6
DASHED
100
AcDbLine
 10
-472.2424792760508
 20
-18.26214885281469
 30
0.0
 11
-467.6424792760508
 21
-18.26214885281469
 31
0.0
  0
LINE
  5
5AB
330
6B
100
AcDbEntity
  8
0
  6
DASHED
100
AcDbLine
 10
-472.2424792760508
 20
-7.762148852814688
 30
0.0
 11
-467.6424792760508
 21
-7.762148852814688
 31
0.0
  0
LINE
  5
5AC
330
6B
100
AcDbEntity
  8
0
  6
DASHED
100
AcDbLine
 10
-465.3424792760509
 20
-18.26214885281469
 30
0.0
 11
-465.3424792760509
 21
-7.762148852814688
 31
0.0
  0
LINE
  5
5AD
330
6B
100
AcDbEntity
  8
0
  6
DASHED
100
AcDbLine
 10
-463.042479276051
 20
-18.26214885281469
 30
0.0
 11
-463.042479276051
 21
-7.762148852814688
 31
0.0
  0
LINE
  5
5AE
330
6B
100
AcDbEntity
  8
0
  6
DASHED
100
AcDbLine
 10
-460.7424792760508
 20
-18.26214885281469
 30
0.0
 11
-460.7424792760508
 21
-7.762148852814688
 31
0.0
  0
LINE
  5
5AF
330
6B
100
AcDbEntity
  8
0
  6
DASHED
100
AcDbLine
 10
-465.3424792760509
 20
-18.26214885281469
 30
0.0
 11
-460.7424792760508
 21
-18.26214885281469
 31
0.0
  0
LINE
  5
5B0
330
6B
100
AcDbEntity
  8
0
  6
DASHED
100
AcDbLine
 10
-465.3424792760509
 20
-7.762148852814688
 30
0.0
 11
-460.7424792760508
 21
-7.762148852814688
 31
0.0
  0
LINE
  5
5B1
330
6B
100
AcDbEntity
  8
0
  6
DASHED
100
AcDbLine
 10
-458.4424792760508
 20
-18.26214885281469
 30
0.0
 11
-458.4424792760508
 21
-7.762148852814688
 31
0.0
  0
LINE
  5
5B2
330
6B
100
AcDbEntity
  8
0
  6
DASHED
100
AcDbLine
 10
-456.1424792760509
 20
-18.26214885281469
 30
0.0
 11
-456.1424792760509
 21
-7.762148852814688
 31
0.0
  0
LINE
  5
5B3
330
6B
100
AcDbEntity
  8
0
  6
DASHED
100
AcDbLine
 10
-453.8424792760508
 20
-18.26214885281469
 30
0.0
 11
-453.8424792760508
 21
-7.762148852814688
 31
0.0
  0
LINE
  5
5B4
330
6B
100
AcDbEntity
  8
0
  6
DASHED
100
AcDbLine
 10
-458.4424792760508
 20
-18.26214885281469
 30
0.0
 11
-453.8424792760508
 21
-18.26214885281469
 31
0.0
  0
LINE
  5
5B5
330
6B
100
AcDbEntity
  8
0
  6
DASHED
100
AcDbLine
 10
-458.4424792760508
 20
-7.762148852814688
 30
0.0
 11
-453.8424792760508
 21
-7.762148852814688
 31
0.0
  0
LINE
  5
5B6
330
6B
100
AcDbEntity
  8
0
  6
DASHED
100
AcDbLine
 10
-451.5424792760509
 20
-18.26214885281469
 30
0.0
 11
-451.5424792760509
 21
-7.762148852814688
 31
0.0
  0
LINE
  5
5B7
330
6B
100
AcDbEntity
  8
0
  6
DASHED
100
AcDbLine
 10
-449.2424792760508
 20
-18.26214885281469
 30
0.0
 11
-449.2424792760508
 21
-7.762148852814688
 31
0.0
  0
LINE
  5
5B8
330
6B
100
AcDbEntity
  8
0
  6
DASHED
100
AcDbLine
 10
-446.9424792760508
 20
-18.26214885281469
 30
0.0
 11
-446.9424792760508
 21
-7.762148852814688
 31
0.0
  0
LINE
  5
5B9
330
6B
100
AcDbEntity
  8
0
  6
DASHED
100
AcDbLine
 10
-451.5424792760509
 20
-18.26214885281469
 30
0.0
 11
-446.9424792760508
 21
-18.26214885281469
 31
0.0
  0
LINE
  5
5BA
330
6B
100
AcDbEntity
  8
0
  6
DASHED
100
AcDbLine
 10
-451.5424792760509
 20
-7.762148852814688
 30
0.0
 11
-446.9424792760508
 21
-7.762148852814688
 31
0.0
  0
LINE
  5
5BB
330
6B
100
AcDbEntity
  8
0
100
AcDbLine
 10
-444.0424792760508
 20
-7.762148852814688
 30
0.0
 11
-441.2328352760509
 21
-7.762148852814688
 31
0.0
  0
LINE
  5
5BC
330
6B
100
AcDbEntity
  8
0
 62
     3
100
AcDbLine
 10
-541.5643242760507
 20
-10.04229685281469
 30
0.0
 11
-541.1205172760509
 21
-10.48189885281469
 31
0.0
  0
LINE
  5
5BD
330
6B
100
AcDbEntity
  8
0
 62
     3
100
AcDbLine
 10
-541.5643242760507
 20
-16.04229685281469
 30
0.0
 11
-541.0853222760509
 21
-15.51479785281468
 31
0.0
  0
LINE
  5
5BE
330
6B
100
AcDbEntity
  8
0
 62
     3
100
AcDbLine
 10
-530.6044962760507
 20
75.98019714718532
 30
0.0
 11
-461.9895442760508
 21
75.98019714718532
 31
0.0
  0
LINE
  5
5BF
330
6B
100
AcDbEntity
  8
0
 62
     3
100
AcDbLine
 10
-530.6044962760507
 20
74.4801971471853
 30
0.0
 11
-462.4459012760508
 21
74.4801971471853
 31
0.0
  0
LINE
  5
5C0
330
6B
100
AcDbEntity
  8
0
 62
     3
100
AcDbLine
 10
-329.778663276051
 20
75.97874414718531
 30
0.0
 11
-427.2084862760508
 21
75.97874414718531
 31
0.0
  0
LINE
  5
5C1
330
6B
100
AcDbEntity
  8
0
 62
     3
100
AcDbLine
 10
-304.630102276051
 20
74.45435414718531
 30
0.0
 11
-427.2084862760508
 21
74.45435414718531
 31
0.0
  0
TEXT
  5
5C2
330
6B
100
AcDbEntity
  8
0
100
AcDbText
 10
-381.8364242760509
 20
-16.41118585281469
 30
0.0
 40
2.027519999999999
  1
PA6
 50
90.00000300000001
 41
1.067708
100
AcDbText
  0
LINE
  5
5C3
330
6B
100
AcDbEntity
  8
0
 62
     3
100
AcDbLine
 10
-541.555429276051
 20
-7.542296852814687
 30
0.0
 11
-541.555429276051
 21
-18.54229685281469
 31
0.0
  0
LINE
  5
5C4
330
6B
100
AcDbEntity
  8
0
 62
     3
100
AcDbLine
 10
-550.1306802760508
 20
-18.13227585281469
 30
0.0
 11
-546.6306802760508
 21
-18.13227585281469
 31
0.0
  0
LINE
  5
5C5
330
6B
100
AcDbEntity
  8
0
 62
     3
100
AcDbLine
 10
-550.1306802760508
 20
-8.132275852814688
 30
0.0
 11
-546.6306802760508
 21
-8.132275852814688
 31
0.0
  0
LINE
  5
5C6
330
6B
100
AcDbEntity
  8
0
 62
     3
100
AcDbLine
 10
-550.6306802760508
 20
-8.632275852814688
 30
0.0
 11
-550.6306802760508
 21
-17.63227585281469
 31
0.0
  0
LINE
  5
5C7
330
6B
100
AcDbEntity
  8
0
 62
     3
100
AcDbLine
 10
-546.6306802760508
 20
-18.13227585281469
 30
0.0
 11
-546.6306802760508
 21
-8.132275852814688
 31
0.0
  0
ARC
  5
5C8
330
6B
100
AcDbEntity
  8
0
 62
     3
100
AcDbCircle
 10
-550.1306802760508
 20
-17.63227585281469
 30
0.0
 40
0.5
100
AcDbArc
 50
180.0
 51
270.0
  0
ARC
  5
5C9
330
6B
100
AcDbEntity
  8
0
 62
     3
100
AcDbCircle
 10
-550.1306802760508
 20
-8.632275852814688
 30
0.0
 40
0.5
100
AcDbArc
 50
90.0
 51
180.0
  0
LINE
  5
5CA
330
6B
100
AcDbEntity
  8
0
 62
     3
100
AcDbLine
 10
-541.6306802760508
 20
-10.13227585281469
 30
0.0
 11
-541.1868732760508
 21
-10.57187685281469
 31
0.0
  0
LINE
  5
5CB
330
6B
100
AcDbEntity
  8
0
 62
     3
100
AcDbLine
 10
-541.6306802760508
 20
-16.13227585281469
 30
0.0
 11
-541.1516782760509
 21
-15.60477685281469
 31
0.0
  0
LINE
  5
5CC
330
6B
100
AcDbEntity
  8
0
 62
     3
100
AcDbLine
 10
-541.6613732760509
 20
78.35431314718532
 30
0.0
 11
-541.1417152760508
 21
77.78867014718532
 31
0.0
  0
LINE
  5
5CD
330
6B
100
AcDbEntity
  8
0
 62
     3
100
AcDbLine
 10
-541.6613732760509
 20
72.35431314718532
 30
0.0
 11
-541.1417152760508
 21
72.86135614718531
 31
0.0
  0
LINE
  5
5CE
330
6B
100
AcDbEntity
  8
0
 62
     3
100
AcDbLine
 10
-541.1571682760508
 20
77.80549114718532
 30
0.0
 11
-541.1571682760508
 21
72.8590841471853
 31
0.0
  0
LINE
  5
5CF
330
6B
100
AcDbEntity
  8
0
 62
     3
100
AcDbLine
 10
-541.1108382760509
 20
-10.64719185281469
 30
0.0
 11
-541.1108382760509
 21
-15.64719185281469
 31
0.0
  0
LINE
  5
5D0
330
6B
100
AcDbEntity
  8
0
 62
     3
100
AcDbLine
 10
-541.6306802760508
 20
-10.13227585281469
 30
0.0
 11
-546.6306802760508
 21
-10.13227585281469
 31
0.0
  0
LINE
  5
5D1
330
6B
100
AcDbEntity
  8
0
 62
     3
100
AcDbLine
 10
-541.6306802760508
 20
-16.13227585281469
 30
0.0
 11
-546.6306802760508
 21
-16.13227585281469
 31
0.0
  0
LINE
  5
5D2
330
6B
100
AcDbEntity
  8
0
 62
     3
100
AcDbLine
 10
-541.6167352760509
 20
78.4543131471853
 30
0.0
 11
-546.6167352760509
 21
78.4543131471853
 31
0.0
  0
LINE
  5
5D3
330
6B
100
AcDbEntity
  8
0
 62
     3
100
AcDbLine
 10
-546.6167352760509
 20
70.31125814718532
 30
0.0
 11
-546.6167352760509
 21
80.5543131471853
 31
0.0
  0
LINE
  5
5D4
330
6B
100
AcDbEntity
  8
0
 62
     3
100
AcDbLine
 10
-555.5747082760508
 20
80.9497051471853
 30
0.0
 11
-554.5506702760508
 21
81.31307414718532
 31
0.0
  0
LINE
  5
5D5
330
6B
100
AcDbEntity
  8
0
 62
     3
100
AcDbLine
 10
-550.7889562760508
 20
70.31125814718532
 30
0.0
 11
-550.7889562760508
 21
80.71125814718532
 31
0.0
  0
LINE
  5
5D6
330
6B
100
AcDbEntity
  8
0
 62
     3
100
AcDbLine
 10
-546.5889562760509
 20
70.31125814718532
 30
0.0
 11
-550.7889562760508
 21
70.31125814718532
 31
0.0
  0
LINE
  5
5D7
330
6B
100
AcDbEntity
  8
0
 62
     3
100
AcDbLine
 10
-546.6167352760509
 20
80.71125814718532
 30
0.0
 11
-550.7889562760508
 21
80.71125814718532
 31
0.0
  0
LINE
  5
5D8
330
6B
100
AcDbEntity
  8
0
 62
     3
100
AcDbLine
 10
-541.5889562760509
 20
72.41125814718532
 30
0.0
 11
-546.5889562760509
 21
72.41125814718532
 31
0.0
  0
LINE
  5
5D9
330
6B
100
AcDbEntity
  8
0
 62
     3
100
AcDbLine
 10
-555.5747082760508
 20
70.07281014718532
 30
0.0
 11
-554.5506702760508
 21
69.70944114718531
 31
0.0
  0
LINE
  5
5DA
330
6B
100
AcDbEntity
  8
0
 62
     3
100
AcDbLine
 10
-568.290380276051
 20
80.88546314718533
 30
0.0
 11
-580.6219122760507
 21
61.89571314718532
 31
0.0
  0
LINE
  5
5DB
330
6B
100
AcDbEntity
  8
0
 62
     3
100
AcDbLine
 10
-561.3321522760509
 20
68.78649114718531
 30
0.0
 11
-571.078841276051
 21
54.57963314718532
 31
0.0
  0
LINE
  5
5DC
330
6B
100
AcDbEntity
  8
0
 62
     3
100
AcDbLine
 10
-566.5187722760508
 20
77.61053014718531
 30
0.0
 11
-578.303044276051
 21
59.96242214718531
 31
0.0
  0
LINE
  5
5DD
330
6B
100
AcDbEntity
  8
0
 62
     3
100
AcDbLine
 10
-563.639095276051
 20
71.11846214718531
 30
0.0
 11
-573.3132052760509
 21
56.63052914718531
 31
0.0
  0
ARC
  5
5DE
330
6B
100
AcDbEntity
  8
0
 62
     3
100
AcDbCircle
 10
-601.588956276051
 20
75.51125814718531
 30
0.0
 40
37.0
100
AcDbArc
 50
81.74438899999953
 51
325.5477250000008
  0
ARC
  5
5DF
330
6B
100
AcDbEntity
  8
0
 62
     3
100
AcDbCircle
 10
-601.588956276051
 20
75.51125814718531
 30
0.0
 40
34.0
100
AcDbArc
 50
84.44655600000073
 51
326.2675489999996
  0
ARC
  5
5E0
330
6B
100
AcDbEntity
  8
0
 62
     3
100
AcDbCircle
 10
-601.588956276051
 20
75.51125814718531
 30
0.0
 40
28.0
100
AcDbArc
 50
84.44655600000073
 51
326.2675489999996
  0
ARC
  5
5E1
330
6B
100
AcDbEntity
  8
0
 62
     3
100
AcDbCircle
 10
-601.588956276051
 20
75.51125814718531
 30
0.0
 40
25.0
100
AcDbArc
 50
180.0
 51
327.0011790000006
  0
ARC
  5
5E2
330
6B
100
AcDbEntity
  8
0
 62
     3
100
AcDbCircle
 10
-564.4890982760508
 20
75.35141914718531
 30
0.0
 40
1.5
100
AcDbArc
 50
326.193077
 51
146.1930789999993
  0
LINE
  5
5E3
330
6B
100
AcDbEntity
  8
0
 62
     3
100
AcDbLine
 10
-567.404662276051
 20
73.69326114718531
 30
0.0
 11
-565.7354742760509
 21
76.18601314718532
 31
0.0
  0
ARC
  5
5E4
330
6B
100
AcDbEntity
  8
0
 62
     3
100
AcDbCircle
 10
-566.1582862760508
 20
72.85866714718531
 30
0.0
 40
1.5
100
AcDbArc
 50
146.1930829999997
 51
326.1930789999993
  0
LINE
  5
5E5
330
6B
100
AcDbEntity
  8
0
 62
     3
100
AcDbLine
 10
-564.911910276051
 20
72.02407314718532
 30
0.0
 11
-563.2427222760509
 21
74.5168251471853
 31
0.0
  0
LINE
  5
5E6
330
6B
100
AcDbEntity
  8
0
 62
     3
100
AcDbLine
 10
-556.549752276051
 20
80.85814314718531
 30
0.0
 11
-565.3149972760509
 21
82.21622414718529
 31
0.0
  0
ARC
  5
5E7
330
6B
100
AcDbEntity
  8
0
 62
     3
100
AcDbCircle
 10
-565.7743342760509
 20
79.25159714718532
 30
0.0
 40
3.0
100
AcDbArc
 50
81.19266600000113
 51
147.0011790000006
  0
LINE
  5
5E8
330
6B
100
AcDbEntity
  8
0
 62
     3
100
AcDbLine
 10
-556.549752276051
 20
70.16437214718528
 30
0.0
 11
-559.9891822760509
 21
69.63146914718532
 31
0.0
  0
ARC
  5
5E9
330
6B
100
AcDbEntity
  8
0
 62
     3
100
AcDbCircle
 10
-559.6829572760508
 20
67.65505214718531
 30
0.0
 40
2.0
100
AcDbArc
 50
98.80733399999892
 51
145.5477250000008
  0
ARC
  5
5EA
330
6B
100
AcDbEntity
  8
0
 62
     3
100
AcDbCircle
 10
-564.0238532760507
 20
75.94458314718531
 30
0.0
 40
3.0
100
AcDbArc
 50
81.19266600000113
 51
146.2675489999996
  0
LINE
  5
5EB
330
6B
100
AcDbEntity
  8
0
 62
     3
100
AcDbLine
 10
-563.564516276051
 20
78.90921014718529
 30
0.0
 11
-554.5889562760509
 21
77.51854314718531
 31
0.0
  0
LINE
  5
5EC
330
6B
100
AcDbEntity
  8
0
 62
     3
100
AcDbLine
 10
-561.603513276051
 20
72.41714214718531
 30
0.0
 11
-554.5889562760509
 21
73.50397214718532
 31
0.0
  0
ARC
  5
5ED
330
6B
100
AcDbEntity
  8
0
 62
     3
100
AcDbCircle
 10
-561.1441762760509
 20
69.45251514718531
 30
0.0
 40
3.0
100
AcDbArc
 50
98.80733399999892
 51
146.2675489999996
  0
LINE
  5
5EE
330
6B
100
AcDbEntity
  8
0
 62
     3
100
AcDbLine
 10
-554.5889562760509
 20
82.01125814718531
 30
0.0
 11
-554.5889562760509
 21
69.01125814718532
 31
0.0
  0
ARC
  5
5EF
330
6B
100
AcDbEntity
  8
0
 62
     3
100
AcDbCircle
 10
-556.2435282760508
 20
68.18795414718533
 30
0.0
 40
2.0
100
AcDbArc
 50
70.46334499999969
 51
98.80733399999892
  0
ARC
  5
5F0
330
6B
100
AcDbEntity
  8
0
 62
     3
100
AcDbCircle
 10
-556.2435282760508
 20
82.8345611471853
 30
0.0
 40
2.0
100
AcDbArc
 50
261.1926660000011
 51
289.5366550000003
  0
ARC
  5
5F1
330
6B
100
AcDbEntity
  8
0
 62
     3
100
AcDbCircle
 10
-601.588956276051
 20
75.51125814718531
 30
0.0
 40
25.0
100
AcDbArc
 50
81.12277100000081
 51
180.0
  0
ARC
  5
5F2
330
6B
100
AcDbEntity
  8
0
 62
     3
100
AcDbCircle
 10
-597.1137422760508
 20
104.1638751471853
 30
0.0
 40
4.0
100
AcDbArc
 50
261.1227710000008
 51
314.1930789999991
  0
LINE
  5
5F3
330
6B
100
AcDbEntity
  8
0
 62
     3
100
AcDbLine
 10
-598.8792792760508
 20
103.3798361471853
 30
0.0
 11
-598.9109152760509
 21
100.3674061471853
 31
0.0
  0
LINE
  5
5F4
330
6B
100
AcDbEntity
  8
0
 62
     3
100
AcDbLine
 10
-601.588956276051
 20
103.5112581471853
 30
0.0
 11
-601.588956276051
 21
100.5112581471853
 31
0.0
  0
LINE
  5
5F5
330
6B
100
AcDbEntity
  8
0
 62
     3
100
AcDbLine
 10
-574.4561462760508
 20
71.39058814718531
 30
0.0
 11
-571.9167262760509
 21
69.5265621471853
 31
0.0
  0
LINE
  5
5F6
330
6B
100
AcDbEntity
  8
0
 62
     3
100
AcDbLine
 10
-580.6219122760507
 20
61.89571314718532
 30
0.0
 11
-578.303044276051
 21
59.96242214718531
 31
0.0
  0
LINE
  5
5F7
330
6B
100
AcDbEntity
  8
0
 62
     3
100
AcDbLine
 10
-543.5889562760507
 20
67.01125814718531
 30
0.0
 11
-552.5889562760509
 21
67.01125814718531
 31
0.0
  0
LINE
  5
5F8
330
6B
100
AcDbEntity
  8
0
 62
     3
100
AcDbLine
 10
-543.5889562760507
 20
84.01125814718531
 30
0.0
 11
-552.5889562760509
 21
84.01125814718531
 31
0.0
  0
ARC
  5
5F9
330
6B
100
AcDbEntity
  8
0
 62
     3
100
AcDbCircle
 10
-552.5889562760509
 20
69.01125814718532
 30
0.0
 40
2.0
100
AcDbArc
 50
180.0
 51
270.0
  0
ARC
  5
5FA
330
6B
100
AcDbEntity
  8
0
 62
     3
100
AcDbCircle
 10
-543.5889562760507
 20
69.01125814718532
 30
0.0
 40
2.0
100
AcDbArc
 50
270.0
 51
0.0
  0
ARC
  5
5FB
330
6B
100
AcDbEntity
  8
0
 62
     3
100
AcDbCircle
 10
-552.5889562760509
 20
82.01125814718531
 30
0.0
 40
2.0
100
AcDbArc
 50
90.0
 51
180.0
  0
ARC
  5
5FC
330
6B
100
AcDbEntity
  8
0
 62
     3
100
AcDbCircle
 10
-543.5889562760507
 20
82.01125814718531
 30
0.0
 40
2.0
100
AcDbArc
 50
0.0
 51
90.0
  0
LINE
  5
5FD
330
6B
100
AcDbEntity
  8
0
 62
     3
100
AcDbLine
 10
-541.5889562760509
 20
82.01125814718531
 30
0.0
 11
-541.5889562760509
 21
78.4543131471853
 31
0.0
  0
LINE
  5
5FE
330
6B
100
AcDbEntity
  8
0
 62
     3
100
AcDbLine
 10
-541.5889562760509
 20
72.41125814718532
 30
0.0
 11
-541.5889562760509
 21
69.01125814718532
 31
0.0
  0
LINE
  5
5FF
330
6B
100
AcDbEntity
  8
0
 62
     3
100
AcDbLine
 10
-638.594006276051
 20
-18.14719185281469
 30
0.0
 11
-638.594006276051
 21
-8.147191852814691
 31
0.0
  0
LINE
  5
600
330
6B
100
AcDbEntity
  8
0
 62
     3
100
AcDbLine
 10
-637.594006276051
 20
-19.14719185281469
 30
0.0
 11
-554.594006276051
 21
-19.14719185281469
 31
0.0
  0
LINE
  5
601
330
6B
100
AcDbEntity
  8
0
 62
     3
100
AcDbLine
 10
-637.594006276051
 20
-7.147191852814691
 30
0.0
 11
-554.594006276051
 21
-7.147191852814691
 31
0.0
  0
ARC
  5
602
330
6B
100
AcDbEntity
  8
0
 62
     3
100
AcDbCircle
 10
-637.594006276051
 20
-8.147191852814691
 30
0.0
 40
1.0
100
AcDbArc
 50
90.0
 51
180.0
  0
ARC
  5
603
330
6B
100
AcDbEntity
  8
0
 62
     3
100
AcDbCircle
 10
-637.594006276051
 20
-18.14719185281469
 30
0.0
 40
1.0
100
AcDbArc
 50
180.0
 51
270.0
  0
LINE
  5
604
330
6B
100
AcDbEntity
  8
0
 62
     3
100
AcDbLine
 10
-541.594006276051
 20
-19.72566385281469
 30
0.0
 11
-541.594006276051
 21
-16.16871985281469
 31
0.0
  0
ARC
  5
605
330
6B
100
AcDbEntity
  8
0
 62
     3
100
AcDbCircle
 10
-543.594006276051
 20
-19.72566385281469
 30
0.0
 40
2.0
100
AcDbArc
 50
270.0
 51
0.0
  0
LINE
  5
606
330
6B
100
AcDbEntity
  8
0
 62
     3
100
AcDbLine
 10
-543.594006276051
 20
-21.7256638528147
 30
0.0
 11
-552.5940062760509
 21
-21.7256638528147
 31
0.0
  0
ARC
  5
607
330
6B
100
AcDbEntity
  8
0
 62
     3
100
AcDbCircle
 10
-552.5940062760509
 20
-19.72566385281469
 30
0.0
 40
2.0
100
AcDbArc
 50
180.0
 51
270.0
  0
LINE
  5
608
330
6B
100
AcDbEntity
  8
0
 62
     3
100
AcDbLine
 10
-554.594006276051
 20
-19.72566385281469
 30
0.0
 11
-554.594006276051
 21
-6.725663852814689
 31
0.0
  0
ARC
  5
609
330
6B
100
AcDbEntity
  8
0
 62
     3
100
AcDbCircle
 10
-552.5940062760509
 20
-6.725663852814689
 30
0.0
 40
2.0
100
AcDbArc
 50
90.0
 51
180.0
  0
LINE
  5
60A
330
6B
100
AcDbEntity
  8
0
 62
     3
100
AcDbLine
 10
-543.594006276051
 20
-4.725663852814689
 30
0.0
 11
-552.5940062760509
 21
-4.725663852814689
 31
0.0
  0
ARC
  5
60B
330
6B
100
AcDbEntity
  8
0
 62
     3
100
AcDbCircle
 10
-543.594006276051
 20
-6.725663852814689
 30
0.0
 40
2.0
100
AcDbArc
 50
0.0
 51
90.0
  0
LINE
  5
60C
330
6B
100
AcDbEntity
  8
0
 62
     3
100
AcDbLine
 10
-541.594006276051
 20
-10.12566385281469
 30
0.0
 11
-541.594006276051
 21
-6.725663852814689
 31
0.0
  0
LINE
  5
60D
330
6B
100
AcDbEntity
  8
0
 62
     3
100
AcDbLine
 10
-521.3916982760508
 20
-5.452466852814691
 30
0.0
 11
-442.2196882760508
 21
-5.452466852814691
 31
0.0
  0
LINE
  5
60E
330
6B
100
AcDbEntity
  8
0
 62
     3
100
AcDbLine
 10
-521.3916982760508
 20
-20.54199885281469
 30
0.0
 11
-442.6938862760509
 21
-20.54199885281469
 31
0.0
  0
LINE
  5
60F
330
6B
100
AcDbEntity
  8
0
 62
     3
100
AcDbLine
 10
-594.3254282760508
 20
101.2958951471853
 30
0.0
 11
-586.6675602760508
 21
108.7410471471853
 31
0.0
  0
ARC
  5
610
330
6B
100
AcDbEntity
  8
0
 62
     3
100
AcDbCircle
 10
-598.588956276051
 20
106.3657551471853
 30
0.0
 40
3.0
100
AcDbArc
 50
275.5534489999988
 51
95.55344399999922
  0
LINE
  5
611
330
6B
100
AcDbEntity
  8
0
 62
     3
100
AcDbLine
 10
-593.797033276051
 20
110.5509221471853
 30
0.0
 11
-591.7320882760508
 21
112.5585081471853
 31
0.0
  0
LINE
  5
612
330
6B
100
AcDbEntity
  8
0
 62
     3
100
AcDbLine
 10
-591.7894472760508
 20
108.4859771471853
 30
0.0
 11
-589.7245022760508
 21
110.4935631471853
 31
0.0
  0
ARC
  5
613
330
6B
100
AcDbEntity
  8
0
 62
     3
100
AcDbCircle
 10
-592.7932402760508
 20
109.5184501471853
 30
0.0
 40
1.439999999999999
100
AcDbArc
 50
134.1930829999994
 51
314.1930789999991
  0
ARC
  5
614
330
6B
100
AcDbEntity
  8
0
 62
     3
100
AcDbCircle
 10
-590.7282952760509
 20
111.5260361471853
 30
0.0
 40
1.439999999999999
100
AcDbArc
 50
314.193077
 51
134.193078999999
  0
ARC
  5
615
330
6B
100
AcDbEntity
  8
0
 62
     3
100
AcDbCircle
 10
-589.8044132760509
 20
111.9675241471853
 30
0.0
 40
4.5
100
AcDbArc
 50
314.1930789999991
 51
33.39770900000038
  0
LINE
  5
616
330
6B
100
AcDbEntity
  8
0
  6
HIDDEN
 62
    15
100
AcDbLine
 10
-592.6675602760508
 20
109.1410471471853
 30
0.0
 11
-592.5270692760508
 21
109.2776351471853
 31
0.0
  0
LINE
  5
617
330
6B
100
AcDbEntity
  8
0
 62
     3
100
AcDbLine
 10
-595.923434276051
 20
112.2538531471853
 30
0.0
 11
-592.0775072760508
 21
116.4622681471852
 31
0.0
  0
ARC
  5
618
330
6B
100
AcDbEntity
  8
0
 62
     3
100
AcDbCircle
 10
-596.2187082760508
 20
112.5236941471853
 30
0.0
 40
0.4
100
AcDbArc
 50
261.7443889999995
 51
317.5768629999997
  0
LINE
  5
619
330
6B
100
AcDbEntity
  8
0
 62
     3
100
AcDbLine
 10
-586.047499276051
 20
114.4445371471853
 30
0.0
 11
-590.8328722760509
 21
119.7403841471853
 31
0.0
  0
LINE
  5
61A
330
6B
100
AcDbEntity
  8
0
 62
     3
100
AcDbLine
 10
-593.3493362760508
 20
118.0090871471852
 30
0.0
 11
-592.0775072760508
 21
116.4622681471852
 31
0.0
  0
ARC
  5
61B
330
6B
100
AcDbEntity
  8
0
 62
     3
100
AcDbCircle
 10
-591.9760052760508
 20
118.7074381471853
 30
0.0
 40
1.540691999999999
100
AcDbArc
 50
42.10123900000016
 51
231.9018560000003
  0
LINE
  5
61D
330
6B
100
AcDbEntity
  8
0
100
AcDbLine
 10
-363.4186472760509
 20
-15.40645785281468
 30
0.0
 11
-353.732112276051
 21
-32.15582385281469
 31
0.0
  0
LINE
  5
61E
330
6B
100
AcDbEntity
  8
0
100
AcDbLine
 10
-353.732112276051
 20
-32.15582385281469
 30
0.0
 11
-329.669612276051
 21
-32.15582385281469
 31
0.0
  0
TEXT
  5
61F
330
6B
100
AcDbEntity
  8
0
 62
     4
100
AcDbText
 10
-350.2946122760509
 20
-30.90582285281469
 30
0.0
 40
4.0
  1
3-%%C4穴
 41
0.716146
100
AcDbText
  0
TEXT
  5
620
330
6B
100
AcDbEntity
  8
0
 62
     3
100
AcDbText
 10
-349.8427302760509
 20
-15.33056685281469
 30
0.0
 40
4.5
  1
BH-400
 41
0.7306600000000003
100
AcDbText
  0
LINE
  5
622
330
6B
100
AcDbEntity
  8
0
100
AcDbLine
 10
-504.4506542760508
 20
75.98019714718532
 30
0.0
 11
-504.0468932760508
 21
96.32297814718532
 31
0.0
  0
CIRCLE
  5
623
330
6B
100
AcDbEntity
  8
0
100
AcDbCircle
 10
-503.9476732760508
 20
101.3219941471853
 30
0.0
 40
5.0
  0
TEXT
  5
624
330
6B
100
AcDbEntity
  8
0
 62
     4
100
AcDbText
 10
-504.9327148393788
 20
98.34586107642271
 30
0.0
 40
6.299999999999998
  1
1
  7
高6.3
100
AcDbText
  0
LINE
  5
626
330
6B
100
AcDbEntity
  8
0
100
AcDbLine
 10
-564.0234872760506
 20
82.0161181471853
 30
0.0
 11
-559.9934862760508
 21
97.3629211471853
 31
0.0
  0
CIRCLE
  5
627
330
6B
100
AcDbEntity
  8
0
100
AcDbCircle
 10
-558.723564276051
 20
102.1989631471853
 30
0.0
 40
5.0
  0
TEXT
  5
628
330
6B
100
AcDbEntity
  8
0
 62
     4
100
AcDbText
 10
-560.7820441286744
 20
99.03184270822693
 30
0.0
 40
6.299999999999998
  1
2
  7
高6.3
100
AcDbText
  0
LINE
  5
629
330
6B
100
AcDbEntity
  8
0
 62
     2
100
AcDbLine
 10
-500.8729342760509
 20
-11.61422285281469
 30
0.0
 11
-501.052389276051
 21
-11.61422285281469
 31
0.0
  0
ARC
  5
62A
330
6B
100
AcDbEntity
  8
0
 62
     2
100
AcDbCircle
 10
-500.8729342760509
 20
-11.84930885281469
 30
0.0
 40
0.235086
100
AcDbArc
 50
0.0
 51
90.0
  0
LINE
  5
62B
330
6B
100
AcDbEntity
  8
0
 62
     2
100
AcDbLine
 10
-500.6378472760508
 20
-11.84930885281469
 30
0.0
 11
-500.6378472760508
 21
-14.33655885281469
 31
0.0
  0
LINE
  5
62C
330
6B
100
AcDbEntity
  8
0
 62
     2
100
AcDbLine
 10
-498.897132276051
 20
-15.06873585281469
 30
0.0
 11
-501.052389276051
 21
-15.06873585281469
 31
0.0
  0
LINE
  5
62D
330
6B
100
AcDbEntity
  8
0
 62
     2
100
AcDbLine
 10
-498.897132276051
 20
-14.57164485281469
 30
0.0
 11
-498.897132276051
 21
-15.06873585281469
 31
0.0
  0
LINE
  5
62E
330
6B
100
AcDbEntity
  8
0
 62
     2
100
AcDbLine
 10
-499.0765872760508
 20
-14.57164485281469
 30
0.0
 11
-498.897132276051
 21
-14.57164485281469
 31
0.0
  0
ARC
  5
62F
330
6B
100
AcDbEntity
  8
0
 62
     2
100
AcDbCircle
 10
-499.0765872760508
 20
-14.33655885281469
 30
0.0
 40
0.235086
100
AcDbArc
 50
180.0
 51
270.0
  0
LINE
  5
630
330
6B
100
AcDbEntity
  8
0
 62
     2
100
AcDbLine
 10
-501.4889712760508
 20
-11.11722585281469
 30
0.0
 11
-503.5060472760508
 21
-11.11722585281469
 31
0.0
  0
LINE
  5
631
330
6B
100
AcDbEntity
  8
0
 62
     2
100
AcDbLine
 10
-501.4889712760508
 20
-11.11722585281469
 30
0.0
 11
-501.4889712760508
 21
-11.61760485281469
 31
0.0
  0
LINE
  5
632
330
6B
100
AcDbEntity
  8
0
 62
     2
100
AcDbLine
 10
-501.6385172760508
 20
-11.61760485281469
 30
0.0
 11
-501.4889712760508
 21
-11.61760485281469
 31
0.0
  0
ARC
  5
633
330
6B
100
AcDbEntity
  8
0
 62
     2
100
AcDbCircle
 10
-501.5993362760508
 20
-11.84940285281469
 30
0.0
 40
0.235086
100
AcDbArc
 50
99.59406799999896
 51
180.0
  0
LINE
  5
634
330
6B
100
AcDbEntity
  8
0
 62
     2
100
AcDbLine
 10
-501.834422276051
 20
-11.84940285281469
 30
0.0
 11
-501.834422276051
 21
-14.33665285281469
 31
0.0
  0
ARC
  5
635
330
6B
100
AcDbEntity
  8
0
 62
     2
100
AcDbCircle
 10
-501.5993362760508
 20
-14.33665285281469
 30
0.0
 40
0.235086
100
AcDbArc
 50
180.0
 51
260.405932000001
  0
LINE
  5
636
330
6B
100
AcDbEntity
  8
0
 62
     2
100
AcDbLine
 10
-501.6385172760508
 20
-14.56845085281469
 30
0.0
 11
-501.4889712760508
 21
-14.56845085281469
 31
0.0
  0
LINE
  5
637
330
6B
100
AcDbEntity
  8
0
 62
     2
100
AcDbLine
 10
-501.4889712760508
 20
-14.56845085281469
 30
0.0
 11
-501.4889712760508
 21
-15.06882985281469
 31
0.0
  0
LINE
  5
638
330
6B
100
AcDbEntity
  8
0
 62
     2
100
AcDbLine
 10
-501.4889712760508
 20
-15.06882985281469
 30
0.0
 11
-503.5060472760508
 21
-15.06882985281469
 31
0.0
  0
ARC
  5
639
330
6B
100
AcDbEntity
  8
0
 62
     2
100
AcDbCircle
 10
-499.0765872760508
 20
-11.84930885281469
 30
0.0
 40
0.235086
100
AcDbArc
 50
90.0
 51
180.0
  0
LINE
  5
63A
330
6B
100
AcDbEntity
  8
0
 62
     2
100
AcDbLine
 10
-499.3116732760508
 20
-11.84930885281469
 30
0.0
 11
-499.3116732760508
 21
-14.33655885281469
 31
0.0
  0
LINE
  5
63B
330
6B
100
AcDbEntity
  8
0
 62
     2
100
AcDbLine
 10
-498.897132276051
 20
-11.11713185281469
 30
0.0
 11
-498.897132276051
 21
-11.61422285281469
 31
0.0
  0
LINE
  5
63C
330
6B
100
AcDbEntity
  8
0
 62
     2
100
AcDbLine
 10
-499.0765872760508
 20
-11.61422285281469
 30
0.0
 11
-498.897132276051
 21
-11.61422285281469
 31
0.0
  0
LINE
  5
63D
330
6B
100
AcDbEntity
  8
0
 62
     2
100
AcDbLine
 10
-498.897132276051
 20
-11.11713185281469
 30
0.0
 11
-501.052389276051
 21
-11.11713185281469
 31
0.0
  0
LINE
  5
63E
330
6B
100
AcDbEntity
  8
0
 62
     2
100
AcDbLine
 10
-501.052389276051
 20
-11.11713185281469
 30
0.0
 11
-501.052389276051
 21
-11.61422285281469
 31
0.0
  0
LINE
  5
63F
330
6B
100
AcDbEntity
  8
0
 62
     2
100
AcDbLine
 10
-498.4934662760508
 20
-14.57164485281469
 30
0.0
 11
-498.4934662760508
 21
-15.06873585281469
 31
0.0
  0
ARC
  5
640
330
6B
100
AcDbEntity
  8
0
 62
     2
100
AcDbCircle
 10
-498.3140112760508
 20
-14.33655885281469
 30
0.0
 40
0.235086
100
AcDbArc
 50
270.0
 51
0.0
  0
LINE
  5
641
330
6B
100
AcDbEntity
  8
0
 62
     2
100
AcDbLine
 10
-498.3140112760508
 20
-14.57164485281469
 30
0.0
 11
-498.4934662760508
 21
-14.57164485281469
 31
0.0
  0
LINE
  5
642
330
6B
100
AcDbEntity
  8
0
 62
     2
100
AcDbLine
 10
-496.1662182760508
 20
-15.06873585281469
 30
0.0
 11
-498.4934662760508
 21
-15.06873585281469
 31
0.0
  0
LINE
  5
643
330
6B
100
AcDbEntity
  8
0
 62
     2
100
AcDbLine
 10
-498.0789242760509
 20
-11.84930885281469
 30
0.0
 11
-498.0789242760509
 21
-14.33655885281469
 31
0.0
  0
LINE
  5
644
330
6B
100
AcDbEntity
  8
0
 62
     2
100
AcDbLine
 10
-496.752750276051
 20
-11.75240385281469
 30
0.0
 11
-496.752750276051
 21
-14.43346485281469
 31
0.0
  0
LINE
  5
645
330
6B
100
AcDbEntity
  8
0
 62
     2
100
AcDbLine
 10
-496.752750276051
 20
-14.43346485281469
 30
0.0
 11
-496.5719502760508
 21
-14.43346485281469
 31
0.0
  0
ARC
  5
646
330
6B
100
AcDbEntity
  8
0
 62
     2
100
AcDbCircle
 10
-497.496443276051
 20
-13.09293385281469
 30
0.0
 40
1.628406999999999
100
AcDbArc
 50
304.5919550000006
 51
55.40804499999937
  0
ARC
  5
647
330
6B
100
AcDbEntity
  8
0
 62
     2
100
AcDbCircle
 10
-496.1662182760508
 20
-13.50747585281469
 30
0.0
 40
1.56126
100
AcDbArc
 50
270.0
 51
342.6912509999998
  0
ARC
  5
648
330
6B
100
AcDbEntity
  8
0
 62
     2
100
AcDbCircle
 10
-496.1662182760508
 20
-12.67839285281469
 30
0.0
 40
1.56126
100
AcDbArc
 50
17.30874900000007
 51
90.0
  0
LINE
  5
649
330
6B
100
AcDbEntity
  8
0
 62
     2
100
AcDbLine
 10
-496.1662182760508
 20
-11.11713185281469
 30
0.0
 11
-498.4934662760508
 21
-11.11713185281469
 31
0.0
  0
LINE
  5
64A
330
6B
100
AcDbEntity
  8
0
 62
     2
100
AcDbLine
 10
-498.4934662760508
 20
-11.11713185281469
 30
0.0
 11
-498.4934662760508
 21
-11.61422285281469
 31
0.0
  0
LINE
  5
64B
330
6B
100
AcDbEntity
  8
0
 62
     2
100
AcDbLine
 10
-498.3140112760508
 20
-11.61422285281469
 30
0.0
 11
-498.4934662760508
 21
-11.61422285281469
 31
0.0
  0
ARC
  5
64C
330
6B
100
AcDbEntity
  8
0
 62
     2
100
AcDbCircle
 10
-498.3140112760508
 20
-11.84930885281469
 30
0.0
 40
0.235086
100
AcDbArc
 50
0.0
 51
90.0
  0
ARC
  5
64D
330
6B
100
AcDbEntity
  8
0
 62
     2
100
AcDbCircle
 10
-500.8729342760509
 20
-14.33655885281469
 30
0.0
 40
0.235086
100
AcDbArc
 50
270.0
 51
0.0
  0
LINE
  5
64E
330
6B
100
AcDbEntity
  8
0
 62
     2
100
AcDbLine
 10
-500.8729342760509
 20
-14.57164485281469
 30
0.0
 11
-501.052389276051
 21
-14.57164485281469
 31
0.0
  0
LINE
  5
64F
330
6B
100
AcDbEntity
  8
0
 62
     2
100
AcDbLine
 10
-501.052389276051
 20
-14.57164485281469
 30
0.0
 11
-501.052389276051
 21
-15.06873585281469
 31
0.0
  0
LINE
  5
650
330
6B
100
AcDbEntity
  8
0
 62
     2
100
AcDbLine
 10
-496.752750276051
 20
-11.75240385281469
 30
0.0
 11
-496.5719502760508
 21
-11.75240385281469
 31
0.0
  0
ARC
  5
651
330
6B
100
AcDbEntity
  8
0
 62
     2
100
AcDbCircle
 10
-497.496443276051
 20
-13.09293385281469
 30
0.0
 40
2.954581
100
AcDbArc
 50
342.6912509999998
 51
17.30856599999997
  0
ARC
  5
652
330
6B
100
AcDbEntity
  8
0
 62
     2
100
AcDbCircle
 10
-497.0520402760508
 20
-12.84152185281469
 30
0.0
 40
2.802941
100
AcDbArc
 50
333.6752840000004
 51
19.69063499999966
  0
ARC
  5
653
330
6B
100
AcDbEntity
  8
0
 62
     2
100
AcDbCircle
 10
-490.657355276051
 20
-13.12343285281469
 30
0.0
 40
2.621769
100
AcDbArc
 50
149.3344129999993
 51
209.361467
  0
ARC
  5
654
330
6B
100
AcDbEntity
  8
0
 62
     2
100
AcDbCircle
 10
-492.8348862760508
 20
-13.08593985281469
 30
0.0
 40
1.975802
100
AcDbArc
 50
210.35784
 51
143.0080790000007
  0
ARC
  5
655
330
6B
100
AcDbEntity
  8
0
 62
     2
100
AcDbCircle
 10
-495.0124172760508
 20
-13.12343485281469
 30
0.0
 40
2.621769
100
AcDbArc
 50
330.3722729999993
 51
30.84052499999998
  0
ARC
  5
656
330
6B
100
AcDbEntity
  8
0
 62
     2
100
AcDbCircle
 10
-492.8336102760509
 20
-11.85583185281469
 30
0.0
 40
0.105179
100
AcDbArc
 50
46.62177100000085
 51
138.5892689999997
  0
ARC
  5
657
330
6B
100
AcDbEntity
  8
0
 62
     2
100
AcDbCircle
 10
-492.8336102760509
 20
-14.33003585281469
 30
0.0
 40
0.13434
100
AcDbArc
 50
215.9651230000005
 51
318.2218159999998
  0
LINE
  5
658
330
6B
100
AcDbEntity
  8
0
 62
     2
100
AcDbLine
 10
-509.8018902760508
 20
-11.84932085281469
 30
0.0
 11
-509.8019342760508
 21
-14.33656985281469
 31
0.0
  0
LINE
  5
659
330
6B
100
AcDbEntity
  8
0
 62
     2
100
AcDbLine
 10
-509.5668522760509
 20
-14.57166085281469
 30
0.0
 11
-509.3873962760508
 21
-14.57166385281469
 31
0.0
  0
ARC
  5
65A
330
6B
100
AcDbEntity
  8
0
 62
     2
100
AcDbCircle
 10
-509.5668482760508
 20
-14.33657385281469
 30
0.0
 40
0.235086
100
AcDbArc
 50
179.999
 51
269.9990000000003
  0
LINE
  5
65B
330
6B
100
AcDbEntity
  8
0
 62
     2
100
AcDbLine
 10
-509.3873962760508
 20
-14.57166385281469
 30
0.0
 11
-509.387405276051
 21
-15.06875485281469
 31
0.0
  0
LINE
  5
65C
330
6B
100
AcDbEntity
  8
0
 62
     2
100
AcDbLine
 10
-511.542662276051
 20
-15.06871685281469
 30
0.0
 11
-509.387405276051
 21
-15.06875485281469
 31
0.0
  0
LINE
  5
65D
330
6B
100
AcDbEntity
  8
0
 62
     2
100
AcDbLine
 10
-514.6999692760508
 20
-12.75139385281469
 30
0.0
 11
-514.6999692760508
 21
-14.33655885281469
 31
0.0
  0
ARC
  5
65E
330
6B
100
AcDbEntity
  8
0
 62
     2
100
AcDbCircle
 10
-514.4648832760508
 20
-14.33655885281469
 30
0.0
 40
0.235086
100
AcDbArc
 50
180.0
 51
270.0
  0
LINE
  5
65F
330
6B
100
AcDbEntity
  8
0
 62
     2
100
AcDbLine
 10
-515.7497822760508
 20
-15.06873585281469
 30
0.0
 11
-514.2854272760509
 21
-15.06873585281469
 31
0.0
  0
ARC
  5
660
330
6B
100
AcDbEntity
  8
0
 62
     2
100
AcDbCircle
 10
-507.435538276051
 20
-13.09293385281469
 30
0.0
 40
1.975802
100
AcDbArc
 50
46.75287999999889
 51
312.8231200000005
  0
ARC
  5
661
330
6B
100
AcDbEntity
  8
0
 62
     2
100
AcDbCircle
 10
-520.0098782760509
 20
-13.04640785281469
 30
0.0
 40
13.997507
100
AcDbArc
 50
353.866006
 51
357.694034
  0
LINE
  5
662
330
6B
100
AcDbEntity
  8
0
 62
     2
100
AcDbLine
 10
-506.9608382760509
 20
-13.60614085281469
 30
0.0
 11
-506.0237072760508
 21
-13.60960885281469
 31
0.0
  0
LINE
  5
664
330
6B
100
AcDbEntity
  8
0
 62
     2
100
AcDbLine
 10
-506.9570532760509
 20
-12.58325385281469
 30
0.0
 11
-506.0199222760508
 21
-12.58672085281469
 31
0.0
  0
ARC
  5
665
330
6B
100
AcDbEntity
  8
0
 62
     2
100
AcDbCircle
 10
-520.0098782760509
 20
-13.04640785281469
 30
0.0
 40
13.997507
100
AcDbArc
 50
1.88196600000005
 51
5.709993999999976
  0
ARC
  5
666
330
6B
100
AcDbEntity
  8
0
 62
     2
100
AcDbCircle
 10
-509.5668042760508
 20
-11.84932485281469
 30
0.0
 40
0.235086
100
AcDbArc
 50
89.99902800000048
 51
179.999
  0
LINE
  5
667
330
6B
100
AcDbEntity
  8
0
 62
     2
100
AcDbLine
 10
-509.3873362760509
 20
-11.11715085281469
 30
0.0
 11
-509.3873452760509
 21
-11.61424185281469
 31
0.0
  0
LINE
  5
668
330
6B
100
AcDbEntity
  8
0
 62
     2
100
AcDbLine
 10
-511.5425932760508
 20
-11.11711285281469
 30
0.0
 11
-509.3873362760509
 21
-11.11715085281469
 31
0.0
  0
LINE
  5
669
330
6B
100
AcDbEntity
  8
0
 62
     2
100
AcDbLine
 10
-509.5668002760509
 20
-11.61423885281469
 30
0.0
 11
-509.3873452760509
 21
-11.61424185281469
 31
0.0
  0
ARC
  5
66A
330
6B
100
AcDbEntity
  8
0
 62
     2
100
AcDbCircle
 10
-511.3631682760509
 20
-11.84930585281469
 30
0.0
 40
0.235086
100
AcDbArc
 50
359.999803
 51
89.99977399999876
  0
LINE
  5
66B
330
6B
100
AcDbEntity
  8
0
 62
     2
100
AcDbLine
 10
-511.128082276051
 20
-11.84930685281469
 30
0.0
 11
-511.1280912760508
 21
-14.33655585281468
 31
0.0
  0
ARC
  5
66C
330
6B
100
AcDbEntity
  8
0
 62
     2
100
AcDbCircle
 10
-511.3631942760508
 20
-14.33654285281469
 30
0.0
 40
0.235086
100
AcDbArc
 50
269.9990000000003
 51
359.999
  0
LINE
  5
66D
330
6B
100
AcDbEntity
  8
0
 62
     2
100
AcDbLine
 10
-511.5426542760508
 20
-14.57162585281469
 30
0.0
 11
-511.542662276051
 21
-15.06871685281469
 31
0.0
  0
LINE
  5
66E
330
6B
100
AcDbEntity
  8
0
 62
     2
100
AcDbLine
 10
-511.363198276051
 20
-14.57162885281469
 30
0.0
 11
-511.5426542760508
 21
-14.57162585281469
 31
0.0
  0
LINE
  5
66F
330
6B
100
AcDbEntity
  8
0
 62
     2
100
AcDbLine
 10
-511.5425932760508
 20
-11.11711285281469
 30
0.0
 11
-511.5426022760509
 21
-11.61420385281469
 31
0.0
  0
LINE
  5
670
330
6B
100
AcDbEntity
  8
0
 62
     2
100
AcDbLine
 10
-511.3631472760508
 20
-11.61420685281469
 30
0.0
 11
-511.5426022760509
 21
-11.61420385281469
 31
0.0
  0
LINE
  5
671
330
6B
100
AcDbEntity
  8
0
 62
     2
100
AcDbLine
 10
-514.2854272760509
 20
-14.57164485281469
 30
0.0
 11
-514.2854272760509
 21
-15.06873585281469
 31
0.0
  0
LINE
  5
672
330
6B
100
AcDbEntity
  8
0
 62
     2
100
AcDbLine
 10
-514.4648832760508
 20
-14.57164485281469
 30
0.0
 11
-514.2854272760509
 21
-14.57164485281469
 31
0.0
  0
LINE
  5
673
330
6B
100
AcDbEntity
  8
0
 62
     2
100
AcDbLine
 10
-514.6999692760508
 20
-12.75139385281469
 30
0.0
 11
-513.2516302760508
 21
-15.06873585281469
 31
0.0
  0
LINE
  5
674
330
6B
100
AcDbEntity
  8
0
 62
     2
100
AcDbLine
 10
-513.2516302760508
 20
-15.06873585281469
 30
0.0
 11
-512.2818102760509
 21
-15.06873585281469
 31
0.0
  0
LINE
  5
675
330
6B
100
AcDbEntity
  8
0
 62
     2
100
AcDbLine
 10
-512.2818102760509
 20
-11.98748985281469
 30
0.0
 11
-512.2818102760509
 21
-15.06873585281469
 31
0.0
  0
ARC
  5
676
330
6B
100
AcDbEntity
  8
0
 62
     2
100
AcDbCircle
 10
-511.908543276051
 20
-11.98748985281469
 30
0.0
 40
0.373267
100
AcDbArc
 50
83.65142599999908
 51
180.0
  0
LINE
  5
677
330
6B
100
AcDbEntity
  8
0
 62
     2
100
AcDbLine
 10
-511.8672682760508
 20
-11.11713185281469
 30
0.0
 11
-511.8672682760508
 21
-11.61651185281469
 31
0.0
  0
LINE
  5
678
330
6B
100
AcDbEntity
  8
0
 62
     2
100
AcDbLine
 10
-513.331623276051
 20
-11.11713185281469
 30
0.0
 11
-511.8672682760508
 21
-11.11713185281469
 31
0.0
  0
LINE
  5
679
330
6B
100
AcDbEntity
  8
0
 62
     2
100
AcDbLine
 10
-513.331623276051
 20
-11.11713185281469
 30
0.0
 11
-513.331623276051
 21
-11.61422285281469
 31
0.0
  0
LINE
  5
67A
330
6B
100
AcDbEntity
  8
0
 62
     2
100
AcDbLine
 10
-513.331623276051
 20
-11.61422285281469
 30
0.0
 11
-513.1521682760509
 21
-11.61422285281469
 31
0.0
  0
ARC
  5
67B
330
6B
100
AcDbEntity
  8
0
 62
     2
100
AcDbCircle
 10
-513.1521682760509
 20
-11.84930885281469
 30
0.0
 40
0.235086
100
AcDbArc
 50
0.0
 51
90.0
  0
LINE
  5
67C
330
6B
100
AcDbEntity
  8
0
 62
     2
100
AcDbLine
 10
-512.9170812760508
 20
-12.90693885281469
 30
0.0
 11
-512.9170812760508
 21
-11.84930885281469
 31
0.0
  0
LINE
  5
67D
330
6B
100
AcDbEntity
  8
0
 62
     2
100
AcDbLine
 10
-512.9170812760508
 20
-12.90693885281469
 30
0.0
 11
-514.0916422760508
 21
-11.11713185281469
 31
0.0
  0
LINE
  5
67E
330
6B
100
AcDbEntity
  8
0
 62
     2
100
AcDbLine
 10
-515.7497822760508
 20
-11.11713185281469
 30
0.0
 11
-514.0916422760508
 21
-11.11713185281469
 31
0.0
  0
LINE
  5
67F
330
6B
100
AcDbEntity
  8
0
 62
     2
100
AcDbLine
 10
-505.3714842760508
 20
-14.33665285281469
 30
0.0
 11
-505.3714842760508
 21
-11.84940285281469
 31
0.0
  0
LINE
  5
680
330
6B
100
AcDbEntity
  8
0
 62
     2
100
AcDbLine
 10
-505.7169362760508
 20
-11.11722585281469
 30
0.0
 11
-503.6998592760508
 21
-11.11722585281469
 31
0.0
  0
ARC
  5
681
330
6B
100
AcDbEntity
  8
0
 62
     2
100
AcDbCircle
 10
-505.5374802760509
 20
-11.84940285281469
 30
0.0
 40
0.165996
100
AcDbArc
 50
0.0
 51
90.0
  0
LINE
  5
682
330
6B
100
AcDbEntity
  8
0
 62
     2
100
AcDbLine
 10
-505.5374802760509
 20
-11.68340685281469
 30
0.0
 11
-505.7169362760508
 21
-11.68340685281469
 31
0.0
  0
LINE
  5
683
330
6B
100
AcDbEntity
  8
0
 62
     2
100
AcDbLine
 10
-505.7169362760508
 20
-11.68340685281469
 30
0.0
 11
-505.7169362760508
 21
-11.11722585281469
 31
0.0
  0
ARC
  5
684
330
6B
100
AcDbEntity
  8
0
 62
     2
100
AcDbCircle
 10
-505.5374802760509
 20
-14.33665285281469
 30
0.0
 40
0.165996
100
AcDbArc
 50
270.0
 51
0.0
  0
LINE
  5
685
330
6B
100
AcDbEntity
  8
0
 62
     2
100
AcDbLine
 10
-505.5374802760509
 20
-14.50264885281469
 30
0.0
 11
-505.7169362760508
 21
-14.50264885281469
 31
0.0
  0
LINE
  5
686
330
6B
100
AcDbEntity
  8
0
 62
     2
100
AcDbLine
 10
-505.7169362760508
 20
-15.06882985281469
 30
0.0
 11
-505.7169362760508
 21
-14.50264885281469
 31
0.0
  0
LINE
  5
687
330
6B
100
AcDbEntity
  8
0
 62
     2
100
AcDbLine
 10
-505.7169362760508
 20
-15.06882985281469
 30
0.0
 11
-503.6998592760508
 21
-15.06882985281469
 31
0.0
  0
ARC
  5
688
330
6B
100
AcDbEntity
  8
0
 62
     2
100
AcDbCircle
 10
-503.3956822760508
 20
-11.84940285281469
 30
0.0
 40
0.235086
100
AcDbArc
 50
0.0
 51
80.40593200000104
  0
LINE
  5
689
330
6B
100
AcDbEntity
  8
0
 62
     2
100
AcDbLine
 10
-503.3565012760509
 20
-11.61760485281469
 30
0.0
 11
-503.5060472760508
 21
-11.61760485281469
 31
0.0
  0
LINE
  5
68A
330
6B
100
AcDbEntity
  8
0
 62
     2
100
AcDbLine
 10
-503.1605962760508
 20
-12.77539185281469
 30
0.0
 11
-503.1605962760508
 21
-11.84940285281469
 31
0.0
  0
LINE
  5
68B
330
6B
100
AcDbEntity
  8
0
 62
     2
100
AcDbLine
 10
-503.1605962760508
 20
-12.77539185281469
 30
0.0
 11
-504.0453102760508
 21
-12.77539185281469
 31
0.0
  0
LINE
  5
68C
330
6B
100
AcDbEntity
  8
0
 62
     2
100
AcDbLine
 10
-503.1605962760508
 20
-13.41066385281469
 30
0.0
 11
-504.0453102760508
 21
-13.41066385281469
 31
0.0
  0
LINE
  5
68D
330
6B
100
AcDbEntity
  8
0
 62
     2
100
AcDbLine
 10
-503.1605962760508
 20
-14.33665285281469
 30
0.0
 11
-503.1605962760508
 21
-13.41066385281469
 31
0.0
  0
ARC
  5
68E
330
6B
100
AcDbEntity
  8
0
 62
     2
100
AcDbCircle
 10
-503.3956822760508
 20
-14.33665285281469
 30
0.0
 40
0.235086
100
AcDbArc
 50
279.594067999999
 51
0.0
  0
LINE
  5
68F
330
6B
100
AcDbEntity
  8
0
 62
     2
100
AcDbLine
 10
-503.3565012760509
 20
-14.56845085281469
 30
0.0
 11
-503.5060472760508
 21
-14.56845085281469
 31
0.0
  0
LINE
  5
690
330
6B
100
AcDbEntity
  8
0
 62
     2
100
AcDbLine
 10
-503.5060472760508
 20
-14.56845085281469
 30
0.0
 11
-503.5060472760508
 21
-15.06882985281469
 31
0.0
  0
LINE
  5
691
330
6B
100
AcDbEntity
  8
0
 62
     2
100
AcDbLine
 10
-503.6998592760508
 20
-14.56845085281469
 30
0.0
 11
-503.6998592760508
 21
-15.06882985281469
 31
0.0
  0
LINE
  5
692
330
6B
100
AcDbEntity
  8
0
 62
     2
100
AcDbLine
 10
-503.8494052760508
 20
-14.56845085281469
 30
0.0
 11
-503.6998592760508
 21
-14.56845085281469
 31
0.0
  0
ARC
  5
693
330
6B
100
AcDbEntity
  8
0
 62
     2
100
AcDbCircle
 10
-503.8102242760508
 20
-14.33665285281469
 30
0.0
 40
0.235086
100
AcDbArc
 50
180.0
 51
260.405932000001
  0
LINE
  5
694
330
6B
100
AcDbEntity
  8
0
 62
     2
100
AcDbLine
 10
-504.0453102760508
 20
-14.33665285281469
 30
0.0
 11
-504.0453102760508
 21
-13.41066385281469
 31
0.0
  0
LINE
  5
695
330
6B
100
AcDbEntity
  8
0
 62
     2
100
AcDbLine
 10
-504.0453102760508
 20
-12.77539185281469
 30
0.0
 11
-504.0453102760508
 21
-11.84940285281469
 31
0.0
  0
ARC
  5
696
330
6B
100
AcDbEntity
  8
0
 62
     2
100
AcDbCircle
 10
-503.8102242760508
 20
-11.84940285281469
 30
0.0
 40
0.235086
100
AcDbArc
 50
99.59406799999896
 51
180.0
  0
LINE
  5
697
330
6B
100
AcDbEntity
  8
0
 62
     2
100
AcDbLine
 10
-503.8494052760508
 20
-11.61760485281469
 30
0.0
 11
-503.6998592760508
 21
-11.61760485281469
 31
0.0
  0
LINE
  5
698
330
6B
100
AcDbEntity
  8
0
 62
     2
100
AcDbLine
 10
-503.6998592760508
 20
-11.61760485281469
 30
0.0
 11
-503.6998592760508
 21
-11.11722585281469
 31
0.0
  0
LINE
  5
699
330
6B
100
AcDbEntity
  8
0
 62
     2
100
AcDbLine
 10
-503.5060472760508
 20
-11.61760485281469
 30
0.0
 11
-503.5060472760508
 21
-11.11722585281469
 31
0.0
  0
LINE
  5
69A
330
6B
100
AcDbEntity
  8
0
 62
     2
100
AcDbLine
 10
-515.7497822760508
 20
-14.57164485281469
 30
0.0
 11
-515.7497822760508
 21
-15.06873585281469
 31
0.0
  0
LINE
  5
69B
330
6B
100
AcDbEntity
  8
0
 62
     2
100
AcDbLine
 10
-515.3352402760511
 20
-11.84930885281469
 30
0.0
 11
-515.3352402760511
 21
-14.33655885281469
 31
0.0
  0
ARC
  5
69C
330
6B
100
AcDbEntity
  8
0
 62
     2
100
AcDbCircle
 10
-515.570327276051
 20
-14.33655885281469
 30
0.0
 40
0.235086
100
AcDbArc
 50
270.0
 51
0.0
  0
LINE
  5
69D
330
6B
100
AcDbEntity
  8
0
 62
     2
100
AcDbLine
 10
-515.570327276051
 20
-14.57164485281469
 30
0.0
 11
-515.7497822760508
 21
-14.57164485281469
 31
0.0
  0
ARC
  5
69E
330
6B
100
AcDbEntity
  8
0
 62
     2
100
AcDbCircle
 10
-515.570327276051
 20
-11.84930885281469
 30
0.0
 40
0.235086
100
AcDbArc
 50
0.0
 51
90.0
  0
LINE
  5
69F
330
6B
100
AcDbEntity
  8
0
 62
     2
100
AcDbLine
 10
-515.7497822760508
 20
-11.11713185281469
 30
0.0
 11
-515.7497822760508
 21
-11.61422285281469
 31
0.0
  0
LINE
  5
6A0
330
6B
100
AcDbEntity
  8
0
 62
     2
100
AcDbLine
 10
-515.570327276051
 20
-11.61422285281469
 30
0.0
 11
-515.7497822760508
 21
-11.61422285281469
 31
0.0
  0
LINE
  5
840
330
6B
100
AcDbEntity
  8
0
 62
     3
100
AcDbLine
 10
-667.819079276051
 20
144.7873481471853
 30
0.0
 11
-667.819079276051
 21
-129.2126518528146
 31
0.0
  0
LINE
  5
841
330
6B
100
AcDbEntity
  8
0
 62
     3
100
AcDbLine
 10
-277.819079276051
 20
-129.2126518528146
 30
0.0
 11
-277.819079276051
 21
144.7873481471853
 31
0.0
  0
LINE
  5
843
330
6B
100
AcDbEntity
  8
0
 62
     3
100
AcDbLine
 10
-667.819079276051
 20
-129.2126518528146
 30
0.0
 11
-277.819079276051
 21
-129.2126518528146
 31
0.0
  0
LINE
  5
844
330
6B
100
AcDbEntity
  8
0
 62
     3
100
AcDbLine
 10
-490.0441898060511
 20
147.2273502871853
 30
0.0
 11
-489.421692796051
 21
146.9023958071852
 31
0.0
  0
LINE
  5
845
330
6B
100
AcDbEntity
  8
0
 62
     3
100
AcDbLine
 10
-490.0441898060511
 20
141.8978781871852
 30
0.0
 11
-489.421692796051
 21
142.2228326671853
 31
0.0
  0
LINE
  5
846
330
6B
100
AcDbEntity
  8
0
 62
     3
100
AcDbLine
 10
-489.421692796051
 20
146.9023958071852
 30
0.0
 11
-489.421692796051
 21
142.2228326671853
 31
0.0
  0
LINE
  5
847
330
6B
100
AcDbEntity
  8
0
 62
     3
100
AcDbLine
 10
-487.8452393360511
 20
141.8978781871852
 30
0.0
 11
-488.467736346051
 21
142.2228326671853
 31
0.0
  0
LINE
  5
848
330
6B
100
AcDbEntity
  8
0
 62
     3
100
AcDbLine
 10
-488.467736346051
 20
145.0754881171851
 30
0.0
 11
-488.467736346051
 21
142.2228326671853
 31
0.0
  0
LINE
  5
849
330
6B
100
AcDbEntity
  8
0
 62
     3
100
AcDbLine
 10
-484.214006796051
 20
147.2273502871853
 30
0.0
 11
-484.836503796051
 21
146.9023958071852
 31
0.0
  0
LINE
  5
84A
330
6B
100
AcDbEntity
  8
0
 62
     3
100
AcDbLine
 10
-486.4129572660511
 20
147.2273502871853
 30
0.0
 11
-485.790460256051
 21
146.9023958071852
 31
0.0
  0
LINE
  5
84B
330
6B
100
AcDbEntity
  8
0
 62
     3
100
AcDbLine
 10
-485.790460256051
 20
146.9023958071852
 30
0.0
 11
-485.790460256051
 21
144.8419142871853
 31
0.0
  0
LINE
  5
84C
330
6B
100
AcDbEntity
  8
0
 62
     3
100
AcDbLine
 10
-484.836503796051
 20
146.9023958071852
 30
0.0
 11
-484.836503796051
 21
141.5956479771853
 31
0.0
  0
LINE
  5
84D
330
6B
100
AcDbEntity
  8
0
 62
     3
100
AcDbLine
 10
-483.9064393560509
 20
147.2273465371853
 30
0.0
 11
-483.2839445960511
 21
146.9023877671852
 31
0.0
  0
LINE
  5
84E
330
6B
100
AcDbEntity
  8
0
 62
     3
100
AcDbLine
 10
-483.906550746051
 20
141.8979495771852
 30
0.0
 11
-483.2840423960511
 21
142.2228823271853
 31
0.0
  0
LINE
  5
84F
330
6B
100
AcDbEntity
  8
0
 62
     3
100
AcDbLine
 10
-483.2839445960511
 20
146.9023877671852
 30
0.0
 11
-483.2839445960511
 21
142.2228823271853
 31
0.0
  0
LINE
  5
850
330
6B
100
AcDbEntity
  8
0
 62
     3
100
AcDbLine
 10
-481.149958796051
 20
147.2273127171853
 30
0.0
 11
-481.7724603560511
 21
146.9023669571853
 31
0.0
  0
LINE
  5
851
330
6B
100
AcDbEntity
  8
0
 62
     3
100
AcDbLine
 10
-481.7724603560511
 20
146.9023669571853
 30
0.0
 11
-481.7724603560511
 21
142.2228615171851
 31
0.0
  0
LINE
  5
852
330
6B
100
AcDbEntity
  8
0
 62
     3
100
AcDbLine
 10
-481.149958796051
 20
141.8979157571852
 30
0.0
 11
-481.7724603560511
 21
142.2228615171851
 31
0.0
  0
LINE
  5
853
330
6B
100
AcDbEntity
  8
0
 62
     3
100
AcDbLine
 10
-475.8781681660511
 20
147.2272541471852
 30
0.0
 11
-475.2556722860511
 21
146.9022975271853
 31
0.0
  0
LINE
  5
854
330
6B
100
AcDbEntity
  8
0
 62
     3
100
AcDbLine
 10
-475.2556722860511
 20
146.9022975271853
 30
0.0
 11
-475.2557539560511
 21
142.2227920771853
 31
0.0
  0
LINE
  5
855
330
6B
100
AcDbEntity
  8
0
 62
     3
100
AcDbLine
 10
-475.8782611860509
 20
141.8978571871853
 30
0.0
 11
-475.2557539560511
 21
142.2227920771853
 31
0.0
  0
LINE
  5
856
330
6B
100
AcDbEntity
  8
0
 62
     3
100
AcDbLine
 10
-473.089223926051
 20
147.2272541471852
 30
0.0
 11
-473.711719816051
 21
146.9022975271853
 31
0.0
  0
LINE
  5
857
330
6B
100
AcDbEntity
  8
0
 62
     3
100
AcDbLine
 10
-473.0891309160511
 20
141.8978571871853
 30
0.0
 11
-473.711638146051
 21
142.2227920771853
 31
0.0
  0
LINE
  5
858
330
6B
100
AcDbEntity
  8
0
 62
     3
100
AcDbLine
 10
-472.7981841260509
 20
147.2272541471852
 30
0.0
 11
-472.175688246051
 21
146.9022975271853
 31
0.0
  0
LINE
  5
859
330
6B
100
AcDbEntity
  8
0
 62
     3
100
AcDbLine
 10
-472.798277146051
 20
141.8978571871853
 30
0.0
 11
-472.1757699160511
 21
142.2227920771853
 31
0.0
  0
LINE
  5
85A
330
6B
100
AcDbEntity
  8
0
 62
     3
100
AcDbLine
 10
-470.0092398960511
 20
147.2272541471852
 30
0.0
 11
-470.631735776051
 21
146.9022975271853
 31
0.0
  0
LINE
  5
85B
330
6B
100
AcDbEntity
  8
0
 62
     3
100
AcDbLine
 10
-470.631735776051
 20
146.9022975271853
 30
0.0
 11
-470.6316541060511
 21
142.2227920771853
 31
0.0
  0
LINE
  5
85C
330
6B
100
AcDbEntity
  8
0
 62
     3
100
AcDbLine
 10
-470.009146876051
 20
141.8978571871853
 30
0.0
 11
-470.6316541060511
 21
142.2227920771853
 31
0.0
  0
LINE
  5
85D
330
6B
100
AcDbEntity
  8
0
 62
     3
100
AcDbLine
 10
-472.175723826051
 20
144.8635359271853
 30
0.0
 11
-473.711684236051
 21
144.8635359271853
 31
0.0
  0
LINE
  5
85E
330
6B
100
AcDbEntity
  8
0
 62
     3
100
AcDbLine
 10
-472.175734326051
 20
144.2616925471852
 30
0.0
 11
-473.7116737360508
 21
144.2616925471852
 31
0.0
  0
LINE
  5
85F
330
6B
100
AcDbEntity
  8
0
 62
     3
100
AcDbLine
 10
-472.175688246051
 20
146.9022975271853
 30
0.0
 11
-472.175723826051
 21
144.8635359271853
 31
0.0
  0
LINE
  5
860
330
6B
100
AcDbEntity
  8
0
 62
     3
100
AcDbLine
 10
-472.175734326051
 20
144.2616925471852
 30
0.0
 11
-472.1757699160511
 21
142.2227920771853
 31
0.0
  0
LINE
  5
861
330
6B
100
AcDbEntity
  8
0
 62
     3
100
AcDbLine
 10
-473.711719816051
 20
146.9022975271853
 30
0.0
 11
-473.711684236051
 21
144.8635359271853
 31
0.0
  0
LINE
  5
862
330
6B
100
AcDbEntity
  8
0
 62
     3
100
AcDbLine
 10
-473.7116737360508
 20
144.2616925471852
 30
0.0
 11
-473.711638146051
 21
142.2227920771853
 31
0.0
  0
LINE
  5
863
330
6B
100
AcDbEntity
  8
0
 62
     3
100
AcDbLine
 10
-469.713584006051
 20
147.2272541471852
 30
0.0
 11
-469.0910881160511
 21
146.9022975271853
 31
0.0
  0
LINE
  5
864
330
6B
100
AcDbEntity
  8
0
 62
     3
100
AcDbLine
 10
-469.0910881160511
 20
146.9022975271853
 30
0.0
 11
-469.091169796051
 21
142.2227920771853
 31
0.0
  0
LINE
  5
865
330
6B
100
AcDbEntity
  8
0
 62
     3
100
AcDbLine
 10
-469.713677026051
 20
141.8978571871853
 30
0.0
 11
-469.091169796051
 21
142.2227920771853
 31
0.0
  0
LINE
  5
866
330
6B
100
AcDbEntity
  8
0
 62
     3
100
AcDbLine
 10
-466.9571407660511
 20
147.2272541471852
 30
0.0
 11
-467.579636656051
 21
146.9022975271853
 31
0.0
  0
LINE
  5
867
330
6B
100
AcDbEntity
  8
0
 62
     3
100
AcDbLine
 10
-467.579636656051
 20
146.9022975271853
 30
0.0
 11
-467.579554976051
 21
142.2227920771853
 31
0.0
  0
LINE
  5
868
330
6B
100
AcDbEntity
  8
0
 62
     3
100
AcDbLine
 10
-466.9570477460511
 20
141.8978571871853
 30
0.0
 11
-467.579554976051
 21
142.2227920771853
 31
0.0
  0
LINE
  5
869
330
6B
100
AcDbEntity
  8
0
 62
     3
100
AcDbLine
 10
-466.6509128160511
 20
147.2272541471852
 30
0.0
 11
-466.0284169260511
 21
146.9022975271853
 31
0.0
  0
LINE
  5
86A
330
6B
100
AcDbEntity
  8
0
 62
     3
100
AcDbLine
 10
-466.0284169260511
 20
146.9022975271853
 30
0.0
 11
-466.028498596051
 21
142.2227920771853
 31
0.0
  0
LINE
  5
86B
330
6B
100
AcDbEntity
  8
0
 62
     3
100
AcDbLine
 10
-466.6510058260511
 20
141.8978571871853
 30
0.0
 11
-466.028498596051
 21
142.2227920771853
 31
0.0
  0
ARC
  5
86C
330
6B
100
AcDbEntity
  8
0
 62
     3
100
AcDbCircle
 10
-477.866612836051
 20
144.5760281771853
 30
0.0
 40
2.98040844
100
AcDbArc
 50
97.70152351000369
 51
270.0
  0
ARC
  5
86D
330
6B
100
AcDbEntity
  8
0
 62
     3
100
AcDbCircle
 10
-459.4657544960511
 20
144.5460901371852
 30
0.0
 40
3.012776259999998
100
AcDbArc
 50
0.3142502699992948
 51
69.00558244999635
  0
ARC
  5
86E
330
6B
100
AcDbEntity
  8
0
 62
     3
100
AcDbCircle
 10
-458.8076468860511
 20
144.5460901371852
 30
0.0
 40
3.012776259999998
100
AcDbArc
 50
110.9944175500036
 51
148.1166110200014
  0
ARC
  5
86F
330
6B
100
AcDbEntity
  8
0
 62
     3
100
AcDbCircle
 10
-459.4657544960511
 20
144.5791383371853
 30
0.0
 40
3.012776259999998
100
AcDbArc
 50
290.9944175500036
 51
359.6857497300007
  0
ARC
  5
870
330
6B
100
AcDbEntity
  8
0
 62
     3
100
AcDbCircle
 10
-458.8076468860511
 20
144.5791383371853
 30
0.0
 40
3.012776259999998
100
AcDbArc
 50
211.8833889799985
 51
249.0055824499964
  0
ARC
  5
871
330
6B
100
AcDbEntity
  8
0
 62
     3
100
AcDbCircle
 10
-459.1367006860511
 20
145.7951933671853
 30
0.0
 40
1.73438712
100
AcDbArc
 50
64.36517189999993
 51
115.6348281
  0
ARC
  5
872
330
6B
100
AcDbEntity
  8
0
 62
     3
100
AcDbCircle
 10
-459.1367006860511
 20
143.3300351071852
 30
0.0
 40
1.73438712
100
AcDbArc
 50
244.3651718999999
 51
295.6348281
  0
ARC
  5
873
330
6B
100
AcDbEntity
  8
0
 62
     3
100
AcDbCircle
 10
-459.1367006860511
 20
145.8281386271852
 30
0.0
 40
0.85122233
100
AcDbArc
 50
19.48660554000132
 51
160.5133944599986
  0
ARC
  5
874
330
6B
100
AcDbEntity
  8
0
 62
     3
100
AcDbCircle
 10
-459.1367006860511
 20
143.3300351071852
 30
0.0
 40
1.73438712
100
AcDbArc
 50
244.3651718999999
 51
295.6348281
  0
ARC
  5
875
330
6B
100
AcDbEntity
  8
0
 62
     3
100
AcDbCircle
 10
-459.1367006860511
 20
143.2970898471852
 30
0.0
 40
0.85122233
100
AcDbArc
 50
199.4866055400013
 51
340.5133944599987
  0
ARC
  5
876
330
6B
100
AcDbEntity
  8
0
 62
     3
100
AcDbCircle
 10
-465.911661406051
 20
112.8082430371853
 30
0.0
 40
37.20000000000001
100
AcDbArc
 50
69.50571480000154
 51
81.68998807000383
  0
ARC
  5
877
330
6B
100
AcDbEntity
  8
0
 62
     3
100
AcDbCircle
 10
-465.911661406051
 20
176.3169854371851
 30
0.0
 40
37.20000000000001
100
AcDbArc
 50
278.3100119299961
 51
290.4942851999985
  0
ARC
  5
878
330
6B
100
AcDbEntity
  8
0
 62
     3
100
AcDbCircle
 10
-454.0427983660511
 20
144.5626142371852
 30
0.0
 40
3.299999999999998
100
AcDbArc
 50
290.4942851999985
 51
69.50571480000154
  0
ARC
  5
879
330
6B
100
AcDbEntity
  8
0
 62
     3
100
AcDbCircle
 10
-493.0427983660511
 20
144.5626142371852
 30
0.0
 40
3.299999999999998
100
AcDbArc
 50
110.4942851999985
 51
249.5057148000015
  0
ARC
  5
87A
330
6B
100
AcDbEntity
  8
0
 62
     3
100
AcDbCircle
 10
-481.173935336051
 20
112.8082430371853
 30
0.0
 40
37.20000000000001
100
AcDbArc
 50
98.31001192999615
 51
110.4942851999985
  0
ARC
  5
87B
330
6B
100
AcDbEntity
  8
0
 62
     3
100
AcDbCircle
 10
-481.173935336051
 20
176.3169854371851
 30
0.0
 40
37.20000000000001
100
AcDbArc
 50
249.5057148000015
 51
261.6899880700039
  0
ARC
  5
87C
330
6B
100
AcDbEntity
  8
0
 62
     3
100
AcDbCircle
 10
-473.542798366051
 20
60.56261423718524
 30
0.0
 40
89.99999981
100
AcDbArc
 50
81.68998807000383
 51
98.31001192999615
  0
ARC
  5
87D
330
6B
100
AcDbEntity
  8
0
 62
     3
100
AcDbCircle
 10
-473.542798366051
 20
228.5626142371853
 30
0.0
 40
89.99999981
100
AcDbArc
 50
261.6899880700039
 51
278.3100119299961
  0
ARC
  5
87E
330
6B
100
AcDbEntity
  8
0
 62
     3
100
AcDbCircle
 10
-473.542798366051
 20
60.56261423718524
 30
0.0
 40
89.09999981
100
AcDbArc
 50
81.68998807000383
 51
98.31001192999615
  0
ARC
  5
87F
330
6B
100
AcDbEntity
  8
0
 62
     3
100
AcDbCircle
 10
-473.542798366051
 20
228.5626142371853
 30
0.0
 40
89.09999981
100
AcDbArc
 50
261.6899880700039
 51
278.3100119299961
  0
ARC
  5
880
330
6B
100
AcDbEntity
  8
0
 62
     3
100
AcDbCircle
 10
-465.911661406051
 20
176.3169854371851
 30
0.0
 40
36.3
100
AcDbArc
 50
278.3100119299961
 51
290.4942851999985
  0
ARC
  5
881
330
6B
100
AcDbEntity
  8
0
 62
     3
100
AcDbCircle
 10
-465.911661406051
 20
112.8082430371853
 30
0.0
 40
36.3
100
AcDbArc
 50
69.50571480000154
 51
81.68998807000383
  0
ARC
  5
882
330
6B
100
AcDbEntity
  8
0
 62
     3
100
AcDbCircle
 10
-454.0427983660511
 20
144.5626142371852
 30
0.0
 40
2.399999999999999
100
AcDbArc
 50
290.4942851999985
 51
69.50571480000154
  0
ARC
  5
883
330
6B
100
AcDbEntity
  8
0
 62
     3
100
AcDbCircle
 10
-493.0427983660511
 20
144.5626142371852
 30
0.0
 40
2.399999999999999
100
AcDbArc
 50
110.4942851999985
 51
249.5057148000015
  0
ARC
  5
884
330
6B
100
AcDbEntity
  8
0
 62
     3
100
AcDbCircle
 10
-481.173935336051
 20
112.8082430371853
 30
0.0
 40
36.3
100
AcDbArc
 50
98.31001192999615
 51
110.4942851999985
  0
ARC
  5
885
330
6B
100
AcDbEntity
  8
0
 62
     3
100
AcDbCircle
 10
-481.173935336051
 20
176.3169854371851
 30
0.0
 40
36.3
100
AcDbArc
 50
249.5057148000015
 51
261.6899880700039
  0
LINE
  5
886
330
6B
100
AcDbEntity
  8
0
 62
     3
100
AcDbLine
 10
-466.9571396460511
 20
141.5956479771853
 30
0.0
 11
-469.713585126051
 21
141.5956479771853
 31
0.0
  0
LINE
  5
887
330
6B
100
AcDbEntity
  8
0
 62
     3
100
AcDbLine
 10
-466.9571396460511
 20
141.8978781871852
 30
0.0
 11
-466.9571396460511
 21
141.5956479771853
 31
0.0
  0
LINE
  5
888
330
6B
100
AcDbEntity
  8
0
 62
     3
100
AcDbLine
 10
-470.0092387760511
 20
147.5294394671853
 30
0.0
 11
-472.798185246051
 21
147.5294394671853
 31
0.0
  0
LINE
  5
889
330
6B
100
AcDbEntity
  8
0
 62
     3
100
AcDbLine
 10
-470.0092387760511
 20
147.5294394671853
 30
0.0
 11
-470.0092387760511
 21
147.2273502871853
 31
0.0
  0
LINE
  5
88A
330
6B
100
AcDbEntity
  8
0
 62
     3
100
AcDbLine
 10
-470.0092387760511
 20
141.8978781871852
 30
0.0
 11
-470.0092387760511
 21
141.5955069571853
 31
0.0
  0
LINE
  5
88B
330
6B
100
AcDbEntity
  8
0
 62
     3
100
AcDbLine
 10
-470.0092387760511
 20
141.5955069571853
 30
0.0
 11
-472.798185246051
 21
141.5955069571853
 31
0.0
  0
LINE
  5
88C
330
6B
100
AcDbEntity
  8
0
 62
     3
100
AcDbLine
 10
-466.9571396460511
 20
147.5295804971853
 30
0.0
 11
-466.9571396460511
 21
147.2273502871853
 31
0.0
  0
LINE
  5
88D
330
6B
100
AcDbEntity
  8
0
 62
     3
100
AcDbLine
 10
-466.9571396460511
 20
147.5295804971853
 30
0.0
 11
-469.713585126051
 21
147.5295804971853
 31
0.0
  0
LINE
  5
88E
330
6B
100
AcDbEntity
  8
0
 62
     3
100
AcDbLine
 10
-469.713585126051
 20
147.5295804971853
 30
0.0
 11
-469.713585126051
 21
147.2273502871853
 31
0.0
  0
LINE
  5
88F
330
6B
100
AcDbEntity
  8
0
 62
     3
100
AcDbLine
 10
-466.6509139360511
 20
141.8978781871852
 30
0.0
 11
-466.6509139360511
 21
141.5956479771853
 31
0.0
  0
LINE
  5
890
330
6B
100
AcDbEntity
  8
0
 62
     3
100
AcDbLine
 10
-463.816198846051
 20
141.5956479771853
 30
0.0
 11
-466.6509139360511
 21
141.5956479771853
 31
0.0
  0
LINE
  5
891
330
6B
100
AcDbEntity
  8
0
 62
     3
100
AcDbLine
 10
-464.516965456051
 20
146.5756240371853
 30
0.0
 11
-464.516965456051
 21
142.5496044371852
 31
0.0
  0
LINE
  5
892
330
6B
100
AcDbEntity
  8
0
 62
     3
100
AcDbLine
 10
-464.516965456051
 20
142.5496044371852
 30
0.0
 11
-464.2454669360509
 21
142.5496044371852
 31
0.0
  0
ARC
  5
893
330
6B
100
AcDbEntity
  8
0
 62
     3
100
AcDbCircle
 10
-465.6337322760511
 20
144.5626142371852
 30
0.0
 40
2.44529939
100
AcDbArc
 50
304.591955269996
 51
55.40804473000399
  0
LINE
  5
894
330
6B
100
AcDbEntity
  8
0
 62
     3
100
AcDbLine
 10
-463.816198846051
 20
147.5295804971853
 30
0.0
 11
-466.6509139360511
 21
147.5295804971853
 31
0.0
  0
LINE
  5
895
330
6B
100
AcDbEntity
  8
0
 62
     3
100
AcDbLine
 10
-466.6509139360511
 20
147.5295804971853
 30
0.0
 11
-466.6509139360511
 21
147.2273502871853
 31
0.0
  0
LINE
  5
896
330
6B
100
AcDbEntity
  8
0
 62
     3
100
AcDbLine
 10
-469.713585126051
 20
141.8978781871852
 30
0.0
 11
-469.713585126051
 21
141.5956479771853
 31
0.0
  0
LINE
  5
897
330
6B
100
AcDbEntity
  8
0
 62
     3
100
AcDbLine
 10
-464.516965456051
 20
146.5756240371853
 30
0.0
 11
-464.2454669360509
 21
146.5756240371853
 31
0.0
  0
LINE
  5
898
330
6B
100
AcDbEntity
  8
0
 62
     3
100
AcDbLine
 10
-481.150050696051
 20
141.8978781871852
 30
0.0
 11
-481.1500559660511
 21
141.5956197371853
 31
0.0
  0
LINE
  5
899
330
6B
100
AcDbEntity
  8
0
 62
     3
100
AcDbLine
 10
-483.906501446051
 20
141.5956762271853
 30
0.0
 11
-481.1500559660511
 21
141.5956281171852
 31
0.0
  0
LINE
  5
89A
330
6B
100
AcDbEntity
  8
0
 62
     3
100
AcDbLine
 10
-490.0441898060511
 20
141.5956479771853
 30
0.0
 11
-487.8452393360511
 21
141.5956479771853
 31
0.0
  0
ARC
  5
89B
330
6B
100
AcDbEntity
  8
0
 62
     3
100
AcDbCircle
 10
-497.161250776051
 20
144.6324808471853
 30
0.0
 40
21.01937947
100
AcDbArc
 50
353.8660061899999
 51
357.6940342600001
  0
LINE
  5
89C
330
6B
100
AcDbEntity
  8
0
 62
     3
100
AcDbLine
 10
-477.5661366860511
 20
143.7919556271853
 30
0.0
 11
-476.1588925660511
 21
143.7867486571852
 31
0.0
  0
LINE
  5
89E
330
6B
100
AcDbEntity
  8
0
 62
     3
100
AcDbLine
 10
-477.560453236051
 20
145.3279766871852
 30
0.0
 11
-476.153209116051
 21
145.3227697171853
 31
0.0
  0
ARC
  5
89F
330
6B
100
AcDbEntity
  8
0
 62
     3
100
AcDbCircle
 10
-497.161250776051
 20
144.6324808471853
 30
0.0
 40
21.01937947
100
AcDbArc
 50
1.881965739999571
 51
5.709993809999575
  0
LINE
  5
8A0
330
6B
100
AcDbEntity
  8
0
 62
     3
100
AcDbLine
 10
-481.149952406051
 20
147.5295522471853
 30
0.0
 11
-481.1499576760509
 21
147.2273502871853
 31
0.0
  0
LINE
  5
8A1
330
6B
100
AcDbEntity
  8
0
 62
     3
100
AcDbLine
 10
-483.9063978860511
 20
147.5296087371853
 30
0.0
 11
-481.149952406051
 21
147.5295606271853
 31
0.0
  0
LINE
  5
8A2
330
6B
100
AcDbEntity
  8
0
 62
     3
100
AcDbLine
 10
-483.9064961760509
 20
141.8978781871852
 30
0.0
 11
-483.906501446051
 21
141.5956762271853
 31
0.0
  0
LINE
  5
8A3
330
6B
100
AcDbEntity
  8
0
 62
     3
100
AcDbLine
 10
-483.9063978860511
 20
147.5296087371853
 30
0.0
 11
-483.906403156051
 21
147.2273502871853
 31
0.0
  0
LINE
  5
8A4
330
6B
100
AcDbEntity
  8
0
 62
     3
100
AcDbLine
 10
-487.8452393360511
 20
141.8978781871852
 30
0.0
 11
-487.8452393360511
 21
141.5956479771853
 31
0.0
  0
LINE
  5
8A5
330
6B
100
AcDbEntity
  8
0
 62
     3
100
AcDbLine
 10
-488.467736346051
 20
145.0754881171851
 30
0.0
 11
-486.292836266051
 21
141.5956479771853
 31
0.0
  0
LINE
  5
8A6
330
6B
100
AcDbEntity
  8
0
 62
     3
100
AcDbLine
 10
-486.292836266051
 20
141.5956479771853
 30
0.0
 11
-484.836503796051
 21
141.5956479771853
 31
0.0
  0
LINE
  5
8A7
330
6B
100
AcDbEntity
  8
0
 62
     3
100
AcDbLine
 10
-484.214006796051
 20
147.5295804971853
 30
0.0
 11
-484.214006796051
 21
147.2273502871853
 31
0.0
  0
LINE
  5
8A8
330
6B
100
AcDbEntity
  8
0
 62
     3
100
AcDbLine
 10
-486.4129572660511
 20
147.5295804971853
 30
0.0
 11
-484.214006796051
 21
147.5295804971853
 31
0.0
  0
LINE
  5
8A9
330
6B
100
AcDbEntity
  8
0
 62
     3
100
AcDbLine
 10
-486.4129572660511
 20
147.5295804971853
 30
0.0
 11
-486.4129572660511
 21
147.2273502871853
 31
0.0
  0
LINE
  5
8AA
330
6B
100
AcDbEntity
  8
0
 62
     3
100
AcDbLine
 10
-485.790460256051
 20
144.8419142871853
 30
0.0
 11
-487.554241196051
 21
147.5295804971853
 31
0.0
  0
LINE
  5
8AB
330
6B
100
AcDbEntity
  8
0
 62
     3
100
AcDbLine
 10
-490.0441898060511
 20
147.5295804971853
 30
0.0
 11
-487.554241196051
 21
147.5295804971853
 31
0.0
  0
LINE
  5
8AC
330
6B
100
AcDbEntity
  8
0
 62
     3
100
AcDbLine
 10
-475.878169286051
 20
147.5294394671853
 30
0.0
 11
-473.0892228060509
 21
147.5294394671853
 31
0.0
  0
LINE
  5
8AD
330
6B
100
AcDbEntity
  8
0
 62
     3
100
AcDbLine
 10
-475.878169286051
 20
147.2273502871853
 30
0.0
 11
-475.878169286051
 21
147.5294394671853
 31
0.0
  0
LINE
  5
8AE
330
6B
100
AcDbEntity
  8
0
 62
     3
100
AcDbLine
 10
-475.878169286051
 20
141.5955069571853
 30
0.0
 11
-475.878169286051
 21
141.8978781871852
 31
0.0
  0
LINE
  5
8AF
330
6B
100
AcDbEntity
  8
0
 62
     3
100
AcDbLine
 10
-475.878169286051
 20
141.5955069571853
 30
0.0
 11
-473.0892228060509
 21
141.5955069571853
 31
0.0
  0
LINE
  5
8B0
330
6B
100
AcDbEntity
  8
0
 62
     3
100
AcDbLine
 10
-472.798185246051
 20
141.8978781871852
 30
0.0
 11
-472.798185246051
 21
141.5955069571853
 31
0.0
  0
LINE
  5
8B1
330
6B
100
AcDbEntity
  8
0
 62
     3
100
AcDbLine
 10
-473.0892228060509
 20
141.8978781871852
 30
0.0
 11
-473.0892228060509
 21
141.5955069571853
 31
0.0
  0
LINE
  5
8B2
330
6B
100
AcDbEntity
  8
0
 62
     3
100
AcDbLine
 10
-473.0892228060509
 20
147.2273502871853
 30
0.0
 11
-473.0892228060509
 21
147.5294394671853
 31
0.0
  0
LINE
  5
8B3
330
6B
100
AcDbEntity
  8
0
 62
     3
100
AcDbLine
 10
-472.798185246051
 20
147.2273502871853
 30
0.0
 11
-472.798185246051
 21
147.5294394671853
 31
0.0
  0
LINE
  5
8B4
330
6B
100
AcDbEntity
  8
0
 62
     3
100
AcDbLine
 10
-490.0441898060511
 20
141.8978781871852
 30
0.0
 11
-490.0441898060511
 21
141.5956479771853
 31
0.0
  0
LINE
  5
8B5
330
6B
100
AcDbEntity
  8
0
 62
     3
100
AcDbLine
 10
-490.0441898060511
 20
147.5295804971853
 30
0.0
 11
-490.0441898060511
 21
147.2273502871853
 31
0.0
  0
ARC
  5
8B6
330
6B
100
AcDbEntity
  8
0
 62
     3
100
AcDbCircle
 10
-463.5161988460509
 20
145.1851112471853
 30
0.0
 40
2.344469249999999
100
AcDbArc
 50
17.30874897999955
 51
23.76507095999893
  0
ARC
  5
8B7
330
6B
100
AcDbEntity
  8
0
 62
     3
100
AcDbCircle
 10
-465.513732276051
 20
144.5626142371852
 30
0.0
 40
4.43675086
100
AcDbArc
 50
342.6912510200005
 51
17.30856644000122
  0
ARC
  5
8B8
330
6B
100
AcDbEntity
  8
0
 62
     3
100
AcDbCircle
 10
-463.5161988460509
 20
143.9401172271853
 30
0.0
 40
2.344469249999999
100
AcDbArc
 50
336.2349290399984
 51
342.6912510200005
  0
ARC
  5
8B9
330
6B
100
AcDbEntity
  8
0
 62
     3
100
AcDbCircle
 10
-463.816198846051
 20
145.1851112471853
 30
0.0
 40
2.344469249999999
100
AcDbArc
 50
17.30874897999955
 51
90.0
  0
ARC
  5
8BA
330
6B
100
AcDbEntity
  8
0
 62
     3
100
AcDbCircle
 10
-465.813732276051
 20
144.5626142371852
 30
0.0
 40
4.43675086
100
AcDbArc
 50
342.6912510200005
 51
17.30856644000122
  0
ARC
  5
8BB
330
6B
100
AcDbEntity
  8
0
 62
     3
100
AcDbCircle
 10
-463.816198846051
 20
143.9401172271853
 30
0.0
 40
2.344469249999999
100
AcDbArc
 50
270.0
 51
342.6912510200005
  0
ARC
  5
8BC
330
6B
100
AcDbEntity
  8
0
 62
     3
100
AcDbCircle
 10
-478.2789708160511
 20
144.5626142371852
 30
0.0
 40
2.966966259999998
100
AcDbArc
 50
46.75287961000178
 51
89.74999828999569
  0
ARC
  5
8BD
330
6B
100
AcDbEntity
  8
0
 62
     3
100
AcDbCircle
 10
-478.2789708160511
 20
144.5626142371852
 30
0.0
 40
2.966966259999998
100
AcDbArc
 50
273.9763331499971
 51
312.8231203899991
  0
ARC
  5
8BE
330
6B
100
AcDbEntity
  8
0
 62
     3
100
AcDbCircle
 10
-461.933530886051
 20
144.5168120571853
 30
0.0
 40
3.936984289999998
100
AcDbArc
 50
0.6665840599997753
 51
23.90392827000101
  0
ARC
  5
8BF
330
6B
100
AcDbEntity
  8
0
 62
     3
100
AcDbCircle
 10
-456.339870496051
 20
144.5168120571853
 30
0.0
 40
3.936984289999998
100
AcDbArc
 50
156.096071729999
 51
179.3334159400002
  0
ARC
  5
8C0
330
6B
100
AcDbEntity
  8
0
 62
     3
100
AcDbCircle
 10
-461.933530886051
 20
144.6084164171852
 30
0.0
 40
3.936984289999998
100
AcDbArc
 50
336.096071729999
 51
359.3334159400003
  0
ARC
  5
8C1
330
6B
100
AcDbEntity
  8
0
 62
     3
100
AcDbCircle
 10
-456.339870496051
 20
144.6084164171852
 30
0.0
 40
3.936984289999998
100
AcDbArc
 50
180.6665840599997
 51
203.903928270001
  0
LINE
  5
8C2
330
6B
100
AcDbEntity
  8
0
 62
     3
100
AcDbLine
 10
-449.162354096051
 20
144.7873481471853
 30
0.0
 11
-277.8190792760511
 21
144.7873481471853
 31
0.0
  0
LINE
  5
8C3
330
6B
100
AcDbEntity
  8
0
 62
     3
100
AcDbLine
 10
-497.716388766051
 20
144.7873481471853
 30
0.0
 11
-667.819079276051
 21
144.7873481471853
 31
0.0
  0
LINE
  5
8C4
330
6B
100
AcDbEntity
  8
0
 62
     3
100
AcDbLine
 10
-680.221003066051
 20
11.23198709718528
 30
0.0
 11
-682.819079276051
 21
9.731987097185282
 31
0.0
  0
LINE
  5
8C5
330
6B
100
AcDbEntity
  8
0
 62
     3
100
AcDbLine
 10
-680.221003066051
 20
11.23198709718528
 30
0.0
 11
-682.819079276051
 21
12.73198709718528
 31
0.0
  0
LINE
  5
8C6
330
6B
100
AcDbEntity
  8
0
 62
     3
100
AcDbLine
 10
-682.819079276051
 20
9.731987097185282
 30
0.0
 11
-682.819079276051
 21
12.73198709718528
 31
0.0
  0
LINE
  5
8C9
330
6B
100
AcDbEntity
  8
0
 62
     3
100
AcDbLine
 10
-329.819079276051
 20
-129.2126518528146
 30
0.0
 11
-329.819079276051
 21
-89.21265185281466
 31
0.0
  0
LINE
  5
8CA
330
6B
100
AcDbEntity
  8
0
 62
     3
100
AcDbLine
 10
-316.819079276051
 20
-119.2126518528146
 30
0.0
 11
-316.819079276051
 21
-91.21265185281469
 31
0.0
  0
LINE
  5
8CB
330
6B
100
AcDbEntity
  8
0
 62
     3
100
AcDbLine
 10
-356.819079276051
 20
-119.2126518528146
 30
0.0
 11
-356.819079276051
 21
-105.2126518528146
 31
0.0
  0
LINE
  5
8CC
330
6B
100
AcDbEntity
  8
0
 62
     3
100
AcDbLine
 10
-346.819079276051
 20
-105.2126518528146
 30
0.0
 11
-346.819079276051
 21
-129.2126518528146
 31
0.0
  0
LINE
  5
8CD
330
6B
100
AcDbEntity
  8
0
 62
     3
100
AcDbLine
 10
-375.819079276051
 20
-89.21265185281468
 30
0.0
 11
-375.819079276051
 21
-112.2126518528147
 31
0.0
  0
LINE
  5
8CE
330
6B
100
AcDbEntity
  8
0
 62
     3
100
AcDbLine
 10
-316.819079276051
 20
-91.21265185281469
 30
0.0
 11
-316.819079276051
 21
-89.21265185281468
 31
0.0
  0
LINE
  5
8CF
330
6B
100
AcDbEntity
  8
0
 62
     3
100
AcDbLine
 10
-303.819079276051
 20
-112.2126518528147
 30
0.0
 11
-303.819079276051
 21
-89.21265185281468
 31
0.0
  0
LINE
  5
8D0
330
6B
100
AcDbEntity
  8
0
 62
     3
100
AcDbLine
 10
-277.819079276051
 20
-89.21265185281468
 30
0.0
 11
-389.0645139160509
 21
-89.21265185281466
 31
0.0
  0
LINE
  5
8D1
330
6B
100
AcDbEntity
  8
0
 62
     3
100
AcDbLine
 10
-277.819079276051
 20
-98.21265185281468
 30
0.0
 11
-389.0645139160509
 21
-98.21265185281468
 31
0.0
  0
LINE
  5
8D2
330
6B
100
AcDbEntity
  8
0
 62
     3
100
AcDbLine
 10
-277.819079276051
 20
-112.2126518528147
 30
0.0
 11
-389.0645139160509
 21
-112.2126518528147
 31
0.0
  0
LINE
  5
8D3
330
6B
100
AcDbEntity
  8
0
 62
     3
100
AcDbLine
 10
-277.819079276051
 20
-119.2126518528146
 30
0.0
 11
-389.0645139160509
 21
-119.2126518528146
 31
0.0
  0
LINE
  5
8D4
330
6B
100
AcDbEntity
  8
0
 62
     3
100
AcDbLine
 10
-290.8190792760509
 20
-112.2126518528147
 30
0.0
 11
-290.8190792760509
 21
-89.21265185281468
 31
0.0
  0
LINE
  5
8D5
330
6B
100
AcDbEntity
  8
0
 62
     3
100
AcDbLine
 10
-389.0645139160509
 20
-89.21265185281466
 30
0.0
 11
-389.0645139160509
 21
-129.2126518528146
 31
0.0
  0
LINE
  5
8D6
330
6B
100
AcDbEntity
  8
0
 62
     3
100
AcDbLine
 10
-329.819079276051
 20
-105.2126518528146
 30
0.0
 11
-389.0645139160509
 21
-105.2126518528147
 31
0.0
  0
LINE
  5
8D7
330
6B
100
AcDbEntity
  8
0
 62
     3
100
AcDbLine
 10
-346.5407543460511
 20
-124.3797905928147
 30
0.0
 11
-329.819079276051
 21
-124.3797905928147
 31
0.0
  0
LINE
  5
8D8
330
6B
100
AcDbEntity
  8
0
 62
     3
100
AcDbLine
 10
-342.8190792760509
 20
-98.21265185281468
 30
0.0
 11
-334.8190792760509
 21
-98.21265185281468
 31
0.0
  0
TEXT
  5
8DA
330
6B
100
AcDbEntity
  8
0
 62
     3
100
AcDbText
 10
-374.6227105807987
 20
-109.9148374478307
 30
0.0
 40
2.5
  1
PA6
  7
高2.5
100
AcDbText
  0
TEXT
  5
8DB
330
6B
100
AcDbEntity
  8
0
 62
     3
100
AcDbText
 10
-374.3578028261014
 20
-96.9004023290568
 30
0.0
 40
4.5
  1
万能フッカー
  7
高4.5
100
AcDbText
1001
ACAD
1000
ACAD_MTEXT_DEFINED_HEIGHT_BEGIN
1070
    46
1040
0.0
1000
ACAD_MTEXT_DEFINED_HEIGHT_END
  0
TEXT
  5
8DC
330
6B
100
AcDbEntity
  8
0
 62
     3
100
AcDbText
 10
-287.7534901825768
 20
-92.69895975411108
 30
0.0
 40
2.0
  1
DEF
  7
高2
100
AcDbText
  0
TEXT
  5
8DD
330
6B
100
AcDbEntity
  8
0
 62
     3
100
AcDbText
 10
-301.6925885362852
 20
-92.69895975411115
 30
0.0
 40
2.0
  1
DESN
  7
高2
100
AcDbText
  0
TEXT
  5
8DE
330
6B
100
AcDbEntity
  8
0
 62
     3
100
AcDbText
 10
-327.9469554762853
 20
-92.69895975411108
 30
0.0
 40
2.0
  1
APPD
  7
高2
100
AcDbText
  0
TEXT
  5
8DF
330
6B
100
AcDbEntity
  8
0
 62
     3
100
AcDbText
 10
-314.834219376051
 20
-92.69895975411106
 30
0.0
 40
2.0
  1
CHCK
  7
高2
100
AcDbText
  0
TEXT
  5
8E0
330
6B
100
AcDbEntity
  8
0
 62
     3
100
AcDbText
 10
-355.8919136368983
 20
-115.0442530295839
 30
0.0
 40
2.0
  1
SCALE
 41
0.8
  7
高2
100
AcDbText
  0
TEXT
  5
8E1
330
6B
100
AcDbEntity
  8
0
 62
     3
100
AcDbText
 10
-387.3799352130049
 20
-115.0442530295839
 30
0.0
 40
2.0
  1
3AD　ANGLE
 41
1.5
  7
高2
100
AcDbText
  0
TEXT
  5
8E2
330
6B
100
AcDbEntity
  8
0
 62
     3
100
AcDbText
 10
-356.6225079460495
 20
-108.2927149606268
 30
0.0
 40
2.0
  1
REMARKS
 41
0.7
  7
高2
100
AcDbText
  0
TEXT
  5
8E3
330
6B
100
AcDbEntity
  8
0
 62
     3
100
AcDbText
 10
-387.596843566051
 20
-108.2126518528147
 30
0.0
 40
2.0
  1
MATERIAL
 41
0.7
  7
高2
100
AcDbText
  0
TEXT
  5
8E4
330
6B
100
AcDbEntity
  8
0
 62
     3
100
AcDbText
 10
-387.0203563632969
 20
-101.2126518528147
 30
0.0
 40
2.0
  1
MODEL
  7
高2
100
AcDbText
  0
TEXT
  5
8E5
330
6B
100
AcDbEntity
  8
0
 62
     3
100
AcDbText
 10
-387.3834354819657
 20
-92.50563050221565
 30
0.0
 40
2.0
  1
CONPONENTS
 41
0.5
  7
高2
100
AcDbText
  0
TEXT
  5
8E6
330
6B
100
AcDbEntity
  8
0
 62
     3
100
AcDbText
 10
-374.6763200107988
 20
-104.1251707250027
 30
0.0
 40
4.5
  1
BH-400LH(-□□)
 41
0.8
  7
高4.5
100
AcDbText
  0
TEXT
  5
8E7
330
6B
100
AcDbEntity
  8
0
 62
     3
100
AcDbText
 10
-326.7540335454324
 20
-127.1741904574491
 30
0.0
 40
6.299999999999998
  1
BH-400LH
 41
0.9
  7
高6.3
100
AcDbText
1001
ACAD
1000
ACAD_MTEXT_DEFINED_HEIGHT_BEGIN
1070
    46
1040
0.0
1000
ACAD_MTEXT_DEFINED_HEIGHT_END
  0
TEXT
  5
8E8
330
6B
100
AcDbEntity
  8
0
 62
     3
100
AcDbText
 10
-313.2555695257214
 20
-118.1117626945817
 30
0.0
 40
3.2
  1
2005.8.30
  7
高3.2
100
AcDbText
1001
ACAD
1000
ACAD_MTEXT_DEFINED_HEIGHT_BEGIN
1070
    46
1040
0.0
1000
ACAD_MTEXT_DEFINED_HEIGHT_END
  0
TEXT
  5
8E9
330
6B
100
AcDbEntity
  8
0
 62
     3
100
AcDbText
 10
-343.0314813814046
 20
-118.1117348502468
 30
0.0
 40
3.2
  1
1/1
  7
高3.2
100
AcDbText
  0
TEXT
  5
8EA
330
6B
100
AcDbEntity
  8
0
 62
     3
100
AcDbText
 10
-345.9541524060511
 20
-128.3957736796787
 30
0.0
 40
3.2
  1
ZK-A3X
 41
0.8
  7
高3.2
100
AcDbText
  0
TEXT
  5
8EB
330
6B
100
AcDbEntity
  8
0
 62
     3
100
AcDbText
 10
-388.233812876051
 20
-122.6880314306268
 30
0.0
 40
2.0
  1
NICHIDO IND.CO.LTD
 41
1.3
  7
高2
100
AcDbText
  0
TEXT
  5
8EC
330
6B
100
AcDbEntity
  8
0
 62
     3
100
AcDbText
 10
-387.0522896110939
 20
-97.07212364492974
 30
0.0
 40
3.2
  1
品 名
  7
高3.2
100
AcDbText
1001
ACAD
1000
ACAD_MTEXT_DEFINED_HEIGHT_BEGIN
1070
    46
1040
0.0
1000
ACAD_MTEXT_DEFINED_HEIGHT_END
  0
TEXT
  5
8ED
330
6B
100
AcDbEntity
  8
0
 62
     3
100
AcDbText
 10
-387.0522896110939
 20
-104.7126518528147
 30
0.0
 40
3.2
  1
型 式
  7
高3.2
100
AcDbText
1001
ACAD
1000
ACAD_MTEXT_DEFINED_HEIGHT_BEGIN
1070
    46
1040
3.064735913775954
1000
ACAD_MTEXT_DEFINED_HEIGHT_END
  0
TEXT
  5
8EE
330
6B
100
AcDbEntity
  8
0
 62
     3
100
AcDbText
 10
-387.0522896110939
 20
-111.7126518528146
 30
0.0
 40
3.2
  1
材 質
  7
高3.2
100
AcDbText
1001
ACAD
1000
ACAD_MTEXT_DEFINED_HEIGHT_BEGIN
1070
    46
1040
0.0
1000
ACAD_MTEXT_DEFINED_HEIGHT_END
  0
TEXT
  5
8EF
330
6B
100
AcDbEntity
  8
0
 62
     3
100
AcDbText
 10
-387.3573245610939
 20
-118.7452118605684
 30
0.0
 40
3.2
  1
第 三 角 法
  7
高3.2
100
AcDbText
1001
ACAD
1000
ACAD_MTEXT_DEFINED_HEIGHT_BEGIN
1070
    46
1040
0.0
1000
ACAD_MTEXT_DEFINED_HEIGHT_END
  0
TEXT
  5
8F0
330
6B
100
AcDbEntity
  8
0
 62
     3
100
AcDbText
 10
-388.950791953565
 20
-128.0721236449297
 30
0.0
 40
3.2
  1
日動工業株式会社
 41
1.199999999999999
  7
高3.2
100
AcDbText
1001
ACAD
1000
ACAD_MTEXT_DEFINED_HEIGHT_BEGIN
1070
    46
1040
0.0
1000
ACAD_MTEXT_DEFINED_HEIGHT_END
  0
TEXT
  5
8F1
330
6B
100
AcDbEntity
  8
0
 62
     3
100
AcDbText
 10
-355.3151677540865
 20
-111.8280733196471
 30
0.0
 40
3.2
  1
備考
  7
高3.2
100
AcDbText
1001
ACAD
1000
ACAD_MTEXT_DEFINED_HEIGHT_BEGIN
1070
    46
1040
0.0
1000
ACAD_MTEXT_DEFINED_HEIGHT_END
  0
TEXT
  5
8F2
330
6B
100
AcDbEntity
  8
0
 62
     3
100
AcDbText
 10
-345.6661103070512
 20
-123.0664218272444
 30
0.0
 40
2.5
  1
出図コード
  7
高2.5
100
AcDbText
1001
ACAD
1000
ACAD_MTEXT_DEFINED_HEIGHT_BEGIN
1070
    46
1040
0.0
1000
ACAD_MTEXT_DEFINED_HEIGHT_END
  0
TEXT
  5
8F3
330
6B
100
AcDbEntity
  8
0
 62
     3
100
AcDbText
 10
-355.4739338721739
 20
-118.7594169424017
 30
0.0
 40
3.2
  1
尺度
  7
高3.2
100
AcDbText
1001
ACAD
1000
ACAD_MTEXT_DEFINED_HEIGHT_BEGIN
1070
    46
1040
0.0
1000
ACAD_MTEXT_DEFINED_HEIGHT_END
  0
TEXT
  5
8F4
330
6B
100
AcDbEntity
  8
0
 62
     3
100
AcDbText
 10
-328.3276723903952
 20
-117.6279384942843
 30
0.0
 40
3.2
  1
作成日
  7
高3.2
100
AcDbText
1001
ACAD
1000
ACAD_MTEXT_DEFINED_HEIGHT_BEGIN
1070
    46
1040
0.0
1000
ACAD_MTEXT_DEFINED_HEIGHT_END
  0
TEXT
  5
8F5
330
6B
100
AcDbEntity
  8
0
 62
     3
100
AcDbText
 10
-328.4331983835313
 20
-97.07212364492974
 30
0.0
 40
3.2
  1
承 認
  7
高3.2
100
AcDbText
1001
ACAD
1000
ACAD_MTEXT_DEFINED_HEIGHT_BEGIN
1070
    46
1040
0.0
1000
ACAD_MTEXT_DEFINED_HEIGHT_END
  0
TEXT
  5
8F6
330
6B
100
AcDbEntity
  8
0
 62
     3
100
AcDbText
 10
-315.4331983835313
 20
-97.07212364492974
 30
0.0
 40
3.2
  1
検 図
  7
高3.2
100
AcDbText
1001
ACAD
1000
ACAD_MTEXT_DEFINED_HEIGHT_BEGIN
1070
    46
1040
0.0
1000
ACAD_MTEXT_DEFINED_HEIGHT_END
  0
TEXT
  5
8F7
330
6B
100
AcDbEntity
  8
0
 62
     3
100
AcDbText
 10
-302.4331983835312
 20
-97.07212364492974
 30
0.0
 40
3.2
  1
設 計
  7
高3.2
100
AcDbText
1001
ACAD
1000
ACAD_MTEXT_DEFINED_HEIGHT_BEGIN
1070
    46
1040
0.0
1000
ACAD_MTEXT_DEFINED_HEIGHT_END
  0
TEXT
  5
8F8
330
6B
100
AcDbEntity
  8
0
 62
     3
100
AcDbText
 10
-289.1325618635313
 20
-97.07212364492974
 30
0.0
 40
3.2
  1
製 図
  7
高3.2
100
AcDbText
1001
ACAD
1000
ACAD_MTEXT_DEFINED_HEIGHT_BEGIN
1070
    46
1040
0.0
1000
ACAD_MTEXT_DEFINED_HEIGHT_END
  0
TEXT
  5
8F9
330
6B
100
AcDbEntity
  8
0
 62
     3
100
AcDbText
 10
-290.3190792760511
 20
135.2873481471853
 30
0.0
 40
3.2
  1
担　当
  7
高3.2
100
AcDbText
  0
TEXT
  5
8FA
330
6B
100
AcDbEntity
  8
0
 62
     3
100
AcDbText
 10
-334.3190792760511
 20
135.2873481471853
 30
0.0
 40
3.2
  1
変更・追記内容
  7
高3.2
100
AcDbText
  0
TEXT
  5
8FB
330
6B
100
AcDbEntity
  8
0
 62
     3
100
AcDbText
 10
-359.2055642757118
 20
130.616809637277
 30
0.0
 40
2.0
  1
1
  7
高2
100
AcDbText
  0
TEXT
  5
8FC
330
6B
100
AcDbEntity
  8
0
 62
     3
100
AcDbText
 10
-359.5140757524691
 20
125.4469929250041
 30
0.0
 40
2.0
  1
2
  7
高2
100
AcDbText
  0
TEXT
  5
8FD
330
6B
100
AcDbEntity
  8
0
 62
     3
100
AcDbText
 10
-352.3190792760511
 20
135.2873481471853
 30
0.0
 40
3.2
  1
日　付
  7
高3.2
100
AcDbText
  0
TEXT
  5
8FE
330
6B
100
AcDbEntity
  8
0
 62
     3
100
AcDbText
 10
-352.3190792760511
 20
140.2873481471853
 30
0.0
 40
3.2
  1
図　　　　面　　　　略　　　　歴
  7
高3.2
100
AcDbText
  0
TEXT
  5
8FF
330
6B
100
AcDbEntity
  8
0
 62
     3
100
AcDbText
 10
-362.3190792760511
 20
135.2873481471853
 30
0.0
 40
3.2
  1
記号
  7
高3.2
100
AcDbText
  0
LINE
  5
900
330
6B
100
AcDbEntity
  8
0
 62
     7
100
AcDbLine
 10
-358.8190792760511
 20
128.5782441471854
 30
0.0
 11
-360.7190792760511
 21
125.2873481471853
 31
0.0
  0
LINE
  5
901
330
6B
100
AcDbEntity
  8
0
 62
     7
100
AcDbLine
 10
-358.8190792760511
 20
128.5782441471854
 30
0.0
 11
-356.9190792760511
 21
125.2873481471853
 31
0.0
  0
LINE
  5
902
330
6B
100
AcDbEntity
  8
0
 62
     7
100
AcDbLine
 10
-360.7190792760511
 20
125.2873481471853
 30
0.0
 11
-356.9190792760511
 21
125.2873481471853
 31
0.0
  0
LINE
  5
903
330
6B
100
AcDbEntity
  8
0
 62
     7
100
AcDbLine
 10
-358.8190792760511
 20
133.5782451471854
 30
0.0
 11
-360.7190792760511
 21
130.2873481471853
 31
0.0
  0
LINE
  5
904
330
6B
100
AcDbEntity
  8
0
 62
     7
100
AcDbLine
 10
-358.8190792760511
 20
133.5782451471854
 30
0.0
 11
-356.9190792760511
 21
130.2873481471853
 31
0.0
  0
LINE
  5
905
330
6B
100
AcDbEntity
  8
0
 62
     7
100
AcDbLine
 10
-360.7190792760511
 20
130.2873481471853
 30
0.0
 11
-356.9190792760511
 21
130.2873481471853
 31
0.0
  0
LINE
  5
906
330
6B
100
AcDbEntity
  8
0
 62
     3
100
AcDbLine
 10
-363.8190792760511
 20
139.7873481471853
 30
0.0
 11
-277.8190792760511
 21
139.7873481471853
 31
0.0
  0
LINE
  5
907
330
6B
100
AcDbEntity
  8
0
 62
     3
100
AcDbLine
 10
-363.8190792760511
 20
134.7873481471853
 30
0.0
 11
-277.8190792760511
 21
134.7873481471853
 31
0.0
  0
LINE
  5
908
330
6B
100
AcDbEntity
  8
0
 62
     7
100
AcDbLine
 10
-363.8190792760511
 20
129.7873481471853
 30
0.0
 11
-277.8190792760511
 21
129.7873481471853
 31
0.0
  0
LINE
  5
909
330
6B
100
AcDbEntity
  8
0
 62
     3
100
AcDbLine
 10
-363.8190792760511
 20
124.7873481471853
 30
0.0
 11
-277.8190792760511
 21
124.7873481471853
 31
0.0
  0
LINE
  5
90A
330
6B
100
AcDbEntity
  8
0
 62
     7
100
AcDbLine
 10
-291.8190792760512
 20
124.7873481471853
 30
0.0
 11
-291.819079276051
 21
139.7873481471853
 31
0.0
  0
LINE
  5
90B
330
6B
100
AcDbEntity
  8
0
 62
     7
100
AcDbLine
 10
-335.8190792760511
 20
124.7873481471853
 30
0.0
 11
-335.8190792760511
 21
139.7873481471853
 31
0.0
  0
LINE
  5
90C
330
6B
100
AcDbEntity
  8
0
 62
     7
100
AcDbLine
 10
-353.8190792760511
 20
124.7873481471853
 30
0.0
 11
-353.8190792760511
 21
139.7873481471853
 31
0.0
  0
LINE
  5
90D
330
6B
100
AcDbEntity
  8
0
 62
     3
100
AcDbLine
 10
-363.8190792760511
 20
124.7873481471853
 30
0.0
 11
-363.8190792760511
 21
144.7873481471853
 31
0.0
  0
TEXT
  5
FA6
330
6B
100
AcDbEntity
  8
0
 62
     3
100
AcDbText
 10
-514.5703442760511
 20
-75.28383285281449
 30
0.0
 40
4.5
  1
-20℃～80℃
  7
高4.5
100
AcDbText
  0
TEXT
  5
FA7
330
6B
100
AcDbEntity
  8
0
 62
     3
100
AcDbText
 10
-549.570344276051
 20
-75.28383285281449
 30
0.0
 40
4.5
  1
使用環境温度
  7
高4.5
100
AcDbText
  0
TEXT
  5
FA8
330
6B
100
AcDbEntity
  8
0
 62
     3
100
AcDbText
 10
-549.570344276051
 20
-47.2838328528145
 30
0.0
 40
4.5
  1
型　　　式
  7
高4.5
100
AcDbText
  0
TEXT
  5
FA9
330
6B
100
AcDbEntity
  8
0
 62
     3
100
AcDbText
 10
-549.570344276051
 20
-68.2838328528145
 30
0.0
 40
4.5
  1
耐　荷　重
  7
高4.5
100
AcDbText
  0
TEXT
  5
FAA
330
6B
100
AcDbEntity
  8
0
 62
     3
100
AcDbText
 10
-514.5703442760511
 20
-68.2838328528145
 30
0.0
 40
4.5
  1
10.0kg　(at25℃)
  7
高4.5
100
AcDbText
  0
TEXT
  5
FAB
330
6B
100
AcDbEntity
  8
0
 62
     3
100
AcDbText
 10
-514.5703442760511
 20
-47.2838328528145
 30
0.0
 40
4.5
  1
BH-400LH
  7
高4.5
100
AcDbText
  0
TEXT
  5
FAC
330
6B
100
AcDbEntity
  8
0
 62
     3
100
AcDbText
 10
-514.5703442760511
 20
-61.2838328528145
 30
0.0
 40
4.5
  1
%%C30～100
  7
高4.5
100
AcDbText
  0
TEXT
  5
FAD
330
6B
100
AcDbEntity
  8
0
 62
     3
100
AcDbText
 10
-549.570344276051
 20
-61.2838328528145
 30
0.0
 40
4.5
  1
結　束　径
  7
高4.5
100
AcDbText
  0
TEXT
  5
FAE
330
6B
100
AcDbEntity
  8
0
 62
     3
100
AcDbText
 10
-549.570344276051
 20
-54.2838328528145
 30
0.0
 40
4.5
  1
L　寸　法
  7
高4.5
100
AcDbText
  0
TEXT
  5
FAF
330
6B
100
AcDbEntity
  8
0
 62
     3
100
AcDbText
 10
-514.5703442760511
 20
-54.2838328528145
 30
0.0
 40
4.5
  1
400
  7
高4.5
100
AcDbText
  0
LINE
  5
FB0
330
6B
100
AcDbEntity
  8
0
 62
     3
100
AcDbLine
 10
-456.570344276051
 20
-41.2838328528145
 30
0.0
 11
-551.570344276051
 21
-41.2838328528145
 31
0.0
  0
LINE
  5
FB1
330
6B
100
AcDbEntity
  8
0
 62
     3
100
AcDbLine
 10
-551.570344276051
 20
-41.2838328528145
 30
0.0
 11
-551.570344276051
 21
-76.2838328528145
 31
0.0
  0
LINE
  5
FB2
330
6B
100
AcDbEntity
  8
0
 62
     3
100
AcDbLine
 10
-516.570344276051
 20
-41.2838328528145
 30
0.0
 11
-516.570344276051
 21
-76.2838328528145
 31
0.0
  0
LINE
  5
FB3
330
6B
100
AcDbEntity
  8
0
 62
     3
100
AcDbLine
 10
-456.570344276051
 20
-41.2838328528145
 30
0.0
 11
-456.570344276051
 21
-76.2838328528145
 31
0.0
  0
LINE
  5
FB4
330
6B
100
AcDbEntity
  8
0
100
AcDbLine
 10
-551.570344276051
 20
-55.28383285281449
 30
0.0
 11
-456.570344276051
 21
-55.28383285281449
 31
0.0
  0
LINE
  5
FB5
330
6B
100
AcDbEntity
  8
0
100
AcDbLine
 10
-456.570344276051
 20
-62.28383285281438
 30
0.0
 11
-551.570344276051
 21
-62.2838328528145
 31
0.0
  0
LINE
  5
FB6
330
6B
100
AcDbEntity
  8
0
100
AcDbLine
 10
-456.570344276051
 20
-48.2838328528145
 30
0.0
 11
-551.570344276051
 21
-48.2838328528145
 31
0.0
  0
LINE
  5
FB7
330
6B
100
AcDbEntity
  8
0
100
AcDbLine
 10
-551.570344276051
 20
-69.2838328528145
 30
0.0
 11
-456.570344276051
 21
-69.28383285281438
 31
0.0
  0
LINE
  5
FB8
330
6B
100
AcDbEntity
  8
0
 62
     3
100
AcDbLine
 10
-456.570344276051
 20
-76.28383285281438
 30
0.0
 11
-551.570344276051
 21
-76.2838328528145
 31
0.0
  0
TEXT
  5
111C
330
6B
100
AcDbEntity
  8
0
 62
     3
100
AcDbText
 10
-657.319079276051
 20
-128.7126518528146
 30
0.0
 40
3.2
  1
部品名
  7
高3.2
100
AcDbText
  0
TEXT
  5
111D
330
6B
100
AcDbEntity
  8
0
 62
     3
100
AcDbText
 10
-666.319079276051
 20
-128.7126518528146
 30
0.0
 40
3.2
  1
No.
  7
高3.2
100
AcDbText
  0
TEXT
  5
111E
330
6B
100
AcDbEntity
  8
0
 62
     3
100
AcDbText
 10
-632.319079276051
 20
-128.7126518528146
 30
0.0
 40
3.2
  1
個数
  7
高3.2
100
AcDbText
  0
TEXT
  5
111F
330
6B
100
AcDbEntity
  8
0
 62
     3
100
AcDbText
 10
-632.319079276051
 20
-123.7126518528146
 30
0.0
 40
3.2
  1
1
  7
高3.2
100
AcDbText
  0
TEXT
  5
1120
330
6B
100
AcDbEntity
  8
0
 62
     3
100
AcDbText
 10
-632.319079276051
 20
-118.7126518528146
 30
0.0
 40
3.2
  1
1
  7
高3.2
100
AcDbText
  0
TEXT
  5
1121
330
6B
100
AcDbEntity
  8
0
 62
     3
100
AcDbText
 10
-657.319079276051
 20
-118.7126518528146
 30
0.0
 40
3.2
  1
単管フック
  7
高3.2
100
AcDbText
  0
TEXT
  5
1122
330
6B
100
AcDbEntity
  8
0
 62
     3
100
AcDbText
 10
-657.319079276051
 20
-123.7126518528146
 30
0.0
 40
3.2
  1
連結ベルト
  7
高3.2
100
AcDbText
  0
TEXT
  5
1123
330
6B
100
AcDbEntity
  8
0
 62
     3
100
AcDbText
 10
-666.319079276051
 20
-123.7126518528146
 30
0.0
 40
3.2
  1
1
  7
高3.2
100
AcDbText
  0
TEXT
  5
1124
330
6B
100
AcDbEntity
  8
0
 62
     3
100
AcDbText
 10
-666.319079276051
 20
-118.7126518528146
 30
0.0
 40
3.2
  1
2
  7
高3.2
100
AcDbText
  0
LINE
  5
1126
330
6B
100
AcDbEntity
  8
0
 62
     7
100
AcDbLine
 10
-658.819079276051
 20
-114.2126518528146
 30
0.0
 11
-658.819079276051
 21
-129.2126518528146
 31
0.0
  0
LINE
  5
1127
330
6B
100
AcDbEntity
  8
0
 62
     7
100
AcDbLine
 10
-633.819079276051
 20
-114.2126518528146
 30
0.0
 11
-633.819079276051
 21
-129.2126518528146
 31
0.0
  0
LINE
  5
1128
330
6B
100
AcDbEntity
  8
0
 62
     3
100
AcDbLine
 10
-624.819079276051
 20
-114.2126518528146
 30
0.0
 11
-624.819079276051
 21
-129.2126518528146
 31
0.0
  0
LINE
  5
112A
330
6B
100
AcDbEntity
  8
0
 62
     7
100
AcDbLine
 10
-667.819079276051
 20
-124.2126518528146
 30
0.0
 11
-624.819079276051
 21
-124.2126518528146
 31
0.0
  0
LINE
  5
112B
330
6B
100
AcDbEntity
  8
0
 62
     7
100
AcDbLine
 10
-667.819079276051
 20
-119.2126518528146
 30
0.0
 11
-624.819079276051
 21
-119.2126518528146
 31
0.0
  0
LINE
  5
112C
330
6B
100
AcDbEntity
  8
0
 62
     3
100
AcDbLine
 10
-667.819079276051
 20
-114.2126518528146
 30
0.0
 11
-624.819079276051
 21
-114.2126518528146
 31
0.0
  0
TEXT
  5
112D
330
6B
100
AcDbEntity
  8
0
 62
     3
100
AcDbText
 10
-345.6227105807987
 20
-109.9148374478307
 30
0.0
 40
2.5
  1
-
  7
高2.5
100
AcDbText
  0
LINE
  5
112E
330
6B
100
AcDbEntity
  8
0
 62
     7
100
AcDbLine
 10
-277.8703042760511
 20
-83.21265185281468
 30
0.0
 11
-375.819079276051
 21
-83.21265185281481
 31
0.0
  0
TEXT
  5
112F
330
6B
100
AcDbEntity
  8
0
 62
     3
100
AcDbText
 10
-328.4201542760511
 20
-88.65656685281475
 30
0.0
 40
4.5
  1
サンド
  7
高4.5
100
AcDbText
  0
TEXT
  5
1130
330
6B
100
AcDbEntity
  8
0
 62
     3
100
AcDbText
 10
-302.176877276051
 20
-88.71429585281452
 30
0.0
 40
4.5
  1
29948
  7
高4.5
100
AcDbText
  0
LINE
  5
1131
330
6B
100
AcDbEntity
  8
0
 62
     7
100
AcDbLine
 10
-277.8703042760511
 20
-77.21265185281469
 30
0.0
 11
-375.819079276051
 21
-77.21265185281469
 31
0.0
  0
TEXT
  5
1132
330
6B
100
AcDbEntity
  8
0
 62
     3
100
AcDbText
 10
-328.4201542760511
 20
-82.65656685281475
 30
0.0
 40
4.5
  1
オリーブグリーン
 41
0.5
  7
高4.5
100
AcDbText
  0
TEXT
  5
1133
330
6B
100
AcDbEntity
  8
0
 62
     3
100
AcDbText
 10
-302.176877276051
 20
-82.71429585281451
 30
0.0
 40
4.5
  1
29942
  7
高4.5
100
AcDbText
  0
LINE
  5
1134
330
6B
100
AcDbEntity
  8
0
 62
     7
100
AcDbLine
 10
-277.8703042760511
 20
-71.21265185281469
 30
0.0
 11
-375.819079276051
 21
-71.2126518528148
 31
0.0
  0
TEXT
  5
1135
330
6B
100
AcDbEntity
  8
0
 62
     3
100
AcDbText
 10
-328.4201542760511
 20
-76.65656685281475
 30
0.0
 40
4.5
  1
グレー
  7
高4.5
100
AcDbText
  0
TEXT
  5
1136
330
6B
100
AcDbEntity
  8
0
 62
     3
100
AcDbText
 10
-302.176877276051
 20
-76.71429585281451
 30
0.0
 40
4.5
  1
29936
  7
高4.5
100
AcDbText
  0
LINE
  5
1137
330
6B
100
AcDbEntity
  8
0
 62
     7
100
AcDbLine
 10
-277.8703042760511
 20
-65.21265185281468
 30
0.0
 11
-375.819079276051
 21
-65.21265185281468
 31
0.0
  0
TEXT
  5
1138
330
6B
100
AcDbEntity
  8
0
 62
     3
100
AcDbText
 10
-328.4201542760511
 20
-70.65656685281474
 30
0.0
 40
4.5
  1
ホワイト
  7
高4.5
100
AcDbText
  0
TEXT
  5
1139
330
6B
100
AcDbEntity
  8
0
 62
     3
100
AcDbText
 10
-302.176877276051
 20
-70.71429585281451
 30
0.0
 40
4.5
  1
29930
  7
高4.5
100
AcDbText
  0
LINE
  5
113A
330
6B
100
AcDbEntity
  8
0
 62
     7
100
AcDbLine
 10
-277.8703042760511
 20
-59.21265185281469
 30
0.0
 11
-375.819079276051
 21
-59.21265185281469
 31
0.0
  0
TEXT
  5
113B
330
6B
100
AcDbEntity
  8
0
 62
     3
100
AcDbText
 10
-328.4201542760511
 20
-64.65656685281475
 30
0.0
 40
4.5
  1
ブラック
  7
高4.5
100
AcDbText
  0
TEXT
  5
113C
330
6B
100
AcDbEntity
  8
0
 62
     3
100
AcDbText
 10
-302.176877276051
 20
-64.71429585281452
 30
0.0
 40
4.5
  1
29924
  7
高4.5
100
AcDbText
  0
LINE
  5
113D
330
6B
100
AcDbEntity
  8
0
 62
     7
100
AcDbLine
 10
-277.8703042760511
 20
-53.21265185281468
 30
0.0
 11
-375.819079276051
 21
-53.21265185281468
 31
0.0
  0
TEXT
  5
113E
330
6B
100
AcDbEntity
  8
0
 62
     3
100
AcDbText
 10
-328.4201542760511
 20
-58.65656685281475
 30
0.0
 40
4.5
  1
オレンジ
  7
高4.5
100
AcDbText
  0
TEXT
  5
113F
330
6B
100
AcDbEntity
  8
0
 62
     3
100
AcDbText
 10
-302.176877276051
 20
-58.71429585281451
 30
0.0
 40
4.5
  1
29632
  7
高4.5
100
AcDbText
  0
LINE
  5
1140
330
6B
100
AcDbEntity
  8
0
 62
     3
100
AcDbLine
 10
-277.8703042760511
 20
-47.21265185281469
 30
0.0
 11
-375.819079276051
 21
-47.21265185281469
 31
0.0
  0
TEXT
  5
1141
330
6B
100
AcDbEntity
  8
0
 62
     3
100
AcDbText
 10
-328.4201542760511
 20
-52.65656685281475
 30
0.0
 40
4.5
  1
色
  7
高4.5
100
AcDbText
  0
TEXT
  5
1142
330
6B
100
AcDbEntity
  8
0
 62
     3
100
AcDbText
 10
-302.176877276051
 20
-52.71429585281452
 30
0.0
 40
4.5
  1
コード
  7
高4.5
100
AcDbText
  0
LINE
  5
1143
330
6B
100
AcDbEntity
  8
0
100
AcDbLine
 10
-329.819079276051
 20
-89.21265185281468
 30
0.0
 11
-329.819079276051
 21
-47.21265185281469
 31
0.0
  0
LINE
  5
1144
330
6B
100
AcDbEntity
  8
0
 62
     3
100
AcDbLine
 10
-375.819079276051
 20
-89.21265185281468
 30
0.0
 11
-375.819079276051
 21
-47.21265185281469
 31
0.0
  0
TEXT
  5
1145
330
6B
100
AcDbEntity
  8
0
 62
     3
100
AcDbText
 10
-374.4201542760511
 20
-88.65656685281475
 30
0.0
 40
4.5
  1
BH-400LH-SN
 41
0.9
  7
高4.5
100
AcDbText
  0
TEXT
  5
1146
330
6B
100
AcDbEntity
  8
0
 62
     3
100
AcDbText
 10
-374.4201542760511
 20
-82.65656685281475
 30
0.0
 40
4.5
  1
BH-400LH-OG
 41
0.9
  7
高4.5
100
AcDbText
  0
TEXT
  5
1147
330
6B
100
AcDbEntity
  8
0
 62
     3
100
AcDbText
 10
-374.4201542760511
 20
-76.65656685281475
 30
0.0
 40
4.5
  1
BH-400LH-GY
 41
0.9
  7
高4.5
100
AcDbText
  0
TEXT
  5
1148
330
6B
100
AcDbEntity
  8
0
 62
     3
100
AcDbText
 10
-374.4201542760511
 20
-70.65656685281474
 30
0.0
 40
4.5
  1
BH-400LH-WH
 41
0.9
  7
高4.5
100
AcDbText
  0
TEXT
  5
1149
330
6B
100
AcDbEntity
  8
0
 62
     3
100
AcDbText
 10
-374.4201542760511
 20
-64.65656685281475
 30
0.0
 40
4.5
  1
BH-400LH-BK
 41
0.9
  7
高4.5
100
AcDbText
  0
TEXT
  5
114A
330
6B
100
AcDbEntity
  8
0
 62
     3
100
AcDbText
 10
-374.4201542760511
 20
-58.65656685281475
 30
0.0
 40
4.5
  1
BH-400LH
 41
0.9
  7
高4.5
100
AcDbText
  0
TEXT
  5
114B
330
6B
100
AcDbEntity
  8
0
 62
     3
100
AcDbText
 10
-374.4201542760511
 20
-52.65656685281475
 30
0.0
 40
4.5
  1
型番
  7
高4.5
100
AcDbText
  0
LINE
  5
114C
330
6B
100
AcDbEntity
  8
0
100
AcDbLine
 10
-303.819079276051
 20
-89.21265185281468
 30
0.0
 11
-303.819079276051
 21
-47.21265185281469
 31
0.0
  0
LINE
  5
12AA
330
6B
100
AcDbEntity
  8
0
 62
     2
100
AcDbLine
 10
-506.9570532760509
 20
-12.58325385281469
 30
0.0
 11
-506.9747742760508
 21
-12.46978985281469
 31
0.0
  0
LINE
  5
12AB
330
6B
100
AcDbEntity
  8
0
 62
     2
100
AcDbLine
 10
-506.9747742760508
 20
-12.46978985281469
 30
0.0
 11
-506.9960562760508
 21
-12.36114285281469
 31
0.0
  0
LINE
  5
12AC
330
6B
100
AcDbEntity
  8
0
 62
     2
100
AcDbLine
 10
-506.9960562760508
 20
-12.36114285281469
 30
0.0
 11
-507.0207362760508
 21
-12.25815285281469
 31
0.0
  0
LINE
  5
12AD
330
6B
100
AcDbEntity
  8
0
 62
     2
100
AcDbLine
 10
-507.0207362760508
 20
-12.25815285281469
 30
0.0
 11
-507.0486212760508
 21
-12.16161485281469
 31
0.0
  0
LINE
  5
12AE
330
6B
100
AcDbEntity
  8
0
 62
     2
100
AcDbLine
 10
-507.0486212760508
 20
-12.16161485281469
 30
0.0
 11
-507.0794972760508
 21
-12.07227585281469
 31
0.0
  0
LINE
  5
12AF
330
6B
100
AcDbEntity
  8
0
 62
     2
100
AcDbLine
 10
-507.0794972760508
 20
-12.07227585281469
 30
0.0
 11
-507.1131262760508
 21
-11.99082485281468
 31
0.0
  0
LINE
  5
12B0
330
6B
100
AcDbEntity
  8
0
 62
     2
100
AcDbLine
 10
-507.1131262760508
 20
-11.99082485281468
 30
0.0
 11
-507.149246276051
 21
-11.91789385281469
 31
0.0
  0
LINE
  5
12B1
330
6B
100
AcDbEntity
  8
0
 62
     2
100
AcDbLine
 10
-507.149246276051
 20
-11.91789385281469
 30
0.0
 11
-507.1875792760509
 21
-11.85404485281469
 31
0.0
  0
LINE
  5
12B2
330
6B
100
AcDbEntity
  8
0
 62
     2
100
AcDbLine
 10
-507.1875792760509
 20
-11.85404485281469
 30
0.0
 11
-507.2278292760509
 21
-11.79977185281469
 31
0.0
  0
LINE
  5
12B3
330
6B
100
AcDbEntity
  8
0
 62
     2
100
AcDbLine
 10
-507.2278292760509
 20
-11.79977185281469
 30
0.0
 11
-507.2696852760508
 21
-11.75549385281469
 31
0.0
  0
LINE
  5
12B4
330
6B
100
AcDbEntity
  8
0
 62
     2
100
AcDbLine
 10
-507.2696852760508
 20
-11.75549385281469
 30
0.0
 11
-507.3128222760509
 21
-11.72155385281469
 31
0.0
  0
LINE
  5
12B5
330
6B
100
AcDbEntity
  8
0
 62
     2
100
AcDbLine
 10
-507.3128222760509
 20
-11.72155385281469
 30
0.0
 11
-507.3569082760508
 21
-11.69821385281469
 31
0.0
  0
LINE
  5
12B6
330
6B
100
AcDbEntity
  8
0
 62
     2
100
AcDbLine
 10
-507.3569082760508
 20
-11.69821385281469
 30
0.0
 11
-507.4016012760508
 21
-11.68565485281469
 31
0.0
  0
LINE
  5
12B7
330
6B
100
AcDbEntity
  8
0
 62
     2
100
AcDbLine
 10
-507.4016012760508
 20
-11.68565485281469
 30
0.0
 11
-507.4465572760509
 21
-11.68397285281469
 31
0.0
  0
LINE
  5
12B8
330
6B
100
AcDbEntity
  8
0
 62
     2
100
AcDbLine
 10
-507.4465572760509
 20
-11.68397285281469
 30
0.0
 11
-507.4914282760508
 21
-11.69318185281469
 31
0.0
  0
LINE
  5
12B9
330
6B
100
AcDbEntity
  8
0
 62
     2
100
AcDbLine
 10
-507.4914282760508
 20
-11.69318185281469
 30
0.0
 11
-507.535867276051
 21
-11.71320985281469
 31
0.0
  0
LINE
  5
12BA
330
6B
100
AcDbEntity
  8
0
 62
     2
100
AcDbLine
 10
-507.535867276051
 20
-11.71320985281469
 30
0.0
 11
-507.5795302760509
 21
-11.74390285281469
 31
0.0
  0
LINE
  5
12BB
330
6B
100
AcDbEntity
  8
0
 62
     2
100
AcDbLine
 10
-507.5795302760509
 20
-11.74390285281469
 30
0.0
 11
-507.6220802760508
 21
-11.78502285281469
 31
0.0
  0
LINE
  5
12BC
330
6B
100
AcDbEntity
  8
0
 62
     2
100
AcDbLine
 10
-507.6220802760508
 20
-11.78502285281469
 30
0.0
 11
-507.6631882760508
 21
-11.83625185281469
 31
0.0
  0
LINE
  5
12BD
330
6B
100
AcDbEntity
  8
0
 62
     2
100
AcDbLine
 10
-507.6631882760508
 20
-11.83625185281469
 30
0.0
 11
-507.7025372760508
 21
-11.89719485281469
 31
0.0
  0
LINE
  5
12BE
330
6B
100
AcDbEntity
  8
0
 62
     2
100
AcDbLine
 10
-507.7025372760508
 20
-11.89719485281469
 30
0.0
 11
-507.739822276051
 21
-11.96737985281469
 31
0.0
  0
LINE
  5
12BF
330
6B
100
AcDbEntity
  8
0
 62
     2
100
AcDbLine
 10
-507.739822276051
 20
-11.96737985281469
 30
0.0
 11
-507.7747552760508
 21
-12.04626585281469
 31
0.0
  0
LINE
  5
12C0
330
6B
100
AcDbEntity
  8
0
 62
     2
100
AcDbLine
 10
-507.7747552760508
 20
-12.04626585281469
 30
0.0
 11
-507.8070662760509
 21
-12.13324085281469
 31
0.0
  0
LINE
  5
12C1
330
6B
100
AcDbEntity
  8
0
 62
     2
100
AcDbLine
 10
-507.8070662760509
 20
-12.13324085281469
 30
0.0
 11
-507.8365052760509
 21
-12.22763485281469
 31
0.0
  0
LINE
  5
12C2
330
6B
100
AcDbEntity
  8
0
 62
     2
100
AcDbLine
 10
-507.8365052760509
 20
-12.22763485281469
 30
0.0
 11
-507.862845276051
 21
-12.32871685281469
 31
0.0
  0
LINE
  5
12C3
330
6B
100
AcDbEntity
  8
0
 62
     2
100
AcDbLine
 10
-507.862845276051
 20
-12.32871685281469
 30
0.0
 11
-507.8858832760508
 21
-12.43570485281469
 31
0.0
  0
LINE
  5
12C4
330
6B
100
AcDbEntity
  8
0
 62
     2
100
AcDbLine
 10
-507.8858832760508
 20
-12.43570485281469
 30
0.0
 11
-507.9054392760508
 21
-12.54777385281469
 31
0.0
  0
LINE
  5
12C5
330
6B
100
AcDbEntity
  8
0
 62
     2
100
AcDbLine
 10
-507.9054392760508
 20
-12.54777385281469
 30
0.0
 11
-507.9213632760509
 21
-12.66405685281469
 31
0.0
  0
LINE
  5
12C6
330
6B
100
AcDbEntity
  8
0
 62
     2
100
AcDbLine
 10
-507.9213632760509
 20
-12.66405685281469
 30
0.0
 11
-507.933532276051
 21
-12.78365485281469
 31
0.0
  0
LINE
  5
12C7
330
6B
100
AcDbEntity
  8
0
 62
     2
100
AcDbLine
 10
-507.933532276051
 20
-12.78365485281469
 30
0.0
 11
-507.9418522760509
 21
-12.90564285281469
 31
0.0
  0
LINE
  5
12C8
330
6B
100
AcDbEntity
  8
0
 62
     2
100
AcDbLine
 10
-507.9418522760509
 20
-12.90564285281469
 30
0.0
 11
-507.9462582760508
 21
-13.02907885281469
 31
0.0
  0
LINE
  5
12C9
330
6B
100
AcDbEntity
  8
0
 62
     2
100
AcDbLine
 10
-507.9462582760508
 20
-13.02907885281469
 30
0.0
 11
-507.9467162760509
 21
-13.15300785281469
 31
0.0
  0
LINE
  5
12CA
330
6B
100
AcDbEntity
  8
0
 62
     2
100
AcDbLine
 10
-507.9467162760509
 20
-13.15300785281469
 30
0.0
 11
-507.943224276051
 21
-13.27647285281469
 31
0.0
  0
LINE
  5
12CB
330
6B
100
AcDbEntity
  8
0
 62
     2
100
AcDbLine
 10
-507.943224276051
 20
-13.27647285281469
 30
0.0
 11
-507.9358072760508
 21
-13.39851985281469
 31
0.0
  0
LINE
  5
12CC
330
6B
100
AcDbEntity
  8
0
 62
     2
100
AcDbLine
 10
-507.9358072760508
 20
-13.39851985281469
 30
0.0
 11
-507.9245232760508
 21
-13.51820385281469
 31
0.0
  0
LINE
  5
12CD
330
6B
100
AcDbEntity
  8
0
 62
     2
100
AcDbLine
 10
-507.9245232760508
 20
-13.51820385281469
 30
0.0
 11
-507.9094602760508
 21
-13.63460185281469
 31
0.0
  0
LINE
  5
12CE
330
6B
100
AcDbEntity
  8
0
 62
     2
100
AcDbLine
 10
-507.9094602760508
 20
-13.63460185281469
 30
0.0
 11
-507.8907342760508
 21
-13.74681185281469
 31
0.0
  0
LINE
  5
12CF
330
6B
100
AcDbEntity
  8
0
 62
     2
100
AcDbLine
 10
-507.8907342760508
 20
-13.74681185281469
 30
0.0
 11
-507.8684892760509
 21
-13.85396785281469
 31
0.0
  0
LINE
  5
12D0
330
6B
100
AcDbEntity
  8
0
 62
     2
100
AcDbLine
 10
-507.8684892760509
 20
-13.85396785281469
 30
0.0
 11
-507.842898276051
 21
-13.95524185281469
 31
0.0
  0
LINE
  5
12D1
330
6B
100
AcDbEntity
  8
0
 62
     2
100
AcDbLine
 10
-507.842898276051
 20
-13.95524185281469
 30
0.0
 11
-507.8141582760508
 21
-14.04985085281469
 31
0.0
  0
LINE
  5
12D2
330
6B
100
AcDbEntity
  8
0
 62
     2
100
AcDbLine
 10
-507.8141582760508
 20
-14.04985085281469
 30
0.0
 11
-507.7824912760508
 21
-14.13706385281469
 31
0.0
  0
LINE
  5
12D3
330
6B
100
AcDbEntity
  8
0
 62
     2
100
AcDbLine
 10
-507.7824912760508
 20
-14.13706385281469
 30
0.0
 11
-507.7481432760508
 21
-14.21620485281469
 31
0.0
  0
LINE
  5
12D4
330
6B
100
AcDbEntity
  8
0
 62
     2
100
AcDbLine
 10
-507.7481432760508
 20
-14.21620485281469
 30
0.0
 11
-507.7113782760508
 21
-14.28666485281469
 31
0.0
  0
LINE
  5
12D5
330
6B
100
AcDbEntity
  8
0
 62
     2
100
AcDbLine
 10
-507.7113782760508
 20
-14.28666485281469
 30
0.0
 11
-507.6724822760509
 21
-14.34789685281469
 31
0.0
  0
LINE
  5
12D6
330
6B
100
AcDbEntity
  8
0
 62
     2
100
AcDbLine
 10
-507.6724822760509
 20
-14.34789685281469
 30
0.0
 11
-507.6317542760508
 21
-14.39942885281469
 31
0.0
  0
LINE
  5
12D7
330
6B
100
AcDbEntity
  8
0
 62
     2
100
AcDbLine
 10
-507.6317542760508
 20
-14.39942885281469
 30
0.0
 11
-507.5895092760508
 21
-14.44086285281469
 31
0.0
  0
LINE
  5
12D8
330
6B
100
AcDbEntity
  8
0
 62
     2
100
AcDbLine
 10
-507.5895092760508
 20
-14.44086285281469
 30
0.0
 11
-507.5460742760508
 21
-14.47187785281469
 31
0.0
  0
LINE
  5
12D9
330
6B
100
AcDbEntity
  8
0
 62
     2
100
AcDbLine
 10
-507.5460742760508
 20
-14.47187785281469
 30
0.0
 11
-507.5017852760509
 21
-14.49223385281469
 31
0.0
  0
LINE
  5
12DA
330
6B
100
AcDbEntity
  8
0
 62
     2
100
AcDbLine
 10
-507.5017852760509
 20
-14.49223385281469
 30
0.0
 11
-507.4569832760508
 21
-14.50177485281469
 31
0.0
  0
LINE
  5
12DB
330
6B
100
AcDbEntity
  8
0
 62
     2
100
AcDbLine
 10
-507.4569832760508
 20
-14.50177485281469
 30
0.0
 11
-507.4120162760508
 21
-14.50042585281469
 31
0.0
  0
LINE
  5
12DC
330
6B
100
AcDbEntity
  8
0
 62
     2
100
AcDbLine
 10
-507.4120162760508
 20
-14.50042585281469
 30
0.0
 11
-507.367231276051
 21
-14.48819785281469
 31
0.0
  0
LINE
  5
12DD
330
6B
100
AcDbEntity
  8
0
 62
     2
100
AcDbLine
 10
-507.367231276051
 20
-14.48819785281469
 30
0.0
 11
-507.3229742760509
 21
-14.46518485281469
 31
0.0
  0
LINE
  5
12DE
330
6B
100
AcDbEntity
  8
0
 62
     2
100
AcDbLine
 10
-507.3229742760509
 20
-14.46518485281469
 30
0.0
 11
-507.2795862760508
 21
-14.43156485281469
 31
0.0
  0
LINE
  5
12DF
330
6B
100
AcDbEntity
  8
0
 62
     2
100
AcDbLine
 10
-507.2795862760508
 20
-14.43156485281469
 30
0.0
 11
-507.2374052760508
 21
-14.38759785281469
 31
0.0
  0
LINE
  5
12E0
330
6B
100
AcDbEntity
  8
0
 62
     2
100
AcDbLine
 10
-507.2374052760508
 20
-14.38759785281469
 30
0.0
 11
-507.196754276051
 21
-14.33362485281469
 31
0.0
  0
LINE
  5
12E1
330
6B
100
AcDbEntity
  8
0
 62
     2
100
AcDbLine
 10
-507.196754276051
 20
-14.33362485281469
 30
0.0
 11
-507.1579492760508
 21
-14.27006085281469
 31
0.0
  0
LINE
  5
12E2
330
6B
100
AcDbEntity
  8
0
 62
     2
100
AcDbLine
 10
-507.1579492760508
 20
-14.27006085281469
 30
0.0
 11
-507.1212902760509
 21
-14.19739885281469
 31
0.0
  0
LINE
  5
12E3
330
6B
100
AcDbEntity
  8
0
 62
     2
100
AcDbLine
 10
-507.1212902760509
 20
-14.19739885281469
 30
0.0
 11
-507.087060276051
 21
-14.11619885281469
 31
0.0
  0
LINE
  5
12E4
330
6B
100
AcDbEntity
  8
0
 62
     2
100
AcDbLine
 10
-507.087060276051
 20
-14.11619885281469
 30
0.0
 11
-507.055524276051
 21
-14.02709085281469
 31
0.0
  0
LINE
  5
12E5
330
6B
100
AcDbEntity
  8
0
 62
     2
100
AcDbLine
 10
-507.055524276051
 20
-14.02709085281469
 30
0.0
 11
-507.026924276051
 21
-13.93076185281469
 31
0.0
  0
LINE
  5
12E6
330
6B
100
AcDbEntity
  8
0
 62
     2
100
AcDbLine
 10
-507.026924276051
 20
-13.93076185281469
 30
0.0
 11
-507.0014842760508
 21
-13.82795685281469
 31
0.0
  0
LINE
  5
12E7
330
6B
100
AcDbEntity
  8
0
 62
     2
100
AcDbLine
 10
-507.0014842760508
 20
-13.82795685281469
 30
0.0
 11
-506.979398276051
 21
-13.71947085281469
 31
0.0
  0
LINE
  5
12E8
330
6B
100
AcDbEntity
  8
0
 62
     2
100
AcDbLine
 10
-506.979398276051
 20
-13.71947085281469
 30
0.0
 11
-506.9608382760509
 21
-13.60614085281469
 31
0.0
  0
LINE
  5
12E9
330
6B
100
AcDbEntity
  8
0
100
AcDbLine
 10
-564.0338432760509
 20
84.08664414718531
 30
0.0
 11
-564.0234872760506
 21
82.0161181471853
 31
0.0
  0
LINE
  5
12EA
330
6B
100
AcDbEntity
  8
0
100
AcDbLine
 10
-564.0234872760506
 20
82.0161181471853
 30
0.0
 11
-562.997192276051
 21
83.8144251471853
 31
0.0
  0
LINE
  5
12EB
330
6B
100
AcDbEntity
  8
0
100
AcDbLine
 10
-504.9467592760509
 20
77.9904381471853
 30
0.0
 11
-504.4506542760508
 21
75.98019714718532
 31
0.0
  0
LINE
  5
12EC
330
6B
100
AcDbEntity
  8
0
100
AcDbLine
 10
-504.4506542760508
 20
75.98019714718532
 30
0.0
 11
-503.8751732760508
 21
77.96916914718531
 31
0.0
  0
LINE
  5
12ED
330
6B
100
AcDbEntity
  8
0
100
AcDbLine
 10
-361.5871862760509
 20
-17.23525085281468
 30
0.0
 11
-363.4186472760509
 21
-15.40645785281468
 31
0.0
  0
LINE
  5
12EE
330
6B
100
AcDbEntity
  8
0
100
AcDbLine
 10
-363.4186472760509
 20
-15.40645785281468
 30
0.0
 11
-362.746952276051
 21
-17.90596885281469
 31
0.0
  0
LINE
  5
12EF
330
6B
100
AcDbEntity
  8
0
100
AcDbLine
 10
-441.9887142760508
 20
-2.486609852814689
 30
0.0
 11
-440.6753242760508
 21
-4.590615852814688
 31
0.0
  0
LINE
  5
12F0
330
6B
100
AcDbEntity
  8
0
100
AcDbLine
 10
-440.6753242760508
 20
-4.590615852814688
 30
0.0
 11
-439.6100552760509
 21
-6.675286852814688
 31
0.0
  0
LINE
  5
12F1
330
6B
100
AcDbEntity
  8
0
100
AcDbLine
 10
-439.6100552760509
 20
-6.675286852814688
 30
0.0
 11
-439.0410262760509
 21
-8.72128785281469
 31
0.0
  0
LINE
  5
12F2
330
6B
100
AcDbEntity
  8
0
100
AcDbLine
 10
-439.0410262760509
 20
-8.72128785281469
 30
0.0
 11
-439.2163572760508
 21
-10.70928085281469
 31
0.0
  0
LINE
  5
12F3
330
6B
100
AcDbEntity
  8
0
100
AcDbLine
 10
-439.2163572760508
 20
-10.70928085281469
 30
0.0
 11
-440.5822822760509
 21
-13.19903585281469
 31
0.0
  0
LINE
  5
12F4
330
6B
100
AcDbEntity
  8
0
100
AcDbLine
 10
-440.5822822760509
 20
-13.19903585281469
 30
0.0
 11
-441.8843782760508
 21
-15.67269385281469
 31
0.0
  0
LINE
  5
12F5
330
6B
100
AcDbEntity
  8
0
100
AcDbLine
 10
-441.8843782760508
 20
-15.67269385281469
 30
0.0
 11
-441.9439772760508
 21
-17.54727085281469
 31
0.0
  0
LINE
  5
12F6
330
6B
100
AcDbEntity
  8
0
100
AcDbLine
 10
-441.9439772760508
 20
-17.54727085281469
 30
0.0
 11
-441.2657902760509
 21
-19.46208685281469
 31
0.0
  0
LINE
  5
12F7
330
6B
100
AcDbEntity
  8
0
100
AcDbLine
 10
-441.2657902760509
 20
-19.46208685281469
 30
0.0
 11
-440.0957462760509
 21
-21.40372685281469
 31
0.0
  0
LINE
  5
12F8
330
6B
100
AcDbEntity
  8
0
100
AcDbLine
 10
-440.0957462760509
 20
-21.40372685281469
 30
0.0
 11
-438.6797722760508
 21
-23.35877985281469
 31
0.0
  0
LINE
  5
12F9
330
6B
100
AcDbEntity
  8
0
100
AcDbLine
 10
-443.9602982760509
 20
-2.59068885281469
 30
0.0
 11
-442.6469082760508
 21
-4.69469485281469
 31
0.0
  0
LINE
  5
12FA
330
6B
100
AcDbEntity
  8
0
100
AcDbLine
 10
-442.6469082760508
 20
-4.69469485281469
 30
0.0
 11
-441.5816392760508
 21
-6.779365852814687
 31
0.0
  0
LINE
  5
12FB
330
6B
100
AcDbEntity
  8
0
100
AcDbLine
 10
-441.5816392760508
 20
-6.779365852814687
 30
0.0
 11
-441.0126102760508
 21
-8.825365852814689
 31
0.0
  0
LINE
  5
12FC
330
6B
100
AcDbEntity
  8
0
100
AcDbLine
 10
-441.0126102760508
 20
-8.825365852814689
 30
0.0
 11
-441.1879412760509
 21
-10.81335985281469
 31
0.0
  0
LINE
  5
12FD
330
6B
100
AcDbEntity
  8
0
100
AcDbLine
 10
-441.1879412760509
 20
-10.81335985281469
 30
0.0
 11
-442.5538662760509
 21
-13.30311485281469
 31
0.0
  0
LINE
  5
12FE
330
6B
100
AcDbEntity
  8
0
100
AcDbLine
 10
-442.5538662760509
 20
-13.30311485281469
 30
0.0
 11
-443.8559622760508
 21
-15.77677285281469
 31
0.0
  0
LINE
  5
12FF
330
6B
100
AcDbEntity
  8
0
100
AcDbLine
 10
-443.8559622760508
 20
-15.77677285281469
 30
0.0
 11
-443.9155612760508
 21
-17.65134985281469
 31
0.0
  0
LINE
  5
1300
330
6B
100
AcDbEntity
  8
0
100
AcDbLine
 10
-443.9155612760508
 20
-17.65134985281469
 30
0.0
 11
-443.237374276051
 21
-19.56616485281468
 31
0.0
  0
LINE
  5
1301
330
6B
100
AcDbEntity
  8
0
100
AcDbLine
 10
-443.237374276051
 20
-19.56616485281468
 30
0.0
 11
-442.0673302760508
 21
-21.5078058528147
 31
0.0
  0
LINE
  5
1302
330
6B
100
AcDbEntity
  8
0
100
AcDbLine
 10
-442.0673302760508
 20
-21.5078058528147
 30
0.0
 11
-440.6513562760508
 21
-23.46285885281469
 31
0.0
  0
LINE
  5
1303
330
6B
100
AcDbEntity
  8
0
100
AcDbLine
 10
-638.594006276051
 20
-12.89719185281469
 30
0.0
 11
-638.594006276051
 21
12.09147614718531
 31
0.0
  0
LINE
  5
1304
330
6B
100
AcDbEntity
  8
0
100
AcDbLine
 10
-550.6306802760508
 20
-8.382275852814688
 30
0.0
 11
-550.6306802760508
 21
12.09147614718531
 31
0.0
  0
LINE
  5
1305
330
6B
100
AcDbEntity
  8
0
100
AcDbLine
 10
-636.0940062760509
 20
10.84147614718531
 30
0.0
 11
-553.1306802760508
 21
10.84147614718531
 31
0.0
  0
LINE
  5
1309
330
6B
100
AcDbEntity
  8
0
100
AcDbLine
 10
-601.838956276051
 20
38.51125814718531
 30
0.0
 11
-649.4267492760508
 21
38.51125814718532
 31
0.0
  0
LINE
  5
130A
330
6B
100
AcDbEntity
  8
0
100
AcDbLine
 10
-592.2260052760508
 20
120.2481301471853
 30
0.0
 11
-649.4267492760508
 21
120.2481301471853
 31
0.0
  0
LINE
  5
130B
330
6B
100
AcDbEntity
  8
0
100
AcDbLine
 10
-648.1767492760508
 20
41.01125814718531
 30
0.0
 11
-648.1767492760508
 21
117.7481301471853
 31
0.0
  0
LINE
  5
130F
330
6B
100
AcDbEntity
  8
0
100
AcDbLine
 10
-590.8608222103896
 20
55.73356456831266
 30
0.0
 11
-612.3170913417127
 21
95.28895072605797
 31
0.0
  0
LINE
  5
1313
330
6B
100
AcDbEntity
  8
0
100
AcDbLine
 10
-428.4198622760508
 20
73.70658514718532
 30
0.0
 11
-421.0133812760508
 21
73.70658514718532
 31
0.0
  0
LINE
  5
1314
330
6B
100
AcDbEntity
  8
0
100
AcDbLine
 10
-428.696729276051
 20
76.70658514718532
 30
0.0
 11
-421.0133812760508
 21
76.70658514718532
 31
0.0
  0
LINE
  5
1315
330
6B
100
AcDbEntity
  8
0
100
AcDbLine
 10
-422.2633812760508
 20
71.20658514718532
 30
0.0
 11
-422.2633812760508
 21
68.70658514718532
 31
0.0
  0
LINE
  5
1316
330
6B
100
AcDbEntity
  8
0
100
AcDbLine
 10
-422.2633812760508
 20
79.20658514718532
 30
0.0
 11
-422.2633812760508
 21
87.95658514718532
 31
0.0
  0
LINE
  5
1317
330
6B
100
AcDbEntity
  8
0
100
AcDbLine
 10
-422.2633812760508
 20
73.70658514718532
 30
0.0
 11
-422.2633812760508
 21
76.70658514718532
 31
0.0
  0
LINE
  5
131B
330
6B
100
AcDbEntity
  8
0
100
AcDbLine
 10
-384.654626276051
 20
-20.55691585281469
 30
0.0
 11
-375.6100827901123
 21
-20.55691585281469
 31
0.0
  0
LINE
  5
131C
330
6B
100
AcDbEntity
  8
0
100
AcDbLine
 10
-384.4222952760509
 20
-5.467382852814688
 30
0.0
 11
-375.6100827901123
 21
-5.467382852814691
 31
0.0
  0
LINE
  5
131D
330
6B
100
AcDbEntity
  8
0
100
AcDbLine
 10
-376.8600827901123
 20
-2.967382852814691
 30
0.0
 11
-376.8600827901123
 21
-0.4673828528146914
 31
0.0
  0
LINE
  5
131E
330
6B
100
AcDbEntity
  8
0
100
AcDbLine
 10
-376.8600827901123
 20
-23.05691585281469
 30
0.0
 11
-376.8600827901123
 21
-31.18191585281463
 31
0.0
  0
LINE
  5
131F
330
6B
100
AcDbEntity
  8
0
100
AcDbLine
 10
-376.8600827901123
 20
-5.467382852814691
 30
0.0
 11
-376.8600827901123
 21
-20.55691585281469
 31
0.0
  0
LINE
  5
1323
330
6B
100
AcDbEntity
  8
0
100
AcDbLine
 10
-550.5643242760509
 20
-8.292296852814686
 30
0.0
 11
-550.5643242760509
 21
12.09147614718531
 31
0.0
  0
LINE
  5
1324
330
6B
100
AcDbEntity
  8
0
100
AcDbLine
 10
-304.782558276051
 20
-2.259734852814688
 30
0.0
 11
-304.782558276051
 21
12.09147614718531
 31
0.0
  0
LINE
  5
1325
330
6B
100
AcDbEntity
  8
0
100
AcDbLine
 10
-548.0643242760509
 20
10.84147614718531
 30
0.0
 11
-307.2825582760509
 21
10.84147614718531
 31
0.0
  0
LINE
  5
1329
330
6B
100
AcDbEntity
  8
0
100
AcDbLine
 10
-306.032558276051
 20
-25.0097348528147
 30
0.0
 11
-295.0580612760509
 21
-25.0097348528147
 31
0.0
  0
LINE
  5
132A
330
6B
100
AcDbEntity
  8
0
100
AcDbLine
 10
-306.032558276051
 20
-1.009734852814689
 30
0.0
 11
-295.0580612760509
 21
-1.009734852814692
 31
0.0
  0
LINE
  5
132B
330
6B
100
AcDbEntity
  8
0
100
AcDbLine
 10
-296.3080612760509
 20
-22.5097348528147
 30
0.0
 11
-296.3080612760509
 21
-3.509734852814692
 31
0.0
  0
LINE
  5
132F
330
6B
100
AcDbEntity
  8
0
100
AcDbLine
 10
-304.380102276051
 20
74.45435414718531
 30
0.0
 11
-293.103563276051
 21
74.45435414718531
 31
0.0
  0
LINE
  5
1330
330
6B
100
AcDbEntity
  8
0
100
AcDbLine
 10
-305.3776022760509
 20
84.45435414718531
 30
0.0
 11
-293.103563276051
 21
84.45435414718531
 31
0.0
  0
LINE
  5
1331
330
6B
100
AcDbEntity
  8
0
100
AcDbLine
 10
-294.353563276051
 20
76.95435414718531
 30
0.0
 11
-294.353563276051
 21
81.95435414718531
 31
0.0
  0
LINE
  5
1335
330
6B
100
AcDbEntity
  8
0
 62
     3
100
AcDbLine
 10
-477.560453236051
 20
145.3279766871852
 30
0.0
 11
-477.587063986051
 21
145.4983592071853
 31
0.0
  0
LINE
  5
1336
330
6B
100
AcDbEntity
  8
0
 62
     3
100
AcDbLine
 10
-477.587063986051
 20
145.4983592071853
 30
0.0
 11
-477.619022816051
 21
145.6615088971853
 31
0.0
  0
LINE
  5
1337
330
6B
100
AcDbEntity
  8
0
 62
     3
100
AcDbLine
 10
-477.619022816051
 20
145.6615088971853
 30
0.0
 11
-477.6560827160509
 21
145.8161646971853
 31
0.0
  0
LINE
  5
1338
330
6B
100
AcDbEntity
  8
0
 62
     3
100
AcDbLine
 10
-477.6560827160509
 20
145.8161646971853
 30
0.0
 11
-477.6979572160511
 21
145.9611311971853
 31
0.0
  0
LINE
  5
1339
330
6B
100
AcDbEntity
  8
0
 62
     3
100
AcDbLine
 10
-477.6979572160511
 20
145.9611311971853
 30
0.0
 11
-477.744322646051
 21
146.0952878871853
 31
0.0
  0
LINE
  5
133A
330
6B
100
AcDbEntity
  8
0
 62
     3
100
AcDbLine
 10
-477.744322646051
 20
146.0952878871853
 30
0.0
 11
-477.7948206360511
 21
146.2175977871852
 31
0.0
  0
LINE
  5
133B
330
6B
100
AcDbEntity
  8
0
 62
     3
100
AcDbLine
 10
-477.7948206360511
 20
146.2175977871852
 30
0.0
 11
-477.849060856051
 21
146.3271155271852
 31
0.0
  0
LINE
  5
133C
330
6B
100
AcDbEntity
  8
0
 62
     3
100
AcDbLine
 10
-477.849060856051
 20
146.3271155271852
 30
0.0
 11
-477.9066240560511
 21
146.4229945771852
 31
0.0
  0
LINE
  5
133D
330
6B
100
AcDbEntity
  8
0
 62
     3
100
AcDbLine
 10
-477.9066240560511
 20
146.4229945771852
 30
0.0
 11
-477.967065306051
 21
146.5044938471852
 31
0.0
  0
LINE
  5
133E
330
6B
100
AcDbEntity
  8
0
 62
     3
100
AcDbLine
 10
-477.967065306051
 20
146.5044938471852
 30
0.0
 11
-478.029917426051
 21
146.5709833871851
 31
0.0
  0
LINE
  5
133F
330
6B
100
AcDbEntity
  8
0
 62
     3
100
AcDbLine
 10
-478.029917426051
 20
146.5709833871851
 30
0.0
 11
-478.094694606051
 21
146.6219492671853
 31
0.0
  0
LINE
  5
1340
330
6B
100
AcDbEntity
  8
0
 62
     3
100
AcDbLine
 10
-478.094694606051
 20
146.6219492671853
 30
0.0
 11
-478.160896136051
 21
146.6569975471852
 31
0.0
  0
LINE
  5
1341
330
6B
100
AcDbEntity
  8
0
 62
     3
100
AcDbLine
 10
-478.160896136051
 20
146.6569975471852
 30
0.0
 11
-478.228010326051
 21
146.6758573171853
 31
0.0
  0
LINE
  5
1342
330
6B
100
AcDbEntity
  8
0
 62
     3
100
AcDbLine
 10
-478.228010326051
 20
146.6758573171853
 30
0.0
 11
-478.2955184160511
 21
146.6783828171852
 31
0.0
  0
LINE
  5
1343
330
6B
100
AcDbEntity
  8
0
 62
     3
100
AcDbLine
 10
-478.2955184160511
 20
146.6783828171852
 30
0.0
 11
-478.362898606051
 21
146.6645545071852
 31
0.0
  0
LINE
  5
1344
330
6B
100
AcDbEntity
  8
0
 62
     3
100
AcDbLine
 10
-478.362898606051
 20
146.6645545071852
 30
0.0
 11
-478.429630076051
 21
146.6344792771852
 31
0.0
  0
LINE
  5
1345
330
6B
100
AcDbEntity
  8
0
 62
     3
100
AcDbLine
 10
-478.429630076051
 20
146.6344792771852
 30
0.0
 11
-478.495197016051
 21
146.5883896071852
 31
0.0
  0
LINE
  5
1346
330
6B
100
AcDbEntity
  8
0
 62
     3
100
AcDbLine
 10
-478.495197016051
 20
146.5883896071852
 30
0.0
 11
-478.559092656051
 21
146.5266417271853
 31
0.0
  0
LINE
  5
1347
330
6B
100
AcDbEntity
  8
0
 62
     3
100
AcDbLine
 10
-478.559092656051
 20
146.5266417271853
 30
0.0
 11
-478.620823086051
 21
146.4497129371852
 31
0.0
  0
LINE
  5
1348
330
6B
100
AcDbEntity
  8
0
 62
     3
100
AcDbLine
 10
-478.620823086051
 20
146.4497129371852
 30
0.0
 11
-478.679911176051
 21
146.3581978371853
 31
0.0
  0
LINE
  5
1349
330
6B
100
AcDbEntity
  8
0
 62
     3
100
AcDbLine
 10
-478.679911176051
 20
146.3581978371853
 30
0.0
 11
-478.735900206051
 21
146.2528038071853
 31
0.0
  0
LINE
  5
134A
330
6B
100
AcDbEntity
  8
0
 62
     3
100
AcDbLine
 10
-478.735900206051
 20
146.2528038071853
 30
0.0
 11
-478.7883574060511
 21
146.1343454771853
 31
0.0
  0
LINE
  5
134B
330
6B
100
AcDbEntity
  8
0
 62
     3
100
AcDbLine
 10
-478.7883574060511
 20
146.1343454771853
 30
0.0
 11
-478.836877306051
 21
146.0037384671852
 31
0.0
  0
LINE
  5
134C
330
6B
100
AcDbEntity
  8
0
 62
     3
100
AcDbLine
 10
-478.836877306051
 20
146.0037384671852
 30
0.0
 11
-478.8810848860511
 21
145.8619923171852
 31
0.0
  0
LINE
  5
134D
330
6B
100
AcDbEntity
  8
0
 62
     3
100
AcDbLine
 10
-478.8810848860511
 20
145.8619923171852
 30
0.0
 11
-478.920638426051
 21
145.7102026471853
 31
0.0
  0
LINE
  5
134E
330
6B
100
AcDbEntity
  8
0
 62
     3
100
AcDbLine
 10
-478.920638426051
 20
145.7102026471853
 30
0.0
 11
-478.955232206051
 21
145.5495427071853
 31
0.0
  0
LINE
  5
134F
330
6B
100
AcDbEntity
  8
0
 62
     3
100
AcDbLine
 10
-478.955232206051
 20
145.5495427071853
 30
0.0
 11
-478.984598836051
 21
145.3812543171852
 31
0.0
  0
LINE
  5
1350
330
6B
100
AcDbEntity
  8
0
 62
     3
100
AcDbLine
 10
-478.984598836051
 20
145.3812543171852
 30
0.0
 11
-479.0085113260508
 21
145.2066382571853
 31
0.0
  0
LINE
  5
1351
330
6B
100
AcDbEntity
  8
0
 62
     3
100
AcDbLine
 10
-479.0085113260508
 20
145.2066382571853
 30
0.0
 11
-479.026784836051
 21
145.0270442271853
 31
0.0
  0
LINE
  5
1352
330
6B
100
AcDbEntity
  8
0
 62
     3
100
AcDbLine
 10
-479.026784836051
 20
145.0270442271853
 30
0.0
 11
-479.039278136051
 21
144.8438603871852
 31
0.0
  0
LINE
  5
1353
330
6B
100
AcDbEntity
  8
0
 62
     3
100
AcDbLine
 10
-479.039278136051
 20
144.8438603871852
 30
0.0
 11
-479.045894646051
 21
144.6585026671853
 31
0.0
  0
LINE
  5
1354
330
6B
100
AcDbEntity
  8
0
 62
     3
100
AcDbLine
 10
-479.045894646051
 20
144.6585026671853
 30
0.0
 11
-479.0465832360511
 21
144.4724037671852
 31
0.0
  0
LINE
  5
1355
330
6B
100
AcDbEntity
  8
0
 62
     3
100
AcDbLine
 10
-479.0465832360511
 20
144.4724037671852
 30
0.0
 11
-479.041338576051
 21
144.2870021571852
 31
0.0
  0
LINE
  5
1356
330
6B
100
AcDbEntity
  8
0
 62
     3
100
AcDbLine
 10
-479.041338576051
 20
144.2870021571852
 30
0.0
 11
-479.030201206051
 21
144.1037308871853
 31
0.0
  0
LINE
  5
1357
330
6B
100
AcDbEntity
  8
0
 62
     3
100
AcDbLine
 10
-479.030201206051
 20
144.1037308871853
 30
0.0
 11
-479.013257206051
 21
143.9240065471853
 31
0.0
  0
LINE
  5
1358
330
6B
100
AcDbEntity
  8
0
 62
     3
100
AcDbLine
 10
-479.013257206051
 20
143.9240065471853
 30
0.0
 11
-478.990637556051
 21
143.7492183171853
 31
0.0
  0
LINE
  5
1359
330
6B
100
AcDbEntity
  8
0
 62
     3
100
AcDbLine
 10
-478.990637556051
 20
143.7492183171853
 30
0.0
 11
-478.962517086051
 21
143.5807172171853
 31
0.0
  0
LINE
  5
135A
330
6B
100
AcDbEntity
  8
0
 62
     3
100
AcDbLine
 10
-478.962517086051
 20
143.5807172171853
 30
0.0
 11
-478.929113156051
 21
143.4198056771853
 31
0.0
  0
LINE
  5
135B
330
6B
100
AcDbEntity
  8
0
 62
     3
100
AcDbLine
 10
-478.929113156051
 20
143.4198056771853
 30
0.0
 11
-478.8906839560508
 21
143.2677274571853
 31
0.0
  0
LINE
  5
135C
330
6B
100
AcDbEntity
  8
0
 62
     3
100
AcDbLine
 10
-478.8906839560508
 20
143.2677274571853
 30
0.0
 11
-478.847526536051
 21
143.1256580471853
 31
0.0
  0
LINE
  5
135D
330
6B
100
AcDbEntity
  8
0
 62
     3
100
AcDbLine
 10
-478.847526536051
 20
143.1256580471853
 30
0.0
 11
-478.7999744660511
 21
142.9946955671853
 31
0.0
  0
LINE
  5
135E
330
6B
100
AcDbEntity
  8
0
 62
     3
100
AcDbLine
 10
-478.7999744660511
 20
142.9946955671853
 30
0.0
 11
-478.748395316051
 21
142.8758522871853
 31
0.0
  0
LINE
  5
135F
330
6B
100
AcDbEntity
  8
0
 62
     3
100
AcDbLine
 10
-478.748395316051
 20
142.8758522871853
 30
0.0
 11
-478.693187746051
 21
142.7700468171853
 31
0.0
  0
LINE
  5
1360
330
6B
100
AcDbEntity
  8
0
 62
     3
100
AcDbLine
 10
-478.693187746051
 20
142.7700468171853
 30
0.0
 11
-478.634778496051
 21
142.6780969571853
 31
0.0
  0
LINE
  5
1361
330
6B
100
AcDbEntity
  8
0
 62
     3
100
AcDbLine
 10
-478.634778496051
 20
142.6780969571853
 30
0.0
 11
-478.5736190360511
 21
142.6007134571853
 31
0.0
  0
LINE
  5
1362
330
6B
100
AcDbEntity
  8
0
 62
     3
100
AcDbLine
 10
-478.5736190360511
 20
142.6007134571853
 30
0.0
 11
-478.510182096051
 21
142.5384944371852
 31
0.0
  0
LINE
  5
1363
330
6B
100
AcDbEntity
  8
0
 62
     3
100
AcDbLine
 10
-478.510182096051
 20
142.5384944371852
 30
0.0
 11
-478.444958016051
 21
142.4919208271852
 31
0.0
  0
LINE
  5
1364
330
6B
100
AcDbEntity
  8
0
 62
     3
100
AcDbLine
 10
-478.444958016051
 20
142.4919208271852
 30
0.0
 11
-478.378450936051
 21
142.4613525971853
 31
0.0
  0
LINE
  5
1365
330
6B
100
AcDbEntity
  8
0
 62
     3
100
AcDbLine
 10
-478.378450936051
 20
142.4613525971853
 30
0.0
 11
-478.3111749260511
 21
142.4470260471853
 31
0.0
  0
LINE
  5
1366
330
6B
100
AcDbEntity
  8
0
 62
     3
100
AcDbLine
 10
-478.3111749260511
 20
142.4470260471853
 30
0.0
 11
-478.243649996051
 21
142.4490519071853
 31
0.0
  0
LINE
  5
1367
330
6B
100
AcDbEntity
  8
0
 62
     3
100
AcDbLine
 10
-478.243649996051
 20
142.4490519071853
 30
0.0
 11
-478.176398076051
 21
142.4674145071852
 31
0.0
  0
LINE
  5
1368
330
6B
100
AcDbEntity
  8
0
 62
     3
100
AcDbLine
 10
-478.176398076051
 20
142.4674145071852
 30
0.0
 11
-478.109938996051
 21
142.5019719271853
 31
0.0
  0
LINE
  5
1369
330
6B
100
AcDbEntity
  8
0
 62
     3
100
AcDbLine
 10
-478.109938996051
 20
142.5019719271853
 30
0.0
 11
-478.044786436051
 21
142.5524570571853
 31
0.0
  0
LINE
  5
136A
330
6B
100
AcDbEntity
  8
0
 62
     3
100
AcDbLine
 10
-478.044786436051
 20
142.5524570571853
 30
0.0
 11
-477.9814440060511
 21
142.6184796571853
 31
0.0
  0
LINE
  5
136B
330
6B
100
AcDbEntity
  8
0
 62
     3
100
AcDbLine
 10
-477.9814440060511
 20
142.6184796571853
 30
0.0
 11
-477.920401306051
 21
142.6995294171853
 31
0.0
  0
LINE
  5
136C
330
6B
100
AcDbEntity
  8
0
 62
     3
100
AcDbLine
 10
-477.920401306051
 20
142.6995294171853
 30
0.0
 11
-477.8621301660511
 21
142.7949798671852
 31
0.0
  0
LINE
  5
136D
330
6B
100
AcDbEntity
  8
0
 62
     3
100
AcDbLine
 10
-477.8621301660511
 20
142.7949798671852
 30
0.0
 11
-477.8070809860511
 21
142.9040932271853
 31
0.0
  0
LINE
  5
136E
330
6B
100
AcDbEntity
  8
0
 62
     3
100
AcDbLine
 10
-477.8070809860511
 20
142.9040932271853
 30
0.0
 11
-477.7556792660511
 21
143.0260260871853
 31
0.0
  0
LINE
  5
136F
330
6B
100
AcDbEntity
  8
0
 62
     3
100
AcDbLine
 10
-477.7556792660511
 20
143.0260260871853
 30
0.0
 11
-477.708322326051
 21
143.1598359971852
 31
0.0
  0
LINE
  5
1370
330
6B
100
AcDbEntity
  8
0
 62
     3
100
AcDbLine
 10
-477.708322326051
 20
143.1598359971852
 30
0.0
 11
-477.6653762060511
 21
143.3044886471853
 31
0.0
  0
LINE
  5
1371
330
6B
100
AcDbEntity
  8
0
 62
     3
100
AcDbLine
 10
-477.6653762060511
 20
143.3044886471853
 30
0.0
 11
-477.627172856051
 21
143.4588659671852
 31
0.0
  0
LINE
  5
1372
330
6B
100
AcDbEntity
  8
0
 62
     3
100
AcDbLine
 10
-477.627172856051
 20
143.4588659671852
 30
0.0
 11
-477.5940075660511
 21
143.6217746971853
 31
0.0
  0
LINE
  5
1373
330
6B
100
AcDbEntity
  8
0
 62
     3
100
AcDbLine
 10
-477.5940075660511
 20
143.6217746971853
 30
0.0
 11
-477.5661366860511
 21
143.7919556271853
 31
0.0
  0
TEXT
  5
1374
330
6B
100
AcDbEntity
  8
0
 62
     4
100
AcDbText
 10
-597.1123432760509
 20
11.46647614718531
 30
0.0
 40
3.0
  1
88
100
AcDbText
  0
LINE
  5
1375
330
6B
100
AcDbEntity
  8
0
  6
ByBlock
 62
     0
370
    -2
100
AcDbLine
 10
-553.1306802760508
 20
11.51134864718531
 30
0.0
 11
-550.6306802760508
 21
10.84147614718531
 31
0.0
  0
LINE
  5
1376
330
6B
100
AcDbEntity
  8
0
  6
ByBlock
 62
     0
370
    -2
100
AcDbLine
 10
-550.6306802760508
 20
10.84147614718531
 30
0.0
 11
-553.1306802760508
 21
10.17160364718531
 31
0.0
  0
LINE
  5
1377
330
6B
100
AcDbEntity
  8
0
  6
ByBlock
 62
     0
370
    -2
100
AcDbLine
 10
-550.6306802760508
 20
10.84147614718531
 30
0.0
 11
-553.1306802760508
 21
10.84147614718531
 31
0.0
  0
LINE
  5
1378
330
6B
100
AcDbEntity
  8
0
  6
ByBlock
 62
     0
370
    -2
100
AcDbLine
 10
-636.0940062760509
 20
10.17160364718531
 30
0.0
 11
-638.594006276051
 21
10.84147614718531
 31
0.0
  0
LINE
  5
1379
330
6B
100
AcDbEntity
  8
0
  6
ByBlock
 62
     0
370
    -2
100
AcDbLine
 10
-638.594006276051
 20
10.84147614718531
 30
0.0
 11
-636.0940062760509
 21
11.51134864718531
 31
0.0
  0
LINE
  5
137A
330
6B
100
AcDbEntity
  8
0
  6
ByBlock
 62
     0
370
    -2
100
AcDbLine
 10
-638.594006276051
 20
10.84147614718531
 30
0.0
 11
-636.0940062760509
 21
10.84147614718531
 31
0.0
  0
TEXT
  5
137B
330
6B
100
AcDbEntity
  8
0
 62
     4
100
AcDbText
 10
-648.8017492760508
 20
76.87969414718522
 30
0.0
 40
3.0
  1
82
 50
90.0
100
AcDbText
  0
LINE
  5
137C
330
6B
100
AcDbEntity
  8
0
  6
ByBlock
 62
     0
370
    -2
100
AcDbLine
 10
-648.8466217760508
 20
117.7481301471853
 30
0.0
 11
-648.1767492760508
 21
120.2481301471853
 31
0.0
  0
LINE
  5
137D
330
6B
100
AcDbEntity
  8
0
  6
ByBlock
 62
     0
370
    -2
100
AcDbLine
 10
-648.1767492760508
 20
120.2481301471853
 30
0.0
 11
-647.5068767760508
 21
117.7481301471853
 31
0.0
  0
LINE
  5
137E
330
6B
100
AcDbEntity
  8
0
  6
ByBlock
 62
     0
370
    -2
100
AcDbLine
 10
-648.1767492760508
 20
120.2481301471853
 30
0.0
 11
-648.1767492760508
 21
117.7481301471853
 31
0.0
  0
LINE
  5
137F
330
6B
100
AcDbEntity
  8
0
  6
ByBlock
 62
     0
370
    -2
100
AcDbLine
 10
-647.5068767760508
 20
41.01125814718531
 30
0.0
 11
-648.1767492760508
 21
38.51125814718532
 31
0.0
  0
LINE
  5
1380
330
6B
100
AcDbEntity
  8
0
  6
ByBlock
 62
     0
370
    -2
100
AcDbLine
 10
-648.1767492760508
 20
38.51125814718532
 30
0.0
 11
-648.8466217760508
 21
41.01125814718531
 31
0.0
  0
LINE
  5
1381
330
6B
100
AcDbEntity
  8
0
  6
ByBlock
 62
     0
370
    -2
100
AcDbLine
 10
-648.1767492760508
 20
38.51125814718532
 30
0.0
 11
-648.1767492760508
 21
41.01125814718531
 31
0.0
  0
TEXT
  5
1382
330
6B
100
AcDbEntity
  8
0
 62
     4
100
AcDbText
 10
-602.8275988222771
 20
79.10554351246108
 30
0.0
 40
3.0
  1
\U+220550
 50
298.4770020669826
100
AcDbText
  0
LINE
  5
1383
330
6B
100
AcDbEntity
  8
0
  6
ByBlock
 62
     0
370
    -2
100
AcDbLine
 10
-612.9059150089823
 20
94.96955151641685
 30
0.0
 11
-613.5091062760511
 21
97.48647214718538
 31
0.0
  0
LINE
  5
1384
330
6B
100
AcDbEntity
  8
0
  6
ByBlock
 62
     0
370
    -2
100
AcDbLine
 10
-613.5091062760511
 20
97.48647214718538
 30
0.0
 11
-611.728267674443
 21
95.60834993569898
 31
0.0
  0
LINE
  5
1385
330
6B
100
AcDbEntity
  8
0
  6
ByBlock
 62
     0
370
    -2
100
AcDbLine
 10
-613.5091062760511
 20
97.48647214718538
 30
0.0
 11
-612.3170913417127
 21
95.28895072605791
 31
0.0
  0
LINE
  5
1386
330
6B
100
AcDbEntity
  8
0
  6
ByBlock
 62
     0
370
    -2
100
AcDbLine
 10
-590.27199854312
 20
56.05296377795376
 30
0.0
 11
-589.6688072760512
 21
53.53604314718523
 31
0.0
  0
LINE
  5
1387
330
6B
100
AcDbEntity
  8
0
  6
ByBlock
 62
     0
370
    -2
100
AcDbLine
 10
-589.6688072760512
 20
53.53604314718523
 30
0.0
 11
-591.4496458776593
 21
55.41416535867163
 31
0.0
  0
LINE
  5
1388
330
6B
100
AcDbEntity
  8
0
  6
ByBlock
 62
     0
370
    -2
100
AcDbLine
 10
-589.6688072760512
 20
53.53604314718523
 30
0.0
 11
-590.8608222103896
 21
55.7335645683127
 31
0.0
  0
TEXT
  5
1389
330
6B
100
AcDbEntity
  8
0
 62
     4
100
AcDbText
 10
-422.8883812760509
 20
82.33158514718525
 30
0.0
 40
3.0
  1
2t
 50
90.0
100
AcDbText
  0
LINE
  5
138A
330
6B
100
AcDbEntity
  8
0
  6
ByBlock
 62
     0
370
    -2
100
AcDbLine
 10
-421.5935087760509
 20
79.20658514718532
 30
0.0
 11
-422.2633812760508
 21
76.70658514718532
 31
0.0
  0
LINE
  5
138B
330
6B
100
AcDbEntity
  8
0
  6
ByBlock
 62
     0
370
    -2
100
AcDbLine
 10
-422.2633812760508
 20
76.70658514718532
 30
0.0
 11
-422.9332537760509
 21
79.20658514718532
 31
0.0
  0
LINE
  5
138C
330
6B
100
AcDbEntity
  8
0
  6
ByBlock
 62
     0
370
    -2
100
AcDbLine
 10
-422.2633812760508
 20
76.70658514718532
 30
0.0
 11
-422.2633812760508
 21
79.20658514718532
 31
0.0
  0
LINE
  5
138D
330
6B
100
AcDbEntity
  8
0
  6
ByBlock
 62
     0
370
    -2
100
AcDbLine
 10
-422.9332537760509
 20
71.20658514718532
 30
0.0
 11
-422.2633812760508
 21
73.70658514718532
 31
0.0
  0
LINE
  5
138E
330
6B
100
AcDbEntity
  8
0
  6
ByBlock
 62
     0
370
    -2
100
AcDbLine
 10
-422.2633812760508
 20
73.70658514718532
 30
0.0
 11
-421.5935087760509
 21
71.20658514718532
 31
0.0
  0
LINE
  5
138F
330
6B
100
AcDbEntity
  8
0
  6
ByBlock
 62
     0
370
    -2
100
AcDbLine
 10
-422.2633812760508
 20
73.70658514718532
 30
0.0
 11
-422.2633812760508
 21
71.20658514718532
 31
0.0
  0
TEXT
  5
1390
330
6B
100
AcDbEntity
  8
0
 62
     4
100
AcDbText
 10
-377.4850827901123
 20
-30.55691585281469
 30
0.0
 40
3.0
  1
15
 50
90.0
100
AcDbText
  0
LINE
  5
1391
330
6B
100
AcDbEntity
  8
0
  6
ByBlock
 62
     0
370
    -2
100
AcDbLine
 10
-377.5299552901123
 20
-23.05691585281469
 30
0.0
 11
-376.8600827901123
 21
-20.55691585281469
 31
0.0
  0
LINE
  5
1392
330
6B
100
AcDbEntity
  8
0
  6
ByBlock
 62
     0
370
    -2
100
AcDbLine
 10
-376.8600827901123
 20
-20.55691585281469
 30
0.0
 11
-376.1902102901123
 21
-23.05691585281469
 31
0.0
  0
LINE
  5
1393
330
6B
100
AcDbEntity
  8
0
  6
ByBlock
 62
     0
370
    -2
100
AcDbLine
 10
-376.8600827901123
 20
-20.55691585281469
 30
0.0
 11
-376.8600827901123
 21
-23.05691585281469
 31
0.0
  0
LINE
  5
1394
330
6B
100
AcDbEntity
  8
0
  6
ByBlock
 62
     0
370
    -2
100
AcDbLine
 10
-376.1902102901123
 20
-2.967382852814691
 30
0.0
 11
-376.8600827901123
 21
-5.467382852814691
 31
0.0
  0
LINE
  5
1395
330
6B
100
AcDbEntity
  8
0
  6
ByBlock
 62
     0
370
    -2
100
AcDbLine
 10
-376.8600827901123
 20
-5.467382852814691
 30
0.0
 11
-377.5299552901123
 21
-2.967382852814691
 31
0.0
  0
LINE
  5
1396
330
6B
100
AcDbEntity
  8
0
  6
ByBlock
 62
     0
370
    -2
100
AcDbLine
 10
-376.8600827901123
 20
-5.467382852814691
 30
0.0
 11
-376.8600827901123
 21
-2.967382852814691
 31
0.0
  0
TEXT
  5
1397
330
6B
100
AcDbEntity
  8
0
 62
     4
100
AcDbText
 10
-432.3734412760509
 20
11.46647614718531
 30
0.0
 40
3.0
  1
L寸法
100
AcDbText
  0
LINE
  5
1398
330
6B
100
AcDbEntity
  8
0
  6
ByBlock
 62
     0
370
    -2
100
AcDbLine
 10
-307.2825582760509
 20
11.51134864718531
 30
0.0
 11
-304.782558276051
 21
10.84147614718531
 31
0.0
  0
LINE
  5
1399
330
6B
100
AcDbEntity
  8
0
  6
ByBlock
 62
     0
370
    -2
100
AcDbLine
 10
-304.782558276051
 20
10.84147614718531
 30
0.0
 11
-307.2825582760509
 21
10.17160364718531
 31
0.0
  0
LINE
  5
139A
330
6B
100
AcDbEntity
  8
0
  6
ByBlock
 62
     0
370
    -2
100
AcDbLine
 10
-304.782558276051
 20
10.84147614718531
 30
0.0
 11
-307.2825582760509
 21
10.84147614718531
 31
0.0
  0
LINE
  5
139B
330
6B
100
AcDbEntity
  8
0
  6
ByBlock
 62
     0
370
    -2
100
AcDbLine
 10
-548.0643242760509
 20
10.17160364718531
 30
0.0
 11
-550.5643242760509
 21
10.84147614718531
 31
0.0
  0
LINE
  5
139C
330
6B
100
AcDbEntity
  8
0
  6
ByBlock
 62
     0
370
    -2
100
AcDbLine
 10
-550.5643242760509
 20
10.84147614718531
 30
0.0
 11
-548.0643242760509
 21
11.51134864718531
 31
0.0
  0
LINE
  5
139D
330
6B
100
AcDbEntity
  8
0
  6
ByBlock
 62
     0
370
    -2
100
AcDbLine
 10
-550.5643242760509
 20
10.84147614718531
 30
0.0
 11
-548.0643242760509
 21
10.84147614718531
 31
0.0
  0
TEXT
  5
139E
330
6B
100
AcDbEntity
  8
0
 62
     4
100
AcDbText
 10
-296.9330612760509
 20
-15.50973485281474
 30
0.0
 40
3.0
  1
24
 50
90.0
100
AcDbText
  0
LINE
  5
139F
330
6B
100
AcDbEntity
  8
0
  6
ByBlock
 62
     0
370
    -2
100
AcDbLine
 10
-296.9779337760509
 20
-3.509734852814692
 30
0.0
 11
-296.3080612760509
 21
-1.009734852814692
 31
0.0
  0
LINE
  5
13A0
330
6B
100
AcDbEntity
  8
0
  6
ByBlock
 62
     0
370
    -2
100
AcDbLine
 10
-296.3080612760509
 20
-1.009734852814692
 30
0.0
 11
-295.6381887760509
 21
-3.509734852814692
 31
0.0
  0
LINE
  5
13A1
330
6B
100
AcDbEntity
  8
0
  6
ByBlock
 62
     0
370
    -2
100
AcDbLine
 10
-296.3080612760509
 20
-1.009734852814692
 30
0.0
 11
-296.3080612760509
 21
-3.509734852814692
 31
0.0
  0
LINE
  5
13A2
330
6B
100
AcDbEntity
  8
0
  6
ByBlock
 62
     0
370
    -2
100
AcDbLine
 10
-295.6381887760509
 20
-22.5097348528147
 30
0.0
 11
-296.3080612760509
 21
-25.0097348528147
 31
0.0
  0
LINE
  5
13A3
330
6B
100
AcDbEntity
  8
0
  6
ByBlock
 62
     0
370
    -2
100
AcDbLine
 10
-296.3080612760509
 20
-25.0097348528147
 30
0.0
 11
-296.9779337760509
 21
-22.5097348528147
 31
0.0
  0
LINE
  5
13A4
330
6B
100
AcDbEntity
  8
0
  6
ByBlock
 62
     0
370
    -2
100
AcDbLine
 10
-296.3080612760509
 20
-25.0097348528147
 30
0.0
 11
-296.3080612760509
 21
-22.5097348528147
 31
0.0
  0
TEXT
  5
13A5
330
6B
100
AcDbEntity
  8
0
 62
     4
100
AcDbText
 10
-294.978563276051
 20
77.70435414718526
 30
0.0
 40
3.0
  1
10
 50
90.0
100
AcDbText
  0
LINE
  5
13A6
330
6B
100
AcDbEntity
  8
0
  6
ByBlock
 62
     0
370
    -2
100
AcDbLine
 10
-295.023435776051
 20
81.95435414718531
 30
0.0
 11
-294.353563276051
 21
84.45435414718531
 31
0.0
  0
LINE
  5
13A7
330
6B
100
AcDbEntity
  8
0
  6
ByBlock
 62
     0
370
    -2
100
AcDbLine
 10
-294.353563276051
 20
84.45435414718531
 30
0.0
 11
-293.683690776051
 21
81.95435414718531
 31
0.0
  0
LINE
  5
13A8
330
6B
100
AcDbEntity
  8
0
  6
ByBlock
 62
     0
370
    -2
100
AcDbLine
 10
-294.353563276051
 20
84.45435414718531
 30
0.0
 11
-294.353563276051
 21
81.95435414718531
 31
0.0
  0
LINE
  5
13A9
330
6B
100
AcDbEntity
  8
0
  6
ByBlock
 62
     0
370
    -2
100
AcDbLine
 10
-293.683690776051
 20
76.95435414718531
 30
0.0
 11
-294.353563276051
 21
74.45435414718531
 31
0.0
  0
LINE
  5
13AA
330
6B
100
AcDbEntity
  8
0
  6
ByBlock
 62
     0
370
    -2
100
AcDbLine
 10
-294.353563276051
 20
74.45435414718531
 30
0.0
 11
-295.023435776051
 21
76.95435414718531
 31
0.0
  0
LINE
  5
13AB
330
6B
100
AcDbEntity
  8
0
  6
ByBlock
 62
     0
370
    -2
100
AcDbLine
 10
-294.353563276051
 20
74.45435414718531
 30
0.0
 11
-294.353563276051
 21
76.95435414718531
 31
0.0
  0
ENDSEC
  0
SECTION
  2
OBJECTS
  0
DICTIONARY
  5
C
330
0
100
AcDbDictionary
281
     1
  3
ACAD_2007HEADERVARS_RT
350
13AF
  3
ACAD_COLOR
350
62
  3
ACAD_GROUP
350
D
  3
ACAD_LAYOUT
350
61
  3
ACAD_MATERIAL
350
10
  3
ACAD_MLEADERSTYLE
350
65
  3
ACAD_MLINESTYLE
350
5E
  3
ACAD_PLOTSETTINGS
350
60
  3
ACAD_PLOTSTYLENAME
350
E
  3
ACAD_SCALELIST
350
42
  3
ACAD_TABLESTYLE
350
63
  3
ACAD_VISUALSTYLE
350
29
  3
ACDB_RECOMPOSE_DATA
350
13AD
  3
AcDbVariableDictionary
350
95C
  3
AEC_PROPERTY_SET_DEFS
350
D7E
  3
DWGPROPS
350
13AE
  0
DICTIONARY
  5
4BA
330
2
100
AcDbDictionary
280
     1
281
     1
  3
ACAD_LAYERSTATES
360
4BB
  0
DICTIONARY
  5
95A
330
54
100
AcDbDictionary
280
     1
281
     1
  3
ADSK_XREC_LAYER_RECONCILED
360
95B
  0
DICTIONARY
  5
90E
330
6B
100
AcDbDictionary
280
     1
281
     1
  3
ACAD_SORTENTS
360
90F
  0
DICTIONARY
  5
13E8
330
A2A
100
AcDbDictionary
280
     1
281
     1
  3
ACAD_MTEXT_RT
360
13E9
  0
DICTIONARY
  5
13EA
330
A85
100
AcDbDictionary
280
     1
281
     1
  3
ACAD_MTEXT_RT
360
13EB
  0
DICTIONARY
  5
13EC
330
10EF
100
AcDbDictionary
280
     1
281
     1
  3
ACAD_MTEXT_RT
360
13ED
  0
DICTIONARY
  5
13AF
102
{ACAD_REACTORS
330
C
102
}
330
C
100
AcDbDictionary
281
     1
  3
DIMARCSYM
350
13B1
  3
DIMFXL
350
13B0
  3
DIMJOGANG
350
13B2
  0
DICTIONARY
  5
62
102
{ACAD_REACTORS
330
C
102
}
330
C
100
AcDbDictionary
281
     1
  0
DICTIONARY
  5
D
102
{ACAD_REACTORS
330
C
102
}
330
C
100
AcDbDictionary
281
     1
  0
DICTIONARY
  5
61
102
{ACAD_REACTORS
330
C
102
}
330
C
100
AcDbDictionary
281
     1
  3
Model
350
6E
  3
レイアウト1
350
6A
  0
DICTIONARY
  5
10
102
{ACAD_REACTORS
330
C
102
}
330
C
100
AcDbDictionary
281
     1
  3
ByBlock
350
19
  3
ByLayer
350
11
  3
Global
350
21
  0
DICTIONARY
  5
65
102
{ACAD_REACTORS
330
C
102
}
330
C
100
AcDbDictionary
281
     1
  3
Standard
350
66
  0
DICTIONARY
  5
5E
102
{ACAD_REACTORS
330
C
102
}
330
C
100
AcDbDictionary
281
     1
  3
Standard
350
5F
  0
DICTIONARY
  5
60
102
{ACAD_REACTORS
330
C
102
}
330
C
100
AcDbDictionary
281
     1
  0
ACDBDICTIONARYWDFLT
  5
E
102
{ACAD_REACTORS
330
C
102
}
330
C
100
AcDbDictionary
281
     1
  3
Normal
350
F
100
AcDbDictionaryWithDefault
340
F
  0
DICTIONARY
  5
42
102
{ACAD_REACTORS
330
C
102
}
330
C
100
AcDbDictionary
281
     1
  3
A0
350
43
  3
A1
350
44
  3
A2
350
45
  3
A3
350
46
  3
A4
350
47
  3
A5
350
48
  3
A6
350
49
  3
A7
350
4A
  3
A8
350
4B
  3
A9
350
4C
  3
B0
350
4D
  3
B1
350
4E
  3
B2
350
4F
  3
B3
350
50
  3
B4
350
51
  3
B5
350
52
  3
B6
350
53
  0
DICTIONARY
  5
63
102
{ACAD_REACTORS
330
C
102
}
330
C
100
AcDbDictionary
281
     1
  3
Standard
350
64
  0
DICTIONARY
  5
29
102
{ACAD_REACTORS
330
C
102
}
330
C
100
AcDbDictionary
281
     1
  3
2dWireframe
350
2F
  3
Basic
350
2E
  3
Brighten
350
35
  3
ColorChange
350
39
  3
Conceptual
350
32
  3
Dim
350
34
  3
EdgeColorOff
350
41
  3
Facepattern
350
38
  3
Flat
350
2A
  3
FlatWithEdges
350
2B
  3
Gouraud
350
2C
  3
GouraudWithEdges
350
2D
  3
Hidden
350
31
  3
JitterOff
350
3F
  3
Linepattern
350
37
  3
OverhangOff
350
40
  3
Realistic
350
33
  3
Shaded
350
3E
  3
Shaded with edges
350
3D
  3
Shades of Gray
350
3A
  3
Sketchy
350
3B
  3
Thicken
350
36
  3
Wireframe
350
30
  3
X-Ray
350
3C
  0
XRECORD
  5
13AD
102
{ACAD_REACTORS
330
C
102
}
330
C
100
AcDbXrecord
280
     1
 90
        1
330
64
  0
DICTIONARY
  5
95C
102
{ACAD_REACTORS
330
C
102
}
330
C
100
AcDbDictionary
281
     1
  3
CANNOSCALE
350
95F
  3
CMLEADERSTYLE
350
95E
  3
CTABLESTYLE
350
95D
  3
DIMASSOC
350
962
  3
INDEXCTL
350
961
  3
SORTENTS
350
960
  3
XCLIPFRAME
350
1151
  0
DICTIONARY
  5
D7E
102
{ACAD_REACTORS
330
C
102
}
330
C
100
AcDbDictionary
281
     1
  0
XRECORD
  5
13AE
102
{ACAD_REACTORS
330
C
102
}
330
C
100
AcDbXrecord
280
     1
  1
DWGPROPS COOKIE
  2

  3

  4

  6

  7

  8
imamura
  9

300
=
301
=
302
=
303
=
304
=
305
=
306
=
307
=
308
=
309
=
 40
0.1099201736111111
 41
2456321.677099711
 42
2459793.734625289
  1

 90
        0
  0
DICTIONARY
  5
4BB
102
{ACAD_REACTORS
330
4BA
102
}
330
4BA
100
AcDbDictionary
281
     1
  0
XRECORD
  5
95B
102
{ACAD_REACTORS
330
95A
102
}
330
95A
100
AcDbXrecord
280
     1
290
     1
  0
SORTENTSTABLE
  5
90F
102
{ACAD_REACTORS
330
90E
102
}
330
90E
100
AcDbSortentsTable
330
6B
331
5D7
  5
8AB
331
5D3
  5
8A7
331
594
  5
867
331
50D
  5
686
331
138D
  5
636
331
1317
  5
635
331
134E
  5
53B
331
5CF
  5
8A3
331
590
  5
863
331
509
  5
682
331
1389
  5
63C
331
12D4
  5
1318
331
1313
  5
631
331
134A
  5
537
331
5CB
  5
89F
331
58C
  5
85F
331
505
  5
67E
331
1385
  5
643
331
12D0
  5
1314
331
130F
  5
63D
331
1346
  5
533
331
588
  5
85B
331
501
  5
67A
331
1381
  5
64A
331
12CC
  5
1310
331
130B
  5
647
331
1342
  5
52F
331
8DD
  5
5BE
331
12C8
  5
130C
331
686
  5
134F
331
64F
  5
12DA
331
855
  5
4D9
331
8D5
  5
5B7
331
682
  5
134B
331
64B
  5
12D6
331
60C
  5
1137
331
55D
  5
81B
331
8A7
  5
56D
331
851
  5
4D5
331
8D1
  5
5B3
331
67E
  5
1347
331
647
  5
12D2
331
608
  5
1133
331
559
  5
817
331
8A3
  5
569
331
84D
  5
4D1
331
67A
  5
1343
331
643
  5
12CE
331
604
  5
112F
331
555
  5
813
331
1137
  5
1396
331
89F
  5
565
331
849
  5
4CD
331
600
  5
112B
331
551
  5
80F
331
1133
  5
1392
331
89B
  5
51F
331
112F
  5
138E
331
90C
  5
5ED
331
112B
  5
138A
331
908
  5
5E9
331
5C7
  5
89B
331
5C3
  5
897
331
13AA
  5
5F6
331
584
  5
857
331
4FD
  5
676
331
137D
  5
64C
331
133E
  5
52B
331
5BF
  5
893
331
4F9
  5
672
331
1379
  5
655
331
12C4
  5
1308
331
1303
  5
651
331
133A
  5
527
331
5BB
  5
88F
331
57C
  5
83D
331
4F5
  5
66E
331
1375
  5
657
331
12C0
  5
1304
331
12FF
  5
846
331
1336
  5
523
331
578
  5
839
331
4F1
  5
66A
331
1371
  5
561
331
12BC
  5
1300
331
12FB
  5
842
331
8CD
  5
591
331
12B8
  5
12FC
331
8C9
  5
58D
331
676
  5
133F
331
63F
  5
12CA
331
845
  5
4C9
331
904
  5
5E5
331
8C5
  5
58B
331
672
  5
133B
331
63B
  5
12C6
331
5FC
  5
1126
331
54D
  5
80B
331
841
  5
4C5
331
897
  5
51B
331
900
  5
5E1
331
66E
  5
1337
331
FB8
  5
137C
331
637
  5
12C2
331
5F8
  5
1121
331
549
  5
807
331
8C1
  5
587
331
893
  5
517
331
66A
  5
1333
331
FB4
  5
1378
331
633
  5
12BE
331
5F4
  5
111D
331
545
  5
803
331
1127
  5
1387
331
88F
  5
513
331
FB0
  5
1374
331
5F0
  5
FB6
331
541
  5
7FF
331
1123
  5
1384
331
88B
  5
50F
331
111F
  5
1380
331
5B7
  5
88B
331
5B3
  5
887
331
12F7
  5
852
331
4ED
  5
666
331
136D
  5
55C
331
5EE
  5
FB4
331
5AF
  5
883
331
12F3
  5
84E
331
4E9
  5
662
331
1369
  5
558
331
5EA
  5
FB0
331
5AB
  5
87F
331
524
  5
69D
331
13A4
  5
60A
331
12EF
  5
84A
331
4E5
  5
65E
331
1365
  5
554
331
520
  5
699
331
13A0
  5
60C
331
12EB
  5
12AA
331
132A
  5
603
331
1361
  5
550
331
8FC
  5
5DD
331
62F
  5
12BA
331
8F8
  5
5D9
331
FAC
  5
1370
331
62B
  5
12B6
331
53D
  5
7FB
331
8F4
  5
5D5
331
887
  5
50B
331
8F0
  5
5D1
331
69D
  5
1366
331
666
  5
132F
331
FA8
  5
136C
331
627
  5
12B2
331
539
  5
7F7
331
86C
  5
4F0
331
883
  5
507
331
699
  5
1362
331
662
  5
12ED
331
623
  5
12AD
331
574
  5
833
331
535
  5
7F3
331
8BE
  5
584
331
868
  5
4EC
331
87F
  5
503
331
570
  5
82E
331
531
  5
7EF
331
8BA
  5
580
331
87B
  5
4FF
331
12B5
  5
12F9
331
114A
  5
13A9
331
12B1
  5
12F5
331
5E6
  5
FAC
331
5A7
  5
87B
331
5E2
  5
FA8
331
5A3
  5
877
331
51C
  5
695
331
139C
  5
61C
331
12E7
  5
132B
331
135D
  5
54A
331
5DE
  5
8B2
331
59F
  5
872
331
518
  5
691
331
1398
  5
621
331
12E3
  5
1327
331
1359
  5
546
331
5DA
  5
8AE
331
59B
  5
86E
331
514
  5
68D
331
1394
  5
62A
331
12DF
  5
1323
331
131E
  5
628
331
1355
  5
542
331
510
  5
689
331
1390
  5
630
331
12DB
  5
131F
331
1351
  5
53E
331
8EC
  5
5CD
331
8E8
  5
5C9
331
695
  5
135E
331
65E
  5
12E9
331
61F
  5
114B
331
864
  5
4E8
331
8E4
  5
5C5
331
691
  5
135A
331
65A
  5
12E5
331
61B
  5
1146
331
56C
  5
82A
331
52D
  5
7EB
331
8B6
  5
57C
331
877
  5
4FB
331
860
  5
4E4
331
8E0
  5
5C1
331
68D
  5
1356
331
656
  5
12E1
331
617
  5
1142
331
568
  5
826
331
529
  5
7E7
331
8B2
  5
578
331
85C
  5
4E0
331
873
  5
4F7
331
689
  5
1352
331
652
  5
12DD
331
613
  5
113E
331
564
  5
822
331
1146
  5
13A5
331
12AD
  5
12F1
331
8AE
  5
574
331
858
  5
4DC
331
560
  5
81E
331
1142
  5
13A1
331
8AA
  5
570
331
113E
  5
139D
331
113A
  5
1399
331
5D6
  5
8AA
331
597
  5
86A
331
5D2
  5
8A6
331
593
  5
866
331
50C
  5
685
331
138C
  5
63B
331
12D7
  5
131B
331
1316
  5
634
331
134D
  5
53A
331
5CE
  5
8A2
331
58F
  5
862
331
508
  5
681
331
1388
  5
640
331
12D3
  5
1317
331
1349
  5
536
331
5CA
  5
89E
331
58B
  5
85E
331
504
  5
67D
331
1384
  5
642
331
12CF
  5
1313
331
1345
  5
532
331
500
  5
679
331
1380
  5
649
331
12CB
  5
130F
331
130A
  5
646
331
1341
  5
52E
331
8DC
  5
5BD
331
8D8
  5
5BA
331
685
  5
134E
331
64E
  5
12D9
331
60F
  5
113A
331
854
  5
4D8
331
8D4
  5
5B6
331
681
  5
134A
331
64A
  5
12D5
331
60B
  5
1136
331
55C
  5
81A
331
8A6
  5
56C
331
850
  5
4D4
331
8D0
  5
5B2
331
67D
  5
1346
331
646
  5
12D1
331
607
  5
1132
331
558
  5
816
331
8A2
  5
568
331
84C
  5
4D0
331
679
  5
1342
331
642
  5
12CD
331
603
  5
112E
331
554
  5
812
331
1136
  5
1395
331
89E
  5
564
331
848
  5
4CC
331
550
  5
80E
331
1132
  5
1391
331
89A
  5
51E
331
6A0
  5
1369
331
112E
  5
138D
331
90B
  5
5EC
331
112A
  5
1389
331
5C6
  5
89A
331
587
  5
85A
331
5C2
  5
896
331
13A9
  5
5F5
331
583
  5
856
331
4FC
  5
675
331
137C
  5
64B
331
12C7
  5
130B
331
133D
  5
52A
331
5BE
  5
892
331
4F8
  5
671
331
1378
  5
654
331
12C3
  5
1307
331
1302
  5
849
331
1339
  5
526
331
5BA
  5
88E
331
57B
  5
83C
331
4F4
  5
66D
331
1374
  5
65A
331
12BF
  5
1303
331
12FE
  5
845
331
1335
  5
522
331
4F0
  5
669
331
1370
  5
560
331
12BB
  5
12FF
331
12FA
  5
841
331
1331
  5
5F1
331
8CC
  5
590
331
907
  5
5E8
331
675
  5
133E
331
63E
  5
12C9
331
5FF
  5
112A
331
844
  5
4C8
331
903
  5
5E4
331
8C4
  5
58A
331
671
  5
133A
331
63A
  5
12C5
331
5FB
  5
1124
331
54C
  5
80A
331
840
  5
4C4
331
896
  5
51A
331
66D
  5
1336
331
FB7
  5
137B
331
636
  5
12C1
331
5F7
  5
1120
331
548
  5
806
331
8C0
  5
586
331
892
  5
516
331
669
  5
1332
331
FB3
  5
1377
331
632
  5
12BD
331
5F3
  5
111C
331
544
  5
802
331
1126
  5
1386
331
88E
  5
512
331
540
  5
7FE
331
1122
  5
1383
331
88A
  5
50E
331
111E
  5
137F
331
5B6
  5
88A
331
5B2
  5
886
331
12F6
  5
851
331
4EC
  5
665
331
136C
  5
55B
331
5ED
  5
FB3
331
5AE
  5
882
331
527
  5
6A0
331
13A7
  5
5FC
331
12F2
  5
84D
331
4E8
  5
661
331
1368
  5
557
331
5E9
  5
FAF
331
5AA
  5
87E
331
523
  5
69C
331
13A3
  5
609
331
12EE
  5
1148
331
4E4
  5
65D
331
1364
  5
553
331
8FF
  5
5E0
331
12EA
  5
12B0
331
1329
  5
602
331
1360
  5
54F
331
8FB
  5
5DC
331
FAF
  5
1373
331
62E
  5
12B9
331
8F7
  5
5D8
331
8F3
  5
5D4
331
FAB
  5
136F
331
62A
  5
12B5
331
53C
  5
7FA
331
86F
  5
4F3
331
886
  5
50A
331
69C
  5
1365
331
665
  5
132E
331
FA7
  5
136B
331
626
  5
12B1
331
577
  5
837
331
538
  5
7F6
331
86B
  5
4EF
331
882
  5
506
331
698
  5
1361
331
661
  5
12EC
331
622
  5
12AC
331
573
  5
832
331
534
  5
7F2
331
8BD
  5
583
331
87E
  5
502
331
530
  5
7EE
331
8B9
  5
57F
331
87A
  5
4FE
331
12B4
  5
12F8
331
1149
  5
13A8
331
12B0
  5
12F4
331
5E5
  5
FAB
331
5A6
  5
87A
331
51F
  5
698
331
139F
  5
60B
331
5E1
  5
FA7
331
5A2
  5
875
331
51B
  5
694
331
139B
  5
61B
331
12E6
  5
132A
331
1325
  5
617
331
135C
  5
549
331
5DD
  5
8B1
331
59E
  5
871
331
517
  5
690
331
1397
  5
624
331
12E2
  5
1326
331
1358
  5
545
331
5D9
  5
8AD
331
59A
  5
86D
331
513
  5
68C
331
1393
  5
62F
331
12DE
  5
1322
331
131D
  5
627
331
1354
  5
541
331
8EF
  5
5D0
331
12DA
  5
131E
331
1350
  5
53D
331
8EB
  5
5CC
331
867
  5
4EB
331
8E7
  5
5C8
331
694
  5
135D
331
65D
  5
12E8
331
61E
  5
114A
331
56F
  5
82D
331
863
  5
4E7
331
8E3
  5
5C4
331
690
  5
1359
331
659
  5
12E4
331
61A
  5
1145
331
56B
  5
829
331
52C
  5
7EA
331
8B5
  5
57B
331
85F
  5
4E3
331
876
  5
4FA
331
68C
  5
1355
331
655
  5
12E0
331
616
  5
1141
331
567
  5
825
331
528
  5
7E6
331
8B1
  5
577
331
85B
  5
4DF
331
872
  5
4F6
331
688
  5
1351
331
651
  5
12DC
331
612
  5
113D
331
563
  5
821
331
1145
  5
13A4
331
12AC
  5
12F0
331
8AD
  5
573
331
1141
  5
13A0
331
8A9
  5
56F
331
113D
  5
139C
331
1139
  5
1398
331
5D5
  5
8A9
331
596
  5
869
331
50F
  5
688
331
138F
  5
638
331
5D1
  5
8A5
331
592
  5
865
331
50B
  5
684
331
138B
  5
63A
331
12D6
  5
131A
331
1315
  5
633
331
134C
  5
539
331
5CD
  5
8A1
331
58E
  5
861
331
507
  5
680
331
1387
  5
63F
331
12D2
  5
1316
331
1348
  5
535
331
5C9
  5
89D
331
58A
  5
85D
331
503
  5
67C
331
1383
  5
641
331
12CE
  5
1312
331
1344
  5
531
331
8DF
  5
5C0
331
12CA
  5
130E
331
1309
  5
645
331
1340
  5
52D
331
8DB
  5
5BC
331
857
  5
4DB
331
8D7
  5
5B9
331
684
  5
134D
331
64D
  5
12D8
331
60E
  5
1139
331
55F
  5
81D
331
853
  5
4D7
331
8D3
  5
5B5
331
680
  5
1349
331
649
  5
12D4
331
60A
  5
1135
331
55B
  5
819
331
8A5
  5
56B
331
84F
  5
4D3
331
67C
  5
1345
331
645
  5
12D0
331
606
  5
1131
331
557
  5
815
331
8A1
  5
567
331
84B
  5
4CF
331
678
  5
1341
331
641
  5
12CC
331
602
  5
112D
331
1135
  5
1394
331
553
  5
811
331
1131
  5
1390
331
899
  5
51D
331
112D
  5
138C
331
90A
  5
5EB
331
5C5
  5
899
331
586
  5
859
331
4FF
  5
678
331
137F
  5
648
331
5C1
  5
895
331
13A8
  5
5FD
331
582
  5
855
331
4FB
  5
674
331
137B
  5
650
331
12C6
  5
130A
331
1305
  5
653
331
133C
  5
529
331
5BD
  5
891
331
57E
  5
83F
331
4F7
  5
670
331
1377
  5
659
331
12C2
  5
1306
331
1301
  5
848
331
1338
  5
525
331
5B9
  5
88D
331
57A
  5
83B
331
12BE
  5
1302
331
12FD
  5
844
331
4F3
  5
66C
331
1373
  5
563
331
8CF
  5
5B1
331
12BA
  5
12FE
331
12F9
  5
840
331
1330
  5
5F0
331
8CB
  5
58F
331
847
  5
4CB
331
906
  5
5E7
331
674
  5
133D
331
63D
  5
12C8
331
5FE
  5
1128
331
54F
  5
80D
331
843
  5
4C7
331
902
  5
5E3
331
670
  5
1339
331
639
  5
12C4
331
5FA
  5
1123
331
54B
  5
809
331
8C3
  5
589
331
895
  5
519
331
66C
  5
1335
331
FB6
  5
137A
331
635
  5
12C0
331
5F6
  5
111F
331
547
  5
805
331
891
  5
515
331
668
  5
1331
331
FB2
  5
1376
331
631
  5
12BC
331
5F2
  5
FB8
331
543
  5
801
331
88D
  5
511
331
1121
  5
1382
331
889
  5
50D
331
111D
  5
137E
331
5B5
  5
889
331
4EF
  5
668
331
136F
  5
55F
331
5B1
  5
885
331
12F5
  5
850
331
4EB
  5
664
331
136B
  5
55A
331
5EC
  5
FB2
331
5AD
  5
881
331
526
  5
69F
331
13A6
  5
5FB
331
12F1
  5
84C
331
4E7
  5
660
331
1367
  5
556
331
5E8
  5
FAE
331
5A9
  5
87D
331
522
  5
69B
331
13A2
  5
605
331
12ED
  5
1147
331
4E3
  5
65C
331
1363
  5
552
331
8FE
  5
5DF
331
12E9
  5
12AF
331
8FA
  5
5DB
331
FAE
  5
1372
331
62D
  5
12B8
331
53F
  5
7FD
331
8F6
  5
5D7
331
8F2
  5
5D3
331
69F
  5
1368
331
FAA
  5
136E
331
629
  5
12B4
331
53B
  5
7F9
331
86E
  5
4F2
331
885
  5
509
331
69B
  5
1364
331
FA6
  5
136A
331
664
  5
132D
331
576
  5
836
331
537
  5
7F5
331
86A
  5
4EE
331
881
  5
505
331
660
  5
12EB
331
572
  5
831
331
533
  5
7F1
331
8BC
  5
582
331
87D
  5
501
331
8B8
  5
57E
331
12B7
  5
12FB
331
879
  5
4FD
331
114C
  5
13AB
331
12B3
  5
12F7
331
1148
  5
13A7
331
5E4
  5
FAA
331
5A5
  5
879
331
51E
  5
697
331
139E
  5
611
331
135F
  5
54E
331
5E0
  5
FA6
331
5A1
  5
874
331
51A
  5
693
331
139A
  5
623
331
12E5
  5
1329
331
1324
  5
616
331
135B
  5
548
331
5DC
  5
8B0
331
59D
  5
870
331
516
  5
68F
331
1396
  5
62C
331
12E1
  5
1325
331
1357
  5
544
331
5D8
  5
8AC
331
599
  5
86C
331
512
  5
68B
331
1392
  5
62E
331
12DD
  5
1321
331
131C
  5
626
331
1353
  5
540
331
8EE
  5
5CF
331
12D9
  5
131D
331
8EA
  5
5CB
331
697
  5
1360
331
866
  5
4EA
331
8E6
  5
5C7
331
693
  5
135C
331
65C
  5
12E7
331
61D
  5
1149
331
56E
  5
82C
331
52F
  5
7ED
331
862
  5
4E6
331
8E2
  5
5C3
331
68F
  5
1358
331
658
  5
12E3
331
619
  5
1144
331
56A
  5
828
331
52B
  5
7E9
331
8B4
  5
57A
331
85E
  5
4E2
331
875
  5
4F9
331
68B
  5
1354
331
654
  5
12DF
331
615
  5
1140
331
566
  5
824
331
8B0
  5
576
331
85A
  5
4DE
331
12AF
  5
12F3
331
871
  5
4F5
331
650
  5
12DB
331
611
  5
113C
331
562
  5
820
331
1144
  5
13A3
331
12AB
  5
12EF
331
8AC
  5
572
331
1140
  5
139F
331
8A8
  5
56E
331
113C
  5
139B
331
1138
  5
1397
331
5D4
  5
8A8
331
595
  5
868
331
50E
  5
687
331
138E
  5
637
331
134F
  5
53C
331
5D0
  5
8A4
331
591
  5
864
331
50A
  5
683
331
138A
  5
639
331
12D5
  5
1319
331
1314
  5
632
331
134B
  5
538
331
5CC
  5
8A0
331
58D
  5
860
331
506
  5
67F
331
1386
  5
63E
331
12D1
  5
1315
331
1347
  5
534
331
5C8
  5
89C
331
589
  5
85C
331
502
  5
67B
331
1382
  5
644
331
12CD
  5
1311
331
1343
  5
530
331
8DE
  5
5BF
331
12C9
  5
130D
331
8DA
  5
5BB
331
687
  5
1350
331
856
  5
4DA
331
8D6
  5
5B8
331
683
  5
134C
331
64C
  5
12D7
331
60D
  5
1138
331
55E
  5
81C
331
852
  5
4D6
331
8D2
  5
5B4
331
67F
  5
1348
331
648
  5
12D3
331
609
  5
1134
331
55A
  5
818
331
8A4
  5
56A
331
84E
  5
4D2
331
67B
  5
1344
331
644
  5
12CF
331
605
  5
1130
331
556
  5
814
331
8A0
  5
566
331
84A
  5
4CE
331
640
  5
12CB
331
601
  5
112C
331
552
  5
810
331
1134
  5
1393
331
89C
  5
520
331
1130
  5
138F
331
90D
  5
5EE
331
898
  5
51C
331
112C
  5
138B
331
909
  5
5EA
331
1128
  5
1388
331
5C4
  5
898
331
13AB
  5
5F7
331
585
  5
858
331
4FE
  5
677
331
137E
  5
64F
331
133F
  5
52C
331
5C0
  5
894
331
581
  5
854
331
4FA
  5
673
331
137A
  5
656
331
12C5
  5
1309
331
1304
  5
652
331
133B
  5
528
331
5BC
  5
890
331
57D
  5
83E
331
4F6
  5
66F
331
1376
  5
658
331
12C1
  5
1305
331
1300
  5
847
331
1337
  5
524
331
5B8
  5
88C
331
579
  5
83A
331
12BD
  5
1301
331
12FC
  5
843
331
4F2
  5
66B
331
1372
  5
562
331
8CE
  5
5B0
331
12B9
  5
12FD
331
12F8
  5
853
331
8CA
  5
58E
331
677
  5
1340
331
846
  5
4CA
331
905
  5
5E6
331
673
  5
133C
331
63C
  5
12C7
331
5FD
  5
1127
331
54E
  5
80C
331
8C6
  5
58C
331
901
  5
5E2
331
66F
  5
1338
331
638
  5
12C3
331
5F9
  5
1122
331
54A
  5
808
331
8C2
  5
588
331
894
  5
518
331
66B
  5
1334
331
FB5
  5
1379
331
634
  5
12BF
331
5F5
  5
111E
331
546
  5
804
331
890
  5
514
331
FB1
  5
1375
331
630
  5
12BB
331
5F1
  5
FB7
331
542
  5
800
331
1124
  5
1385
331
88C
  5
510
331
1120
  5
1381
331
888
  5
50C
331
111C
  5
137D
331
5B4
  5
888
331
4EE
  5
667
331
136E
  5
55E
331
5EF
  5
FB5
331
5B0
  5
884
331
12F4
  5
84F
331
4EA
  5
663
331
136A
  5
559
331
5EB
  5
FB1
331
5AC
  5
880
331
525
  5
69E
331
13A5
  5
601
331
4E6
  5
65F
331
1366
  5
555
331
12F0
  5
84B
331
132F
  5
5EF
331
5A8
  5
87C
331
521
  5
69A
331
13A1
  5
60D
331
4E2
  5
65B
331
12EC
  5
12AB
331
132B
  5
604
331
1362
  5
551
331
8FD
  5
5DE
331
12E8
  5
132C
331
8F9
  5
5DA
331
FAD
  5
1371
331
62C
  5
12B7
331
53E
  5
7FC
331
8F5
  5
5D6
331
8F1
  5
5D2
331
69E
  5
1367
331
667
  5
1330
331
FA9
  5
136D
331
628
  5
12B3
331
53A
  5
7F8
331
86D
  5
4F1
331
884
  5
508
331
69A
  5
1363
331
624
  5
12AE
331
575
  5
835
331
536
  5
7F4
331
8BF
  5
585
331
869
  5
4ED
331
880
  5
504
331
620
  5
114C
331
571
  5
830
331
532
  5
7F0
331
8BB
  5
581
331
87C
  5
500
331
12B6
  5
12FA
331
878
  5
4FC
331
114B
  5
13AA
331
12B2
  5
12F6
331
5E7
  5
FAD
331
5E3
  5
FA9
331
5A4
  5
878
331
51D
  5
696
331
139D
  5
61D
331
135E
  5
54D
331
5DF
  5
8B3
331
5A0
  5
873
331
519
  5
692
331
1399
  5
622
331
12E4
  5
1328
331
1323
  5
615
331
135A
  5
547
331
5DB
  5
8AF
331
59C
  5
86F
331
515
  5
68E
331
1395
  5
62B
331
12E0
  5
1324
331
131F
  5
629
331
1356
  5
543
331
598
  5
86B
331
511
  5
68A
331
1391
  5
62D
331
12DC
  5
1320
331
131B
  5
625
331
1352
  5
53F
331
8ED
  5
5CE
331
12D8
  5
131C
331
8E9
  5
5CA
331
696
  5
135F
331
65F
  5
12EA
331
865
  5
4E9
331
8E5
  5
5C6
331
692
  5
135B
331
65B
  5
12E6
331
56D
  5
82B
331
52E
  5
7EC
331
8B7
  5
57D
331
861
  5
4E5
331
8E1
  5
5C2
331
68E
  5
1357
331
657
  5
12E2
331
618
  5
1143
331
569
  5
827
331
52A
  5
7E8
331
8B3
  5
579
331
85D
  5
4E1
331
874
  5
4F8
331
68A
  5
1353
331
653
  5
12DE
331
614
  5
113F
331
565
  5
823
331
8AF
  5
575
331
859
  5
4DD
331
1147
  5
13A6
331
12AE
  5
12F2
331
870
  5
4F4
331
610
  5
113B
331
561
  5
81F
331
1143
  5
13A2
331
12AA
  5
12EE
331
8AB
  5
571
331
113F
  5
139E
331
113B
  5
139A
  0
XRECORD
  5
13E9
102
{ACAD_REACTORS
330
13E8
102
}
330
13E8
100
AcDbXrecord
280
     1
 40
2356.0
  1
\U+220550
  0
XRECORD
  5
13EB
102
{ACAD_REACTORS
330
13EA
102
}
330
13EA
100
AcDbXrecord
280
     1
 40
2356.0
  1
\U+220550
  0
XRECORD
  5
13ED
102
{ACAD_REACTORS
330
13EC
102
}
330
13EC
100
AcDbXrecord
280
     1
 40
2356.0
  1
\U+220550
  0
XRECORD
  5
13B1
102
{ACAD_REACTORS
330
13AF
102
}
330
13AF
100
AcDbXrecord
280
     1
 70
     2
  0
XRECORD
  5
13B0
102
{ACAD_REACTORS
330
13AF
102
}
330
13AF
100
AcDbXrecord
280
     1
 40
1.25
  0
XRECORD
  5
13B2
102
{ACAD_REACTORS
330
13AF
102
}
330
13AF
100
AcDbXrecord
280
     1
 40
1.570796326794896
  0
LAYOUT
  5
6E
102
{ACAD_XDICTIONARY
360
13E6
102
}
102
{ACAD_REACTORS
330
61
102
}
330
61
100
AcDbPlotSettings
  1

  2
FX DP 205
  4

  6

 40
0.0
 41
0.0
 42
0.0
 43
0.0
 44
0.0
 45
0.0
 46
0.0
 47
0.0
 48
0.0
 49
0.0
140
0.0
141
0.0
142
1.0
143
1.0
 70
  1712
 72
     0
 73
     0
 74
     0
  7

 75
     0
147
1.0
148
0.0
149
0.0
100
AcDbLayout
  1
Model
 70
     1
 71
     0
 10
0.0
 20
0.0
 11
12.0
 21
9.0
 12
0.0
 22
0.0
 32
0.0
 14
0.0
 24
0.0
 34
0.0
 15
0.0
 25
0.0
 35
0.0
146
0.0
 13
0.0
 23
0.0
 33
0.0
 16
1.0
 26
0.0
 36
0.0
 17
0.0
 27
1.0
 37
0.0
 76
     0
330
6B
331
8C
  0
LAYOUT
  5
6A
102
{ACAD_XDICTIONARY
360
13E4
102
}
102
{ACAD_REACTORS
330
61
102
}
330
61
100
AcDbPlotSettings
  1

  2
FX DP 205
  4

  6

 40
0.0
 41
0.0
 42
0.0
 43
0.0
 44
0.0
 45
0.0
 46
0.0
 47
0.0
 48
0.0
 49
0.0
140
0.0
141
0.0
142
1.0
143
1.0
 70
   688
 72
     0
 73
     0
 74
     5
  7

 75
    16
147
1.0
148
0.0
149
0.0
100
AcDbLayout
  1
レイアウト1
 70
     1
 71
     1
 10
0.0
 20
0.0
 11
12.0
 21
9.0
 12
0.0
 22
0.0
 32
0.0
 14
1.000000000000000E+20
 24
1.000000000000000E+20
 34
1.000000000000000E+20
 15
-1.000000000000000E+20
 25
-1.000000000000000E+20
 35
-1.000000000000000E+20
146
0.0
 13
0.0
 23
0.0
 33
0.0
 16
1.0
 26
0.0
 36
0.0
 17
0.0
 27
1.0
 37
0.0
 76
     0
330
67
  0
MATERIAL
  5
19
102
{ACAD_XDICTIONARY
360
1A
102
}
102
{ACAD_REACTORS
330
10
102
}
330
10
100
AcDbMaterial
  1
ByBlock
 72
     0
 43
0.0208333333333333
 43
0.0
 43
0.0
 43
0.0
 43
0.0
 43
0.0208333333333333
 43
0.0
 43
0.0
 43
0.0
 43
0.0
 43
1.0
 43
0.0
 43
0.0
 43
0.0
 43
0.0
 43
1.0
 77
     0
 47
0.0208333333333333
 47
0.0
 47
0.0
 47
0.0
 47
0.0
 47
0.0208333333333333
 47
0.0
 47
0.0
 47
0.0
 47
0.0
 47
1.0
 47
0.0
 47
0.0
 47
0.0
 47
0.0
 47
1.0
171
     0
 49
0.0208333333333333
 49
0.0
 49
0.0
 49
0.0
 49
0.0
 49
0.0208333333333333
 49
0.0
 49
0.0
 49
0.0
 49
0.0
 49
1.0
 49
0.0
 49
0.0
 49
0.0
 49
0.0
 49
1.0
175
     0
142
0.0208333333333333
142
0.0
142
0.0
142
0.0
142
0.0
142
0.0208333333333333
142
0.0
142
0.0
142
0.0
142
0.0
142
1.0
142
0.0
142
0.0
142
0.0
142
0.0
142
1.0
179
     0
144
0.0208333333333333
144
0.0
144
0.0
144
0.0
144
0.0
144
0.0208333333333333
144
0.0
144
0.0
144
0.0
144
0.0
144
1.0
144
0.0
144
0.0
144
0.0
144
0.0
144
1.0
147
0.0208333333333333
147
0.0
147
0.0
147
0.0
147
0.0
147
0.0208333333333333
147
0.0
147
0.0
147
0.0
147
0.0
147
1.0
147
0.0
147
0.0
147
0.0
147
0.0
147
1.0
  0
MATERIAL
  5
11
102
{ACAD_XDICTIONARY
360
12
102
}
102
{ACAD_REACTORS
330
10
102
}
330
10
100
AcDbMaterial
  1
ByLayer
 72
     0
 43
0.0208333333333333
 43
0.0
 43
0.0
 43
0.0
 43
0.0
 43
0.0208333333333333
 43
0.0
 43
0.0
 43
0.0
 43
0.0
 43
1.0
 43
0.0
 43
0.0
 43
0.0
 43
0.0
 43
1.0
 77
     0
 47
0.0208333333333333
 47
0.0
 47
0.0
 47
0.0
 47
0.0
 47
0.0208333333333333
 47
0.0
 47
0.0
 47
0.0
 47
0.0
 47
1.0
 47
0.0
 47
0.0
 47
0.0
 47
0.0
 47
1.0
171
     0
 49
0.0208333333333333
 49
0.0
 49
0.0
 49
0.0
 49
0.0
 49
0.0208333333333333
 49
0.0
 49
0.0
 49
0.0
 49
0.0
 49
1.0
 49
0.0
 49
0.0
 49
0.0
 49
0.0
 49
1.0
175
     0
142
0.0208333333333333
142
0.0
142
0.0
142
0.0
142
0.0
142
0.0208333333333333
142
0.0
142
0.0
142
0.0
142
0.0
142
1.0
142
0.0
142
0.0
142
0.0
142
0.0
142
1.0
179
     0
144
0.0208333333333333
144
0.0
144
0.0
144
0.0
144
0.0
144
0.0208333333333333
144
0.0
144
0.0
144
0.0
144
0.0
144
1.0
144
0.0
144
0.0
144
0.0
144
0.0
144
1.0
147
0.0208333333333333
147
0.0
147
0.0
147
0.0
147
0.0
147
0.0208333333333333
147
0.0
147
0.0
147
0.0
147
0.0
147
1.0
147
0.0
147
0.0
147
0.0
147
0.0
147
1.0
  0
MATERIAL
  5
21
102
{ACAD_XDICTIONARY
360
22
102
}
102
{ACAD_REACTORS
330
10
102
}
330
10
100
AcDbMaterial
  1
Global
 72
     0
 43
0.0208333333333333
 43
0.0
 43
0.0
 43
0.0
 43
0.0
 43
0.0208333333333333
 43
0.0
 43
0.0
 43
0.0
 43
0.0
 43
1.0
 43
0.0
 43
0.0
 43
0.0
 43
0.0
 43
1.0
 77
     0
 47
0.0208333333333333
 47
0.0
 47
0.0
 47
0.0
 47
0.0
 47
0.0208333333333333
 47
0.0
 47
0.0
 47
0.0
 47
0.0
 47
1.0
 47
0.0
 47
0.0
 47
0.0
 47
0.0
 47
1.0
171
     0
 49
0.0208333333333333
 49
0.0
 49
0.0
 49
0.0
 49
0.0
 49
0.0208333333333333
 49
0.0
 49
0.0
 49
0.0
 49
0.0
 49
1.0
 49
0.0
 49
0.0
 49
0.0
 49
0.0
 49
1.0
175
     0
142
0.0208333333333333
142
0.0
142
0.0
142
0.0
142
0.0
142
0.0208333333333333
142
0.0
142
0.0
142
0.0
142
0.0
142
1.0
142
0.0
142
0.0
142
0.0
142
0.0
142
1.0
179
     0
144
0.0208333333333333
144
0.0
144
0.0
144
0.0
144
0.0
144
0.0208333333333333
144
0.0
144
0.0
144
0.0
144
0.0
144
1.0
144
0.0
144
0.0
144
0.0
144
0.0
144
1.0
147
0.0208333333333333
147
0.0
147
0.0
147
0.0
147
0.0
147
0.0208333333333333
147
0.0
147
0.0
147
0.0
147
0.0
147
1.0
147
0.0
147
0.0
147
0.0
147
0.0
147
1.0
  0
MLEADERSTYLE
  5
66
102
{ACAD_REACTORS
330
65
102
}
330
65
100
AcDbMLeaderStyle
170
     2
171
     1
172
     0
 90
        2
 40
0.0
 41
0.0
173
     1
 91
-1056964608
340
5A
 92
       -2
290
     1
 42
0.09
291
     1
 43
0.36
  3
Standard
 44
0.18
300

342
55
174
     1
178
     6
175
     1
176
     0
 93
-1056964608
 45
0.18
292
     0
297
     0
 46
0.18
 94
-1056964608
 47
1.0
 49
1.0
140
1.0
293
     1
141
0.0
294
     1
177
     0
142
1.0
295
     0
296
     0
143
0.125
1001
ACAD_MLEADERVER
1070
     2
  0
MLINESTYLE
  5
5F
102
{ACAD_REACTORS
330
5E
102
}
330
5E
100
AcDbMlineStyle
  2
STANDARD
 70
     0
  3

 62
   256
 51
90.0
 52
90.0
 71
     2
 49
0.5
 62
   256
  6
BYLAYER
 49
-0.5
 62
   256
  6
BYLAYER
  0
ACDBPLACEHOLDER
  5
F
102
{ACAD_REACTORS
330
E
102
}
330
E
  0
SCALE
  5
43
102
{ACAD_REACTORS
330
42
102
}
330
42
100
AcDbScale
 70
     0
300
1:1
140
1.0
141
1.0
290
     1
  0
SCALE
  5
44
102
{ACAD_REACTORS
330
42
102
}
330
42
100
AcDbScale
 70
     0
300
1/128" = 1'-0"
140
0.0078125
141
12.0
290
     0
  0
SCALE
  5
45
102
{ACAD_REACTORS
330
42
102
}
330
42
100
AcDbScale
 70
     0
300
1/64" = 1'-0"
140
0.015625
141
12.0
290
     0
  0
SCALE
  5
46
102
{ACAD_REACTORS
330
42
102
}
330
42
100
AcDbScale
 70
     0
300
1/32" = 1'-0"
140
0.03125
141
12.0
290
     0
  0
SCALE
  5
47
102
{ACAD_REACTORS
330
42
102
}
330
42
100
AcDbScale
 70
     0
300
1/16" = 1'-0"
140
0.0625
141
12.0
290
     0
  0
SCALE
  5
48
102
{ACAD_REACTORS
330
42
102
}
330
42
100
AcDbScale
 70
     0
300
3/32" = 1'-0"
140
0.09375
141
12.0
290
     0
  0
SCALE
  5
49
102
{ACAD_REACTORS
330
42
102
}
330
42
100
AcDbScale
 70
     0
300
1/8" = 1'-0"
140
0.125
141
12.0
290
     0
  0
SCALE
  5
4A
102
{ACAD_REACTORS
330
42
102
}
330
42
100
AcDbScale
 70
     0
300
3/16" = 1'-0"
140
0.1875
141
12.0
290
     0
  0
SCALE
  5
4B
102
{ACAD_REACTORS
330
42
102
}
330
42
100
AcDbScale
 70
     0
300
1/4" = 1'-0"
140
0.25
141
12.0
290
     0
  0
SCALE
  5
4C
102
{ACAD_REACTORS
330
42
102
}
330
42
100
AcDbScale
 70
     0
300
3/8" = 1'-0"
140
0.375
141
12.0
290
     0
  0
SCALE
  5
4D
102
{ACAD_REACTORS
330
42
102
}
330
42
100
AcDbScale
 70
     0
300
1/2" = 1'-0"
140
0.5
141
12.0
290
     0
  0
SCALE
  5
4E
102
{ACAD_REACTORS
330
42
102
}
330
42
100
AcDbScale
 70
     0
300
3/4" = 1'-0"
140
0.75
141
12.0
290
     0
  0
SCALE
  5
4F
102
{ACAD_REACTORS
330
42
102
}
330
42
100
AcDbScale
 70
     0
300
1" = 1'-0"
140
1.0
141
12.0
290
     0
  0
SCALE
  5
50
102
{ACAD_REACTORS
330
42
102
}
330
42
100
AcDbScale
 70
     0
300
1-1/2" = 1'-0"
140
1.5
141
12.0
290
     0
  0
SCALE
  5
51
102
{ACAD_REACTORS
330
42
102
}
330
42
100
AcDbScale
 70
     0
300
3" = 1'-0"
140
3.0
141
12.0
290
     0
  0
SCALE
  5
52
102
{ACAD_REACTORS
330
42
102
}
330
42
100
AcDbScale
 70
     0
300
6" = 1'-0"
140
6.0
141
12.0
290
     0
  0
SCALE
  5
53
102
{ACAD_REACTORS
330
42
102
}
330
42
100
AcDbScale
 70
     0
300
1'-0" = 1'-0"
140
12.0
141
12.0
290
     0
  0
TABLESTYLE
  5
64
102
{ACAD_XDICTIONARY
360
964
102
}
102
{ACAD_REACTORS
330
63
102
}
330
63
100
AcDbTableStyle
  3
Standard
 70
     0
 71
     0
 40
0.06
 41
0.06
280
     0
281
     0
  7
STANDARD
140
0.18
170
     2
 62
     0
 63
     7
283
     0
274
    -2
284
     1
 64
     0
275
    -2
285
     1
 65
     0
276
    -2
286
     1
 66
     0
277
    -2
287
     1
 67
     0
278
    -2
288
     1
 68
     0
279
    -2
289
     1
 69
     0
  7
STANDARD
140
0.25
170
     5
 62
     0
 63
     7
283
     0
274
    -2
284
     1
 64
     0
275
    -2
285
     1
 65
     0
276
    -2
286
     1
 66
     0
277
    -2
287
     1
 67
     0
278
    -2
288
     1
 68
     0
279
    -2
289
     1
 69
     0
  7
STANDARD
140
0.18
170
     5
 62
     0
 63
     7
283
     0
274
    -2
284
     1
 64
     0
275
    -2
285
     1
 65
     0
276
    -2
286
     1
 66
     0
277
    -2
287
     1
 67
     0
278
    -2
288
     1
 68
     0
279
    -2
289
     1
 69
     0
  0
VISUALSTYLE
  5
2F
102
{ACAD_XDICTIONARY
360
13BD
102
}
102
{ACAD_REACTORS
330
29
102
}
330
29
100
AcDbVisualStyle
  2

 70
     4
 71
     0
 72
     2
 73
     0
 90
        0
 40
-0.6
 41
-30.0
 62
     5
 63
     7
 74
     1
 91
        4
 64
     7
 65
   257
 75
     1
175
     1
 42
1.0
 92
        0
 66
   257
 43
1.0
 76
     1
 77
     6
 78
     2
 67
     7
 79
     5
170
     0
171
     0
290
     0
174
     0
 93
        1
 44
0.0
173
     0
291
     0
 45
0.0
1001
ACAD
1000
AcDbSavedByObjectVersion
1070
     0
  0
VISUALSTYLE
  5
2E
102
{ACAD_XDICTIONARY
360
13BB
102
}
102
{ACAD_REACTORS
330
29
102
}
330
29
100
AcDbVisualStyle
  2

 70
     7
 71
     1
 72
     0
 73
     1
 90
        0
 40
-0.6
 41
-30.0
 62
     5
 63
     7
 74
     0
 91
        4
 64
     7
 65
   257
 75
     1
175
     1
 42
1.0
 92
        8
 66
     7
 43
1.0
 76
     1
 77
     6
 78
     2
 67
     7
 79
     5
170
     0
171
     0
290
     0
174
     0
 93
        1
 44
0.0
173
     0
291
     1
 45
0.0
1001
ACAD
1000
AcDbSavedByObjectVersion
1070
     0
  0
VISUALSTYLE
  5
35
102
{ACAD_XDICTIONARY
360
13C9
102
}
102
{ACAD_REACTORS
330
29
102
}
330
29
100
AcDbVisualStyle
  2

 70
    12
 71
     2
 72
     2
 73
     0
 90
        0
 40
-0.6
 41
-30.0
 62
     5
 63
     7
 74
     1
 91
        4
 64
     7
 65
   257
 75
     1
175
     1
 42
1.0
 92
        8
 66
     7
 43
1.0
 76
     1
 77
     6
 78
     2
 67
     7
 79
     5
170
     0
171
     0
290
     0
174
     0
 93
        1
 44
50.0
173
     0
291
     1
 45
0.0
1001
ACAD
1000
AcDbSavedByObjectVersion
1070
     0
  0
VISUALSTYLE
  5
39
102
{ACAD_XDICTIONARY
360
13D1
102
}
102
{ACAD_REACTORS
330
29
102
}
330
29
100
AcDbVisualStyle
  2

 70
    16
 71
     2
 72
     2
 73
     3
 90
        0
 40
-0.6
 41
-30.0
 62
     5
 63
     8
 74
     1
 91
        4
 64
     7
 65
   257
 75
     1
175
     1
 42
1.0
 92
        8
 66
     8
 43
1.0
 76
     1
 77
     6
 78
     2
 67
     7
 79
     5
170
     0
171
     0
290
     0
174
     0
 93
        1
 44
0.0
173
     0
291
     1
 45
0.0
1001
ACAD
1000
AcDbSavedByObjectVersion
1070
     0
  0
VISUALSTYLE
  5
32
102
{ACAD_XDICTIONARY
360
13C3
102
}
102
{ACAD_REACTORS
330
29
102
}
330
29
100
AcDbVisualStyle
  2

 70
     9
 71
     3
 72
     2
 73
     0
 90
        0
 40
-0.6
 41
-30.0
 62
     5
 63
     7
 74
     2
 91
        2
 64
     7
 65
   257
 75
     1
175
     1
 42
179.0
 92
        8
 66
     7
 43
1.0
 76
     1
 77
     6
 78
     2
 67
     7
 79
     3
170
     0
171
     0
290
     0
174
     0
 93
        1
 44
0.0
173
     0
291
     0
 45
0.0
1001
ACAD
1000
AcDbSavedByObjectVersion
1070
     0
  0
VISUALSTYLE
  5
34
102
{ACAD_XDICTIONARY
360
13C7
102
}
102
{ACAD_REACTORS
330
29
102
}
330
29
100
AcDbVisualStyle
  2

 70
    11
 71
     2
 72
     2
 73
     0
 90
        0
 40
-0.6
 41
-30.0
 62
     5
 63
     7
 74
     1
 91
        4
 64
     7
 65
   257
 75
     1
175
     1
 42
1.0
 92
        8
 66
     7
 43
1.0
 76
     1
 77
     6
 78
     2
 67
     7
 79
     5
170
     0
171
     0
290
     0
174
     0
 93
        1
 44
-50.0
173
     0
291
     1
 45
0.0
1001
ACAD
1000
AcDbSavedByObjectVersion
1070
     0
  0
VISUALSTYLE
  5
41
102
{ACAD_XDICTIONARY
360
13E1
102
}
102
{ACAD_REACTORS
330
29
102
}
330
29
100
AcDbVisualStyle
  2

 70
    22
 71
     2
 72
     2
 73
     0
 90
        0
 40
-0.6
 41
-30.0
 62
     5
 63
     7
 74
     1
 91
        4
 64
     7
 65
   257
 75
     1
175
     1
 42
1.0
 92
        8
 66
     7
 43
1.0
 76
     1
 77
     6
 78
     2
 67
     7
 79
     5
170
     0
171
     0
290
     0
174
     0
 93
        1
 44
0.0
173
     0
291
     1
 45
0.0
1001
ACAD
1000
AcDbSavedByObjectVersion
1070
     0
  0
VISUALSTYLE
  5
38
102
{ACAD_XDICTIONARY
360
13CF
102
}
102
{ACAD_REACTORS
330
29
102
}
330
29
100
AcDbVisualStyle
  2

 70
    15
 71
     2
 72
     2
 73
     0
 90
        0
 40
-0.6
 41
-30.0
 62
     5
 63
     7
 74
     1
 91
        4
 64
     7
 65
   257
 75
     1
175
     1
 42
1.0
 92
        8
 66
     7
 43
1.0
 76
     1
 77
     6
 78
     2
 67
     7
 79
     5
170
     0
171
     0
290
     0
174
     0
 93
        1
 44
0.0
173
     0
291
     1
 45
0.0
1001
ACAD
1000
AcDbSavedByObjectVersion
1070
     0
  0
VISUALSTYLE
  5
2A
102
{ACAD_XDICTIONARY
360
13B3
102
}
102
{ACAD_REACTORS
330
29
102
}
330
29
100
AcDbVisualStyle
  2

 70
     0
 71
     2
 72
     1
 73
     1
 90
        2
 40
-0.6
 41
30.0
 62
     5
 63
     7
 74
     0
 91
        0
 64
     7
 65
   257
 75
     1
175
     1
 42
1.0
 92
        8
 66
     7
 43
1.0
 76
     1
 77
     6
 78
     2
 67
     7
 79
     5
170
     0
171
     0
290
     0
174
     0
 93
       13
 44
0.0
173
     0
291
     1
 45
0.0
1001
ACAD
1000
AcDbSavedByObjectVersion
1070
     0
  0
VISUALSTYLE
  5
2B
102
{ACAD_XDICTIONARY
360
13B5
102
}
102
{ACAD_REACTORS
330
29
102
}
330
29
100
AcDbVisualStyle
  2

 70
     1
 71
     2
 72
     1
 73
     1
 90
        2
 40
-0.6
 41
30.0
 62
     5
 63
     7
 74
     1
 91
        0
 64
     7
 65
   257
 75
     1
175
     1
 42
1.0
 92
        0
 66
   257
 43
1.0
 76
     1
 77
     6
 78
     2
 67
     7
 79
     5
170
     0
171
     0
290
     0
174
     0
 93
       13
 44
0.0
173
     0
291
     1
 45
0.0
1001
ACAD
1000
AcDbSavedByObjectVersion
1070
     0
  0
VISUALSTYLE
  5
2C
102
{ACAD_XDICTIONARY
360
13B7
102
}
102
{ACAD_REACTORS
330
29
102
}
330
29
100
AcDbVisualStyle
  2

 70
     2
 71
     2
 72
     2
 73
     1
 90
        2
 40
-0.6
 41
30.0
 62
     5
 63
     7
 74
     0
 91
        0
 64
     7
 65
   257
 75
     1
175
     1
 42
1.0
 92
        0
 66
     7
 43
1.0
 76
     1
 77
     6
 78
     2
 67
     7
 79
     5
170
     0
171
     0
290
     0
174
     0
 93
       13
 44
0.0
173
     0
291
     1
 45
0.0
1001
ACAD
1000
AcDbSavedByObjectVersion
1070
     0
  0
VISUALSTYLE
  5
2D
102
{ACAD_XDICTIONARY
360
13B9
102
}
102
{ACAD_REACTORS
330
29
102
}
330
29
100
AcDbVisualStyle
  2

 70
     3
 71
     2
 72
     2
 73
     1
 90
        2
 40
-0.6
 41
30.0
 62
     5
 63
     7
 74
     1
 91
        0
 64
     7
 65
   257
 75
     1
175
     1
 42
1.0
 92
        0
 66
   257
 43
1.0
 76
     1
 77
     6
 78
     2
 67
     7
 79
     5
170
     0
171
     0
290
     0
174
     0
 93
       13
 44
0.0
173
     0
291
     1
 45
0.0
1001
ACAD
1000
AcDbSavedByObjectVersion
1070
     0
  0
VISUALSTYLE
  5
31
102
{ACAD_XDICTIONARY
360
13C1
102
}
102
{ACAD_REACTORS
330
29
102
}
330
29
100
AcDbVisualStyle
  2

 70
     6
 71
     1
 72
     2
 73
     2
 90
        0
 40
-0.6
 41
-30.0
 62
     5
 63
     7
 74
     2
 91
        2
 64
     7
 65
   257
 75
     2
175
     1
 42
40.0
 92
        0
 66
   257
 43
1.0
 76
     1
 77
     6
 78
     2
 67
     7
 79
     3
170
     0
171
     0
290
     0
174
     0
 93
        1
 44
0.0
173
     0
291
     0
 45
0.0
1001
ACAD
1000
AcDbSavedByObjectVersion
1070
     0
  0
VISUALSTYLE
  5
3F
102
{ACAD_XDICTIONARY
360
13DD
102
}
102
{ACAD_REACTORS
330
29
102
}
330
29
100
AcDbVisualStyle
  2

 70
    20
 71
     2
 72
     2
 73
     0
 90
        0
 40
-0.6
 41
-30.0
 62
     5
 63
     7
 74
     1
 91
        4
 64
     7
 65
   257
 75
     1
175
     1
 42
1.0
 92
       10
 66
     7
 43
1.0
 76
     1
 77
     6
 78
     2
 67
     7
 79
     5
170
     0
171
     0
290
     0
174
     0
 93
        1
 44
0.0
173
     0
291
     1
 45
0.0
1001
ACAD
1000
AcDbSavedByObjectVersion
1070
     0
  0
VISUALSTYLE
  5
37
102
{ACAD_XDICTIONARY
360
13CD
102
}
102
{ACAD_REACTORS
330
29
102
}
330
29
100
AcDbVisualStyle
  2

 70
    14
 71
     2
 72
     2
 73
     0
 90
        0
 40
-0.6
 41
-30.0
 62
     5
 63
     7
 74
     1
 91
        4
 64
     7
 65
   257
 75
     7
175
     7
 42
1.0
 92
        8
 66
     7
 43
1.0
 76
     1
 77
     6
 78
     2
 67
     7
 79
     5
170
     0
171
     0
290
     0
174
     0
 93
        1
 44
0.0
173
     0
291
     1
 45
0.0
1001
ACAD
1000
AcDbSavedByObjectVersion
1070
     0
  0
VISUALSTYLE
  5
40
102
{ACAD_XDICTIONARY
360
13DF
102
}
102
{ACAD_REACTORS
330
29
102
}
330
29
100
AcDbVisualStyle
  2

 70
    21
 71
     2
 72
     2
 73
     0
 90
        0
 40
-0.6
 41
-30.0
 62
     5
 63
     7
 74
     1
 91
        4
 64
     7
 65
   257
 75
     1
175
     1
 42
1.0
 92
        9
 66
     7
 43
1.0
 76
     1
 77
     6
 78
     2
 67
     7
 79
     5
170
     0
171
     0
290
     0
174
     0
 93
        1
 44
0.0
173
     0
291
     1
 45
0.0
1001
ACAD
1000
AcDbSavedByObjectVersion
1070
     0
  0
VISUALSTYLE
  5
33
102
{ACAD_XDICTIONARY
360
13C5
102
}
102
{ACAD_REACTORS
330
29
102
}
330
29
100
AcDbVisualStyle
  2

 70
     8
 71
     2
 72
     3
 73
     0
 90
        2
 40
-0.6
 41
30.0
 62
     5
 63
     7
 74
     0
 91
        0
 64
     7
 65
   257
 75
     1
175
     1
 42
1.0
 92
        8
 66
   257
 43
1.0
 76
     1
 77
     6
 78
     2
 67
     7
 79
     3
170
     0
171
     0
290
     0
174
     0
 93
       13
 44
0.0
173
     0
291
     0
 45
0.0
1001
ACAD
1000
AcDbSavedByObjectVersion
1070
     0
  0
VISUALSTYLE
  5
3E
102
{ACAD_XDICTIONARY
360
13DB
102
}
102
{ACAD_REACTORS
330
29
102
}
330
29
100
AcDbVisualStyle
  2

 70
    27
 71
     2
 72
     2
 73
     1
 90
        2
 40
-0.6
 41
30.0
 62
     5
 63
     7
 74
     0
 91
        4
 64
     7
 65
   257
 75
     1
175
     1
 42
1.0
 92
        8
 66
   257
 43
1.0
 76
     1
 77
     6
 78
     2
 67
     8
 79
     3
170
     0
171
     0
290
     0
174
     0
 93
        5
 44
0.0
173
     0
291
     0
 45
0.0
1001
ACAD
1000
AcDbSavedByObjectVersion
1070
     0
  0
VISUALSTYLE
  5
3D
102
{ACAD_XDICTIONARY
360
13D9
102
}
102
{ACAD_REACTORS
330
29
102
}
330
29
100
AcDbVisualStyle
  2

 70
    26
 71
     2
 72
     2
 73
     1
 90
        2
 40
-0.6
 41
30.0
 62
     5
 63
     7
 74
     1
 91
       10
 64
     7
 65
   257
 75
     2
175
     1
 42
1.0
 92
        8
 66
   257
 43
1.0
 76
     1
 77
     6
 78
     2
 67
     7
 79
     3
170
     0
171
     0
290
     0
174
     0
 93
        5
 44
0.0
173
     0
291
     0
 45
0.0
1001
ACAD
1000
AcDbSavedByObjectVersion
1070
     0
  0
VISUALSTYLE
  5
3A
102
{ACAD_XDICTIONARY
360
13D3
102
}
102
{ACAD_REACTORS
330
29
102
}
330
29
100
AcDbVisualStyle
  2

 70
    23
 71
     2
 72
     2
 73
     3
 90
        0
 40
-0.6
 41
-30.0
 62
     5
 63
     7
 74
     2
 91
        2
 64
     7
 65
     7
 75
     1
175
     1
 42
40.0
 92
        8
 66
     7
 43
1.0
 76
     1
 77
     6
 78
     2
 67
     7
 79
     3
170
     0
171
     0
290
     0
174
     0
 93
        1
 44
0.0
173
     0
291
     0
 45
0.0
1001
ACAD
1000
AcDbSavedByObjectVersion
1070
     0
  0
VISUALSTYLE
  5
3B
102
{ACAD_XDICTIONARY
360
13D5
102
}
102
{ACAD_REACTORS
330
29
102
}
330
29
100
AcDbVisualStyle
  2

 70
    24
 71
     1
 72
     2
 73
     2
 90
        0
 40
-0.6
 41
-30.0
 62
     5
 63
     7
 74
     2
 91
        2
 64
     7
 65
     7
 75
     1
175
     1
 42
40.0
 92
       11
 66
     7
 43
1.0
 76
     1
 77
     6
 78
     2
 67
     7
 79
     6
170
     0
171
     0
290
     0
174
     0
 93
        1
 44
0.0
173
     0
291
     0
 45
0.0
1001
ACAD
1000
AcDbSavedByObjectVersion
1070
     0
  0
VISUALSTYLE
  5
36
102
{ACAD_XDICTIONARY
360
13CB
102
}
102
{ACAD_REACTORS
330
29
102
}
330
29
100
AcDbVisualStyle
  2

 70
    13
 71
     2
 72
     2
 73
     0
 90
        0
 40
-0.6
 41
-30.0
 62
     5
 63
     7
 74
     1
 91
        4
 64
     7
 65
   257
 75
     1
175
     1
 42
1.0
 92
       12
 66
     7
 43
1.0
 76
     1
 77
     6
 78
     2
 67
     7
 79
     5
170
     0
171
     0
290
     0
174
     0
 93
        1
 44
0.0
173
     0
291
     1
 45
0.0
1001
ACAD
1000
AcDbSavedByObjectVersion
1070
     0
  0
VISUALSTYLE
  5
30
102
{ACAD_XDICTIONARY
360
13BF
102
}
102
{ACAD_REACTORS
330
29
102
}
330
29
100
AcDbVisualStyle
  2

 70
     5
 71
     0
 72
     2
 73
     0
 90
        0
 40
-0.6
 41
-30.0
 62
     5
 63
     7
 74
     1
 91
        4
 64
     7
 65
   257
 75
     1
175
     1
 42
1.0
 92
        0
 66
   257
 43
1.0
 76
     1
 77
     6
 78
     2
 67
     7
 79
     3
170
     0
171
     0
290
     0
174
     0
 93
        1
 44
0.0
173
     0
291
     0
 45
0.0
1001
ACAD
1000
AcDbSavedByObjectVersion
1070
     0
  0
VISUALSTYLE
  5
3C
102
{ACAD_XDICTIONARY
360
13D7
102
}
102
{ACAD_REACTORS
330
29
102
}
330
29
100
AcDbVisualStyle
  2

 70
    25
 71
     2
 72
     2
 73
     1
 90
        1
 40
0.5
 41
-30.0
 62
     5
 63
     7
 74
     1
 91
        0
 64
     7
 65
   257
 75
     1
175
     1
 42
1.0
 92
        8
 66
     7
 43
1.0
 76
     1
 77
     6
 78
     2
 67
     7
 79
     3
170
     0
171
     0
290
     0
174
     0
 93
       13
 44
0.0
173
     0
291
     0
 45
0.0
1001
ACAD
1000
AcDbSavedByObjectVersion
1070
     0
  0
DICTIONARYVAR
  5
95F
102
{ACAD_REACTORS
330
95C
102
}
330
95C
100
DictionaryVariables
280
     0
  1
1:1
  0
DICTIONARYVAR
  5
95E
102
{ACAD_REACTORS
330
95C
102
}
330
95C
100
DictionaryVariables
280
     0
  1
STANDARD
  0
DICTIONARYVAR
  5
95D
102
{ACAD_REACTORS
330
95C
102
}
330
95C
100
DictionaryVariables
280
     0
  1
STANDARD
  0
DICTIONARYVAR
  5
962
102
{ACAD_REACTORS
330
95C
102
}
330
95C
100
DictionaryVariables
280
     0
  1
1
  0
DICTIONARYVAR
  5
961
102
{ACAD_REACTORS
330
95C
102
}
330
95C
100
DictionaryVariables
280
     0
  1
0
  0
DICTIONARYVAR
  5
960
102
{ACAD_REACTORS
330
95C
102
}
330
95C
100
DictionaryVariables
280
     0
  1
127
  0
DICTIONARYVAR
  5
1151
102
{ACAD_REACTORS
330
95C
102
}
330
95C
100
DictionaryVariables
280
     0
  1
2
  0
DICTIONARY
  5
13E6
330
6E
100
AcDbDictionary
280
     1
281
     1
  3
ACAD_XREC_ROUNDTRIP
360
13E7
  0
DICTIONARY
  5
13E4
330
6A
100
AcDbDictionary
280
     1
281
     1
  3
ACAD_XREC_ROUNDTRIP
360
13E5
  0
DICTIONARY
  5
1A
330
19
100
AcDbDictionary
280
     1
281
     1
  3
ACAD_XREC_ROUNDTRIP
360
96D
  3
BUMPTILE
360
1C
  3
DIFFUSETILE
360
1B
  3
OPACITYTILE
360
1F
  3
REFLECTIONTILE
360
1E
  3
REFRACTIONTILE
360
20
  3
SPECULARTILE
360
1D
  0
DICTIONARY
  5
12
330
11
100
AcDbDictionary
280
     1
281
     1
  3
ACAD_XREC_ROUNDTRIP
360
96C
  3
BUMPTILE
360
14
  3
DIFFUSETILE
360
13
  3
OPACITYTILE
360
17
  3
REFLECTIONTILE
360
16
  3
REFRACTIONTILE
360
18
  3
SPECULARTILE
360
15
  0
DICTIONARY
  5
22
330
21
100
AcDbDictionary
280
     1
281
     1
  3
ACAD_XREC_ROUNDTRIP
360
96E
  3
BUMPTILE
360
24
  3
DIFFUSETILE
360
23
  3
OPACITYTILE
360
27
  3
REFLECTIONTILE
360
26
  3
REFRACTIONTILE
360
28
  3
SPECULARTILE
360
25
  0
DICTIONARY
  5
964
330
64
100
AcDbDictionary
280
     1
281
     1
  3
ACAD_ROUNDTRIP_2008_TABLESTYLE_CELLSTYLEMAP
360
13AC
  3
ACAD_XREC_ROUNDTRIP
360
13E3
  0
DICTIONARY
  5
13BD
330
2F
100
AcDbDictionary
280
     1
281
     1
  3
ACAD_XREC_ROUNDTRIP
360
13BE
  0
DICTIONARY
  5
13BB
330
2E
100
AcDbDictionary
280
     1
281
     1
  3
ACAD_XREC_ROUNDTRIP
360
13BC
  0
DICTIONARY
  5
13C9
330
35
100
AcDbDictionary
280
     1
281
     1
  3
ACAD_XREC_ROUNDTRIP
360
13CA
  0
DICTIONARY
  5
13D1
330
39
100
AcDbDictionary
280
     1
281
     1
  3
ACAD_XREC_ROUNDTRIP
360
13D2
  0
DICTIONARY
  5
13C3
330
32
100
AcDbDictionary
280
     1
281
     1
  3
ACAD_XREC_ROUNDTRIP
360
13C4
  0
DICTIONARY
  5
13C7
330
34
100
AcDbDictionary
280
     1
281
     1
  3
ACAD_XREC_ROUNDTRIP
360
13C8
  0
DICTIONARY
  5
13E1
330
41
100
AcDbDictionary
280
     1
281
     1
  3
ACAD_XREC_ROUNDTRIP
360
13E2
  0
DICTIONARY
  5
13CF
330
38
100
AcDbDictionary
280
     1
281
     1
  3
ACAD_XREC_ROUNDTRIP
360
13D0
  0
DICTIONARY
  5
13B3
330
2A
100
AcDbDictionary
280
     1
281
     1
  3
ACAD_XREC_ROUNDTRIP
360
13B4
  0
DICTIONARY
  5
13B5
330
2B
100
AcDbDictionary
280
     1
281
     1
  3
ACAD_XREC_ROUNDTRIP
360
13B6
  0
DICTIONARY
  5
13B7
330
2C
100
AcDbDictionary
280
     1
281
     1
  3
ACAD_XREC_ROUNDTRIP
360
13B8
  0
DICTIONARY
  5
13B9
330
2D
100
AcDbDictionary
280
     1
281
     1
  3
ACAD_XREC_ROUNDTRIP
360
13BA
  0
DICTIONARY
  5
13C1
330
31
100
AcDbDictionary
280
     1
281
     1
  3
ACAD_XREC_ROUNDTRIP
360
13C2
  0
DICTIONARY
  5
13DD
330
3F
100
AcDbDictionary
280
     1
281
     1
  3
ACAD_XREC_ROUNDTRIP
360
13DE
  0
DICTIONARY
  5
13CD
330
37
100
AcDbDictionary
280
     1
281
     1
  3
ACAD_XREC_ROUNDTRIP
360
13CE
  0
DICTIONARY
  5
13DF
330
40
100
AcDbDictionary
280
     1
281
     1
  3
ACAD_XREC_ROUNDTRIP
360
13E0
  0
DICTIONARY
  5
13C5
330
33
100
AcDbDictionary
280
     1
281
     1
  3
ACAD_XREC_ROUNDTRIP
360
13C6
  0
DICTIONARY
  5
13DB
330
3E
100
AcDbDictionary
280
     1
281
     1
  3
ACAD_XREC_ROUNDTRIP
360
13DC
  0
DICTIONARY
  5
13D9
330
3D
100
AcDbDictionary
280
     1
281
     1
  3
ACAD_XREC_ROUNDTRIP
360
13DA
  0
DICTIONARY
  5
13D3
330
3A
100
AcDbDictionary
280
     1
281
     1
  3
ACAD_XREC_ROUNDTRIP
360
13D4
  0
DICTIONARY
  5
13D5
330
3B
100
AcDbDictionary
280
     1
281
     1
  3
ACAD_XREC_ROUNDTRIP
360
13D6
  0
DICTIONARY
  5
13CB
330
36
100
AcDbDictionary
280
     1
281
     1
  3
ACAD_XREC_ROUNDTRIP
360
13CC
  0
DICTIONARY
  5
13BF
330
30
100
AcDbDictionary
280
     1
281
     1
  3
ACAD_XREC_ROUNDTRIP
360
13C0
  0
DICTIONARY
  5
13D7
330
3C
100
AcDbDictionary
280
     1
281
     1
  3
ACAD_XREC_ROUNDTRIP
360
13D8
  0
XRECORD
  5
13E7
102
{ACAD_REACTORS
330
13E6
102
}
330
13E6
100
AcDbXrecord
280
     1
102
SHADEPLOT
 70
     0
102
SHADEPLOTRESLEVEL
 70
     2
102
SHADEPLOTCUSTOMDPI
 70
   300
  0
XRECORD
  5
13E5
102
{ACAD_REACTORS
330
13E4
102
}
330
13E4
100
AcDbXrecord
280
     1
102
SHADEPLOT
 70
     0
102
SHADEPLOTRESLEVEL
 70
     2
102
SHADEPLOTCUSTOMDPI
 70
   300
  0
XRECORD
  5
96D
102
{ACAD_REACTORS
330
1A
102
}
330
1A
100
AcDbXrecord
280
     1
102
MATERIAL
148
0.0
149
0.0
149
0.0
 93
        0
 94
      127
282
     0
 72
     0
 77
     0
171
     0
175
     0
179
     0
273
     0
  0
XRECORD
  5
1C
102
{ACAD_REACTORS
330
1A
102
}
330
1A
100
AcDbXrecord
280
     1
270
     1
271
     1
  0
XRECORD
  5
1B
102
{ACAD_REACTORS
330
1A
102
}
330
1A
100
AcDbXrecord
280
     1
270
     1
271
     1
  0
XRECORD
  5
1F
102
{ACAD_REACTORS
330
1A
102
}
330
1A
100
AcDbXrecord
280
     1
270
     1
271
     1
  0
XRECORD
  5
1E
102
{ACAD_REACTORS
330
1A
102
}
330
1A
100
AcDbXrecord
280
     1
270
     1
271
     1
  0
XRECORD
  5
20
102
{ACAD_REACTORS
330
1A
102
}
330
1A
100
AcDbXrecord
280
     1
270
     1
271
     1
  0
XRECORD
  5
1D
102
{ACAD_REACTORS
330
1A
102
}
330
1A
100
AcDbXrecord
280
     1
270
     1
271
     1
  0
XRECORD
  5
96C
102
{ACAD_REACTORS
330
12
102
}
330
12
100
AcDbXrecord
280
     1
102
MATERIAL
148
0.0
149
0.0
149
0.0
 93
        0
 94
      127
282
     0
 72
     0
 77
     0
171
     0
175
     0
179
     0
273
     0
  0
XRECORD
  5
14
102
{ACAD_REACTORS
330
12
102
}
330
12
100
AcDbXrecord
280
     1
270
     1
271
     1
  0
XRECORD
  5
13
102
{ACAD_REACTORS
330
12
102
}
330
12
100
AcDbXrecord
280
     1
270
     1
271
     1
  0
XRECORD
  5
17
102
{ACAD_REACTORS
330
12
102
}
330
12
100
AcDbXrecord
280
     1
270
     1
271
     1
  0
XRECORD
  5
16
102
{ACAD_REACTORS
330
12
102
}
330
12
100
AcDbXrecord
280
     1
270
     1
271
     1
  0
XRECORD
  5
18
102
{ACAD_REACTORS
330
12
102
}
330
12
100
AcDbXrecord
280
     1
270
     1
271
     1
  0
XRECORD
  5
15
102
{ACAD_REACTORS
330
12
102
}
330
12
100
AcDbXrecord
280
     1
270
     1
271
     1
  0
XRECORD
  5
96E
102
{ACAD_REACTORS
330
22
102
}
330
22
100
AcDbXrecord
280
     1
102
MATERIAL
148
0.0
149
0.0
149
0.0
 93
        0
 94
      127
282
     0
 72
     0
 77
     0
171
     0
175
     0
179
     0
273
     0
  0
XRECORD
  5
24
102
{ACAD_REACTORS
330
22
102
}
330
22
100
AcDbXrecord
280
     1
270
     1
271
     1
  0
XRECORD
  5
23
102
{ACAD_REACTORS
330
22
102
}
330
22
100
AcDbXrecord
280
     1
270
     1
271
     1
  0
XRECORD
  5
27
102
{ACAD_REACTORS
330
22
102
}
330
22
100
AcDbXrecord
280
     1
270
     1
271
     1
  0
XRECORD
  5
26
102
{ACAD_REACTORS
330
22
102
}
330
22
100
AcDbXrecord
280
     1
270
     1
271
     1
  0
XRECORD
  5
28
102
{ACAD_REACTORS
330
22
102
}
330
22
100
AcDbXrecord
280
     1
270
     1
271
     1
  0
XRECORD
  5
25
102
{ACAD_REACTORS
330
22
102
}
330
22
100
AcDbXrecord
280
     1
270
     1
271
     1
  0
CELLSTYLEMAP
  5
13AC
102
{ACAD_REACTORS
330
964
102
}
330
964
100
AcDbCellStyleMap
 90
        3
300
CELLSTYLE
  1
TABLEFORMAT_BEGIN
 90
        5
170
     1
 91
        0
 92
    32768
 62
   257
 93
        1
300
CONTENTFORMAT
  1
CONTENTFORMAT_BEGIN
 90
        0
 91
        0
 92
      512
 93
        0
300

 40
0.0
140
1.0
 94
        5
 62
     0
340
55
144
0.25
309
CONTENTFORMAT_END
171
     1
301
MARGIN
  1
CELLMARGIN_BEGIN
 40
0.06
 40
0.06
 40
0.06
 40
0.06
 40
0.18
 40
0.18
309
CELLMARGIN_END
 94
        6
 95
        1
302
GRIDFORMAT
  1
GRIDFORMAT_BEGIN
 90
        0
 91
        1
 62
     0
 92
       -2
340
0
 93
        0
 40
0.045
309
GRIDFORMAT_END
 95
        2
302
GRIDFORMAT
  1
GRIDFORMAT_BEGIN
 90
        0
 91
        1
 62
     0
 92
       -2
340
0
 93
        0
 40
0.045
309
GRIDFORMAT_END
 95
        4
302
GRIDFORMAT
  1
GRIDFORMAT_BEGIN
 90
        0
 91
        1
 62
     0
 92
       -2
340
0
 93
        0
 40
0.045
309
GRIDFORMAT_END
 95
        8
302
GRIDFORMAT
  1
GRIDFORMAT_BEGIN
 90
        0
 91
        1
 62
     0
 92
       -2
340
0
 93
        0
 40
0.045
309
GRIDFORMAT_END
 95
       16
302
GRIDFORMAT
  1
GRIDFORMAT_BEGIN
 90
        0
 91
        1
 62
     0
 92
       -2
340
0
 93
        0
 40
0.045
309
GRIDFORMAT_END
 95
       32
302
GRIDFORMAT
  1
GRIDFORMAT_BEGIN
 90
        0
 91
        1
 62
     0
 92
       -2
340
0
 93
        0
 40
0.045
309
GRIDFORMAT_END
309
TABLEFORMAT_END
  1
CELLSTYLE_BEGIN
 90
        1
 91
        1
300
_TITLE
309
CELLSTYLE_END
300
CELLSTYLE
  1
TABLEFORMAT_BEGIN
 90
        5
170
     1
 91
        0
 92
        0
 62
   257
 93
        1
300
CONTENTFORMAT
  1
CONTENTFORMAT_BEGIN
 90
        0
 91
        0
 92
      512
 93
        0
300

 40
0.0
140
1.0
 94
        5
 62
     0
340
55
144
0.18
309
CONTENTFORMAT_END
171
     1
301
MARGIN
  1
CELLMARGIN_BEGIN
 40
0.06
 40
0.06
 40
0.06
 40
0.06
 40
0.18
 40
0.18
309
CELLMARGIN_END
 94
        6
 95
        1
302
GRIDFORMAT
  1
GRIDFORMAT_BEGIN
 90
        0
 91
        1
 62
     0
 92
       -2
340
0
 93
        0
 40
0.045
309
GRIDFORMAT_END
 95
        2
302
GRIDFORMAT
  1
GRIDFORMAT_BEGIN
 90
        0
 91
        1
 62
     0
 92
       -2
340
0
 93
        0
 40
0.045
309
GRIDFORMAT_END
 95
        4
302
GRIDFORMAT
  1
GRIDFORMAT_BEGIN
 90
        0
 91
        1
 62
     0
 92
       -2
340
0
 93
        0
 40
0.045
309
GRIDFORMAT_END
 95
        8
302
GRIDFORMAT
  1
GRIDFORMAT_BEGIN
 90
        0
 91
        1
 62
     0
 92
       -2
340
0
 93
        0
 40
0.045
309
GRIDFORMAT_END
 95
       16
302
GRIDFORMAT
  1
GRIDFORMAT_BEGIN
 90
        0
 91
        1
 62
     0
 92
       -2
340
0
 93
        0
 40
0.045
309
GRIDFORMAT_END
 95
       32
302
GRIDFORMAT
  1
GRIDFORMAT_BEGIN
 90
        0
 91
        1
 62
     0
 92
       -2
340
0
 93
        0
 40
0.045
309
GRIDFORMAT_END
309
TABLEFORMAT_END
  1
CELLSTYLE_BEGIN
 90
        2
 91
        1
300
_HEADER
309
CELLSTYLE_END
300
CELLSTYLE
  1
TABLEFORMAT_BEGIN
 90
        5
170
     1
 91
        0
 92
        0
 62
   257
 93
        1
300
CONTENTFORMAT
  1
CONTENTFORMAT_BEGIN
 90
        0
 91
        0
 92
      512
 93
        0
300

 40
0.0
140
1.0
 94
        2
 62
     0
340
55
144
0.18
309
CONTENTFORMAT_END
171
     1
301
MARGIN
  1
CELLMARGIN_BEGIN
 40
0.06
 40
0.06
 40
0.06
 40
0.06
 40
0.18
 40
0.18
309
CELLMARGIN_END
 94
        6
 95
        1
302
GRIDFORMAT
  1
GRIDFORMAT_BEGIN
 90
        0
 91
        1
 62
     0
 92
       -2
340
0
 93
        0
 40
0.045
309
GRIDFORMAT_END
 95
        2
302
GRIDFORMAT
  1
GRIDFORMAT_BEGIN
 90
        0
 91
        1
 62
     0
 92
       -2
340
0
 93
        0
 40
0.045
309
GRIDFORMAT_END
 95
        4
302
GRIDFORMAT
  1
GRIDFORMAT_BEGIN
 90
        0
 91
        1
 62
     0
 92
       -2
340
0
 93
        0
 40
0.045
309
GRIDFORMAT_END
 95
        8
302
GRIDFORMAT
  1
GRIDFORMAT_BEGIN
 90
        0
 91
        1
 62
     0
 92
       -2
340
0
 93
        0
 40
0.045
309
GRIDFORMAT_END
 95
       16
302
GRIDFORMAT
  1
GRIDFORMAT_BEGIN
 90
        0
 91
        1
 62
     0
 92
       -2
340
0
 93
        0
 40
0.045
309
GRIDFORMAT_END
 95
       32
302
GRIDFORMAT
  1
GRIDFORMAT_BEGIN
 90
        0
 91
        1
 62
     0
 92
       -2
340
0
 93
        0
 40
0.045
309
GRIDFORMAT_END
309
TABLEFORMAT_END
  1
CELLSTYLE_BEGIN
 90
        3
 91
        2
300
_DATA
309
CELLSTYLE_END
  0
XRECORD
  5
13E3
102
{ACAD_REACTORS
330
964
102
}
330
964
100
AcDbXrecord
280
     1
102
ACAD_ROUNDTRIP_PRE2007_TABLESTYLE
 90
      512
 91
        0
  1

 92
      512
 93
        0
  2

 94
      512
 95
        0
  3

  0
XRECORD
  5
13BE
102
{ACAD_REACTORS
330
13BD
102
}
330
13BD
100
AcDbXrecord
280
     1
102
RTVSPropertyOp0
 70
     1
102
RTVSPropertyOp1
 70
     1
102
RTVSPropertyOp2
 70
     1
102
RTVSPropertyOp3
 70
     1
102
RTVSPropertyOp4
 70
     1
102
RTVSPropertyOp5
 70
     1
102
RTVSPropertyOp6
 70
     1
102
RTVSPropertyOp7
 70
     1
102
RTVSPropertyOp8
 70
     1
102
RTVSPropertyOp9
 70
     1
102
RTVSPropertyOp10
 70
     1
102
RTVSPropertyOp11
 70
     1
102
RTVSPropertyOp12
 70
     1
102
RTVSPropertyOp13
 70
     1
102
RTVSPropertyOp14
 70
     1
102
RTVSPropertyOp15
 70
     1
102
RTVSPropertyOp16
 70
     1
102
RTVSPropertyOp17
 70
     1
102
RTVSPropertyOp18
 70
     1
102
RTVSPropertyOp19
 70
     1
102
RTVSPropertyOp20
 70
     1
102
RTVSPropertyOp21
 70
     1
102
RTVSPropertyOp22
 70
     1
102
RTVSPropertyOp23
 70
     1
102
RTVSPropertyOp24
 70
     1
102
RTVSPropertyOp25
 70
     1
102
RTVSPropertyOp26
 70
     1
102
RTVSPropertyOp27
 70
     1
102
RTVSPropertyOp28
 70
     1
102
RTVSPropertyOp29
 70
     1
102
RTVSPropertyOp30
 70
     1
102
RTVSPropertyOp31
 70
     1
102
RTVSPropertyOp32
 70
     1
  0
XRECORD
  5
13BC
102
{ACAD_REACTORS
330
13BB
102
}
330
13BB
100
AcDbXrecord
280
     1
102
RTVSPropertyOp0
 70
     1
102
RTVSPropertyOp1
 70
     1
102
RTVSPropertyOp2
 70
     1
102
RTVSPropertyOp3
 70
     1
102
RTVSPropertyOp4
 70
     1
102
RTVSPropertyOp5
 70
     1
102
RTVSPropertyOp6
 70
     1
102
RTVSPropertyOp7
 70
     1
102
RTVSPropertyOp8
 70
     1
102
RTVSPropertyOp9
 70
     1
102
RTVSPropertyOp10
 70
     1
102
RTVSPropertyOp11
 70
     1
102
RTVSPropertyOp12
 70
     1
102
RTVSPropertyOp13
 70
     1
102
RTVSPropertyOp14
 70
     1
102
RTVSPropertyOp15
 70
     1
102
RTVSPropertyOp16
 70
     1
102
RTVSPropertyOp17
 70
     1
102
RTVSPropertyOp18
 70
     1
102
RTVSPropertyOp19
 70
     1
102
RTVSPropertyOp20
 70
     1
102
RTVSPropertyOp21
 70
     1
102
RTVSPropertyOp22
 70
     1
102
RTVSPropertyOp23
 70
     1
102
RTVSPropertyOp24
 70
     1
102
RTVSPropertyOp25
 70
     1
102
RTVSPropertyOp26
 70
     1
102
RTVSPropertyOp27
 70
     1
102
RTVSPropertyOp28
 70
     1
102
RTVSPropertyOp29
 70
     1
102
RTVSPropertyOp30
 70
     1
102
RTVSPropertyOp31
 70
     1
102
RTVSPropertyOp32
 70
     1
  0
XRECORD
  5
13CA
102
{ACAD_REACTORS
330
13C9
102
}
330
13C9
100
AcDbXrecord
280
     1
102
RTVSPropertyOp0
 70
     1
102
RTVSPropertyOp1
 70
     1
102
RTVSPropertyOp2
 70
     1
102
RTVSPropertyOp3
 70
     1
102
RTVSPropertyOp4
 70
     1
102
RTVSPropertyOp5
 70
     1
102
RTVSPropertyOp6
 70
     1
102
RTVSPropertyOp7
 70
     1
102
RTVSPropertyOp8
 70
     1
102
RTVSPropertyOp9
 70
     1
102
RTVSPropertyOp10
 70
     1
102
RTVSPropertyOp11
 70
     1
102
RTVSPropertyOp12
 70
     1
102
RTVSPropertyOp13
 70
     1
102
RTVSPropertyOp14
 70
     1
102
RTVSPropertyOp15
 70
     1
102
RTVSPropertyOp16
 70
     1
102
RTVSPropertyOp17
 70
     1
102
RTVSPropertyOp18
 70
     1
102
RTVSPropertyOp19
 70
     1
102
RTVSPropertyOp20
 70
     1
102
RTVSPropertyOp21
 70
     1
102
RTVSPropertyOp22
 70
     1
102
RTVSPropertyOp23
 70
     1
102
RTVSPropertyOp24
 70
     1
102
RTVSPropertyOp25
 70
     1
102
RTVSPropertyOp26
 70
     1
102
RTVSPropertyOp27
 70
     1
102
RTVSPropertyOp28
 70
     1
102
RTVSPropertyOp29
 70
     1
102
RTVSPropertyOp30
 70
     1
102
RTVSPropertyOp31
 70
     1
102
RTVSPropertyOp32
 70
     1
  0
XRECORD
  5
13D2
102
{ACAD_REACTORS
330
13D1
102
}
330
13D1
100
AcDbXrecord
280
     1
102
RTVSPropertyOp0
 70
     1
102
RTVSPropertyOp1
 70
     1
102
RTVSPropertyOp2
 70
     1
102
RTVSPropertyOp3
 70
     1
102
RTVSPropertyOp4
 70
     1
102
RTVSPropertyOp5
 70
     1
102
RTVSPropertyOp6
 70
     1
102
RTVSPropertyOp7
 70
     1
102
RTVSPropertyOp8
 70
     1
102
RTVSPropertyOp9
 70
     1
102
RTVSPropertyOp10
 70
     1
102
RTVSPropertyOp11
 70
     1
102
RTVSPropertyOp12
 70
     1
102
RTVSPropertyOp13
 70
     1
102
RTVSPropertyOp14
 70
     1
102
RTVSPropertyOp15
 70
     1
102
RTVSPropertyOp16
 70
     1
102
RTVSPropertyOp17
 70
     1
102
RTVSPropertyOp18
 70
     1
102
RTVSPropertyOp19
 70
     1
102
RTVSPropertyOp20
 70
     1
102
RTVSPropertyOp21
 70
     1
102
RTVSPropertyOp22
 70
     1
102
RTVSPropertyOp23
 70
     1
102
RTVSPropertyOp24
 70
     1
102
RTVSPropertyOp25
 70
     1
102
RTVSPropertyOp26
 70
     1
102
RTVSPropertyOp27
 70
     1
102
RTVSPropertyOp28
 70
     1
102
RTVSPropertyOp29
 70
     1
102
RTVSPropertyOp30
 70
     1
102
RTVSPropertyOp31
 70
     1
102
RTVSPropertyOp32
 70
     1
  0
XRECORD
  5
13C4
102
{ACAD_REACTORS
330
13C3
102
}
330
13C3
100
AcDbXrecord
280
     1
102
RTVSPropertyOp0
 70
     1
102
RTVSPropertyOp1
 70
     1
102
RTVSPropertyOp2
 70
     1
102
RTVSPropertyOp3
 70
     1
102
RTVSPropertyOp4
 70
     1
102
RTVSPropertyOp5
 70
     1
102
RTVSPropertyOp6
 70
     1
102
RTVSPropertyOp7
 70
     1
102
RTVSPropertyOp8
 70
     1
102
RTVSPropertyOp9
 70
     1
102
RTVSPropertyOp10
 70
     1
102
RTVSPropertyOp11
 70
     1
102
RTVSPropertyOp12
 70
     1
102
RTVSPropertyOp13
 70
     1
102
RTVSPropertyOp14
 70
     1
102
RTVSPropertyOp15
 70
     1
102
RTVSPropertyOp16
 70
     1
102
RTVSPropertyOp17
 70
     1
102
RTVSPropertyOp18
 70
     1
102
RTVSPropertyOp19
 70
     1
102
RTVSPropertyOp20
 70
     1
102
RTVSPropertyOp21
 70
     1
102
RTVSPropertyOp22
 70
     1
102
RTVSPropertyOp23
 70
     1
102
RTVSPropertyOp24
 70
     1
102
RTVSPropertyOp25
 70
     1
102
RTVSPropertyOp26
 70
     1
102
RTVSPropertyOp27
 70
     1
102
RTVSPropertyOp28
 70
     1
102
RTVSPropertyOp29
 70
     1
102
RTVSPropertyOp30
 70
     1
102
RTVSPropertyOp31
 70
     1
102
RTVSPropertyOp32
 70
     1
  0
XRECORD
  5
13C8
102
{ACAD_REACTORS
330
13C7
102
}
330
13C7
100
AcDbXrecord
280
     1
102
RTVSPropertyOp0
 70
     1
102
RTVSPropertyOp1
 70
     1
102
RTVSPropertyOp2
 70
     1
102
RTVSPropertyOp3
 70
     1
102
RTVSPropertyOp4
 70
     1
102
RTVSPropertyOp5
 70
     1
102
RTVSPropertyOp6
 70
     1
102
RTVSPropertyOp7
 70
     1
102
RTVSPropertyOp8
 70
     1
102
RTVSPropertyOp9
 70
     1
102
RTVSPropertyOp10
 70
     1
102
RTVSPropertyOp11
 70
     1
102
RTVSPropertyOp12
 70
     1
102
RTVSPropertyOp13
 70
     1
102
RTVSPropertyOp14
 70
     1
102
RTVSPropertyOp15
 70
     1
102
RTVSPropertyOp16
 70
     1
102
RTVSPropertyOp17
 70
     1
102
RTVSPropertyOp18
 70
     1
102
RTVSPropertyOp19
 70
     1
102
RTVSPropertyOp20
 70
     1
102
RTVSPropertyOp21
 70
     1
102
RTVSPropertyOp22
 70
     1
102
RTVSPropertyOp23
 70
     1
102
RTVSPropertyOp24
 70
     1
102
RTVSPropertyOp25
 70
     1
102
RTVSPropertyOp26
 70
     1
102
RTVSPropertyOp27
 70
     1
102
RTVSPropertyOp28
 70
     1
102
RTVSPropertyOp29
 70
     1
102
RTVSPropertyOp30
 70
     1
102
RTVSPropertyOp31
 70
     1
102
RTVSPropertyOp32
 70
     1
  0
XRECORD
  5
13E2
102
{ACAD_REACTORS
330
13E1
102
}
330
13E1
100
AcDbXrecord
280
     1
102
RTVSPropertyOp0
 70
     0
102
RTVSPropertyOp1
 70
     0
102
RTVSPropertyOp2
 70
     0
102
RTVSPropertyOp3
 70
     0
102
RTVSPropertyOp4
 70
     0
102
RTVSPropertyOp5
 70
     0
102
RTVSPropertyOp6
 70
     0
102
RTVSPropertyOp7
 70
     0
102
RTVSPropertyOp8
 70
     0
102
RTVSPropertyOp9
 70
     0
102
RTVSPropertyOp10
 70
     0
102
RTVSPropertyOp11
 70
     0
102
RTVSPropertyOp12
 70
     0
102
RTVSPropertyOp13
 70
     0
102
RTVSPropertyOp14
 70
     2
102
RTVSPropertyOp15
 70
     0
102
RTVSPropertyOp16
 70
     0
102
RTVSPropertyOp17
 70
     0
102
RTVSPropertyOp18
 70
     0
102
RTVSPropertyOp19
 70
     0
102
RTVSPropertyOp20
 70
     0
102
RTVSPropertyOp21
 70
     0
102
RTVSPropertyOp22
 70
     0
102
RTVSPropertyOp23
 70
     0
102
RTVSPropertyOp24
 70
     0
102
RTVSPropertyOp25
 70
     0
102
RTVSPropertyOp26
 70
     0
102
RTVSPropertyOp27
 70
     0
102
RTVSPropertyOp28
 70
     0
102
RTVSPropertyOp29
 70
     0
102
RTVSPropertyOp30
 70
     0
102
RTVSPropertyOp31
 70
     0
102
RTVSPropertyOp32
 70
     0
  0
XRECORD
  5
13D0
102
{ACAD_REACTORS
330
13CF
102
}
330
13CF
100
AcDbXrecord
280
     1
102
RTVSPropertyOp0
 70
     1
102
RTVSPropertyOp1
 70
     1
102
RTVSPropertyOp2
 70
     1
102
RTVSPropertyOp3
 70
     1
102
RTVSPropertyOp4
 70
     1
102
RTVSPropertyOp5
 70
     1
102
RTVSPropertyOp6
 70
     1
102
RTVSPropertyOp7
 70
     1
102
RTVSPropertyOp8
 70
     1
102
RTVSPropertyOp9
 70
     1
102
RTVSPropertyOp10
 70
     1
102
RTVSPropertyOp11
 70
     1
102
RTVSPropertyOp12
 70
     1
102
RTVSPropertyOp13
 70
     1
102
RTVSPropertyOp14
 70
     1
102
RTVSPropertyOp15
 70
     1
102
RTVSPropertyOp16
 70
     1
102
RTVSPropertyOp17
 70
     1
102
RTVSPropertyOp18
 70
     1
102
RTVSPropertyOp19
 70
     1
102
RTVSPropertyOp20
 70
     1
102
RTVSPropertyOp21
 70
     1
102
RTVSPropertyOp22
 70
     1
102
RTVSPropertyOp23
 70
     1
102
RTVSPropertyOp24
 70
     1
102
RTVSPropertyOp25
 70
     1
102
RTVSPropertyOp26
 70
     1
102
RTVSPropertyOp27
 70
     1
102
RTVSPropertyOp28
 70
     1
102
RTVSPropertyOp29
 70
     1
102
RTVSPropertyOp30
 70
     1
102
RTVSPropertyOp31
 70
     1
102
RTVSPropertyOp32
 70
     1
  0
XRECORD
  5
13B4
102
{ACAD_REACTORS
330
13B3
102
}
330
13B3
100
AcDbXrecord
280
     1
102
RTVSPropertyOp0
 70
     1
102
RTVSPropertyOp1
 70
     1
102
RTVSPropertyOp2
 70
     1
102
RTVSPropertyOp3
 70
     1
102
RTVSPropertyOp4
 70
     1
102
RTVSPropertyOp5
 70
     1
102
RTVSPropertyOp6
 70
     1
102
RTVSPropertyOp7
 70
     1
102
RTVSPropertyOp8
 70
     1
102
RTVSPropertyOp9
 70
     1
102
RTVSPropertyOp10
 70
     1
102
RTVSPropertyOp11
 70
     1
102
RTVSPropertyOp12
 70
     1
102
RTVSPropertyOp13
 70
     1
102
RTVSPropertyOp14
 70
     1
102
RTVSPropertyOp15
 70
     1
102
RTVSPropertyOp16
 70
     1
102
RTVSPropertyOp17
 70
     1
102
RTVSPropertyOp18
 70
     1
102
RTVSPropertyOp19
 70
     1
102
RTVSPropertyOp20
 70
     1
102
RTVSPropertyOp21
 70
     1
102
RTVSPropertyOp22
 70
     1
102
RTVSPropertyOp23
 70
     1
102
RTVSPropertyOp24
 70
     1
102
RTVSPropertyOp25
 70
     1
102
RTVSPropertyOp26
 70
     1
102
RTVSPropertyOp27
 70
     1
102
RTVSPropertyOp28
 70
     1
102
RTVSPropertyOp29
 70
     1
102
RTVSPropertyOp30
 70
     1
102
RTVSPropertyOp31
 70
     1
102
RTVSPropertyOp32
 70
     1
  0
XRECORD
  5
13B6
102
{ACAD_REACTORS
330
13B5
102
}
330
13B5
100
AcDbXrecord
280
     1
102
RTVSPropertyOp0
 70
     1
102
RTVSPropertyOp1
 70
     1
102
RTVSPropertyOp2
 70
     1
102
RTVSPropertyOp3
 70
     1
102
RTVSPropertyOp4
 70
     1
102
RTVSPropertyOp5
 70
     1
102
RTVSPropertyOp6
 70
     1
102
RTVSPropertyOp7
 70
     1
102
RTVSPropertyOp8
 70
     1
102
RTVSPropertyOp9
 70
     1
102
RTVSPropertyOp10
 70
     1
102
RTVSPropertyOp11
 70
     1
102
RTVSPropertyOp12
 70
     1
102
RTVSPropertyOp13
 70
     1
102
RTVSPropertyOp14
 70
     1
102
RTVSPropertyOp15
 70
     1
102
RTVSPropertyOp16
 70
     1
102
RTVSPropertyOp17
 70
     1
102
RTVSPropertyOp18
 70
     1
102
RTVSPropertyOp19
 70
     1
102
RTVSPropertyOp20
 70
     1
102
RTVSPropertyOp21
 70
     1
102
RTVSPropertyOp22
 70
     1
102
RTVSPropertyOp23
 70
     1
102
RTVSPropertyOp24
 70
     1
102
RTVSPropertyOp25
 70
     1
102
RTVSPropertyOp26
 70
     1
102
RTVSPropertyOp27
 70
     1
102
RTVSPropertyOp28
 70
     1
102
RTVSPropertyOp29
 70
     1
102
RTVSPropertyOp30
 70
     1
102
RTVSPropertyOp31
 70
     1
102
RTVSPropertyOp32
 70
     1
  0
XRECORD
  5
13B8
102
{ACAD_REACTORS
330
13B7
102
}
330
13B7
100
AcDbXrecord
280
     1
102
RTVSPropertyOp0
 70
     1
102
RTVSPropertyOp1
 70
     1
102
RTVSPropertyOp2
 70
     1
102
RTVSPropertyOp3
 70
     1
102
RTVSPropertyOp4
 70
     1
102
RTVSPropertyOp5
 70
     1
102
RTVSPropertyOp6
 70
     1
102
RTVSPropertyOp7
 70
     1
102
RTVSPropertyOp8
 70
     1
102
RTVSPropertyOp9
 70
     1
102
RTVSPropertyOp10
 70
     1
102
RTVSPropertyOp11
 70
     1
102
RTVSPropertyOp12
 70
     1
102
RTVSPropertyOp13
 70
     1
102
RTVSPropertyOp14
 70
     1
102
RTVSPropertyOp15
 70
     1
102
RTVSPropertyOp16
 70
     1
102
RTVSPropertyOp17
 70
     1
102
RTVSPropertyOp18
 70
     1
102
RTVSPropertyOp19
 70
     1
102
RTVSPropertyOp20
 70
     1
102
RTVSPropertyOp21
 70
     1
102
RTVSPropertyOp22
 70
     1
102
RTVSPropertyOp23
 70
     1
102
RTVSPropertyOp24
 70
     1
102
RTVSPropertyOp25
 70
     1
102
RTVSPropertyOp26
 70
     1
102
RTVSPropertyOp27
 70
     1
102
RTVSPropertyOp28
 70
     1
102
RTVSPropertyOp29
 70
     1
102
RTVSPropertyOp30
 70
     1
102
RTVSPropertyOp31
 70
     1
102
RTVSPropertyOp32
 70
     1
  0
XRECORD
  5
13BA
102
{ACAD_REACTORS
330
13B9
102
}
330
13B9
100
AcDbXrecord
280
     1
102
RTVSPropertyOp0
 70
     1
102
RTVSPropertyOp1
 70
     1
102
RTVSPropertyOp2
 70
     1
102
RTVSPropertyOp3
 70
     1
102
RTVSPropertyOp4
 70
     1
102
RTVSPropertyOp5
 70
     1
102
RTVSPropertyOp6
 70
     1
102
RTVSPropertyOp7
 70
     1
102
RTVSPropertyOp8
 70
     1
102
RTVSPropertyOp9
 70
     1
102
RTVSPropertyOp10
 70
     1
102
RTVSPropertyOp11
 70
     1
102
RTVSPropertyOp12
 70
     1
102
RTVSPropertyOp13
 70
     1
102
RTVSPropertyOp14
 70
     1
102
RTVSPropertyOp15
 70
     1
102
RTVSPropertyOp16
 70
     1
102
RTVSPropertyOp17
 70
     1
102
RTVSPropertyOp18
 70
     1
102
RTVSPropertyOp19
 70
     1
102
RTVSPropertyOp20
 70
     1
102
RTVSPropertyOp21
 70
     1
102
RTVSPropertyOp22
 70
     1
102
RTVSPropertyOp23
 70
     1
102
RTVSPropertyOp24
 70
     1
102
RTVSPropertyOp25
 70
     1
102
RTVSPropertyOp26
 70
     1
102
RTVSPropertyOp27
 70
     1
102
RTVSPropertyOp28
 70
     1
102
RTVSPropertyOp29
 70
     1
102
RTVSPropertyOp30
 70
     1
102
RTVSPropertyOp31
 70
     1
102
RTVSPropertyOp32
 70
     1
  0
XRECORD
  5
13C2
102
{ACAD_REACTORS
330
13C1
102
}
330
13C1
100
AcDbXrecord
280
     1
102
RTVSPropertyOp0
 70
     1
102
RTVSPropertyOp1
 70
     1
102
RTVSPropertyOp2
 70
     1
102
RTVSPropertyOp3
 70
     1
102
RTVSPropertyOp4
 70
     1
102
RTVSPropertyOp5
 70
     1
102
RTVSPropertyOp6
 70
     1
102
RTVSPropertyOp7
 70
     1
102
RTVSPropertyOp8
 70
     1
102
RTVSPropertyOp9
 70
     1
102
RTVSPropertyOp10
 70
     1
102
RTVSPropertyOp11
 70
     1
102
RTVSPropertyOp12
 70
     1
102
RTVSPropertyOp13
 70
     1
102
RTVSPropertyOp14
 70
     1
102
RTVSPropertyOp15
 70
     1
102
RTVSPropertyOp16
 70
     1
102
RTVSPropertyOp17
 70
     1
102
RTVSPropertyOp18
 70
     1
102
RTVSPropertyOp19
 70
     1
102
RTVSPropertyOp20
 70
     1
102
RTVSPropertyOp21
 70
     1
102
RTVSPropertyOp22
 70
     1
102
RTVSPropertyOp23
 70
     1
102
RTVSPropertyOp24
 70
     1
102
RTVSPropertyOp25
 70
     1
102
RTVSPropertyOp26
 70
     1
102
RTVSPropertyOp27
 70
     1
102
RTVSPropertyOp28
 70
     1
102
RTVSPropertyOp29
 70
     1
102
RTVSPropertyOp30
 70
     1
102
RTVSPropertyOp31
 70
     1
102
RTVSPropertyOp32
 70
     1
  0
XRECORD
  5
13DE
102
{ACAD_REACTORS
330
13DD
102
}
330
13DD
100
AcDbXrecord
280
     1
102
RTVSPropertyOp0
 70
     0
102
RTVSPropertyOp1
 70
     0
102
RTVSPropertyOp2
 70
     0
102
RTVSPropertyOp3
 70
     0
102
RTVSPropertyOp4
 70
     0
102
RTVSPropertyOp5
 70
     0
102
RTVSPropertyOp6
 70
     0
102
RTVSPropertyOp7
 70
     0
102
RTVSPropertyOp8
 70
     0
102
RTVSPropertyOp9
 70
     0
102
RTVSPropertyOp10
 70
     0
102
RTVSPropertyOp11
 70
     0
102
RTVSPropertyOp12
 70
     0
102
RTVSPropertyOp13
 70
     0
102
RTVSPropertyOp14
 70
     2
102
RTVSPropertyOp15
 70
     0
102
RTVSPropertyOp16
 70
     0
102
RTVSPropertyOp17
 70
     0
102
RTVSPropertyOp18
 70
     0
102
RTVSPropertyOp19
 70
     0
102
RTVSPropertyOp20
 70
     0
102
RTVSPropertyOp21
 70
     0
102
RTVSPropertyOp22
 70
     0
102
RTVSPropertyOp23
 70
     0
102
RTVSPropertyOp24
 70
     0
102
RTVSPropertyOp25
 70
     0
102
RTVSPropertyOp26
 70
     0
102
RTVSPropertyOp27
 70
     0
102
RTVSPropertyOp28
 70
     0
102
RTVSPropertyOp29
 70
     0
102
RTVSPropertyOp30
 70
     0
102
RTVSPropertyOp31
 70
     0
102
RTVSPropertyOp32
 70
     0
  0
XRECORD
  5
13CE
102
{ACAD_REACTORS
330
13CD
102
}
330
13CD
100
AcDbXrecord
280
     1
102
RTVSPropertyOp0
 70
     1
102
RTVSPropertyOp1
 70
     1
102
RTVSPropertyOp2
 70
     1
102
RTVSPropertyOp3
 70
     1
102
RTVSPropertyOp4
 70
     1
102
RTVSPropertyOp5
 70
     1
102
RTVSPropertyOp6
 70
     1
102
RTVSPropertyOp7
 70
     1
102
RTVSPropertyOp8
 70
     1
102
RTVSPropertyOp9
 70
     1
102
RTVSPropertyOp10
 70
     1
102
RTVSPropertyOp11
 70
     1
102
RTVSPropertyOp12
 70
     1
102
RTVSPropertyOp13
 70
     1
102
RTVSPropertyOp14
 70
     1
102
RTVSPropertyOp15
 70
     1
102
RTVSPropertyOp16
 70
     1
102
RTVSPropertyOp17
 70
     1
102
RTVSPropertyOp18
 70
     1
102
RTVSPropertyOp19
 70
     1
102
RTVSPropertyOp20
 70
     1
102
RTVSPropertyOp21
 70
     1
102
RTVSPropertyOp22
 70
     1
102
RTVSPropertyOp23
 70
     1
102
RTVSPropertyOp24
 70
     1
102
RTVSPropertyOp25
 70
     1
102
RTVSPropertyOp26
 70
     1
102
RTVSPropertyOp27
 70
     1
102
RTVSPropertyOp28
 70
     1
102
RTVSPropertyOp29
 70
     1
102
RTVSPropertyOp30
 70
     1
102
RTVSPropertyOp31
 70
     1
102
RTVSPropertyOp32
 70
     1
  0
XRECORD
  5
13E0
102
{ACAD_REACTORS
330
13DF
102
}
330
13DF
100
AcDbXrecord
280
     1
102
RTVSPropertyOp0
 70
     0
102
RTVSPropertyOp1
 70
     0
102
RTVSPropertyOp2
 70
     0
102
RTVSPropertyOp3
 70
     0
102
RTVSPropertyOp4
 70
     0
102
RTVSPropertyOp5
 70
     0
102
RTVSPropertyOp6
 70
     0
102
RTVSPropertyOp7
 70
     0
102
RTVSPropertyOp8
 70
     0
102
RTVSPropertyOp9
 70
     0
102
RTVSPropertyOp10
 70
     0
102
RTVSPropertyOp11
 70
     0
102
RTVSPropertyOp12
 70
     0
102
RTVSPropertyOp13
 70
     0
102
RTVSPropertyOp14
 70
     2
102
RTVSPropertyOp15
 70
     0
102
RTVSPropertyOp16
 70
     0
102
RTVSPropertyOp17
 70
     0
102
RTVSPropertyOp18
 70
     0
102
RTVSPropertyOp19
 70
     0
102
RTVSPropertyOp20
 70
     0
102
RTVSPropertyOp21
 70
     0
102
RTVSPropertyOp22
 70
     0
102
RTVSPropertyOp23
 70
     0
102
RTVSPropertyOp24
 70
     0
102
RTVSPropertyOp25
 70
     0
102
RTVSPropertyOp26
 70
     0
102
RTVSPropertyOp27
 70
     0
102
RTVSPropertyOp28
 70
     0
102
RTVSPropertyOp29
 70
     0
102
RTVSPropertyOp30
 70
     0
102
RTVSPropertyOp31
 70
     0
102
RTVSPropertyOp32
 70
     0
  0
XRECORD
  5
13C6
102
{ACAD_REACTORS
330
13C5
102
}
330
13C5
100
AcDbXrecord
280
     1
102
RTVSPropertyOp0
 70
     1
102
RTVSPropertyOp1
 70
     1
102
RTVSPropertyOp2
 70
     1
102
RTVSPropertyOp3
 70
     1
102
RTVSPropertyOp4
 70
     1
102
RTVSPropertyOp5
 70
     1
102
RTVSPropertyOp6
 70
     1
102
RTVSPropertyOp7
 70
     1
102
RTVSPropertyOp8
 70
     1
102
RTVSPropertyOp9
 70
     1
102
RTVSPropertyOp10
 70
     1
102
RTVSPropertyOp11
 70
     1
102
RTVSPropertyOp12
 70
     1
102
RTVSPropertyOp13
 70
     1
102
RTVSPropertyOp14
 70
     1
102
RTVSPropertyOp15
 70
     1
102
RTVSPropertyOp16
 70
     1
102
RTVSPropertyOp17
 70
     1
102
RTVSPropertyOp18
 70
     1
102
RTVSPropertyOp19
 70
     1
102
RTVSPropertyOp20
 70
     1
102
RTVSPropertyOp21
 70
     1
102
RTVSPropertyOp22
 70
     1
102
RTVSPropertyOp23
 70
     1
102
RTVSPropertyOp24
 70
     1
102
RTVSPropertyOp25
 70
     1
102
RTVSPropertyOp26
 70
     1
102
RTVSPropertyOp27
 70
     1
102
RTVSPropertyOp28
 70
     1
102
RTVSPropertyOp29
 70
     1
102
RTVSPropertyOp30
 70
     1
102
RTVSPropertyOp31
 70
     1
102
RTVSPropertyOp32
 70
     1
  0
XRECORD
  5
13DC
102
{ACAD_REACTORS
330
13DB
102
}
330
13DB
100
AcDbXrecord
280
     1
102
RTVSPropertyOp0
 70
     1
102
RTVSPropertyOp1
 70
     1
102
RTVSPropertyOp2
 70
     1
102
RTVSPropertyOp3
 70
     1
102
RTVSPropertyOp4
 70
     1
102
RTVSPropertyOp5
 70
     1
102
RTVSPropertyOp6
 70
     1
102
RTVSPropertyOp7
 70
     1
102
RTVSPropertyOp8
 70
     1
102
RTVSPropertyOp9
 70
     1
102
RTVSPropertyOp10
 70
     1
102
RTVSPropertyOp11
 70
     1
102
RTVSPropertyOp12
 70
     1
102
RTVSPropertyOp13
 70
     1
102
RTVSPropertyOp14
 70
     1
102
RTVSPropertyOp15
 70
     1
102
RTVSPropertyOp16
 70
     1
102
RTVSPropertyOp17
 70
     1
102
RTVSPropertyOp18
 70
     1
102
RTVSPropertyOp19
 70
     1
102
RTVSPropertyOp20
 70
     1
102
RTVSPropertyOp21
 70
     1
102
RTVSPropertyOp22
 70
     1
102
RTVSPropertyOp23
 70
     1
102
RTVSPropertyOp24
 70
     1
102
RTVSPropertyOp25
 70
     1
102
RTVSPropertyOp26
 70
     1
102
RTVSPropertyOp27
 70
     1
102
RTVSPropertyOp28
 70
     1
102
RTVSPropertyOp29
 70
     1
102
RTVSPropertyOp30
 70
     1
102
RTVSPropertyOp31
 70
     1
102
RTVSPropertyOp32
 70
     1
  0
XRECORD
  5
13DA
102
{ACAD_REACTORS
330
13D9
102
}
330
13D9
100
AcDbXrecord
280
     1
102
RTVSPropertyOp0
 70
     1
102
RTVSPropertyOp1
 70
     1
102
RTVSPropertyOp2
 70
     1
102
RTVSPropertyOp3
 70
     1
102
RTVSPropertyOp4
 70
     1
102
RTVSPropertyOp5
 70
     1
102
RTVSPropertyOp6
 70
     1
102
RTVSPropertyOp7
 70
     1
102
RTVSPropertyOp8
 70
     1
102
RTVSPropertyOp9
 70
     1
102
RTVSPropertyOp10
 70
     1
102
RTVSPropertyOp11
 70
     1
102
RTVSPropertyOp12
 70
     1
102
RTVSPropertyOp13
 70
     1
102
RTVSPropertyOp14
 70
     1
102
RTVSPropertyOp15
 70
     1
102
RTVSPropertyOp16
 70
     1
102
RTVSPropertyOp17
 70
     1
102
RTVSPropertyOp18
 70
     1
102
RTVSPropertyOp19
 70
     1
102
RTVSPropertyOp20
 70
     1
102
RTVSPropertyOp21
 70
     1
102
RTVSPropertyOp22
 70
     1
102
RTVSPropertyOp23
 70
     1
102
RTVSPropertyOp24
 70
     1
102
RTVSPropertyOp25
 70
     1
102
RTVSPropertyOp26
 70
     1
102
RTVSPropertyOp27
 70
     1
102
RTVSPropertyOp28
 70
     1
102
RTVSPropertyOp29
 70
     1
102
RTVSPropertyOp30
 70
     1
102
RTVSPropertyOp31
 70
     1
102
RTVSPropertyOp32
 70
     1
  0
XRECORD
  5
13D4
102
{ACAD_REACTORS
330
13D3
102
}
330
13D3
100
AcDbXrecord
280
     1
102
RTVSPropertyOp0
 70
     1
102
RTVSPropertyOp1
 70
     1
102
RTVSPropertyOp2
 70
     1
102
RTVSPropertyOp3
 70
     1
102
RTVSPropertyOp4
 70
     1
102
RTVSPropertyOp5
 70
     1
102
RTVSPropertyOp6
 70
     1
102
RTVSPropertyOp7
 70
     1
102
RTVSPropertyOp8
 70
     1
102
RTVSPropertyOp9
 70
     1
102
RTVSPropertyOp10
 70
     1
102
RTVSPropertyOp11
 70
     1
102
RTVSPropertyOp12
 70
     1
102
RTVSPropertyOp13
 70
     1
102
RTVSPropertyOp14
 70
     1
102
RTVSPropertyOp15
 70
     1
102
RTVSPropertyOp16
 70
     1
102
RTVSPropertyOp17
 70
     1
102
RTVSPropertyOp18
 70
     1
102
RTVSPropertyOp19
 70
     1
102
RTVSPropertyOp20
 70
     1
102
RTVSPropertyOp21
 70
     1
102
RTVSPropertyOp22
 70
     1
102
RTVSPropertyOp23
 70
     1
102
RTVSPropertyOp24
 70
     1
102
RTVSPropertyOp25
 70
     1
102
RTVSPropertyOp26
 70
     1
102
RTVSPropertyOp27
 70
     1
102
RTVSPropertyOp28
 70
     1
102
RTVSPropertyOp29
 70
     1
102
RTVSPropertyOp30
 70
     1
102
RTVSPropertyOp31
 70
     1
102
RTVSPropertyOp32
 70
     1
  0
XRECORD
  5
13D6
102
{ACAD_REACTORS
330
13D5
102
}
330
13D5
100
AcDbXrecord
280
     1
102
RTVSPropertyOp0
 70
     1
102
RTVSPropertyOp1
 70
     1
102
RTVSPropertyOp2
 70
     1
102
RTVSPropertyOp3
 70
     1
102
RTVSPropertyOp4
 70
     1
102
RTVSPropertyOp5
 70
     1
102
RTVSPropertyOp6
 70
     1
102
RTVSPropertyOp7
 70
     1
102
RTVSPropertyOp8
 70
     1
102
RTVSPropertyOp9
 70
     1
102
RTVSPropertyOp10
 70
     1
102
RTVSPropertyOp11
 70
     1
102
RTVSPropertyOp12
 70
     1
102
RTVSPropertyOp13
 70
     1
102
RTVSPropertyOp14
 70
     1
102
RTVSPropertyOp15
 70
     1
102
RTVSPropertyOp16
 70
     1
102
RTVSPropertyOp17
 70
     1
102
RTVSPropertyOp18
 70
     1
102
RTVSPropertyOp19
 70
     1
102
RTVSPropertyOp20
 70
     1
102
RTVSPropertyOp21
 70
     1
102
RTVSPropertyOp22
 70
     1
102
RTVSPropertyOp23
 70
     1
102
RTVSPropertyOp24
 70
     1
102
RTVSPropertyOp25
 70
     1
102
RTVSPropertyOp26
 70
     1
102
RTVSPropertyOp27
 70
     1
102
RTVSPropertyOp28
 70
     1
102
RTVSPropertyOp29
 70
     1
102
RTVSPropertyOp30
 70
     1
102
RTVSPropertyOp31
 70
     1
102
RTVSPropertyOp32
 70
     1
  0
XRECORD
  5
13CC
102
{ACAD_REACTORS
330
13CB
102
}
330
13CB
100
AcDbXrecord
280
     1
102
RTVSPropertyOp0
 70
     1
102
RTVSPropertyOp1
 70
     1
102
RTVSPropertyOp2
 70
     1
102
RTVSPropertyOp3
 70
     1
102
RTVSPropertyOp4
 70
     1
102
RTVSPropertyOp5
 70
     1
102
RTVSPropertyOp6
 70
     1
102
RTVSPropertyOp7
 70
     1
102
RTVSPropertyOp8
 70
     1
102
RTVSPropertyOp9
 70
     1
102
RTVSPropertyOp10
 70
     1
102
RTVSPropertyOp11
 70
     1
102
RTVSPropertyOp12
 70
     1
102
RTVSPropertyOp13
 70
     1
102
RTVSPropertyOp14
 70
     1
102
RTVSPropertyOp15
 70
     1
102
RTVSPropertyOp16
 70
     1
102
RTVSPropertyOp17
 70
     1
102
RTVSPropertyOp18
 70
     1
102
RTVSPropertyOp19
 70
     1
102
RTVSPropertyOp20
 70
     1
102
RTVSPropertyOp21
 70
     1
102
RTVSPropertyOp22
 70
     1
102
RTVSPropertyOp23
 70
     1
102
RTVSPropertyOp24
 70
     1
102
RTVSPropertyOp25
 70
     1
102
RTVSPropertyOp26
 70
     1
102
RTVSPropertyOp27
 70
     1
102
RTVSPropertyOp28
 70
     1
102
RTVSPropertyOp29
 70
     1
102
RTVSPropertyOp30
 70
     1
102
RTVSPropertyOp31
 70
     1
102
RTVSPropertyOp32
 70
     1
  0
XRECORD
  5
13C0
102
{ACAD_REACTORS
330
13BF
102
}
330
13BF
100
AcDbXrecord
280
     1
102
RTVSPropertyOp0
 70
     1
102
RTVSPropertyOp1
 70
     1
102
RTVSPropertyOp2
 70
     1
102
RTVSPropertyOp3
 70
     1
102
RTVSPropertyOp4
 70
     1
102
RTVSPropertyOp5
 70
     1
102
RTVSPropertyOp6
 70
     1
102
RTVSPropertyOp7
 70
     1
102
RTVSPropertyOp8
 70
     1
102
RTVSPropertyOp9
 70
     1
102
RTVSPropertyOp10
 70
     1
102
RTVSPropertyOp11
 70
     1
102
RTVSPropertyOp12
 70
     1
102
RTVSPropertyOp13
 70
     1
102
RTVSPropertyOp14
 70
     1
102
RTVSPropertyOp15
 70
     1
102
RTVSPropertyOp16
 70
     1
102
RTVSPropertyOp17
 70
     1
102
RTVSPropertyOp18
 70
     1
102
RTVSPropertyOp19
 70
     1
102
RTVSPropertyOp20
 70
     1
102
RTVSPropertyOp21
 70
     1
102
RTVSPropertyOp22
 70
     1
102
RTVSPropertyOp23
 70
     1
102
RTVSPropertyOp24
 70
     1
102
RTVSPropertyOp25
 70
     1
102
RTVSPropertyOp26
 70
     1
102
RTVSPropertyOp27
 70
     1
102
RTVSPropertyOp28
 70
     1
102
RTVSPropertyOp29
 70
     1
102
RTVSPropertyOp30
 70
     1
102
RTVSPropertyOp31
 70
     1
102
RTVSPropertyOp32
 70
     1
  0
XRECORD
  5
13D8
102
{ACAD_REACTORS
330
13D7
102
}
330
13D7
100
AcDbXrecord
280
     1
102
RTVSPropertyOp0
 70
     1
102
RTVSPropertyOp1
 70
     1
102
RTVSPropertyOp2
 70
     1
102
RTVSPropertyOp3
 70
     1
102
RTVSPropertyOp4
 70
     1
102
RTVSPropertyOp5
 70
     1
102
RTVSPropertyOp6
 70
     1
102
RTVSPropertyOp7
 70
     1
102
RTVSPropertyOp8
 70
     1
102
RTVSPropertyOp9
 70
     1
102
RTVSPropertyOp10
 70
     1
102
RTVSPropertyOp11
 70
     1
102
RTVSPropertyOp12
 70
     1
102
RTVSPropertyOp13
 70
     1
102
RTVSPropertyOp14
 70
     1
102
RTVSPropertyOp15
 70
     1
102
RTVSPropertyOp16
 70
     1
102
RTVSPropertyOp17
 70
     1
102
RTVSPropertyOp18
 70
     1
102
RTVSPropertyOp19
 70
     1
102
RTVSPropertyOp20
 70
     1
102
RTVSPropertyOp21
 70
     1
102
RTVSPropertyOp22
 70
     1
102
RTVSPropertyOp23
 70
     1
102
RTVSPropertyOp24
 70
     1
102
RTVSPropertyOp25
 70
     1
102
RTVSPropertyOp26
 70
     1
102
RTVSPropertyOp27
 70
     1
102
RTVSPropertyOp28
 70
     1
102
RTVSPropertyOp29
 70
     1
102
RTVSPropertyOp30
 70
     1
102
RTVSPropertyOp31
 70
     1
102
RTVSPropertyOp32
 70
     1
  0
ENDSEC
  0
EOF
