  0
SECTION
  2
HEADER
  9
$ACADVER
  1
AC1015
  9
$ACADMAINTVER
 70
    20
  9
$DWGCODEPAGE
  3
ANSI_932
  9
$INSBASE
 10
0.0
 20
0.0
 30
0.0
  9
$EXTMIN
 10
-679.6140773923219
 20
-165.0300723577126
 30
0.0
  9
$EXTMAX
 10
175.7995096074972
 20
149.3478652095402
 30
0.0
  9
$LIMMIN
 10
-233.474999
 20
-131.992165
  9
$LIMMAX
 10
171.549996
 20
145.031426
  9
$ORTHOMODE
 70
     1
  9
$REGENMODE
 70
     1
  9
$FILLMODE
 70
     1
  9
$QTEXTMODE
 70
     0
  9
$MIRRTEXT
 70
     0
  9
$LTSCALE
 40
6.750383
  9
$ATTMODE
 70
     1
  9
$TEXTSIZE
 40
3.2
  9
$TRACEWID
 40
0.05
  9
$TEXTSTYLE
  7
高3.2
  9
$CLAYER
  8
0
  9
$CELTYPE
  6
ByLayer
  9
$CECOLOR
 62
   256
  9
$CELTSCALE
 40
1.0
  9
$DISPSILH
 70
     0
  9
$DIMSCALE
 40
1.0
  9
$DIMASZ
 40
2.5
  9
$DIMEXO
 40
0.25
  9
$DIMDLI
 40
0.2
  9
$DIMRND
 40
0.0
  9
$DIMDLE
 40
0.0
  9
$DIMEXE
 40
1.25
  9
$DIMTP
 40
0.0
  9
$DIMTM
 40
0.0
  9
$DIMTXT
 40
3.0
  9
$DIMCEN
 40
0.0
  9
$DIMTSZ
 40
0.0
  9
$DIMTOL
 70
     0
  9
$DIMLIM
 70
     0
  9
$DIMTIH
 70
     0
  9
$DIMTOH
 70
     0
  9
$DIMSE1
 70
     0
  9
$DIMSE2
 70
     0
  9
$DIMTAD
 70
     3
  9
$DIMZIN
 70
     8
  9
$DIMBLK
  1
Open30
  9
$DIMASO
 70
     1
  9
$DIMSHO
 70
     1
  9
$DIMPOST
  1

  9
$DIMAPOST
  1

  9
$DIMALT
 70
     0
  9
$DIMALTD
 70
     3
  9
$DIMALTF
 40
0.03937007874016
  9
$DIMLFAC
 40
1.0
  9
$DIMTOFL
 70
     1
  9
$DIMTVP
 40
0.0
  9
$DIMTIX
 70
     0
  9
$DIMSOXD
 70
     0
  9
$DIMSAH
 70
     0
  9
$DIMBLK1
  1

  9
$DIMBLK2
  1

  9
$DIMSTYLE
  2
1：1
  9
$DIMCLRD
 70
     0
  9
$DIMCLRE
 70
     0
  9
$DIMCLRT
 70
     4
  9
$DIMTFAC
 40
1.0
  9
$DIMGAP
 40
0.625
  9
$DIMJUST
 70
     0
  9
$DIMSD1
 70
     0
  9
$DIMSD2
 70
     0
  9
$DIMTOLJ
 70
     0
  9
$DIMTZIN
 70
     8
  9
$DIMALTZ
 70
     0
  9
$DIMALTTZ
 70
     0
  9
$DIMUPT
 70
     1
  9
$DIMDEC
 70
     2
  9
$DIMTDEC
 70
     2
  9
$DIMALTU
 70
     2
  9
$DIMALTTD
 70
     3
  9
$DIMTXSTY
  7
STANDARD
  9
$DIMAUNIT
 70
     0
  9
$DIMADEC
 70
     1
  9
$DIMALTRND
 40
0.0
  9
$DIMAZIN
 70
     2
  9
$DIMDSEP
 70
    46
  9
$DIMATFIT
 70
     0
  9
$DIMFRAC
 70
     0
  9
$DIMLDRBLK
  1
Open30
  9
$DIMLUNIT
 70
     2
  9
$DIMLWD
 70
    -2
  9
$DIMLWE
 70
    -2
  9
$DIMTMOVE
 70
     0
  9
$LUNITS
 70
     2
  9
$LUPREC
 70
     4
  9
$SKETCHINC
 40
0.1
  9
$FILLETRAD
 40
0.0
  9
$AUNITS
 70
     0
  9
$AUPREC
 70
     0
  9
$MENU
  1
.
  9
$ELEVATION
 40
0.0
  9
$PELEVATION
 40
0.0
  9
$THICKNESS
 40
0.0
  9
$LIMCHECK
 70
     0
  9
$CHAMFERA
 40
0.0
  9
$CHAMFERB
 40
0.0
  9
$CHAMFERC
 40
0.0
  9
$CHAMFERD
 40
0.0
  9
$SKPOLY
 70
     0
  9
$TDCREATE
 40
2456321.669682928
  9
$TDUCREATE
 40
2456321.294682929
  9
$TDUPDATE
 40
2459793.734268924
  9
$TDUUPDATE
 40
2459793.359268924
  9
$TDINDWG
 40
0.0991992130
  9
$TDUSRTIMER
 40
0.0991990741
  9
$USRTIMER
 70
     1
  9
$ANGBASE
 50
0.0
  9
$ANGDIR
 70
     0
  9
$PDMODE
 70
     0
  9
$PDSIZE
 40
0.0
  9
$PLINEWID
 40
0.0
  9
$SPLFRAME
 70
     0
  9
$SPLINETYPE
 70
     6
  9
$SPLINESEGS
 70
     8
  9
$HANDSEED
  5
15C6
  9
$SURFTAB1
 70
     6
  9
$SURFTAB2
 70
     6
  9
$SURFTYPE
 70
     6
  9
$SURFU
 70
     6
  9
$SURFV
 70
     6
  9
$UCSBASE
  2

  9
$UCSNAME
  2

  9
$UCSORG
 10
0.0
 20
0.0
 30
0.0
  9
$UCSXDIR
 10
1.0
 20
0.0
 30
0.0
  9
$UCSYDIR
 10
0.0
 20
1.0
 30
0.0
  9
$UCSORTHOREF
  2

  9
$UCSORTHOVIEW
 70
     0
  9
$UCSORGTOP
 10
0.0
 20
0.0
 30
0.0
  9
$UCSORGBOTTOM
 10
0.0
 20
0.0
 30
0.0
  9
$UCSORGLEFT
 10
0.0
 20
0.0
 30
0.0
  9
$UCSORGRIGHT
 10
0.0
 20
0.0
 30
0.0
  9
$UCSORGFRONT
 10
0.0
 20
0.0
 30
0.0
  9
$UCSORGBACK
 10
0.0
 20
0.0
 30
0.0
  9
$PUCSBASE
  2

  9
$PUCSNAME
  2

  9
$PUCSORG
 10
0.0
 20
0.0
 30
0.0
  9
$PUCSXDIR
 10
1.0
 20
0.0
 30
0.0
  9
$PUCSYDIR
 10
0.0
 20
1.0
 30
0.0
  9
$PUCSORTHOREF
  2

  9
$PUCSORTHOVIEW
 70
     0
  9
$PUCSORGTOP
 10
0.0
 20
0.0
 30
0.0
  9
$PUCSORGBOTTOM
 10
0.0
 20
0.0
 30
0.0
  9
$PUCSORGLEFT
 10
0.0
 20
0.0
 30
0.0
  9
$PUCSORGRIGHT
 10
0.0
 20
0.0
 30
0.0
  9
$PUCSORGFRONT
 10
0.0
 20
0.0
 30
0.0
  9
$PUCSORGBACK
 10
0.0
 20
0.0
 30
0.0
  9
$USERI1
 70
     0
  9
$USERI2
 70
     0
  9
$USERI3
 70
     0
  9
$USERI4
 70
     0
  9
$USERI5
 70
     0
  9
$USERR1
 40
0.0
  9
$USERR2
 40
0.0
  9
$USERR3
 40
0.0
  9
$USERR4
 40
0.0
  9
$USERR5
 40
0.0
  9
$WORLDVIEW
 70
     1
  9
$SHADEDGE
 70
     3
  9
$SHADEDIF
 70
    70
  9
$TILEMODE
 70
     1
  9
$MAXACTVP
 70
    64
  9
$PINSBASE
 10
0.0
 20
0.0
 30
0.0
  9
$PLIMCHECK
 70
     0
  9
$PEXTMIN
 10
1.000000000000000E+20
 20
1.000000000000000E+20
 30
1.000000000000000E+20
  9
$PEXTMAX
 10
-1.000000000000000E+20
 20
-1.000000000000000E+20
 30
-1.000000000000000E+20
  9
$PLIMMIN
 10
0.0
 20
0.0
  9
$PLIMMAX
 10
12.0
 20
9.0
  9
$UNITMODE
 70
     0
  9
$VISRETAIN
 70
     1
  9
$PLINEGEN
 70
     0
  9
$PSLTSCALE
 70
     1
  9
$TREEDEPTH
 70
  3020
  9
$CMLSTYLE
  2
Standard
  9
$CMLJUST
 70
     0
  9
$CMLSCALE
 40
1.0
  9
$PROXYGRAPHICS
 70
     1
  9
$MEASUREMENT
 70
     0
  9
$CELWEIGHT
370
    -1
  9
$ENDCAPS
280
     0
  9
$JOINSTYLE
280
     0
  9
$LWDISPLAY
290
     0
  9
$INSUNITS
 70
     0
  9
$HYPERLINKBASE
  1

  9
$STYLESHEET
  1

  9
$XEDIT
290
     1
  9
$CEPSNTYPE
380
     0
  9
$PSTYLEMODE
290
     1
  9
$FINGERPRINTGUID
  2
{A315FB0A-F58C-4EEC-98C4-234453946457}
  9
$VERSIONGUID
  2
{240E6706-5450-411E-8447-9F74CC0C3DC0}
  9
$EXTNAMES
290
     1
  9
$PSVPSCALE
 40
0.0
  9
$OLESTARTUP
290
     0
  0
ENDSEC
  0
SECTION
  2
CLASSES
  0
CLASS
  1
ACDBDICTIONARYWDFLT
  2
AcDbDictionaryWithDefault
  3
ObjectDBX Classes
 90
        0
280
     0
281
     0
  0
CLASS
  1
MATERIAL
  2
AcDbMaterial
  3
ObjectDBX Classes
 90
     1153
280
     0
281
     0
  0
CLASS
  1
VISUALSTYLE
  2
AcDbVisualStyle
  3
ObjectDBX Classes
 90
     4095
280
     0
281
     0
  0
CLASS
  1
SCALE
  2
AcDbScale
  3
ObjectDBX Classes
 90
     1153
280
     0
281
     0
  0
CLASS
  1
TABLESTYLE
  2
AcDbTableStyle
  3
ObjectDBX Classes
 90
     4095
280
     0
281
     0
  0
CLASS
  1
MLEADERSTYLE
  2
AcDbMLeaderStyle
  3
ACDB_MLEADERSTYLE_CLASS
 90
     4095
280
     0
281
     0
  0
CLASS
  1
SORTENTSTABLE
  2
AcDbSortentsTable
  3
ObjectDBX Classes
 90
        0
280
     0
281
     0
  0
CLASS
  1
DICTIONARYVAR
  2
AcDbDictionaryVar
  3
ObjectDBX Classes
 90
        0
280
     0
281
     0
  0
CLASS
  1
CELLSTYLEMAP
  2
AcDbCellStyleMap
  3
ObjectDBX Classes
 90
     1152
280
     0
281
     0
  0
CLASS
  1
ACDBPLACEHOLDER
  2
AcDbPlaceHolder
  3
ObjectDBX Classes
 90
        0
280
     0
281
     0
  0
CLASS
  1
LAYOUT
  2
AcDbLayout
  3
ObjectDBX Classes
 90
        0
280
     0
281
     0
  0
CLASS
  1
AEC_REFEDIT_STATUS_TRACKER
  2
AecDbRefEditStatusTracker
  3
AecArchBase60|Product Desc: Autodesk Architectural Desktop 2007 |Company: Autodesk,Inc. |WEB Address: www.autodesk.com
 90
      129
280
     0
281
     0
  0
CLASS
  1
NPOCOLLECTION
  2
AcDbImpNonPersistentObjectsCollection
  3
ObjectDBX Classes
 90
     1153
280
     0
281
     0
  0
ENDSEC
  0
SECTION
  2
TABLES
  0
TABLE
  2
VPORT
  5
8
330
0
100
AcDbSymbolTable
 70
     1
  0
VPORT
  5
8C
330
8
100
AcDbSymbolTableRecord
100
AcDbViewportTableRecord
  2
*Active
 70
     0
 10
0.0
 20
0.0
 11
1.0
 21
1.0
 12
-511.4252233293166
 22
-50.38013414028705
 13
0.0
 23
0.0
 14
1.0
 24
1.0
 15
0.0
 25
0.0
 16
0.0
 26
0.0
 36
1.0
 17
0.0
 27
0.0
 37
0.0
 40
1059.453018364794
 41
1.355281207133058
 42
50.0
 43
0.0
 44
0.0
 50
0.0
 51
0.0
 71
     0
 72
   100
 73
     1
 74
     1
 75
     0
 76
     0
 77
     0
 78
     0
281
     0
 65
     1
110
0.0
120
0.0
130
0.0
111
1.0
121
0.0
131
0.0
112
0.0
122
1.0
132
0.0
 79
     0
146
0.0
  0
ENDTAB
  0
TABLE
  2
LTYPE
  5
5
330
0
100
AcDbSymbolTable
 70
     6
  0
LTYPE
  5
5A
330
5
100
AcDbSymbolTableRecord
100
AcDbLinetypeTableRecord
  2
ByBlock
 70
     0
  3

 72
    65
 73
     0
 40
0.0
  0
LTYPE
  5
5B
330
5
100
AcDbSymbolTableRecord
100
AcDbLinetypeTableRecord
  2
ByLayer
 70
     0
  3

 72
    65
 73
     0
 40
0.0
  0
LTYPE
  5
5C
330
5
100
AcDbSymbolTableRecord
100
AcDbLinetypeTableRecord
  2
CONTINUOUS
 70
     0
  3
Solid-line
 72
    65
 73
     0
 40
0.0
  0
LTYPE
  5
78
330
5
100
AcDbSymbolTableRecord
100
AcDbLinetypeTableRecord
  2
DASHED
 70
     0
  3
DASHED
 72
    65
 73
     2
 40
0.75
 49
0.5
 74
     0
 49
-0.25
 74
     0
  0
LTYPE
  5
81
330
5
100
AcDbSymbolTableRecord
100
AcDbLinetypeTableRecord
  2
HIDDEN
 70
     0
  3
HIDDEN
 72
    65
 73
     2
 40
0.375
 49
0.25
 74
     0
 49
-0.125
 74
     0
  0
LTYPE
  5
84
330
5
100
AcDbSymbolTableRecord
100
AcDbLinetypeTableRecord
  2
PHANTOM
 70
     0
  3
PHANTOM
 72
    65
 73
     6
 40
2.5
 49
1.25
 74
     0
 49
-0.25
 74
     0
 49
0.25
 74
     0
 49
-0.25
 74
     0
 49
0.25
 74
     0
 49
-0.25
 74
     0
  0
ENDTAB
  0
TABLE
  2
LAYER
  5
2
102
{ACAD_XDICTIONARY
360
4AD
102
}
330
0
100
AcDbSymbolTable
 70
     2
  0
LAYER
  5
54
102
{ACAD_XDICTIONARY
360
B34
102
}
330
2
100
AcDbSymbolTableRecord
100
AcDbLayerTableRecord
  2
0
 70
     0
 62
     7
  6
CONTINUOUS
370
    -3
390
F
  0
LAYER
  5
68F
330
2
100
AcDbSymbolTableRecord
100
AcDbLayerTableRecord
  2
Defpoints
 70
     0
 62
     7
  6
CONTINUOUS
290
     0
370
    -3
390
F
  0
ENDTAB
  0
TABLE
  2
STYLE
  5
3
330
0
100
AcDbSymbolTable
 70
     6
  0
STYLE
  5
55
330
3
100
AcDbSymbolTableRecord
100
AcDbTextStyleTableRecord
  2
STANDARD
 70
     0
 40
0.0
 41
1.0
 50
0.0
 71
     0
 42
0.2
  3
TXT
  4
BIGFONT
  0
STYLE
  5
4A2
330
3
100
AcDbSymbolTableRecord
100
AcDbTextStyleTableRecord
  2
高3.2
 70
     0
 40
3.2
 41
1.0
 50
0.0
 71
     0
 42
3.2
  3
txt.shx
  4
bigfont.shx
  0
STYLE
  5
4A3
330
3
100
AcDbSymbolTableRecord
100
AcDbTextStyleTableRecord
  2
高6.3
 70
     0
 40
6.299999999999998
 41
1.0
 50
0.0
 71
     0
 42
6.299999999999998
  3
txt.shx
  4
bigfont.shx
  0
STYLE
  5
4A4
330
3
100
AcDbSymbolTableRecord
100
AcDbTextStyleTableRecord
  2
高2.5
 70
     0
 40
2.5
 41
1.0
 50
0.0
 71
     0
 42
0.2
  3
txt.shx
  4
bigfont.shx
  0
STYLE
  5
4A5
330
3
100
AcDbSymbolTableRecord
100
AcDbTextStyleTableRecord
  2
高4.5
 70
     0
 40
4.5
 41
1.0
 50
0.0
 71
     0
 42
6.299999999999998
  3
txt.shx
  4
bigfont.shx
  0
STYLE
  5
4A6
330
3
100
AcDbSymbolTableRecord
100
AcDbTextStyleTableRecord
  2
高2
 70
     0
 40
2.0
 41
1.0
 50
0.0
 71
     0
 42
6.299999999999998
  3
txt.shx
  4
bigfont.shx
  0
ENDTAB
  0
TABLE
  2
VIEW
  5
6
330
0
100
AcDbSymbolTable
 70
     0
  0
ENDTAB
  0
TABLE
  2
UCS
  5
7
330
0
100
AcDbSymbolTable
 70
     0
  0
ENDTAB
  0
TABLE
  2
APPID
  5
9
330
0
100
AcDbSymbolTable
 70
    10
  0
APPID
  5
56
330
9
100
AcDbSymbolTableRecord
100
AcDbRegAppTableRecord
  2
ACAD
 70
     0
  0
APPID
  5
5D
330
9
100
AcDbSymbolTableRecord
100
AcDbRegAppTableRecord
  2
AcadAnnotative
 70
     0
  0
APPID
  5
4AC
330
9
100
AcDbSymbolTableRecord
100
AcDbRegAppTableRecord
  2
ACAD_DSTYLE_DIMJOGGED_JOGANGLE_SYMBOL
 70
     0
  0
APPID
  5
78B
330
9
100
AcDbSymbolTableRecord
100
AcDbRegAppTableRecord
  2
ACAD_EXEMPT_FROM_CAD_STANDARDS
 70
     0
  0
APPID
  5
858
330
9
100
AcDbSymbolTableRecord
100
AcDbRegAppTableRecord
  2
ACAD_DSTYLE_DIMJAG
 70
     0
  0
APPID
  5
859
330
9
100
AcDbSymbolTableRecord
100
AcDbRegAppTableRecord
  2
ACAD_DSTYLE_DIMBREAK
 70
     0
  0
APPID
  5
85A
330
9
100
AcDbSymbolTableRecord
100
AcDbRegAppTableRecord
  2
ACAD_DSTYLE_DIMTALN
 70
     0
  0
APPID
  5
B7A
330
9
100
AcDbSymbolTableRecord
100
AcDbRegAppTableRecord
  2
ACAD_MLEADERVER
 70
     0
  0
APPID
  5
B7F
330
9
100
AcDbSymbolTableRecord
100
AcDbRegAppTableRecord
  2
ACAD_DSTYLE_DIMARC_LENGTH_SYMBOL
 70
     0
  0
APPID
  5
B80
330
9
100
AcDbSymbolTableRecord
100
AcDbRegAppTableRecord
  2
ACAD_DSTYLE_DIMEXT_LENGTH
 70
     0
  0
ENDTAB
  0
TABLE
  2
DIMSTYLE
  5
A
330
0
100
AcDbSymbolTable
 70
     4
100
AcDbDimStyleTable
 71
     2
340
C34
340
857
  0
DIMSTYLE
105
57
330
A
100
AcDbSymbolTableRecord
100
AcDbDimStyleTableRecord
  2
Standard
 70
     0
340
55
  0
DIMSTYLE
105
857
330
A
100
AcDbSymbolTableRecord
100
AcDbDimStyleTableRecord
  2
FREE
 70
     0
 41
2.5
 42
0.25
 43
0.2
 44
1.25
 73
     0
 74
     0
 77
     3
 78
     8
 79
     2
140
3.0
141
0.0
143
0.03937007874016
147
0.625
171
     3
172
     1
178
     4
179
     1
271
     2
272
     2
274
     3
283
     0
284
     8
288
     1
289
     0
340
55
341
3C7
342
3C7
1001
ACAD_DSTYLE_DIMBREAK
1070
   391
1040
3.75
1001
ACAD_DSTYLE_DIMJAG
1070
   388
1040
1.5
1001
ACAD_DSTYLE_DIMTALN
1070
   392
1070
     0
1001
ACAD_DSTYLE_DIMARC_LENGTH_SYMBOL
1070
   379
1070
     2
1001
ACAD_DSTYLE_DIMEXT_LENGTH
1070
   378
1040
1.25
1001
ACAD_DSTYLE_DIMJOGGED_JOGANGLE_SYMBOL
1070
   384
1040
1.570796326794896
  0
DIMSTYLE
105
C34
102
{ACAD_REACTORS
330
D1B
330
D16
330
D1A
330
D14
330
D15
330
D19
330
D18
330
D17
102
}
330
A
100
AcDbSymbolTableRecord
100
AcDbDimStyleTableRecord
  2
1：1
 70
     0
 41
2.5
 42
0.25
 43
0.2
 44
1.25
 73
     0
 74
     0
 77
     3
 78
     8
 79
     2
140
3.0
141
0.0
143
0.03937007874016
147
0.625
171
     3
172
     1
178
     4
179
     1
271
     2
272
     2
274
     3
283
     0
284
     8
288
     1
289
     0
340
55
341
3C7
342
3C7
1001
ACAD_DSTYLE_DIMARC_LENGTH_SYMBOL
1070
   379
1070
     2
1001
ACAD_DSTYLE_DIMEXT_LENGTH
1070
   378
1040
1.25
1001
ACAD_DSTYLE_DIMJOGGED_JOGANGLE_SYMBOL
1070
   384
1040
1.570796326794896
  0
ENDTAB
  0
TABLE
  2
BLOCK_RECORD
  5
1
330
0
100
AcDbSymbolTable
 70
    28
  0
BLOCK_RECORD
  5
6B
102
{ACAD_XDICTIONARY
360
A8E
102
}
330
1
100
AcDbSymbolTableRecord
100
AcDbBlockTableRecord
  2
*Model_Space
340
6E
  0
BLOCK_RECORD
  5
67
330
1
100
AcDbSymbolTableRecord
100
AcDbBlockTableRecord
  2
*Paper_Space
340
6A
  0
BLOCK_RECORD
  5
3C7
330
1
100
AcDbSymbolTableRecord
100
AcDbBlockTableRecord
  2
_Open30
340
0
102
{BLKREFS
331
B8E
331
B8F
331
B99
331
B9A
331
BA2
331
BA3
331
BAB
331
BAC
331
BB4
331
BB5
331
BBD
331
BBE
331
BC6
331
BC7
331
BCD
331
BCE
331
BD8
331
BD9
331
BE4
331
BE5
331
BF0
331
BF1
331
BFE
331
BFF
331
C0C
331
C0D
331
C16
331
C17
331
C21
331
C22
331
C2D
331
C2E
331
1252
331
1253
331
125B
331
125C
331
1264
331
1265
331
126F
331
1270
331
127A
331
127B
331
1281
331
1282
331
1289
331
128A
331
1292
331
1293
102
}
  0
BLOCK_RECORD
  5
690
330
1
100
AcDbSymbolTableRecord
100
AcDbBlockTableRecord
  2
*D1
340
0
  0
BLOCK_RECORD
  5
69B
330
1
100
AcDbSymbolTableRecord
100
AcDbBlockTableRecord
  2
*D2
340
0
  0
BLOCK_RECORD
  5
6A8
330
1
100
AcDbSymbolTableRecord
100
AcDbBlockTableRecord
  2
*D3
340
0
  0
BLOCK_RECORD
  5
6B5
330
1
100
AcDbSymbolTableRecord
100
AcDbBlockTableRecord
  2
*D4
340
0
  0
BLOCK_RECORD
  5
6C2
330
1
100
AcDbSymbolTableRecord
100
AcDbBlockTableRecord
  2
*D5
340
0
  0
BLOCK_RECORD
  5
6CF
330
1
100
AcDbSymbolTableRecord
100
AcDbBlockTableRecord
  2
*D6
340
0
  0
BLOCK_RECORD
  5
6DC
330
1
100
AcDbSymbolTableRecord
100
AcDbBlockTableRecord
  2
*D7
340
0
  0
BLOCK_RECORD
  5
6E9
330
1
100
AcDbSymbolTableRecord
100
AcDbBlockTableRecord
  2
*D8
340
0
  0
BLOCK_RECORD
  5
BD3
330
1
100
AcDbSymbolTableRecord
100
AcDbBlockTableRecord
  2
*D9
340
0
  0
BLOCK_RECORD
  5
BDF
330
1
100
AcDbSymbolTableRecord
100
AcDbBlockTableRecord
  2
*D10
340
0
  0
BLOCK_RECORD
  5
BEB
330
1
100
AcDbSymbolTableRecord
100
AcDbBlockTableRecord
  2
*D11
340
0
  0
BLOCK_RECORD
  5
BF7
330
1
100
AcDbSymbolTableRecord
100
AcDbBlockTableRecord
  2
*D12
340
0
  0
BLOCK_RECORD
  5
C05
330
1
100
AcDbSymbolTableRecord
100
AcDbBlockTableRecord
  2
*D13
340
0
  0
BLOCK_RECORD
  5
C13
330
1
100
AcDbSymbolTableRecord
100
AcDbBlockTableRecord
  2
*D14
340
0
  0
BLOCK_RECORD
  5
C1C
330
1
100
AcDbSymbolTableRecord
100
AcDbBlockTableRecord
  2
*D15
340
0
  0
BLOCK_RECORD
  5
C28
330
1
100
AcDbSymbolTableRecord
100
AcDbBlockTableRecord
  2
*D16
340
0
  0
BLOCK_RECORD
  5
11EE
330
1
100
AcDbSymbolTableRecord
100
AcDbBlockTableRecord
  2
*D18
340
0
  0
BLOCK_RECORD
  5
11FA
330
1
100
AcDbSymbolTableRecord
100
AcDbBlockTableRecord
  2
*D19
340
0
  0
BLOCK_RECORD
  5
1206
330
1
100
AcDbSymbolTableRecord
100
AcDbBlockTableRecord
  2
*D20
340
0
  0
BLOCK_RECORD
  5
1212
330
1
100
AcDbSymbolTableRecord
100
AcDbBlockTableRecord
  2
*D21
340
0
  0
BLOCK_RECORD
  5
1220
330
1
100
AcDbSymbolTableRecord
100
AcDbBlockTableRecord
  2
*D22
340
0
  0
BLOCK_RECORD
  5
122E
330
1
100
AcDbSymbolTableRecord
100
AcDbBlockTableRecord
  2
*D23
340
0
  0
BLOCK_RECORD
  5
1237
330
1
100
AcDbSymbolTableRecord
100
AcDbBlockTableRecord
  2
*D24
340
0
  0
BLOCK_RECORD
  5
1243
330
1
100
AcDbSymbolTableRecord
100
AcDbBlockTableRecord
  2
*D25
340
0
  0
ENDTAB
  0
ENDSEC
  0
SECTION
  2
BLOCKS
  0
BLOCK
  5
6C
330
6B
100
AcDbEntity
  8
0
100
AcDbBlockBegin
  2
*Model_Space
 70
     0
 10
0.0
 20
0.0
 30
0.0
  3
*Model_Space
  1

  0
ENDBLK
  5
6D
330
6B
100
AcDbEntity
  8
0
100
AcDbBlockEnd
  0
BLOCK
  5
68
330
67
100
AcDbEntity
 67
     1
  8
0
100
AcDbBlockBegin
  2
*Paper_Space
 70
     0
 10
0.0
 20
0.0
 30
0.0
  3
*Paper_Space
  1

  0
ENDBLK
  5
69
330
67
100
AcDbEntity
 67
     1
  8
0
100
AcDbBlockEnd
  0
BLOCK
  5
3C8
330
3C7
100
AcDbEntity
  8
0
100
AcDbBlockBegin
  2
_Open30
 70
     0
 10
0.0
 20
0.0
 30
0.0
  3
_Open30
  1

  0
LINE
  5
3C9
330
3C7
100
AcDbEntity
  8
0
  6
ByBlock
 62
     0
370
    -2
100
AcDbLine
 10
-1.0
 20
0.267949
 30
0.0
 11
0.0
 21
0.0
 31
0.0
  0
LINE
  5
3CA
330
3C7
100
AcDbEntity
  8
0
  6
ByBlock
 62
     0
370
    -2
100
AcDbLine
 10
0.0
 20
0.0
 30
0.0
 11
-1.0
 21
-0.267949
 31
0.0
  0
LINE
  5
3CB
330
3C7
100
AcDbEntity
  8
0
  6
ByBlock
 62
     0
370
    -2
100
AcDbLine
 10
0.0
 20
0.0
 30
0.0
 11
-1.0
 21
0.0
 31
0.0
  0
ENDBLK
  5
3CC
330
3C7
100
AcDbEntity
  8
0
100
AcDbBlockEnd
  0
BLOCK
  5
691
330
690
100
AcDbEntity
  8
0
100
AcDbBlockBegin
  2
*D1
 70
     1
 10
0.0
 20
0.0
 30
0.0
  3
*D1
  1

  0
LINE
  5
BCC
330
690
100
AcDbEntity
  8
0
 62
     0
370
    -2
100
AcDbLine
 10
-594.1278283841049
 20
68.03279946151812
 30
0.0
 11
-606.3324584005378
 21
89.85130115756218
 31
0.0
  0
INSERT
  5
BCD
330
690
100
AcDbEntity
  8
0
 62
     0
370
    -2
100
AcDbBlockReference
  2
_Open30
 10
-592.9073653923214
 20
65.85094930954014
 30
0.0
 41
2.5
 42
2.5
 43
2.5
 50
299.221369460311
  0
INSERT
  5
BCE
330
690
100
AcDbEntity
  8
0
 62
     0
370
    -2
100
AcDbBlockReference
  2
_Open30
 10
-607.5529213923215
 20
92.03315130954015
 30
0.0
 41
2.5
 42
2.5
 43
2.5
 50
119.221369460311
  0
MTEXT
  5
BCF
102
{ACAD_XDICTIONARY
360
15C0
102
}
330
690
100
AcDbEntity
  8
0
 62
     4
100
AcDbMText
 10
-598.37557076314
 20
79.97944385255621
 30
0.0
 40
3.0
 41
0.0
 71
     5
 72
     1
  1
\U+220530
 11
0.4881851967134482
 21
-0.8727400607912143
 31
0.0
 73
     1
 44
1.0
1001
ACAD
1000
MTEXTBEGIN
1070
    73
1070
     1
1070
    44
1040
1.0
1070
    74
1070
     0
1000
MTEXTEND
  0
POINT
  5
BD0
330
690
100
AcDbEntity
  8
Defpoints
 62
     0
100
AcDbPoint
 10
-607.5529213923215
 20
92.03315130954015
 30
0.0
  0
POINT
  5
BD1
330
690
100
AcDbEntity
  8
Defpoints
 62
     0
100
AcDbPoint
 10
-592.9073653923214
 20
65.85094930954014
 30
0.0
  0
ENDBLK
  5
692
330
690
100
AcDbEntity
  8
0
100
AcDbBlockEnd
  0
BLOCK
  5
69C
330
69B
100
AcDbEntity
  8
0
100
AcDbBlockBegin
  2
*D2
 70
     1
 10
0.0
 20
0.0
 30
0.0
  3
*D2
  1

  0
LINE
  5
BC3
330
69B
100
AcDbEntity
  8
0
 62
     0
370
    -2
100
AcDbLine
 10
-600.4801433923217
 20
53.94205030954025
 30
0.0
 11
-639.6266253923218
 21
53.94205030954026
 31
0.0
  0
LINE
  5
BC4
330
69B
100
AcDbEntity
  8
0
 62
     0
370
    -2
100
AcDbLine
 10
-592.3570603923216
 20
108.6291853095402
 30
0.0
 11
-639.6266253923218
 21
108.6291853095402
 31
0.0
  0
LINE
  5
BC5
330
69B
100
AcDbEntity
  8
0
 62
     0
370
    -2
100
AcDbLine
 10
-638.3766253923218
 20
56.44205030954026
 30
0.0
 11
-638.3766253923218
 21
106.1291853095402
 31
0.0
  0
INSERT
  5
BC6
330
69B
100
AcDbEntity
  8
0
 62
     0
370
    -2
100
AcDbBlockReference
  2
_Open30
 10
-638.3766253923218
 20
53.94205030954026
 30
0.0
 41
2.5
 42
2.5
 43
2.5
 50
270.0
  0
INSERT
  5
BC7
330
69B
100
AcDbEntity
  8
0
 62
     0
370
    -2
100
AcDbBlockReference
  2
_Open30
 10
-638.3766253923218
 20
108.6291853095402
 30
0.0
 41
2.5
 42
2.5
 43
2.5
 50
90.0
  0
MTEXT
  5
BC8
330
69B
100
AcDbEntity
  8
0
 62
     4
100
AcDbMText
 10
-640.5016253923218
 20
81.28561780954013
 30
0.0
 40
3.0
 41
0.0
 71
     5
 72
     1
  1
53
 11
0.0000000000000001
 21
1.0
 31
0.0
 73
     1
 44
1.0
1001
ACAD
1000
MTEXTBEGIN
1070
    73
1070
     1
1070
    44
1040
1.0
1070
    74
1070
     0
1000
MTEXTEND
  0
POINT
  5
BC9
330
69B
100
AcDbEntity
  8
Defpoints
 62
     0
100
AcDbPoint
 10
-600.2301433923218
 20
53.94205030954025
 30
0.0
  0
POINT
  5
BCA
330
69B
100
AcDbEntity
  8
Defpoints
 62
     0
100
AcDbPoint
 10
-592.1070603923217
 20
108.6291853095402
 30
0.0
  0
POINT
  5
BCB
330
69B
100
AcDbEntity
  8
Defpoints
 62
     0
100
AcDbPoint
 10
-638.3766253923218
 20
108.6291853095402
 30
0.0
  0
ENDBLK
  5
69D
330
69B
100
AcDbEntity
  8
0
100
AcDbBlockEnd
  0
BLOCK
  5
6A9
330
6A8
100
AcDbEntity
  8
0
100
AcDbBlockBegin
  2
*D3
 70
     1
 10
0.0
 20
0.0
 30
0.0
  3
*D3
  1

  0
LINE
  5
BBA
330
6A8
100
AcDbEntity
  8
0
 62
     0
370
    -2
100
AcDbLine
 10
-316.9832583923218
 20
78.24354930954022
 30
0.0
 11
-305.7067193923218
 21
78.24354930954022
 31
0.0
  0
LINE
  5
BBB
330
6A8
100
AcDbEntity
  8
0
 62
     0
370
    -2
100
AcDbLine
 10
-317.9807583923217
 20
88.24354930954022
 30
0.0
 11
-305.7067193923218
 21
88.24354930954022
 31
0.0
  0
LINE
  5
BBC
330
6A8
100
AcDbEntity
  8
0
 62
     0
370
    -2
100
AcDbLine
 10
-306.9567193923218
 20
80.74354930954022
 30
0.0
 11
-306.9567193923218
 21
85.74354930954022
 31
0.0
  0
INSERT
  5
BBD
330
6A8
100
AcDbEntity
  8
0
 62
     0
370
    -2
100
AcDbBlockReference
  2
_Open30
 10
-306.9567193923218
 20
78.24354930954022
 30
0.0
 41
2.5
 42
2.5
 43
2.5
 50
270.0
  0
INSERT
  5
BBE
330
6A8
100
AcDbEntity
  8
0
 62
     0
370
    -2
100
AcDbBlockReference
  2
_Open30
 10
-306.9567193923218
 20
88.24354930954022
 30
0.0
 41
2.5
 42
2.5
 43
2.5
 50
90.0
  0
MTEXT
  5
BBF
330
6A8
100
AcDbEntity
  8
0
 62
     4
100
AcDbMText
 10
-309.0817193923218
 20
83.24354930954017
 30
0.0
 40
3.0
 41
0.0
 71
     5
 72
     1
  1
10
 11
0.0000000000000001
 21
1.0
 31
0.0
 73
     1
 44
1.0
1001
ACAD
1000
MTEXTBEGIN
1070
    73
1070
     1
1070
    44
1040
1.0
1070
    74
1070
     0
1000
MTEXTEND
  0
POINT
  5
BC0
330
6A8
100
AcDbEntity
  8
Defpoints
 62
     0
100
AcDbPoint
 10
-317.2332583923218
 20
78.24354930954022
 30
0.0
  0
POINT
  5
BC1
330
6A8
100
AcDbEntity
  8
Defpoints
 62
     0
100
AcDbPoint
 10
-318.2307583923217
 20
88.24354930954022
 30
0.0
  0
POINT
  5
BC2
330
6A8
100
AcDbEntity
  8
Defpoints
 62
     0
100
AcDbPoint
 10
-306.9567193923218
 20
88.24354930954022
 30
0.0
  0
ENDBLK
  5
6AA
330
6A8
100
AcDbEntity
  8
0
100
AcDbBlockEnd
  0
BLOCK
  5
6B6
330
6B5
100
AcDbEntity
  8
0
100
AcDbBlockBegin
  2
*D4
 70
     1
 10
0.0
 20
0.0
 30
0.0
  3
*D4
  1

  0
LINE
  5
BB1
330
6B5
100
AcDbEntity
  8
0
 62
     0
370
    -2
100
AcDbLine
 10
-318.6357143923217
 20
-1.22053969045975
 30
0.0
 11
-307.6612173923218
 21
-1.220539690459753
 31
0.0
  0
LINE
  5
BB2
330
6B5
100
AcDbEntity
  8
0
 62
     0
370
    -2
100
AcDbLine
 10
-318.6357143923217
 20
22.77946030954025
 30
0.0
 11
-307.6612173923218
 21
22.77946030954025
 31
0.0
  0
LINE
  5
BB3
330
6B5
100
AcDbEntity
  8
0
 62
     0
370
    -2
100
AcDbLine
 10
-308.9112173923218
 20
1.279460309540247
 30
0.0
 11
-308.9112173923218
 21
20.27946030954025
 31
0.0
  0
INSERT
  5
BB4
330
6B5
100
AcDbEntity
  8
0
 62
     0
370
    -2
100
AcDbBlockReference
  2
_Open30
 10
-308.9112173923218
 20
-1.220539690459752
 30
0.0
 41
2.5
 42
2.5
 43
2.5
 50
270.0
  0
INSERT
  5
BB5
330
6B5
100
AcDbEntity
  8
0
 62
     0
370
    -2
100
AcDbBlockReference
  2
_Open30
 10
-308.9112173923218
 20
22.77946030954025
 30
0.0
 41
2.5
 42
2.5
 43
2.5
 50
90.0
  0
MTEXT
  5
BB6
330
6B5
100
AcDbEntity
  8
0
 62
     4
100
AcDbMText
 10
-311.0362173923218
 20
10.77946030954019
 30
0.0
 40
3.0
 41
0.0
 71
     5
 72
     1
  1
24
 11
0.0000000000000001
 21
1.0
 31
0.0
 73
     1
 44
1.0
1001
ACAD
1000
MTEXTBEGIN
1070
    73
1070
     1
1070
    44
1040
1.0
1070
    74
1070
     0
1000
MTEXTEND
  0
POINT
  5
BB7
330
6B5
100
AcDbEntity
  8
Defpoints
 62
     0
100
AcDbPoint
 10
-318.8857143923217
 20
-1.22053969045975
 30
0.0
  0
POINT
  5
BB8
330
6B5
100
AcDbEntity
  8
Defpoints
 62
     0
100
AcDbPoint
 10
-318.8857143923217
 20
22.77946030954025
 30
0.0
  0
POINT
  5
BB9
330
6B5
100
AcDbEntity
  8
Defpoints
 62
     0
100
AcDbPoint
 10
-308.9112173923218
 20
22.77946030954025
 30
0.0
  0
ENDBLK
  5
6B7
330
6B5
100
AcDbEntity
  8
0
100
AcDbBlockEnd
  0
BLOCK
  5
6C3
330
6C2
100
AcDbEntity
  8
0
100
AcDbBlockBegin
  2
*D5
 70
     1
 10
0.0
 20
0.0
 30
0.0
  3
*D5
  1

  0
LINE
  5
BA8
330
6C2
100
AcDbEntity
  8
0
 62
     0
370
    -2
100
AcDbLine
 10
-625.2030323923218
 20
15.76645630954025
 30
0.0
 11
-625.2030323923218
 21
35.88067130954025
 31
0.0
  0
LINE
  5
BA9
330
6C2
100
AcDbEntity
  8
0
 62
     0
370
    -2
100
AcDbLine
 10
-563.1674803923217
 20
15.49689730954025
 30
0.0
 11
-563.1674803923217
 21
35.88067130954025
 31
0.0
  0
LINE
  5
BAA
330
6C2
100
AcDbEntity
  8
0
 62
     0
370
    -2
100
AcDbLine
 10
-622.7030323923218
 20
34.63067130954025
 30
0.0
 11
-565.6674803923217
 21
34.63067130954025
 31
0.0
  0
INSERT
  5
BAB
330
6C2
100
AcDbEntity
  8
0
 62
     0
370
    -2
100
AcDbBlockReference
  2
_Open30
 10
-625.2030323923218
 20
34.63067130954025
 30
0.0
 41
2.5
 42
2.5
 43
2.5
 50
180.0
  0
INSERT
  5
BAC
330
6C2
100
AcDbEntity
  8
0
 62
     0
370
    -2
100
AcDbBlockReference
  2
_Open30
 10
-563.1674803923217
 20
34.63067130954025
 30
0.0
 41
2.5
 42
2.5
 43
2.5
  0
MTEXT
  5
BAD
330
6C2
100
AcDbEntity
  8
0
 62
     4
100
AcDbMText
 10
-594.1852563923218
 20
36.75567130954025
 30
0.0
 40
3.0
 41
0.0
 71
     5
 72
     1
  1
65
 73
     1
 44
1.0
1001
ACAD
1000
MTEXTBEGIN
1070
    73
1070
     1
1070
    44
1040
1.0
1070
    74
1070
     0
1000
MTEXTEND
  0
POINT
  5
BAE
330
6C2
100
AcDbEntity
  8
Defpoints
 62
     0
100
AcDbPoint
 10
-625.2030323923218
 20
15.51645630954025
 30
0.0
  0
POINT
  5
BAF
330
6C2
100
AcDbEntity
  8
Defpoints
 62
     0
100
AcDbPoint
 10
-563.1674803923217
 20
15.24689730954025
 30
0.0
  0
POINT
  5
BB0
330
6C2
100
AcDbEntity
  8
Defpoints
 62
     0
100
AcDbPoint
 10
-563.1674803923217
 20
34.63067130954025
 30
0.0
  0
ENDBLK
  5
6C4
330
6C2
100
AcDbEntity
  8
0
100
AcDbBlockEnd
  0
BLOCK
  5
6D0
330
6CF
100
AcDbEntity
  8
0
100
AcDbBlockBegin
  2
*D6
 70
     1
 10
0.0
 20
0.0
 30
0.0
  3
*D6
  1

  0
LINE
  5
B9F
330
6CF
100
AcDbEntity
  8
0
 62
     0
370
    -2
100
AcDbLine
 10
-563.1674803923217
 20
15.49689730954025
 30
0.0
 11
-563.1674803923217
 21
35.88067130954025
 31
0.0
  0
LINE
  5
BA0
330
6CF
100
AcDbEntity
  8
0
 62
     0
370
    -2
100
AcDbLine
 10
-317.3857143923218
 20
21.52946030954025
 30
0.0
 11
-317.3857143923218
 21
35.88067130954025
 31
0.0
  0
LINE
  5
BA1
330
6CF
100
AcDbEntity
  8
0
 62
     0
370
    -2
100
AcDbLine
 10
-560.6674803923217
 20
34.63067130954025
 30
0.0
 11
-319.8857143923218
 21
34.63067130954025
 31
0.0
  0
INSERT
  5
BA2
330
6CF
100
AcDbEntity
  8
0
 62
     0
370
    -2
100
AcDbBlockReference
  2
_Open30
 10
-563.1674803923217
 20
34.63067130954025
 30
0.0
 41
2.5
 42
2.5
 43
2.5
 50
180.0
  0
INSERT
  5
BA3
330
6CF
100
AcDbEntity
  8
0
 62
     0
370
    -2
100
AcDbBlockReference
  2
_Open30
 10
-317.3857143923218
 20
34.63067130954025
 30
0.0
 41
2.5
 42
2.5
 43
2.5
  0
MTEXT
  5
BA4
330
6CF
100
AcDbEntity
  8
0
 62
     4
100
AcDbMText
 10
-440.2765973923218
 20
36.75567130954025
 30
0.0
 40
3.0
 41
0.0
 71
     5
 72
     1
  1
L寸法
 73
     1
 44
1.0
1001
ACAD
1000
MTEXTBEGIN
1070
    73
1070
     1
1070
    44
1040
1.0
1070
    74
1070
     0
1000
MTEXTEND
  0
POINT
  5
BA5
330
6CF
100
AcDbEntity
  8
Defpoints
 62
     0
100
AcDbPoint
 10
-563.1674803923217
 20
15.24689730954025
 30
0.0
  0
POINT
  5
BA6
330
6CF
100
AcDbEntity
  8
Defpoints
 62
     0
100
AcDbPoint
 10
-317.3857143923218
 20
21.27946030954025
 30
0.0
  0
POINT
  5
BA7
330
6CF
100
AcDbEntity
  8
Defpoints
 62
     0
100
AcDbPoint
 10
-317.3857143923218
 20
34.63067130954025
 30
0.0
  0
ENDBLK
  5
6D1
330
6CF
100
AcDbEntity
  8
0
100
AcDbBlockEnd
  0
BLOCK
  5
6DD
330
6DC
100
AcDbEntity
  8
0
100
AcDbBlockBegin
  2
*D7
 70
     1
 10
0.0
 20
0.0
 30
0.0
  3
*D7
  1

  0
LINE
  5
B94
330
6DC
100
AcDbEntity
  8
0
 62
     0
370
    -2
100
AcDbLine
 10
-397.2577823923217
 20
3.232279309540248
 30
0.0
 11
-388.5907418751469
 21
3.232279309540246
 31
0.0
  0
LINE
  5
B95
330
6DC
100
AcDbEntity
  8
0
 62
     0
370
    -2
100
AcDbLine
 10
-397.0254523923218
 20
18.32181130954025
 30
0.0
 11
-388.5907418751469
 21
18.32181130954024
 31
0.0
  0
LINE
  5
B96
330
6DC
100
AcDbEntity
  8
0
 62
     0
370
    -2
100
AcDbLine
 10
-389.8407418751469
 20
20.82181130954025
 30
0.0
 11
-389.8407418751469
 21
23.32181130954025
 31
0.0
  0
LINE
  5
B97
330
6DC
100
AcDbEntity
  8
0
 62
     0
370
    -2
100
AcDbLine
 10
-389.8407418751469
 20
0.7322793095402465
 30
0.0
 11
-389.8407418751469
 21
-10.26772069045975
 31
0.0
  0
LINE
  5
B98
330
6DC
100
AcDbEntity
  8
0
 62
     0
370
    -2
100
AcDbLine
 10
-389.8407418751469
 20
18.32181130954024
 30
0.0
 11
-389.8407418751469
 21
3.232279309540246
 31
0.0
  0
INSERT
  5
B99
330
6DC
100
AcDbEntity
  8
0
 62
     0
370
    -2
100
AcDbBlockReference
  2
_Open30
 10
-389.8407418751469
 20
18.32181130954024
 30
0.0
 41
2.5
 42
2.5
 43
2.5
 50
270.0
  0
INSERT
  5
B9A
330
6DC
100
AcDbEntity
  8
0
 62
     0
370
    -2
100
AcDbBlockReference
  2
_Open30
 10
-389.8407418751469
 20
3.232279309540246
 30
0.0
 41
2.5
 42
2.5
 43
2.5
 50
90.0
  0
MTEXT
  5
B9B
330
6DC
100
AcDbEntity
  8
0
 62
     4
100
AcDbMText
 10
-391.9657418751469
 20
-7.642720690459815
 30
0.0
 40
3.0
 41
0.0
 71
     5
 72
     1
  1
15
 11
0.0000000000000001
 21
1.0
 31
0.0
 73
     1
 44
1.0
1001
ACAD
1000
MTEXTBEGIN
1070
    73
1070
     1
1070
    44
1040
1.0
1070
    74
1070
     0
1000
MTEXTEND
  0
POINT
  5
B9C
330
6DC
100
AcDbEntity
  8
Defpoints
 62
     0
100
AcDbPoint
 10
-397.5077823923218
 20
3.232279309540248
 30
0.0
  0
POINT
  5
B9D
330
6DC
100
AcDbEntity
  8
Defpoints
 62
     0
100
AcDbPoint
 10
-397.2754523923218
 20
18.32181130954025
 30
0.0
  0
POINT
  5
B9E
330
6DC
100
AcDbEntity
  8
Defpoints
 62
     0
100
AcDbPoint
 10
-389.8407418751469
 20
18.32181130954024
 30
0.0
  0
ENDBLK
  5
6DE
330
6DC
100
AcDbEntity
  8
0
100
AcDbBlockEnd
  0
BLOCK
  5
6EA
330
6E9
100
AcDbEntity
  8
0
100
AcDbBlockBegin
  2
*D8
 70
     1
 10
0.0
 20
0.0
 30
0.0
  3
*D8
  1

  0
LINE
  5
B89
330
6E9
100
AcDbEntity
  8
0
 62
     0
370
    -2
100
AcDbLine
 10
-441.0230183923216
 20
77.49578030954025
 30
0.0
 11
-433.6165373923217
 21
77.49578030954025
 31
0.0
  0
LINE
  5
B8A
330
6E9
100
AcDbEntity
  8
0
 62
     0
370
    -2
100
AcDbLine
 10
-441.2998863923217
 20
80.49578030954025
 30
0.0
 11
-433.6165373923217
 21
80.49578030954025
 31
0.0
  0
LINE
  5
B8B
330
6E9
100
AcDbEntity
  8
0
 62
     0
370
    -2
100
AcDbLine
 10
-434.8665373923217
 20
74.99578030954025
 30
0.0
 11
-434.8665373923217
 21
72.49578030954025
 31
0.0
  0
LINE
  5
B8C
330
6E9
100
AcDbEntity
  8
0
 62
     0
370
    -2
100
AcDbLine
 10
-434.8665373923217
 20
82.99578030954025
 30
0.0
 11
-434.8665373923217
 21
91.74578030954025
 31
0.0
  0
LINE
  5
B8D
330
6E9
100
AcDbEntity
  8
0
 62
     0
370
    -2
100
AcDbLine
 10
-434.8665373923217
 20
77.49578030954025
 30
0.0
 11
-434.8665373923217
 21
80.49578030954025
 31
0.0
  0
INSERT
  5
B8E
330
6E9
100
AcDbEntity
  8
0
 62
     0
370
    -2
100
AcDbBlockReference
  2
_Open30
 10
-434.8665373923217
 20
77.49578030954025
 30
0.0
 41
2.5
 42
2.5
 43
2.5
 50
90.0
  0
INSERT
  5
B8F
330
6E9
100
AcDbEntity
  8
0
 62
     0
370
    -2
100
AcDbBlockReference
  2
_Open30
 10
-434.8665373923217
 20
80.49578030954025
 30
0.0
 41
2.5
 42
2.5
 43
2.5
 50
270.0
  0
MTEXT
  5
B90
330
6E9
100
AcDbEntity
  8
0
 62
     4
100
AcDbMText
 10
-436.9915373923216
 20
88.62078030954018
 30
0.0
 40
3.0
 41
0.0
 71
     5
 72
     1
  1
2t
 11
0.0000000000000001
 21
1.0
 31
0.0
 73
     1
 44
1.0
1001
ACAD
1000
MTEXTBEGIN
1070
    73
1070
     1
1070
    44
1040
1.0
1070
    74
1070
     0
1000
MTEXTEND
  0
POINT
  5
B91
330
6E9
100
AcDbEntity
  8
Defpoints
 62
     0
100
AcDbPoint
 10
-441.2730183923216
 20
77.49578030954025
 30
0.0
  0
POINT
  5
B92
330
6E9
100
AcDbEntity
  8
Defpoints
 62
     0
100
AcDbPoint
 10
-441.5498863923216
 20
80.49578030954025
 30
0.0
  0
POINT
  5
B93
330
6E9
100
AcDbEntity
  8
Defpoints
 62
     0
100
AcDbPoint
 10
-434.8665373923217
 20
80.49578030954025
 30
0.0
  0
ENDBLK
  5
6EB
330
6E9
100
AcDbEntity
  8
0
100
AcDbBlockEnd
  0
BLOCK
  5
BD4
330
BD3
100
AcDbEntity
  8
0
100
AcDbBlockBegin
  2
*D9
 70
     1
 10
0.0
 20
0.0
 30
0.0
  3
*D9
  1

  0
LINE
  5
BD5
330
BD3
100
AcDbEntity
  8
0
 62
     0
370
    -2
100
AcDbLine
 10
-300.5342172058963
 20
-445.1574683244037
 30
0.0
 11
-289.2576792058963
 21
-445.1574683244037
 31
0.0
  0
LINE
  5
BD6
330
BD3
100
AcDbEntity
  8
0
 62
     0
370
    -2
100
AcDbLine
 10
-301.5317172058963
 20
-435.1574683244036
 30
0.0
 11
-289.2576792058963
 21
-435.1574683244036
 31
0.0
  0
LINE
  5
BD7
330
BD3
100
AcDbEntity
  8
0
 62
     0
370
    -2
100
AcDbLine
 10
-290.5076792058963
 20
-442.6574683244036
 30
0.0
 11
-290.5076792058963
 21
-437.6574683244036
 31
0.0
  0
INSERT
  5
BD8
330
BD3
100
AcDbEntity
  8
0
 62
     0
370
    -2
100
AcDbBlockReference
  2
_Open30
 10
-290.5076792058963
 20
-445.1574683244037
 30
0.0
 41
2.5
 42
2.5
 43
2.5
 50
270.0
  0
INSERT
  5
BD9
330
BD3
100
AcDbEntity
  8
0
 62
     0
370
    -2
100
AcDbBlockReference
  2
_Open30
 10
-290.5076792058963
 20
-435.1574683244036
 30
0.0
 41
2.5
 42
2.5
 43
2.5
 50
90.0
  0
MTEXT
  5
BDA
330
BD3
100
AcDbEntity
  8
0
 62
     4
100
AcDbMText
 10
-292.6326792058962
 20
-440.1574683244036
 30
0.0
 40
3.0
 41
0.0
 71
     5
 72
     1
  1
10
 11
0.0000000000000001
 21
1.0
 31
0.0
 73
     1
 44
1.0
1001
ACAD
1000
MTEXTBEGIN
1070
    73
1070
     1
1070
    44
1040
1.0
1070
    74
1070
     0
1000
MTEXTEND
  0
POINT
  5
BDB
330
BD3
100
AcDbEntity
  8
Defpoints
 62
     0
100
AcDbPoint
 10
-300.7842172058963
 20
-445.1574683244037
 30
0.0
  0
POINT
  5
BDC
330
BD3
100
AcDbEntity
  8
Defpoints
 62
     0
100
AcDbPoint
 10
-301.7817172058963
 20
-435.1574683244036
 30
0.0
  0
POINT
  5
BDD
330
BD3
100
AcDbEntity
  8
Defpoints
 62
     0
100
AcDbPoint
 10
-290.5076792058963
 20
-435.1574683244036
 30
0.0
  0
ENDBLK
  5
BDE
330
BD3
100
AcDbEntity
  8
0
100
AcDbBlockEnd
  0
BLOCK
  5
BE0
330
BDF
100
AcDbEntity
  8
0
100
AcDbBlockBegin
  2
*D10
 70
     1
 10
0.0
 20
0.0
 30
0.0
  3
*D10
  1

  0
LINE
  5
BE1
330
BDF
100
AcDbEntity
  8
0
 62
     0
370
    -2
100
AcDbLine
 10
-302.1866732058962
 20
-544.6215573244036
 30
0.0
 11
-291.2121762058963
 21
-544.6215573244036
 31
0.0
  0
LINE
  5
BE2
330
BDF
100
AcDbEntity
  8
0
 62
     0
370
    -2
100
AcDbLine
 10
-302.1866732058962
 20
-520.6215573244036
 30
0.0
 11
-291.2121762058963
 21
-520.6215573244036
 31
0.0
  0
LINE
  5
BE3
330
BDF
100
AcDbEntity
  8
0
 62
     0
370
    -2
100
AcDbLine
 10
-292.4621762058963
 20
-542.1215573244036
 30
0.0
 11
-292.4621762058963
 21
-523.1215573244035
 31
0.0
  0
INSERT
  5
BE4
330
BDF
100
AcDbEntity
  8
0
 62
     0
370
    -2
100
AcDbBlockReference
  2
_Open30
 10
-292.4621762058963
 20
-544.6215573244036
 30
0.0
 41
2.5
 42
2.5
 43
2.5
 50
270.0
  0
INSERT
  5
BE5
330
BDF
100
AcDbEntity
  8
0
 62
     0
370
    -2
100
AcDbBlockReference
  2
_Open30
 10
-292.4621762058963
 20
-520.6215573244036
 30
0.0
 41
2.5
 42
2.5
 43
2.5
 50
90.0
  0
MTEXT
  5
BE6
330
BDF
100
AcDbEntity
  8
0
 62
     4
100
AcDbMText
 10
-294.5871762058962
 20
-532.6215573244037
 30
0.0
 40
3.0
 41
0.0
 71
     5
 72
     1
  1
24
 11
0.0000000000000001
 21
1.0
 31
0.0
 73
     1
 44
1.0
1001
ACAD
1000
MTEXTBEGIN
1070
    73
1070
     1
1070
    44
1040
1.0
1070
    74
1070
     0
1000
MTEXTEND
  0
POINT
  5
BE7
330
BDF
100
AcDbEntity
  8
Defpoints
 62
     0
100
AcDbPoint
 10
-302.4366732058962
 20
-544.6215573244036
 30
0.0
  0
POINT
  5
BE8
330
BDF
100
AcDbEntity
  8
Defpoints
 62
     0
100
AcDbPoint
 10
-302.4366732058962
 20
-520.6215573244036
 30
0.0
  0
POINT
  5
BE9
330
BDF
100
AcDbEntity
  8
Defpoints
 62
     0
100
AcDbPoint
 10
-292.4621762058963
 20
-520.6215573244036
 30
0.0
  0
ENDBLK
  5
BEA
330
BDF
100
AcDbEntity
  8
0
100
AcDbBlockEnd
  0
BLOCK
  5
BEC
330
BEB
100
AcDbEntity
  8
0
100
AcDbBlockBegin
  2
*D11
 70
     1
 10
0.0
 20
0.0
 30
0.0
  3
*D11
  1

  0
LINE
  5
BED
330
BEB
100
AcDbEntity
  8
0
 62
     0
370
    -2
100
AcDbLine
 10
-546.7847952058962
 20
-527.9940983244036
 30
0.0
 11
-546.7847952058962
 21
-507.5203463244037
 31
0.0
  0
LINE
  5
BEE
330
BEB
100
AcDbEntity
  8
0
 62
     0
370
    -2
100
AcDbLine
 10
-300.9366732058962
 20
-521.8715573244036
 30
0.0
 11
-300.9366732058962
 21
-507.5203463244037
 31
0.0
  0
LINE
  5
BEF
330
BEB
100
AcDbEntity
  8
0
 62
     0
370
    -2
100
AcDbLine
 10
-544.2847952058961
 20
-508.7703463244037
 30
0.0
 11
-303.4366732058962
 21
-508.7703463244037
 31
0.0
  0
INSERT
  5
BF0
330
BEB
100
AcDbEntity
  8
0
 62
     0
370
    -2
100
AcDbBlockReference
  2
_Open30
 10
-546.7847952058962
 20
-508.7703463244037
 30
0.0
 41
2.5
 42
2.5
 43
2.5
 50
180.0
  0
INSERT
  5
BF1
330
BEB
100
AcDbEntity
  8
0
 62
     0
370
    -2
100
AcDbBlockReference
  2
_Open30
 10
-300.9366732058962
 20
-508.7703463244037
 30
0.0
 41
2.5
 42
2.5
 43
2.5
  0
MTEXT
  5
BF2
330
BEB
100
AcDbEntity
  8
0
 62
     4
100
AcDbMText
 10
-423.8607342058961
 20
-506.6453463244037
 30
0.0
 40
3.0
 41
0.0
 71
     5
 72
     1
  1
L寸法
 73
     1
 44
1.0
1001
ACAD
1000
MTEXTBEGIN
1070
    73
1070
     1
1070
    44
1040
1.0
1070
    74
1070
     0
1000
MTEXTEND
  0
POINT
  5
BF3
330
BEB
100
AcDbEntity
  8
Defpoints
 62
     0
100
AcDbPoint
 10
-546.7847952058962
 20
-528.2440983244035
 30
0.0
  0
POINT
  5
BF4
330
BEB
100
AcDbEntity
  8
Defpoints
 62
     0
100
AcDbPoint
 10
-300.9366732058962
 20
-522.1215573244036
 30
0.0
  0
POINT
  5
BF5
330
BEB
100
AcDbEntity
  8
Defpoints
 62
     0
100
AcDbPoint
 10
-300.9366732058962
 20
-508.7703463244037
 30
0.0
  0
ENDBLK
  5
BF6
330
BEB
100
AcDbEntity
  8
0
100
AcDbBlockEnd
  0
BLOCK
  5
BF8
330
BF7
100
AcDbEntity
  8
0
100
AcDbBlockBegin
  2
*D12
 70
     1
 10
0.0
 20
0.0
 30
0.0
  3
*D12
  1

  0
LINE
  5
BF9
330
BF7
100
AcDbEntity
  8
0
 62
     0
370
    -2
100
AcDbLine
 10
-380.8087412058963
 20
-540.1687383244036
 30
0.0
 11
-371.5558820189909
 21
-540.1687383244036
 31
0.0
  0
LINE
  5
BFA
330
BF7
100
AcDbEntity
  8
0
 62
     0
370
    -2
100
AcDbLine
 10
-380.5764112058962
 20
-525.0792053244037
 30
0.0
 11
-371.5558820189909
 21
-525.0792053244037
 31
0.0
  0
LINE
  5
BFB
330
BF7
100
AcDbEntity
  8
0
 62
     0
370
    -2
100
AcDbLine
 10
-372.8058820189909
 20
-522.5792053244036
 30
0.0
 11
-372.8058820189909
 21
-520.0792053244036
 31
0.0
  0
LINE
  5
BFC
330
BF7
100
AcDbEntity
  8
0
 62
     0
370
    -2
100
AcDbLine
 10
-372.8058820189909
 20
-542.6687383244036
 30
0.0
 11
-372.8058820189909
 21
-550.7937383244035
 31
0.0
  0
LINE
  5
BFD
330
BF7
100
AcDbEntity
  8
0
 62
     0
370
    -2
100
AcDbLine
 10
-372.8058820189909
 20
-525.0792053244037
 30
0.0
 11
-372.8058820189909
 21
-540.1687383244036
 31
0.0
  0
INSERT
  5
BFE
330
BF7
100
AcDbEntity
  8
0
 62
     0
370
    -2
100
AcDbBlockReference
  2
_Open30
 10
-372.8058820189909
 20
-525.0792053244037
 30
0.0
 41
2.5
 42
2.5
 43
2.5
 50
270.0
  0
INSERT
  5
BFF
330
BF7
100
AcDbEntity
  8
0
 62
     0
370
    -2
100
AcDbBlockReference
  2
_Open30
 10
-372.8058820189909
 20
-540.1687383244036
 30
0.0
 41
2.5
 42
2.5
 43
2.5
 50
90.0
  0
MTEXT
  5
C00
330
BF7
100
AcDbEntity
  8
0
 62
     4
100
AcDbMText
 10
-374.9308820189909
 20
-548.1687383244036
 30
0.0
 40
3.0
 41
0.0
 71
     5
 72
     1
  1
15
 11
0.0000000000000001
 21
1.0
 31
0.0
 73
     1
 44
1.0
1001
ACAD
1000
MTEXTBEGIN
1070
    73
1070
     1
1070
    44
1040
1.0
1070
    74
1070
     0
1000
MTEXTEND
  0
POINT
  5
C01
330
BF7
100
AcDbEntity
  8
Defpoints
 62
     0
100
AcDbPoint
 10
-381.0587412058962
 20
-540.1687383244036
 30
0.0
  0
POINT
  5
C02
330
BF7
100
AcDbEntity
  8
Defpoints
 62
     0
100
AcDbPoint
 10
-380.8264112058962
 20
-525.0792053244037
 30
0.0
  0
POINT
  5
C03
330
BF7
100
AcDbEntity
  8
Defpoints
 62
     0
100
AcDbPoint
 10
-372.8058820189909
 20
-525.0792053244037
 30
0.0
  0
ENDBLK
  5
C04
330
BF7
100
AcDbEntity
  8
0
100
AcDbBlockEnd
  0
BLOCK
  5
C06
330
C05
100
AcDbEntity
  8
0
100
AcDbBlockBegin
  2
*D13
 70
     1
 10
0.0
 20
0.0
 30
0.0
  3
*D13
  1

  0
LINE
  5
C07
330
C05
100
AcDbEntity
  8
0
 62
     0
370
    -2
100
AcDbLine
 10
-424.5739772058962
 20
-445.9052373244036
 30
0.0
 11
-417.1674972058962
 21
-445.9052373244036
 31
0.0
  0
LINE
  5
C08
330
C05
100
AcDbEntity
  8
0
 62
     0
370
    -2
100
AcDbLine
 10
-424.8508452058961
 20
-442.9052373244036
 30
0.0
 11
-417.1674972058962
 21
-442.9052373244036
 31
0.0
  0
LINE
  5
C09
330
C05
100
AcDbEntity
  8
0
 62
     0
370
    -2
100
AcDbLine
 10
-418.4174972058961
 20
-448.4052373244036
 30
0.0
 11
-418.4174972058961
 21
-450.9052373244036
 31
0.0
  0
LINE
  5
C0A
330
C05
100
AcDbEntity
  8
0
 62
     0
370
    -2
100
AcDbLine
 10
-418.4174972058961
 20
-440.4052373244036
 30
0.0
 11
-418.4174972058961
 21
-431.6552373244036
 31
0.0
  0
LINE
  5
C0B
330
C05
100
AcDbEntity
  8
0
 62
     0
370
    -2
100
AcDbLine
 10
-418.4174972058961
 20
-445.9052373244036
 30
0.0
 11
-418.4174972058961
 21
-442.9052373244036
 31
0.0
  0
INSERT
  5
C0C
330
C05
100
AcDbEntity
  8
0
 62
     0
370
    -2
100
AcDbBlockReference
  2
_Open30
 10
-418.4174972058961
 20
-445.9052373244036
 30
0.0
 41
2.5
 42
2.5
 43
2.5
 50
90.0
  0
INSERT
  5
C0D
330
C05
100
AcDbEntity
  8
0
 62
     0
370
    -2
100
AcDbBlockReference
  2
_Open30
 10
-418.4174972058961
 20
-442.9052373244036
 30
0.0
 41
2.5
 42
2.5
 43
2.5
 50
270.0
  0
MTEXT
  5
C0E
330
C05
100
AcDbEntity
  8
0
 62
     4
100
AcDbMText
 10
-420.5424972058961
 20
-434.7802373244037
 30
0.0
 40
3.0
 41
0.0
 71
     5
 72
     1
  1
2t
 11
0.0000000000000001
 21
1.0
 31
0.0
 73
     1
 44
1.0
1001
ACAD
1000
MTEXTBEGIN
1070
    73
1070
     1
1070
    44
1040
1.0
1070
    74
1070
     0
1000
MTEXTEND
  0
POINT
  5
C0F
330
C05
100
AcDbEntity
  8
Defpoints
 62
     0
100
AcDbPoint
 10
-424.8239772058962
 20
-445.9052373244036
 30
0.0
  0
POINT
  5
C10
330
C05
100
AcDbEntity
  8
Defpoints
 62
     0
100
AcDbPoint
 10
-425.1008452058962
 20
-442.9052373244036
 30
0.0
  0
POINT
  5
C11
330
C05
100
AcDbEntity
  8
Defpoints
 62
     0
100
AcDbPoint
 10
-418.4174972058961
 20
-442.9052373244036
 30
0.0
  0
ENDBLK
  5
C12
330
C05
100
AcDbEntity
  8
0
100
AcDbBlockEnd
  0
BLOCK
  5
C14
330
C13
100
AcDbEntity
  8
0
100
AcDbBlockBegin
  2
*D14
 70
     1
 10
0.0
 20
0.0
 30
0.0
  3
*D14
  1

  0
LINE
  5
C15
330
C13
100
AcDbEntity
  8
0
 62
     0
370
    -2
100
AcDbLine
 10
-587.014937140235
 20
-463.8782579032763
 30
0.0
 11
-608.4712062715582
 21
-424.3228717455313
 31
0.0
  0
INSERT
  5
C16
330
C13
100
AcDbEntity
  8
0
 62
     0
370
    -2
100
AcDbBlockReference
  2
_Open30
 10
-585.8229222058964
 20
-466.0757793244037
 30
0.0
 41
2.5
 42
2.5
 43
2.5
 50
298.4770020669829
  0
INSERT
  5
C17
330
C13
100
AcDbEntity
  8
0
 62
     0
370
    -2
100
AcDbBlockReference
  2
_Open30
 10
-609.6632212058968
 20
-422.1253503244038
 30
0.0
 41
2.5
 42
2.5
 43
2.5
 50
118.4770020669829
  0
MTEXT
  5
C18
102
{ACAD_XDICTIONARY
360
15C2
102
}
330
C13
100
AcDbEntity
  8
0
 62
     4
100
AcDbMText
 10
-595.8751784979381
 20
-443.0873521302161
 30
0.0
 40
3.0
 41
0.0
 71
     5
 72
     1
  1
\U+220550
 11
0.4768059737353985
 21
-0.8790085684509785
 31
0.0
 73
     1
 44
1.0
1001
ACAD
1000
MTEXTBEGIN
1070
    73
1070
     1
1070
    44
1040
1.0
1070
    74
1070
     0
1000
MTEXTEND
  0
POINT
  5
C19
330
C13
100
AcDbEntity
  8
Defpoints
 62
     0
100
AcDbPoint
 10
-609.6632212058968
 20
-422.1253503244038
 30
0.0
  0
POINT
  5
C1A
330
C13
100
AcDbEntity
  8
Defpoints
 62
     0
100
AcDbPoint
 10
-585.8229222058964
 20
-466.0757793244037
 30
0.0
  0
ENDBLK
  5
C1B
330
C13
100
AcDbEntity
  8
0
100
AcDbBlockEnd
  0
BLOCK
  5
C1D
330
C1C
100
AcDbEntity
  8
0
100
AcDbBlockBegin
  2
*D15
 70
     1
 10
0.0
 20
0.0
 30
0.0
  3
*D15
  1

  0
LINE
  5
C1E
330
C1C
100
AcDbEntity
  8
0
 62
     0
370
    -2
100
AcDbLine
 10
-597.9930722058961
 20
-481.1005653244037
 30
0.0
 11
-645.5808642058961
 21
-481.1005653244036
 31
0.0
  0
LINE
  5
C1F
330
C1C
100
AcDbEntity
  8
0
 62
     0
370
    -2
100
AcDbLine
 10
-588.3801212058962
 20
-399.3636923244037
 30
0.0
 11
-645.5808642058961
 21
-399.3636923244037
 31
0.0
  0
LINE
  5
C20
330
C1C
100
AcDbEntity
  8
0
 62
     0
370
    -2
100
AcDbLine
 10
-644.3308642058962
 20
-478.6005653244036
 30
0.0
 11
-644.3308642058962
 21
-401.8636923244036
 31
0.0
  0
INSERT
  5
C21
330
C1C
100
AcDbEntity
  8
0
 62
     0
370
    -2
100
AcDbBlockReference
  2
_Open30
 10
-644.3308642058962
 20
-481.1005653244036
 30
0.0
 41
2.5
 42
2.5
 43
2.5
 50
270.0
  0
INSERT
  5
C22
330
C1C
100
AcDbEntity
  8
0
 62
     0
370
    -2
100
AcDbBlockReference
  2
_Open30
 10
-644.3308642058962
 20
-399.3636923244037
 30
0.0
 41
2.5
 42
2.5
 43
2.5
 50
90.0
  0
MTEXT
  5
C23
330
C1C
100
AcDbEntity
  8
0
 62
     4
100
AcDbMText
 10
-646.455864205896
 20
-440.2321288244038
 30
0.0
 40
3.0
 41
0.0
 71
     5
 72
     1
  1
82
 11
0.0000000000000001
 21
1.0
 31
0.0
 73
     1
 44
1.0
1001
ACAD
1000
MTEXTBEGIN
1070
    73
1070
     1
1070
    44
1040
1.0
1070
    74
1070
     0
1000
MTEXTEND
  0
POINT
  5
C24
330
C1C
100
AcDbEntity
  8
Defpoints
 62
     0
100
AcDbPoint
 10
-597.7430722058961
 20
-481.1005653244037
 30
0.0
  0
POINT
  5
C25
330
C1C
100
AcDbEntity
  8
Defpoints
 62
     0
100
AcDbPoint
 10
-588.1301212058962
 20
-399.3636923244037
 30
0.0
  0
POINT
  5
C26
330
C1C
100
AcDbEntity
  8
Defpoints
 62
     0
100
AcDbPoint
 10
-644.3308642058962
 20
-399.3636923244037
 30
0.0
  0
ENDBLK
  5
C27
330
C1C
100
AcDbEntity
  8
0
100
AcDbBlockEnd
  0
BLOCK
  5
C29
330
C28
100
AcDbEntity
  8
0
100
AcDbBlockBegin
  2
*D16
 70
     1
 10
0.0
 20
0.0
 30
0.0
  3
*D16
  1

  0
LINE
  5
C2A
330
C28
100
AcDbEntity
  8
0
 62
     0
370
    -2
100
AcDbLine
 10
-634.7481222058962
 20
-532.5090143244036
 30
0.0
 11
-634.7481222058962
 21
-507.5203463244037
 31
0.0
  0
LINE
  5
C2B
330
C28
100
AcDbEntity
  8
0
 62
     0
370
    -2
100
AcDbLine
 10
-546.7847952058962
 20
-527.9940983244036
 30
0.0
 11
-546.7847952058962
 21
-507.5203463244037
 31
0.0
  0
LINE
  5
C2C
330
C28
100
AcDbEntity
  8
0
 62
     0
370
    -2
100
AcDbLine
 10
-632.2481222058963
 20
-508.7703463244037
 30
0.0
 11
-549.2847952058962
 21
-508.7703463244037
 31
0.0
  0
INSERT
  5
C2D
330
C28
100
AcDbEntity
  8
0
 62
     0
370
    -2
100
AcDbBlockReference
  2
_Open30
 10
-634.7481222058962
 20
-508.7703463244037
 30
0.0
 41
2.5
 42
2.5
 43
2.5
 50
180.0
  0
INSERT
  5
C2E
330
C28
100
AcDbEntity
  8
0
 62
     0
370
    -2
100
AcDbBlockReference
  2
_Open30
 10
-546.7847952058962
 20
-508.7703463244037
 30
0.0
 41
2.5
 42
2.5
 43
2.5
  0
MTEXT
  5
C2F
330
C28
100
AcDbEntity
  8
0
 62
     4
100
AcDbMText
 10
-590.7664587058961
 20
-506.6453463244037
 30
0.0
 40
3.0
 41
0.0
 71
     5
 72
     1
  1
88
 73
     1
 44
1.0
1001
ACAD
1000
MTEXTBEGIN
1070
    73
1070
     1
1070
    44
1040
1.0
1070
    74
1070
     0
1000
MTEXTEND
  0
POINT
  5
C30
330
C28
100
AcDbEntity
  8
Defpoints
 62
     0
100
AcDbPoint
 10
-634.7481222058962
 20
-532.7590143244036
 30
0.0
  0
POINT
  5
C31
330
C28
100
AcDbEntity
  8
Defpoints
 62
     0
100
AcDbPoint
 10
-546.7847952058962
 20
-528.2440983244035
 30
0.0
  0
POINT
  5
C32
330
C28
100
AcDbEntity
  8
Defpoints
 62
     0
100
AcDbPoint
 10
-546.7847952058962
 20
-508.7703463244037
 30
0.0
  0
ENDBLK
  5
C33
330
C28
100
AcDbEntity
  8
0
100
AcDbBlockEnd
  0
BLOCK
  5
11EF
330
11EE
100
AcDbEntity
  8
0
100
AcDbBlockBegin
  2
*D18
 70
     1
 10
0.0
 20
0.0
 30
0.0
  3
*D18
  1

  0
LINE
  5
124F
330
11EE
100
AcDbEntity
  8
0
 62
     0
370
    -2
100
AcDbLine
 10
146.6592276074971
 20
69.75217134620516
 30
0.0
 11
157.9357656074971
 21
69.75217134620516
 31
0.0
  0
LINE
  5
1250
330
11EE
100
AcDbEntity
  8
0
 62
     0
370
    -2
100
AcDbLine
 10
145.6617276074971
 20
79.75217134620521
 30
0.0
 11
157.9357656074971
 21
79.75217134620521
 31
0.0
  0
LINE
  5
1251
330
11EE
100
AcDbEntity
  8
0
 62
     0
370
    -2
100
AcDbLine
 10
156.6857656074971
 20
72.25217134620516
 30
0.0
 11
156.6857656074971
 21
77.25217134620521
 31
0.0
  0
INSERT
  5
1252
330
11EE
100
AcDbEntity
  8
0
 62
     0
370
    -2
100
AcDbBlockReference
  2
_Open30
 10
156.6857656074971
 20
69.75217134620516
 30
0.0
 41
2.5
 42
2.5
 43
2.5
 50
270.0
  0
INSERT
  5
1253
330
11EE
100
AcDbEntity
  8
0
 62
     0
370
    -2
100
AcDbBlockReference
  2
_Open30
 10
156.6857656074971
 20
79.75217134620521
 30
0.0
 41
2.5
 42
2.5
 43
2.5
 50
90.0
  0
MTEXT
  5
1254
330
11EE
100
AcDbEntity
  8
0
 62
     4
100
AcDbMText
 10
154.560765607497
 20
74.7521713462052
 30
0.0
 40
3.0
 41
0.0
 71
     5
 72
     1
  1
10
 11
0.0000000000000001
 21
1.0
 31
0.0
 73
     1
 44
1.0
1001
ACAD
1000
MTEXTBEGIN
1070
    73
1070
     1
1070
    44
1040
1.0
1070
    74
1070
     0
1000
MTEXTEND
  0
POINT
  5
1255
330
11EE
100
AcDbEntity
  8
Defpoints
 62
     0
100
AcDbPoint
 10
146.4092276074971
 20
69.75217134620516
 30
0.0
  0
POINT
  5
1256
330
11EE
100
AcDbEntity
  8
Defpoints
 62
     0
100
AcDbPoint
 10
145.411727607497
 20
79.75217134620521
 30
0.0
  0
POINT
  5
1257
330
11EE
100
AcDbEntity
  8
Defpoints
 62
     0
100
AcDbPoint
 10
156.6857656074971
 20
79.75217134620521
 30
0.0
  0
ENDBLK
  5
11F0
330
11EE
100
AcDbEntity
  8
0
100
AcDbBlockEnd
  0
BLOCK
  5
11FB
330
11FA
100
AcDbEntity
  8
0
100
AcDbBlockBegin
  2
*D19
 70
     1
 10
0.0
 20
0.0
 30
0.0
  3
*D19
  1

  0
LINE
  5
1258
330
11FA
100
AcDbEntity
  8
0
 62
     0
370
    -2
100
AcDbLine
 10
145.0067716074972
 20
-29.71191765379479
 30
0.0
 11
155.9812686074971
 21
-29.71191765379479
 31
0.0
  0
LINE
  5
1259
330
11FA
100
AcDbEntity
  8
0
 62
     0
370
    -2
100
AcDbLine
 10
145.0067716074972
 20
-5.711917653794785
 30
0.0
 11
155.9812686074971
 21
-5.711917653794788
 31
0.0
  0
LINE
  5
125A
330
11FA
100
AcDbEntity
  8
0
 62
     0
370
    -2
100
AcDbLine
 10
154.7312686074971
 20
-27.21191765379479
 30
0.0
 11
154.7312686074971
 21
-8.211917653794786
 31
0.0
  0
INSERT
  5
125B
330
11FA
100
AcDbEntity
  8
0
 62
     0
370
    -2
100
AcDbBlockReference
  2
_Open30
 10
154.7312686074971
 20
-29.71191765379479
 30
0.0
 41
2.5
 42
2.5
 43
2.5
 50
270.0
  0
INSERT
  5
125C
330
11FA
100
AcDbEntity
  8
0
 62
     0
370
    -2
100
AcDbBlockReference
  2
_Open30
 10
154.7312686074971
 20
-5.711917653794788
 30
0.0
 41
2.5
 42
2.5
 43
2.5
 50
90.0
  0
MTEXT
  5
125D
330
11FA
100
AcDbEntity
  8
0
 62
     4
100
AcDbMText
 10
152.6062686074971
 20
-17.71191765379476
 30
0.0
 40
3.0
 41
0.0
 71
     5
 72
     1
  1
24
 11
0.0000000000000001
 21
1.0
 31
0.0
 73
     1
 44
1.0
1001
ACAD
1000
MTEXTBEGIN
1070
    73
1070
     1
1070
    44
1040
1.0
1070
    74
1070
     0
1000
MTEXTEND
  0
POINT
  5
125E
330
11FA
100
AcDbEntity
  8
Defpoints
 62
     0
100
AcDbPoint
 10
144.7567716074972
 20
-29.71191765379479
 30
0.0
  0
POINT
  5
125F
330
11FA
100
AcDbEntity
  8
Defpoints
 62
     0
100
AcDbPoint
 10
144.7567716074972
 20
-5.711917653794785
 30
0.0
  0
POINT
  5
1260
330
11FA
100
AcDbEntity
  8
Defpoints
 62
     0
100
AcDbPoint
 10
154.7312686074971
 20
-5.711917653794788
 30
0.0
  0
ENDBLK
  5
11FC
330
11FA
100
AcDbEntity
  8
0
100
AcDbBlockEnd
  0
BLOCK
  5
1207
330
1206
100
AcDbEntity
  8
0
100
AcDbBlockBegin
  2
*D20
 70
     1
 10
0.0
 20
0.0
 30
0.0
  3
*D20
  1

  0
LINE
  5
1261
330
1206
100
AcDbEntity
  8
0
 62
     0
370
    -2
100
AcDbLine
 10
-99.59135039250282
 20
-13.08445865379474
 30
0.0
 11
-99.59135039250282
 21
7.389293346205136
 31
0.0
  0
LINE
  5
1262
330
1206
100
AcDbEntity
  8
0
 62
     0
370
    -2
100
AcDbLine
 10
146.2567716074972
 20
-6.961917653794785
 30
0.0
 11
146.2567716074972
 21
7.389293346205136
 31
0.0
  0
LINE
  5
1263
330
1206
100
AcDbEntity
  8
0
 62
     0
370
    -2
100
AcDbLine
 10
-97.09135039250282
 20
6.139293346205136
 30
0.0
 11
143.7567716074972
 21
6.139293346205136
 31
0.0
  0
INSERT
  5
1264
330
1206
100
AcDbEntity
  8
0
 62
     0
370
    -2
100
AcDbBlockReference
  2
_Open30
 10
-99.59135039250282
 20
6.139293346205136
 30
0.0
 41
2.5
 42
2.5
 43
2.5
 50
180.0
  0
INSERT
  5
1265
330
1206
100
AcDbEntity
  8
0
 62
     0
370
    -2
100
AcDbBlockReference
  2
_Open30
 10
146.2567716074972
 20
6.139293346205136
 30
0.0
 41
2.5
 42
2.5
 43
2.5
  0
MTEXT
  5
1266
330
1206
100
AcDbEntity
  8
0
 62
     4
100
AcDbMText
 10
23.33271060749721
 20
8.264293346205136
 30
0.0
 40
3.0
 41
0.0
 71
     5
 72
     1
  1
L寸法
 73
     1
 44
1.0
1001
ACAD
1000
MTEXTBEGIN
1070
    73
1070
     1
1070
    44
1040
1.0
1070
    74
1070
     0
1000
MTEXTEND
  0
POINT
  5
1267
330
1206
100
AcDbEntity
  8
Defpoints
 62
     0
100
AcDbPoint
 10
-99.59135039250282
 20
-13.33445865379474
 30
0.0
  0
POINT
  5
1268
330
1206
100
AcDbEntity
  8
Defpoints
 62
     0
100
AcDbPoint
 10
146.2567716074972
 20
-7.211917653794785
 30
0.0
  0
POINT
  5
1269
330
1206
100
AcDbEntity
  8
Defpoints
 62
     0
100
AcDbPoint
 10
146.2567716074972
 20
6.139293346205136
 30
0.0
  0
ENDBLK
  5
1208
330
1206
100
AcDbEntity
  8
0
100
AcDbBlockEnd
  0
BLOCK
  5
1213
330
1212
100
AcDbEntity
  8
0
100
AcDbBlockBegin
  2
*D21
 70
     1
 10
0.0
 20
0.0
 30
0.0
  3
*D21
  1

  0
LINE
  5
126A
330
1212
100
AcDbEntity
  8
0
 62
     0
370
    -2
100
AcDbLine
 10
66.38470360749716
 20
-25.25909865379481
 30
0.0
 11
75.63756279440252
 21
-25.25909865379481
 31
0.0
  0
LINE
  5
126B
330
1212
100
AcDbEntity
  8
0
 62
     0
370
    -2
100
AcDbLine
 10
66.61703360749715
 20
-10.16956565379484
 30
0.0
 11
75.63756279440252
 21
-10.16956565379485
 31
0.0
  0
LINE
  5
126C
330
1212
100
AcDbEntity
  8
0
 62
     0
370
    -2
100
AcDbLine
 10
74.38756279440252
 20
-7.66956565379485
 30
0.0
 11
74.38756279440252
 21
-5.16956565379485
 31
0.0
  0
LINE
  5
126D
330
1212
100
AcDbEntity
  8
0
 62
     0
370
    -2
100
AcDbLine
 10
74.38756279440252
 20
-27.75909865379481
 30
0.0
 11
74.38756279440251
 21
-35.88409865379482
 31
0.0
  0
LINE
  5
126E
330
1212
100
AcDbEntity
  8
0
 62
     0
370
    -2
100
AcDbLine
 10
74.38756279440252
 20
-10.16956565379485
 30
0.0
 11
74.38756279440252
 21
-25.25909865379481
 31
0.0
  0
INSERT
  5
126F
330
1212
100
AcDbEntity
  8
0
 62
     0
370
    -2
100
AcDbBlockReference
  2
_Open30
 10
74.38756279440252
 20
-10.16956565379485
 30
0.0
 41
2.5
 42
2.5
 43
2.5
 50
270.0
  0
INSERT
  5
1270
330
1212
100
AcDbEntity
  8
0
 62
     0
370
    -2
100
AcDbBlockReference
  2
_Open30
 10
74.38756279440252
 20
-25.25909865379481
 30
0.0
 41
2.5
 42
2.5
 43
2.5
 50
90.0
  0
MTEXT
  5
1271
330
1212
100
AcDbEntity
  8
0
 62
     4
100
AcDbMText
 10
72.26256279440253
 20
-33.25909865379481
 30
0.0
 40
3.0
 41
0.0
 71
     5
 72
     1
  1
15
 11
0.0000000000000001
 21
1.0
 31
0.0
 73
     1
 44
1.0
1001
ACAD
1000
MTEXTBEGIN
1070
    73
1070
     1
1070
    44
1040
1.0
1070
    74
1070
     0
1000
MTEXTEND
  0
POINT
  5
1272
330
1212
100
AcDbEntity
  8
Defpoints
 62
     0
100
AcDbPoint
 10
66.13470360749715
 20
-25.25909865379481
 30
0.0
  0
POINT
  5
1273
330
1212
100
AcDbEntity
  8
Defpoints
 62
     0
100
AcDbPoint
 10
66.36703360749715
 20
-10.16956565379484
 30
0.0
  0
POINT
  5
1274
330
1212
100
AcDbEntity
  8
Defpoints
 62
     0
100
AcDbPoint
 10
74.38756279440252
 20
-10.16956565379485
 30
0.0
  0
ENDBLK
  5
1214
330
1212
100
AcDbEntity
  8
0
100
AcDbBlockEnd
  0
BLOCK
  5
1221
330
1220
100
AcDbEntity
  8
0
100
AcDbBlockBegin
  2
*D22
 70
     1
 10
0.0
 20
0.0
 30
0.0
  3
*D22
  1

  0
LINE
  5
1275
330
1220
100
AcDbEntity
  8
0
 62
     0
370
    -2
100
AcDbLine
 10
22.6194676074972
 20
69.00440234620521
 30
0.0
 11
30.02594760749718
 21
69.00440234620521
 31
0.0
  0
LINE
  5
1276
330
1220
100
AcDbEntity
  8
0
 62
     0
370
    -2
100
AcDbLine
 10
22.34259960749716
 20
72.00440234620521
 30
0.0
 11
30.02594760749719
 21
72.00440234620521
 31
0.0
  0
LINE
  5
1277
330
1220
100
AcDbEntity
  8
0
 62
     0
370
    -2
100
AcDbLine
 10
28.77594760749719
 20
66.50440234620521
 30
0.0
 11
28.77594760749719
 21
64.00440234620521
 31
0.0
  0
LINE
  5
1278
330
1220
100
AcDbEntity
  8
0
 62
     0
370
    -2
100
AcDbLine
 10
28.77594760749719
 20
74.50440234620521
 30
0.0
 11
28.77594760749719
 21
83.2544023462052
 31
0.0
  0
LINE
  5
1279
330
1220
100
AcDbEntity
  8
0
 62
     0
370
    -2
100
AcDbLine
 10
28.77594760749719
 20
69.00440234620521
 30
0.0
 11
28.77594760749719
 21
72.00440234620521
 31
0.0
  0
INSERT
  5
127A
330
1220
100
AcDbEntity
  8
0
 62
     0
370
    -2
100
AcDbBlockReference
  2
_Open30
 10
28.77594760749719
 20
69.00440234620521
 30
0.0
 41
2.5
 42
2.5
 43
2.5
 50
90.0
  0
INSERT
  5
127B
330
1220
100
AcDbEntity
  8
0
 62
     0
370
    -2
100
AcDbBlockReference
  2
_Open30
 10
28.77594760749719
 20
72.00440234620521
 30
0.0
 41
2.5
 42
2.5
 43
2.5
 50
270.0
  0
MTEXT
  5
127C
330
1220
100
AcDbEntity
  8
0
 62
     4
100
AcDbMText
 10
26.65094760749717
 20
80.1294023462052
 30
0.0
 40
3.0
 41
0.0
 71
     5
 72
     1
  1
2t
 11
0.0000000000000001
 21
1.0
 31
0.0
 73
     1
 44
1.0
1001
ACAD
1000
MTEXTBEGIN
1070
    73
1070
     1
1070
    44
1040
1.0
1070
    74
1070
     0
1000
MTEXTEND
  0
POINT
  5
127D
330
1220
100
AcDbEntity
  8
Defpoints
 62
     0
100
AcDbPoint
 10
22.3694676074972
 20
69.00440234620521
 30
0.0
  0
POINT
  5
127E
330
1220
100
AcDbEntity
  8
Defpoints
 62
     0
100
AcDbPoint
 10
22.09259960749716
 20
72.00440234620521
 30
0.0
  0
POINT
  5
127F
330
1220
100
AcDbEntity
  8
Defpoints
 62
     0
100
AcDbPoint
 10
28.77594760749719
 20
72.00440234620521
 30
0.0
  0
ENDBLK
  5
1222
330
1220
100
AcDbEntity
  8
0
100
AcDbBlockEnd
  0
BLOCK
  5
122F
330
122E
100
AcDbEntity
  8
0
100
AcDbBlockBegin
  2
*D23
 70
     1
 10
0.0
 20
0.0
 30
0.0
  3
*D23
  1

  0
LINE
  5
1280
330
122E
100
AcDbEntity
  8
0
 62
     0
370
    -2
100
AcDbLine
 10
-139.8214923268416
 20
51.03138176733246
 30
0.0
 11
-161.2777614581649
 21
90.58676792507757
 31
0.0
  0
INSERT
  5
1281
330
122E
100
AcDbEntity
  8
0
 62
     0
370
    -2
100
AcDbBlockReference
  2
_Open30
 10
-138.6294773925031
 20
48.83386034620501
 30
0.0
 41
2.5
 42
2.5
 43
2.5
 50
298.4770020669831
  0
INSERT
  5
1282
330
122E
100
AcDbEntity
  8
0
 62
     0
370
    -2
100
AcDbBlockReference
  2
_Open30
 10
-162.4697763925034
 20
92.78428934620501
 30
0.0
 41
2.5
 42
2.5
 43
2.5
 50
118.477002066983
  0
MTEXT
  5
1283
102
{ACAD_XDICTIONARY
360
15C4
102
}
330
122E
100
AcDbEntity
  8
0
 62
     4
100
AcDbMText
 10
-148.6817336845449
 20
71.82228754039273
 30
0.0
 40
3.0
 41
0.0
 71
     5
 72
     1
  1
\U+220550
 11
0.4768059737354
 21
-0.8790085684509776
 31
0.0
 73
     1
 44
1.0
1001
ACAD
1000
MTEXTBEGIN
1070
    73
1070
     1
1070
    44
1040
1.0
1070
    74
1070
     0
1000
MTEXTEND
  0
POINT
  5
1284
330
122E
100
AcDbEntity
  8
Defpoints
 62
     0
100
AcDbPoint
 10
-162.4697763925034
 20
92.78428934620501
 30
0.0
  0
POINT
  5
1285
330
122E
100
AcDbEntity
  8
Defpoints
 62
     0
100
AcDbPoint
 10
-138.6294773925031
 20
48.83386034620501
 30
0.0
  0
ENDBLK
  5
1230
330
122E
100
AcDbEntity
  8
0
100
AcDbBlockEnd
  0
BLOCK
  5
1238
330
1237
100
AcDbEntity
  8
0
100
AcDbBlockBegin
  2
*D24
 70
     1
 10
0.0
 20
0.0
 30
0.0
  3
*D24
  1

  0
LINE
  5
1286
330
1237
100
AcDbEntity
  8
0
 62
     0
370
    -2
100
AcDbLine
 10
-150.7996273925027
 20
33.80907434620514
 30
0.0
 11
-198.3874193925028
 21
33.80907434620514
 31
0.0
  0
LINE
  5
1287
330
1237
100
AcDbEntity
  8
0
 62
     0
370
    -2
100
AcDbLine
 10
-141.1866763925028
 20
115.5459473462051
 30
0.0
 11
-198.3874193925028
 21
115.5459473462051
 31
0.0
  0
LINE
  5
1288
330
1237
100
AcDbEntity
  8
0
 62
     0
370
    -2
100
AcDbLine
 10
-197.1374193925028
 20
36.30907434620514
 30
0.0
 11
-197.1374193925028
 21
113.0459473462051
 31
0.0
  0
INSERT
  5
1289
330
1237
100
AcDbEntity
  8
0
 62
     0
370
    -2
100
AcDbBlockReference
  2
_Open30
 10
-197.1374193925028
 20
33.80907434620514
 30
0.0
 41
2.5
 42
2.5
 43
2.5
 50
270.0
  0
INSERT
  5
128A
330
1237
100
AcDbEntity
  8
0
 62
     0
370
    -2
100
AcDbBlockReference
  2
_Open30
 10
-197.1374193925028
 20
115.5459473462051
 30
0.0
 41
2.5
 42
2.5
 43
2.5
 50
90.0
  0
MTEXT
  5
128B
330
1237
100
AcDbEntity
  8
0
 62
     4
100
AcDbMText
 10
-199.2624193925028
 20
74.67751084620513
 30
0.0
 40
3.0
 41
0.0
 71
     5
 72
     1
  1
82
 11
0.0000000000000001
 21
1.0
 31
0.0
 73
     1
 44
1.0
1001
ACAD
1000
MTEXTBEGIN
1070
    73
1070
     1
1070
    44
1040
1.0
1070
    74
1070
     0
1000
MTEXTEND
  0
POINT
  5
128C
330
1237
100
AcDbEntity
  8
Defpoints
 62
     0
100
AcDbPoint
 10
-150.5496273925027
 20
33.80907434620514
 30
0.0
  0
POINT
  5
128D
330
1237
100
AcDbEntity
  8
Defpoints
 62
     0
100
AcDbPoint
 10
-140.9366763925028
 20
115.5459473462051
 30
0.0
  0
POINT
  5
128E
330
1237
100
AcDbEntity
  8
Defpoints
 62
     0
100
AcDbPoint
 10
-197.1374193925028
 20
115.5459473462051
 30
0.0
  0
ENDBLK
  5
1239
330
1237
100
AcDbEntity
  8
0
100
AcDbBlockEnd
  0
BLOCK
  5
1244
330
1243
100
AcDbEntity
  8
0
100
AcDbBlockBegin
  2
*D25
 70
     1
 10
0.0
 20
0.0
 30
0.0
  3
*D25
  1

  0
LINE
  5
128F
330
1243
100
AcDbEntity
  8
0
 62
     0
370
    -2
100
AcDbLine
 10
-187.5546773925028
 20
-17.59937465379482
 30
0.0
 11
-187.5546773925028
 21
7.389293346205136
 31
0.0
  0
LINE
  5
1290
330
1243
100
AcDbEntity
  8
0
 62
     0
370
    -2
100
AcDbLine
 10
-99.59135039250282
 20
-13.08445865379474
 30
0.0
 11
-99.59135039250282
 21
7.389293346205136
 31
0.0
  0
LINE
  5
1291
330
1243
100
AcDbEntity
  8
0
 62
     0
370
    -2
100
AcDbLine
 10
-185.0546773925028
 20
6.139293346205136
 30
0.0
 11
-102.0913503925028
 21
6.139293346205136
 31
0.0
  0
INSERT
  5
1292
330
1243
100
AcDbEntity
  8
0
 62
     0
370
    -2
100
AcDbBlockReference
  2
_Open30
 10
-187.5546773925028
 20
6.139293346205136
 30
0.0
 41
2.5
 42
2.5
 43
2.5
 50
180.0
  0
INSERT
  5
1293
330
1243
100
AcDbEntity
  8
0
 62
     0
370
    -2
100
AcDbBlockReference
  2
_Open30
 10
-99.59135039250282
 20
6.139293346205136
 30
0.0
 41
2.5
 42
2.5
 43
2.5
  0
MTEXT
  5
1294
330
1243
100
AcDbEntity
  8
0
 62
     4
100
AcDbMText
 10
-143.5730138925028
 20
8.264293346205136
 30
0.0
 40
3.0
 41
0.0
 71
     5
 72
     1
  1
88
 73
     1
 44
1.0
1001
ACAD
1000
MTEXTBEGIN
1070
    73
1070
     1
1070
    44
1040
1.0
1070
    74
1070
     0
1000
MTEXTEND
  0
POINT
  5
1295
330
1243
100
AcDbEntity
  8
Defpoints
 62
     0
100
AcDbPoint
 10
-187.5546773925028
 20
-17.84937465379482
 30
0.0
  0
POINT
  5
1296
330
1243
100
AcDbEntity
  8
Defpoints
 62
     0
100
AcDbPoint
 10
-99.59135039250282
 20
-13.33445865379474
 30
0.0
  0
POINT
  5
1297
330
1243
100
AcDbEntity
  8
Defpoints
 62
     0
100
AcDbPoint
 10
-99.59135039250282
 20
6.139293346205136
 30
0.0
  0
ENDBLK
  5
1245
330
1243
100
AcDbEntity
  8
0
100
AcDbBlockEnd
  0
ENDSEC
  0
SECTION
  2
ENTITIES
  0
LINE
  5
4BF
330
6B
100
AcDbEntity
  8
0
 62
     3
100
AcDbLine
 10
-468.7273073923217
 20
78.99578030954025
 30
0.0
 11
-468.7273073923217
 21
77.49578030954025
 31
0.0
  0
LINE
  5
4C0
330
6B
100
AcDbEntity
  8
0
 62
     3
100
AcDbLine
 10
-468.7273073923217
 20
78.99578030954025
 30
0.0
 11
-464.2273073923217
 21
78.99578030954025
 31
0.0
  0
LINE
  5
4C1
330
6B
100
AcDbEntity
  8
0
 62
     3
100
AcDbLine
 10
-464.2273073923217
 20
78.99578030954025
 30
0.0
 11
-459.7273073923217
 21
77.49578030954025
 31
0.0
  0
LINE
  5
4C2
330
6B
100
AcDbEntity
  8
0
 62
     3
100
AcDbLine
 10
-456.7273073923217
 20
77.49578030954025
 30
0.0
 11
-459.7273073923217
 21
77.49578030954025
 31
0.0
  0
LINE
  5
4C3
330
6B
100
AcDbEntity
  8
0
 62
     3
100
AcDbLine
 10
-468.7273073923217
 20
77.49578030954025
 30
0.0
 11
-471.8390753923217
 21
77.49578030954025
 31
0.0
  0
LINE
  5
4C4
330
6B
100
AcDbEntity
  8
0
 62
     3
100
AcDbLine
 10
-456.7273073923217
 20
78.99578030954025
 30
0.0
 11
-452.2273073923217
 21
78.99578030954025
 31
0.0
  0
LINE
  5
4C5
330
6B
100
AcDbEntity
  8
0
 62
     3
100
AcDbLine
 10
-456.7273073923217
 20
78.99578030954025
 30
0.0
 11
-456.7273073923217
 21
77.49578030954025
 31
0.0
  0
LINE
  5
4C6
330
6B
100
AcDbEntity
  8
0
 62
     3
100
AcDbLine
 10
-442.4585463923216
 20
80.49578030954025
 30
0.0
 11
-474.7169693923217
 21
80.49578030954025
 31
0.0
  0
LINE
  5
4C7
330
6B
100
AcDbEntity
  8
0
 62
     3
100
AcDbLine
 10
-474.7963313923216
 20
78.51878830954023
 30
0.0
 11
-471.7273073923216
 21
77.49578030954025
 31
0.0
  0
LINE
  5
4C8
330
6B
100
AcDbEntity
  8
0
 62
     3
100
AcDbLine
 10
-452.2273073923217
 20
78.99578030954025
 30
0.0
 11
-447.7273073923217
 21
77.49578030954025
 31
0.0
  0
LINE
  5
4C9
330
6B
100
AcDbEntity
  8
0
 62
     3
100
AcDbLine
 10
-447.7273073923217
 20
77.49578030954025
 30
0.0
 11
-443.5142313923217
 21
77.49578030954025
 31
0.0
  0
LINE
  5
4CA
330
6B
100
AcDbEntity
  8
0
 62
     3
100
AcDbLine
 10
-342.2094363923218
 20
79.76793930954025
 30
0.0
 11
-360.1440963923217
 21
79.76793930954025
 31
0.0
  0
ARC
  5
4CB
330
6B
100
AcDbEntity
  8
0
 62
     3
100
AcDbCircle
 10
-318.2307583923217
 20
87.49354930954025
 30
0.0
 40
0.75
100
AcDbArc
 50
0.0
 51
90.0
  0
LINE
  5
4CC
330
6B
100
AcDbEntity
  8
0
 62
     3
100
AcDbLine
 10
-326.5155673923218
 20
88.24354930954022
 30
0.0
 11
-318.2307583923217
 21
88.24354930954022
 31
0.0
  0
ARC
  5
4CD
330
6B
100
AcDbEntity
  8
0
 62
     3
100
AcDbCircle
 10
-326.5155673923218
 20
87.49354930954025
 30
0.0
 40
0.75
100
AcDbArc
 50
90.0
 51
178.363303
  0
LINE
  5
4CE
330
6B
100
AcDbEntity
  8
0
  6
HIDDEN
 62
    15
100
AcDbLine
 10
-327.2652613923217
 20
86.51497030954027
 30
0.0
 11
-327.2651423923218
 21
86.51914030954023
 31
0.0
  0
LINE
  5
4CF
330
6B
100
AcDbEntity
  8
0
 62
     3
100
AcDbLine
 10
-341.8737863923217
 20
80.11854930954022
 30
0.0
 11
-341.8737863923217
 21
80.18460130954023
 31
0.0
  0
ARC
  5
4D0
330
6B
100
AcDbEntity
  8
0
 62
     3
100
AcDbCircle
 10
-341.1237863923217
 20
80.18460130954023
 30
0.0
 40
0.75
100
AcDbArc
 50
95.27473400000014
 51
180.0
  0
ARC
  5
4D1
330
6B
100
AcDbEntity
  8
0
 62
     3
100
AcDbCircle
 10
-342.2487863923217
 20
80.11854930954022
 30
0.0
 40
0.375
100
AcDbArc
 50
270.0
 51
0.0
  0
LINE
  5
4D2
330
6B
100
AcDbEntity
  8
0
 62
     3
100
AcDbLine
 10
-543.2076523923217
 20
79.76939230954025
 30
0.0
 11
-543.2076523923217
 21
78.26939230954025
 31
0.0
  0
LINE
  5
4D3
330
6B
100
AcDbEntity
  8
0
 62
     3
100
AcDbLine
 10
-539.7224523923218
 20
81.42791430954025
 30
0.0
 11
-553.7261303923217
 21
81.42791430954025
 31
0.0
  0
ARC
  5
4D4
330
6B
100
AcDbEntity
  8
0
 62
     3
100
AcDbCircle
 10
-539.7224523923218
 20
78.92791430954023
 30
0.0
 40
2.5
100
AcDbArc
 50
17.45760299999988
 51
90.0
  0
CIRCLE
  5
4D5
330
6B
100
AcDbEntity
  8
0
100
AcDbCircle
 10
-458.2306493923216
 20
77.44354830954025
 30
0.0
 40
16.957712
  0
LINE
  5
4D6
330
6B
100
AcDbEntity
  8
0
 62
     3
100
AcDbLine
 10
-537.3376043923217
 20
78.17791430954023
 30
0.0
 11
-553.7261303923217
 21
76.48014730954026
 31
0.0
  0
LINE
  5
4D7
330
6B
100
AcDbEntity
  8
0
 62
     3
100
AcDbLine
 10
-317.2332583923218
 20
78.24354930954022
 30
0.0
 11
-317.4807583923217
 21
87.49354930954025
 31
0.0
  0
LINE
  5
4D8
330
6B
100
AcDbEntity
  8
0
 62
     3
100
AcDbLine
 10
-332.9779253923217
 20
84.03543830954024
 30
0.0
 11
-327.2752663923218
 21
87.01699530954025
 31
0.0
  0
LINE
  5
4D9
330
6B
100
AcDbEntity
  8
0
 62
     3
100
AcDbLine
 10
-554.2303343923216
 20
81.97673630954026
 30
0.0
 11
-553.7106763923217
 21
81.41109330954025
 31
0.0
  0
LINE
  5
4DA
330
6B
100
AcDbEntity
  8
0
 62
     3
100
AcDbLine
 10
-554.2303343923216
 20
75.97673630954023
 30
0.0
 11
-553.7106763923217
 21
76.48377930954025
 31
0.0
  0
LINE
  5
4DB
330
6B
100
AcDbEntity
  8
0
 62
     3
100
AcDbLine
 10
-553.7261303923217
 20
81.42791430954025
 30
0.0
 11
-553.7261303923217
 21
76.48150730954025
 31
0.0
  0
LINE
  5
4DC
330
6B
100
AcDbEntity
  8
0
 62
     3
100
AcDbLine
 10
-332.9779253923217
 20
85.01577930954026
 30
0.0
 11
-336.9609523923218
 21
85.01577930954026
 31
0.0
  0
LINE
  5
4DD
330
6B
100
AcDbEntity
  8
0
 62
     3
100
AcDbLine
 10
-336.9609523923218
 20
82.24594630954026
 30
0.0
 11
-336.9609523923218
 21
85.01577930954026
 31
0.0
  0
LINE
  5
4DE
330
6B
100
AcDbEntity
  8
0
 62
     3
100
AcDbLine
 10
-332.9779253923217
 20
85.01577930954026
 30
0.0
 11
-332.9779253923217
 21
83.48319630954025
 31
0.0
  0
LINE
  5
4DF
330
6B
100
AcDbEntity
  8
0
 62
     3
100
AcDbLine
 10
-342.1157533923217
 20
79.76793930954025
 30
0.0
 11
-342.1157533923217
 21
78.24354930954022
 31
0.0
  0
LINE
  5
4E0
330
6B
100
AcDbEntity
  8
0
 62
     3
100
AcDbLine
 10
-327.3108963923217
 20
85.24354930954023
 30
0.0
 11
-341.1927353923218
 21
80.93142530954024
 31
0.0
  0
LINE
  5
4E1
330
6B
100
AcDbEntity
  8
0
 62
     3
100
AcDbLine
 10
-327.2652613923217
 20
87.51497030954025
 30
0.0
 11
-327.2868783923217
 21
85.25101030954024
 31
0.0
  0
LINE
  5
4E2
330
6B
100
AcDbEntity
  8
0
 62
     3
100
AcDbLine
 10
-572.4688243923217
 20
83.94235830954025
 30
0.0
 11
-568.6857783923215
 21
83.94235830954025
 31
0.0
  0
LINE
  5
4E3
330
6B
100
AcDbEntity
  8
0
 62
     3
100
AcDbLine
 10
-569.5587493923218
 20
73.94235830954025
 30
0.0
 11
-568.6857783923215
 21
73.94235830954025
 31
0.0
  0
ARC
  5
4E4
330
6B
100
AcDbEntity
  8
0
 62
     3
100
AcDbCircle
 10
-569.6031143923217
 20
68.94205030954025
 30
0.0
 40
5.0
100
AcDbArc
 50
90.0
 51
136.0903720000011
  0
LINE
  5
4E5
330
6B
100
AcDbEntity
  8
0
 62
     3
100
AcDbLine
 10
-576.0096943923217
 20
72.38026130954025
 30
0.0
 11
-584.3805823923218
 21
63.68454630954025
 31
0.0
  0
LINE
  5
4E6
330
6B
100
AcDbEntity
  8
0
 62
     3
100
AcDbLine
 10
-567.1856963923215
 20
84.47673630954026
 30
0.0
 11
-567.1856963923215
 21
73.47673630954023
 31
0.0
  0
ARC
  5
4E7
330
6B
100
AcDbEntity
  8
0
 62
     3
100
AcDbCircle
 10
-565.1856963923218
 20
73.47673630954023
 30
0.0
 40
2.0
100
AcDbArc
 50
180.0
 51
270.0
  0
ARC
  5
4E8
330
6B
100
AcDbEntity
  8
0
 62
     3
100
AcDbCircle
 10
-565.1856963923218
 20
84.47673630954026
 30
0.0
 40
2.0
100
AcDbArc
 50
90.0
 51
180.0
  0
LINE
  5
4E9
330
6B
100
AcDbEntity
  8
0
 62
     3
100
AcDbLine
 10
-567.1474093923218
 20
84.77855330954023
 30
0.0
 11
-568.6474093923218
 21
84.24629530954026
 31
0.0
  0
LINE
  5
4EA
330
6B
100
AcDbEntity
  8
0
 62
     3
100
AcDbLine
 10
-568.6856963923218
 20
73.72076430954023
 30
0.0
 11
-568.6856963923218
 21
84.23270930954025
 31
0.0
  0
LINE
  5
4EB
330
6B
100
AcDbEntity
  8
0
 62
     3
100
AcDbLine
 10
-556.1856963923217
 20
71.47673630954023
 30
0.0
 11
-565.1856963923218
 21
71.47673630954023
 31
0.0
  0
LINE
  5
4EC
330
6B
100
AcDbEntity
  8
0
 62
     3
100
AcDbLine
 10
-556.1856963923217
 20
86.47673630954022
 30
0.0
 11
-565.1856963923218
 21
86.47673630954022
 31
0.0
  0
LINE
  5
4ED
330
6B
100
AcDbEntity
  8
0
 62
     3
100
AcDbLine
 10
-563.3856963923217
 20
73.77673630954024
 30
0.0
 11
-563.3856963923217
 21
84.17673630954025
 31
0.0
  0
LINE
  5
4EE
330
6B
100
AcDbEntity
  8
0
 62
     3
100
AcDbLine
 10
-559.1856963923215
 20
73.77673630954024
 30
0.0
 11
-563.3856963923217
 21
73.77673630954024
 31
0.0
  0
ARC
  5
4EF
330
6B
100
AcDbEntity
  8
0
 62
     3
100
AcDbCircle
 10
-556.1856963923217
 20
73.47673630954023
 30
0.0
 40
2.0
100
AcDbArc
 50
270.0
 51
0.0
  0
LINE
  5
4F0
330
6B
100
AcDbEntity
  8
0
 62
     3
100
AcDbLine
 10
-554.1856963923216
 20
73.47673630954023
 30
0.0
 11
-554.1856963923216
 21
75.87673630954025
 31
0.0
  0
LINE
  5
4F1
330
6B
100
AcDbEntity
  8
0
 62
     3
100
AcDbLine
 10
-554.1856963923216
 20
84.47673630954026
 30
0.0
 11
-554.1856963923216
 21
82.07673630954024
 31
0.0
  0
ARC
  5
4F2
330
6B
100
AcDbEntity
  8
0
 62
     3
100
AcDbCircle
 10
-556.1856963923217
 20
84.47673630954026
 30
0.0
 40
2.0
100
AcDbArc
 50
0.0
 51
90.0
  0
LINE
  5
4F3
330
6B
100
AcDbEntity
  8
0
 62
     3
100
AcDbLine
 10
-559.1856963923215
 20
84.17673630954025
 30
0.0
 11
-563.3856963923217
 21
84.17673630954025
 31
0.0
  0
LINE
  5
4F4
330
6B
100
AcDbEntity
  8
0
 62
     3
100
AcDbLine
 10
-554.1856963923216
 20
75.87673630954025
 30
0.0
 11
-559.1856963923215
 21
75.87673630954025
 31
0.0
  0
LINE
  5
4F5
330
6B
100
AcDbEntity
  8
0
 62
     3
100
AcDbLine
 10
-554.1856963923216
 20
82.07673630954024
 30
0.0
 11
-559.1856963923215
 21
82.07673630954024
 31
0.0
  0
ARC
  5
4F6
330
6B
100
AcDbEntity
  8
0
 62
     3
100
AcDbCircle
 10
-600.2301433923218
 20
78.94205030954025
 30
0.0
 40
22.0
100
AcDbArc
 50
101.7204239999995
 51
316.090372000001
  0
ARC
  5
4F7
330
6B
100
AcDbEntity
  8
0
 62
     3
100
AcDbCircle
 10
-600.6155693923217
 20
78.97673630954023
 30
0.0
 40
21.890875
100
AcDbArc
 50
82.24429899999973
 51
100.7510630000001
  0
LINE
  5
4F8
330
6B
100
AcDbEntity
  8
0
 62
     3
100
AcDbLine
 10
-567.1474093923218
 20
73.17492030954025
 30
0.0
 11
-568.6474093923218
 21
73.70717830954025
 31
0.0
  0
LINE
  5
4F9
330
6B
100
AcDbEntity
  8
0
 62
     3
100
AcDbLine
 10
-569.1335353923217
 20
78.37450030954025
 30
0.0
 11
-571.0946693923217
 21
76.47236930954026
 31
0.0
  0
LINE
  5
4FA
330
6B
100
AcDbEntity
  8
0
 62
     3
100
AcDbLine
 10
-571.2222133923217
 20
80.52796830954026
 30
0.0
 11
-573.1833483923217
 21
78.62583630954024
 31
0.0
  0
ARC
  5
4FB
330
6B
100
AcDbEntity
  8
0
 62
     3
100
AcDbCircle
 10
-572.1390083923218
 20
77.54910330954023
 30
0.0
 40
1.5
100
AcDbArc
 50
134.1250050000002
 51
314.1250050000002
  0
ARC
  5
4FC
330
6B
100
AcDbEntity
  8
0
 62
     3
100
AcDbCircle
 10
-570.1778743923218
 20
79.45123430954025
 30
0.0
 40
1.5
100
AcDbArc
 50
314.1250050000002
 51
134.1250050000002
  0
ARC
  5
4FD
330
6B
100
AcDbEntity
  8
0
 62
     3
100
AcDbCircle
 10
-577.4505633923218
 20
73.76730730954026
 30
0.0
 40
2.0
100
AcDbArc
 50
316.090372000001
 51
136.0903780000009
  0
LINE
  5
4FE
330
6B
100
AcDbEntity
  8
0
 62
     3
100
AcDbLine
 10
-590.4160203923217
 20
101.5923403095402
 30
0.0
 11
-592.4892423923218
 21
99.76686730954023
 31
0.0
  0
LINE
  5
4FF
330
6B
100
AcDbEntity
  8
0
 62
     3
100
AcDbLine
 10
-592.3985383923215
 20
103.8439223095402
 30
0.0
 11
-594.4717603923217
 21
102.0184493095402
 31
0.0
  0
ARC
  5
500
330
6B
100
AcDbEntity
  8
0
 62
     3
100
AcDbCircle
 10
-591.4072793923216
 20
102.7181313095402
 30
0.0
 40
1.5
100
AcDbArc
 50
311.3639260000009
 51
131.363922999999
  0
ARC
  5
501
330
6B
100
AcDbEntity
  8
0
 62
     3
100
AcDbCircle
 10
-593.4805013923218
 20
100.8926583095402
 30
0.0
 40
1.5
100
AcDbArc
 50
131.3639260000008
 51
311.3639260000009
  0
LINE
  5
502
330
6B
100
AcDbEntity
  8
0
 62
     3
100
AcDbLine
 10
-588.8547273923218
 20
104.4945253095402
 30
0.0
 11
-591.4790873923217
 21
108.2994573095402
 31
0.0
  0
ARC
  5
503
330
6B
100
AcDbEntity
  8
0
 62
     3
100
AcDbCircle
 10
-592.1070603923217
 20
107.8663283095402
 30
0.0
 40
0.7628580000000002
100
AcDbArc
 50
34.59502199999948
 51
201.9794969999995
  0
LINE
  5
504
330
6B
100
AcDbEntity
  8
0
 62
     3
100
AcDbLine
 10
-595.7973453923217
 20
94.85548730954024
 30
0.0
 11
-589.3417663923218
 21
100.5396263095402
 31
0.0
  0
LINE
  5
505
330
6B
100
AcDbEntity
  8
0
 62
     3
100
AcDbLine
 10
-592.4535573923217
 20
105.7940733095402
 30
0.0
 11
-596.0190833923218
 21
102.6546273095402
 31
0.0
  0
LINE
  5
506
330
6B
100
AcDbEntity
  8
0
  6
HIDDEN
 62
    15
100
AcDbLine
 10
-594.7890513923217
 20
95.74329130954025
 30
0.0
 11
-595.1354823923217
 21
95.43825830954023
 31
0.0
  0
ARC
  5
507
330
6B
100
AcDbEntity
  8
0
 62
     3
100
AcDbCircle
 10
-596.3495023923218
 20
103.0298903095402
 30
0.0
 40
0.5
100
AcDbArc
 50
259.9426090000011
 51
311.3639260000009
  0
ARC
  5
508
330
6B
100
AcDbEntity
  8
0
 62
     3
100
AcDbCircle
 10
-591.3242843923216
 20
102.7912083095402
 30
0.0
 40
3.0
100
AcDbArc
 50
311.3639260000009
 51
34.59502199999948
  0
LINE
  5
509
330
6B
100
AcDbEntity
  8
0
 62
     3
100
AcDbLine
 10
-576.0709973923218
 20
82.40997330954025
 30
0.0
 11
-589.4236243923216
 21
68.53920630954025
 31
0.0
  0
ARC
  5
50A
330
6B
100
AcDbEntity
  8
0
 62
     3
100
AcDbCircle
 10
-600.2301433923218
 20
78.94205030954025
 30
0.0
 40
15.0
100
AcDbArc
 50
84.5958139999991
 51
316.090372000001
  0
ARC
  5
50B
330
6B
100
AcDbEntity
  8
0
 62
     3
100
AcDbCircle
 10
-598.4407033923218
 20
97.85759630954023
 30
0.0
 40
4.0
100
AcDbArc
 50
264.5958139999991
 51
311.3639260000009
  0
ARC
  5
50C
330
6B
100
AcDbEntity
  8
0
 62
     3
100
AcDbCircle
 10
-572.4688243923217
 20
78.94235830954025
 30
0.0
 40
5.0
100
AcDbArc
 50
90.0
 51
136.0903720000011
  0
LINE
  5
50D
330
6B
100
AcDbEntity
  8
0
  6
HIDDEN
 62
    15
100
AcDbLine
 10
-576.0709973923218
 20
82.40997330954025
 30
0.0
 11
-575.4036783923218
 21
83.10318730954023
 31
0.0
  0
LINE
  5
50E
330
6B
100
AcDbEntity
  8
0
 62
     3
100
AcDbLine
 10
-578.8914323923218
 20
75.15435230954023
 30
0.0
 11
-580.9886983923218
 21
77.30144430954026
 31
0.0
  0
LINE
  5
50F
330
6B
100
AcDbEntity
  8
0
 62
     3
100
AcDbLine
 10
-583.0768763923217
 20
70.80649530954025
 30
0.0
 11
-585.0863353923217
 21
73.04480130954025
 31
0.0
  0
LINE
  5
510
330
6B
100
AcDbEntity
  8
0
 62
     3
100
AcDbLine
 10
-600.6155693923217
 20
93.93709730954023
 30
0.0
 11
-600.6155693923217
 21
96.93792330954025
 31
0.0
  0
LINE
  5
511
330
6B
100
AcDbEntity
  8
0
 62
     3
100
AcDbLine
 10
-592.4535573923217
 20
105.7940733095402
 30
0.0
 11
-591.9587753923217
 21
106.1899893095402
 31
0.0
  0
LINE
  5
512
330
6B
100
AcDbEntity
  8
0
 62
     3
100
AcDbLine
 10
-592.8144723923217
 20
107.5808093095402
 30
0.0
 11
-591.9587753923217
 21
106.1899893095402
 31
0.0
  0
ARC
  5
513
330
6B
100
AcDbEntity
  8
0
 62
     3
100
AcDbCircle
 10
-600.2301433923218
 20
78.94205030954025
 30
0.0
 40
25.0
100
AcDbArc
 50
95.95313600000149
 51
316.090372000001
  0
LINE
  5
514
330
6B
100
AcDbEntity
  8
0
 62
     3
100
AcDbLine
 10
-573.2052873923217
 20
72.40966430954023
 30
0.0
 11
-582.2192793923218
 21
61.60397730954024
 31
0.0
  0
LINE
  5
515
330
6B
100
AcDbEntity
  8
0
 62
     3
100
AcDbLine
 10
-596.4368203923218
 20
102.5375743095402
 30
0.0
 11
-602.8230173923217
 21
103.8072263095402
 31
0.0
  0
ARC
  5
516
330
6B
100
AcDbEntity
  8
0
 62
     3
100
AcDbCircle
 10
-600.2301433923218
 20
78.94205030954025
 30
0.0
 40
18.5
100
AcDbArc
 50
83.35525899999987
 51
316.090372000001
  0
LINE
  5
517
330
6B
100
AcDbEntity
  8
0
 62
     3
100
AcDbLine
 10
-578.8914323923218
 20
75.15435230954023
 30
0.0
 11
-586.9021033923218
 21
66.11187630954025
 31
0.0
  0
ARC
  5
518
330
6B
100
AcDbEntity
  8
0
 62
     3
100
AcDbCircle
 10
-597.8596473923216
 20
98.99072030954023
 30
0.0
 40
1.688324
100
AcDbArc
 50
263.256823000001
 51
83.25682300000094
  0
LINE
  5
519
330
6B
100
AcDbEntity
  8
0
 62
     3
100
AcDbLine
 10
-580.1971963923217
 20
68.03026530954025
 30
0.0
 11
-578.1960983923218
 21
66.11962430954024
 31
0.0
  0
LINE
  5
51A
330
6B
100
AcDbEntity
  8
0
 62
     3
100
AcDbLine
 10
-576.0964043923218
 20
72.29018630954023
 30
0.0
 11
-574.5737573923218
 21
70.72987630954023
 31
0.0
  0
LINE
  5
51B
330
6B
100
AcDbEntity
  8
0
 62
     3
100
AcDbLine
 10
-604.5293783923217
 20
96.93556430954025
 30
0.0
 11
-603.6456693923217
 21
93.54801330954023
 31
0.0
  0
LINE
  5
51C
330
6B
100
AcDbEntity
  8
0
 62
     3
100
AcDbLine
 10
-605.5092263923218
 20
100.2992803095402
 30
0.0
 11
-606.3488763923218
 21
103.1817093095402
 31
0.0
  0
LINE
  5
51D
330
6B
100
AcDbEntity
  8
0
 62
     3
100
AcDbLine
 10
-559.1856963923215
 20
73.77673630954024
 30
0.0
 11
-559.1856963923215
 21
84.17673630954025
 31
0.0
  0
LINE
  5
51E
330
6B
100
AcDbEntity
  8
0
 62
     3
100
AcDbLine
 10
-554.1856963923216
 20
78.97673630954023
 30
0.0
 11
-559.1856963923215
 21
78.97673630954023
 31
0.0
  0
LINE
  5
535
330
6B
100
AcDbEntity
  8
0
  6
DASHED
100
AcDbLine
 10
-498.6456363923217
 20
5.527045309540248
 30
0.0
 11
-498.6456363923217
 21
16.02704530954025
 31
0.0
  0
LINE
  5
536
330
6B
100
AcDbEntity
  8
0
  6
DASHED
100
AcDbLine
 10
-451.3956363923218
 20
16.02704530954025
 30
0.0
 11
-451.3956363923218
 21
5.527045309540248
 31
0.0
  0
LINE
  5
537
330
6B
100
AcDbEntity
  8
0
  6
DASHED
100
AcDbLine
 10
-446.8956363923218
 20
16.02704530954025
 30
0.0
 11
-446.8956363923218
 21
5.527045309540248
 31
0.0
  0
LINE
  5
538
330
6B
100
AcDbEntity
  8
0
  6
DASHED
100
AcDbLine
 10
-449.1456363923218
 20
16.02704530954025
 30
0.0
 11
-449.1456363923218
 21
5.527045309540248
 31
0.0
  0
LINE
  5
539
330
6B
100
AcDbEntity
  8
0
 62
     3
100
AcDbLine
 10
-484.8425463923216
 20
18.32181130954025
 30
0.0
 11
-505.6230773923217
 21
18.32181130954025
 31
0.0
  0
LINE
  5
53A
330
6B
100
AcDbEntity
  8
0
 62
     3
100
AcDbLine
 10
-342.3964973923217
 20
3.232279309540248
 30
0.0
 11
-341.6957613923218
 21
3.232279309540248
 31
0.0
  0
LINE
  5
53B
330
6B
100
AcDbEntity
  8
0
 62
     3
100
AcDbLine
 10
-342.3964973923217
 20
18.32181130954025
 30
0.0
 11
-341.6957613923218
 21
18.32181130954025
 31
0.0
  0
LINE
  5
53C
330
6B
100
AcDbEntity
  8
0
  6
DASHED
100
AcDbLine
 10
-452.8956363923216
 20
10.81789130954025
 30
0.0
 11
-452.8956363923216
 21
5.527045309540248
 31
0.0
  0
LINE
  5
53D
330
6B
100
AcDbEntity
  8
0
  6
DASHED
100
AcDbLine
 10
-451.3956363923218
 20
5.527045309540248
 30
0.0
 11
-446.8956363923218
 21
5.527045309540248
 31
0.0
  0
LINE
  5
53E
330
6B
100
AcDbEntity
  8
0
  6
DASHED
100
AcDbLine
 10
-451.3956363923218
 20
16.02704530954025
 30
0.0
 11
-446.8956363923218
 21
16.02704530954025
 31
0.0
  0
LINE
  5
53F
330
6B
100
AcDbEntity
  8
0
  6
DASHED
100
AcDbLine
 10
-456.6456363923217
 20
16.02704530954025
 30
0.0
 11
-456.6456363923217
 21
5.527045309540248
 31
0.0
  0
LINE
  5
540
330
6B
100
AcDbEntity
  8
0
  6
DASHED
100
AcDbLine
 10
-454.3956363923217
 20
16.02704530954025
 30
0.0
 11
-454.3956363923217
 21
11.46248530954025
 31
0.0
  0
LINE
  5
541
330
6B
100
AcDbEntity
  8
0
 62
     3
100
AcDbLine
 10
-321.8857143923218
 20
6.279460309540248
 30
0.0
 11
-321.8857143923218
 21
15.27946030954025
 31
0.0
  0
ARC
  5
542
330
6B
100
AcDbEntity
  8
0
 62
     3
100
AcDbCircle
 10
-318.8857143923217
 20
21.27946030954025
 30
0.0
 40
1.5
100
AcDbArc
 50
0.0
 51
90.0
  0
ARC
  5
543
330
6B
100
AcDbEntity
  8
0
 62
     3
100
AcDbCircle
 10
-318.8857143923217
 20
0.2794603095402495
 30
0.0
 40
1.5
100
AcDbArc
 50
270.0
 51
0.0
  0
LINE
  5
544
330
6B
100
AcDbEntity
  8
0
 62
     3
100
AcDbLine
 10
-321.1357143923217
 20
3.279460309540248
 30
0.0
 11
-321.1357143923217
 21
3.654460309540248
 31
0.0
  0
LINE
  5
545
330
6B
100
AcDbEntity
  8
0
 62
     3
100
AcDbLine
 10
-321.1357143923217
 20
18.27946030954025
 30
0.0
 11
-321.1357143923217
 21
17.90446030954025
 31
0.0
  0
ARC
  5
546
330
6B
100
AcDbEntity
  8
0
 62
     3
100
AcDbCircle
 10
-321.5107143923217
 20
18.27946030954025
 30
0.0
 40
0.375
100
AcDbArc
 50
0.0
 51
90.0
  0
ARC
  5
547
330
6B
100
AcDbEntity
  8
0
 62
     3
100
AcDbCircle
 10
-321.5107143923217
 20
3.279460309540248
 30
0.0
 40
0.375
100
AcDbArc
 50
270.0
 51
0.0
  0
LINE
  5
548
330
6B
100
AcDbEntity
  8
0
 62
     3
100
AcDbLine
 10
-323.0107143923218
 20
18.65446030954025
 30
0.0
 11
-321.5107143923217
 21
18.65446030954025
 31
0.0
  0
LINE
  5
549
330
6B
100
AcDbEntity
  8
0
 62
     3
100
AcDbLine
 10
-323.0107143923218
 20
2.904460309540248
 30
0.0
 11
-321.5107143923217
 21
2.904460309540248
 31
0.0
  0
LINE
  5
54A
330
6B
100
AcDbEntity
  8
0
 62
     3
100
AcDbLine
 10
-323.3857143923217
 20
3.279460309540248
 30
0.0
 11
-323.3857143923217
 21
4.779460309540248
 31
0.0
  0
LINE
  5
54B
330
6B
100
AcDbEntity
  8
0
 62
     3
100
AcDbLine
 10
-323.3857143923217
 20
18.27946030954025
 30
0.0
 11
-323.3857143923217
 21
16.77946030954025
 31
0.0
  0
ARC
  5
54C
330
6B
100
AcDbEntity
  8
0
 62
     3
100
AcDbCircle
 10
-323.0107143923218
 20
18.27946030954025
 30
0.0
 40
0.375
100
AcDbArc
 50
90.0
 51
180.0
  0
ARC
  5
54D
330
6B
100
AcDbEntity
  8
0
 62
     3
100
AcDbCircle
 10
-323.0107143923218
 20
3.279460309540248
 30
0.0
 40
0.375
100
AcDbArc
 50
180.0
 51
270.0
  0
LINE
  5
54E
330
6B
100
AcDbEntity
  8
0
 62
     3
100
AcDbLine
 10
-318.1357143923218
 20
8.529460309540249
 30
0.0
 11
-321.1357143923217
 21
8.529460309540249
 31
0.0
  0
LINE
  5
54F
330
6B
100
AcDbEntity
  8
0
 62
     3
100
AcDbLine
 10
-318.1357143923218
 20
13.02946030954025
 30
0.0
 11
-321.1357143923217
 21
13.02946030954025
 31
0.0
  0
LINE
  5
550
330
6B
100
AcDbEntity
  8
0
 62
     3
100
AcDbLine
 10
-321.1357143923217
 20
17.90446030954025
 30
0.0
 11
-321.1357143923217
 21
13.02946030954025
 31
0.0
  0
LINE
  5
551
330
6B
100
AcDbEntity
  8
0
 62
     3
100
AcDbLine
 10
-321.1357143923217
 20
8.529460309540249
 30
0.0
 11
-321.1357143923217
 21
3.654460309540248
 31
0.0
  0
LINE
  5
552
330
6B
100
AcDbEntity
  8
0
 62
     3
100
AcDbLine
 10
-335.5698723923217
 20
6.279460309540248
 30
0.0
 11
-336.1381633923218
 21
6.279460309540248
 31
0.0
  0
LINE
  5
553
330
6B
100
AcDbEntity
  8
0
 62
     3
100
AcDbLine
 10
-335.5698723923217
 20
15.27946030954025
 30
0.0
 11
-336.1381633923218
 21
15.27946030954025
 31
0.0
  0
LINE
  5
554
330
6B
100
AcDbEntity
  8
0
 62
     3
100
AcDbLine
 10
-324.1381633923217
 20
6.654460309540248
 30
0.0
 11
-324.1381633923217
 21
9.279460309540247
 31
0.0
  0
LINE
  5
555
330
6B
100
AcDbEntity
  8
0
 62
     3
100
AcDbLine
 10
-336.8881633923217
 20
7.029460309540248
 30
0.0
 11
-336.8881633923217
 21
14.52946030954025
 31
0.0
  0
LINE
  5
556
330
6B
100
AcDbEntity
  8
0
 62
     3
100
AcDbLine
 10
-329.8068563923217
 20
9.654460309540247
 30
0.0
 11
-332.4271553923218
 21
9.654460309540247
 31
0.0
  0
LINE
  5
557
330
6B
100
AcDbEntity
  8
0
 62
     3
100
AcDbLine
 10
-326.7851203923218
 20
11.90446030954025
 30
0.0
 11
-324.5131633923218
 21
11.90446030954025
 31
0.0
  0
LINE
  5
558
330
6B
100
AcDbEntity
  8
0
 62
     3
100
AcDbLine
 10
-325.3806413923218
 20
14.90446030954025
 30
0.0
 11
-325.3806413923218
 21
11.90446030954025
 31
0.0
  0
LINE
  5
559
330
6B
100
AcDbEntity
  8
0
 62
     3
100
AcDbLine
 10
-325.3806413923218
 20
6.654460309540248
 30
0.0
 11
-325.3806413923218
 21
9.654460309540247
 31
0.0
  0
LINE
  5
55A
330
6B
100
AcDbEntity
  8
0
 62
     3
100
AcDbLine
 10
-338.0131633923217
 20
16.02946030954025
 30
0.0
 11
-338.0131633923217
 21
5.529460309540248
 31
0.0
  0
ARC
  5
55B
330
6B
100
AcDbEntity
  8
0
 62
     3
100
AcDbCircle
 10
-337.2631633923218
 20
5.529460309540248
 30
0.0
 40
0.75
100
AcDbArc
 50
180.0
 51
270.0
  0
ARC
  5
55C
330
6B
100
AcDbEntity
  8
0
 62
     3
100
AcDbCircle
 10
-337.2631633923218
 20
16.02946030954025
 30
0.0
 40
0.75
100
AcDbArc
 50
90.0
 51
180.0
  0
ARC
  5
55D
330
6B
100
AcDbEntity
  8
0
 62
     3
100
AcDbCircle
 10
-336.1381633923218
 20
14.52946030954025
 30
0.0
 40
0.75
100
AcDbArc
 50
90.0
 51
180.0
  0
ARC
  5
55E
330
6B
100
AcDbEntity
  8
0
 62
     3
100
AcDbCircle
 10
-336.1381633923218
 20
7.029460309540248
 30
0.0
 40
0.75
100
AcDbArc
 50
180.0
 51
270.0
  0
ARC
  5
55F
330
6B
100
AcDbEntity
  8
0
 62
     3
100
AcDbCircle
 10
-318.1357143923218
 20
7.779460309540248
 30
0.0
 40
0.75
100
AcDbArc
 50
0.0
 51
90.0
  0
ARC
  5
560
330
6B
100
AcDbEntity
  8
0
 62
     3
100
AcDbCircle
 10
-318.1357143923218
 20
13.77946030954025
 30
0.0
 40
0.75
100
AcDbArc
 50
270.0
 51
0.0
  0
LINE
  5
561
330
6B
100
AcDbEntity
  8
0
 62
     3
100
AcDbLine
 10
-325.7351203923217
 20
-1.22053969045975
 30
0.0
 11
-318.8857143923217
 21
-1.22053969045975
 31
0.0
  0
LINE
  5
562
330
6B
100
AcDbEntity
  8
0
 62
     3
100
AcDbLine
 10
-325.6601203923218
 20
22.77946030954025
 30
0.0
 11
-318.8857143923217
 21
22.77946030954025
 31
0.0
  0
LINE
  5
563
330
6B
100
AcDbEntity
  8
0
 62
     3
100
AcDbLine
 10
-327.1601203923217
 20
1.059694309540248
 30
0.0
 11
-327.1601203923217
 21
1.029460309540249
 31
0.0
  0
ARC
  5
564
330
6B
100
AcDbEntity
  8
0
 62
     3
100
AcDbCircle
 10
-325.6601203923218
 20
0.2794603095402495
 30
0.0
 40
1.5
100
AcDbArc
 50
180.0
 51
270.0
  0
LINE
  5
565
330
6B
100
AcDbEntity
  8
0
  6
HIDDEN
 62
    15
100
AcDbLine
 10
-327.1601203923217
 20
1.029460309540249
 30
0.0
 11
-327.1601203923217
 21
0.984694309540249
 31
0.0
  0
LINE
  5
566
330
6B
100
AcDbEntity
  8
0
 62
     3
100
AcDbLine
 10
-329.4318563923217
 20
15.27946030954025
 30
0.0
 11
-329.4318563923217
 21
16.77946030954025
 31
0.0
  0
LINE
  5
567
330
6B
100
AcDbEntity
  8
0
 62
     3
100
AcDbLine
 10
-329.4318563923217
 20
6.279460309540248
 30
0.0
 11
-329.4318563923217
 21
4.779460309540248
 31
0.0
  0
LINE
  5
568
330
6B
100
AcDbEntity
  8
0
 62
     3
100
AcDbLine
 10
-335.5698723923217
 20
6.279460309540248
 30
0.0
 11
-329.4318563923217
 21
6.279460309540248
 31
0.0
  0
LINE
  5
569
330
6B
100
AcDbEntity
  8
0
 62
     3
100
AcDbLine
 10
-323.7631633923218
 20
6.279460309540248
 30
0.0
 11
-321.8857143923218
 21
6.279460309540248
 31
0.0
  0
LINE
  5
56A
330
6B
100
AcDbEntity
  8
0
 62
     3
100
AcDbLine
 10
-335.5698723923217
 20
15.27946030954025
 30
0.0
 11
-329.4318563923217
 21
15.27946030954025
 31
0.0
  0
LINE
  5
56B
330
6B
100
AcDbEntity
  8
0
 62
     3
100
AcDbLine
 10
-323.7631633923218
 20
15.27946030954025
 30
0.0
 11
-321.8857143923218
 21
15.27946030954025
 31
0.0
  0
ARC
  5
56C
330
6B
100
AcDbEntity
  8
0
 62
     3
100
AcDbCircle
 10
-324.5131633923218
 20
9.279460309540247
 30
0.0
 40
0.375
100
AcDbArc
 50
0.0
 51
90.0
  0
LINE
  5
56D
330
6B
100
AcDbEntity
  8
0
 62
     3
100
AcDbLine
 10
-324.1381633923217
 20
14.90446030954025
 30
0.0
 11
-324.1381633923217
 21
12.27946030954025
 31
0.0
  0
ARC
  5
56E
330
6B
100
AcDbEntity
  8
0
 62
     3
100
AcDbCircle
 10
-324.5131633923218
 20
12.27946030954025
 30
0.0
 40
0.375
100
AcDbArc
 50
270.0
 51
0.0
  0
LINE
  5
56F
330
6B
100
AcDbEntity
  8
0
 62
     3
100
AcDbLine
 10
-326.7851203923218
 20
9.654460309540247
 30
0.0
 11
-324.5131633923218
 21
9.654460309540247
 31
0.0
  0
LINE
  5
570
330
6B
100
AcDbEntity
  8
0
 62
     3
100
AcDbLine
 10
-329.8068563923217
 20
11.90446030954025
 30
0.0
 11
-332.4271553923218
 21
11.90446030954025
 31
0.0
  0
LINE
  5
571
330
6B
100
AcDbEntity
  8
0
 62
     3
100
AcDbLine
 10
-324.1381633923217
 20
9.279460309540247
 30
0.0
 11
-324.1381633923217
 21
12.27946030954025
 31
0.0
  0
LINE
  5
572
330
6B
100
AcDbEntity
  8
0
 62
     3
100
AcDbLine
 10
-326.7851203923218
 20
9.654460309540247
 30
0.0
 11
-329.8068563923217
 21
9.654460309540247
 31
0.0
  0
LINE
  5
573
330
6B
100
AcDbEntity
  8
0
 62
     3
100
AcDbLine
 10
-326.7851203923218
 20
11.90446030954025
 30
0.0
 11
-329.8068563923217
 21
11.90446030954025
 31
0.0
  0
ARC
  5
574
330
6B
100
AcDbEntity
  8
0
 62
     3
100
AcDbCircle
 10
-325.6601203923218
 20
21.27946030954025
 30
0.0
 40
1.5
100
AcDbArc
 50
90.0
 51
180.0
  0
LINE
  5
575
330
6B
100
AcDbEntity
  8
0
  6
HIDDEN
 62
    15
100
AcDbLine
 10
-327.1601203923217
 20
20.52946030954025
 30
0.0
 11
-327.1601203923217
 21
20.57422630954025
 31
0.0
  0
LINE
  5
576
330
6B
100
AcDbEntity
  8
0
  6
HIDDEN
 62
    15
100
AcDbLine
 10
-325.6601203923218
 20
22.02946030954025
 30
0.0
 11
-325.7351203923217
 21
22.02946030954025
 31
0.0
  0
ARC
  5
577
330
6B
100
AcDbEntity
  8
0
 62
     3
100
AcDbCircle
 10
-341.0131633923218
 20
2.564077309540249
 30
0.0
 40
0.75
100
AcDbArc
 50
180.0
 51
263.820121000001
  0
LINE
  5
578
330
6B
100
AcDbEntity
  8
0
  6
HIDDEN
 62
    15
100
AcDbLine
 10
-341.7631633923218
 20
3.314077309540248
 30
0.0
 11
-341.7631633923218
 21
3.309694309540248
 31
0.0
  0
ARC
  5
579
330
6B
100
AcDbEntity
  8
0
 62
     3
100
AcDbCircle
 10
-341.0131633923218
 20
19.07009930954025
 30
0.0
 40
0.75
100
AcDbArc
 50
95.99681099999862
 51
180.0
  0
LINE
  5
57A
330
6B
100
AcDbEntity
  8
0
  6
HIDDEN
 62
    15
100
AcDbLine
 10
-341.7631633923218
 20
18.32009930954025
 30
0.0
 11
-341.7631633923218
 21
18.32422630954025
 31
0.0
  0
ARC
  5
57B
330
6B
100
AcDbEntity
  8
0
 62
     3
100
AcDbCircle
 10
-323.7631633923218
 20
6.654460309540248
 30
0.0
 40
0.375
100
AcDbArc
 50
180.0
 51
270.0
  0
LINE
  5
57C
330
6B
100
AcDbEntity
  8
0
 62
     3
100
AcDbLine
 10
-325.0056413923218
 20
6.279460309540248
 30
0.0
 11
-323.7631633923218
 21
6.279460309540248
 31
0.0
  0
ARC
  5
57D
330
6B
100
AcDbEntity
  8
0
 62
     3
100
AcDbCircle
 10
-325.0056413923218
 20
6.654460309540248
 30
0.0
 40
0.375
100
AcDbArc
 50
180.0
 51
270.0
  0
ARC
  5
57E
330
6B
100
AcDbEntity
  8
0
 62
     3
100
AcDbCircle
 10
-323.7631633923218
 20
14.90446030954025
 30
0.0
 40
0.375
100
AcDbArc
 50
90.0
 51
180.0
  0
LINE
  5
57F
330
6B
100
AcDbEntity
  8
0
 62
     3
100
AcDbLine
 10
-325.0056413923218
 20
15.27946030954025
 30
0.0
 11
-323.7631633923218
 21
15.27946030954025
 31
0.0
  0
ARC
  5
580
330
6B
100
AcDbEntity
  8
0
 62
     3
100
AcDbCircle
 10
-325.0056413923218
 20
14.90446030954025
 30
0.0
 40
0.375
100
AcDbArc
 50
90.0
 51
180.0
  0
LINE
  5
581
330
6B
100
AcDbEntity
  8
0
 62
     3
100
AcDbLine
 10
-325.0056413923218
 20
6.279460309540248
 30
0.0
 11
-327.1601203923217
 21
6.279460309540248
 31
0.0
  0
LINE
  5
582
330
6B
100
AcDbEntity
  8
0
 62
     3
100
AcDbLine
 10
-325.0056413923218
 20
15.27946030954025
 30
0.0
 11
-327.1601203923217
 21
15.27946030954025
 31
0.0
  0
LINE
  5
583
330
6B
100
AcDbEntity
  8
0
  6
HIDDEN
 62
    15
100
AcDbLine
 10
-343.2631633923218
 20
4.732279309540248
 30
0.0
 11
-343.2275223923217
 21
4.732279309540248
 31
0.0
  0
LINE
  5
584
330
6B
100
AcDbEntity
  8
0
  6
HIDDEN
 62
    15
100
AcDbLine
 10
-343.2631633923218
 20
16.82181130954025
 30
0.0
 11
-343.2275223923217
 21
16.82181130954025
 31
0.0
  0
LINE
  5
585
330
6B
100
AcDbEntity
  8
0
 62
     3
100
AcDbLine
 10
-328.8267523923217
 20
-0.5970166904597507
 30
0.0
 11
-325.6601203923218
 21
-1.22053969045975
 31
0.0
  0
LINE
  5
586
330
6B
100
AcDbEntity
  8
0
 62
     3
100
AcDbLine
 10
-328.8245873923218
 20
22.19394930954025
 30
0.0
 11
-325.9455823923218
 21
22.75204630954025
 31
0.0
  0
LINE
  5
587
330
6B
100
AcDbEntity
  8
0
 62
     3
100
AcDbLine
 10
-328.8267523923217
 20
-0.5970166904597507
 30
0.0
 11
-341.0939013923218
 21
1.818436309540249
 31
0.0
  0
LINE
  5
588
330
6B
100
AcDbEntity
  8
0
 62
     3
100
AcDbLine
 10
-328.8245873923218
 20
22.19394930954025
 30
0.0
 11
-341.0915183923218
 21
19.81599530954025
 31
0.0
  0
LINE
  5
589
330
6B
100
AcDbEntity
  8
0
 62
     3
100
AcDbLine
 10
-329.4318563923217
 20
6.279460309540248
 30
0.0
 11
-329.4318563923217
 21
9.654460309540247
 31
0.0
  0
LINE
  5
58A
330
6B
100
AcDbEntity
  8
0
 62
     3
100
AcDbLine
 10
-329.4318563923217
 20
15.27946030954025
 30
0.0
 11
-329.4318563923217
 21
11.90446030954025
 31
0.0
  0
LINE
  5
58B
330
6B
100
AcDbEntity
  8
0
 62
     3
100
AcDbLine
 10
-536.0475763923217
 20
3.858910309540248
 30
0.0
 11
-542.8250093923217
 21
8.291962309540249
 31
0.0
  0
LINE
  5
58C
330
6B
100
AcDbEntity
  8
0
 62
     3
100
AcDbLine
 10
-536.0475763923217
 20
17.72501330954025
 30
0.0
 11
-542.8250093923217
 21
13.29196230954025
 31
0.0
  0
ARC
  5
58D
330
6B
100
AcDbEntity
  8
0
 62
     3
100
AcDbCircle
 10
-533.9948543923217
 20
6.997195309540249
 30
0.0
 40
3.75
100
AcDbArc
 50
236.811702000001
 51
270.0
  0
ARC
  5
58E
330
6B
100
AcDbEntity
  8
0
 62
     3
100
AcDbCircle
 10
-533.9948543923217
 20
14.58672830954025
 30
0.0
 40
3.75
100
AcDbArc
 50
90.0
 51
123.1882979999989
  0
LINE
  5
58F
330
6B
100
AcDbEntity
  8
0
 62
     3
100
AcDbLine
 10
-539.5797953923216
 20
8.291962309540249
 30
0.0
 11
-553.5678343923217
 21
8.291962309540249
 31
0.0
  0
LINE
  5
590
330
6B
100
AcDbEntity
  8
0
 62
     3
100
AcDbLine
 10
-539.5797953923216
 20
13.29196230954025
 30
0.0
 11
-553.5678343923217
 21
13.29196230954025
 31
0.0
  0
ARC
  5
591
330
6B
100
AcDbEntity
  8
0
 62
     3
100
AcDbCircle
 10
-537.5797953923218
 20
10.79196230954025
 30
0.0
 40
2.5
100
AcDbArc
 50
270.0
 51
90.0
  0
LINE
  5
592
330
6B
100
AcDbEntity
  8
0
 62
     3
100
AcDbLine
 10
-537.5797953923218
 20
8.291962309540249
 30
0.0
 11
-540.0847443923217
 21
8.291962309540249
 31
0.0
  0
LINE
  5
593
330
6B
100
AcDbEntity
  8
0
 62
     3
100
AcDbLine
 10
-537.5797953923218
 20
13.29196230954025
 30
0.0
 11
-540.0847443923217
 21
13.29196230954025
 31
0.0
  0
ARC
  5
594
330
6B
100
AcDbEntity
  8
0
 62
     2
100
AcDbCircle
 10
-503.7286553923216
 20
10.74624530954025
 30
0.0
 40
1.954384
100
AcDbArc
 50
296.4480559999986
 51
63.55194400000131
  0
ARC
  5
595
330
6B
100
AcDbEntity
  8
0
 62
     2
100
AcDbCircle
 10
-508.2182773923216
 20
1.720974309540249
 30
0.0
 40
11.635073
100
AcDbArc
 50
63.55194400000131
 51
81.8382250000006
  0
ARC
  5
596
330
6B
100
AcDbEntity
  8
0
 62
     2
100
AcDbCircle
 10
-516.4470753923217
 20
-55.65404469045975
 30
0.0
 40
69.99678
100
AcDbArc
 50
81.8382250000006
 51
99.17448699999857
  0
ARC
  5
597
330
6B
100
AcDbEntity
  8
0
 62
     2
100
AcDbCircle
 10
-508.2182773923216
 20
1.720974309540249
 30
0.0
 40
12.034673
100
AcDbArc
 50
63.55194400000131
 51
81.8382250000006
  0
ARC
  5
598
330
6B
100
AcDbEntity
  8
0
 62
     2
100
AcDbCircle
 10
-516.4658103923216
 20
-55.85380669045973
 30
0.0
 40
69.796915
100
AcDbArc
 50
81.73606200000069
 51
99.05376299999891
  0
ARC
  5
599
330
6B
100
AcDbEntity
  8
0
 62
     2
100
AcDbCircle
 10
-503.7286553923216
 20
10.74624530954025
 30
0.0
 40
1.554783999999999
100
AcDbArc
 50
296.4480559999986
 51
63.55194400000131
  0
ARC
  5
59A
330
6B
100
AcDbEntity
  8
0
 62
     2
100
AcDbCircle
 10
-508.2182773923216
 20
19.77151730954025
 30
0.0
 40
12.034673
100
AcDbArc
 50
278.1617749999994
 51
296.4480559999986
  0
ARC
  5
59B
330
6B
100
AcDbEntity
  8
0
 62
     2
100
AcDbCircle
 10
-516.4658103923216
 20
77.34629830954023
 30
0.0
 40
69.796915
100
AcDbArc
 50
260.9462370000011
 51
278.2639379999993
  0
ARC
  5
59C
330
6B
100
AcDbEntity
  8
0
 62
     2
100
AcDbCircle
 10
-508.2182773923216
 20
19.77151730954025
 30
0.0
 40
11.635073
100
AcDbArc
 50
278.1617749999994
 51
296.4480559999986
  0
ARC
  5
59D
330
6B
100
AcDbEntity
  8
0
 62
     2
100
AcDbCircle
 10
-516.4470753923217
 20
77.14653630954024
 30
0.0
 40
69.99678
100
AcDbArc
 50
260.8255130000014
 51
278.1617749999994
  0
ARC
  5
59E
330
6B
100
AcDbEntity
  8
0
 62
     2
100
AcDbCircle
 10
-524.9006653923218
 20
19.77151730954025
 30
0.0
 40
12.034673
100
AcDbArc
 50
243.5519440000013
 51
257.0019650000014
  0
ARC
  5
59F
330
6B
100
AcDbEntity
  8
0
 62
     2
100
AcDbCircle
 10
-524.9006653923218
 20
19.77151730954025
 30
0.0
 40
11.635073
100
AcDbArc
 50
243.5519440000013
 51
257.3477330000014
  0
ARC
  5
5A0
330
6B
100
AcDbEntity
  8
0
 62
     2
100
AcDbCircle
 10
-529.3902873923217
 20
10.74624530954025
 30
0.0
 40
1.554783999999999
100
AcDbArc
 50
116.4480559999987
 51
243.5519440000013
  0
ARC
  5
5A1
330
6B
100
AcDbEntity
  8
0
 62
     2
100
AcDbCircle
 10
-529.3902873923217
 20
10.74624530954025
 30
0.0
 40
1.954384
100
AcDbArc
 50
116.4480559999987
 51
243.5519440000013
  0
ARC
  5
5A2
330
6B
100
AcDbEntity
  8
0
 62
     2
100
AcDbCircle
 10
-524.9006653923218
 20
1.720974309540249
 30
0.0
 40
11.635073
100
AcDbArc
 50
102.6522669999985
 51
116.4480559999987
  0
ARC
  5
5A3
330
6B
100
AcDbEntity
  8
0
 62
     2
100
AcDbCircle
 10
-524.9006653923218
 20
1.720974309540249
 30
0.0
 40
12.034673
100
AcDbArc
 50
102.9980349999986
 51
116.4480559999987
  0
LINE
  5
5A4
330
6B
100
AcDbEntity
  8
0
 62
     3
100
AcDbLine
 10
-511.9948543923217
 20
3.247195309540248
 30
0.0
 11
-485.3330643923217
 21
3.247195309540248
 31
0.0
  0
LINE
  5
5A5
330
6B
100
AcDbEntity
  8
0
 62
     3
100
AcDbLine
 10
-554.0876773923216
 20
7.777045309540248
 30
0.0
 11
-553.6438703923217
 21
8.216647309540249
 31
0.0
  0
LINE
  5
5A6
330
6B
100
AcDbEntity
  8
0
 62
     3
100
AcDbLine
 10
-554.0876773923216
 20
13.77704530954025
 30
0.0
 11
-553.6086753923217
 21
13.24954630954025
 31
0.0
  0
LINE
  5
5A7
330
6B
100
AcDbEntity
  8
0
 62
     3
100
AcDbLine
 10
-511.9948543923217
 20
3.247195309540248
 30
0.0
 11
-533.9948543923217
 21
3.247195309540248
 31
0.0
  0
LINE
  5
5A8
330
6B
100
AcDbEntity
  8
0
 62
     3
100
AcDbLine
 10
-505.6230773923217
 20
18.32181130954025
 30
0.0
 11
-533.9948543923217
 21
18.32181130954025
 31
0.0
  0
LINE
  5
5A9
330
6B
100
AcDbEntity
  8
0
 62
     3
100
AcDbLine
 10
-360.8711363923218
 20
3.232279309540248
 30
0.0
 11
-383.5433513923217
 21
3.232279309540248
 31
0.0
  0
LINE
  5
5AA
330
6B
100
AcDbEntity
  8
0
 62
     3
100
AcDbLine
 10
-360.3834093923218
 20
18.32181130954025
 30
0.0
 11
-383.0556233923218
 21
18.32181130954025
 31
0.0
  0
LINE
  5
5AB
330
6B
100
AcDbEntity
  8
0
  6
DASHED
100
AcDbLine
 10
-496.3456363923216
 20
5.527045309540248
 30
0.0
 11
-496.3456363923216
 21
16.02704530954025
 31
0.0
  0
LINE
  5
5AC
330
6B
100
AcDbEntity
  8
0
  6
DASHED
100
AcDbLine
 10
-494.0456363923217
 20
5.527045309540248
 30
0.0
 11
-494.0456363923217
 21
16.02704530954025
 31
0.0
  0
LINE
  5
5AD
330
6B
100
AcDbEntity
  8
0
  6
DASHED
100
AcDbLine
 10
-491.7456363923217
 20
5.527045309540248
 30
0.0
 11
-491.7456363923217
 21
16.02704530954025
 31
0.0
  0
LINE
  5
5AE
330
6B
100
AcDbEntity
  8
0
  6
DASHED
100
AcDbLine
 10
-489.4456363923217
 20
5.527045309540248
 30
0.0
 11
-489.4456363923217
 21
16.02704530954025
 31
0.0
  0
LINE
  5
5AF
330
6B
100
AcDbEntity
  8
0
  6
DASHED
100
AcDbLine
 10
-487.1456363923218
 20
5.527045309540248
 30
0.0
 11
-487.1456363923218
 21
16.02704530954025
 31
0.0
  0
LINE
  5
5B0
330
6B
100
AcDbEntity
  8
0
  6
DASHED
100
AcDbLine
 10
-498.6456363923217
 20
5.527045309540248
 30
0.0
 11
-494.0456363923217
 21
5.527045309540248
 31
0.0
  0
LINE
  5
5B1
330
6B
100
AcDbEntity
  8
0
  6
DASHED
100
AcDbLine
 10
-491.7456363923217
 20
5.527045309540248
 30
0.0
 11
-487.1456363923218
 21
5.527045309540248
 31
0.0
  0
LINE
  5
5B2
330
6B
100
AcDbEntity
  8
0
  6
DASHED
100
AcDbLine
 10
-491.7456363923217
 20
16.02704530954025
 30
0.0
 11
-487.1456363923218
 21
16.02704530954025
 31
0.0
  0
LINE
  5
5B3
330
6B
100
AcDbEntity
  8
0
  6
DASHED
100
AcDbLine
 10
-498.6456363923217
 20
16.02704530954025
 30
0.0
 11
-494.0456363923217
 21
16.02704530954025
 31
0.0
  0
ARC
  5
5B6
330
6B
100
AcDbEntity
  8
0
 62
     3
100
AcDbCircle
 10
-336.9105223923217
 20
10.77946030954025
 30
0.0
 40
4.622358999999998
100
AcDbArc
 50
283.2125340000015
 51
76.78746599999853
  0
LINE
  5
5B7
330
6B
100
AcDbEntity
  8
0
 62
     3
100
AcDbLine
 10
-341.7631633923218
 20
2.564077309540249
 30
0.0
 11
-341.7631633923218
 21
19.07009930954025
 31
0.0
  0
LINE
  5
5B8
330
6B
100
AcDbEntity
  8
0
 62
     3
100
AcDbLine
 10
-317.3857143923218
 20
0.2794603095402495
 30
0.0
 11
-317.3857143923218
 21
7.779460309540248
 31
0.0
  0
LINE
  5
5B9
330
6B
100
AcDbEntity
  8
0
 62
     3
100
AcDbLine
 10
-317.3857143923218
 20
13.77946030954025
 30
0.0
 11
-317.3857143923218
 21
21.27946030954025
 31
0.0
  0
LINE
  5
5BA
330
6B
100
AcDbEntity
  8
0
 62
     3
100
AcDbLine
 10
-327.1601203923217
 20
0.2794603095402495
 30
0.0
 11
-327.1601203923217
 21
9.654460309540247
 31
0.0
  0
LINE
  5
5BB
330
6B
100
AcDbEntity
  8
0
 62
     3
100
AcDbLine
 10
-327.1601203923217
 20
21.27946030954025
 30
0.0
 11
-327.1601203923217
 21
11.90446030954025
 31
0.0
  0
LINE
  5
5BC
330
6B
100
AcDbEntity
  8
0
 62
     3
100
AcDbLine
 10
-323.3857143923217
 20
4.779460309540248
 30
0.0
 11
-341.7631633923218
 21
4.779460309540248
 31
0.0
  0
LINE
  5
5BD
330
6B
100
AcDbEntity
  8
0
 62
     3
100
AcDbLine
 10
-323.3857143923217
 20
16.77946030954025
 30
0.0
 11
-341.7631633923218
 21
16.77946030954025
 31
0.0
  0
LINE
  5
5BE
330
6B
100
AcDbEntity
  8
0
 62
     3
100
AcDbLine
 10
-341.7631633923218
 20
3.232279309540248
 30
0.0
 11
-453.2524013923216
 21
3.232279309540248
 31
0.0
  0
LINE
  5
5BF
330
6B
100
AcDbEntity
  8
0
 62
     3
100
AcDbLine
 10
-455.2879533923216
 20
3.232274309540248
 30
0.0
 11
-483.1197953923217
 21
3.232274309540248
 31
0.0
  0
LINE
  5
5C0
330
6B
100
AcDbEntity
  8
0
 62
     3
100
AcDbLine
 10
-341.7631633923218
 20
18.32181130954025
 30
0.0
 11
-452.7877403923217
 21
18.32181130954025
 31
0.0
  0
LINE
  5
5C1
330
6B
100
AcDbEntity
  8
0
 62
     3
100
AcDbLine
 10
-454.8148223923217
 20
18.32181130954025
 30
0.0
 11
-482.6810213923216
 21
18.32181130954025
 31
0.0
  0
CIRCLE
  5
5C2
330
6B
100
AcDbEntity
  8
0
 62
     3
100
AcDbCircle
 10
-366.7631633923218
 20
10.77946030954025
 30
0.0
 40
2.0
  0
CIRCLE
  5
5C3
330
6B
100
AcDbEntity
  8
0
 62
     3
100
AcDbCircle
 10
-376.7631633923218
 20
10.77946030954025
 30
0.0
 40
2.0
  0
CIRCLE
  5
5C4
330
6B
100
AcDbEntity
  8
0
 62
     3
100
AcDbCircle
 10
-386.7631633923218
 20
10.77946030954025
 30
0.0
 40
2.0
  0
LINE
  5
5C5
330
6B
100
AcDbEntity
  8
0
  6
PHANTOM
100
AcDbLine
 10
-452.8956363923216
 20
5.527045309540248
 30
0.0
 11
-454.3658033923216
 21
5.527045309540248
 31
0.0
  0
TEXT
  5
5C6
330
6B
100
AcDbEntity
  8
0
100
AcDbText
 10
-438.1870533923217
 20
5.967567309540249
 30
0.0
 40
2.027519999999999
  1
JAPAN
 50
90.00000300000001
 41
0.800781
100
AcDbText
  0
TEXT
  5
5C7
330
6B
100
AcDbEntity
  8
0
100
AcDbText
 10
-434.7141593923216
 20
5.912338309540249
 30
0.0
 40
2.433024
  1
MULTI
 50
90.00000300000001
 41
0.8579799999999998
100
AcDbText
  0
TEXT
  5
5C8
330
6B
100
AcDbEntity
  8
0
100
AcDbText
 10
-428.8524563923217
 20
5.294882309540248
 30
0.0
 40
2.2176
  1
PAT.TED
 50
90.00000300000001
 41
0.7317610000000001
100
AcDbText
  0
TEXT
  5
5C9
330
6B
100
AcDbEntity
  8
0
100
AcDbText
 10
-432.0950873923217
 20
6.576335309540248
 30
0.0
 40
2.433024
  1
HOOK
 50
90.00000300000001
 41
0.8262459999999999
100
AcDbText
  0
TEXT
  5
5CA
330
6B
100
AcDbEntity
  8
0
100
AcDbText
 10
-410.7691753923218
 20
8.303635309540249
 30
0.0
 40
2.5344
  1
EP
 50
90.00000300000001
100
AcDbText
  0
LINE
  5
5CB
330
6B
100
AcDbEntity
  8
0
100
AcDbLine
 10
-437.6549123923218
 20
16.75282030954025
 30
0.0
 11
-437.6549123923218
 21
4.784183309540249
 31
0.0
  0
LINE
  5
5CC
330
6B
100
AcDbEntity
  8
0
100
AcDbLine
 10
-431.6874083923217
 20
16.75282030954025
 30
0.0
 11
-431.6874083923217
 21
4.784183309540249
 31
0.0
  0
LINE
  5
5CD
330
6B
100
AcDbEntity
  8
0
 62
     3
100
AcDbLine
 10
-441.0404773923216
 20
15.76282030954025
 30
0.0
 11
-441.0404773923216
 21
5.774183309540249
 31
0.0
  0
ARC
  5
5CE
330
6B
100
AcDbEntity
  8
0
 62
     3
100
AcDbCircle
 10
-440.0504773923216
 20
15.76282030954025
 30
0.0
 40
0.99
100
AcDbArc
 50
90.0
 51
180.0
  0
LINE
  5
5CF
330
6B
100
AcDbEntity
  8
0
 62
     3
100
AcDbLine
 10
-394.4699243923217
 20
17.00282030954025
 30
0.0
 11
-440.0504773923216
 21
17.00282030954025
 31
0.0
  0
ARC
  5
5D0
330
6B
100
AcDbEntity
  8
0
 62
     3
100
AcDbCircle
 10
-440.0504773923216
 20
5.774183309540249
 30
0.0
 40
0.99
100
AcDbArc
 50
180.0
 51
270.0
  0
LINE
  5
5D1
330
6B
100
AcDbEntity
  8
0
 62
     3
100
AcDbLine
 10
-394.4699243923217
 20
4.784183309540249
 30
0.0
 11
-440.0504773923216
 21
4.784183309540249
 31
0.0
  0
LINE
  5
5D2
330
6B
100
AcDbEntity
  8
0
100
AcDbLine
 10
-397.0290023923217
 20
16.75282030954025
 30
0.0
 11
-397.0290023923217
 21
4.784183309540249
 31
0.0
  0
ARC
  5
5D3
330
6B
100
AcDbEntity
  8
0
 62
     3
100
AcDbCircle
 10
-394.4699243923217
 20
5.774183309540249
 30
0.0
 40
0.99
100
AcDbArc
 50
270.0
 51
0.0
  0
LINE
  5
5D4
330
6B
100
AcDbEntity
  8
0
 62
     3
100
AcDbLine
 10
-393.4799243923218
 20
5.774183309540249
 30
0.0
 11
-393.4799243923218
 21
15.76282030954025
 31
0.0
  0
ARC
  5
5D5
330
6B
100
AcDbEntity
  8
0
 62
     3
100
AcDbCircle
 10
-394.4699243923217
 20
15.76282030954025
 30
0.0
 40
0.99
100
AcDbArc
 50
0.0
 51
90.0
  0
TEXT
  5
5D6
330
6B
100
AcDbEntity
  8
0
100
AcDbText
 10
-422.8075753923217
 20
8.303635309540249
 30
0.0
 40
2.5344
  1
TW
 50
90.00000300000001
 41
0.8571429999999999
100
AcDbText
  0
TEXT
  5
5D7
330
6B
100
AcDbEntity
  8
0
100
AcDbText
 10
-425.7343473923216
 20
8.082760309540249
 30
0.0
 40
2.5344
  1
JP
 50
90.00000300000001
100
AcDbText
  0
TEXT
  5
5D8
330
6B
100
AcDbEntity
  8
0
100
AcDbText
 10
-419.7979753923217
 20
8.303635309540249
 30
0.0
 40
2.5344
  1
KR
 50
90.00000300000001
100
AcDbText
  0
TEXT
  5
5D9
330
6B
100
AcDbEntity
  8
0
100
AcDbText
 10
-416.7883753923216
 20
8.303635309540249
 30
0.0
 40
2.5344
  1
CN
 50
90.00000300000001
100
AcDbText
  0
TEXT
  5
5DA
330
6B
100
AcDbEntity
  8
0
100
AcDbText
 10
-413.7787753923216
 20
8.303635309540249
 30
0.0
 40
2.5344
  1
HK
 50
90.00000300000001
100
AcDbText
  0
TEXT
  5
5DB
330
6B
100
AcDbEntity
  8
0
100
AcDbText
 10
-407.7595753923217
 20
8.303635309540249
 30
0.0
 40
2.5344
  1
US
 50
90.00000300000001
100
AcDbText
  0
TEXT
  5
5DC
330
6B
100
AcDbEntity
  8
0
100
AcDbText
 10
-404.7499753923217
 20
8.303635309540249
 30
0.0
 40
2.5344
  1
CA
 50
90.00000300000001
100
AcDbText
  0
TEXT
  5
5DD
330
6B
100
AcDbEntity
  8
0
100
AcDbText
 10
-401.7929363923216
 20
8.303635309540249
 30
0.0
 40
2.5344
  1
AU
 50
90.00000300000001
100
AcDbText
  0
LINE
  5
5DF
330
6B
100
AcDbEntity
  8
0
100
AcDbLine
 10
-376.0218033923218
 20
8.382736309540247
 30
0.0
 11
-366.3352683923217
 21
-8.36662869045975
 31
0.0
  0
LINE
  5
5E0
330
6B
100
AcDbEntity
  8
0
100
AcDbLine
 10
-366.3352683923217
 20
-8.36662869045975
 30
0.0
 11
-342.2727683923217
 21
-8.36662869045975
 31
0.0
  0
TEXT
  5
5E1
330
6B
100
AcDbEntity
  8
0
 62
     4
100
AcDbText
 10
-362.8977683923217
 20
-7.11662769045975
 30
0.0
 40
4.0
  1
3-%%C4穴
 41
0.716146
100
AcDbText
  0
LINE
  5
5E2
330
6B
100
AcDbEntity
  8
0
  6
DASHED
100
AcDbLine
 10
-484.8456363923217
 20
5.527045309540248
 30
0.0
 11
-484.8456363923217
 21
16.02704530954025
 31
0.0
  0
LINE
  5
5E3
330
6B
100
AcDbEntity
  8
0
  6
DASHED
100
AcDbLine
 10
-482.5456363923216
 20
5.527045309540248
 30
0.0
 11
-482.5456363923216
 21
16.02704530954025
 31
0.0
  0
LINE
  5
5E4
330
6B
100
AcDbEntity
  8
0
  6
DASHED
100
AcDbLine
 10
-480.2456363923217
 20
5.527045309540248
 30
0.0
 11
-480.2456363923217
 21
16.02704530954025
 31
0.0
  0
LINE
  5
5E5
330
6B
100
AcDbEntity
  8
0
  6
DASHED
100
AcDbLine
 10
-484.8456363923217
 20
5.527045309540248
 30
0.0
 11
-480.2456363923217
 21
5.527045309540248
 31
0.0
  0
LINE
  5
5E6
330
6B
100
AcDbEntity
  8
0
  6
DASHED
100
AcDbLine
 10
-484.8456363923217
 20
16.02704530954025
 30
0.0
 11
-480.2456363923217
 21
16.02704530954025
 31
0.0
  0
LINE
  5
5E7
330
6B
100
AcDbEntity
  8
0
  6
DASHED
100
AcDbLine
 10
-477.9456363923217
 20
5.527045309540248
 30
0.0
 11
-477.9456363923217
 21
16.02704530954025
 31
0.0
  0
LINE
  5
5E8
330
6B
100
AcDbEntity
  8
0
  6
DASHED
100
AcDbLine
 10
-475.6456363923216
 20
5.527045309540248
 30
0.0
 11
-475.6456363923216
 21
16.02704530954025
 31
0.0
  0
LINE
  5
5E9
330
6B
100
AcDbEntity
  8
0
  6
DASHED
100
AcDbLine
 10
-473.3456363923217
 20
5.527045309540248
 30
0.0
 11
-473.3456363923217
 21
16.02704530954025
 31
0.0
  0
LINE
  5
5EA
330
6B
100
AcDbEntity
  8
0
  6
DASHED
100
AcDbLine
 10
-477.9456363923217
 20
5.527045309540248
 30
0.0
 11
-473.3456363923217
 21
5.527045309540248
 31
0.0
  0
LINE
  5
5EB
330
6B
100
AcDbEntity
  8
0
  6
DASHED
100
AcDbLine
 10
-477.9456363923217
 20
16.02704530954025
 30
0.0
 11
-473.3456363923217
 21
16.02704530954025
 31
0.0
  0
LINE
  5
5EC
330
6B
100
AcDbEntity
  8
0
  6
DASHED
100
AcDbLine
 10
-471.0456363923216
 20
5.527045309540248
 30
0.0
 11
-471.0456363923216
 21
16.02704530954025
 31
0.0
  0
LINE
  5
5ED
330
6B
100
AcDbEntity
  8
0
  6
DASHED
100
AcDbLine
 10
-468.7456363923216
 20
5.527045309540248
 30
0.0
 11
-468.7456363923216
 21
16.02704530954025
 31
0.0
  0
LINE
  5
5EE
330
6B
100
AcDbEntity
  8
0
  6
DASHED
100
AcDbLine
 10
-466.4456363923217
 20
5.527045309540248
 30
0.0
 11
-466.4456363923217
 21
16.02704530954025
 31
0.0
  0
LINE
  5
5EF
330
6B
100
AcDbEntity
  8
0
  6
DASHED
100
AcDbLine
 10
-471.0456363923216
 20
5.527045309540248
 30
0.0
 11
-466.4456363923217
 21
5.527045309540248
 31
0.0
  0
LINE
  5
5F0
330
6B
100
AcDbEntity
  8
0
  6
DASHED
100
AcDbLine
 10
-471.0456363923216
 20
16.02704530954025
 30
0.0
 11
-466.4456363923217
 21
16.02704530954025
 31
0.0
  0
LINE
  5
5F1
330
6B
100
AcDbEntity
  8
0
  6
DASHED
100
AcDbLine
 10
-464.1456363923217
 20
5.527045309540248
 30
0.0
 11
-464.1456363923217
 21
16.02704530954025
 31
0.0
  0
LINE
  5
5F2
330
6B
100
AcDbEntity
  8
0
  6
DASHED
100
AcDbLine
 10
-461.8456363923217
 20
5.527045309540248
 30
0.0
 11
-461.8456363923217
 21
16.02704530954025
 31
0.0
  0
LINE
  5
5F3
330
6B
100
AcDbEntity
  8
0
  6
DASHED
100
AcDbLine
 10
-459.5456363923217
 20
5.527045309540248
 30
0.0
 11
-459.5456363923217
 21
16.02704530954025
 31
0.0
  0
LINE
  5
5F4
330
6B
100
AcDbEntity
  8
0
  6
DASHED
100
AcDbLine
 10
-464.1456363923217
 20
5.527045309540248
 30
0.0
 11
-459.5456363923217
 21
5.527045309540248
 31
0.0
  0
LINE
  5
5F5
330
6B
100
AcDbEntity
  8
0
  6
DASHED
100
AcDbLine
 10
-464.1456363923217
 20
16.02704530954025
 30
0.0
 11
-459.5456363923217
 21
16.02704530954025
 31
0.0
  0
LINE
  5
5F6
330
6B
100
AcDbEntity
  8
0
100
AcDbLine
 10
-456.6456363923217
 20
16.02704530954025
 30
0.0
 11
-453.8359913923216
 21
16.02704530954025
 31
0.0
  0
LINE
  5
5F7
330
6B
100
AcDbEntity
  8
0
 62
     3
100
AcDbLine
 10
-554.1674803923217
 20
13.74689730954025
 30
0.0
 11
-553.7236733923217
 21
13.30729630954025
 31
0.0
  0
LINE
  5
5F8
330
6B
100
AcDbEntity
  8
0
 62
     3
100
AcDbLine
 10
-554.1674803923217
 20
7.746897309540249
 30
0.0
 11
-553.6884783923217
 21
8.27439630954025
 31
0.0
  0
LINE
  5
5F9
330
6B
100
AcDbEntity
  8
0
 62
     3
100
AcDbLine
 10
-553.6476383923217
 20
13.23198130954025
 30
0.0
 11
-553.6476383923217
 21
8.231981309540246
 31
0.0
  0
LINE
  5
5FA
330
6B
100
AcDbEntity
  8
0
 62
     3
100
AcDbLine
 10
-567.1585853923217
 20
5.246897309540249
 30
0.0
 11
-567.1585853923217
 21
16.24689730954025
 31
0.0
  0
ARC
  5
5FB
330
6B
100
AcDbEntity
  8
0
 62
     3
100
AcDbCircle
 10
-565.1585853923218
 20
16.24689730954025
 30
0.0
 40
2.0
100
AcDbArc
 50
90.0
 51
180.0
  0
ARC
  5
5FC
330
6B
100
AcDbEntity
  8
0
 62
     3
100
AcDbCircle
 10
-565.1585853923218
 20
5.246897309540249
 30
0.0
 40
2.0
100
AcDbArc
 50
180.0
 51
270.0
  0
LINE
  5
5FD
330
6B
100
AcDbEntity
  8
0
 62
     3
100
AcDbLine
 10
-567.1202983923217
 20
4.945081309540249
 30
0.0
 11
-568.6202983923217
 21
5.47733930954025
 31
0.0
  0
LINE
  5
5FE
330
6B
100
AcDbEntity
  8
0
 62
     3
100
AcDbLine
 10
-556.1585853923218
 20
18.24689730954025
 30
0.0
 11
-565.1585853923218
 21
18.24689730954025
 31
0.0
  0
LINE
  5
5FF
330
6B
100
AcDbEntity
  8
0
 62
     3
100
AcDbLine
 10
-556.1585853923218
 20
3.246897309540248
 30
0.0
 11
-565.1585853923218
 21
3.246897309540248
 31
0.0
  0
LINE
  5
600
330
6B
100
AcDbEntity
  8
0
 62
     3
100
AcDbLine
 10
-567.1202983923217
 20
16.54871430954025
 30
0.0
 11
-568.6202983923217
 21
16.01645630954025
 31
0.0
  0
ARC
  5
601
330
6B
100
AcDbEntity
  8
0
 62
     3
100
AcDbCircle
 10
-556.1585853923218
 20
16.24689730954025
 30
0.0
 40
2.0
100
AcDbArc
 50
0.0
 51
90.0
  0
ARC
  5
602
330
6B
100
AcDbEntity
  8
0
 62
     3
100
AcDbCircle
 10
-556.1585853923218
 20
5.246897309540249
 30
0.0
 40
2.0
100
AcDbArc
 50
270.0
 51
0.0
  0
LINE
  5
603
330
6B
100
AcDbEntity
  8
0
 62
     3
100
AcDbLine
 10
-625.2030323923218
 20
5.97733930954025
 30
0.0
 11
-625.2030323923218
 21
15.51645630954025
 31
0.0
  0
LINE
  5
604
330
6B
100
AcDbEntity
  8
0
 62
     3
100
AcDbLine
 10
-624.7030323923218
 20
16.01645630954025
 30
0.0
 11
-568.6202983923217
 21
16.01645630954025
 31
0.0
  0
LINE
  5
605
330
6B
100
AcDbEntity
  8
0
 62
     3
100
AcDbLine
 10
-624.7030323923218
 20
5.47733930954025
 30
0.0
 11
-568.6202983923217
 21
5.47733930954025
 31
0.0
  0
ARC
  5
606
330
6B
100
AcDbEntity
  8
0
 62
     3
100
AcDbCircle
 10
-624.7030323923218
 20
15.51645630954025
 30
0.0
 40
0.5
100
AcDbArc
 50
90.0
 51
180.0
  0
ARC
  5
607
330
6B
100
AcDbEntity
  8
0
 62
     3
100
AcDbCircle
 10
-624.7030323923218
 20
5.97733930954025
 30
0.0
 40
0.5
100
AcDbArc
 50
180.0
 51
270.0
  0
LINE
  5
608
330
6B
100
AcDbEntity
  8
0
 62
     3
100
AcDbLine
 10
-543.2076523923217
 20
79.76939230954025
 30
0.0
 11
-474.5927013923217
 21
79.76939230954025
 31
0.0
  0
LINE
  5
609
330
6B
100
AcDbEntity
  8
0
 62
     3
100
AcDbLine
 10
-543.2076523923217
 20
78.26939230954025
 30
0.0
 11
-475.0490573923216
 21
78.26939230954025
 31
0.0
  0
LINE
  5
60A
330
6B
100
AcDbEntity
  8
0
 62
     3
100
AcDbLine
 10
-342.3818193923218
 20
79.76793930954025
 30
0.0
 11
-439.8116423923217
 21
79.76793930954025
 31
0.0
  0
LINE
  5
60B
330
6B
100
AcDbEntity
  8
0
 62
     3
100
AcDbLine
 10
-317.2332583923218
 20
78.24354930954022
 30
0.0
 11
-439.8116423923217
 21
78.24354930954022
 31
0.0
  0
TEXT
  5
60C
330
6B
100
AcDbEntity
  8
0
100
AcDbText
 10
-394.4395803923218
 20
7.378009309540249
 30
0.0
 40
2.027519999999999
  1
PA6
 50
90.00000300000001
 41
1.067708
100
AcDbText
  0
LINE
  5
60D
330
6B
100
AcDbEntity
  8
0
 62
     3
100
AcDbLine
 10
-554.1585853923217
 20
16.24689730954025
 30
0.0
 11
-554.1585853923217
 21
5.246897309540249
 31
0.0
  0
TEXT
  5
60E
330
6B
100
AcDbEntity
  8
0
 62
     3
100
AcDbText
 10
-362.4458863923218
 20
8.458627309540249
 30
0.0
 40
4.5
  1
BH-300
 41
0.7306600000000003
100
AcDbText
  0
LINE
  5
610
330
6B
100
AcDbEntity
  8
0
100
AcDbLine
 10
-508.9001763923217
 20
79.76939230954025
 30
0.0
 11
-508.4964153923216
 21
100.1121733095402
 31
0.0
  0
CIRCLE
  5
611
330
6B
100
AcDbEntity
  8
0
100
AcDbCircle
 10
-508.3971963923216
 20
105.1111893095402
 30
0.0
 40
5.0
  0
TEXT
  5
612
330
6B
100
AcDbEntity
  8
0
 62
     4
100
AcDbText
 10
-509.4420652384128
 20
101.9885182776042
 30
0.0
 40
6.299999999999998
  1
1
  7
高6.3
100
AcDbText
  0
LINE
  5
614
330
6B
100
AcDbEntity
  8
0
100
AcDbLine
 10
-570.5773013923218
 20
83.94235830954025
 30
0.0
 11
-566.5473013923217
 21
99.28916230954023
 31
0.0
  0
CIRCLE
  5
615
330
6B
100
AcDbEntity
  8
0
100
AcDbCircle
 10
-565.2773793923217
 20
104.1252033095402
 30
0.0
 40
5.0
  0
TEXT
  5
616
330
6B
100
AcDbEntity
  8
0
 62
     4
100
AcDbText
 10
-567.4211241470659
 20
101.0311166283087
 30
0.0
 40
6.299999999999998
  1
2
  7
高6.3
100
AcDbText
  0
LINE
  5
617
330
6B
100
AcDbEntity
  8
0
 62
     2
100
AcDbLine
 10
-513.4760903923218
 20
12.17497230954025
 30
0.0
 11
-513.6555453923217
 21
12.17497230954025
 31
0.0
  0
ARC
  5
618
330
6B
100
AcDbEntity
  8
0
 62
     2
100
AcDbCircle
 10
-513.4760903923218
 20
11.93988530954025
 30
0.0
 40
0.235086
100
AcDbArc
 50
0.0
 51
90.0
  0
LINE
  5
619
330
6B
100
AcDbEntity
  8
0
 62
     2
100
AcDbLine
 10
-513.2410043923218
 20
11.93988530954025
 30
0.0
 11
-513.2410043923218
 21
9.452636309540247
 31
0.0
  0
LINE
  5
61A
330
6B
100
AcDbEntity
  8
0
 62
     2
100
AcDbLine
 10
-511.5002883923216
 20
8.720459309540249
 30
0.0
 11
-513.6555453923217
 21
8.720459309540249
 31
0.0
  0
LINE
  5
61B
330
6B
100
AcDbEntity
  8
0
 62
     2
100
AcDbLine
 10
-511.5002883923216
 20
9.217550309540248
 30
0.0
 11
-511.5002883923216
 21
8.720459309540249
 31
0.0
  0
LINE
  5
61C
330
6B
100
AcDbEntity
  8
0
 62
     2
100
AcDbLine
 10
-511.6797433923217
 20
9.217550309540248
 30
0.0
 11
-511.5002883923216
 21
9.217550309540248
 31
0.0
  0
ARC
  5
61D
330
6B
100
AcDbEntity
  8
0
 62
     2
100
AcDbCircle
 10
-511.6797433923217
 20
9.452636309540247
 30
0.0
 40
0.235086
100
AcDbArc
 50
180.0
 51
270.0
  0
LINE
  5
61E
330
6B
100
AcDbEntity
  8
0
 62
     2
100
AcDbLine
 10
-514.0921273923217
 20
12.67196930954025
 30
0.0
 11
-516.1092043923217
 21
12.67196930954025
 31
0.0
  0
LINE
  5
61F
330
6B
100
AcDbEntity
  8
0
 62
     2
100
AcDbLine
 10
-514.0921273923217
 20
12.67196930954025
 30
0.0
 11
-514.0921273923217
 21
12.17159030954025
 31
0.0
  0
LINE
  5
620
330
6B
100
AcDbEntity
  8
0
 62
     2
100
AcDbLine
 10
-514.2416733923218
 20
12.17159030954025
 30
0.0
 11
-514.0921273923217
 21
12.17159030954025
 31
0.0
  0
ARC
  5
621
330
6B
100
AcDbEntity
  8
0
 62
     2
100
AcDbCircle
 10
-514.2024923923218
 20
11.93979130954025
 30
0.0
 40
0.235086
100
AcDbArc
 50
99.59406799999896
 51
180.0
  0
LINE
  5
622
330
6B
100
AcDbEntity
  8
0
 62
     2
100
AcDbLine
 10
-514.4375783923217
 20
11.93979130954025
 30
0.0
 11
-514.4375783923217
 21
9.452542309540248
 31
0.0
  0
ARC
  5
623
330
6B
100
AcDbEntity
  8
0
 62
     2
100
AcDbCircle
 10
-514.2024923923218
 20
9.452542309540248
 30
0.0
 40
0.235086
100
AcDbArc
 50
180.0
 51
260.405932000001
  0
LINE
  5
624
330
6B
100
AcDbEntity
  8
0
 62
     2
100
AcDbLine
 10
-514.2416733923218
 20
9.220744309540247
 30
0.0
 11
-514.0921273923217
 21
9.220744309540247
 31
0.0
  0
LINE
  5
625
330
6B
100
AcDbEntity
  8
0
 62
     2
100
AcDbLine
 10
-514.0921273923217
 20
9.220744309540247
 30
0.0
 11
-514.0921273923217
 21
8.720365309540246
 31
0.0
  0
LINE
  5
626
330
6B
100
AcDbEntity
  8
0
 62
     2
100
AcDbLine
 10
-514.0921273923217
 20
8.720365309540246
 30
0.0
 11
-516.1092043923217
 21
8.720365309540246
 31
0.0
  0
ARC
  5
627
330
6B
100
AcDbEntity
  8
0
 62
     2
100
AcDbCircle
 10
-511.6797433923217
 20
11.93988530954025
 30
0.0
 40
0.235086
100
AcDbArc
 50
90.0
 51
180.0
  0
LINE
  5
628
330
6B
100
AcDbEntity
  8
0
 62
     2
100
AcDbLine
 10
-511.9148303923217
 20
11.93988530954025
 30
0.0
 11
-511.9148303923217
 21
9.452636309540247
 31
0.0
  0
LINE
  5
629
330
6B
100
AcDbEntity
  8
0
 62
     2
100
AcDbLine
 10
-511.5002883923216
 20
12.67206230954025
 30
0.0
 11
-511.5002883923216
 21
12.17497230954025
 31
0.0
  0
LINE
  5
62A
330
6B
100
AcDbEntity
  8
0
 62
     2
100
AcDbLine
 10
-511.6797433923217
 20
12.17497230954025
 30
0.0
 11
-511.5002883923216
 21
12.17497230954025
 31
0.0
  0
LINE
  5
62B
330
6B
100
AcDbEntity
  8
0
 62
     2
100
AcDbLine
 10
-511.5002883923216
 20
12.67206230954025
 30
0.0
 11
-513.6555453923217
 21
12.67206230954025
 31
0.0
  0
LINE
  5
62C
330
6B
100
AcDbEntity
  8
0
 62
     2
100
AcDbLine
 10
-513.6555453923217
 20
12.67206230954025
 30
0.0
 11
-513.6555453923217
 21
12.17497230954025
 31
0.0
  0
LINE
  5
62D
330
6B
100
AcDbEntity
  8
0
 62
     2
100
AcDbLine
 10
-511.0966223923218
 20
9.217550309540248
 30
0.0
 11
-511.0966223923218
 21
8.720459309540249
 31
0.0
  0
ARC
  5
62E
330
6B
100
AcDbEntity
  8
0
 62
     2
100
AcDbCircle
 10
-510.9171673923216
 20
9.452636309540247
 30
0.0
 40
0.235086
100
AcDbArc
 50
270.0
 51
0.0
  0
LINE
  5
62F
330
6B
100
AcDbEntity
  8
0
 62
     2
100
AcDbLine
 10
-510.9171673923216
 20
9.217550309540248
 30
0.0
 11
-511.0966223923218
 21
9.217550309540248
 31
0.0
  0
LINE
  5
630
330
6B
100
AcDbEntity
  8
0
 62
     2
100
AcDbLine
 10
-508.7693753923216
 20
8.720459309540249
 30
0.0
 11
-511.0966223923218
 21
8.720459309540249
 31
0.0
  0
LINE
  5
631
330
6B
100
AcDbEntity
  8
0
 62
     2
100
AcDbLine
 10
-510.6820813923217
 20
11.93988530954025
 30
0.0
 11
-510.6820813923217
 21
9.452636309540247
 31
0.0
  0
LINE
  5
632
330
6B
100
AcDbEntity
  8
0
 62
     2
100
AcDbLine
 10
-509.3559063923216
 20
12.03679130954025
 30
0.0
 11
-509.3559063923216
 21
9.355730309540247
 31
0.0
  0
LINE
  5
633
330
6B
100
AcDbEntity
  8
0
 62
     2
100
AcDbLine
 10
-509.3559063923216
 20
9.355730309540247
 30
0.0
 11
-509.1751073923218
 21
9.355730309540247
 31
0.0
  0
ARC
  5
634
330
6B
100
AcDbEntity
  8
0
 62
     2
100
AcDbCircle
 10
-510.0995993923216
 20
10.69626130954025
 30
0.0
 40
1.628406999999999
100
AcDbArc
 50
304.5919550000006
 51
55.40804499999937
  0
ARC
  5
635
330
6B
100
AcDbEntity
  8
0
 62
     2
100
AcDbCircle
 10
-508.7693753923216
 20
10.28171930954025
 30
0.0
 40
1.56126
100
AcDbArc
 50
270.0
 51
342.6912509999998
  0
ARC
  5
636
330
6B
100
AcDbEntity
  8
0
 62
     2
100
AcDbCircle
 10
-508.7693753923216
 20
11.11080230954025
 30
0.0
 40
1.56126
100
AcDbArc
 50
17.30874900000007
 51
90.0
  0
LINE
  5
637
330
6B
100
AcDbEntity
  8
0
 62
     2
100
AcDbLine
 10
-508.7693753923216
 20
12.67206230954025
 30
0.0
 11
-511.0966223923218
 21
12.67206230954025
 31
0.0
  0
LINE
  5
638
330
6B
100
AcDbEntity
  8
0
 62
     2
100
AcDbLine
 10
-511.0966223923218
 20
12.67206230954025
 30
0.0
 11
-511.0966223923218
 21
12.17497230954025
 31
0.0
  0
LINE
  5
639
330
6B
100
AcDbEntity
  8
0
 62
     2
100
AcDbLine
 10
-510.9171673923216
 20
12.17497230954025
 30
0.0
 11
-511.0966223923218
 21
12.17497230954025
 31
0.0
  0
ARC
  5
63A
330
6B
100
AcDbEntity
  8
0
 62
     2
100
AcDbCircle
 10
-510.9171673923216
 20
11.93988530954025
 30
0.0
 40
0.235086
100
AcDbArc
 50
0.0
 51
90.0
  0
ARC
  5
63B
330
6B
100
AcDbEntity
  8
0
 62
     2
100
AcDbCircle
 10
-513.4760903923218
 20
9.452636309540247
 30
0.0
 40
0.235086
100
AcDbArc
 50
270.0
 51
0.0
  0
LINE
  5
63C
330
6B
100
AcDbEntity
  8
0
 62
     2
100
AcDbLine
 10
-513.4760903923218
 20
9.217550309540248
 30
0.0
 11
-513.6555453923217
 21
9.217550309540248
 31
0.0
  0
LINE
  5
63D
330
6B
100
AcDbEntity
  8
0
 62
     2
100
AcDbLine
 10
-513.6555453923217
 20
9.217550309540248
 30
0.0
 11
-513.6555453923217
 21
8.720459309540249
 31
0.0
  0
LINE
  5
63E
330
6B
100
AcDbEntity
  8
0
 62
     2
100
AcDbLine
 10
-509.3559063923216
 20
12.03679130954025
 30
0.0
 11
-509.1751073923218
 21
12.03679130954025
 31
0.0
  0
ARC
  5
63F
330
6B
100
AcDbEntity
  8
0
 62
     2
100
AcDbCircle
 10
-510.0995993923216
 20
10.69626130954025
 30
0.0
 40
2.954581
100
AcDbArc
 50
342.6912509999998
 51
17.30856599999997
  0
ARC
  5
640
330
6B
100
AcDbEntity
  8
0
 62
     2
100
AcDbCircle
 10
-509.6551963923217
 20
10.94767230954025
 30
0.0
 40
2.802941
100
AcDbArc
 50
333.6752840000004
 51
19.69063499999966
  0
ARC
  5
641
330
6B
100
AcDbEntity
  8
0
 62
     2
100
AcDbCircle
 10
-503.2605113923216
 20
10.66576230954025
 30
0.0
 40
2.621769
100
AcDbArc
 50
149.3344129999993
 51
209.361467
  0
ARC
  5
642
330
6B
100
AcDbEntity
  8
0
 62
     2
100
AcDbCircle
 10
-505.4380423923216
 20
10.70325430954025
 30
0.0
 40
1.975802
100
AcDbArc
 50
210.35784
 51
143.0080790000007
  0
ARC
  5
643
330
6B
100
AcDbEntity
  8
0
 62
     2
100
AcDbCircle
 10
-507.6155733923217
 20
10.66575930954025
 30
0.0
 40
2.621769
100
AcDbArc
 50
330.3722729999993
 51
30.84052499999998
  0
ARC
  5
644
330
6B
100
AcDbEntity
  8
0
 62
     2
100
AcDbCircle
 10
-505.4367663923216
 20
11.93336230954025
 30
0.0
 40
0.105179
100
AcDbArc
 50
46.62177100000085
 51
138.5892689999997
  0
ARC
  5
645
330
6B
100
AcDbEntity
  8
0
 62
     2
100
AcDbCircle
 10
-505.4367663923216
 20
9.459159309540247
 30
0.0
 40
0.13434
100
AcDbArc
 50
215.9651230000005
 51
318.2218159999998
  0
LINE
  5
646
330
6B
100
AcDbEntity
  8
0
 62
     2
100
AcDbLine
 10
-522.4050473923218
 20
11.93987430954025
 30
0.0
 11
-522.4050903923218
 21
9.452624309540247
 31
0.0
  0
LINE
  5
647
330
6B
100
AcDbEntity
  8
0
 62
     2
100
AcDbLine
 10
-522.1700083923217
 20
9.217534309540248
 30
0.0
 11
-521.9905533923216
 21
9.217531309540248
 31
0.0
  0
ARC
  5
648
330
6B
100
AcDbEntity
  8
0
 62
     2
100
AcDbCircle
 10
-522.1700043923217
 20
9.452620309540247
 30
0.0
 40
0.235086
100
AcDbArc
 50
179.999
 51
269.9990000000003
  0
LINE
  5
649
330
6B
100
AcDbEntity
  8
0
 62
     2
100
AcDbLine
 10
-521.9905533923216
 20
9.217531309540248
 30
0.0
 11
-521.9905613923217
 21
8.720440309540251
 31
0.0
  0
LINE
  5
64A
330
6B
100
AcDbEntity
  8
0
 62
     2
100
AcDbLine
 10
-524.1458183923217
 20
8.72047730954025
 30
0.0
 11
-521.9905613923217
 21
8.720440309540251
 31
0.0
  0
LINE
  5
64B
330
6B
100
AcDbEntity
  8
0
 62
     2
100
AcDbLine
 10
-527.3031253923217
 20
11.03780030954025
 30
0.0
 11
-527.3031253923217
 21
9.452636309540247
 31
0.0
  0
ARC
  5
64C
330
6B
100
AcDbEntity
  8
0
 62
     2
100
AcDbCircle
 10
-527.0680393923217
 20
9.452636309540247
 30
0.0
 40
0.235086
100
AcDbArc
 50
180.0
 51
270.0
  0
LINE
  5
64D
330
6B
100
AcDbEntity
  8
0
 62
     2
100
AcDbLine
 10
-528.3529383923218
 20
8.720459309540249
 30
0.0
 11
-526.8885843923217
 21
8.720459309540249
 31
0.0
  0
ARC
  5
64E
330
6B
100
AcDbEntity
  8
0
 62
     2
100
AcDbCircle
 10
-520.0386943923216
 20
10.69626130954025
 30
0.0
 40
1.975802
100
AcDbArc
 50
46.75287999999889
 51
312.8231200000005
  0
ARC
  5
64F
330
6B
100
AcDbEntity
  8
0
 62
     2
100
AcDbCircle
 10
-532.6130353923216
 20
10.74278730954025
 30
0.0
 40
13.997507
100
AcDbArc
 50
353.866006
 51
357.694034
  0
LINE
  5
650
330
6B
100
AcDbEntity
  8
0
 62
     2
100
AcDbLine
 10
-519.5639943923216
 20
10.18305330954025
 30
0.0
 11
-518.6268633923218
 21
10.17958630954025
 31
0.0
  0
LINE
  5
652
330
6B
100
AcDbEntity
  8
0
 62
     2
100
AcDbLine
 10
-519.5602093923216
 20
11.20594130954025
 30
0.0
 11
-518.6230783923218
 21
11.20247330954025
 31
0.0
  0
ARC
  5
653
330
6B
100
AcDbEntity
  8
0
 62
     2
100
AcDbCircle
 10
-532.6130353923216
 20
10.74278730954025
 30
0.0
 40
13.997507
100
AcDbArc
 50
1.88196600000005
 51
5.709993999999976
  0
ARC
  5
654
330
6B
100
AcDbEntity
  8
0
 62
     2
100
AcDbCircle
 10
-522.1699603923217
 20
11.93987030954025
 30
0.0
 40
0.235086
100
AcDbArc
 50
89.99902800000048
 51
179.999
  0
LINE
  5
655
330
6B
100
AcDbEntity
  8
0
 62
     2
100
AcDbLine
 10
-521.9904923923215
 20
12.67204430954025
 30
0.0
 11
-521.9905013923217
 21
12.17495330954025
 31
0.0
  0
LINE
  5
656
330
6B
100
AcDbEntity
  8
0
 62
     2
100
AcDbLine
 10
-524.1457493923217
 20
12.67208130954025
 30
0.0
 11
-521.9904923923215
 21
12.67204430954025
 31
0.0
  0
LINE
  5
657
330
6B
100
AcDbEntity
  8
0
 62
     2
100
AcDbLine
 10
-522.1699563923217
 20
12.17495630954025
 30
0.0
 11
-521.9905013923217
 21
12.17495330954025
 31
0.0
  0
ARC
  5
658
330
6B
100
AcDbEntity
  8
0
 62
     2
100
AcDbCircle
 10
-523.9663243923216
 20
11.93988830954025
 30
0.0
 40
0.235086
100
AcDbArc
 50
359.999803
 51
89.99977399999876
  0
LINE
  5
659
330
6B
100
AcDbEntity
  8
0
 62
     2
100
AcDbLine
 10
-523.7312383923217
 20
11.93988730954025
 30
0.0
 11
-523.7312473923217
 21
9.452638309540247
 31
0.0
  0
ARC
  5
65A
330
6B
100
AcDbEntity
  8
0
 62
     2
100
AcDbCircle
 10
-523.9663503923217
 20
9.452652309540248
 30
0.0
 40
0.235086
100
AcDbArc
 50
269.9990000000003
 51
359.999
  0
LINE
  5
65B
330
6B
100
AcDbEntity
  8
0
 62
     2
100
AcDbLine
 10
-524.1458103923218
 20
9.217568309540247
 30
0.0
 11
-524.1458183923217
 21
8.72047730954025
 31
0.0
  0
LINE
  5
65C
330
6B
100
AcDbEntity
  8
0
 62
     2
100
AcDbLine
 10
-523.9663553923215
 20
9.217565309540248
 30
0.0
 11
-524.1458103923218
 21
9.217568309540247
 31
0.0
  0
LINE
  5
65D
330
6B
100
AcDbEntity
  8
0
 62
     2
100
AcDbLine
 10
-524.1457493923217
 20
12.67208130954025
 30
0.0
 11
-524.1457583923216
 21
12.17499030954025
 31
0.0
  0
LINE
  5
65E
330
6B
100
AcDbEntity
  8
0
 62
     2
100
AcDbLine
 10
-523.9663033923217
 20
12.17498730954025
 30
0.0
 11
-524.1457583923216
 21
12.17499030954025
 31
0.0
  0
LINE
  5
65F
330
6B
100
AcDbEntity
  8
0
 62
     2
100
AcDbLine
 10
-526.8885843923217
 20
9.217550309540248
 30
0.0
 11
-526.8885843923217
 21
8.720459309540249
 31
0.0
  0
LINE
  5
660
330
6B
100
AcDbEntity
  8
0
 62
     2
100
AcDbLine
 10
-527.0680393923217
 20
9.217550309540248
 30
0.0
 11
-526.8885843923217
 21
9.217550309540248
 31
0.0
  0
LINE
  5
661
330
6B
100
AcDbEntity
  8
0
 62
     2
100
AcDbLine
 10
-527.3031253923217
 20
11.03780030954025
 30
0.0
 11
-525.8547873923218
 21
8.720459309540249
 31
0.0
  0
LINE
  5
662
330
6B
100
AcDbEntity
  8
0
 62
     2
100
AcDbLine
 10
-525.8547873923218
 20
8.720459309540249
 30
0.0
 11
-524.8849663923217
 21
8.720459309540249
 31
0.0
  0
LINE
  5
663
330
6B
100
AcDbEntity
  8
0
 62
     2
100
AcDbLine
 10
-524.8849663923217
 20
11.80170530954025
 30
0.0
 11
-524.8849663923217
 21
8.720459309540249
 31
0.0
  0
ARC
  5
664
330
6B
100
AcDbEntity
  8
0
 62
     2
100
AcDbCircle
 10
-524.5116993923216
 20
11.80170530954025
 30
0.0
 40
0.373267
100
AcDbArc
 50
83.65142599999908
 51
180.0
  0
LINE
  5
665
330
6B
100
AcDbEntity
  8
0
 62
     2
100
AcDbLine
 10
-524.4704253923218
 20
12.67206230954025
 30
0.0
 11
-524.4704253923218
 21
12.17268330954025
 31
0.0
  0
LINE
  5
666
330
6B
100
AcDbEntity
  8
0
 62
     2
100
AcDbLine
 10
-525.9347793923217
 20
12.67206230954025
 30
0.0
 11
-524.4704253923218
 21
12.67206230954025
 31
0.0
  0
LINE
  5
667
330
6B
100
AcDbEntity
  8
0
 62
     2
100
AcDbLine
 10
-525.9347793923217
 20
12.67206230954025
 30
0.0
 11
-525.9347793923217
 21
12.17497230954025
 31
0.0
  0
LINE
  5
668
330
6B
100
AcDbEntity
  8
0
 62
     2
100
AcDbLine
 10
-525.9347793923217
 20
12.17497230954025
 30
0.0
 11
-525.7553243923218
 21
12.17497230954025
 31
0.0
  0
ARC
  5
669
330
6B
100
AcDbEntity
  8
0
 62
     2
100
AcDbCircle
 10
-525.7553243923218
 20
11.93988530954025
 30
0.0
 40
0.235086
100
AcDbArc
 50
0.0
 51
90.0
  0
LINE
  5
66A
330
6B
100
AcDbEntity
  8
0
 62
     2
100
AcDbLine
 10
-525.5202383923217
 20
10.88225630954025
 30
0.0
 11
-525.5202383923217
 21
11.93988530954025
 31
0.0
  0
LINE
  5
66B
330
6B
100
AcDbEntity
  8
0
 62
     2
100
AcDbLine
 10
-525.5202383923217
 20
10.88225630954025
 30
0.0
 11
-526.6947983923216
 21
12.67206230954025
 31
0.0
  0
LINE
  5
66C
330
6B
100
AcDbEntity
  8
0
 62
     2
100
AcDbLine
 10
-528.3529383923218
 20
12.67206230954025
 30
0.0
 11
-526.6947983923216
 21
12.67206230954025
 31
0.0
  0
LINE
  5
66D
330
6B
100
AcDbEntity
  8
0
 62
     2
100
AcDbLine
 10
-517.9746403923217
 20
9.452542309540248
 30
0.0
 11
-517.9746403923217
 21
11.93979130954025
 31
0.0
  0
LINE
  5
66E
330
6B
100
AcDbEntity
  8
0
 62
     2
100
AcDbLine
 10
-518.3200923923217
 20
12.67196930954025
 30
0.0
 11
-516.3030153923217
 21
12.67196930954025
 31
0.0
  0
ARC
  5
66F
330
6B
100
AcDbEntity
  8
0
 62
     2
100
AcDbCircle
 10
-518.1406373923216
 20
11.93979130954025
 30
0.0
 40
0.165996
100
AcDbArc
 50
0.0
 51
90.0
  0
LINE
  5
670
330
6B
100
AcDbEntity
  8
0
 62
     2
100
AcDbLine
 10
-518.1406373923216
 20
12.10578730954025
 30
0.0
 11
-518.3200923923217
 21
12.10578730954025
 31
0.0
  0
LINE
  5
671
330
6B
100
AcDbEntity
  8
0
 62
     2
100
AcDbLine
 10
-518.3200923923217
 20
12.10578730954025
 30
0.0
 11
-518.3200923923217
 21
12.67196930954025
 31
0.0
  0
ARC
  5
672
330
6B
100
AcDbEntity
  8
0
 62
     2
100
AcDbCircle
 10
-518.1406373923216
 20
9.452542309540248
 30
0.0
 40
0.165996
100
AcDbArc
 50
270.0
 51
0.0
  0
LINE
  5
673
330
6B
100
AcDbEntity
  8
0
 62
     2
100
AcDbLine
 10
-518.1406373923216
 20
9.286546309540247
 30
0.0
 11
-518.3200923923217
 21
9.286546309540247
 31
0.0
  0
LINE
  5
674
330
6B
100
AcDbEntity
  8
0
 62
     2
100
AcDbLine
 10
-518.3200923923217
 20
8.720365309540246
 30
0.0
 11
-518.3200923923217
 21
9.286546309540247
 31
0.0
  0
LINE
  5
675
330
6B
100
AcDbEntity
  8
0
 62
     2
100
AcDbLine
 10
-518.3200923923217
 20
8.720365309540246
 30
0.0
 11
-516.3030153923217
 21
8.720365309540246
 31
0.0
  0
ARC
  5
676
330
6B
100
AcDbEntity
  8
0
 62
     2
100
AcDbCircle
 10
-515.9988393923216
 20
11.93979130954025
 30
0.0
 40
0.235086
100
AcDbArc
 50
0.0
 51
80.40593200000104
  0
LINE
  5
677
330
6B
100
AcDbEntity
  8
0
 62
     2
100
AcDbLine
 10
-515.9596583923216
 20
12.17159030954025
 30
0.0
 11
-516.1092043923217
 21
12.17159030954025
 31
0.0
  0
LINE
  5
678
330
6B
100
AcDbEntity
  8
0
 62
     2
100
AcDbLine
 10
-515.7637523923217
 20
11.01380230954025
 30
0.0
 11
-515.7637523923217
 21
11.93979130954025
 31
0.0
  0
LINE
  5
679
330
6B
100
AcDbEntity
  8
0
 62
     2
100
AcDbLine
 10
-515.7637523923217
 20
11.01380230954025
 30
0.0
 11
-516.6484663923218
 21
11.01380230954025
 31
0.0
  0
LINE
  5
67A
330
6B
100
AcDbEntity
  8
0
 62
     2
100
AcDbLine
 10
-515.7637523923217
 20
10.37853130954025
 30
0.0
 11
-516.6484663923218
 21
10.37853130954025
 31
0.0
  0
LINE
  5
67B
330
6B
100
AcDbEntity
  8
0
 62
     2
100
AcDbLine
 10
-515.7637523923217
 20
9.452542309540248
 30
0.0
 11
-515.7637523923217
 21
10.37853130954025
 31
0.0
  0
ARC
  5
67C
330
6B
100
AcDbEntity
  8
0
 62
     2
100
AcDbCircle
 10
-515.9988393923216
 20
9.452542309540248
 30
0.0
 40
0.235086
100
AcDbArc
 50
279.594067999999
 51
0.0
  0
LINE
  5
67D
330
6B
100
AcDbEntity
  8
0
 62
     2
100
AcDbLine
 10
-515.9596583923216
 20
9.220744309540247
 30
0.0
 11
-516.1092043923217
 21
9.220744309540247
 31
0.0
  0
LINE
  5
67E
330
6B
100
AcDbEntity
  8
0
 62
     2
100
AcDbLine
 10
-516.1092043923217
 20
9.220744309540247
 30
0.0
 11
-516.1092043923217
 21
8.720365309540246
 31
0.0
  0
LINE
  5
67F
330
6B
100
AcDbEntity
  8
0
 62
     2
100
AcDbLine
 10
-516.3030153923217
 20
9.220744309540247
 30
0.0
 11
-516.3030153923217
 21
8.720365309540246
 31
0.0
  0
LINE
  5
680
330
6B
100
AcDbEntity
  8
0
 62
     2
100
AcDbLine
 10
-516.4525613923217
 20
9.220744309540247
 30
0.0
 11
-516.3030153923217
 21
9.220744309540247
 31
0.0
  0
ARC
  5
681
330
6B
100
AcDbEntity
  8
0
 62
     2
100
AcDbCircle
 10
-516.4133803923217
 20
9.452542309540248
 30
0.0
 40
0.235086
100
AcDbArc
 50
180.0
 51
260.405932000001
  0
LINE
  5
682
330
6B
100
AcDbEntity
  8
0
 62
     2
100
AcDbLine
 10
-516.6484663923218
 20
9.452542309540248
 30
0.0
 11
-516.6484663923218
 21
10.37853130954025
 31
0.0
  0
LINE
  5
683
330
6B
100
AcDbEntity
  8
0
 62
     2
100
AcDbLine
 10
-516.6484663923218
 20
11.01380230954025
 30
0.0
 11
-516.6484663923218
 21
11.93979130954025
 31
0.0
  0
ARC
  5
684
330
6B
100
AcDbEntity
  8
0
 62
     2
100
AcDbCircle
 10
-516.4133803923217
 20
11.93979130954025
 30
0.0
 40
0.235086
100
AcDbArc
 50
99.59406799999896
 51
180.0
  0
LINE
  5
685
330
6B
100
AcDbEntity
  8
0
 62
     2
100
AcDbLine
 10
-516.4525613923217
 20
12.17159030954025
 30
0.0
 11
-516.3030153923217
 21
12.17159030954025
 31
0.0
  0
LINE
  5
686
330
6B
100
AcDbEntity
  8
0
 62
     2
100
AcDbLine
 10
-516.3030153923217
 20
12.17159030954025
 30
0.0
 11
-516.3030153923217
 21
12.67196930954025
 31
0.0
  0
LINE
  5
687
330
6B
100
AcDbEntity
  8
0
 62
     2
100
AcDbLine
 10
-516.1092043923217
 20
12.17159030954025
 30
0.0
 11
-516.1092043923217
 21
12.67196930954025
 31
0.0
  0
LINE
  5
688
330
6B
100
AcDbEntity
  8
0
 62
     2
100
AcDbLine
 10
-528.3529383923218
 20
9.217550309540248
 30
0.0
 11
-528.3529383923218
 21
8.720459309540249
 31
0.0
  0
LINE
  5
689
330
6B
100
AcDbEntity
  8
0
 62
     2
100
AcDbLine
 10
-527.9383973923216
 20
11.93988530954025
 30
0.0
 11
-527.9383973923216
 21
9.452636309540247
 31
0.0
  0
ARC
  5
68A
330
6B
100
AcDbEntity
  8
0
 62
     2
100
AcDbCircle
 10
-528.1734833923215
 20
9.452636309540247
 30
0.0
 40
0.235086
100
AcDbArc
 50
270.0
 51
0.0
  0
LINE
  5
68B
330
6B
100
AcDbEntity
  8
0
 62
     2
100
AcDbLine
 10
-528.1734833923215
 20
9.217550309540248
 30
0.0
 11
-528.3529383923218
 21
9.217550309540248
 31
0.0
  0
ARC
  5
68C
330
6B
100
AcDbEntity
  8
0
 62
     2
100
AcDbCircle
 10
-528.1734833923215
 20
11.93988530954025
 30
0.0
 40
0.235086
100
AcDbArc
 50
0.0
 51
90.0
  0
LINE
  5
68D
330
6B
100
AcDbEntity
  8
0
 62
     2
100
AcDbLine
 10
-528.3529383923218
 20
12.67206230954025
 30
0.0
 11
-528.3529383923218
 21
12.17497230954025
 31
0.0
  0
LINE
  5
68E
330
6B
100
AcDbEntity
  8
0
 62
     2
100
AcDbLine
 10
-528.1734833923215
 20
12.17497230954025
 30
0.0
 11
-528.3529383923218
 21
12.17497230954025
 31
0.0
  0
LINE
  5
9C0
330
6B
100
AcDbEntity
  8
0
 62
     3
100
AcDbLine
 10
-664.6140773923217
 20
143.5725993095402
 30
0.0
 11
-664.6140773923217
 21
-130.4274006904597
 31
0.0
  0
LINE
  5
9C1
330
6B
100
AcDbEntity
  8
0
 62
     3
100
AcDbLine
 10
-274.6140773923217
 20
-130.4274006904597
 30
0.0
 11
-274.6140773923217
 21
143.5725993095402
 31
0.0
  0
LINE
  5
9C3
330
6B
100
AcDbEntity
  8
0
 62
     3
100
AcDbLine
 10
-664.6140773923217
 20
-130.4274006904597
 30
0.0
 11
-274.6140773923217
 21
-130.4274006904597
 31
0.0
  0
LINE
  5
9C4
330
6B
100
AcDbEntity
  8
0
 62
     3
100
AcDbLine
 10
-486.8391879223218
 20
146.0126014495403
 30
0.0
 11
-486.2166909123217
 21
145.6876469695402
 31
0.0
  0
LINE
  5
9C5
330
6B
100
AcDbEntity
  8
0
 62
     3
100
AcDbLine
 10
-486.8391879223218
 20
140.6831293495402
 30
0.0
 11
-486.2166909123217
 21
141.0080838295403
 31
0.0
  0
LINE
  5
9C6
330
6B
100
AcDbEntity
  8
0
 62
     3
100
AcDbLine
 10
-486.2166909123217
 20
145.6876469695402
 30
0.0
 11
-486.2166909123217
 21
141.0080838295403
 31
0.0
  0
LINE
  5
9C7
330
6B
100
AcDbEntity
  8
0
 62
     3
100
AcDbLine
 10
-484.6402374523218
 20
140.6831293495402
 30
0.0
 11
-485.2627344623217
 21
141.0080838295403
 31
0.0
  0
LINE
  5
9C8
330
6B
100
AcDbEntity
  8
0
 62
     3
100
AcDbLine
 10
-485.2627344623217
 20
143.8607392795402
 30
0.0
 11
-485.2627344623217
 21
141.0080838295403
 31
0.0
  0
LINE
  5
9C9
330
6B
100
AcDbEntity
  8
0
 62
     3
100
AcDbLine
 10
-481.0090049123219
 20
146.0126014495403
 30
0.0
 11
-481.6315019123218
 21
145.6876469695402
 31
0.0
  0
LINE
  5
9CA
330
6B
100
AcDbEntity
  8
0
 62
     3
100
AcDbLine
 10
-483.2079553823217
 20
146.0126014495403
 30
0.0
 11
-482.5854583723216
 21
145.6876469695402
 31
0.0
  0
LINE
  5
9CB
330
6B
100
AcDbEntity
  8
0
 62
     3
100
AcDbLine
 10
-482.5854583723216
 20
145.6876469695402
 30
0.0
 11
-482.5854583723216
 21
143.6271654495402
 31
0.0
  0
LINE
  5
9CC
330
6B
100
AcDbEntity
  8
0
 62
     3
100
AcDbLine
 10
-481.6315019123218
 20
145.6876469695402
 30
0.0
 11
-481.6315019123218
 21
140.3808991395402
 31
0.0
  0
LINE
  5
9CD
330
6B
100
AcDbEntity
  8
0
 62
     3
100
AcDbLine
 10
-480.7014374723218
 20
146.0125976995402
 30
0.0
 11
-480.0789427123218
 21
145.6876389295402
 31
0.0
  0
LINE
  5
9CE
330
6B
100
AcDbEntity
  8
0
 62
     3
100
AcDbLine
 10
-480.7015488623218
 20
140.6832007395402
 30
0.0
 11
-480.0790405123217
 21
141.0081334895402
 31
0.0
  0
LINE
  5
9CF
330
6B
100
AcDbEntity
  8
0
 62
     3
100
AcDbLine
 10
-480.0789427123218
 20
145.6876389295402
 30
0.0
 11
-480.0789427123218
 21
141.0081334895402
 31
0.0
  0
LINE
  5
9D0
330
6B
100
AcDbEntity
  8
0
 62
     3
100
AcDbLine
 10
-477.9449569123218
 20
146.0125638795402
 30
0.0
 11
-478.5674584723217
 21
145.6876181195402
 31
0.0
  0
LINE
  5
9D1
330
6B
100
AcDbEntity
  8
0
 62
     3
100
AcDbLine
 10
-478.5674584723217
 20
145.6876181195402
 30
0.0
 11
-478.5674584723217
 21
141.0081126795402
 31
0.0
  0
LINE
  5
9D2
330
6B
100
AcDbEntity
  8
0
 62
     3
100
AcDbLine
 10
-477.9449569123218
 20
140.6831669195402
 30
0.0
 11
-478.5674584723217
 21
141.0081126795402
 31
0.0
  0
LINE
  5
9D3
330
6B
100
AcDbEntity
  8
0
 62
     3
100
AcDbLine
 10
-472.6731662823218
 20
146.0125053095402
 30
0.0
 11
-472.0506704023217
 21
145.6875486895402
 31
0.0
  0
LINE
  5
9D4
330
6B
100
AcDbEntity
  8
0
 62
     3
100
AcDbLine
 10
-472.0506704023217
 20
145.6875486895402
 30
0.0
 11
-472.0507520723217
 21
141.0080432395402
 31
0.0
  0
LINE
  5
9D5
330
6B
100
AcDbEntity
  8
0
 62
     3
100
AcDbLine
 10
-472.6732593023219
 20
140.6831083495402
 30
0.0
 11
-472.0507520723217
 21
141.0080432395402
 31
0.0
  0
LINE
  5
9D6
330
6B
100
AcDbEntity
  8
0
 62
     3
100
AcDbLine
 10
-469.8842220423219
 20
146.0125053095402
 30
0.0
 11
-470.5067179323219
 21
145.6875486895402
 31
0.0
  0
LINE
  5
9D7
330
6B
100
AcDbEntity
  8
0
 62
     3
100
AcDbLine
 10
-469.8841290323217
 20
140.6831083495402
 30
0.0
 11
-470.5066362623218
 21
141.0080432395402
 31
0.0
  0
LINE
  5
9D8
330
6B
100
AcDbEntity
  8
0
 62
     3
100
AcDbLine
 10
-469.5931822423218
 20
146.0125053095402
 30
0.0
 11
-468.9706863623218
 21
145.6875486895402
 31
0.0
  0
LINE
  5
9D9
330
6B
100
AcDbEntity
  8
0
 62
     3
100
AcDbLine
 10
-469.5932752623217
 20
140.6831083495402
 30
0.0
 11
-468.9707680323217
 21
141.0080432395402
 31
0.0
  0
LINE
  5
9DA
330
6B
100
AcDbEntity
  8
0
 62
     3
100
AcDbLine
 10
-466.8042380123218
 20
146.0125053095402
 30
0.0
 11
-467.4267338923217
 21
145.6875486895402
 31
0.0
  0
LINE
  5
9DB
330
6B
100
AcDbEntity
  8
0
 62
     3
100
AcDbLine
 10
-467.4267338923217
 20
145.6875486895402
 30
0.0
 11
-467.4266522223217
 21
141.0080432395402
 31
0.0
  0
LINE
  5
9DC
330
6B
100
AcDbEntity
  8
0
 62
     3
100
AcDbLine
 10
-466.8041449923219
 20
140.6831083495402
 30
0.0
 11
-467.4266522223217
 21
141.0080432395402
 31
0.0
  0
LINE
  5
9DD
330
6B
100
AcDbEntity
  8
0
 62
     3
100
AcDbLine
 10
-468.9707219423218
 20
143.6487870895403
 30
0.0
 11
-470.5066823523218
 21
143.6487870895403
 31
0.0
  0
LINE
  5
9DE
330
6B
100
AcDbEntity
  8
0
 62
     3
100
AcDbLine
 10
-468.9707324423217
 20
143.0469437095402
 30
0.0
 11
-470.5066718523218
 21
143.0469437095402
 31
0.0
  0
LINE
  5
9DF
330
6B
100
AcDbEntity
  8
0
 62
     3
100
AcDbLine
 10
-468.9706863623218
 20
145.6875486895402
 30
0.0
 11
-468.9707219423218
 21
143.6487870895403
 31
0.0
  0
LINE
  5
9E0
330
6B
100
AcDbEntity
  8
0
 62
     3
100
AcDbLine
 10
-468.9707324423217
 20
143.0469437095402
 30
0.0
 11
-468.9707680323217
 21
141.0080432395402
 31
0.0
  0
LINE
  5
9E1
330
6B
100
AcDbEntity
  8
0
 62
     3
100
AcDbLine
 10
-470.5067179323219
 20
145.6875486895402
 30
0.0
 11
-470.5066823523218
 21
143.6487870895403
 31
0.0
  0
LINE
  5
9E2
330
6B
100
AcDbEntity
  8
0
 62
     3
100
AcDbLine
 10
-470.5066718523218
 20
143.0469437095402
 30
0.0
 11
-470.5066362623218
 21
141.0080432395402
 31
0.0
  0
LINE
  5
9E3
330
6B
100
AcDbEntity
  8
0
 62
     3
100
AcDbLine
 10
-466.5085821223217
 20
146.0125053095402
 30
0.0
 11
-465.8860862323217
 21
145.6875486895402
 31
0.0
  0
LINE
  5
9E4
330
6B
100
AcDbEntity
  8
0
 62
     3
100
AcDbLine
 10
-465.8860862323217
 20
145.6875486895402
 30
0.0
 11
-465.8861679123218
 21
141.0080432395402
 31
0.0
  0
LINE
  5
9E5
330
6B
100
AcDbEntity
  8
0
 62
     3
100
AcDbLine
 10
-466.5086751423217
 20
140.6831083495402
 30
0.0
 11
-465.8861679123218
 21
141.0080432395402
 31
0.0
  0
LINE
  5
9E6
330
6B
100
AcDbEntity
  8
0
 62
     3
100
AcDbLine
 10
-463.7521388823218
 20
146.0125053095402
 30
0.0
 11
-464.3746347723218
 21
145.6875486895402
 31
0.0
  0
LINE
  5
9E7
330
6B
100
AcDbEntity
  8
0
 62
     3
100
AcDbLine
 10
-464.3746347723218
 20
145.6875486895402
 30
0.0
 11
-464.3745530923218
 21
141.0080432395402
 31
0.0
  0
LINE
  5
9E8
330
6B
100
AcDbEntity
  8
0
 62
     3
100
AcDbLine
 10
-463.7520458623217
 20
140.6831083495402
 30
0.0
 11
-464.3745530923218
 21
141.0080432395402
 31
0.0
  0
LINE
  5
9E9
330
6B
100
AcDbEntity
  8
0
 62
     3
100
AcDbLine
 10
-463.4459109323218
 20
146.0125053095402
 30
0.0
 11
-462.8234150423218
 21
145.6875486895402
 31
0.0
  0
LINE
  5
9EA
330
6B
100
AcDbEntity
  8
0
 62
     3
100
AcDbLine
 10
-462.8234150423218
 20
145.6875486895402
 30
0.0
 11
-462.8234967123217
 21
141.0080432395402
 31
0.0
  0
LINE
  5
9EB
330
6B
100
AcDbEntity
  8
0
 62
     3
100
AcDbLine
 10
-463.4460039423218
 20
140.6831083495402
 30
0.0
 11
-462.8234967123217
 21
141.0080432395402
 31
0.0
  0
ARC
  5
9EC
330
6B
100
AcDbEntity
  8
0
 62
     3
100
AcDbCircle
 10
-474.6616109523218
 20
143.3612793395402
 30
0.0
 40
2.98040844
100
AcDbArc
 50
97.70152351000369
 51
270.0
  0
ARC
  5
9ED
330
6B
100
AcDbEntity
  8
0
 62
     3
100
AcDbCircle
 10
-456.2607526123217
 20
143.3313412995402
 30
0.0
 40
3.012776259999998
100
AcDbArc
 50
0.3142502699992948
 51
69.00558244999635
  0
ARC
  5
9EE
330
6B
100
AcDbEntity
  8
0
 62
     3
100
AcDbCircle
 10
-455.6026450023217
 20
143.3313412995402
 30
0.0
 40
3.012776259999998
100
AcDbArc
 50
110.9944175500036
 51
148.1166110200014
  0
ARC
  5
9EF
330
6B
100
AcDbEntity
  8
0
 62
     3
100
AcDbCircle
 10
-456.2607526123217
 20
143.3643894995402
 30
0.0
 40
3.012776259999998
100
AcDbArc
 50
290.9944175500036
 51
359.6857497300007
  0
ARC
  5
9F0
330
6B
100
AcDbEntity
  8
0
 62
     3
100
AcDbCircle
 10
-455.6026450023217
 20
143.3643894995402
 30
0.0
 40
3.012776259999998
100
AcDbArc
 50
211.8833889799985
 51
249.0055824499964
  0
ARC
  5
9F1
330
6B
100
AcDbEntity
  8
0
 62
     3
100
AcDbCircle
 10
-455.9316988023217
 20
144.5804445295403
 30
0.0
 40
1.73438712
100
AcDbArc
 50
64.36517189999993
 51
115.6348281
  0
ARC
  5
9F2
330
6B
100
AcDbEntity
  8
0
 62
     3
100
AcDbCircle
 10
-455.9316988023217
 20
142.1152862695402
 30
0.0
 40
1.73438712
100
AcDbArc
 50
244.3651718999999
 51
295.6348281
  0
ARC
  5
9F3
330
6B
100
AcDbEntity
  8
0
 62
     3
100
AcDbCircle
 10
-455.9316988023217
 20
144.6133897895402
 30
0.0
 40
0.85122233
100
AcDbArc
 50
19.48660554000132
 51
160.5133944599986
  0
ARC
  5
9F4
330
6B
100
AcDbEntity
  8
0
 62
     3
100
AcDbCircle
 10
-455.9316988023217
 20
142.1152862695402
 30
0.0
 40
1.73438712
100
AcDbArc
 50
244.3651718999999
 51
295.6348281
  0
ARC
  5
9F5
330
6B
100
AcDbEntity
  8
0
 62
     3
100
AcDbCircle
 10
-455.9316988023217
 20
142.0823410095402
 30
0.0
 40
0.85122233
100
AcDbArc
 50
199.4866055400013
 51
340.5133944599987
  0
ARC
  5
9F6
330
6B
100
AcDbEntity
  8
0
 62
     3
100
AcDbCircle
 10
-462.7066595223218
 20
111.5934941995402
 30
0.0
 40
37.20000000000001
100
AcDbArc
 50
69.50571480000154
 51
81.68998807000383
  0
ARC
  5
9F7
330
6B
100
AcDbEntity
  8
0
 62
     3
100
AcDbCircle
 10
-462.7066595223218
 20
175.1022365995401
 30
0.0
 40
37.20000000000001
100
AcDbArc
 50
278.3100119299961
 51
290.4942851999985
  0
ARC
  5
9F8
330
6B
100
AcDbEntity
  8
0
 62
     3
100
AcDbCircle
 10
-450.8377964823218
 20
143.3478653995402
 30
0.0
 40
3.299999999999998
100
AcDbArc
 50
290.4942851999985
 51
69.50571480000154
  0
ARC
  5
9F9
330
6B
100
AcDbEntity
  8
0
 62
     3
100
AcDbCircle
 10
-489.8377964823217
 20
143.3478653995402
 30
0.0
 40
3.299999999999998
100
AcDbArc
 50
110.4942851999985
 51
249.5057148000015
  0
ARC
  5
9FA
330
6B
100
AcDbEntity
  8
0
 62
     3
100
AcDbCircle
 10
-477.9689334523218
 20
111.5934941995402
 30
0.0
 40
37.20000000000001
100
AcDbArc
 50
98.31001192999615
 51
110.4942851999985
  0
ARC
  5
9FB
330
6B
100
AcDbEntity
  8
0
 62
     3
100
AcDbCircle
 10
-477.9689334523218
 20
175.1022365995401
 30
0.0
 40
37.20000000000001
100
AcDbArc
 50
249.5057148000015
 51
261.6899880700039
  0
ARC
  5
9FC
330
6B
100
AcDbEntity
  8
0
 62
     3
100
AcDbCircle
 10
-470.3377964823218
 20
59.34786539954018
 30
0.0
 40
89.99999981
100
AcDbArc
 50
81.68998807000383
 51
98.31001192999615
  0
ARC
  5
9FD
330
6B
100
AcDbEntity
  8
0
 62
     3
100
AcDbCircle
 10
-470.3377964823218
 20
227.3478653995402
 30
0.0
 40
89.99999981
100
AcDbArc
 50
261.6899880700039
 51
278.3100119299961
  0
ARC
  5
9FE
330
6B
100
AcDbEntity
  8
0
 62
     3
100
AcDbCircle
 10
-470.3377964823218
 20
59.34786539954018
 30
0.0
 40
89.09999981
100
AcDbArc
 50
81.68998807000383
 51
98.31001192999615
  0
ARC
  5
9FF
330
6B
100
AcDbEntity
  8
0
 62
     3
100
AcDbCircle
 10
-470.3377964823218
 20
227.3478653995402
 30
0.0
 40
89.09999981
100
AcDbArc
 50
261.6899880700039
 51
278.3100119299961
  0
ARC
  5
A00
330
6B
100
AcDbEntity
  8
0
 62
     3
100
AcDbCircle
 10
-462.7066595223218
 20
175.1022365995401
 30
0.0
 40
36.3
100
AcDbArc
 50
278.3100119299961
 51
290.4942851999985
  0
ARC
  5
A01
330
6B
100
AcDbEntity
  8
0
 62
     3
100
AcDbCircle
 10
-462.7066595223218
 20
111.5934941995402
 30
0.0
 40
36.3
100
AcDbArc
 50
69.50571480000154
 51
81.68998807000383
  0
ARC
  5
A02
330
6B
100
AcDbEntity
  8
0
 62
     3
100
AcDbCircle
 10
-450.8377964823218
 20
143.3478653995402
 30
0.0
 40
2.399999999999999
100
AcDbArc
 50
290.4942851999985
 51
69.50571480000154
  0
ARC
  5
A03
330
6B
100
AcDbEntity
  8
0
 62
     3
100
AcDbCircle
 10
-489.8377964823217
 20
143.3478653995402
 30
0.0
 40
2.399999999999999
100
AcDbArc
 50
110.4942851999985
 51
249.5057148000015
  0
ARC
  5
A04
330
6B
100
AcDbEntity
  8
0
 62
     3
100
AcDbCircle
 10
-477.9689334523218
 20
111.5934941995402
 30
0.0
 40
36.3
100
AcDbArc
 50
98.31001192999615
 51
110.4942851999985
  0
ARC
  5
A05
330
6B
100
AcDbEntity
  8
0
 62
     3
100
AcDbCircle
 10
-477.9689334523218
 20
175.1022365995401
 30
0.0
 40
36.3
100
AcDbArc
 50
249.5057148000015
 51
261.6899880700039
  0
LINE
  5
A06
330
6B
100
AcDbEntity
  8
0
 62
     3
100
AcDbLine
 10
-463.7521377623218
 20
140.3808991395402
 30
0.0
 11
-466.5085832423217
 21
140.3808991395402
 31
0.0
  0
LINE
  5
A07
330
6B
100
AcDbEntity
  8
0
 62
     3
100
AcDbLine
 10
-463.7521377623218
 20
140.6831293495402
 30
0.0
 11
-463.7521377623218
 21
140.3808991395402
 31
0.0
  0
LINE
  5
A08
330
6B
100
AcDbEntity
  8
0
 62
     3
100
AcDbLine
 10
-466.8042368923217
 20
146.3146906295402
 30
0.0
 11
-469.5931833623218
 21
146.3146906295402
 31
0.0
  0
LINE
  5
A09
330
6B
100
AcDbEntity
  8
0
 62
     3
100
AcDbLine
 10
-466.8042368923217
 20
146.3146906295402
 30
0.0
 11
-466.8042368923217
 21
146.0126014495403
 31
0.0
  0
LINE
  5
A0A
330
6B
100
AcDbEntity
  8
0
 62
     3
100
AcDbLine
 10
-466.8042368923217
 20
140.6831293495402
 30
0.0
 11
-466.8042368923217
 21
140.3807581195402
 31
0.0
  0
LINE
  5
A0B
330
6B
100
AcDbEntity
  8
0
 62
     3
100
AcDbLine
 10
-466.8042368923217
 20
140.3807581195402
 30
0.0
 11
-469.5931833623218
 21
140.3807581195402
 31
0.0
  0
LINE
  5
A0C
330
6B
100
AcDbEntity
  8
0
 62
     3
100
AcDbLine
 10
-463.7521377623218
 20
146.3148316595402
 30
0.0
 11
-463.7521377623218
 21
146.0126014495403
 31
0.0
  0
LINE
  5
A0D
330
6B
100
AcDbEntity
  8
0
 62
     3
100
AcDbLine
 10
-463.7521377623218
 20
146.3148316595402
 30
0.0
 11
-466.5085832423217
 21
146.3148316595402
 31
0.0
  0
LINE
  5
A0E
330
6B
100
AcDbEntity
  8
0
 62
     3
100
AcDbLine
 10
-466.5085832423217
 20
146.3148316595402
 30
0.0
 11
-466.5085832423217
 21
146.0126014495403
 31
0.0
  0
LINE
  5
A0F
330
6B
100
AcDbEntity
  8
0
 62
     3
100
AcDbLine
 10
-463.4459120523217
 20
140.6831293495402
 30
0.0
 11
-463.4459120523217
 21
140.3808991395402
 31
0.0
  0
LINE
  5
A10
330
6B
100
AcDbEntity
  8
0
 62
     3
100
AcDbLine
 10
-460.6111969623218
 20
140.3808991395402
 30
0.0
 11
-463.4459120523217
 21
140.3808991395402
 31
0.0
  0
LINE
  5
A11
330
6B
100
AcDbEntity
  8
0
 62
     3
100
AcDbLine
 10
-461.3119635723217
 20
145.3608751995402
 30
0.0
 11
-461.3119635723217
 21
141.3348555995402
 31
0.0
  0
LINE
  5
A12
330
6B
100
AcDbEntity
  8
0
 62
     3
100
AcDbLine
 10
-461.3119635723217
 20
141.3348555995402
 30
0.0
 11
-461.0404650523218
 21
141.3348555995402
 31
0.0
  0
ARC
  5
A13
330
6B
100
AcDbEntity
  8
0
 62
     3
100
AcDbCircle
 10
-462.4287303923217
 20
143.3478653995402
 30
0.0
 40
2.44529939
100
AcDbArc
 50
304.591955269996
 51
55.40804473000399
  0
LINE
  5
A14
330
6B
100
AcDbEntity
  8
0
 62
     3
100
AcDbLine
 10
-460.6111969623218
 20
146.3148316595402
 30
0.0
 11
-463.4459120523217
 21
146.3148316595402
 31
0.0
  0
LINE
  5
A15
330
6B
100
AcDbEntity
  8
0
 62
     3
100
AcDbLine
 10
-463.4459120523217
 20
146.3148316595402
 30
0.0
 11
-463.4459120523217
 21
146.0126014495403
 31
0.0
  0
LINE
  5
A16
330
6B
100
AcDbEntity
  8
0
 62
     3
100
AcDbLine
 10
-466.5085832423217
 20
140.6831293495402
 30
0.0
 11
-466.5085832423217
 21
140.3808991395402
 31
0.0
  0
LINE
  5
A17
330
6B
100
AcDbEntity
  8
0
 62
     3
100
AcDbLine
 10
-461.3119635723217
 20
145.3608751995402
 30
0.0
 11
-461.0404650523218
 21
145.3608751995402
 31
0.0
  0
LINE
  5
A18
330
6B
100
AcDbEntity
  8
0
 62
     3
100
AcDbLine
 10
-477.9450488123218
 20
140.6831293495402
 30
0.0
 11
-477.9450540823217
 21
140.3808708995402
 31
0.0
  0
LINE
  5
A19
330
6B
100
AcDbEntity
  8
0
 62
     3
100
AcDbLine
 10
-480.7014995623218
 20
140.3809273895402
 30
0.0
 11
-477.9450540823217
 21
140.3808792795402
 31
0.0
  0
LINE
  5
A1A
330
6B
100
AcDbEntity
  8
0
 62
     3
100
AcDbLine
 10
-486.8391879223218
 20
140.3808991395402
 30
0.0
 11
-484.6402374523218
 21
140.3808991395402
 31
0.0
  0
ARC
  5
A1B
330
6B
100
AcDbEntity
  8
0
 62
     3
100
AcDbCircle
 10
-493.9562488923218
 20
143.4177320095402
 30
0.0
 40
21.01937947
100
AcDbArc
 50
353.8660061899999
 51
357.6940342600001
  0
LINE
  5
A1C
330
6B
100
AcDbEntity
  8
0
 62
     3
100
AcDbLine
 10
-474.3611348023217
 20
142.5772067895402
 30
0.0
 11
-472.9538906823218
 21
142.5719998195402
 31
0.0
  0
LINE
  5
A1E
330
6B
100
AcDbEntity
  8
0
 62
     3
100
AcDbLine
 10
-474.3554513523218
 20
144.1132278495402
 30
0.0
 11
-472.9482072323217
 21
144.1080208795403
 31
0.0
  0
ARC
  5
A1F
330
6B
100
AcDbEntity
  8
0
 62
     3
100
AcDbCircle
 10
-493.9562488923218
 20
143.4177320095402
 30
0.0
 40
21.01937947
100
AcDbArc
 50
1.881965739999571
 51
5.709993809999575
  0
LINE
  5
A20
330
6B
100
AcDbEntity
  8
0
 62
     3
100
AcDbLine
 10
-477.9449505223218
 20
146.3148034095402
 30
0.0
 11
-477.9449557923217
 21
146.0126014495403
 31
0.0
  0
LINE
  5
A21
330
6B
100
AcDbEntity
  8
0
 62
     3
100
AcDbLine
 10
-480.7013960023217
 20
146.3148598995402
 30
0.0
 11
-477.9449505223218
 21
146.3148117895402
 31
0.0
  0
LINE
  5
A22
330
6B
100
AcDbEntity
  8
0
 62
     3
100
AcDbLine
 10
-480.7014942923218
 20
140.6831293495402
 30
0.0
 11
-480.7014995623218
 21
140.3809273895402
 31
0.0
  0
LINE
  5
A23
330
6B
100
AcDbEntity
  8
0
 62
     3
100
AcDbLine
 10
-480.7013960023217
 20
146.3148598995402
 30
0.0
 11
-480.7014012723217
 21
146.0126014495403
 31
0.0
  0
LINE
  5
A24
330
6B
100
AcDbEntity
  8
0
 62
     3
100
AcDbLine
 10
-484.6402374523218
 20
140.6831293495402
 30
0.0
 11
-484.6402374523218
 21
140.3808991395402
 31
0.0
  0
LINE
  5
A25
330
6B
100
AcDbEntity
  8
0
 62
     3
100
AcDbLine
 10
-485.2627344623217
 20
143.8607392795402
 30
0.0
 11
-483.0878343823218
 21
140.3808991395402
 31
0.0
  0
LINE
  5
A26
330
6B
100
AcDbEntity
  8
0
 62
     3
100
AcDbLine
 10
-483.0878343823218
 20
140.3808991395402
 30
0.0
 11
-481.6315019123218
 21
140.3808991395402
 31
0.0
  0
LINE
  5
A27
330
6B
100
AcDbEntity
  8
0
 62
     3
100
AcDbLine
 10
-481.0090049123219
 20
146.3148316595402
 30
0.0
 11
-481.0090049123219
 21
146.0126014495403
 31
0.0
  0
LINE
  5
A28
330
6B
100
AcDbEntity
  8
0
 62
     3
100
AcDbLine
 10
-483.2079553823217
 20
146.3148316595402
 30
0.0
 11
-481.0090049123219
 21
146.3148316595402
 31
0.0
  0
LINE
  5
A29
330
6B
100
AcDbEntity
  8
0
 62
     3
100
AcDbLine
 10
-483.2079553823217
 20
146.3148316595402
 30
0.0
 11
-483.2079553823217
 21
146.0126014495403
 31
0.0
  0
LINE
  5
A2A
330
6B
100
AcDbEntity
  8
0
 62
     3
100
AcDbLine
 10
-482.5854583723216
 20
143.6271654495402
 30
0.0
 11
-484.3492393123217
 21
146.3148316595402
 31
0.0
  0
LINE
  5
A2B
330
6B
100
AcDbEntity
  8
0
 62
     3
100
AcDbLine
 10
-486.8391879223218
 20
146.3148316595402
 30
0.0
 11
-484.3492393123217
 21
146.3148316595402
 31
0.0
  0
LINE
  5
A2C
330
6B
100
AcDbEntity
  8
0
 62
     3
100
AcDbLine
 10
-472.6731674023217
 20
146.3146906295402
 30
0.0
 11
-469.8842209223218
 21
146.3146906295402
 31
0.0
  0
LINE
  5
A2D
330
6B
100
AcDbEntity
  8
0
 62
     3
100
AcDbLine
 10
-472.6731674023217
 20
146.0126014495403
 30
0.0
 11
-472.6731674023217
 21
146.3146906295402
 31
0.0
  0
LINE
  5
A2E
330
6B
100
AcDbEntity
  8
0
 62
     3
100
AcDbLine
 10
-472.6731674023217
 20
140.3807581195402
 30
0.0
 11
-472.6731674023217
 21
140.6831293495402
 31
0.0
  0
LINE
  5
A2F
330
6B
100
AcDbEntity
  8
0
 62
     3
100
AcDbLine
 10
-472.6731674023217
 20
140.3807581195402
 30
0.0
 11
-469.8842209223218
 21
140.3807581195402
 31
0.0
  0
LINE
  5
A30
330
6B
100
AcDbEntity
  8
0
 62
     3
100
AcDbLine
 10
-469.5931833623218
 20
140.6831293495402
 30
0.0
 11
-469.5931833623218
 21
140.3807581195402
 31
0.0
  0
LINE
  5
A31
330
6B
100
AcDbEntity
  8
0
 62
     3
100
AcDbLine
 10
-469.8842209223218
 20
140.6831293495402
 30
0.0
 11
-469.8842209223218
 21
140.3807581195402
 31
0.0
  0
LINE
  5
A32
330
6B
100
AcDbEntity
  8
0
 62
     3
100
AcDbLine
 10
-469.8842209223218
 20
146.0126014495403
 30
0.0
 11
-469.8842209223218
 21
146.3146906295402
 31
0.0
  0
LINE
  5
A33
330
6B
100
AcDbEntity
  8
0
 62
     3
100
AcDbLine
 10
-469.5931833623218
 20
146.0126014495403
 30
0.0
 11
-469.5931833623218
 21
146.3146906295402
 31
0.0
  0
LINE
  5
A34
330
6B
100
AcDbEntity
  8
0
 62
     3
100
AcDbLine
 10
-486.8391879223218
 20
140.6831293495402
 30
0.0
 11
-486.8391879223218
 21
140.3808991395402
 31
0.0
  0
LINE
  5
A35
330
6B
100
AcDbEntity
  8
0
 62
     3
100
AcDbLine
 10
-486.8391879223218
 20
146.3148316595402
 30
0.0
 11
-486.8391879223218
 21
146.0126014495403
 31
0.0
  0
ARC
  5
A36
330
6B
100
AcDbEntity
  8
0
 62
     3
100
AcDbCircle
 10
-460.3111969623218
 20
143.9703624095402
 30
0.0
 40
2.344469249999999
100
AcDbArc
 50
17.30874897999955
 51
23.76507095999893
  0
ARC
  5
A37
330
6B
100
AcDbEntity
  8
0
 62
     3
100
AcDbCircle
 10
-462.3087303923218
 20
143.3478653995402
 30
0.0
 40
4.43675086
100
AcDbArc
 50
342.6912510200005
 51
17.30856644000122
  0
ARC
  5
A38
330
6B
100
AcDbEntity
  8
0
 62
     3
100
AcDbCircle
 10
-460.3111969623218
 20
142.7253683895402
 30
0.0
 40
2.344469249999999
100
AcDbArc
 50
336.2349290399984
 51
342.6912510200005
  0
ARC
  5
A39
330
6B
100
AcDbEntity
  8
0
 62
     3
100
AcDbCircle
 10
-460.6111969623218
 20
143.9703624095402
 30
0.0
 40
2.344469249999999
100
AcDbArc
 50
17.30874897999955
 51
90.0
  0
ARC
  5
A3A
330
6B
100
AcDbEntity
  8
0
 62
     3
100
AcDbCircle
 10
-462.6087303923218
 20
143.3478653995402
 30
0.0
 40
4.43675086
100
AcDbArc
 50
342.6912510200005
 51
17.30856644000122
  0
ARC
  5
A3B
330
6B
100
AcDbEntity
  8
0
 62
     3
100
AcDbCircle
 10
-460.6111969623218
 20
142.7253683895402
 30
0.0
 40
2.344469249999999
100
AcDbArc
 50
270.0
 51
342.6912510200005
  0
ARC
  5
A3C
330
6B
100
AcDbEntity
  8
0
 62
     3
100
AcDbCircle
 10
-475.0739689323218
 20
143.3478653995402
 30
0.0
 40
2.966966259999998
100
AcDbArc
 50
46.75287961000178
 51
89.74999828999569
  0
ARC
  5
A3D
330
6B
100
AcDbEntity
  8
0
 62
     3
100
AcDbCircle
 10
-475.0739689323218
 20
143.3478653995402
 30
0.0
 40
2.966966259999998
100
AcDbArc
 50
273.9763331499971
 51
312.8231203899991
  0
ARC
  5
A3E
330
6B
100
AcDbEntity
  8
0
 62
     3
100
AcDbCircle
 10
-458.7285290023217
 20
143.3020632195403
 30
0.0
 40
3.936984289999998
100
AcDbArc
 50
0.6665840599997753
 51
23.90392827000101
  0
ARC
  5
A3F
330
6B
100
AcDbEntity
  8
0
 62
     3
100
AcDbCircle
 10
-453.1348686123218
 20
143.3020632195403
 30
0.0
 40
3.936984289999998
100
AcDbArc
 50
156.096071729999
 51
179.3334159400002
  0
ARC
  5
A40
330
6B
100
AcDbEntity
  8
0
 62
     3
100
AcDbCircle
 10
-458.7285290023217
 20
143.3936675795402
 30
0.0
 40
3.936984289999998
100
AcDbArc
 50
336.096071729999
 51
359.3334159400003
  0
ARC
  5
A41
330
6B
100
AcDbEntity
  8
0
 62
     3
100
AcDbCircle
 10
-453.1348686123218
 20
143.3936675795402
 30
0.0
 40
3.936984289999998
100
AcDbArc
 50
180.6665840599997
 51
203.903928270001
  0
LINE
  5
A42
330
6B
100
AcDbEntity
  8
0
 62
     3
100
AcDbLine
 10
-445.9573522123218
 20
143.5725993095402
 30
0.0
 11
-274.6140773923219
 21
143.5725993095402
 31
0.0
  0
LINE
  5
A43
330
6B
100
AcDbEntity
  8
0
 62
     3
100
AcDbLine
 10
-494.5113868823217
 20
143.5725993095402
 30
0.0
 11
-664.6140773923217
 21
143.5725993095402
 31
0.0
  0
LINE
  5
A44
330
6B
100
AcDbEntity
  8
0
 62
     3
100
AcDbLine
 10
-677.0160011823218
 20
10.01723825954022
 30
0.0
 11
-679.6140773923219
 21
8.517238259540221
 31
0.0
  0
LINE
  5
A45
330
6B
100
AcDbEntity
  8
0
 62
     3
100
AcDbLine
 10
-677.0160011823218
 20
10.01723825954022
 30
0.0
 11
-679.6140773923219
 21
11.51723825954022
 31
0.0
  0
LINE
  5
A46
330
6B
100
AcDbEntity
  8
0
 62
     3
100
AcDbLine
 10
-679.6140773923219
 20
8.517238259540221
 30
0.0
 11
-679.6140773923219
 21
11.51723825954022
 31
0.0
  0
LINE
  5
A49
330
6B
100
AcDbEntity
  8
0
 62
     3
100
AcDbLine
 10
-326.6140773923217
 20
-130.4274006904597
 30
0.0
 11
-326.6140773923217
 21
-90.42740069045974
 31
0.0
  0
LINE
  5
A4A
330
6B
100
AcDbEntity
  8
0
 62
     3
100
AcDbLine
 10
-313.6140773923218
 20
-120.4274006904597
 30
0.0
 11
-313.6140773923218
 21
-92.42740069045973
 31
0.0
  0
LINE
  5
A4B
330
6B
100
AcDbEntity
  8
0
 62
     3
100
AcDbLine
 10
-353.6140773923218
 20
-120.4274006904597
 30
0.0
 11
-353.6140773923218
 21
-106.4274006904597
 31
0.0
  0
LINE
  5
A4C
330
6B
100
AcDbEntity
  8
0
 62
     3
100
AcDbLine
 10
-343.6140773923217
 20
-106.4274006904597
 30
0.0
 11
-343.6140773923217
 21
-130.4274006904597
 31
0.0
  0
LINE
  5
A4D
330
6B
100
AcDbEntity
  8
0
 62
     3
100
AcDbLine
 10
-372.6140773923217
 20
-90.42740069045974
 30
0.0
 11
-372.6140773923217
 21
-113.4274006904597
 31
0.0
  0
LINE
  5
A4E
330
6B
100
AcDbEntity
  8
0
 62
     3
100
AcDbLine
 10
-313.6140773923218
 20
-92.42740069045973
 30
0.0
 11
-313.6140773923218
 21
-90.42740069045974
 31
0.0
  0
LINE
  5
A4F
330
6B
100
AcDbEntity
  8
0
 62
     3
100
AcDbLine
 10
-300.6140773923217
 20
-113.4274006904597
 30
0.0
 11
-300.6140773923217
 21
-90.42740069045974
 31
0.0
  0
LINE
  5
A50
330
6B
100
AcDbEntity
  8
0
 62
     3
100
AcDbLine
 10
-274.6140773923217
 20
-90.42740069045974
 30
0.0
 11
-385.8595120323217
 21
-90.42740069045974
 31
0.0
  0
LINE
  5
A51
330
6B
100
AcDbEntity
  8
0
 62
     3
100
AcDbLine
 10
-274.6140773923217
 20
-99.42740069045974
 30
0.0
 11
-385.8595120323217
 21
-99.42740069045974
 31
0.0
  0
LINE
  5
A52
330
6B
100
AcDbEntity
  8
0
 62
     3
100
AcDbLine
 10
-274.6140773923217
 20
-113.4274006904597
 30
0.0
 11
-385.8595120323217
 21
-113.4274006904597
 31
0.0
  0
LINE
  5
A53
330
6B
100
AcDbEntity
  8
0
 62
     3
100
AcDbLine
 10
-274.6140773923217
 20
-120.4274006904597
 30
0.0
 11
-385.8595120323217
 21
-120.4274006904597
 31
0.0
  0
LINE
  5
A54
330
6B
100
AcDbEntity
  8
0
 62
     3
100
AcDbLine
 10
-287.6140773923217
 20
-113.4274006904597
 30
0.0
 11
-287.6140773923217
 21
-90.42740069045974
 31
0.0
  0
LINE
  5
A55
330
6B
100
AcDbEntity
  8
0
 62
     3
100
AcDbLine
 10
-385.8595120323217
 20
-90.42740069045974
 30
0.0
 11
-385.8595120323217
 21
-130.4274006904597
 31
0.0
  0
LINE
  5
A56
330
6B
100
AcDbEntity
  8
0
 62
     3
100
AcDbLine
 10
-326.6140773923217
 20
-106.4274006904597
 30
0.0
 11
-385.8595120323217
 21
-106.4274006904597
 31
0.0
  0
LINE
  5
A57
330
6B
100
AcDbEntity
  8
0
 62
     3
100
AcDbLine
 10
-343.3357524623219
 20
-125.5945394304597
 30
0.0
 11
-326.6140773923217
 21
-125.5945394304597
 31
0.0
  0
LINE
  5
A58
330
6B
100
AcDbEntity
  8
0
 62
     3
100
AcDbLine
 10
-339.6140773923217
 20
-99.42740069045974
 30
0.0
 11
-331.6140773923217
 21
-99.42740069045974
 31
0.0
  0
TEXT
  5
A5A
330
6B
100
AcDbEntity
  8
0
 62
     3
100
AcDbText
 10
-371.4177086970695
 20
-111.1295862854758
 30
0.0
 40
2.5
  1
PA6
  7
高2.5
100
AcDbText
  0
TEXT
  5
A5B
330
6B
100
AcDbEntity
  8
0
 62
     3
100
AcDbText
 10
-371.1528009423722
 20
-98.11515116670186
 30
0.0
 40
4.5
  1
万能フッカー
  7
高4.5
100
AcDbText
1001
ACAD
1000
ACAD_MTEXT_DEFINED_HEIGHT_BEGIN
1070
    46
1040
0.0
1000
ACAD_MTEXT_DEFINED_HEIGHT_END
  0
TEXT
  5
A5C
330
6B
100
AcDbEntity
  8
0
 62
     3
100
AcDbText
 10
-284.5484882988477
 20
-93.91370859175614
 30
0.0
 40
2.0
  1
DEF
  7
高2
100
AcDbText
  0
TEXT
  5
A5D
330
6B
100
AcDbEntity
  8
0
 62
     3
100
AcDbText
 10
-298.4875866525559
 20
-93.91370859175623
 30
0.0
 40
2.0
  1
DESN
  7
高2
100
AcDbText
  0
TEXT
  5
A5E
330
6B
100
AcDbEntity
  8
0
 62
     3
100
AcDbText
 10
-324.7419535925561
 20
-93.91370859175614
 30
0.0
 40
2.0
  1
APPD
  7
高2
100
AcDbText
  0
TEXT
  5
A5F
330
6B
100
AcDbEntity
  8
0
 62
     3
100
AcDbText
 10
-311.6292174923218
 20
-93.91370859175614
 30
0.0
 40
2.0
  1
CHCK
  7
高2
100
AcDbText
  0
TEXT
  5
A60
330
6B
100
AcDbEntity
  8
0
 62
     3
100
AcDbText
 10
-352.6869117531691
 20
-116.259001867229
 30
0.0
 40
2.0
  1
SCALE
 41
0.8
  7
高2
100
AcDbText
  0
TEXT
  5
A61
330
6B
100
AcDbEntity
  8
0
 62
     3
100
AcDbText
 10
-384.1749333292757
 20
-116.259001867229
 30
0.0
 40
2.0
  1
3AD　ANGLE
 41
1.5
  7
高2
100
AcDbText
  0
TEXT
  5
A62
330
6B
100
AcDbEntity
  8
0
 62
     3
100
AcDbText
 10
-353.4175060623204
 20
-109.5074637982719
 30
0.0
 40
2.0
  1
REMARKS
 41
0.7
  7
高2
100
AcDbText
  0
TEXT
  5
A63
330
6B
100
AcDbEntity
  8
0
 62
     3
100
AcDbText
 10
-384.3918416823218
 20
-109.4274006904597
 30
0.0
 40
2.0
  1
MATERIAL
 41
0.7
  7
高2
100
AcDbText
  0
TEXT
  5
A64
330
6B
100
AcDbEntity
  8
0
 62
     3
100
AcDbText
 10
-383.8153544795677
 20
-102.4274006904597
 30
0.0
 40
2.0
  1
MODEL
  7
高2
100
AcDbText
  0
TEXT
  5
A65
330
6B
100
AcDbEntity
  8
0
 62
     3
100
AcDbText
 10
-384.1784335982365
 20
-93.72037933986073
 30
0.0
 40
2.0
  1
CONPONENTS
 41
0.5
  7
高2
100
AcDbText
  0
TEXT
  5
A66
330
6B
100
AcDbEntity
  8
0
 62
     3
100
AcDbText
 10
-371.4713181270696
 20
-105.3399195626478
 30
0.0
 40
4.5
  1
BH-300SH(-□□)
 41
0.8
  7
高4.5
100
AcDbText
  0
TEXT
  5
A67
330
6B
100
AcDbEntity
  8
0
 62
     3
100
AcDbText
 10
-323.5490316617032
 20
-128.388939295094
 30
0.0
 40
6.299999999999998
  1
BH-300SH
 41
0.9
  7
高6.3
100
AcDbText
1001
ACAD
1000
ACAD_MTEXT_DEFINED_HEIGHT_BEGIN
1070
    46
1040
0.0
1000
ACAD_MTEXT_DEFINED_HEIGHT_END
  0
TEXT
  5
A68
330
6B
100
AcDbEntity
  8
0
 62
     3
100
AcDbText
 10
-310.0505676419922
 20
-119.3265115322267
 30
0.0
 40
3.2
  1
2005.8.30
  7
高3.2
100
AcDbText
1001
ACAD
1000
ACAD_MTEXT_DEFINED_HEIGHT_BEGIN
1070
    46
1040
0.0
1000
ACAD_MTEXT_DEFINED_HEIGHT_END
  0
TEXT
  5
A69
330
6B
100
AcDbEntity
  8
0
 62
     3
100
AcDbText
 10
-339.8264794976753
 20
-119.3264836878918
 30
0.0
 40
3.2
  1
FREE
  7
高3.2
100
AcDbText
  0
TEXT
  5
A6A
330
6B
100
AcDbEntity
  8
0
 62
     3
100
AcDbText
 10
-342.7491505223219
 20
-129.6105225173237
 30
0.0
 40
3.2
  1
ZK-A3X
 41
0.8
  7
高3.2
100
AcDbText
  0
TEXT
  5
A6B
330
6B
100
AcDbEntity
  8
0
 62
     3
100
AcDbText
 10
-385.0288109923218
 20
-123.9027802682719
 30
0.0
 40
2.0
  1
NICHIDO IND.CO.LTD
 41
1.3
  7
高2
100
AcDbText
  0
TEXT
  5
A6C
330
6B
100
AcDbEntity
  8
0
 62
     3
100
AcDbText
 10
-383.8472877273646
 20
-98.2868724825748
 30
0.0
 40
3.2
  1
品 名
  7
高3.2
100
AcDbText
1001
ACAD
1000
ACAD_MTEXT_DEFINED_HEIGHT_BEGIN
1070
    46
1040
0.0
1000
ACAD_MTEXT_DEFINED_HEIGHT_END
  0
TEXT
  5
A6D
330
6B
100
AcDbEntity
  8
0
 62
     3
100
AcDbText
 10
-383.8472877273646
 20
-105.9274006904597
 30
0.0
 40
3.2
  1
型 式
  7
高3.2
100
AcDbText
1001
ACAD
1000
ACAD_MTEXT_DEFINED_HEIGHT_BEGIN
1070
    46
1040
3.064735913775954
1000
ACAD_MTEXT_DEFINED_HEIGHT_END
  0
TEXT
  5
A6E
330
6B
100
AcDbEntity
  8
0
 62
     3
100
AcDbText
 10
-383.8472877273646
 20
-112.9274006904597
 30
0.0
 40
3.2
  1
材 質
  7
高3.2
100
AcDbText
1001
ACAD
1000
ACAD_MTEXT_DEFINED_HEIGHT_BEGIN
1070
    46
1040
0.0
1000
ACAD_MTEXT_DEFINED_HEIGHT_END
  0
TEXT
  5
A6F
330
6B
100
AcDbEntity
  8
0
 62
     3
100
AcDbText
 10
-384.1523226773647
 20
-119.9599606982135
 30
0.0
 40
3.2
  1
第 三 角 法
  7
高3.2
100
AcDbText
1001
ACAD
1000
ACAD_MTEXT_DEFINED_HEIGHT_BEGIN
1070
    46
1040
0.0
1000
ACAD_MTEXT_DEFINED_HEIGHT_END
  0
TEXT
  5
A70
330
6B
100
AcDbEntity
  8
0
 62
     3
100
AcDbText
 10
-385.7457900698358
 20
-129.2868724825748
 30
0.0
 40
3.2
  1
日動工業株式会社
 41
1.199999999999999
  7
高3.2
100
AcDbText
1001
ACAD
1000
ACAD_MTEXT_DEFINED_HEIGHT_BEGIN
1070
    46
1040
0.0
1000
ACAD_MTEXT_DEFINED_HEIGHT_END
  0
TEXT
  5
A71
330
6B
100
AcDbEntity
  8
0
 62
     3
100
AcDbText
 10
-352.1101658703573
 20
-113.0428221572921
 30
0.0
 40
3.2
  1
備考
  7
高3.2
100
AcDbText
1001
ACAD
1000
ACAD_MTEXT_DEFINED_HEIGHT_BEGIN
1070
    46
1040
0.0
1000
ACAD_MTEXT_DEFINED_HEIGHT_END
  0
TEXT
  5
A72
330
6B
100
AcDbEntity
  8
0
 62
     3
100
AcDbText
 10
-342.4611084233219
 20
-124.2811706648894
 30
0.0
 40
2.5
  1
出図コード
  7
高2.5
100
AcDbText
1001
ACAD
1000
ACAD_MTEXT_DEFINED_HEIGHT_BEGIN
1070
    46
1040
0.0
1000
ACAD_MTEXT_DEFINED_HEIGHT_END
  0
TEXT
  5
A73
330
6B
100
AcDbEntity
  8
0
 62
     3
100
AcDbText
 10
-352.2689319884447
 20
-119.9741657800468
 30
0.0
 40
3.2
  1
尺度
  7
高3.2
100
AcDbText
1001
ACAD
1000
ACAD_MTEXT_DEFINED_HEIGHT_BEGIN
1070
    46
1040
0.0
1000
ACAD_MTEXT_DEFINED_HEIGHT_END
  0
TEXT
  5
A74
330
6B
100
AcDbEntity
  8
0
 62
     3
100
AcDbText
 10
-325.122670506666
 20
-118.8426873319293
 30
0.0
 40
3.2
  1
作成日
  7
高3.2
100
AcDbText
1001
ACAD
1000
ACAD_MTEXT_DEFINED_HEIGHT_BEGIN
1070
    46
1040
0.0
1000
ACAD_MTEXT_DEFINED_HEIGHT_END
  0
TEXT
  5
A75
330
6B
100
AcDbEntity
  8
0
 62
     3
100
AcDbText
 10
-325.2281964998021
 20
-98.2868724825748
 30
0.0
 40
3.2
  1
承 認
  7
高3.2
100
AcDbText
1001
ACAD
1000
ACAD_MTEXT_DEFINED_HEIGHT_BEGIN
1070
    46
1040
0.0
1000
ACAD_MTEXT_DEFINED_HEIGHT_END
  0
TEXT
  5
A76
330
6B
100
AcDbEntity
  8
0
 62
     3
100
AcDbText
 10
-312.228196499802
 20
-98.2868724825748
 30
0.0
 40
3.2
  1
検 図
  7
高3.2
100
AcDbText
1001
ACAD
1000
ACAD_MTEXT_DEFINED_HEIGHT_BEGIN
1070
    46
1040
0.0
1000
ACAD_MTEXT_DEFINED_HEIGHT_END
  0
TEXT
  5
A77
330
6B
100
AcDbEntity
  8
0
 62
     3
100
AcDbText
 10
-299.228196499802
 20
-98.2868724825748
 30
0.0
 40
3.2
  1
設 計
  7
高3.2
100
AcDbText
1001
ACAD
1000
ACAD_MTEXT_DEFINED_HEIGHT_BEGIN
1070
    46
1040
0.0
1000
ACAD_MTEXT_DEFINED_HEIGHT_END
  0
TEXT
  5
A78
330
6B
100
AcDbEntity
  8
0
 62
     3
100
AcDbText
 10
-285.9275599798021
 20
-98.2868724825748
 30
0.0
 40
3.2
  1
製 図
  7
高3.2
100
AcDbText
1001
ACAD
1000
ACAD_MTEXT_DEFINED_HEIGHT_BEGIN
1070
    46
1040
0.0
1000
ACAD_MTEXT_DEFINED_HEIGHT_END
  0
TEXT
  5
A79
330
6B
100
AcDbEntity
  8
0
 62
     3
100
AcDbText
 10
-287.1140773923219
 20
134.0725993095402
 30
0.0
 40
3.2
  1
担　当
  7
高3.2
100
AcDbText
  0
TEXT
  5
A7A
330
6B
100
AcDbEntity
  8
0
 62
     3
100
AcDbText
 10
-331.1140773923219
 20
134.0725993095402
 30
0.0
 40
3.2
  1
変更・追記内容
  7
高3.2
100
AcDbText
  0
TEXT
  5
A7B
330
6B
100
AcDbEntity
  8
0
 62
     3
100
AcDbText
 10
-356.0005623919827
 20
129.4020607996319
 30
0.0
 40
2.0
  1
1
  7
高2
100
AcDbText
  0
TEXT
  5
A7C
330
6B
100
AcDbEntity
  8
0
 62
     3
100
AcDbText
 10
-356.3090738687399
 20
124.232244087359
 30
0.0
 40
2.0
  1
2
  7
高2
100
AcDbText
  0
TEXT
  5
A7D
330
6B
100
AcDbEntity
  8
0
 62
     3
100
AcDbText
 10
-349.1140773923218
 20
134.0725993095402
 30
0.0
 40
3.2
  1
日　付
  7
高3.2
100
AcDbText
  0
TEXT
  5
A7E
330
6B
100
AcDbEntity
  8
0
 62
     3
100
AcDbText
 10
-349.1140773923218
 20
139.0725993095402
 30
0.0
 40
3.2
  1
図　　　　面　　　　略　　　　歴
  7
高3.2
100
AcDbText
  0
TEXT
  5
A7F
330
6B
100
AcDbEntity
  8
0
 62
     3
100
AcDbText
 10
-359.1140773923219
 20
134.0725993095402
 30
0.0
 40
3.2
  1
記号
  7
高3.2
100
AcDbText
  0
LINE
  5
A80
330
6B
100
AcDbEntity
  8
0
 62
     7
100
AcDbLine
 10
-355.6140773923218
 20
127.3634953095403
 30
0.0
 11
-357.5140773923219
 21
124.0725993095402
 31
0.0
  0
LINE
  5
A81
330
6B
100
AcDbEntity
  8
0
 62
     7
100
AcDbLine
 10
-355.6140773923218
 20
127.3634953095403
 30
0.0
 11
-353.7140773923218
 21
124.0725993095402
 31
0.0
  0
LINE
  5
A82
330
6B
100
AcDbEntity
  8
0
 62
     7
100
AcDbLine
 10
-357.5140773923219
 20
124.0725993095402
 30
0.0
 11
-353.7140773923218
 21
124.0725993095402
 31
0.0
  0
LINE
  5
A83
330
6B
100
AcDbEntity
  8
0
 62
     7
100
AcDbLine
 10
-355.6140773923218
 20
132.3634963095403
 30
0.0
 11
-357.5140773923219
 21
129.0725993095402
 31
0.0
  0
LINE
  5
A84
330
6B
100
AcDbEntity
  8
0
 62
     7
100
AcDbLine
 10
-355.6140773923218
 20
132.3634963095403
 30
0.0
 11
-353.7140773923218
 21
129.0725993095402
 31
0.0
  0
LINE
  5
A85
330
6B
100
AcDbEntity
  8
0
 62
     7
100
AcDbLine
 10
-357.5140773923219
 20
129.0725993095402
 30
0.0
 11
-353.7140773923218
 21
129.0725993095402
 31
0.0
  0
LINE
  5
A86
330
6B
100
AcDbEntity
  8
0
 62
     3
100
AcDbLine
 10
-360.6140773923219
 20
138.5725993095402
 30
0.0
 11
-274.6140773923219
 21
138.5725993095402
 31
0.0
  0
LINE
  5
A87
330
6B
100
AcDbEntity
  8
0
 62
     3
100
AcDbLine
 10
-360.6140773923219
 20
133.5725993095402
 30
0.0
 11
-274.6140773923219
 21
133.5725993095402
 31
0.0
  0
LINE
  5
A88
330
6B
100
AcDbEntity
  8
0
 62
     7
100
AcDbLine
 10
-360.6140773923219
 20
128.5725993095402
 30
0.0
 11
-274.6140773923219
 21
128.5725993095402
 31
0.0
  0
LINE
  5
A89
330
6B
100
AcDbEntity
  8
0
 62
     3
100
AcDbLine
 10
-360.6140773923219
 20
123.5725993095402
 30
0.0
 11
-274.6140773923219
 21
123.5725993095402
 31
0.0
  0
LINE
  5
A8A
330
6B
100
AcDbEntity
  8
0
 62
     7
100
AcDbLine
 10
-288.614077392322
 20
123.5725993095402
 30
0.0
 11
-288.6140773923218
 21
138.5725993095402
 31
0.0
  0
LINE
  5
A8B
330
6B
100
AcDbEntity
  8
0
 62
     7
100
AcDbLine
 10
-332.6140773923218
 20
123.5725993095402
 30
0.0
 11
-332.6140773923218
 21
138.5725993095402
 31
0.0
  0
LINE
  5
A8C
330
6B
100
AcDbEntity
  8
0
 62
     7
100
AcDbLine
 10
-350.6140773923219
 20
123.5725993095402
 30
0.0
 11
-350.6140773923219
 21
138.5725993095402
 31
0.0
  0
LINE
  5
A8D
330
6B
100
AcDbEntity
  8
0
 62
     3
100
AcDbLine
 10
-360.6140773923219
 20
123.5725993095402
 30
0.0
 11
-360.6140773923219
 21
143.5725993095402
 31
0.0
  0
TEXT
  5
113A
330
6B
100
AcDbEntity
  8
0
 62
     3
100
AcDbText
 10
-511.3653423923217
 20
-76.49858169045962
 30
0.0
 40
4.5
  1
-20℃～80℃
  7
高4.5
100
AcDbText
  0
TEXT
  5
113B
330
6B
100
AcDbEntity
  8
0
 62
     3
100
AcDbText
 10
-546.3653423923217
 20
-76.49858169045962
 30
0.0
 40
4.5
  1
使用環境温度
  7
高4.5
100
AcDbText
  0
TEXT
  5
113C
330
6B
100
AcDbEntity
  8
0
 62
     3
100
AcDbText
 10
-546.3653423923217
 20
-48.49858169045962
 30
0.0
 40
4.5
  1
型　　　式
  7
高4.5
100
AcDbText
  0
TEXT
  5
113D
330
6B
100
AcDbEntity
  8
0
 62
     3
100
AcDbText
 10
-546.3653423923217
 20
-69.49858169045961
 30
0.0
 40
4.5
  1
耐　荷　重
  7
高4.5
100
AcDbText
  0
TEXT
  5
113E
330
6B
100
AcDbEntity
  8
0
 62
     3
100
AcDbText
 10
-511.3653423923217
 20
-69.49858169045961
 30
0.0
 40
4.5
  1
10.0kg　(at25℃)
  7
高4.5
100
AcDbText
  0
TEXT
  5
113F
330
6B
100
AcDbEntity
  8
0
 62
     3
100
AcDbText
 10
-511.3653423923217
 20
-48.49858169045962
 30
0.0
 40
4.5
  1
BH-300SH
  7
高4.5
100
AcDbText
  0
TEXT
  5
1140
330
6B
100
AcDbEntity
  8
0
 62
     3
100
AcDbText
 10
-511.3653423923217
 20
-62.49858169045961
 30
0.0
 40
4.5
  1
%%C30～70
  7
高4.5
100
AcDbText
  0
TEXT
  5
1141
330
6B
100
AcDbEntity
  8
0
 62
     3
100
AcDbText
 10
-546.3653423923217
 20
-62.49858169045961
 30
0.0
 40
4.5
  1
結　束　径
  7
高4.5
100
AcDbText
  0
TEXT
  5
1142
330
6B
100
AcDbEntity
  8
0
 62
     3
100
AcDbText
 10
-546.3653423923217
 20
-55.49858169045961
 30
0.0
 40
4.5
  1
L　寸　法
  7
高4.5
100
AcDbText
  0
TEXT
  5
1143
330
6B
100
AcDbEntity
  8
0
 62
     3
100
AcDbText
 10
-511.3653423923217
 20
-55.49858169045961
 30
0.0
 40
4.5
  1
290
  7
高4.5
100
AcDbText
  0
LINE
  5
1144
330
6B
100
AcDbEntity
  8
0
 62
     3
100
AcDbLine
 10
-453.3653423923217
 20
-42.49858169045961
 30
0.0
 11
-548.3653423923217
 21
-42.49858169045961
 31
0.0
  0
LINE
  5
1145
330
6B
100
AcDbEntity
  8
0
 62
     3
100
AcDbLine
 10
-548.3653423923217
 20
-42.49858169045961
 30
0.0
 11
-548.3653423923217
 21
-77.49858169045961
 31
0.0
  0
LINE
  5
1146
330
6B
100
AcDbEntity
  8
0
 62
     3
100
AcDbLine
 10
-513.3653423923217
 20
-42.49858169045961
 30
0.0
 11
-513.3653423923217
 21
-77.49858169045961
 31
0.0
  0
LINE
  5
1147
330
6B
100
AcDbEntity
  8
0
 62
     3
100
AcDbLine
 10
-453.3653423923217
 20
-42.49858169045961
 30
0.0
 11
-453.3653423923217
 21
-77.49858169045961
 31
0.0
  0
LINE
  5
1148
330
6B
100
AcDbEntity
  8
0
100
AcDbLine
 10
-548.3653423923217
 20
-56.49858169045962
 30
0.0
 11
-453.3653423923217
 21
-56.49858169045962
 31
0.0
  0
LINE
  5
1149
330
6B
100
AcDbEntity
  8
0
100
AcDbLine
 10
-453.3653423923217
 20
-63.4985816904595
 30
0.0
 11
-548.3653423923217
 21
-63.49858169045962
 31
0.0
  0
LINE
  5
114A
330
6B
100
AcDbEntity
  8
0
100
AcDbLine
 10
-453.3653423923217
 20
-49.49858169045961
 30
0.0
 11
-548.3653423923217
 21
-49.49858169045961
 31
0.0
  0
LINE
  5
114B
330
6B
100
AcDbEntity
  8
0
100
AcDbLine
 10
-548.3653423923217
 20
-70.49858169045961
 30
0.0
 11
-453.3653423923217
 21
-70.4985816904595
 31
0.0
  0
LINE
  5
114C
330
6B
100
AcDbEntity
  8
0
 62
     3
100
AcDbLine
 10
-453.3653423923217
 20
-77.4985816904595
 30
0.0
 11
-548.3653423923217
 21
-77.49858169045961
 31
0.0
  0
LINE
  5
129F
330
6B
100
AcDbEntity
  8
0
 62
     7
100
AcDbLine
 10
-274.6653023923217
 20
-84.42740069045973
 30
0.0
 11
-372.6140773923217
 21
-84.42740069045985
 31
0.0
  0
TEXT
  5
12A0
330
6B
100
AcDbEntity
  8
0
 62
     3
100
AcDbText
 10
-325.2151523923217
 20
-89.87131569045979
 30
0.0
 40
4.5
  1
サンド
  7
高4.5
100
AcDbText
  0
TEXT
  5
12A1
330
6B
100
AcDbEntity
  8
0
 62
     3
100
AcDbText
 10
-298.9718753923217
 20
-89.92904469045956
 30
0.0
 40
4.5
  1
29944
  7
高4.5
100
AcDbText
  0
LINE
  5
12A2
330
6B
100
AcDbEntity
  8
0
 62
     7
100
AcDbLine
 10
-274.6653023923217
 20
-78.42740069045973
 30
0.0
 11
-372.6140773923217
 21
-78.42740069045973
 31
0.0
  0
TEXT
  5
12A3
330
6B
100
AcDbEntity
  8
0
 62
     3
100
AcDbText
 10
-325.2151523923217
 20
-83.8713156904598
 30
0.0
 40
4.5
  1
オリーブグリーン
 41
0.5
  7
高4.5
100
AcDbText
  0
TEXT
  5
12A4
330
6B
100
AcDbEntity
  8
0
 62
     3
100
AcDbText
 10
-298.9718753923217
 20
-83.92904469045957
 30
0.0
 40
4.5
  1
29938
  7
高4.5
100
AcDbText
  0
LINE
  5
12A5
330
6B
100
AcDbEntity
  8
0
 62
     7
100
AcDbLine
 10
-274.6653023923217
 20
-72.42740069045973
 30
0.0
 11
-372.6140773923217
 21
-72.42740069045985
 31
0.0
  0
TEXT
  5
12A6
330
6B
100
AcDbEntity
  8
0
 62
     3
100
AcDbText
 10
-325.2151523923217
 20
-77.87131569045979
 30
0.0
 40
4.5
  1
グレー
  7
高4.5
100
AcDbText
  0
TEXT
  5
12A7
330
6B
100
AcDbEntity
  8
0
 62
     3
100
AcDbText
 10
-298.9718753923217
 20
-77.92904469045956
 30
0.0
 40
4.5
  1
29932
  7
高4.5
100
AcDbText
  0
LINE
  5
12A8
330
6B
100
AcDbEntity
  8
0
 62
     7
100
AcDbLine
 10
-274.6653023923217
 20
-66.42740069045974
 30
0.0
 11
-372.6140773923217
 21
-66.42740069045974
 31
0.0
  0
TEXT
  5
12A9
330
6B
100
AcDbEntity
  8
0
 62
     3
100
AcDbText
 10
-325.2151523923217
 20
-71.8713156904598
 30
0.0
 40
4.5
  1
ホワイト
  7
高4.5
100
AcDbText
  0
TEXT
  5
12AA
330
6B
100
AcDbEntity
  8
0
 62
     3
100
AcDbText
 10
-298.9718753923217
 20
-71.92904469045956
 30
0.0
 40
4.5
  1
29926
  7
高4.5
100
AcDbText
  0
LINE
  5
12AB
330
6B
100
AcDbEntity
  8
0
 62
     7
100
AcDbLine
 10
-274.6653023923217
 20
-60.42740069045973
 30
0.0
 11
-372.6140773923217
 21
-60.42740069045973
 31
0.0
  0
TEXT
  5
12AC
330
6B
100
AcDbEntity
  8
0
 62
     3
100
AcDbText
 10
-325.2151523923217
 20
-65.87131569045979
 30
0.0
 40
4.5
  1
ブラック
  7
高4.5
100
AcDbText
  0
TEXT
  5
12AD
330
6B
100
AcDbEntity
  8
0
 62
     3
100
AcDbText
 10
-298.9718753923217
 20
-65.92904469045956
 30
0.0
 40
4.5
  1
29921
  7
高4.5
100
AcDbText
  0
LINE
  5
12AE
330
6B
100
AcDbEntity
  8
0
 62
     7
100
AcDbLine
 10
-274.6653023923217
 20
-54.42740069045973
 30
0.0
 11
-372.6140773923217
 21
-54.42740069045973
 31
0.0
  0
TEXT
  5
12AF
330
6B
100
AcDbEntity
  8
0
 62
     3
100
AcDbText
 10
-325.2151523923217
 20
-59.87131569045979
 30
0.0
 40
4.5
  1
オレンジ
  7
高4.5
100
AcDbText
  0
TEXT
  5
12B0
330
6B
100
AcDbEntity
  8
0
 62
     3
100
AcDbText
 10
-298.9718753923217
 20
-59.92904469045956
 30
0.0
 40
4.5
  1
29628
  7
高4.5
100
AcDbText
  0
LINE
  5
12B1
330
6B
100
AcDbEntity
  8
0
 62
     3
100
AcDbLine
 10
-274.6653023923217
 20
-48.42740069045973
 30
0.0
 11
-372.6140773923217
 21
-48.42740069045973
 31
0.0
  0
TEXT
  5
12B2
330
6B
100
AcDbEntity
  8
0
 62
     3
100
AcDbText
 10
-325.2151523923217
 20
-53.8713156904598
 30
0.0
 40
4.5
  1
色
  7
高4.5
100
AcDbText
  0
TEXT
  5
12B3
330
6B
100
AcDbEntity
  8
0
 62
     3
100
AcDbText
 10
-298.9718753923217
 20
-53.92904469045956
 30
0.0
 40
4.5
  1
コード
  7
高4.5
100
AcDbText
  0
LINE
  5
12B4
330
6B
100
AcDbEntity
  8
0
100
AcDbLine
 10
-326.6140773923216
 20
-90.42740069045974
 30
0.0
 11
-326.6140773923216
 21
-48.42740069045973
 31
0.0
  0
LINE
  5
12B5
330
6B
100
AcDbEntity
  8
0
 62
     3
100
AcDbLine
 10
-372.6140773923217
 20
-90.42740069045974
 30
0.0
 11
-372.6140773923217
 21
-48.42740069045973
 31
0.0
  0
TEXT
  5
12B6
330
6B
100
AcDbEntity
  8
0
 62
     3
100
AcDbText
 10
-371.2151523923218
 20
-89.87131569045979
 30
0.0
 40
4.5
  1
BH-300SH-SN
 41
0.9
  7
高4.5
100
AcDbText
  0
TEXT
  5
12B7
330
6B
100
AcDbEntity
  8
0
 62
     3
100
AcDbText
 10
-371.2151523923218
 20
-83.8713156904598
 30
0.0
 40
4.5
  1
BH-300SH-OG
 41
0.9
  7
高4.5
100
AcDbText
  0
TEXT
  5
12B8
330
6B
100
AcDbEntity
  8
0
 62
     3
100
AcDbText
 10
-371.2151523923218
 20
-77.87131569045979
 30
0.0
 40
4.5
  1
BH-300SH-GY
 41
0.9
  7
高4.5
100
AcDbText
  0
TEXT
  5
12B9
330
6B
100
AcDbEntity
  8
0
 62
     3
100
AcDbText
 10
-371.2151523923218
 20
-71.8713156904598
 30
0.0
 40
4.5
  1
BH-300SH-WH
 41
0.9
  7
高4.5
100
AcDbText
  0
TEXT
  5
12BA
330
6B
100
AcDbEntity
  8
0
 62
     3
100
AcDbText
 10
-371.2151523923218
 20
-65.87131569045979
 30
0.0
 40
4.5
  1
BH-300SH-BK
 41
0.9
  7
高4.5
100
AcDbText
  0
TEXT
  5
12BB
330
6B
100
AcDbEntity
  8
0
 62
     3
100
AcDbText
 10
-371.2151523923218
 20
-59.87131569045979
 30
0.0
 40
4.5
  1
BH-300SH
 41
0.9
  7
高4.5
100
AcDbText
  0
TEXT
  5
12BC
330
6B
100
AcDbEntity
  8
0
 62
     3
100
AcDbText
 10
-371.2151523923218
 20
-53.8713156904598
 30
0.0
 40
4.5
  1
型番
  7
高4.5
100
AcDbText
  0
LINE
  5
12BD
330
6B
100
AcDbEntity
  8
0
100
AcDbLine
 10
-300.6140773923216
 20
-90.42740069045974
 30
0.0
 11
-300.6140773923216
 21
-48.42740069045973
 31
0.0
  0
TEXT
  5
12BE
330
6B
100
AcDbEntity
  8
0
 62
     3
100
AcDbText
 10
-342.4177086970695
 20
-111.1295862854758
 30
0.0
 40
2.5
  1
-
  7
高2.5
100
AcDbText
  0
TEXT
  5
131B
330
6B
100
AcDbEntity
  8
0
 62
     3
100
AcDbText
 10
-654.1140773923217
 20
-129.9274006904597
 30
0.0
 40
3.2
  1
部品名
  7
高3.2
100
AcDbText
  0
TEXT
  5
131C
330
6B
100
AcDbEntity
  8
0
 62
     3
100
AcDbText
 10
-663.1140773923217
 20
-129.9274006904597
 30
0.0
 40
3.2
  1
No.
  7
高3.2
100
AcDbText
  0
TEXT
  5
131D
330
6B
100
AcDbEntity
  8
0
 62
     3
100
AcDbText
 10
-629.1140773923217
 20
-129.9274006904597
 30
0.0
 40
3.2
  1
個数
  7
高3.2
100
AcDbText
  0
TEXT
  5
131E
330
6B
100
AcDbEntity
  8
0
 62
     3
100
AcDbText
 10
-629.1140773923217
 20
-124.9274006904597
 30
0.0
 40
3.2
  1
1
  7
高3.2
100
AcDbText
  0
TEXT
  5
131F
330
6B
100
AcDbEntity
  8
0
 62
     3
100
AcDbText
 10
-629.1140773923217
 20
-119.9274006904597
 30
0.0
 40
3.2
  1
1
  7
高3.2
100
AcDbText
  0
TEXT
  5
1320
330
6B
100
AcDbEntity
  8
0
 62
     3
100
AcDbText
 10
-654.1140773923217
 20
-119.9274006904597
 30
0.0
 40
3.2
  1
丸フック
  7
高3.2
100
AcDbText
  0
TEXT
  5
1321
330
6B
100
AcDbEntity
  8
0
 62
     3
100
AcDbText
 10
-654.1140773923217
 20
-124.9274006904597
 30
0.0
 40
3.2
  1
連結ベルト
  7
高3.2
100
AcDbText
  0
TEXT
  5
1322
330
6B
100
AcDbEntity
  8
0
 62
     3
100
AcDbText
 10
-663.1140773923217
 20
-124.9274006904597
 30
0.0
 40
3.2
  1
1
  7
高3.2
100
AcDbText
  0
TEXT
  5
1323
330
6B
100
AcDbEntity
  8
0
 62
     3
100
AcDbText
 10
-663.1140773923217
 20
-119.9274006904597
 30
0.0
 40
3.2
  1
2
  7
高3.2
100
AcDbText
  0
LINE
  5
1325
330
6B
100
AcDbEntity
  8
0
 62
     7
100
AcDbLine
 10
-655.6140773923218
 20
-115.4274006904597
 30
0.0
 11
-655.6140773923218
 21
-130.4274006904597
 31
0.0
  0
LINE
  5
1326
330
6B
100
AcDbEntity
  8
0
 62
     7
100
AcDbLine
 10
-630.6140773923218
 20
-115.4274006904597
 30
0.0
 11
-630.6140773923218
 21
-130.4274006904597
 31
0.0
  0
LINE
  5
1327
330
6B
100
AcDbEntity
  8
0
 62
     3
100
AcDbLine
 10
-621.6140773923217
 20
-115.4274006904597
 30
0.0
 11
-621.6140773923217
 21
-130.4274006904597
 31
0.0
  0
LINE
  5
1329
330
6B
100
AcDbEntity
  8
0
 62
     7
100
AcDbLine
 10
-664.6140773923217
 20
-125.4274006904597
 30
0.0
 11
-621.6140773923217
 21
-125.4274006904597
 31
0.0
  0
LINE
  5
132A
330
6B
100
AcDbEntity
  8
0
 62
     7
100
AcDbLine
 10
-664.6140773923217
 20
-120.4274006904597
 30
0.0
 11
-621.6140773923217
 21
-120.4274006904597
 31
0.0
  0
LINE
  5
132B
330
6B
100
AcDbEntity
  8
0
 62
     3
100
AcDbLine
 10
-664.6140773923217
 20
-115.4274006904597
 30
0.0
 11
-621.6140773923217
 21
-115.4274006904597
 31
0.0
  0
LINE
  5
1480
330
6B
100
AcDbEntity
  8
0
 62
     2
100
AcDbLine
 10
-519.5602093923216
 20
11.20594130954025
 30
0.0
 11
-519.5779303923217
 21
11.31940430954025
 31
0.0
  0
LINE
  5
1481
330
6B
100
AcDbEntity
  8
0
 62
     2
100
AcDbLine
 10
-519.5779303923217
 20
11.31940430954025
 30
0.0
 11
-519.5992123923216
 21
11.42805130954025
 31
0.0
  0
LINE
  5
1482
330
6B
100
AcDbEntity
  8
0
 62
     2
100
AcDbLine
 10
-519.5992123923216
 20
11.42805130954025
 30
0.0
 11
-519.6238923923217
 21
11.53104230954025
 31
0.0
  0
LINE
  5
1483
330
6B
100
AcDbEntity
  8
0
 62
     2
100
AcDbLine
 10
-519.6238923923217
 20
11.53104230954025
 30
0.0
 11
-519.6517773923217
 21
11.62758030954025
 31
0.0
  0
LINE
  5
1484
330
6B
100
AcDbEntity
  8
0
 62
     2
100
AcDbLine
 10
-519.6517773923217
 20
11.62758030954025
 30
0.0
 11
-519.6826543923217
 21
11.71691930954025
 31
0.0
  0
LINE
  5
1485
330
6B
100
AcDbEntity
  8
0
 62
     2
100
AcDbLine
 10
-519.6826543923217
 20
11.71691930954025
 30
0.0
 11
-519.7162823923218
 21
11.79836930954025
 31
0.0
  0
LINE
  5
1486
330
6B
100
AcDbEntity
  8
0
 62
     2
100
AcDbLine
 10
-519.7162823923218
 20
11.79836930954025
 30
0.0
 11
-519.7524023923217
 21
11.87130130954025
 31
0.0
  0
LINE
  5
1487
330
6B
100
AcDbEntity
  8
0
 62
     2
100
AcDbLine
 10
-519.7524023923217
 20
11.87130130954025
 30
0.0
 11
-519.7907363923217
 21
11.93515030954025
 31
0.0
  0
LINE
  5
1488
330
6B
100
AcDbEntity
  8
0
 62
     2
100
AcDbLine
 10
-519.7907363923217
 20
11.93515030954025
 30
0.0
 11
-519.8309853923217
 21
11.98942330954025
 31
0.0
  0
LINE
  5
1489
330
6B
100
AcDbEntity
  8
0
 62
     2
100
AcDbLine
 10
-519.8309853923217
 20
11.98942330954025
 30
0.0
 11
-519.8728413923218
 21
12.03370130954025
 31
0.0
  0
LINE
  5
148A
330
6B
100
AcDbEntity
  8
0
 62
     2
100
AcDbLine
 10
-519.8728413923218
 20
12.03370130954025
 30
0.0
 11
-519.9159783923216
 21
12.06764130954025
 31
0.0
  0
LINE
  5
148B
330
6B
100
AcDbEntity
  8
0
 62
     2
100
AcDbLine
 10
-519.9159783923216
 20
12.06764130954025
 30
0.0
 11
-519.9600643923218
 21
12.09098030954025
 31
0.0
  0
LINE
  5
148C
330
6B
100
AcDbEntity
  8
0
 62
     2
100
AcDbLine
 10
-519.9600643923218
 20
12.09098030954025
 30
0.0
 11
-520.0047573923217
 21
12.10354030954025
 31
0.0
  0
LINE
  5
148D
330
6B
100
AcDbEntity
  8
0
 62
     2
100
AcDbLine
 10
-520.0047573923217
 20
12.10354030954025
 30
0.0
 11
-520.0497133923216
 21
12.10522230954025
 31
0.0
  0
LINE
  5
148E
330
6B
100
AcDbEntity
  8
0
 62
     2
100
AcDbLine
 10
-520.0497133923216
 20
12.10522230954025
 30
0.0
 11
-520.0945843923217
 21
12.09601330954025
 31
0.0
  0
LINE
  5
148F
330
6B
100
AcDbEntity
  8
0
 62
     2
100
AcDbLine
 10
-520.0945843923217
 20
12.09601330954025
 30
0.0
 11
-520.1390233923217
 21
12.07598530954025
 31
0.0
  0
LINE
  5
1490
330
6B
100
AcDbEntity
  8
0
 62
     2
100
AcDbLine
 10
-520.1390233923217
 20
12.07598530954025
 30
0.0
 11
-520.1826863923217
 21
12.04529230954025
 31
0.0
  0
LINE
  5
1491
330
6B
100
AcDbEntity
  8
0
 62
     2
100
AcDbLine
 10
-520.1826863923217
 20
12.04529230954025
 30
0.0
 11
-520.2252363923218
 21
12.00417230954025
 31
0.0
  0
LINE
  5
1492
330
6B
100
AcDbEntity
  8
0
 62
     2
100
AcDbLine
 10
-520.2252363923218
 20
12.00417230954025
 30
0.0
 11
-520.2663453923215
 21
11.95294330954025
 31
0.0
  0
LINE
  5
1493
330
6B
100
AcDbEntity
  8
0
 62
     2
100
AcDbLine
 10
-520.2663453923215
 20
11.95294330954025
 30
0.0
 11
-520.3056933923217
 21
11.89200030954025
 31
0.0
  0
LINE
  5
1494
330
6B
100
AcDbEntity
  8
0
 62
     2
100
AcDbLine
 10
-520.3056933923217
 20
11.89200030954025
 30
0.0
 11
-520.3429783923215
 21
11.82181430954025
 31
0.0
  0
LINE
  5
1495
330
6B
100
AcDbEntity
  8
0
 62
     2
100
AcDbLine
 10
-520.3429783923215
 20
11.82181430954025
 30
0.0
 11
-520.3779113923217
 21
11.74292930954025
 31
0.0
  0
LINE
  5
1496
330
6B
100
AcDbEntity
  8
0
 62
     2
100
AcDbLine
 10
-520.3779113923217
 20
11.74292930954025
 30
0.0
 11
-520.4102223923216
 21
11.65595330954025
 31
0.0
  0
LINE
  5
1497
330
6B
100
AcDbEntity
  8
0
 62
     2
100
AcDbLine
 10
-520.4102223923216
 20
11.65595330954025
 30
0.0
 11
-520.4396623923218
 21
11.56156030954025
 31
0.0
  0
LINE
  5
1498
330
6B
100
AcDbEntity
  8
0
 62
     2
100
AcDbLine
 10
-520.4396623923218
 20
11.56156030954025
 30
0.0
 11
-520.4660023923216
 21
11.46047830954025
 31
0.0
  0
LINE
  5
1499
330
6B
100
AcDbEntity
  8
0
 62
     2
100
AcDbLine
 10
-520.4660023923216
 20
11.46047830954025
 30
0.0
 11
-520.4890393923217
 21
11.35348930954025
 31
0.0
  0
LINE
  5
149A
330
6B
100
AcDbEntity
  8
0
 62
     2
100
AcDbLine
 10
-520.4890393923217
 20
11.35348930954025
 30
0.0
 11
-520.5085953923217
 21
11.24142030954025
 31
0.0
  0
LINE
  5
149B
330
6B
100
AcDbEntity
  8
0
 62
     2
100
AcDbLine
 10
-520.5085953923217
 20
11.24142030954025
 30
0.0
 11
-520.5245193923217
 21
11.12513830954025
 31
0.0
  0
LINE
  5
149C
330
6B
100
AcDbEntity
  8
0
 62
     2
100
AcDbLine
 10
-520.5245193923217
 20
11.12513830954025
 30
0.0
 11
-520.5366883923217
 21
11.00554030954025
 31
0.0
  0
LINE
  5
149D
330
6B
100
AcDbEntity
  8
0
 62
     2
100
AcDbLine
 10
-520.5366883923217
 20
11.00554030954025
 30
0.0
 11
-520.5450083923217
 21
10.88355230954025
 31
0.0
  0
LINE
  5
149E
330
6B
100
AcDbEntity
  8
0
 62
     2
100
AcDbLine
 10
-520.5450083923217
 20
10.88355230954025
 30
0.0
 11
-520.5494143923217
 21
10.76011630954025
 31
0.0
  0
LINE
  5
149F
330
6B
100
AcDbEntity
  8
0
 62
     2
100
AcDbLine
 10
-520.5494143923217
 20
10.76011630954025
 30
0.0
 11
-520.5498723923217
 21
10.63618630954025
 31
0.0
  0
LINE
  5
14A0
330
6B
100
AcDbEntity
  8
0
 62
     2
100
AcDbLine
 10
-520.5498723923217
 20
10.63618630954025
 30
0.0
 11
-520.5463803923216
 21
10.51272130954025
 31
0.0
  0
LINE
  5
14A1
330
6B
100
AcDbEntity
  8
0
 62
     2
100
AcDbLine
 10
-520.5463803923216
 20
10.51272130954025
 30
0.0
 11
-520.5389633923216
 21
10.39067530954025
 31
0.0
  0
LINE
  5
14A2
330
6B
100
AcDbEntity
  8
0
 62
     2
100
AcDbLine
 10
-520.5389633923216
 20
10.39067530954025
 30
0.0
 11
-520.5276803923217
 21
10.27099030954025
 31
0.0
  0
LINE
  5
14A3
330
6B
100
AcDbEntity
  8
0
 62
     2
100
AcDbLine
 10
-520.5276803923217
 20
10.27099030954025
 30
0.0
 11
-520.5126163923218
 21
10.15459330954025
 31
0.0
  0
LINE
  5
14A4
330
6B
100
AcDbEntity
  8
0
 62
     2
100
AcDbLine
 10
-520.5126163923218
 20
10.15459330954025
 30
0.0
 11
-520.4938903923216
 21
10.04238330954025
 31
0.0
  0
LINE
  5
14A5
330
6B
100
AcDbEntity
  8
0
 62
     2
100
AcDbLine
 10
-520.4938903923216
 20
10.04238330954025
 30
0.0
 11
-520.4716453923216
 21
9.935226309540247
 31
0.0
  0
LINE
  5
14A6
330
6B
100
AcDbEntity
  8
0
 62
     2
100
AcDbLine
 10
-520.4716453923216
 20
9.935226309540247
 30
0.0
 11
-520.4460543923215
 21
9.833952309540247
 31
0.0
  0
LINE
  5
14A7
330
6B
100
AcDbEntity
  8
0
 62
     2
100
AcDbLine
 10
-520.4460543923215
 20
9.833952309540247
 30
0.0
 11
-520.4173143923217
 21
9.739343309540247
 31
0.0
  0
LINE
  5
14A8
330
6B
100
AcDbEntity
  8
0
 62
     2
100
AcDbLine
 10
-520.4173143923217
 20
9.739343309540247
 30
0.0
 11
-520.3856473923217
 21
9.652131309540248
 31
0.0
  0
LINE
  5
14A9
330
6B
100
AcDbEntity
  8
0
 62
     2
100
AcDbLine
 10
-520.3856473923217
 20
9.652131309540248
 30
0.0
 11
-520.3512993923217
 21
9.572989309540247
 31
0.0
  0
LINE
  5
14AA
330
6B
100
AcDbEntity
  8
0
 62
     2
100
AcDbLine
 10
-520.3512993923217
 20
9.572989309540247
 30
0.0
 11
-520.3145353923217
 21
9.502530309540247
 31
0.0
  0
LINE
  5
14AB
330
6B
100
AcDbEntity
  8
0
 62
     2
100
AcDbLine
 10
-520.3145353923217
 20
9.502530309540247
 30
0.0
 11
-520.2756383923217
 21
9.44129830954025
 31
0.0
  0
LINE
  5
14AC
330
6B
100
AcDbEntity
  8
0
 62
     2
100
AcDbLine
 10
-520.2756383923217
 20
9.44129830954025
 30
0.0
 11
-520.2349103923218
 21
9.38976530954025
 31
0.0
  0
LINE
  5
14AD
330
6B
100
AcDbEntity
  8
0
 62
     2
100
AcDbLine
 10
-520.2349103923218
 20
9.38976530954025
 30
0.0
 11
-520.1926653923217
 21
9.34833230954025
 31
0.0
  0
LINE
  5
14AE
330
6B
100
AcDbEntity
  8
0
 62
     2
100
AcDbLine
 10
-520.1926653923217
 20
9.34833230954025
 30
0.0
 11
-520.1492303923218
 21
9.317317309540248
 31
0.0
  0
LINE
  5
14AF
330
6B
100
AcDbEntity
  8
0
 62
     2
100
AcDbLine
 10
-520.1492303923218
 20
9.317317309540248
 30
0.0
 11
-520.1049413923217
 21
9.296960309540247
 31
0.0
  0
LINE
  5
14B0
330
6B
100
AcDbEntity
  8
0
 62
     2
100
AcDbLine
 10
-520.1049413923217
 20
9.296960309540247
 30
0.0
 11
-520.0601403923217
 21
9.287420309540248
 31
0.0
  0
LINE
  5
14B1
330
6B
100
AcDbEntity
  8
0
 62
     2
100
AcDbLine
 10
-520.0601403923217
 20
9.287420309540248
 30
0.0
 11
-520.0151723923218
 21
9.288769309540247
 31
0.0
  0
LINE
  5
14B2
330
6B
100
AcDbEntity
  8
0
 62
     2
100
AcDbLine
 10
-520.0151723923218
 20
9.288769309540247
 30
0.0
 11
-519.9703873923217
 21
9.30099730954025
 31
0.0
  0
LINE
  5
14B3
330
6B
100
AcDbEntity
  8
0
 62
     2
100
AcDbLine
 10
-519.9703873923217
 20
9.30099730954025
 30
0.0
 11
-519.9261303923217
 21
9.324010309540247
 31
0.0
  0
LINE
  5
14B4
330
6B
100
AcDbEntity
  8
0
 62
     2
100
AcDbLine
 10
-519.9261303923217
 20
9.324010309540247
 30
0.0
 11
-519.8827433923217
 21
9.357630309540247
 31
0.0
  0
LINE
  5
14B5
330
6B
100
AcDbEntity
  8
0
 62
     2
100
AcDbLine
 10
-519.8827433923217
 20
9.357630309540247
 30
0.0
 11
-519.8405613923218
 21
9.401596309540247
 31
0.0
  0
LINE
  5
14B6
330
6B
100
AcDbEntity
  8
0
 62
     2
100
AcDbLine
 10
-519.8405613923218
 20
9.401596309540247
 30
0.0
 11
-519.7999103923217
 21
9.455570309540247
 31
0.0
  0
LINE
  5
14B7
330
6B
100
AcDbEntity
  8
0
 62
     2
100
AcDbLine
 10
-519.7999103923217
 20
9.455570309540247
 30
0.0
 11
-519.7611063923217
 21
9.519134309540248
 31
0.0
  0
LINE
  5
14B8
330
6B
100
AcDbEntity
  8
0
 62
     2
100
AcDbLine
 10
-519.7611063923217
 20
9.519134309540248
 30
0.0
 11
-519.7244473923217
 21
9.591796309540248
 31
0.0
  0
LINE
  5
14B9
330
6B
100
AcDbEntity
  8
0
 62
     2
100
AcDbLine
 10
-519.7244473923217
 20
9.591796309540248
 30
0.0
 11
-519.6902163923216
 21
9.672995309540247
 31
0.0
  0
LINE
  5
14BA
330
6B
100
AcDbEntity
  8
0
 62
     2
100
AcDbLine
 10
-519.6902163923216
 20
9.672995309540247
 30
0.0
 11
-519.6586803923215
 21
9.76210430954025
 31
0.0
  0
LINE
  5
14BB
330
6B
100
AcDbEntity
  8
0
 62
     2
100
AcDbLine
 10
-519.6586803923215
 20
9.76210430954025
 30
0.0
 11
-519.6300813923215
 21
9.858433309540247
 31
0.0
  0
LINE
  5
14BC
330
6B
100
AcDbEntity
  8
0
 62
     2
100
AcDbLine
 10
-519.6300813923215
 20
9.858433309540247
 30
0.0
 11
-519.6046403923217
 21
9.961238309540247
 31
0.0
  0
LINE
  5
14BD
330
6B
100
AcDbEntity
  8
0
 62
     2
100
AcDbLine
 10
-519.6046403923217
 20
9.961238309540247
 30
0.0
 11
-519.5825543923217
 21
10.06972430954025
 31
0.0
  0
LINE
  5
14BE
330
6B
100
AcDbEntity
  8
0
 62
     2
100
AcDbLine
 10
-519.5825543923217
 20
10.06972430954025
 30
0.0
 11
-519.5639943923216
 21
10.18305330954025
 31
0.0
  0
LINE
  5
14BF
330
6B
100
AcDbEntity
  8
0
100
AcDbLine
 10
-570.5876583923218
 20
86.01288530954024
 30
0.0
 11
-570.5773013923218
 21
83.94235830954025
 31
0.0
  0
LINE
  5
14C0
330
6B
100
AcDbEntity
  8
0
100
AcDbLine
 10
-570.5773013923218
 20
83.94235830954025
 30
0.0
 11
-569.5510073923218
 21
85.74066530954025
 31
0.0
  0
LINE
  5
14C1
330
6B
100
AcDbEntity
  8
0
100
AcDbLine
 10
-509.3962813923217
 20
81.77963230954025
 30
0.0
 11
-508.9001763923217
 21
79.76939230954025
 31
0.0
  0
LINE
  5
14C2
330
6B
100
AcDbEntity
  8
0
100
AcDbLine
 10
-508.9001763923217
 20
79.76939230954025
 30
0.0
 11
-508.3246953923216
 21
81.75836430954023
 31
0.0
  0
LINE
  5
14C3
330
6B
100
AcDbEntity
  8
0
100
AcDbLine
 10
-374.1903423923217
 20
6.553944309540246
 30
0.0
 11
-376.0218033923218
 21
8.382736309540247
 31
0.0
  0
LINE
  5
14C4
330
6B
100
AcDbEntity
  8
0
100
AcDbLine
 10
-376.0218033923218
 20
8.382736309540247
 30
0.0
 11
-375.3501083923218
 21
5.883225309540247
 31
0.0
  0
LINE
  5
14C5
330
6B
100
AcDbEntity
  8
0
100
AcDbLine
 10
-454.5918703923216
 20
21.30258530954025
 30
0.0
 11
-453.2784813923217
 21
19.19857830954025
 31
0.0
  0
LINE
  5
14C6
330
6B
100
AcDbEntity
  8
0
100
AcDbLine
 10
-453.2784813923217
 20
19.19857830954025
 30
0.0
 11
-452.2132113923216
 21
17.11390730954025
 31
0.0
  0
LINE
  5
14C7
330
6B
100
AcDbEntity
  8
0
100
AcDbLine
 10
-452.2132113923216
 20
17.11390730954025
 30
0.0
 11
-451.6441823923217
 21
15.06790730954025
 31
0.0
  0
LINE
  5
14C8
330
6B
100
AcDbEntity
  8
0
100
AcDbLine
 10
-451.6441823923217
 20
15.06790730954025
 30
0.0
 11
-451.8195143923216
 21
13.07991330954025
 31
0.0
  0
LINE
  5
14C9
330
6B
100
AcDbEntity
  8
0
100
AcDbLine
 10
-451.8195143923216
 20
13.07991330954025
 30
0.0
 11
-453.1854393923217
 21
10.59015830954025
 31
0.0
  0
LINE
  5
14CA
330
6B
100
AcDbEntity
  8
0
100
AcDbLine
 10
-453.1854393923217
 20
10.59015830954025
 30
0.0
 11
-454.4875343923217
 21
8.116500309540249
 31
0.0
  0
LINE
  5
14CB
330
6B
100
AcDbEntity
  8
0
100
AcDbLine
 10
-454.4875343923217
 20
8.116500309540249
 30
0.0
 11
-454.5471343923217
 21
6.241923309540249
 31
0.0
  0
LINE
  5
14CC
330
6B
100
AcDbEntity
  8
0
100
AcDbLine
 10
-454.5471343923217
 20
6.241923309540249
 30
0.0
 11
-453.8689463923216
 21
4.327108309540248
 31
0.0
  0
LINE
  5
14CD
330
6B
100
AcDbEntity
  8
0
100
AcDbLine
 10
-453.8689463923216
 20
4.327108309540248
 30
0.0
 11
-452.6989023923217
 21
2.385468309540248
 31
0.0
  0
LINE
  5
14CE
330
6B
100
AcDbEntity
  8
0
100
AcDbLine
 10
-452.6989023923217
 20
2.385468309540248
 30
0.0
 11
-451.2829283923217
 21
0.4304143095402493
 31
0.0
  0
LINE
  5
14CF
330
6B
100
AcDbEntity
  8
0
100
AcDbLine
 10
-456.5634543923216
 20
21.19850630954025
 30
0.0
 11
-455.2500653923217
 21
19.09449930954025
 31
0.0
  0
LINE
  5
14D0
330
6B
100
AcDbEntity
  8
0
100
AcDbLine
 10
-455.2500653923217
 20
19.09449930954025
 30
0.0
 11
-454.1847953923216
 21
17.00982830954024
 31
0.0
  0
LINE
  5
14D1
330
6B
100
AcDbEntity
  8
0
100
AcDbLine
 10
-454.1847953923216
 20
17.00982830954024
 30
0.0
 11
-453.6157663923217
 21
14.96382830954025
 31
0.0
  0
LINE
  5
14D2
330
6B
100
AcDbEntity
  8
0
100
AcDbLine
 10
-453.6157663923217
 20
14.96382830954025
 30
0.0
 11
-453.7910983923217
 21
12.97583530954025
 31
0.0
  0
LINE
  5
14D3
330
6B
100
AcDbEntity
  8
0
100
AcDbLine
 10
-453.7910983923217
 20
12.97583530954025
 30
0.0
 11
-455.1570233923217
 21
10.48608030954025
 31
0.0
  0
LINE
  5
14D4
330
6B
100
AcDbEntity
  8
0
100
AcDbLine
 10
-455.1570233923217
 20
10.48608030954025
 30
0.0
 11
-456.4591183923217
 21
8.012422309540246
 31
0.0
  0
LINE
  5
14D5
330
6B
100
AcDbEntity
  8
0
100
AcDbLine
 10
-456.4591183923217
 20
8.012422309540246
 30
0.0
 11
-456.5187183923216
 21
6.137845309540248
 31
0.0
  0
LINE
  5
14D6
330
6B
100
AcDbEntity
  8
0
100
AcDbLine
 10
-456.5187183923216
 20
6.137845309540248
 30
0.0
 11
-455.8405303923216
 21
4.223029309540248
 31
0.0
  0
LINE
  5
14D7
330
6B
100
AcDbEntity
  8
0
100
AcDbLine
 10
-455.8405303923216
 20
4.223029309540248
 30
0.0
 11
-454.6704863923217
 21
2.281389309540249
 31
0.0
  0
LINE
  5
14D8
330
6B
100
AcDbEntity
  8
0
100
AcDbLine
 10
-454.6704863923217
 20
2.281389309540249
 30
0.0
 11
-453.2545123923218
 21
0.3263363095402494
 31
0.0
  0
LINE
  5
14D9
330
6B
100
AcDbEntity
  8
0
100
AcDbLine
 10
-441.0230183923216
 20
77.49578030954025
 30
0.0
 11
-433.6165373923217
 21
77.49578030954025
 31
0.0
  0
LINE
  5
14DA
330
6B
100
AcDbEntity
  8
0
100
AcDbLine
 10
-441.2998863923217
 20
80.49578030954025
 30
0.0
 11
-433.6165373923217
 21
80.49578030954025
 31
0.0
  0
LINE
  5
14DB
330
6B
100
AcDbEntity
  8
0
100
AcDbLine
 10
-434.8665373923217
 20
74.99578030954025
 30
0.0
 11
-434.8665373923217
 21
72.49578030954025
 31
0.0
  0
LINE
  5
14DC
330
6B
100
AcDbEntity
  8
0
100
AcDbLine
 10
-434.8665373923217
 20
82.99578030954025
 30
0.0
 11
-434.8665373923217
 21
91.74578030954025
 31
0.0
  0
LINE
  5
14DD
330
6B
100
AcDbEntity
  8
0
100
AcDbLine
 10
-434.8665373923217
 20
77.49578030954025
 30
0.0
 11
-434.8665373923217
 21
80.49578030954025
 31
0.0
  0
LINE
  5
14E1
330
6B
100
AcDbEntity
  8
0
100
AcDbLine
 10
-397.2577823923217
 20
3.232279309540248
 30
0.0
 11
-388.5907418751469
 21
3.232279309540246
 31
0.0
  0
LINE
  5
14E2
330
6B
100
AcDbEntity
  8
0
100
AcDbLine
 10
-397.0254523923218
 20
18.32181130954025
 30
0.0
 11
-388.5907418751469
 21
18.32181130954024
 31
0.0
  0
LINE
  5
14E3
330
6B
100
AcDbEntity
  8
0
100
AcDbLine
 10
-389.8407418751469
 20
20.82181130954025
 30
0.0
 11
-389.8407418751469
 21
23.32181130954025
 31
0.0
  0
LINE
  5
14E4
330
6B
100
AcDbEntity
  8
0
100
AcDbLine
 10
-389.8407418751469
 20
0.7322793095402465
 30
0.0
 11
-389.8407418751469
 21
-10.26772069045975
 31
0.0
  0
LINE
  5
14E5
330
6B
100
AcDbEntity
  8
0
100
AcDbLine
 10
-389.8407418751469
 20
18.32181130954024
 30
0.0
 11
-389.8407418751469
 21
3.232279309540246
 31
0.0
  0
LINE
  5
14E9
330
6B
100
AcDbEntity
  8
0
100
AcDbLine
 10
-563.1674803923217
 20
15.49689730954025
 30
0.0
 11
-563.1674803923217
 21
35.88067130954025
 31
0.0
  0
LINE
  5
14EA
330
6B
100
AcDbEntity
  8
0
100
AcDbLine
 10
-317.3857143923218
 20
21.52946030954025
 30
0.0
 11
-317.3857143923218
 21
35.88067130954025
 31
0.0
  0
LINE
  5
14EB
330
6B
100
AcDbEntity
  8
0
100
AcDbLine
 10
-560.6674803923217
 20
34.63067130954025
 30
0.0
 11
-319.8857143923218
 21
34.63067130954025
 31
0.0
  0
LINE
  5
14EF
330
6B
100
AcDbEntity
  8
0
100
AcDbLine
 10
-625.2030323923218
 20
15.76645630954025
 30
0.0
 11
-625.2030323923218
 21
35.88067130954025
 31
0.0
  0
LINE
  5
14F0
330
6B
100
AcDbEntity
  8
0
100
AcDbLine
 10
-563.1674803923217
 20
15.49689730954025
 30
0.0
 11
-563.1674803923217
 21
35.88067130954025
 31
0.0
  0
LINE
  5
14F1
330
6B
100
AcDbEntity
  8
0
100
AcDbLine
 10
-622.7030323923218
 20
34.63067130954025
 30
0.0
 11
-565.6674803923217
 21
34.63067130954025
 31
0.0
  0
LINE
  5
14F5
330
6B
100
AcDbEntity
  8
0
100
AcDbLine
 10
-318.6357143923217
 20
-1.22053969045975
 30
0.0
 11
-307.6612173923218
 21
-1.220539690459753
 31
0.0
  0
LINE
  5
14F6
330
6B
100
AcDbEntity
  8
0
100
AcDbLine
 10
-318.6357143923217
 20
22.77946030954025
 30
0.0
 11
-307.6612173923218
 21
22.77946030954025
 31
0.0
  0
LINE
  5
14F7
330
6B
100
AcDbEntity
  8
0
100
AcDbLine
 10
-308.9112173923218
 20
1.279460309540247
 30
0.0
 11
-308.9112173923218
 21
20.27946030954025
 31
0.0
  0
LINE
  5
14FB
330
6B
100
AcDbEntity
  8
0
100
AcDbLine
 10
-316.9832583923218
 20
78.24354930954022
 30
0.0
 11
-305.7067193923218
 21
78.24354930954022
 31
0.0
  0
LINE
  5
14FC
330
6B
100
AcDbEntity
  8
0
100
AcDbLine
 10
-317.9807583923217
 20
88.24354930954022
 30
0.0
 11
-305.7067193923218
 21
88.24354930954022
 31
0.0
  0
LINE
  5
14FD
330
6B
100
AcDbEntity
  8
0
100
AcDbLine
 10
-306.9567193923218
 20
80.74354930954022
 30
0.0
 11
-306.9567193923218
 21
85.74354930954022
 31
0.0
  0
LINE
  5
1501
330
6B
100
AcDbEntity
  8
0
100
AcDbLine
 10
-600.4801433923217
 20
53.94205030954025
 30
0.0
 11
-639.6266253923218
 21
53.94205030954026
 31
0.0
  0
LINE
  5
1502
330
6B
100
AcDbEntity
  8
0
100
AcDbLine
 10
-592.3570603923216
 20
108.6291853095402
 30
0.0
 11
-639.6266253923218
 21
108.6291853095402
 31
0.0
  0
LINE
  5
1503
330
6B
100
AcDbEntity
  8
0
100
AcDbLine
 10
-638.3766253923218
 20
56.44205030954026
 30
0.0
 11
-638.3766253923218
 21
106.1291853095402
 31
0.0
  0
LINE
  5
1507
330
6B
100
AcDbEntity
  8
0
100
AcDbLine
 10
-594.1278283841049
 20
68.03279946151812
 30
0.0
 11
-606.3324584005378
 21
89.85130115756218
 31
0.0
  0
LINE
  5
150B
330
6B
100
AcDbEntity
  8
0
 62
     3
100
AcDbLine
 10
-474.3554513523218
 20
144.1132278495402
 30
0.0
 11
-474.3820621023217
 21
144.2836103695402
 31
0.0
  0
LINE
  5
150C
330
6B
100
AcDbEntity
  8
0
 62
     3
100
AcDbLine
 10
-474.3820621023217
 20
144.2836103695402
 30
0.0
 11
-474.4140209323218
 21
144.4467600595402
 31
0.0
  0
LINE
  5
150D
330
6B
100
AcDbEntity
  8
0
 62
     3
100
AcDbLine
 10
-474.4140209323218
 20
144.4467600595402
 30
0.0
 11
-474.4510808323219
 21
144.6014158595402
 31
0.0
  0
LINE
  5
150E
330
6B
100
AcDbEntity
  8
0
 62
     3
100
AcDbLine
 10
-474.4510808323219
 20
144.6014158595402
 30
0.0
 11
-474.4929553323218
 21
144.7463823595402
 31
0.0
  0
LINE
  5
150F
330
6B
100
AcDbEntity
  8
0
 62
     3
100
AcDbLine
 10
-474.4929553323218
 20
144.7463823595402
 30
0.0
 11
-474.5393207623218
 21
144.8805390495403
 31
0.0
  0
LINE
  5
1510
330
6B
100
AcDbEntity
  8
0
 62
     3
100
AcDbLine
 10
-474.5393207623218
 20
144.8805390495403
 30
0.0
 11
-474.5898187523217
 21
145.0028489495402
 31
0.0
  0
LINE
  5
1511
330
6B
100
AcDbEntity
  8
0
 62
     3
100
AcDbLine
 10
-474.5898187523217
 20
145.0028489495402
 30
0.0
 11
-474.6440589723218
 21
145.1123666895401
 31
0.0
  0
LINE
  5
1512
330
6B
100
AcDbEntity
  8
0
 62
     3
100
AcDbLine
 10
-474.6440589723218
 20
145.1123666895401
 30
0.0
 11
-474.7016221723217
 21
145.2082457395402
 31
0.0
  0
LINE
  5
1513
330
6B
100
AcDbEntity
  8
0
 62
     3
100
AcDbLine
 10
-474.7016221723217
 20
145.2082457395402
 30
0.0
 11
-474.7620634223217
 21
145.2897450095402
 31
0.0
  0
LINE
  5
1514
330
6B
100
AcDbEntity
  8
0
 62
     3
100
AcDbLine
 10
-474.7620634223217
 20
145.2897450095402
 30
0.0
 11
-474.8249155423217
 21
145.3562345495402
 31
0.0
  0
LINE
  5
1515
330
6B
100
AcDbEntity
  8
0
 62
     3
100
AcDbLine
 10
-474.8249155423217
 20
145.3562345495402
 30
0.0
 11
-474.8896927223218
 21
145.4072004295402
 31
0.0
  0
LINE
  5
1516
330
6B
100
AcDbEntity
  8
0
 62
     3
100
AcDbLine
 10
-474.8896927223218
 20
145.4072004295402
 30
0.0
 11
-474.9558942523218
 21
145.4422487095402
 31
0.0
  0
LINE
  5
1517
330
6B
100
AcDbEntity
  8
0
 62
     3
100
AcDbLine
 10
-474.9558942523218
 20
145.4422487095402
 30
0.0
 11
-475.0230084423217
 21
145.4611084795402
 31
0.0
  0
LINE
  5
1518
330
6B
100
AcDbEntity
  8
0
 62
     3
100
AcDbLine
 10
-475.0230084423217
 20
145.4611084795402
 30
0.0
 11
-475.0905165323217
 21
145.4636339795402
 31
0.0
  0
LINE
  5
1519
330
6B
100
AcDbEntity
  8
0
 62
     3
100
AcDbLine
 10
-475.0905165323217
 20
145.4636339795402
 30
0.0
 11
-475.1578967223219
 21
145.4498056695402
 31
0.0
  0
LINE
  5
151A
330
6B
100
AcDbEntity
  8
0
 62
     3
100
AcDbLine
 10
-475.1578967223219
 20
145.4498056695402
 30
0.0
 11
-475.2246281923218
 21
145.4197304395402
 31
0.0
  0
LINE
  5
151B
330
6B
100
AcDbEntity
  8
0
 62
     3
100
AcDbLine
 10
-475.2246281923218
 20
145.4197304395402
 30
0.0
 11
-475.2901951323218
 21
145.3736407695402
 31
0.0
  0
LINE
  5
151C
330
6B
100
AcDbEntity
  8
0
 62
     3
100
AcDbLine
 10
-475.2901951323218
 20
145.3736407695402
 30
0.0
 11
-475.3540907723218
 21
145.3118928895402
 31
0.0
  0
LINE
  5
151D
330
6B
100
AcDbEntity
  8
0
 62
     3
100
AcDbLine
 10
-475.3540907723218
 20
145.3118928895402
 30
0.0
 11
-475.4158212023217
 21
145.2349640995402
 31
0.0
  0
LINE
  5
151E
330
6B
100
AcDbEntity
  8
0
 62
     3
100
AcDbLine
 10
-475.4158212023217
 20
145.2349640995402
 30
0.0
 11
-475.4749092923217
 21
145.1434489995403
 31
0.0
  0
LINE
  5
151F
330
6B
100
AcDbEntity
  8
0
 62
     3
100
AcDbLine
 10
-475.4749092923217
 20
145.1434489995403
 30
0.0
 11
-475.5308983223217
 21
145.0380549695402
 31
0.0
  0
LINE
  5
1520
330
6B
100
AcDbEntity
  8
0
 62
     3
100
AcDbLine
 10
-475.5308983223217
 20
145.0380549695402
 30
0.0
 11
-475.5833555223217
 21
144.9195966395402
 31
0.0
  0
LINE
  5
1521
330
6B
100
AcDbEntity
  8
0
 62
     3
100
AcDbLine
 10
-475.5833555223217
 20
144.9195966395402
 30
0.0
 11
-475.6318754223218
 21
144.7889896295402
 31
0.0
  0
LINE
  5
1522
330
6B
100
AcDbEntity
  8
0
 62
     3
100
AcDbLine
 10
-475.6318754223218
 20
144.7889896295402
 30
0.0
 11
-475.6760830023218
 21
144.6472434795402
 31
0.0
  0
LINE
  5
1523
330
6B
100
AcDbEntity
  8
0
 62
     3
100
AcDbLine
 10
-475.6760830023218
 20
144.6472434795402
 30
0.0
 11
-475.7156365423218
 21
144.4954538095402
 31
0.0
  0
LINE
  5
1524
330
6B
100
AcDbEntity
  8
0
 62
     3
100
AcDbLine
 10
-475.7156365423218
 20
144.4954538095402
 30
0.0
 11
-475.7502303223217
 21
144.3347938695402
 31
0.0
  0
LINE
  5
1525
330
6B
100
AcDbEntity
  8
0
 62
     3
100
AcDbLine
 10
-475.7502303223217
 20
144.3347938695402
 30
0.0
 11
-475.7795969523217
 21
144.1665054795402
 31
0.0
  0
LINE
  5
1526
330
6B
100
AcDbEntity
  8
0
 62
     3
100
AcDbLine
 10
-475.7795969523217
 20
144.1665054795402
 30
0.0
 11
-475.8035094423218
 21
143.9918894195402
 31
0.0
  0
LINE
  5
1527
330
6B
100
AcDbEntity
  8
0
 62
     3
100
AcDbLine
 10
-475.8035094423218
 20
143.9918894195402
 30
0.0
 11
-475.8217829523218
 21
143.8122953895403
 31
0.0
  0
LINE
  5
1528
330
6B
100
AcDbEntity
  8
0
 62
     3
100
AcDbLine
 10
-475.8217829523218
 20
143.8122953895403
 30
0.0
 11
-475.8342762523217
 21
143.6291115495402
 31
0.0
  0
LINE
  5
1529
330
6B
100
AcDbEntity
  8
0
 62
     3
100
AcDbLine
 10
-475.8342762523217
 20
143.6291115495402
 30
0.0
 11
-475.8408927623218
 21
143.4437538295401
 31
0.0
  0
LINE
  5
152A
330
6B
100
AcDbEntity
  8
0
 62
     3
100
AcDbLine
 10
-475.8408927623218
 20
143.4437538295401
 30
0.0
 11
-475.8415813523217
 21
143.2576549295402
 31
0.0
  0
LINE
  5
152B
330
6B
100
AcDbEntity
  8
0
 62
     3
100
AcDbLine
 10
-475.8415813523217
 20
143.2576549295402
 30
0.0
 11
-475.8363366923219
 21
143.0722533195402
 31
0.0
  0
LINE
  5
152C
330
6B
100
AcDbEntity
  8
0
 62
     3
100
AcDbLine
 10
-475.8363366923219
 20
143.0722533195402
 30
0.0
 11
-475.8251993223217
 21
142.8889820495402
 31
0.0
  0
LINE
  5
152D
330
6B
100
AcDbEntity
  8
0
 62
     3
100
AcDbLine
 10
-475.8251993223217
 20
142.8889820495402
 30
0.0
 11
-475.8082553223218
 21
142.7092577095402
 31
0.0
  0
LINE
  5
152E
330
6B
100
AcDbEntity
  8
0
 62
     3
100
AcDbLine
 10
-475.8082553223218
 20
142.7092577095402
 30
0.0
 11
-475.7856356723218
 21
142.5344694795402
 31
0.0
  0
LINE
  5
152F
330
6B
100
AcDbEntity
  8
0
 62
     3
100
AcDbLine
 10
-475.7856356723218
 20
142.5344694795402
 30
0.0
 11
-475.7575152023218
 21
142.3659683795403
 31
0.0
  0
LINE
  5
1530
330
6B
100
AcDbEntity
  8
0
 62
     3
100
AcDbLine
 10
-475.7575152023218
 20
142.3659683795403
 30
0.0
 11
-475.7241112723218
 21
142.2050568395402
 31
0.0
  0
LINE
  5
1531
330
6B
100
AcDbEntity
  8
0
 62
     3
100
AcDbLine
 10
-475.7241112723218
 20
142.2050568395402
 30
0.0
 11
-475.6856820723217
 21
142.0529786195402
 31
0.0
  0
LINE
  5
1532
330
6B
100
AcDbEntity
  8
0
 62
     3
100
AcDbLine
 10
-475.6856820723217
 20
142.0529786195402
 30
0.0
 11
-475.6425246523217
 21
141.9109092095402
 31
0.0
  0
LINE
  5
1533
330
6B
100
AcDbEntity
  8
0
 62
     3
100
AcDbLine
 10
-475.6425246523217
 20
141.9109092095402
 30
0.0
 11
-475.5949725823218
 21
141.7799467295402
 31
0.0
  0
LINE
  5
1534
330
6B
100
AcDbEntity
  8
0
 62
     3
100
AcDbLine
 10
-475.5949725823218
 20
141.7799467295402
 30
0.0
 11
-475.5433934323217
 21
141.6611034495403
 31
0.0
  0
LINE
  5
1535
330
6B
100
AcDbEntity
  8
0
 62
     3
100
AcDbLine
 10
-475.5433934323217
 20
141.6611034495403
 30
0.0
 11
-475.4881858623217
 21
141.5552979795402
 31
0.0
  0
LINE
  5
1536
330
6B
100
AcDbEntity
  8
0
 62
     3
100
AcDbLine
 10
-475.4881858623217
 20
141.5552979795402
 30
0.0
 11
-475.4297766123218
 21
141.4633481195402
 31
0.0
  0
LINE
  5
1537
330
6B
100
AcDbEntity
  8
0
 62
     3
100
AcDbLine
 10
-475.4297766123218
 20
141.4633481195402
 30
0.0
 11
-475.3686171523218
 21
141.3859646195402
 31
0.0
  0
LINE
  5
1538
330
6B
100
AcDbEntity
  8
0
 62
     3
100
AcDbLine
 10
-475.3686171523218
 20
141.3859646195402
 30
0.0
 11
-475.3051802123217
 21
141.3237455995402
 31
0.0
  0
LINE
  5
1539
330
6B
100
AcDbEntity
  8
0
 62
     3
100
AcDbLine
 10
-475.3051802123217
 20
141.3237455995402
 30
0.0
 11
-475.2399561323217
 21
141.2771719895402
 31
0.0
  0
LINE
  5
153A
330
6B
100
AcDbEntity
  8
0
 62
     3
100
AcDbLine
 10
-475.2399561323217
 20
141.2771719895402
 30
0.0
 11
-475.1734490523217
 21
141.2466037595402
 31
0.0
  0
LINE
  5
153B
330
6B
100
AcDbEntity
  8
0
 62
     3
100
AcDbLine
 10
-475.1734490523217
 20
141.2466037595402
 30
0.0
 11
-475.1061730423217
 21
141.2322772095402
 31
0.0
  0
LINE
  5
153C
330
6B
100
AcDbEntity
  8
0
 62
     3
100
AcDbLine
 10
-475.1061730423217
 20
141.2322772095402
 30
0.0
 11
-475.0386481123219
 21
141.2343030695402
 31
0.0
  0
LINE
  5
153D
330
6B
100
AcDbEntity
  8
0
 62
     3
100
AcDbLine
 10
-475.0386481123219
 20
141.2343030695402
 30
0.0
 11
-474.9713961923218
 21
141.2526656695402
 31
0.0
  0
LINE
  5
153E
330
6B
100
AcDbEntity
  8
0
 62
     3
100
AcDbLine
 10
-474.9713961923218
 20
141.2526656695402
 30
0.0
 11
-474.9049371123217
 21
141.2872230895402
 31
0.0
  0
LINE
  5
153F
330
6B
100
AcDbEntity
  8
0
 62
     3
100
AcDbLine
 10
-474.9049371123217
 20
141.2872230895402
 30
0.0
 11
-474.8397845523219
 21
141.3377082195402
 31
0.0
  0
LINE
  5
1540
330
6B
100
AcDbEntity
  8
0
 62
     3
100
AcDbLine
 10
-474.8397845523219
 20
141.3377082195402
 30
0.0
 11
-474.7764421223218
 21
141.4037308195402
 31
0.0
  0
LINE
  5
1541
330
6B
100
AcDbEntity
  8
0
 62
     3
100
AcDbLine
 10
-474.7764421223218
 20
141.4037308195402
 30
0.0
 11
-474.7153994223217
 21
141.4847805795402
 31
0.0
  0
LINE
  5
1542
330
6B
100
AcDbEntity
  8
0
 62
     3
100
AcDbLine
 10
-474.7153994223217
 20
141.4847805795402
 30
0.0
 11
-474.6571282823217
 21
141.5802310295402
 31
0.0
  0
LINE
  5
1543
330
6B
100
AcDbEntity
  8
0
 62
     3
100
AcDbLine
 10
-474.6571282823217
 20
141.5802310295402
 30
0.0
 11
-474.6020791023219
 21
141.6893443895402
 31
0.0
  0
LINE
  5
1544
330
6B
100
AcDbEntity
  8
0
 62
     3
100
AcDbLine
 10
-474.6020791023219
 20
141.6893443895402
 30
0.0
 11
-474.5506773823217
 21
141.8112772495402
 31
0.0
  0
LINE
  5
1545
330
6B
100
AcDbEntity
  8
0
 62
     3
100
AcDbLine
 10
-474.5506773823217
 20
141.8112772495402
 30
0.0
 11
-474.5033204423219
 21
141.9450871595402
 31
0.0
  0
LINE
  5
1546
330
6B
100
AcDbEntity
  8
0
 62
     3
100
AcDbLine
 10
-474.5033204423219
 20
141.9450871595402
 30
0.0
 11
-474.4603743223217
 21
142.0897398095402
 31
0.0
  0
LINE
  5
1547
330
6B
100
AcDbEntity
  8
0
 62
     3
100
AcDbLine
 10
-474.4603743223217
 20
142.0897398095402
 30
0.0
 11
-474.4221709723218
 21
142.2441171295402
 31
0.0
  0
LINE
  5
1548
330
6B
100
AcDbEntity
  8
0
 62
     3
100
AcDbLine
 10
-474.4221709723218
 20
142.2441171295402
 30
0.0
 11
-474.3890056823218
 21
142.4070258595402
 31
0.0
  0
LINE
  5
1549
330
6B
100
AcDbEntity
  8
0
 62
     3
100
AcDbLine
 10
-474.3890056823218
 20
142.4070258595402
 30
0.0
 11
-474.3611348023217
 21
142.5772067895402
 31
0.0
  0
TEXT
  5
154A
330
6B
100
AcDbEntity
  8
0
 62
     4
100
AcDbText
 10
-435.4915373923216
 20
86.12078030954018
 30
0.0
 40
3.0
  1
2t
 50
90.0
100
AcDbText
  0
LINE
  5
154B
330
6B
100
AcDbEntity
  8
0
  6
ByBlock
 62
     0
370
    -2
100
AcDbLine
 10
-434.1966648923216
 20
82.99578030954025
 30
0.0
 11
-434.8665373923217
 21
80.49578030954025
 31
0.0
  0
LINE
  5
154C
330
6B
100
AcDbEntity
  8
0
  6
ByBlock
 62
     0
370
    -2
100
AcDbLine
 10
-434.8665373923217
 20
80.49578030954025
 30
0.0
 11
-435.5364098923216
 21
82.99578030954025
 31
0.0
  0
LINE
  5
154D
330
6B
100
AcDbEntity
  8
0
  6
ByBlock
 62
     0
370
    -2
100
AcDbLine
 10
-434.8665373923217
 20
80.49578030954025
 30
0.0
 11
-434.8665373923217
 21
82.99578030954025
 31
0.0
  0
LINE
  5
154E
330
6B
100
AcDbEntity
  8
0
  6
ByBlock
 62
     0
370
    -2
100
AcDbLine
 10
-435.5364098923216
 20
74.99578030954025
 30
0.0
 11
-434.8665373923217
 21
77.49578030954025
 31
0.0
  0
LINE
  5
154F
330
6B
100
AcDbEntity
  8
0
  6
ByBlock
 62
     0
370
    -2
100
AcDbLine
 10
-434.8665373923217
 20
77.49578030954025
 30
0.0
 11
-434.1966648923216
 21
74.99578030954025
 31
0.0
  0
LINE
  5
1550
330
6B
100
AcDbEntity
  8
0
  6
ByBlock
 62
     0
370
    -2
100
AcDbLine
 10
-434.8665373923217
 20
77.49578030954025
 30
0.0
 11
-434.8665373923217
 21
74.99578030954025
 31
0.0
  0
TEXT
  5
1551
330
6B
100
AcDbEntity
  8
0
 62
     4
100
AcDbText
 10
-390.4657418751469
 20
-9.642720690459814
 30
0.0
 40
3.0
  1
15
 50
90.0
100
AcDbText
  0
LINE
  5
1552
330
6B
100
AcDbEntity
  8
0
  6
ByBlock
 62
     0
370
    -2
100
AcDbLine
 10
-390.5106143751469
 20
0.7322793095402465
 30
0.0
 11
-389.8407418751469
 21
3.232279309540246
 31
0.0
  0
LINE
  5
1553
330
6B
100
AcDbEntity
  8
0
  6
ByBlock
 62
     0
370
    -2
100
AcDbLine
 10
-389.8407418751469
 20
3.232279309540246
 30
0.0
 11
-389.1708693751469
 21
0.7322793095402465
 31
0.0
  0
LINE
  5
1554
330
6B
100
AcDbEntity
  8
0
  6
ByBlock
 62
     0
370
    -2
100
AcDbLine
 10
-389.8407418751469
 20
3.232279309540246
 30
0.0
 11
-389.8407418751469
 21
0.7322793095402465
 31
0.0
  0
LINE
  5
1555
330
6B
100
AcDbEntity
  8
0
  6
ByBlock
 62
     0
370
    -2
100
AcDbLine
 10
-389.1708693751469
 20
20.82181130954025
 30
0.0
 11
-389.8407418751469
 21
18.32181130954024
 31
0.0
  0
LINE
  5
1556
330
6B
100
AcDbEntity
  8
0
  6
ByBlock
 62
     0
370
    -2
100
AcDbLine
 10
-389.8407418751469
 20
18.32181130954024
 30
0.0
 11
-390.5106143751469
 21
20.82181130954025
 31
0.0
  0
LINE
  5
1557
330
6B
100
AcDbEntity
  8
0
  6
ByBlock
 62
     0
370
    -2
100
AcDbLine
 10
-389.8407418751469
 20
18.32181130954024
 30
0.0
 11
-389.8407418751469
 21
20.82181130954025
 31
0.0
  0
TEXT
  5
1558
330
6B
100
AcDbEntity
  8
0
 62
     4
100
AcDbText
 10
-444.9765973923217
 20
35.25567130954025
 30
0.0
 40
3.0
  1
L寸法
100
AcDbText
  0
LINE
  5
1559
330
6B
100
AcDbEntity
  8
0
  6
ByBlock
 62
     0
370
    -2
100
AcDbLine
 10
-319.8857143923218
 20
35.30054380954025
 30
0.0
 11
-317.3857143923218
 21
34.63067130954025
 31
0.0
  0
LINE
  5
155A
330
6B
100
AcDbEntity
  8
0
  6
ByBlock
 62
     0
370
    -2
100
AcDbLine
 10
-317.3857143923218
 20
34.63067130954025
 30
0.0
 11
-319.8857143923218
 21
33.96079880954025
 31
0.0
  0
LINE
  5
155B
330
6B
100
AcDbEntity
  8
0
  6
ByBlock
 62
     0
370
    -2
100
AcDbLine
 10
-317.3857143923218
 20
34.63067130954025
 30
0.0
 11
-319.8857143923218
 21
34.63067130954025
 31
0.0
  0
LINE
  5
155C
330
6B
100
AcDbEntity
  8
0
  6
ByBlock
 62
     0
370
    -2
100
AcDbLine
 10
-560.6674803923217
 20
33.96079880954025
 30
0.0
 11
-563.1674803923217
 21
34.63067130954025
 31
0.0
  0
LINE
  5
155D
330
6B
100
AcDbEntity
  8
0
  6
ByBlock
 62
     0
370
    -2
100
AcDbLine
 10
-563.1674803923217
 20
34.63067130954025
 30
0.0
 11
-560.6674803923217
 21
35.30054380954025
 31
0.0
  0
LINE
  5
155E
330
6B
100
AcDbEntity
  8
0
  6
ByBlock
 62
     0
370
    -2
100
AcDbLine
 10
-563.1674803923217
 20
34.63067130954025
 30
0.0
 11
-560.6674803923217
 21
34.63067130954025
 31
0.0
  0
TEXT
  5
155F
330
6B
100
AcDbEntity
  8
0
 62
     4
100
AcDbText
 10
-596.6852563923217
 20
35.25567130954025
 30
0.0
 40
3.0
  1
65
100
AcDbText
  0
LINE
  5
1560
330
6B
100
AcDbEntity
  8
0
  6
ByBlock
 62
     0
370
    -2
100
AcDbLine
 10
-565.6674803923217
 20
35.30054380954025
 30
0.0
 11
-563.1674803923217
 21
34.63067130954025
 31
0.0
  0
LINE
  5
1561
330
6B
100
AcDbEntity
  8
0
  6
ByBlock
 62
     0
370
    -2
100
AcDbLine
 10
-563.1674803923217
 20
34.63067130954025
 30
0.0
 11
-565.6674803923217
 21
33.96079880954025
 31
0.0
  0
LINE
  5
1562
330
6B
100
AcDbEntity
  8
0
  6
ByBlock
 62
     0
370
    -2
100
AcDbLine
 10
-563.1674803923217
 20
34.63067130954025
 30
0.0
 11
-565.6674803923217
 21
34.63067130954025
 31
0.0
  0
LINE
  5
1563
330
6B
100
AcDbEntity
  8
0
  6
ByBlock
 62
     0
370
    -2
100
AcDbLine
 10
-622.7030323923218
 20
33.96079880954025
 30
0.0
 11
-625.2030323923218
 21
34.63067130954025
 31
0.0
  0
LINE
  5
1564
330
6B
100
AcDbEntity
  8
0
  6
ByBlock
 62
     0
370
    -2
100
AcDbLine
 10
-625.2030323923218
 20
34.63067130954025
 30
0.0
 11
-622.7030323923218
 21
35.30054380954025
 31
0.0
  0
LINE
  5
1565
330
6B
100
AcDbEntity
  8
0
  6
ByBlock
 62
     0
370
    -2
100
AcDbLine
 10
-625.2030323923218
 20
34.63067130954025
 30
0.0
 11
-622.7030323923218
 21
34.63067130954025
 31
0.0
  0
TEXT
  5
1566
330
6B
100
AcDbEntity
  8
0
 62
     4
100
AcDbText
 10
-309.5362173923218
 20
8.279460309540196
 30
0.0
 40
3.0
  1
24
 50
90.0
100
AcDbText
  0
LINE
  5
1567
330
6B
100
AcDbEntity
  8
0
  6
ByBlock
 62
     0
370
    -2
100
AcDbLine
 10
-309.5810898923218
 20
20.27946030954025
 30
0.0
 11
-308.9112173923218
 21
22.77946030954025
 31
0.0
  0
LINE
  5
1568
330
6B
100
AcDbEntity
  8
0
  6
ByBlock
 62
     0
370
    -2
100
AcDbLine
 10
-308.9112173923218
 20
22.77946030954025
 30
0.0
 11
-308.2413448923218
 21
20.27946030954025
 31
0.0
  0
LINE
  5
1569
330
6B
100
AcDbEntity
  8
0
  6
ByBlock
 62
     0
370
    -2
100
AcDbLine
 10
-308.9112173923218
 20
22.77946030954025
 30
0.0
 11
-308.9112173923218
 21
20.27946030954025
 31
0.0
  0
LINE
  5
156A
330
6B
100
AcDbEntity
  8
0
  6
ByBlock
 62
     0
370
    -2
100
AcDbLine
 10
-308.2413448923218
 20
1.279460309540247
 30
0.0
 11
-308.9112173923218
 21
-1.220539690459752
 31
0.0
  0
LINE
  5
156B
330
6B
100
AcDbEntity
  8
0
  6
ByBlock
 62
     0
370
    -2
100
AcDbLine
 10
-308.9112173923218
 20
-1.220539690459752
 30
0.0
 11
-309.5810898923218
 21
1.279460309540247
 31
0.0
  0
LINE
  5
156C
330
6B
100
AcDbEntity
  8
0
  6
ByBlock
 62
     0
370
    -2
100
AcDbLine
 10
-308.9112173923218
 20
-1.220539690459752
 30
0.0
 11
-308.9112173923218
 21
1.279460309540247
 31
0.0
  0
TEXT
  5
156D
330
6B
100
AcDbEntity
  8
0
 62
     4
100
AcDbText
 10
-307.5817193923218
 20
81.49354930954016
 30
0.0
 40
3.0
  1
10
 50
90.0
100
AcDbText
  0
LINE
  5
156E
330
6B
100
AcDbEntity
  8
0
  6
ByBlock
 62
     0
370
    -2
100
AcDbLine
 10
-307.6265918923218
 20
85.74354930954022
 30
0.0
 11
-306.9567193923218
 21
88.24354930954022
 31
0.0
  0
LINE
  5
156F
330
6B
100
AcDbEntity
  8
0
  6
ByBlock
 62
     0
370
    -2
100
AcDbLine
 10
-306.9567193923218
 20
88.24354930954022
 30
0.0
 11
-306.2868468923218
 21
85.74354930954022
 31
0.0
  0
LINE
  5
1570
330
6B
100
AcDbEntity
  8
0
  6
ByBlock
 62
     0
370
    -2
100
AcDbLine
 10
-306.9567193923218
 20
88.24354930954022
 30
0.0
 11
-306.9567193923218
 21
85.74354930954022
 31
0.0
  0
LINE
  5
1571
330
6B
100
AcDbEntity
  8
0
  6
ByBlock
 62
     0
370
    -2
100
AcDbLine
 10
-306.2868468923218
 20
80.74354930954022
 30
0.0
 11
-306.9567193923218
 21
78.24354930954022
 31
0.0
  0
LINE
  5
1572
330
6B
100
AcDbEntity
  8
0
  6
ByBlock
 62
     0
370
    -2
100
AcDbLine
 10
-306.9567193923218
 20
78.24354930954022
 30
0.0
 11
-307.6265918923218
 21
80.74354930954022
 31
0.0
  0
LINE
  5
1573
330
6B
100
AcDbEntity
  8
0
  6
ByBlock
 62
     0
370
    -2
100
AcDbLine
 10
-306.9567193923218
 20
78.24354930954022
 30
0.0
 11
-306.9567193923218
 21
80.74354930954022
 31
0.0
  0
TEXT
  5
1574
330
6B
100
AcDbEntity
  8
0
 62
     4
100
AcDbText
 10
-639.0016253923217
 20
78.78561780954012
 30
0.0
 40
3.0
  1
53
 50
90.0
100
AcDbText
  0
LINE
  5
1575
330
6B
100
AcDbEntity
  8
0
  6
ByBlock
 62
     0
370
    -2
100
AcDbLine
 10
-639.0464978923217
 20
106.1291853095402
 30
0.0
 11
-638.3766253923218
 21
108.6291853095402
 31
0.0
  0
LINE
  5
1576
330
6B
100
AcDbEntity
  8
0
  6
ByBlock
 62
     0
370
    -2
100
AcDbLine
 10
-638.3766253923218
 20
108.6291853095402
 30
0.0
 11
-637.7067528923218
 21
106.1291853095402
 31
0.0
  0
LINE
  5
1577
330
6B
100
AcDbEntity
  8
0
  6
ByBlock
 62
     0
370
    -2
100
AcDbLine
 10
-638.3766253923218
 20
108.6291853095402
 30
0.0
 11
-638.3766253923218
 21
106.1291853095402
 31
0.0
  0
LINE
  5
1578
330
6B
100
AcDbEntity
  8
0
  6
ByBlock
 62
     0
370
    -2
100
AcDbLine
 10
-637.7067528923218
 20
56.44205030954026
 30
0.0
 11
-638.3766253923218
 21
53.94205030954026
 31
0.0
  0
LINE
  5
1579
330
6B
100
AcDbEntity
  8
0
  6
ByBlock
 62
     0
370
    -2
100
AcDbLine
 10
-638.3766253923218
 20
53.94205030954026
 30
0.0
 11
-639.0464978923217
 21
56.44205030954026
 31
0.0
  0
LINE
  5
157A
330
6B
100
AcDbEntity
  8
0
  6
ByBlock
 62
     0
370
    -2
100
AcDbLine
 10
-638.3766253923218
 20
53.94205030954026
 30
0.0
 11
-638.3766253923218
 21
56.44205030954026
 31
0.0
  0
TEXT
  5
157B
330
6B
100
AcDbEntity
  8
0
 62
     4
100
AcDbText
 10
-601.5153753420024
 20
82.51994128545309
 30
0.0
 40
3.0
  1
\U+220530
 50
299.221369460311
100
AcDbText
  0
LINE
  5
157C
330
6B
100
AcDbEntity
  8
0
  6
ByBlock
 62
     0
370
    -2
100
AcDbLine
 10
-606.9170829669102
 20
89.52427931937668
 30
0.0
 11
-607.5529213923215
 21
92.03315130954015
 31
0.0
  0
LINE
  5
157D
330
6B
100
AcDbEntity
  8
0
  6
ByBlock
 62
     0
370
    -2
100
AcDbLine
 10
-607.5529213923215
 20
92.03315130954015
 30
0.0
 11
-605.7478338341655
 21
90.17832299574754
 31
0.0
  0
LINE
  5
157E
330
6B
100
AcDbEntity
  8
0
  6
ByBlock
 62
     0
370
    -2
100
AcDbLine
 10
-607.5529213923215
 20
92.03315130954015
 30
0.0
 11
-606.3324584005378
 21
89.85130115756211
 31
0.0
  0
LINE
  5
157F
330
6B
100
AcDbEntity
  8
0
  6
ByBlock
 62
     0
370
    -2
100
AcDbLine
 10
-593.5432038177326
 20
68.35982129970361
 30
0.0
 11
-592.9073653923214
 21
65.85094930954014
 31
0.0
  0
LINE
  5
1580
330
6B
100
AcDbEntity
  8
0
  6
ByBlock
 62
     0
370
    -2
100
AcDbLine
 10
-592.9073653923214
 20
65.85094930954014
 30
0.0
 11
-594.7124529504772
 21
67.70577762333275
 31
0.0
  0
LINE
  5
1581
330
6B
100
AcDbEntity
  8
0
  6
ByBlock
 62
     0
370
    -2
100
AcDbLine
 10
-592.9073653923214
 20
65.85094930954014
 30
0.0
 11
-594.1278283841049
 21
68.03279946151818
 31
0.0
  0
ENDSEC
  0
SECTION
  2
OBJECTS
  0
DICTIONARY
  5
C
330
0
100
AcDbDictionary
281
     1
  3
ACAD_2007HEADERVARS_RT
350
1585
  3
ACAD_COLOR
350
62
  3
ACAD_GROUP
350
D
  3
ACAD_LAYOUT
350
61
  3
ACAD_MATERIAL
350
10
  3
ACAD_MLEADERSTYLE
350
65
  3
ACAD_MLINESTYLE
350
5E
  3
ACAD_PLOTSETTINGS
350
60
  3
ACAD_PLOTSTYLENAME
350
E
  3
ACAD_SCALELIST
350
42
  3
ACAD_TABLESTYLE
350
63
  3
ACAD_VISUALSTYLE
350
29
  3
ACDB_RECOMPOSE_DATA
350
1583
  3
AcDbVariableDictionary
350
B36
  3
AEC_PROPERTY_SET_DEFS
350
F12
  3
DWGPROPS
350
1584
  0
DICTIONARY
  5
4AD
330
2
100
AcDbDictionary
280
     1
281
     1
  3
ACAD_LAYERSTATES
360
4AE
  0
DICTIONARY
  5
B34
330
54
100
AcDbDictionary
280
     1
281
     1
  3
ADSK_XREC_LAYER_RECONCILED
360
B35
  0
DICTIONARY
  5
A8E
330
6B
100
AcDbDictionary
280
     1
281
     1
  3
ACAD_SORTENTS
360
A8F
  0
DICTIONARY
  5
15C0
330
BCF
100
AcDbDictionary
280
     1
281
     1
  3
ACAD_MTEXT_RT
360
15C1
  0
DICTIONARY
  5
15C2
330
C18
100
AcDbDictionary
280
     1
281
     1
  3
ACAD_MTEXT_RT
360
15C3
  0
DICTIONARY
  5
15C4
330
1283
100
AcDbDictionary
280
     1
281
     1
  3
ACAD_MTEXT_RT
360
15C5
  0
DICTIONARY
  5
1585
102
{ACAD_REACTORS
330
C
102
}
330
C
100
AcDbDictionary
281
     1
  3
DIMARCSYM
350
1587
  3
DIMFXL
350
1586
  3
DIMJOGANG
350
1588
  0
DICTIONARY
  5
62
102
{ACAD_REACTORS
330
C
102
}
330
C
100
AcDbDictionary
281
     1
  0
DICTIONARY
  5
D
102
{ACAD_REACTORS
330
C
102
}
330
C
100
AcDbDictionary
281
     1
  0
DICTIONARY
  5
61
102
{ACAD_REACTORS
330
C
102
}
330
C
100
AcDbDictionary
281
     1
  3
Model
350
6E
  3
レイアウト1
350
6A
  0
DICTIONARY
  5
10
102
{ACAD_REACTORS
330
C
102
}
330
C
100
AcDbDictionary
281
     1
  3
ByBlock
350
19
  3
ByLayer
350
11
  3
Global
350
21
  0
DICTIONARY
  5
65
102
{ACAD_REACTORS
330
C
102
}
330
C
100
AcDbDictionary
281
     1
  3
Standard
350
66
  0
DICTIONARY
  5
5E
102
{ACAD_REACTORS
330
C
102
}
330
C
100
AcDbDictionary
281
     1
  3
Standard
350
5F
  0
DICTIONARY
  5
60
102
{ACAD_REACTORS
330
C
102
}
330
C
100
AcDbDictionary
281
     1
  0
ACDBDICTIONARYWDFLT
  5
E
102
{ACAD_REACTORS
330
C
102
}
330
C
100
AcDbDictionary
281
     1
  3
Normal
350
F
100
AcDbDictionaryWithDefault
340
F
  0
DICTIONARY
  5
42
102
{ACAD_REACTORS
330
C
102
}
330
C
100
AcDbDictionary
281
     1
  3
A0
350
43
  3
A1
350
44
  3
A2
350
45
  3
A3
350
46
  3
A4
350
47
  3
A5
350
48
  3
A6
350
49
  3
A7
350
4A
  3
A8
350
4B
  3
A9
350
4C
  3
B0
350
4D
  3
B1
350
4E
  3
B2
350
4F
  3
B3
350
50
  3
B4
350
51
  3
B5
350
52
  3
B6
350
53
  0
DICTIONARY
  5
63
102
{ACAD_REACTORS
330
C
102
}
330
C
100
AcDbDictionary
281
     1
  3
Standard
350
64
  0
DICTIONARY
  5
29
102
{ACAD_REACTORS
330
C
102
}
330
C
100
AcDbDictionary
281
     1
  3
2dWireframe
350
2F
  3
3dWireframe
350
85B
  3
Basic
350
2E
  3
Brighten
350
35
  3
ColorChange
350
39
  3
Conceptual
350
32
  3
Dim
350
34
  3
EdgeColorOff
350
41
  3
Facepattern
350
38
  3
Flat
350
2A
  3
FlatWithEdges
350
2B
  3
Gouraud
350
2C
  3
GouraudWithEdges
350
2D
  3
Hidden
350
31
  3
JitterOff
350
3F
  3
Linepattern
350
37
  3
OverhangOff
350
40
  3
Realistic
350
33
  3
Shaded
350
3E
  3
Shaded with edges
350
3D
  3
Shades of Gray
350
3A
  3
Sketchy
350
3B
  3
Thicken
350
36
  3
Wireframe
350
30
  3
X-Ray
350
3C
  0
XRECORD
  5
1583
102
{ACAD_REACTORS
330
C
102
}
330
C
100
AcDbXrecord
280
     1
 90
        1
330
64
  0
DICTIONARY
  5
B36
102
{ACAD_REACTORS
330
C
102
}
330
C
100
AcDbDictionary
281
     1
  3
CANNOSCALE
350
B39
  3
CMLEADERSTYLE
350
B38
  3
CTABLESTYLE
350
B37
  3
DIMASSOC
350
B3C
  3
INDEXCTL
350
B3B
  3
SORTENTS
350
B3A
  3
XCLIPFRAME
350
12BF
  0
DICTIONARY
  5
F12
102
{ACAD_REACTORS
330
C
102
}
330
C
100
AcDbDictionary
281
     1
  0
XRECORD
  5
1584
102
{ACAD_REACTORS
330
C
102
}
330
C
100
AcDbXrecord
280
     1
  1
DWGPROPS COOKIE
  2

  3

  4

  6

  7

  8
imamura
  9

300
=
301
=
302
=
303
=
304
=
305
=
306
=
307
=
308
=
309
=
 40
0.0991990393518519
 41
2456321.669682928
 42
2459793.734268924
  1

 90
        0
  0
DICTIONARY
  5
4AE
102
{ACAD_REACTORS
330
4AD
102
}
330
4AD
100
AcDbDictionary
281
     1
  0
XRECORD
  5
B35
102
{ACAD_REACTORS
330
B34
102
}
330
B34
100
AcDbXrecord
280
     1
290
     1
  0
SORTENTSTABLE
  5
A8F
102
{ACAD_REACTORS
330
A8E
102
}
330
A8E
100
AcDbSortentsTable
330
6B
331
A8B
  5
5C9
331
A74
  5
5B2
331
A70
  5
5AE
331
131D
  5
1575
331
687
  5
1538
331
1577
  5
604
331
9FE
  5
4F5
331
683
  5
1534
331
64C
  5
14BF
331
1573
  5
60E
331
60D
  5
132A
331
14BE
  5
1502
331
14FD
  5
608
331
1534
  5
540
331
9FA
  5
4F1
331
67F
  5
1530
331
648
  5
14BB
331
156F
  5
610
331
14BA
  5
14FE
331
609
  5
1325
331
1485
  5
14C9
331
1530
  5
53A
331
9F6
  5
4ED
331
67B
  5
152C
331
644
  5
14B7
331
156B
  5
61A
331
605
  5
1320
331
14B6
  5
14FA
331
14F5
  5
616
331
1481
  5
14C5
331
152C
  5
536
331
9F2
  5
4E9
331
640
  5
14B3
331
601
  5
131C
331
12A5
  5
1559
331
14B2
  5
14F6
331
14F1
  5
622
331
1528
  5
532
331
12A1
  5
1555
331
5D7
  5
1143
331
5D3
  5
113F
331
594
  5
A37
331
4FD
  5
68C
331
5CF
  5
113B
331
590
  5
A33
331
55E
  5
9FF
331
4F9
  5
688
331
5CB
  5
A81
331
58C
  5
A2F
331
55A
  5
9FB
331
4F5
  5
684
331
51B
  5
9D1
331
113F
  5
1545
331
A34
  5
56D
331
588
  5
A2B
331
556
  5
9F7
331
4F1
  5
67E
331
113B
  5
1541
331
68C
  5
153D
331
A30
  5
569
331
552
  5
9F3
331
688
  5
1539
331
A2C
  5
565
331
A6C
  5
5AA
331
A68
  5
5A6
331
A28
  5
561
331
A64
  5
5A2
331
A60
  5
59E
331
677
  5
1528
331
1567
  5
61C
331
9EE
  5
4E5
331
673
  5
1524
331
63C
  5
14AF
331
1563
  5
623
331
14AE
  5
14F2
331
5FD
  5
12BC
331
1524
  5
52E
331
9EA
  5
4E1
331
66F
  5
1520
331
638
  5
14AB
331
155F
  5
629
331
5F9
  5
12B8
331
14AA
  5
14EE
331
14E9
  5
62A
331
1520
  5
52A
331
9E6
  5
4DD
331
66B
  5
151C
331
634
  5
14A7
331
155B
  5
632
331
5F5
  5
12B4
331
14A6
  5
14EA
331
14E5
  5
638
331
151C
  5
526
331
9E2
  5
4D9
331
630
  5
14A3
331
5F1
  5
12B0
331
14A2
  5
14E6
331
14E1
  5
634
331
1518
  5
522
331
5C7
  5
A7D
331
5C3
  5
A79
331
584
  5
A27
331
4ED
  5
67A
331
5BF
  5
A75
331
580
  5
A23
331
54E
  5
9EF
331
4E9
  5
676
331
5BB
  5
A71
331
57C
  5
A1F
331
54A
  5
9EB
331
4E5
  5
672
331
A24
  5
55D
331
578
  5
A1B
331
546
  5
9E7
331
4E1
  5
66E
331
4BF
  5
64C
331
A20
  5
559
331
542
  5
9E3
331
A5C
  5
59A
331
A1C
  5
513
331
A58
  5
597
331
A18
  5
50F
331
A54
  5
593
331
A50
  5
58F
331
1557
  5
63B
331
9DE
  5
4D5
331
62C
  5
149F
331
1553
  5
63D
331
14DD
  5
644
331
9DA
  5
4D1
331
667
  5
1518
331
628
  5
149B
331
154F
  5
646
331
14D9
  5
640
331
9D6
  5
4CD
331
A15
  5
50C
331
A11
  5
508
331
663
  5
1514
331
624
  5
1497
331
154B
  5
648
331
14D5
  5
A5E
331
1514
  5
51E
331
9D2
  5
4C9
331
620
  5
1493
331
149C
  5
14E0
331
14D1
  5
A5A
331
1510
  5
51A
331
1498
  5
14DC
331
5B7
  5
A6D
331
12BC
  5
1570
331
5B3
  5
A57
331
4DD
  5
66A
331
12B8
  5
156C
331
5EE
  5
12AD
331
5AF
  5
A53
331
53E
  5
9DF
331
4D9
  5
666
331
5EA
  5
12A9
331
5AB
  5
A4F
331
514
  5
9CA
331
53A
  5
9DB
331
4D5
  5
662
331
510
  5
9C6
331
575
  5
A18
331
4D1
  5
65E
331
536
  5
9D7
331
A4F
  5
58E
331
571
  5
A14
331
A4B
  5
582
331
A87
  5
5C5
331
A83
  5
5C1
331
65F
  5
1510
331
1547
  5
554
331
9CE
  5
4C5
331
A0D
  5
504
331
65B
  5
150C
331
61C
  5
148F
331
1543
  5
54F
331
14CD
  5
A6A
331
150C
  5
516
331
9CA
  5
4C1
331
A09
  5
500
331
657
  5
1508
331
157E
  5
5D8
331
618
  5
148B
331
153F
  5
54B
331
1494
  5
14D8
331
14C9
  5
A66
331
9C6
  5
4BD
331
A05
  5
4FC
331
1320
  5
1578
331
653
  5
1504
331
157A
  5
5E8
331
614
  5
1487
331
1490
  5
14D4
331
14C5
  5
A62
331
153B
  5
547
331
A01
  5
4F8
331
610
  5
1482
331
12B4
  5
1568
331
148C
  5
14D0
331
14C1
  5
1480
331
12B0
  5
1564
331
1488
  5
14CC
331
5E6
  5
12A5
331
5A7
  5
A4B
331
12AC
  5
1560
331
5E2
  5
12A1
331
5A3
  5
A47
331
50C
  5
9C2
331
4CD
  5
65A
331
12A8
  5
155C
331
59F
  5
A42
331
508
  5
874
331
56D
  5
A10
331
4C9
  5
656
331
5DA
  5
1146
331
59B
  5
A3E
331
504
  5
870
331
569
  5
A0C
331
4C5
  5
652
331
A43
  5
57C
331
500
  5
86C
331
565
  5
A07
331
4C1
  5
64E
331
114A
  5
1550
331
A3F
  5
578
331
A7F
  5
5BD
331
561
  5
A02
331
1146
  5
154C
331
A3B
  5
574
331
A7B
  5
5B9
331
1142
  5
1548
331
A77
  5
5B5
331
A8A
  5
5C8
331
A73
  5
5B1
331
131C
  5
1574
331
686
  5
1537
331
64F
  5
14C2
331
1576
  5
5EA
331
1537
  5
543
331
9FD
  5
4F4
331
682
  5
1533
331
64B
  5
14BE
331
1572
  5
60D
331
60C
  5
1329
331
14BD
  5
1501
331
14FC
  5
607
331
1533
  5
53D
331
9F9
  5
4F0
331
67E
  5
152F
331
647
  5
14BA
331
156E
  5
60F
331
14B9
  5
14FD
331
608
  5
1323
331
1484
  5
14C8
331
152F
  5
539
331
9F5
  5
4EC
331
67A
  5
152B
331
643
  5
14B6
331
156A
  5
619
331
14B5
  5
14F9
331
604
  5
131F
331
1480
  5
14C4
331
152B
  5
535
331
9F1
  5
4E8
331
600
  5
131B
331
12A4
  5
1558
331
14B1
  5
14F5
331
14F0
  5
621
331
12A0
  5
1554
331
5D6
  5
1142
331
597
  5
A3A
331
5D2
  5
113E
331
593
  5
A36
331
4FC
  5
68B
331
5CE
  5
113A
331
58F
  5
A32
331
55D
  5
9FE
331
4F8
  5
687
331
51E
  5
9D5
331
A37
  5
570
331
5CA
  5
A80
331
58B
  5
A2E
331
559
  5
9FA
331
4F4
  5
681
331
51A
  5
9D0
331
113E
  5
1544
331
A33
  5
56C
331
555
  5
9F6
331
4F0
  5
67D
331
113A
  5
1540
331
68B
  5
153C
331
A2F
  5
568
331
A6F
  5
5AD
331
551
  5
9F2
331
A6B
  5
5A9
331
A2B
  5
564
331
A67
  5
5A5
331
A63
  5
5A1
331
676
  5
1527
331
63F
  5
14B2
331
1566
  5
61F
331
1527
  5
531
331
9ED
  5
4E4
331
672
  5
1523
331
63B
  5
14AE
331
1562
  5
628
331
14AD
  5
14F1
331
5FC
  5
12BB
331
1523
  5
52D
331
9E9
  5
4E0
331
66E
  5
151F
331
637
  5
14AA
331
155E
  5
62F
331
14A9
  5
14ED
331
5F8
  5
12B7
331
151F
  5
529
331
9E5
  5
4DC
331
66A
  5
151B
331
633
  5
14A6
331
155A
  5
631
331
5F4
  5
12B3
331
14A5
  5
14E9
331
14E4
  5
637
331
151B
  5
525
331
9E1
  5
4D8
331
14A1
  5
14E5
331
5F0
  5
12AF
331
5C6
  5
A7C
331
587
  5
A2A
331
5C2
  5
A78
331
583
  5
A26
331
4EC
  5
679
331
5BE
  5
A74
331
57F
  5
A22
331
54D
  5
9EE
331
4E8
  5
675
331
A27
  5
560
331
5BA
  5
A70
331
57B
  5
A1E
331
549
  5
9EA
331
4E4
  5
671
331
A23
  5
55C
331
545
  5
9E6
331
4E0
  5
66D
331
A5F
  5
59D
331
A1F
  5
558
331
541
  5
9E2
331
A5B
  5
599
331
A1B
  5
512
331
A57
  5
596
331
A53
  5
592
331
62F
  5
14A2
331
1556
  5
63A
331
9DD
  5
4D4
331
62B
  5
149E
331
1552
  5
63C
331
14DC
  5
643
331
9D9
  5
4D0
331
A14
  5
50B
331
666
  5
1517
331
627
  5
149A
331
154E
  5
645
331
14D8
  5
A61
331
1517
  5
521
331
9D5
  5
4CC
331
A10
  5
507
331
662
  5
1513
331
623
  5
1496
331
154A
  5
64B
331
149F
  5
14E3
331
14D4
  5
A5D
331
1513
  5
51D
331
9D1
  5
4C8
331
149B
  5
14DF
331
14D0
  5
A59
331
5B6
  5
A6C
331
12BB
  5
156F
331
5B2
  5
A56
331
4DC
  5
669
331
5ED
  5
12AC
331
5AE
  5
A52
331
517
  5
9CD
331
53D
  5
9DE
331
4D8
  5
665
331
5E9
  5
12A8
331
5AA
  5
A4E
331
513
  5
9C9
331
539
  5
9DA
331
4D4
  5
661
331
574
  5
A17
331
4D0
  5
65D
331
535
  5
9D6
331
A4E
  5
58D
331
570
  5
A13
331
A4A
  5
581
331
A86
  5
5C4
331
A82
  5
5C0
331
132B
  5
1581
331
65E
  5
150F
331
61F
  5
1492
331
1546
  5
553
331
150F
  5
519
331
9CD
  5
4C4
331
A0C
  5
503
331
1327
  5
157E
331
65A
  5
150B
331
1581
  5
5D2
331
61B
  5
148E
331
1542
  5
54E
331
1497
  5
14DB
331
14CC
  5
A69
331
150B
  5
515
331
9C9
  5
4C0
331
A08
  5
4FF
331
1323
  5
157B
331
656
  5
1507
331
157D
  5
5D7
331
617
  5
148A
331
153E
  5
54A
331
1493
  5
14D7
331
14C8
  5
A65
331
1507
  5
5CC
331
9C5
  5
4BC
331
A04
  5
4FB
331
A00
  5
4F7
331
652
  5
1503
331
1579
  5
5E4
331
12B7
  5
156B
331
148F
  5
14D3
331
14C4
  5
114B
331
1503
  5
5E2
331
153A
  5
546
331
9C1
  5
4B8
331
12B3
  5
1567
331
148B
  5
14CF
331
14C0
  5
1486
331
12AF
  5
1563
331
5E5
  5
12A4
331
5A6
  5
A4A
331
50F
  5
9C5
331
12AB
  5
155F
331
5E1
  5
12A0
331
5A2
  5
A45
331
50B
  5
9C1
331
4CC
  5
659
331
5DD
  5
1149
331
59E
  5
A41
331
507
  5
873
331
56C
  5
A0F
331
4C8
  5
655
331
A46
  5
57F
331
5D9
  5
1145
331
59A
  5
A3D
331
503
  5
86F
331
568
  5
A0B
331
4C4
  5
651
331
A42
  5
57B
331
564
  5
A06
331
4C0
  5
64D
331
1149
  5
154F
331
A3E
  5
577
331
A7E
  5
5BC
331
560
  5
A01
331
1145
  5
154B
331
A3A
  5
573
331
A7A
  5
5B8
331
1141
  5
1547
331
A8D
  5
5CB
331
A76
  5
5B4
331
A89
  5
5C7
331
A72
  5
5B0
331
131F
  5
1577
331
131B
  5
1573
331
685
  5
1536
331
64E
  5
14C1
331
1575
  5
5E9
331
1536
  5
542
331
9FC
  5
4F3
331
681
  5
1532
331
64A
  5
14BD
331
1571
  5
60C
331
60B
  5
1327
331
14BC
  5
1500
331
14FB
  5
606
331
1487
  5
14CB
331
1532
  5
53C
331
9F8
  5
4EF
331
67D
  5
152E
331
646
  5
14B9
331
156D
  5
615
331
607
  5
1322
331
14B8
  5
14FC
331
14F7
  5
618
331
1483
  5
14C7
331
152E
  5
538
331
9F4
  5
4EB
331
679
  5
152A
331
642
  5
14B5
331
1569
  5
61E
331
12A7
  5
155B
331
14B4
  5
14F8
331
603
  5
131E
331
152A
  5
534
331
9F0
  5
4E7
331
12A3
  5
1557
331
14B0
  5
14F4
331
129F
  5
1553
331
5D5
  5
1141
331
596
  5
A39
331
4FF
  5
68E
331
5D1
  5
113D
331
592
  5
A35
331
4FB
  5
68A
331
5CD
  5
A83
331
58E
  5
A31
331
55C
  5
9FD
331
4F7
  5
686
331
51D
  5
9D4
331
A36
  5
56F
331
5C9
  5
A7F
331
58A
  5
A2D
331
558
  5
9F9
331
4F3
  5
680
331
519
  5
9CF
331
113D
  5
1543
331
68E
  5
153F
331
A32
  5
56B
331
554
  5
9F5
331
68A
  5
153B
331
A2E
  5
567
331
A6E
  5
5AC
331
550
  5
9F1
331
A6A
  5
5A8
331
A2A
  5
563
331
A66
  5
5A4
331
A62
  5
5A0
331
675
  5
1526
331
63E
  5
14B1
331
1565
  5
625
331
5FF
  5
12BE
331
14EF
  5
620
331
1526
  5
530
331
9EC
  5
4E3
331
671
  5
1522
331
63A
  5
14AD
331
1561
  5
627
331
5FB
  5
12BA
331
14AC
  5
14F0
331
14EB
  5
62C
331
1522
  5
52C
331
9E8
  5
4DF
331
66D
  5
151E
331
636
  5
14A9
331
155D
  5
62E
331
14A8
  5
14EC
331
5F7
  5
12B6
331
151E
  5
528
331
9E4
  5
4DB
331
669
  5
151A
331
632
  5
14A5
331
1559
  5
630
331
5F3
  5
12B2
331
14A4
  5
14E8
331
14E3
  5
636
331
151A
  5
524
331
9E0
  5
4D7
331
14A0
  5
14E4
331
5C5
  5
A7B
331
586
  5
A29
331
4EF
  5
67C
331
5C1
  5
A77
331
582
  5
A25
331
4EB
  5
678
331
5BD
  5
A73
331
57E
  5
A21
331
54C
  5
9ED
331
4E7
  5
674
331
A26
  5
55F
331
5B9
  5
A6F
331
57A
  5
A1D
331
548
  5
9E9
331
4E3
  5
670
331
A22
  5
55B
331
544
  5
9E5
331
A5E
  5
59C
331
A1E
  5
557
331
540
  5
9E1
331
A5A
  5
598
331
A1A
  5
511
331
A56
  5
595
331
A52
  5
591
331
62E
  5
14A1
331
1555
  5
639
331
9DC
  5
4D3
331
62A
  5
149D
331
1551
  5
63F
331
14DB
  5
642
331
9D8
  5
4CF
331
A17
  5
50E
331
A13
  5
50A
331
665
  5
1516
331
626
  5
1499
331
154D
  5
64A
331
14D7
  5
A60
331
1516
  5
520
331
9D4
  5
4CB
331
661
  5
1512
331
622
  5
1495
331
1549
  5
556
331
149E
  5
14E2
331
14D3
  5
A5C
331
1512
  5
51C
331
9D0
  5
4C7
331
149A
  5
14DE
331
12BE
  5
1572
331
4DF
  5
66C
331
12BA
  5
156E
331
5B1
  5
A55
331
4DB
  5
668
331
5EC
  5
12AB
331
5AD
  5
A51
331
516
  5
9CC
331
53C
  5
9DD
331
4D7
  5
664
331
5E8
  5
12A7
331
5A9
  5
A4D
331
512
  5
9C8
331
577
  5
A1A
331
4D3
  5
660
331
538
  5
9D9
331
573
  5
A16
331
A4D
  5
584
331
A49
  5
580
331
A85
  5
5C3
331
A81
  5
5BF
331
A0F
  5
506
331
132A
  5
1580
331
65D
  5
150E
331
61E
  5
1491
331
1545
  5
552
331
14CF
  5
A58
331
150E
  5
518
331
9CC
  5
4C3
331
A0B
  5
502
331
1326
  5
157D
331
659
  5
150A
331
1580
  5
5D1
331
61A
  5
148D
331
1496
  5
14DA
331
14CB
  5
A68
331
1541
  5
54D
331
9C8
  5
4BF
331
A07
  5
4FE
331
1322
  5
157A
331
A03
  5
4FA
331
655
  5
1506
331
157C
  5
5D6
331
616
  5
1489
331
1492
  5
14D6
331
14C7
  5
A64
331
153D
  5
549
331
9C4
  5
4BB
331
1578
  5
5E3
331
612
  5
1484
331
12B6
  5
156A
331
148E
  5
14D2
331
14C3
  5
114A
331
1502
  5
5DE
331
1539
  5
545
331
9C0
  5
4B7
331
12B2
  5
1566
331
148A
  5
14CE
331
12AE
  5
1562
331
5E4
  5
12A3
331
5A5
  5
A49
331
50E
  5
9C4
331
4CF
  5
65C
331
12AA
  5
155E
331
5E0
  5
129F
331
5A1
  5
A44
331
50A
  5
9C0
331
56F
  5
A12
331
4CB
  5
658
331
5DC
  5
1148
331
59D
  5
A40
331
506
  5
872
331
56B
  5
A0E
331
4C7
  5
654
331
A45
  5
57E
331
5D8
  5
1144
331
599
  5
A3C
331
502
  5
86E
331
567
  5
A0A
331
4C3
  5
650
331
114C
  5
1552
331
A41
  5
57A
331
563
  5
A05
331
1148
  5
154E
331
A3D
  5
576
331
A7D
  5
5BB
331
1144
  5
154A
331
A39
  5
572
331
A79
  5
5B7
331
1140
  5
1546
331
A8C
  5
5CA
331
A75
  5
5B3
331
A88
  5
5C6
331
A71
  5
5AF
331
131E
  5
1576
331
9FF
  5
4F6
331
684
  5
1535
331
64D
  5
14C0
331
1574
  5
605
331
14BF
  5
1485
331
60E
  5
132B
331
1535
  5
541
331
9FB
  5
4F2
331
680
  5
1531
331
649
  5
14BC
331
1570
  5
614
331
14BB
  5
14FF
331
60A
  5
1326
331
1486
  5
14CA
331
1531
  5
53B
331
9F7
  5
4EE
331
67C
  5
152D
331
645
  5
14B8
331
156C
  5
61B
331
606
  5
1321
331
14B7
  5
14FB
331
14F6
  5
617
331
1482
  5
14C6
331
152D
  5
537
331
9F3
  5
4EA
331
678
  5
1529
331
641
  5
14B4
331
1568
  5
61D
331
12A6
  5
155A
331
14B3
  5
14F7
331
602
  5
131D
331
1529
  5
533
331
12A2
  5
1556
331
5D4
  5
1140
331
595
  5
A38
331
4FE
  5
68D
331
5D0
  5
113C
331
591
  5
A34
331
55F
  5
A00
331
4FA
  5
689
331
5CC
  5
A82
331
58D
  5
A30
331
55B
  5
9FC
331
4F6
  5
685
331
51C
  5
9D2
331
A35
  5
56E
331
5C8
  5
A7E
331
589
  5
A2C
331
557
  5
9F8
331
4F2
  5
67F
331
518
  5
9CE
331
113C
  5
1542
331
68D
  5
153E
331
A31
  5
56A
331
553
  5
9F4
331
689
  5
153A
331
A2D
  5
566
331
A6D
  5
5AB
331
A69
  5
5A7
331
A29
  5
562
331
A65
  5
5A3
331
A61
  5
59F
331
9EF
  5
4E6
331
674
  5
1525
331
63D
  5
14B0
331
1564
  5
624
331
14AF
  5
14F3
331
5FE
  5
12BD
331
1525
  5
52F
331
9EB
  5
4E2
331
670
  5
1521
331
639
  5
14AC
331
1560
  5
626
331
5FA
  5
12B9
331
14AB
  5
14EF
331
14EA
  5
62B
331
1521
  5
52B
331
9E7
  5
4DE
331
66C
  5
151D
331
635
  5
14A8
331
155C
  5
62D
331
14A7
  5
14EB
331
5F6
  5
12B5
331
151D
  5
527
331
9E3
  5
4DA
331
668
  5
1519
331
631
  5
14A4
331
1558
  5
633
331
5F2
  5
12B1
331
14A3
  5
14E7
331
14E2
  5
635
331
1519
  5
523
331
5C4
  5
A7A
331
585
  5
A28
331
4EE
  5
67B
331
5C0
  5
A76
331
581
  5
A24
331
54F
  5
9F0
331
4EA
  5
677
331
5BC
  5
A72
331
57D
  5
A20
331
54B
  5
9EC
331
4E6
  5
673
331
A25
  5
55E
331
5B8
  5
A6E
331
579
  5
A1C
331
547
  5
9E8
331
4E2
  5
66F
331
A21
  5
55A
331
543
  5
9E4
331
A5D
  5
59B
331
A19
  5
510
331
A55
  5
594
331
A51
  5
590
331
9DF
  5
4D6
331
62D
  5
14A0
331
1554
  5
63E
331
9DB
  5
4D2
331
629
  5
149C
331
1550
  5
647
331
14DA
  5
641
331
9D7
  5
4CE
331
A16
  5
50D
331
A12
  5
509
331
664
  5
1515
331
625
  5
1498
331
154C
  5
649
331
14D6
  5
A5F
331
1515
  5
51F
331
9D3
  5
4CA
331
660
  5
1511
331
621
  5
1494
331
1548
  5
555
331
149D
  5
14E1
331
14D2
  5
A5B
331
1511
  5
51B
331
1499
  5
14DD
331
12BD
  5
1571
331
4DE
  5
66B
331
12B9
  5
156D
331
5EF
  5
12AE
331
5B0
  5
A54
331
53F
  5
9E0
331
4DA
  5
667
331
5EB
  5
12AA
331
5AC
  5
A50
331
515
  5
9CB
331
53B
  5
9DC
331
4D6
  5
663
331
5A8
  5
A4C
331
511
  5
9C7
331
576
  5
A19
331
4D2
  5
65F
331
537
  5
9D8
331
572
  5
A15
331
A4C
  5
583
331
A84
  5
5C2
331
A80
  5
5BE
331
9CF
  5
4C6
331
A0E
  5
505
331
1329
  5
157F
331
65C
  5
150D
331
61D
  5
1490
331
1544
  5
551
331
14CE
  5
A6B
331
150D
  5
517
331
9CB
  5
4C2
331
A0A
  5
501
331
1325
  5
157C
331
658
  5
1509
331
157F
  5
5D0
331
619
  5
148C
331
1495
  5
14D9
331
14CA
  5
A67
331
1540
  5
54C
331
9C7
  5
4BE
331
A06
  5
4FD
331
1321
  5
1579
331
A02
  5
4F9
331
654
  5
1505
331
157B
  5
5DC
331
615
  5
1488
331
1491
  5
14D5
331
14C6
  5
A63
331
153C
  5
548
331
9C3
  5
4BA
331
650
  5
14C3
331
611
  5
1483
331
12B5
  5
1569
331
148D
  5
14D1
331
14C2
  5
1481
331
1501
  5
5DD
331
1538
  5
544
331
12B1
  5
1565
331
1489
  5
14CD
331
5E7
  5
12A6
331
12AD
  5
1561
331
5E3
  5
12A2
331
5A4
  5
A48
331
50D
  5
9C3
331
4CE
  5
65B
331
12A9
  5
155D
331
5DF
  5
114C
331
5A0
  5
A43
331
509
  5
875
331
56E
  5
A11
331
4CA
  5
657
331
5DB
  5
1147
331
59C
  5
A3F
331
505
  5
871
331
56A
  5
A0D
331
4C6
  5
653
331
A44
  5
57D
331
598
  5
A3B
331
501
  5
86D
331
566
  5
A09
331
4C2
  5
64F
331
114B
  5
1551
331
A40
  5
579
331
562
  5
A03
331
1147
  5
154D
331
A3C
  5
575
331
A7C
  5
5BA
331
1143
  5
1549
331
A38
  5
571
331
A78
  5
5B6
  0
XRECORD
  5
15C1
102
{ACAD_REACTORS
330
15C0
102
}
330
15C0
100
AcDbXrecord
280
     1
 40
2340.0
  1
\U+220530
  0
XRECORD
  5
15C3
102
{ACAD_REACTORS
330
15C2
102
}
330
15C2
100
AcDbXrecord
280
     1
 40
2356.0
  1
\U+220550
  0
XRECORD
  5
15C5
102
{ACAD_REACTORS
330
15C4
102
}
330
15C4
100
AcDbXrecord
280
     1
 40
2356.0
  1
\U+220550
  0
XRECORD
  5
1587
102
{ACAD_REACTORS
330
1585
102
}
330
1585
100
AcDbXrecord
280
     1
 70
     2
  0
XRECORD
  5
1586
102
{ACAD_REACTORS
330
1585
102
}
330
1585
100
AcDbXrecord
280
     1
 40
1.25
  0
XRECORD
  5
1588
102
{ACAD_REACTORS
330
1585
102
}
330
1585
100
AcDbXrecord
280
     1
 40
1.570796326794896
  0
LAYOUT
  5
6E
102
{ACAD_XDICTIONARY
360
15BC
102
}
102
{ACAD_REACTORS
330
61
102
}
330
61
100
AcDbPlotSettings
  1

  2
FX DP 205
  4

  6

 40
0.0
 41
0.0
 42
0.0
 43
0.0
 44
0.0
 45
0.0
 46
0.0
 47
0.0
 48
0.0
 49
0.0
140
0.0
141
0.0
142
1.0
143
1.0
 70
  1712
 72
     0
 73
     0
 74
     0
  7

 75
     0
147
1.0
148
0.0
149
0.0
100
AcDbLayout
  1
Model
 70
     1
 71
     0
 10
0.0
 20
0.0
 11
12.0
 21
9.0
 12
0.0
 22
0.0
 32
0.0
 14
0.0
 24
0.0
 34
0.0
 15
0.0
 25
0.0
 35
0.0
146
0.0
 13
0.0
 23
0.0
 33
0.0
 16
1.0
 26
0.0
 36
0.0
 17
0.0
 27
1.0
 37
0.0
 76
     0
330
6B
331
8C
  0
LAYOUT
  5
6A
102
{ACAD_XDICTIONARY
360
15BA
102
}
102
{ACAD_REACTORS
330
61
102
}
330
61
100
AcDbPlotSettings
  1

  2
FX DP 205
  4

  6

 40
0.0
 41
0.0
 42
0.0
 43
0.0
 44
0.0
 45
0.0
 46
0.0
 47
0.0
 48
0.0
 49
0.0
140
0.0
141
0.0
142
1.0
143
1.0
 70
   688
 72
     0
 73
     0
 74
     5
  7

 75
    16
147
1.0
148
0.0
149
0.0
100
AcDbLayout
  1
レイアウト1
 70
     1
 71
     1
 10
0.0
 20
0.0
 11
12.0
 21
9.0
 12
0.0
 22
0.0
 32
0.0
 14
1.000000000000000E+20
 24
1.000000000000000E+20
 34
1.000000000000000E+20
 15
-1.000000000000000E+20
 25
-1.000000000000000E+20
 35
-1.000000000000000E+20
146
0.0
 13
0.0
 23
0.0
 33
0.0
 16
1.0
 26
0.0
 36
0.0
 17
0.0
 27
1.0
 37
0.0
 76
     0
330
67
  0
MATERIAL
  5
19
102
{ACAD_XDICTIONARY
360
1A
102
}
102
{ACAD_REACTORS
330
10
102
}
330
10
100
AcDbMaterial
  1
ByBlock
 72
     0
 43
0.0208333333333333
 43
0.0
 43
0.0
 43
0.0
 43
0.0
 43
0.0208333333333333
 43
0.0
 43
0.0
 43
0.0
 43
0.0
 43
1.0
 43
0.0
 43
0.0
 43
0.0
 43
0.0
 43
1.0
 77
     0
 47
0.0208333333333333
 47
0.0
 47
0.0
 47
0.0
 47
0.0
 47
0.0208333333333333
 47
0.0
 47
0.0
 47
0.0
 47
0.0
 47
1.0
 47
0.0
 47
0.0
 47
0.0
 47
0.0
 47
1.0
171
     0
 49
0.0208333333333333
 49
0.0
 49
0.0
 49
0.0
 49
0.0
 49
0.0208333333333333
 49
0.0
 49
0.0
 49
0.0
 49
0.0
 49
1.0
 49
0.0
 49
0.0
 49
0.0
 49
0.0
 49
1.0
175
     0
142
0.0208333333333333
142
0.0
142
0.0
142
0.0
142
0.0
142
0.0208333333333333
142
0.0
142
0.0
142
0.0
142
0.0
142
1.0
142
0.0
142
0.0
142
0.0
142
0.0
142
1.0
179
     0
144
0.0208333333333333
144
0.0
144
0.0
144
0.0
144
0.0
144
0.0208333333333333
144
0.0
144
0.0
144
0.0
144
0.0
144
1.0
144
0.0
144
0.0
144
0.0
144
0.0
144
1.0
147
0.0208333333333333
147
0.0
147
0.0
147
0.0
147
0.0
147
0.0208333333333333
147
0.0
147
0.0
147
0.0
147
0.0
147
1.0
147
0.0
147
0.0
147
0.0
147
0.0
147
1.0
  0
MATERIAL
  5
11
102
{ACAD_XDICTIONARY
360
12
102
}
102
{ACAD_REACTORS
330
10
102
}
330
10
100
AcDbMaterial
  1
ByLayer
 72
     0
 43
0.0208333333333333
 43
0.0
 43
0.0
 43
0.0
 43
0.0
 43
0.0208333333333333
 43
0.0
 43
0.0
 43
0.0
 43
0.0
 43
1.0
 43
0.0
 43
0.0
 43
0.0
 43
0.0
 43
1.0
 77
     0
 47
0.0208333333333333
 47
0.0
 47
0.0
 47
0.0
 47
0.0
 47
0.0208333333333333
 47
0.0
 47
0.0
 47
0.0
 47
0.0
 47
1.0
 47
0.0
 47
0.0
 47
0.0
 47
0.0
 47
1.0
171
     0
 49
0.0208333333333333
 49
0.0
 49
0.0
 49
0.0
 49
0.0
 49
0.0208333333333333
 49
0.0
 49
0.0
 49
0.0
 49
0.0
 49
1.0
 49
0.0
 49
0.0
 49
0.0
 49
0.0
 49
1.0
175
     0
142
0.0208333333333333
142
0.0
142
0.0
142
0.0
142
0.0
142
0.0208333333333333
142
0.0
142
0.0
142
0.0
142
0.0
142
1.0
142
0.0
142
0.0
142
0.0
142
0.0
142
1.0
179
     0
144
0.0208333333333333
144
0.0
144
0.0
144
0.0
144
0.0
144
0.0208333333333333
144
0.0
144
0.0
144
0.0
144
0.0
144
1.0
144
0.0
144
0.0
144
0.0
144
0.0
144
1.0
147
0.0208333333333333
147
0.0
147
0.0
147
0.0
147
0.0
147
0.0208333333333333
147
0.0
147
0.0
147
0.0
147
0.0
147
1.0
147
0.0
147
0.0
147
0.0
147
0.0
147
1.0
  0
MATERIAL
  5
21
102
{ACAD_XDICTIONARY
360
22
102
}
102
{ACAD_REACTORS
330
10
102
}
330
10
100
AcDbMaterial
  1
Global
 72
     0
 43
0.0208333333333333
 43
0.0
 43
0.0
 43
0.0
 43
0.0
 43
0.0208333333333333
 43
0.0
 43
0.0
 43
0.0
 43
0.0
 43
1.0
 43
0.0
 43
0.0
 43
0.0
 43
0.0
 43
1.0
 77
     0
 47
0.0208333333333333
 47
0.0
 47
0.0
 47
0.0
 47
0.0
 47
0.0208333333333333
 47
0.0
 47
0.0
 47
0.0
 47
0.0
 47
1.0
 47
0.0
 47
0.0
 47
0.0
 47
0.0
 47
1.0
171
     0
 49
0.0208333333333333
 49
0.0
 49
0.0
 49
0.0
 49
0.0
 49
0.0208333333333333
 49
0.0
 49
0.0
 49
0.0
 49
0.0
 49
1.0
 49
0.0
 49
0.0
 49
0.0
 49
0.0
 49
1.0
175
     0
142
0.0208333333333333
142
0.0
142
0.0
142
0.0
142
0.0
142
0.0208333333333333
142
0.0
142
0.0
142
0.0
142
0.0
142
1.0
142
0.0
142
0.0
142
0.0
142
0.0
142
1.0
179
     0
144
0.0208333333333333
144
0.0
144
0.0
144
0.0
144
0.0
144
0.0208333333333333
144
0.0
144
0.0
144
0.0
144
0.0
144
1.0
144
0.0
144
0.0
144
0.0
144
0.0
144
1.0
147
0.0208333333333333
147
0.0
147
0.0
147
0.0
147
0.0
147
0.0208333333333333
147
0.0
147
0.0
147
0.0
147
0.0
147
1.0
147
0.0
147
0.0
147
0.0
147
0.0
147
1.0
  0
MLEADERSTYLE
  5
66
102
{ACAD_REACTORS
330
65
102
}
330
65
100
AcDbMLeaderStyle
170
     2
171
     1
172
     0
 90
        2
 40
0.0
 41
0.0
173
     1
 91
-1056964608
340
5A
 92
       -2
290
     1
 42
0.09
291
     1
 43
0.36
  3
Standard
 44
0.18
300

342
55
174
     1
178
     6
175
     1
176
     0
 93
-1056964608
 45
0.18
292
     0
297
     0
 46
0.18
 94
-1056964608
 47
1.0
 49
1.0
140
1.0
293
     1
141
0.0
294
     1
177
     0
142
1.0
295
     0
296
     0
143
0.125
1001
ACAD_MLEADERVER
1070
     2
  0
MLINESTYLE
  5
5F
102
{ACAD_REACTORS
330
5E
102
}
330
5E
100
AcDbMlineStyle
  2
STANDARD
 70
     0
  3

 62
   256
 51
90.0
 52
90.0
 71
     2
 49
0.5
 62
   256
  6
BYLAYER
 49
-0.5
 62
   256
  6
BYLAYER
  0
ACDBPLACEHOLDER
  5
F
102
{ACAD_REACTORS
330
E
102
}
330
E
  0
SCALE
  5
43
102
{ACAD_REACTORS
330
42
102
}
330
42
100
AcDbScale
 70
     0
300
1:1
140
1.0
141
1.0
290
     1
  0
SCALE
  5
44
102
{ACAD_REACTORS
330
42
102
}
330
42
100
AcDbScale
 70
     0
300
1/128" = 1'-0"
140
0.0078125
141
12.0
290
     0
  0
SCALE
  5
45
102
{ACAD_REACTORS
330
42
102
}
330
42
100
AcDbScale
 70
     0
300
1/64" = 1'-0"
140
0.015625
141
12.0
290
     0
  0
SCALE
  5
46
102
{ACAD_REACTORS
330
42
102
}
330
42
100
AcDbScale
 70
     0
300
1/32" = 1'-0"
140
0.03125
141
12.0
290
     0
  0
SCALE
  5
47
102
{ACAD_REACTORS
330
42
102
}
330
42
100
AcDbScale
 70
     0
300
1/16" = 1'-0"
140
0.0625
141
12.0
290
     0
  0
SCALE
  5
48
102
{ACAD_REACTORS
330
42
102
}
330
42
100
AcDbScale
 70
     0
300
3/32" = 1'-0"
140
0.09375
141
12.0
290
     0
  0
SCALE
  5
49
102
{ACAD_REACTORS
330
42
102
}
330
42
100
AcDbScale
 70
     0
300
1/8" = 1'-0"
140
0.125
141
12.0
290
     0
  0
SCALE
  5
4A
102
{ACAD_REACTORS
330
42
102
}
330
42
100
AcDbScale
 70
     0
300
3/16" = 1'-0"
140
0.1875
141
12.0
290
     0
  0
SCALE
  5
4B
102
{ACAD_REACTORS
330
42
102
}
330
42
100
AcDbScale
 70
     0
300
1/4" = 1'-0"
140
0.25
141
12.0
290
     0
  0
SCALE
  5
4C
102
{ACAD_REACTORS
330
42
102
}
330
42
100
AcDbScale
 70
     0
300
3/8" = 1'-0"
140
0.375
141
12.0
290
     0
  0
SCALE
  5
4D
102
{ACAD_REACTORS
330
42
102
}
330
42
100
AcDbScale
 70
     0
300
1/2" = 1'-0"
140
0.5
141
12.0
290
     0
  0
SCALE
  5
4E
102
{ACAD_REACTORS
330
42
102
}
330
42
100
AcDbScale
 70
     0
300
3/4" = 1'-0"
140
0.75
141
12.0
290
     0
  0
SCALE
  5
4F
102
{ACAD_REACTORS
330
42
102
}
330
42
100
AcDbScale
 70
     0
300
1" = 1'-0"
140
1.0
141
12.0
290
     0
  0
SCALE
  5
50
102
{ACAD_REACTORS
330
42
102
}
330
42
100
AcDbScale
 70
     0
300
1-1/2" = 1'-0"
140
1.5
141
12.0
290
     0
  0
SCALE
  5
51
102
{ACAD_REACTORS
330
42
102
}
330
42
100
AcDbScale
 70
     0
300
3" = 1'-0"
140
3.0
141
12.0
290
     0
  0
SCALE
  5
52
102
{ACAD_REACTORS
330
42
102
}
330
42
100
AcDbScale
 70
     0
300
6" = 1'-0"
140
6.0
141
12.0
290
     0
  0
SCALE
  5
53
102
{ACAD_REACTORS
330
42
102
}
330
42
100
AcDbScale
 70
     0
300
1'-0" = 1'-0"
140
12.0
141
12.0
290
     0
  0
TABLESTYLE
  5
64
102
{ACAD_XDICTIONARY
360
B3E
102
}
102
{ACAD_REACTORS
330
63
102
}
330
63
100
AcDbTableStyle
  3
Standard
 70
     0
 71
     0
 40
0.06
 41
0.06
280
     0
281
     0
  7
STANDARD
140
0.18
170
     2
 62
     0
 63
     7
283
     0
274
    -2
284
     1
 64
     0
275
    -2
285
     1
 65
     0
276
    -2
286
     1
 66
     0
277
    -2
287
     1
 67
     0
278
    -2
288
     1
 68
     0
279
    -2
289
     1
 69
     0
  7
STANDARD
140
0.25
170
     5
 62
     0
 63
     7
283
     0
274
    -2
284
     1
 64
     0
275
    -2
285
     1
 65
     0
276
    -2
286
     1
 66
     0
277
    -2
287
     1
 67
     0
278
    -2
288
     1
 68
     0
279
    -2
289
     1
 69
     0
  7
STANDARD
140
0.18
170
     5
 62
     0
 63
     7
283
     0
274
    -2
284
     1
 64
     0
275
    -2
285
     1
 65
     0
276
    -2
286
     1
 66
     0
277
    -2
287
     1
 67
     0
278
    -2
288
     1
 68
     0
279
    -2
289
     1
 69
     0
  0
VISUALSTYLE
  5
2F
102
{ACAD_XDICTIONARY
360
1593
102
}
102
{ACAD_REACTORS
330
29
102
}
330
29
100
AcDbVisualStyle
  2

 70
     4
 71
     0
 72
     2
 73
     0
 90
        0
 40
-0.6
 41
-30.0
 62
     5
 63
     7
 74
     1
 91
        4
 64
     7
 65
   257
 75
     1
175
     1
 42
1.0
 92
        0
 66
   257
 43
1.0
 76
     1
 77
     6
 78
     2
 67
     7
 79
     5
170
     0
171
     0
290
     0
174
     0
 93
        1
 44
0.0
173
     0
291
     0
 45
0.0
1001
ACAD
1000
AcDbSavedByObjectVersion
1070
     0
  0
VISUALSTYLE
  5
85B
102
{ACAD_XDICTIONARY
360
15BE
102
}
102
{ACAD_REACTORS
330
29
102
}
330
29
100
AcDbVisualStyle
  2

 70
     5
 71
     0
 72
     2
 73
     1
 90
        0
 40
-0.6
 41
-30.0
 62
     5
 63
     7
 74
     1
 91
        4
 64
     7
 65
   257
 75
     1
175
     1
 42
1.0
 92
        0
 66
   257
 43
1.0
 76
     1
 77
     6
 78
     2
 67
     7
 79
     5
170
     0
171
     0
290
     0
174
     0
 93
        1
 44
0.0
173
     0
291
     0
 45
0.0
1001
ACAD
1000
AcDbSavedByObjectVersion
1070
     0
  0
VISUALSTYLE
  5
2E
102
{ACAD_XDICTIONARY
360
1591
102
}
102
{ACAD_REACTORS
330
29
102
}
330
29
100
AcDbVisualStyle
  2

 70
     7
 71
     1
 72
     0
 73
     1
 90
        0
 40
-0.6
 41
-30.0
 62
     5
 63
     7
 74
     0
 91
        4
 64
     7
 65
   257
 75
     1
175
     1
 42
1.0
 92
        8
 66
     7
 43
1.0
 76
     1
 77
     6
 78
     2
 67
     7
 79
     5
170
     0
171
     0
290
     0
174
     0
 93
        1
 44
0.0
173
     0
291
     1
 45
0.0
1001
ACAD
1000
AcDbSavedByObjectVersion
1070
     0
  0
VISUALSTYLE
  5
35
102
{ACAD_XDICTIONARY
360
159F
102
}
102
{ACAD_REACTORS
330
29
102
}
330
29
100
AcDbVisualStyle
  2

 70
    12
 71
     2
 72
     2
 73
     0
 90
        0
 40
-0.6
 41
-30.0
 62
     5
 63
     7
 74
     1
 91
        4
 64
     7
 65
   257
 75
     1
175
     1
 42
1.0
 92
        8
 66
     7
 43
1.0
 76
     1
 77
     6
 78
     2
 67
     7
 79
     5
170
     0
171
     0
290
     0
174
     0
 93
        1
 44
50.0
173
     0
291
     1
 45
0.0
1001
ACAD
1000
AcDbSavedByObjectVersion
1070
     0
  0
VISUALSTYLE
  5
39
102
{ACAD_XDICTIONARY
360
15A7
102
}
102
{ACAD_REACTORS
330
29
102
}
330
29
100
AcDbVisualStyle
  2

 70
    16
 71
     2
 72
     2
 73
     3
 90
        0
 40
-0.6
 41
-30.0
 62
     5
 63
     8
 74
     1
 91
        4
 64
     7
 65
   257
 75
     1
175
     1
 42
1.0
 92
        8
 66
     8
 43
1.0
 76
     1
 77
     6
 78
     2
 67
     7
 79
     5
170
     0
171
     0
290
     0
174
     0
 93
        1
 44
0.0
173
     0
291
     1
 45
0.0
1001
ACAD
1000
AcDbSavedByObjectVersion
1070
     0
  0
VISUALSTYLE
  5
32
102
{ACAD_XDICTIONARY
360
1599
102
}
102
{ACAD_REACTORS
330
29
102
}
330
29
100
AcDbVisualStyle
  2

 70
     9
 71
     3
 72
     2
 73
     0
 90
        0
 40
-0.6
 41
-30.0
 62
     5
 63
     7
 74
     2
 91
        2
 64
     7
 65
   257
 75
     1
175
     1
 42
179.0
 92
        8
 66
     7
 43
1.0
 76
     1
 77
     6
 78
     2
 67
     7
 79
     3
170
     0
171
     0
290
     0
174
     0
 93
        1
 44
0.0
173
     0
291
     0
 45
0.0
1001
ACAD
1000
AcDbSavedByObjectVersion
1070
     0
  0
VISUALSTYLE
  5
34
102
{ACAD_XDICTIONARY
360
159D
102
}
102
{ACAD_REACTORS
330
29
102
}
330
29
100
AcDbVisualStyle
  2

 70
    11
 71
     2
 72
     2
 73
     0
 90
        0
 40
-0.6
 41
-30.0
 62
     5
 63
     7
 74
     1
 91
        4
 64
     7
 65
   257
 75
     1
175
     1
 42
1.0
 92
        8
 66
     7
 43
1.0
 76
     1
 77
     6
 78
     2
 67
     7
 79
     5
170
     0
171
     0
290
     0
174
     0
 93
        1
 44
-50.0
173
     0
291
     1
 45
0.0
1001
ACAD
1000
AcDbSavedByObjectVersion
1070
     0
  0
VISUALSTYLE
  5
41
102
{ACAD_XDICTIONARY
360
15B7
102
}
102
{ACAD_REACTORS
330
29
102
}
330
29
100
AcDbVisualStyle
  2

 70
    22
 71
     2
 72
     2
 73
     0
 90
        0
 40
-0.6
 41
-30.0
 62
     5
 63
     7
 74
     1
 91
        4
 64
     7
 65
   257
 75
     1
175
     1
 42
1.0
 92
        8
 66
     7
 43
1.0
 76
     1
 77
     6
 78
     2
 67
     7
 79
     5
170
     0
171
     0
290
     0
174
     0
 93
        1
 44
0.0
173
     0
291
     1
 45
0.0
1001
ACAD
1000
AcDbSavedByObjectVersion
1070
     0
  0
VISUALSTYLE
  5
38
102
{ACAD_XDICTIONARY
360
15A5
102
}
102
{ACAD_REACTORS
330
29
102
}
330
29
100
AcDbVisualStyle
  2

 70
    15
 71
     2
 72
     2
 73
     0
 90
        0
 40
-0.6
 41
-30.0
 62
     5
 63
     7
 74
     1
 91
        4
 64
     7
 65
   257
 75
     1
175
     1
 42
1.0
 92
        8
 66
     7
 43
1.0
 76
     1
 77
     6
 78
     2
 67
     7
 79
     5
170
     0
171
     0
290
     0
174
     0
 93
        1
 44
0.0
173
     0
291
     1
 45
0.0
1001
ACAD
1000
AcDbSavedByObjectVersion
1070
     0
  0
VISUALSTYLE
  5
2A
102
{ACAD_XDICTIONARY
360
1589
102
}
102
{ACAD_REACTORS
330
29
102
}
330
29
100
AcDbVisualStyle
  2

 70
     0
 71
     2
 72
     1
 73
     1
 90
        2
 40
-0.6
 41
30.0
 62
     5
 63
     7
 74
     0
 91
        0
 64
     7
 65
   257
 75
     1
175
     1
 42
1.0
 92
        8
 66
     7
 43
1.0
 76
     1
 77
     6
 78
     2
 67
     7
 79
     5
170
     0
171
     0
290
     0
174
     0
 93
       13
 44
0.0
173
     0
291
     1
 45
0.0
1001
ACAD
1000
AcDbSavedByObjectVersion
1070
     0
  0
VISUALSTYLE
  5
2B
102
{ACAD_XDICTIONARY
360
158B
102
}
102
{ACAD_REACTORS
330
29
102
}
330
29
100
AcDbVisualStyle
  2

 70
     1
 71
     2
 72
     1
 73
     1
 90
        2
 40
-0.6
 41
30.0
 62
     5
 63
     7
 74
     1
 91
        0
 64
     7
 65
   257
 75
     1
175
     1
 42
1.0
 92
        0
 66
   257
 43
1.0
 76
     1
 77
     6
 78
     2
 67
     7
 79
     5
170
     0
171
     0
290
     0
174
     0
 93
       13
 44
0.0
173
     0
291
     1
 45
0.0
1001
ACAD
1000
AcDbSavedByObjectVersion
1070
     0
  0
VISUALSTYLE
  5
2C
102
{ACAD_XDICTIONARY
360
158D
102
}
102
{ACAD_REACTORS
330
29
102
}
330
29
100
AcDbVisualStyle
  2

 70
     2
 71
     2
 72
     2
 73
     1
 90
        2
 40
-0.6
 41
30.0
 62
     5
 63
     7
 74
     0
 91
        0
 64
     7
 65
   257
 75
     1
175
     1
 42
1.0
 92
        0
 66
     7
 43
1.0
 76
     1
 77
     6
 78
     2
 67
     7
 79
     5
170
     0
171
     0
290
     0
174
     0
 93
       13
 44
0.0
173
     0
291
     1
 45
0.0
1001
ACAD
1000
AcDbSavedByObjectVersion
1070
     0
  0
VISUALSTYLE
  5
2D
102
{ACAD_XDICTIONARY
360
158F
102
}
102
{ACAD_REACTORS
330
29
102
}
330
29
100
AcDbVisualStyle
  2

 70
     3
 71
     2
 72
     2
 73
     1
 90
        2
 40
-0.6
 41
30.0
 62
     5
 63
     7
 74
     1
 91
        0
 64
     7
 65
   257
 75
     1
175
     1
 42
1.0
 92
        0
 66
   257
 43
1.0
 76
     1
 77
     6
 78
     2
 67
     7
 79
     5
170
     0
171
     0
290
     0
174
     0
 93
       13
 44
0.0
173
     0
291
     1
 45
0.0
1001
ACAD
1000
AcDbSavedByObjectVersion
1070
     0
  0
VISUALSTYLE
  5
31
102
{ACAD_XDICTIONARY
360
1597
102
}
102
{ACAD_REACTORS
330
29
102
}
330
29
100
AcDbVisualStyle
  2

 70
     6
 71
     1
 72
     2
 73
     2
 90
        0
 40
-0.6
 41
-30.0
 62
     5
 63
     7
 74
     2
 91
        2
 64
     7
 65
   257
 75
     2
175
     1
 42
40.0
 92
        0
 66
   257
 43
1.0
 76
     1
 77
     6
 78
     2
 67
     7
 79
     3
170
     0
171
     0
290
     0
174
     0
 93
        1
 44
0.0
173
     0
291
     0
 45
0.0
1001
ACAD
1000
AcDbSavedByObjectVersion
1070
     0
  0
VISUALSTYLE
  5
3F
102
{ACAD_XDICTIONARY
360
15B3
102
}
102
{ACAD_REACTORS
330
29
102
}
330
29
100
AcDbVisualStyle
  2

 70
    20
 71
     2
 72
     2
 73
     0
 90
        0
 40
-0.6
 41
-30.0
 62
     5
 63
     7
 74
     1
 91
        4
 64
     7
 65
   257
 75
     1
175
     1
 42
1.0
 92
       10
 66
     7
 43
1.0
 76
     1
 77
     6
 78
     2
 67
     7
 79
     5
170
     0
171
     0
290
     0
174
     0
 93
        1
 44
0.0
173
     0
291
     1
 45
0.0
1001
ACAD
1000
AcDbSavedByObjectVersion
1070
     0
  0
VISUALSTYLE
  5
37
102
{ACAD_XDICTIONARY
360
15A3
102
}
102
{ACAD_REACTORS
330
29
102
}
330
29
100
AcDbVisualStyle
  2

 70
    14
 71
     2
 72
     2
 73
     0
 90
        0
 40
-0.6
 41
-30.0
 62
     5
 63
     7
 74
     1
 91
        4
 64
     7
 65
   257
 75
     7
175
     7
 42
1.0
 92
        8
 66
     7
 43
1.0
 76
     1
 77
     6
 78
     2
 67
     7
 79
     5
170
     0
171
     0
290
     0
174
     0
 93
        1
 44
0.0
173
     0
291
     1
 45
0.0
1001
ACAD
1000
AcDbSavedByObjectVersion
1070
     0
  0
VISUALSTYLE
  5
40
102
{ACAD_XDICTIONARY
360
15B5
102
}
102
{ACAD_REACTORS
330
29
102
}
330
29
100
AcDbVisualStyle
  2

 70
    21
 71
     2
 72
     2
 73
     0
 90
        0
 40
-0.6
 41
-30.0
 62
     5
 63
     7
 74
     1
 91
        4
 64
     7
 65
   257
 75
     1
175
     1
 42
1.0
 92
        9
 66
     7
 43
1.0
 76
     1
 77
     6
 78
     2
 67
     7
 79
     5
170
     0
171
     0
290
     0
174
     0
 93
        1
 44
0.0
173
     0
291
     1
 45
0.0
1001
ACAD
1000
AcDbSavedByObjectVersion
1070
     0
  0
VISUALSTYLE
  5
33
102
{ACAD_XDICTIONARY
360
159B
102
}
102
{ACAD_REACTORS
330
29
102
}
330
29
100
AcDbVisualStyle
  2

 70
     8
 71
     2
 72
     3
 73
     0
 90
        2
 40
-0.6
 41
30.0
 62
     5
 63
     7
 74
     0
 91
        0
 64
     7
 65
   257
 75
     1
175
     1
 42
1.0
 92
        8
 66
   257
 43
1.0
 76
     1
 77
     6
 78
     2
 67
     7
 79
     3
170
     0
171
     0
290
     0
174
     0
 93
       13
 44
0.0
173
     0
291
     0
 45
0.0
1001
ACAD
1000
AcDbSavedByObjectVersion
1070
     0
  0
VISUALSTYLE
  5
3E
102
{ACAD_XDICTIONARY
360
15B1
102
}
102
{ACAD_REACTORS
330
29
102
}
330
29
100
AcDbVisualStyle
  2

 70
    27
 71
     2
 72
     2
 73
     1
 90
        2
 40
-0.6
 41
30.0
 62
     5
 63
     7
 74
     0
 91
        4
 64
     7
 65
   257
 75
     1
175
     1
 42
1.0
 92
        8
 66
   257
 43
1.0
 76
     1
 77
     6
 78
     2
 67
     8
 79
     3
170
     0
171
     0
290
     0
174
     0
 93
        5
 44
0.0
173
     0
291
     0
 45
0.0
1001
ACAD
1000
AcDbSavedByObjectVersion
1070
     0
  0
VISUALSTYLE
  5
3D
102
{ACAD_XDICTIONARY
360
15AF
102
}
102
{ACAD_REACTORS
330
29
102
}
330
29
100
AcDbVisualStyle
  2

 70
    26
 71
     2
 72
     2
 73
     1
 90
        2
 40
-0.6
 41
30.0
 62
     5
 63
     7
 74
     1
 91
       10
 64
     7
 65
   257
 75
     2
175
     1
 42
1.0
 92
        8
 66
   257
 43
1.0
 76
     1
 77
     6
 78
     2
 67
     7
 79
     3
170
     0
171
     0
290
     0
174
     0
 93
        5
 44
0.0
173
     0
291
     0
 45
0.0
1001
ACAD
1000
AcDbSavedByObjectVersion
1070
     0
  0
VISUALSTYLE
  5
3A
102
{ACAD_XDICTIONARY
360
15A9
102
}
102
{ACAD_REACTORS
330
29
102
}
330
29
100
AcDbVisualStyle
  2

 70
    23
 71
     2
 72
     2
 73
     3
 90
        0
 40
-0.6
 41
-30.0
 62
     5
 63
     7
 74
     2
 91
        2
 64
     7
 65
     7
 75
     1
175
     1
 42
40.0
 92
        8
 66
     7
 43
1.0
 76
     1
 77
     6
 78
     2
 67
     7
 79
     3
170
     0
171
     0
290
     0
174
     0
 93
        1
 44
0.0
173
     0
291
     0
 45
0.0
1001
ACAD
1000
AcDbSavedByObjectVersion
1070
     0
  0
VISUALSTYLE
  5
3B
102
{ACAD_XDICTIONARY
360
15AB
102
}
102
{ACAD_REACTORS
330
29
102
}
330
29
100
AcDbVisualStyle
  2

 70
    24
 71
     1
 72
     2
 73
     2
 90
        0
 40
-0.6
 41
-30.0
 62
     5
 63
     7
 74
     2
 91
        2
 64
     7
 65
     7
 75
     1
175
     1
 42
40.0
 92
       11
 66
     7
 43
1.0
 76
     1
 77
     6
 78
     2
 67
     7
 79
     6
170
     0
171
     0
290
     0
174
     0
 93
        1
 44
0.0
173
     0
291
     0
 45
0.0
1001
ACAD
1000
AcDbSavedByObjectVersion
1070
     0
  0
VISUALSTYLE
  5
36
102
{ACAD_XDICTIONARY
360
15A1
102
}
102
{ACAD_REACTORS
330
29
102
}
330
29
100
AcDbVisualStyle
  2

 70
    13
 71
     2
 72
     2
 73
     0
 90
        0
 40
-0.6
 41
-30.0
 62
     5
 63
     7
 74
     1
 91
        4
 64
     7
 65
   257
 75
     1
175
     1
 42
1.0
 92
       12
 66
     7
 43
1.0
 76
     1
 77
     6
 78
     2
 67
     7
 79
     5
170
     0
171
     0
290
     0
174
     0
 93
        1
 44
0.0
173
     0
291
     1
 45
0.0
1001
ACAD
1000
AcDbSavedByObjectVersion
1070
     0
  0
VISUALSTYLE
  5
30
102
{ACAD_XDICTIONARY
360
1595
102
}
102
{ACAD_REACTORS
330
29
102
}
330
29
100
AcDbVisualStyle
  2

 70
     5
 71
     0
 72
     2
 73
     0
 90
        0
 40
-0.6
 41
-30.0
 62
     5
 63
     7
 74
     1
 91
        4
 64
     7
 65
   257
 75
     1
175
     1
 42
1.0
 92
        0
 66
   257
 43
1.0
 76
     1
 77
     6
 78
     2
 67
     7
 79
     3
170
     0
171
     0
290
     0
174
     0
 93
        1
 44
0.0
173
     0
291
     0
 45
0.0
1001
ACAD
1000
AcDbSavedByObjectVersion
1070
     0
  0
VISUALSTYLE
  5
3C
102
{ACAD_XDICTIONARY
360
15AD
102
}
102
{ACAD_REACTORS
330
29
102
}
330
29
100
AcDbVisualStyle
  2

 70
    25
 71
     2
 72
     2
 73
     1
 90
        1
 40
0.5
 41
-30.0
 62
     5
 63
     7
 74
     1
 91
        0
 64
     7
 65
   257
 75
     1
175
     1
 42
1.0
 92
        8
 66
     7
 43
1.0
 76
     1
 77
     6
 78
     2
 67
     7
 79
     3
170
     0
171
     0
290
     0
174
     0
 93
       13
 44
0.0
173
     0
291
     0
 45
0.0
1001
ACAD
1000
AcDbSavedByObjectVersion
1070
     0
  0
DICTIONARYVAR
  5
B39
102
{ACAD_REACTORS
330
B36
102
}
330
B36
100
DictionaryVariables
280
     0
  1
1:1
  0
DICTIONARYVAR
  5
B38
102
{ACAD_REACTORS
330
B36
102
}
330
B36
100
DictionaryVariables
280
     0
  1
STANDARD
  0
DICTIONARYVAR
  5
B37
102
{ACAD_REACTORS
330
B36
102
}
330
B36
100
DictionaryVariables
280
     0
  1
STANDARD
  0
DICTIONARYVAR
  5
B3C
102
{ACAD_REACTORS
330
B36
102
}
330
B36
100
DictionaryVariables
280
     0
  1
1
  0
DICTIONARYVAR
  5
B3B
102
{ACAD_REACTORS
330
B36
102
}
330
B36
100
DictionaryVariables
280
     0
  1
0
  0
DICTIONARYVAR
  5
B3A
102
{ACAD_REACTORS
330
B36
102
}
330
B36
100
DictionaryVariables
280
     0
  1
127
  0
DICTIONARYVAR
  5
12BF
102
{ACAD_REACTORS
330
B36
102
}
330
B36
100
DictionaryVariables
280
     0
  1
2
  0
DICTIONARY
  5
15BC
330
6E
100
AcDbDictionary
280
     1
281
     1
  3
ACAD_XREC_ROUNDTRIP
360
15BD
  0
DICTIONARY
  5
15BA
330
6A
100
AcDbDictionary
280
     1
281
     1
  3
ACAD_XREC_ROUNDTRIP
360
15BB
  0
DICTIONARY
  5
1A
330
19
100
AcDbDictionary
280
     1
281
     1
  3
ACAD_XREC_ROUNDTRIP
360
B47
  3
BUMPTILE
360
1C
  3
DIFFUSETILE
360
1B
  3
OPACITYTILE
360
1F
  3
REFLECTIONTILE
360
1E
  3
REFRACTIONTILE
360
20
  3
SPECULARTILE
360
1D
  0
DICTIONARY
  5
12
330
11
100
AcDbDictionary
280
     1
281
     1
  3
ACAD_XREC_ROUNDTRIP
360
B46
  3
BUMPTILE
360
14
  3
DIFFUSETILE
360
13
  3
OPACITYTILE
360
17
  3
REFLECTIONTILE
360
16
  3
REFRACTIONTILE
360
18
  3
SPECULARTILE
360
15
  0
DICTIONARY
  5
22
330
21
100
AcDbDictionary
280
     1
281
     1
  3
ACAD_XREC_ROUNDTRIP
360
B48
  3
BUMPTILE
360
24
  3
DIFFUSETILE
360
23
  3
OPACITYTILE
360
27
  3
REFLECTIONTILE
360
26
  3
REFRACTIONTILE
360
28
  3
SPECULARTILE
360
25
  0
DICTIONARY
  5
B3E
330
64
100
AcDbDictionary
280
     1
281
     1
  3
ACAD_ROUNDTRIP_2008_TABLESTYLE_CELLSTYLEMAP
360
1582
  3
ACAD_XREC_ROUNDTRIP
360
15B9
  0
DICTIONARY
  5
1593
330
2F
100
AcDbDictionary
280
     1
281
     1
  3
ACAD_XREC_ROUNDTRIP
360
1594
  0
DICTIONARY
  5
15BE
330
85B
100
AcDbDictionary
280
     1
281
     1
  3
ACAD_XREC_ROUNDTRIP
360
15BF
  0
DICTIONARY
  5
1591
330
2E
100
AcDbDictionary
280
     1
281
     1
  3
ACAD_XREC_ROUNDTRIP
360
1592
  0
DICTIONARY
  5
159F
330
35
100
AcDbDictionary
280
     1
281
     1
  3
ACAD_XREC_ROUNDTRIP
360
15A0
  0
DICTIONARY
  5
15A7
330
39
100
AcDbDictionary
280
     1
281
     1
  3
ACAD_XREC_ROUNDTRIP
360
15A8
  0
DICTIONARY
  5
1599
330
32
100
AcDbDictionary
280
     1
281
     1
  3
ACAD_XREC_ROUNDTRIP
360
159A
  0
DICTIONARY
  5
159D
330
34
100
AcDbDictionary
280
     1
281
     1
  3
ACAD_XREC_ROUNDTRIP
360
159E
  0
DICTIONARY
  5
15B7
330
41
100
AcDbDictionary
280
     1
281
     1
  3
ACAD_XREC_ROUNDTRIP
360
15B8
  0
DICTIONARY
  5
15A5
330
38
100
AcDbDictionary
280
     1
281
     1
  3
ACAD_XREC_ROUNDTRIP
360
15A6
  0
DICTIONARY
  5
1589
330
2A
100
AcDbDictionary
280
     1
281
     1
  3
ACAD_XREC_ROUNDTRIP
360
158A
  0
DICTIONARY
  5
158B
330
2B
100
AcDbDictionary
280
     1
281
     1
  3
ACAD_XREC_ROUNDTRIP
360
158C
  0
DICTIONARY
  5
158D
330
2C
100
AcDbDictionary
280
     1
281
     1
  3
ACAD_XREC_ROUNDTRIP
360
158E
  0
DICTIONARY
  5
158F
330
2D
100
AcDbDictionary
280
     1
281
     1
  3
ACAD_XREC_ROUNDTRIP
360
1590
  0
DICTIONARY
  5
1597
330
31
100
AcDbDictionary
280
     1
281
     1
  3
ACAD_XREC_ROUNDTRIP
360
1598
  0
DICTIONARY
  5
15B3
330
3F
100
AcDbDictionary
280
     1
281
     1
  3
ACAD_XREC_ROUNDTRIP
360
15B4
  0
DICTIONARY
  5
15A3
330
37
100
AcDbDictionary
280
     1
281
     1
  3
ACAD_XREC_ROUNDTRIP
360
15A4
  0
DICTIONARY
  5
15B5
330
40
100
AcDbDictionary
280
     1
281
     1
  3
ACAD_XREC_ROUNDTRIP
360
15B6
  0
DICTIONARY
  5
159B
330
33
100
AcDbDictionary
280
     1
281
     1
  3
ACAD_XREC_ROUNDTRIP
360
159C
  0
DICTIONARY
  5
15B1
330
3E
100
AcDbDictionary
280
     1
281
     1
  3
ACAD_XREC_ROUNDTRIP
360
15B2
  0
DICTIONARY
  5
15AF
330
3D
100
AcDbDictionary
280
     1
281
     1
  3
ACAD_XREC_ROUNDTRIP
360
15B0
  0
DICTIONARY
  5
15A9
330
3A
100
AcDbDictionary
280
     1
281
     1
  3
ACAD_XREC_ROUNDTRIP
360
15AA
  0
DICTIONARY
  5
15AB
330
3B
100
AcDbDictionary
280
     1
281
     1
  3
ACAD_XREC_ROUNDTRIP
360
15AC
  0
DICTIONARY
  5
15A1
330
36
100
AcDbDictionary
280
     1
281
     1
  3
ACAD_XREC_ROUNDTRIP
360
15A2
  0
DICTIONARY
  5
1595
330
30
100
AcDbDictionary
280
     1
281
     1
  3
ACAD_XREC_ROUNDTRIP
360
1596
  0
DICTIONARY
  5
15AD
330
3C
100
AcDbDictionary
280
     1
281
     1
  3
ACAD_XREC_ROUNDTRIP
360
15AE
  0
XRECORD
  5
15BD
102
{ACAD_REACTORS
330
15BC
102
}
330
15BC
100
AcDbXrecord
280
     1
102
SHADEPLOT
 70
     0
102
SHADEPLOTRESLEVEL
 70
     2
102
SHADEPLOTCUSTOMDPI
 70
   300
  0
XRECORD
  5
15BB
102
{ACAD_REACTORS
330
15BA
102
}
330
15BA
100
AcDbXrecord
280
     1
102
SHADEPLOT
 70
     0
102
SHADEPLOTRESLEVEL
 70
     2
102
SHADEPLOTCUSTOMDPI
 70
   300
  0
XRECORD
  5
B47
102
{ACAD_REACTORS
330
1A
102
}
330
1A
100
AcDbXrecord
280
     1
102
MATERIAL
148
0.0
149
0.0
149
0.0
 93
        0
 94
      127
282
     0
 72
     0
 77
     0
171
     0
175
     0
179
     0
273
     0
  0
XRECORD
  5
1C
102
{ACAD_REACTORS
330
1A
102
}
330
1A
100
AcDbXrecord
280
     1
270
     1
271
     1
  0
XRECORD
  5
1B
102
{ACAD_REACTORS
330
1A
102
}
330
1A
100
AcDbXrecord
280
     1
270
     1
271
     1
  0
XRECORD
  5
1F
102
{ACAD_REACTORS
330
1A
102
}
330
1A
100
AcDbXrecord
280
     1
270
     1
271
     1
  0
XRECORD
  5
1E
102
{ACAD_REACTORS
330
1A
102
}
330
1A
100
AcDbXrecord
280
     1
270
     1
271
     1
  0
XRECORD
  5
20
102
{ACAD_REACTORS
330
1A
102
}
330
1A
100
AcDbXrecord
280
     1
270
     1
271
     1
  0
XRECORD
  5
1D
102
{ACAD_REACTORS
330
1A
102
}
330
1A
100
AcDbXrecord
280
     1
270
     1
271
     1
  0
XRECORD
  5
B46
102
{ACAD_REACTORS
330
12
102
}
330
12
100
AcDbXrecord
280
     1
102
MATERIAL
148
0.0
149
0.0
149
0.0
 93
        0
 94
      127
282
     0
 72
     0
 77
     0
171
     0
175
     0
179
     0
273
     0
  0
XRECORD
  5
14
102
{ACAD_REACTORS
330
12
102
}
330
12
100
AcDbXrecord
280
     1
270
     1
271
     1
  0
XRECORD
  5
13
102
{ACAD_REACTORS
330
12
102
}
330
12
100
AcDbXrecord
280
     1
270
     1
271
     1
  0
XRECORD
  5
17
102
{ACAD_REACTORS
330
12
102
}
330
12
100
AcDbXrecord
280
     1
270
     1
271
     1
  0
XRECORD
  5
16
102
{ACAD_REACTORS
330
12
102
}
330
12
100
AcDbXrecord
280
     1
270
     1
271
     1
  0
XRECORD
  5
18
102
{ACAD_REACTORS
330
12
102
}
330
12
100
AcDbXrecord
280
     1
270
     1
271
     1
  0
XRECORD
  5
15
102
{ACAD_REACTORS
330
12
102
}
330
12
100
AcDbXrecord
280
     1
270
     1
271
     1
  0
XRECORD
  5
B48
102
{ACAD_REACTORS
330
22
102
}
330
22
100
AcDbXrecord
280
     1
102
MATERIAL
148
0.0
149
0.0
149
0.0
 93
        0
 94
      127
282
     0
 72
     0
 77
     0
171
     0
175
     0
179
     0
273
     0
  0
XRECORD
  5
24
102
{ACAD_REACTORS
330
22
102
}
330
22
100
AcDbXrecord
280
     1
270
     1
271
     1
  0
XRECORD
  5
23
102
{ACAD_REACTORS
330
22
102
}
330
22
100
AcDbXrecord
280
     1
270
     1
271
     1
  0
XRECORD
  5
27
102
{ACAD_REACTORS
330
22
102
}
330
22
100
AcDbXrecord
280
     1
270
     1
271
     1
  0
XRECORD
  5
26
102
{ACAD_REACTORS
330
22
102
}
330
22
100
AcDbXrecord
280
     1
270
     1
271
     1
  0
XRECORD
  5
28
102
{ACAD_REACTORS
330
22
102
}
330
22
100
AcDbXrecord
280
     1
270
     1
271
     1
  0
XRECORD
  5
25
102
{ACAD_REACTORS
330
22
102
}
330
22
100
AcDbXrecord
280
     1
270
     1
271
     1
  0
CELLSTYLEMAP
  5
1582
102
{ACAD_REACTORS
330
B3E
102
}
330
B3E
100
AcDbCellStyleMap
 90
        3
300
CELLSTYLE
  1
TABLEFORMAT_BEGIN
 90
        5
170
     1
 91
        0
 92
    32768
 62
   257
 93
        1
300
CONTENTFORMAT
  1
CONTENTFORMAT_BEGIN
 90
        0
 91
        0
 92
      512
 93
        0
300

 40
0.0
140
1.0
 94
        5
 62
     0
340
55
144
0.25
309
CONTENTFORMAT_END
171
     1
301
MARGIN
  1
CELLMARGIN_BEGIN
 40
0.06
 40
0.06
 40
0.06
 40
0.06
 40
0.18
 40
0.18
309
CELLMARGIN_END
 94
        6
 95
        1
302
GRIDFORMAT
  1
GRIDFORMAT_BEGIN
 90
        0
 91
        1
 62
     0
 92
       -2
340
0
 93
        0
 40
0.045
309
GRIDFORMAT_END
 95
        2
302
GRIDFORMAT
  1
GRIDFORMAT_BEGIN
 90
        0
 91
        1
 62
     0
 92
       -2
340
0
 93
        0
 40
0.045
309
GRIDFORMAT_END
 95
        4
302
GRIDFORMAT
  1
GRIDFORMAT_BEGIN
 90
        0
 91
        1
 62
     0
 92
       -2
340
0
 93
        0
 40
0.045
309
GRIDFORMAT_END
 95
        8
302
GRIDFORMAT
  1
GRIDFORMAT_BEGIN
 90
        0
 91
        1
 62
     0
 92
       -2
340
0
 93
        0
 40
0.045
309
GRIDFORMAT_END
 95
       16
302
GRIDFORMAT
  1
GRIDFORMAT_BEGIN
 90
        0
 91
        1
 62
     0
 92
       -2
340
0
 93
        0
 40
0.045
309
GRIDFORMAT_END
 95
       32
302
GRIDFORMAT
  1
GRIDFORMAT_BEGIN
 90
        0
 91
        1
 62
     0
 92
       -2
340
0
 93
        0
 40
0.045
309
GRIDFORMAT_END
309
TABLEFORMAT_END
  1
CELLSTYLE_BEGIN
 90
        1
 91
        1
300
_TITLE
309
CELLSTYLE_END
300
CELLSTYLE
  1
TABLEFORMAT_BEGIN
 90
        5
170
     1
 91
        0
 92
        0
 62
   257
 93
        1
300
CONTENTFORMAT
  1
CONTENTFORMAT_BEGIN
 90
        0
 91
        0
 92
      512
 93
        0
300

 40
0.0
140
1.0
 94
        5
 62
     0
340
55
144
0.18
309
CONTENTFORMAT_END
171
     1
301
MARGIN
  1
CELLMARGIN_BEGIN
 40
0.06
 40
0.06
 40
0.06
 40
0.06
 40
0.18
 40
0.18
309
CELLMARGIN_END
 94
        6
 95
        1
302
GRIDFORMAT
  1
GRIDFORMAT_BEGIN
 90
        0
 91
        1
 62
     0
 92
       -2
340
0
 93
        0
 40
0.045
309
GRIDFORMAT_END
 95
        2
302
GRIDFORMAT
  1
GRIDFORMAT_BEGIN
 90
        0
 91
        1
 62
     0
 92
       -2
340
0
 93
        0
 40
0.045
309
GRIDFORMAT_END
 95
        4
302
GRIDFORMAT
  1
GRIDFORMAT_BEGIN
 90
        0
 91
        1
 62
     0
 92
       -2
340
0
 93
        0
 40
0.045
309
GRIDFORMAT_END
 95
        8
302
GRIDFORMAT
  1
GRIDFORMAT_BEGIN
 90
        0
 91
        1
 62
     0
 92
       -2
340
0
 93
        0
 40
0.045
309
GRIDFORMAT_END
 95
       16
302
GRIDFORMAT
  1
GRIDFORMAT_BEGIN
 90
        0
 91
        1
 62
     0
 92
       -2
340
0
 93
        0
 40
0.045
309
GRIDFORMAT_END
 95
       32
302
GRIDFORMAT
  1
GRIDFORMAT_BEGIN
 90
        0
 91
        1
 62
     0
 92
       -2
340
0
 93
        0
 40
0.045
309
GRIDFORMAT_END
309
TABLEFORMAT_END
  1
CELLSTYLE_BEGIN
 90
        2
 91
        1
300
_HEADER
309
CELLSTYLE_END
300
CELLSTYLE
  1
TABLEFORMAT_BEGIN
 90
        5
170
     1
 91
        0
 92
        0
 62
   257
 93
        1
300
CONTENTFORMAT
  1
CONTENTFORMAT_BEGIN
 90
        0
 91
        0
 92
      512
 93
        0
300

 40
0.0
140
1.0
 94
        2
 62
     0
340
55
144
0.18
309
CONTENTFORMAT_END
171
     1
301
MARGIN
  1
CELLMARGIN_BEGIN
 40
0.06
 40
0.06
 40
0.06
 40
0.06
 40
0.18
 40
0.18
309
CELLMARGIN_END
 94
        6
 95
        1
302
GRIDFORMAT
  1
GRIDFORMAT_BEGIN
 90
        0
 91
        1
 62
     0
 92
       -2
340
0
 93
        0
 40
0.045
309
GRIDFORMAT_END
 95
        2
302
GRIDFORMAT
  1
GRIDFORMAT_BEGIN
 90
        0
 91
        1
 62
     0
 92
       -2
340
0
 93
        0
 40
0.045
309
GRIDFORMAT_END
 95
        4
302
GRIDFORMAT
  1
GRIDFORMAT_BEGIN
 90
        0
 91
        1
 62
     0
 92
       -2
340
0
 93
        0
 40
0.045
309
GRIDFORMAT_END
 95
        8
302
GRIDFORMAT
  1
GRIDFORMAT_BEGIN
 90
        0
 91
        1
 62
     0
 92
       -2
340
0
 93
        0
 40
0.045
309
GRIDFORMAT_END
 95
       16
302
GRIDFORMAT
  1
GRIDFORMAT_BEGIN
 90
        0
 91
        1
 62
     0
 92
       -2
340
0
 93
        0
 40
0.045
309
GRIDFORMAT_END
 95
       32
302
GRIDFORMAT
  1
GRIDFORMAT_BEGIN
 90
        0
 91
        1
 62
     0
 92
       -2
340
0
 93
        0
 40
0.045
309
GRIDFORMAT_END
309
TABLEFORMAT_END
  1
CELLSTYLE_BEGIN
 90
        3
 91
        2
300
_DATA
309
CELLSTYLE_END
  0
XRECORD
  5
15B9
102
{ACAD_REACTORS
330
B3E
102
}
330
B3E
100
AcDbXrecord
280
     1
102
ACAD_ROUNDTRIP_PRE2007_TABLESTYLE
 90
      512
 91
        0
  1

 92
      512
 93
        0
  2

 94
      512
 95
        0
  3

  0
XRECORD
  5
1594
102
{ACAD_REACTORS
330
1593
102
}
330
1593
100
AcDbXrecord
280
     1
102
RTVSPropertyOp0
 70
     1
102
RTVSPropertyOp1
 70
     1
102
RTVSPropertyOp2
 70
     1
102
RTVSPropertyOp3
 70
     1
102
RTVSPropertyOp4
 70
     1
102
RTVSPropertyOp5
 70
     1
102
RTVSPropertyOp6
 70
     1
102
RTVSPropertyOp7
 70
     1
102
RTVSPropertyOp8
 70
     1
102
RTVSPropertyOp9
 70
     1
102
RTVSPropertyOp10
 70
     1
102
RTVSPropertyOp11
 70
     1
102
RTVSPropertyOp12
 70
     1
102
RTVSPropertyOp13
 70
     1
102
RTVSPropertyOp14
 70
     1
102
RTVSPropertyOp15
 70
     1
102
RTVSPropertyOp16
 70
     1
102
RTVSPropertyOp17
 70
     1
102
RTVSPropertyOp18
 70
     1
102
RTVSPropertyOp19
 70
     1
102
RTVSPropertyOp20
 70
     1
102
RTVSPropertyOp21
 70
     1
102
RTVSPropertyOp22
 70
     1
102
RTVSPropertyOp23
 70
     1
102
RTVSPropertyOp24
 70
     1
102
RTVSPropertyOp25
 70
     1
102
RTVSPropertyOp26
 70
     1
102
RTVSPropertyOp27
 70
     1
102
RTVSPropertyOp28
 70
     1
102
RTVSPropertyOp29
 70
     1
102
RTVSPropertyOp30
 70
     1
102
RTVSPropertyOp31
 70
     1
102
RTVSPropertyOp32
 70
     1
  0
XRECORD
  5
15BF
102
{ACAD_REACTORS
330
15BE
102
}
330
15BE
100
AcDbXrecord
280
     1
102
RTVSPropertyOp0
 70
     1
102
RTVSPropertyOp1
 70
     1
102
RTVSPropertyOp2
 70
     1
102
RTVSPropertyOp3
 70
     1
102
RTVSPropertyOp4
 70
     1
102
RTVSPropertyOp5
 70
     1
102
RTVSPropertyOp6
 70
     1
102
RTVSPropertyOp7
 70
     1
102
RTVSPropertyOp8
 70
     1
102
RTVSPropertyOp9
 70
     1
102
RTVSPropertyOp10
 70
     1
102
RTVSPropertyOp11
 70
     1
102
RTVSPropertyOp12
 70
     1
102
RTVSPropertyOp13
 70
     1
102
RTVSPropertyOp14
 70
     1
102
RTVSPropertyOp15
 70
     1
102
RTVSPropertyOp16
 70
     1
102
RTVSPropertyOp17
 70
     1
102
RTVSPropertyOp18
 70
     1
102
RTVSPropertyOp19
 70
     1
102
RTVSPropertyOp20
 70
     1
102
RTVSPropertyOp21
 70
     1
102
RTVSPropertyOp22
 70
     1
102
RTVSPropertyOp23
 70
     1
102
RTVSPropertyOp24
 70
     1
102
RTVSPropertyOp25
 70
     1
102
RTVSPropertyOp26
 70
     1
102
RTVSPropertyOp27
 70
     1
102
RTVSPropertyOp28
 70
     1
102
RTVSPropertyOp29
 70
     1
102
RTVSPropertyOp30
 70
     1
102
RTVSPropertyOp31
 70
     1
102
RTVSPropertyOp32
 70
     1
  0
XRECORD
  5
1592
102
{ACAD_REACTORS
330
1591
102
}
330
1591
100
AcDbXrecord
280
     1
102
RTVSPropertyOp0
 70
     1
102
RTVSPropertyOp1
 70
     1
102
RTVSPropertyOp2
 70
     1
102
RTVSPropertyOp3
 70
     1
102
RTVSPropertyOp4
 70
     1
102
RTVSPropertyOp5
 70
     1
102
RTVSPropertyOp6
 70
     1
102
RTVSPropertyOp7
 70
     1
102
RTVSPropertyOp8
 70
     1
102
RTVSPropertyOp9
 70
     1
102
RTVSPropertyOp10
 70
     1
102
RTVSPropertyOp11
 70
     1
102
RTVSPropertyOp12
 70
     1
102
RTVSPropertyOp13
 70
     1
102
RTVSPropertyOp14
 70
     1
102
RTVSPropertyOp15
 70
     1
102
RTVSPropertyOp16
 70
     1
102
RTVSPropertyOp17
 70
     1
102
RTVSPropertyOp18
 70
     1
102
RTVSPropertyOp19
 70
     1
102
RTVSPropertyOp20
 70
     1
102
RTVSPropertyOp21
 70
     1
102
RTVSPropertyOp22
 70
     1
102
RTVSPropertyOp23
 70
     1
102
RTVSPropertyOp24
 70
     1
102
RTVSPropertyOp25
 70
     1
102
RTVSPropertyOp26
 70
     1
102
RTVSPropertyOp27
 70
     1
102
RTVSPropertyOp28
 70
     1
102
RTVSPropertyOp29
 70
     1
102
RTVSPropertyOp30
 70
     1
102
RTVSPropertyOp31
 70
     1
102
RTVSPropertyOp32
 70
     1
  0
XRECORD
  5
15A0
102
{ACAD_REACTORS
330
159F
102
}
330
159F
100
AcDbXrecord
280
     1
102
RTVSPropertyOp0
 70
     1
102
RTVSPropertyOp1
 70
     1
102
RTVSPropertyOp2
 70
     1
102
RTVSPropertyOp3
 70
     1
102
RTVSPropertyOp4
 70
     1
102
RTVSPropertyOp5
 70
     1
102
RTVSPropertyOp6
 70
     1
102
RTVSPropertyOp7
 70
     1
102
RTVSPropertyOp8
 70
     1
102
RTVSPropertyOp9
 70
     1
102
RTVSPropertyOp10
 70
     1
102
RTVSPropertyOp11
 70
     1
102
RTVSPropertyOp12
 70
     1
102
RTVSPropertyOp13
 70
     1
102
RTVSPropertyOp14
 70
     1
102
RTVSPropertyOp15
 70
     1
102
RTVSPropertyOp16
 70
     1
102
RTVSPropertyOp17
 70
     1
102
RTVSPropertyOp18
 70
     1
102
RTVSPropertyOp19
 70
     1
102
RTVSPropertyOp20
 70
     1
102
RTVSPropertyOp21
 70
     1
102
RTVSPropertyOp22
 70
     1
102
RTVSPropertyOp23
 70
     1
102
RTVSPropertyOp24
 70
     1
102
RTVSPropertyOp25
 70
     1
102
RTVSPropertyOp26
 70
     1
102
RTVSPropertyOp27
 70
     1
102
RTVSPropertyOp28
 70
     1
102
RTVSPropertyOp29
 70
     1
102
RTVSPropertyOp30
 70
     1
102
RTVSPropertyOp31
 70
     1
102
RTVSPropertyOp32
 70
     1
  0
XRECORD
  5
15A8
102
{ACAD_REACTORS
330
15A7
102
}
330
15A7
100
AcDbXrecord
280
     1
102
RTVSPropertyOp0
 70
     1
102
RTVSPropertyOp1
 70
     1
102
RTVSPropertyOp2
 70
     1
102
RTVSPropertyOp3
 70
     1
102
RTVSPropertyOp4
 70
     1
102
RTVSPropertyOp5
 70
     1
102
RTVSPropertyOp6
 70
     1
102
RTVSPropertyOp7
 70
     1
102
RTVSPropertyOp8
 70
     1
102
RTVSPropertyOp9
 70
     1
102
RTVSPropertyOp10
 70
     1
102
RTVSPropertyOp11
 70
     1
102
RTVSPropertyOp12
 70
     1
102
RTVSPropertyOp13
 70
     1
102
RTVSPropertyOp14
 70
     1
102
RTVSPropertyOp15
 70
     1
102
RTVSPropertyOp16
 70
     1
102
RTVSPropertyOp17
 70
     1
102
RTVSPropertyOp18
 70
     1
102
RTVSPropertyOp19
 70
     1
102
RTVSPropertyOp20
 70
     1
102
RTVSPropertyOp21
 70
     1
102
RTVSPropertyOp22
 70
     1
102
RTVSPropertyOp23
 70
     1
102
RTVSPropertyOp24
 70
     1
102
RTVSPropertyOp25
 70
     1
102
RTVSPropertyOp26
 70
     1
102
RTVSPropertyOp27
 70
     1
102
RTVSPropertyOp28
 70
     1
102
RTVSPropertyOp29
 70
     1
102
RTVSPropertyOp30
 70
     1
102
RTVSPropertyOp31
 70
     1
102
RTVSPropertyOp32
 70
     1
  0
XRECORD
  5
159A
102
{ACAD_REACTORS
330
1599
102
}
330
1599
100
AcDbXrecord
280
     1
102
RTVSPropertyOp0
 70
     1
102
RTVSPropertyOp1
 70
     1
102
RTVSPropertyOp2
 70
     1
102
RTVSPropertyOp3
 70
     1
102
RTVSPropertyOp4
 70
     1
102
RTVSPropertyOp5
 70
     1
102
RTVSPropertyOp6
 70
     1
102
RTVSPropertyOp7
 70
     1
102
RTVSPropertyOp8
 70
     1
102
RTVSPropertyOp9
 70
     1
102
RTVSPropertyOp10
 70
     1
102
RTVSPropertyOp11
 70
     1
102
RTVSPropertyOp12
 70
     1
102
RTVSPropertyOp13
 70
     1
102
RTVSPropertyOp14
 70
     1
102
RTVSPropertyOp15
 70
     1
102
RTVSPropertyOp16
 70
     1
102
RTVSPropertyOp17
 70
     1
102
RTVSPropertyOp18
 70
     1
102
RTVSPropertyOp19
 70
     1
102
RTVSPropertyOp20
 70
     1
102
RTVSPropertyOp21
 70
     1
102
RTVSPropertyOp22
 70
     1
102
RTVSPropertyOp23
 70
     1
102
RTVSPropertyOp24
 70
     1
102
RTVSPropertyOp25
 70
     1
102
RTVSPropertyOp26
 70
     1
102
RTVSPropertyOp27
 70
     1
102
RTVSPropertyOp28
 70
     1
102
RTVSPropertyOp29
 70
     1
102
RTVSPropertyOp30
 70
     1
102
RTVSPropertyOp31
 70
     1
102
RTVSPropertyOp32
 70
     1
  0
XRECORD
  5
159E
102
{ACAD_REACTORS
330
159D
102
}
330
159D
100
AcDbXrecord
280
     1
102
RTVSPropertyOp0
 70
     1
102
RTVSPropertyOp1
 70
     1
102
RTVSPropertyOp2
 70
     1
102
RTVSPropertyOp3
 70
     1
102
RTVSPropertyOp4
 70
     1
102
RTVSPropertyOp5
 70
     1
102
RTVSPropertyOp6
 70
     1
102
RTVSPropertyOp7
 70
     1
102
RTVSPropertyOp8
 70
     1
102
RTVSPropertyOp9
 70
     1
102
RTVSPropertyOp10
 70
     1
102
RTVSPropertyOp11
 70
     1
102
RTVSPropertyOp12
 70
     1
102
RTVSPropertyOp13
 70
     1
102
RTVSPropertyOp14
 70
     1
102
RTVSPropertyOp15
 70
     1
102
RTVSPropertyOp16
 70
     1
102
RTVSPropertyOp17
 70
     1
102
RTVSPropertyOp18
 70
     1
102
RTVSPropertyOp19
 70
     1
102
RTVSPropertyOp20
 70
     1
102
RTVSPropertyOp21
 70
     1
102
RTVSPropertyOp22
 70
     1
102
RTVSPropertyOp23
 70
     1
102
RTVSPropertyOp24
 70
     1
102
RTVSPropertyOp25
 70
     1
102
RTVSPropertyOp26
 70
     1
102
RTVSPropertyOp27
 70
     1
102
RTVSPropertyOp28
 70
     1
102
RTVSPropertyOp29
 70
     1
102
RTVSPropertyOp30
 70
     1
102
RTVSPropertyOp31
 70
     1
102
RTVSPropertyOp32
 70
     1
  0
XRECORD
  5
15B8
102
{ACAD_REACTORS
330
15B7
102
}
330
15B7
100
AcDbXrecord
280
     1
102
RTVSPropertyOp0
 70
     0
102
RTVSPropertyOp1
 70
     0
102
RTVSPropertyOp2
 70
     0
102
RTVSPropertyOp3
 70
     0
102
RTVSPropertyOp4
 70
     0
102
RTVSPropertyOp5
 70
     0
102
RTVSPropertyOp6
 70
     0
102
RTVSPropertyOp7
 70
     0
102
RTVSPropertyOp8
 70
     0
102
RTVSPropertyOp9
 70
     0
102
RTVSPropertyOp10
 70
     0
102
RTVSPropertyOp11
 70
     0
102
RTVSPropertyOp12
 70
     0
102
RTVSPropertyOp13
 70
     0
102
RTVSPropertyOp14
 70
     2
102
RTVSPropertyOp15
 70
     0
102
RTVSPropertyOp16
 70
     0
102
RTVSPropertyOp17
 70
     0
102
RTVSPropertyOp18
 70
     0
102
RTVSPropertyOp19
 70
     0
102
RTVSPropertyOp20
 70
     0
102
RTVSPropertyOp21
 70
     0
102
RTVSPropertyOp22
 70
     0
102
RTVSPropertyOp23
 70
     0
102
RTVSPropertyOp24
 70
     0
102
RTVSPropertyOp25
 70
     0
102
RTVSPropertyOp26
 70
     0
102
RTVSPropertyOp27
 70
     0
102
RTVSPropertyOp28
 70
     0
102
RTVSPropertyOp29
 70
     0
102
RTVSPropertyOp30
 70
     0
102
RTVSPropertyOp31
 70
     0
102
RTVSPropertyOp32
 70
     0
  0
XRECORD
  5
15A6
102
{ACAD_REACTORS
330
15A5
102
}
330
15A5
100
AcDbXrecord
280
     1
102
RTVSPropertyOp0
 70
     1
102
RTVSPropertyOp1
 70
     1
102
RTVSPropertyOp2
 70
     1
102
RTVSPropertyOp3
 70
     1
102
RTVSPropertyOp4
 70
     1
102
RTVSPropertyOp5
 70
     1
102
RTVSPropertyOp6
 70
     1
102
RTVSPropertyOp7
 70
     1
102
RTVSPropertyOp8
 70
     1
102
RTVSPropertyOp9
 70
     1
102
RTVSPropertyOp10
 70
     1
102
RTVSPropertyOp11
 70
     1
102
RTVSPropertyOp12
 70
     1
102
RTVSPropertyOp13
 70
     1
102
RTVSPropertyOp14
 70
     1
102
RTVSPropertyOp15
 70
     1
102
RTVSPropertyOp16
 70
     1
102
RTVSPropertyOp17
 70
     1
102
RTVSPropertyOp18
 70
     1
102
RTVSPropertyOp19
 70
     1
102
RTVSPropertyOp20
 70
     1
102
RTVSPropertyOp21
 70
     1
102
RTVSPropertyOp22
 70
     1
102
RTVSPropertyOp23
 70
     1
102
RTVSPropertyOp24
 70
     1
102
RTVSPropertyOp25
 70
     1
102
RTVSPropertyOp26
 70
     1
102
RTVSPropertyOp27
 70
     1
102
RTVSPropertyOp28
 70
     1
102
RTVSPropertyOp29
 70
     1
102
RTVSPropertyOp30
 70
     1
102
RTVSPropertyOp31
 70
     1
102
RTVSPropertyOp32
 70
     1
  0
XRECORD
  5
158A
102
{ACAD_REACTORS
330
1589
102
}
330
1589
100
AcDbXrecord
280
     1
102
RTVSPropertyOp0
 70
     1
102
RTVSPropertyOp1
 70
     1
102
RTVSPropertyOp2
 70
     1
102
RTVSPropertyOp3
 70
     1
102
RTVSPropertyOp4
 70
     1
102
RTVSPropertyOp5
 70
     1
102
RTVSPropertyOp6
 70
     1
102
RTVSPropertyOp7
 70
     1
102
RTVSPropertyOp8
 70
     1
102
RTVSPropertyOp9
 70
     1
102
RTVSPropertyOp10
 70
     1
102
RTVSPropertyOp11
 70
     1
102
RTVSPropertyOp12
 70
     1
102
RTVSPropertyOp13
 70
     1
102
RTVSPropertyOp14
 70
     1
102
RTVSPropertyOp15
 70
     1
102
RTVSPropertyOp16
 70
     1
102
RTVSPropertyOp17
 70
     1
102
RTVSPropertyOp18
 70
     1
102
RTVSPropertyOp19
 70
     1
102
RTVSPropertyOp20
 70
     1
102
RTVSPropertyOp21
 70
     1
102
RTVSPropertyOp22
 70
     1
102
RTVSPropertyOp23
 70
     1
102
RTVSPropertyOp24
 70
     1
102
RTVSPropertyOp25
 70
     1
102
RTVSPropertyOp26
 70
     1
102
RTVSPropertyOp27
 70
     1
102
RTVSPropertyOp28
 70
     1
102
RTVSPropertyOp29
 70
     1
102
RTVSPropertyOp30
 70
     1
102
RTVSPropertyOp31
 70
     1
102
RTVSPropertyOp32
 70
     1
  0
XRECORD
  5
158C
102
{ACAD_REACTORS
330
158B
102
}
330
158B
100
AcDbXrecord
280
     1
102
RTVSPropertyOp0
 70
     1
102
RTVSPropertyOp1
 70
     1
102
RTVSPropertyOp2
 70
     1
102
RTVSPropertyOp3
 70
     1
102
RTVSPropertyOp4
 70
     1
102
RTVSPropertyOp5
 70
     1
102
RTVSPropertyOp6
 70
     1
102
RTVSPropertyOp7
 70
     1
102
RTVSPropertyOp8
 70
     1
102
RTVSPropertyOp9
 70
     1
102
RTVSPropertyOp10
 70
     1
102
RTVSPropertyOp11
 70
     1
102
RTVSPropertyOp12
 70
     1
102
RTVSPropertyOp13
 70
     1
102
RTVSPropertyOp14
 70
     1
102
RTVSPropertyOp15
 70
     1
102
RTVSPropertyOp16
 70
     1
102
RTVSPropertyOp17
 70
     1
102
RTVSPropertyOp18
 70
     1
102
RTVSPropertyOp19
 70
     1
102
RTVSPropertyOp20
 70
     1
102
RTVSPropertyOp21
 70
     1
102
RTVSPropertyOp22
 70
     1
102
RTVSPropertyOp23
 70
     1
102
RTVSPropertyOp24
 70
     1
102
RTVSPropertyOp25
 70
     1
102
RTVSPropertyOp26
 70
     1
102
RTVSPropertyOp27
 70
     1
102
RTVSPropertyOp28
 70
     1
102
RTVSPropertyOp29
 70
     1
102
RTVSPropertyOp30
 70
     1
102
RTVSPropertyOp31
 70
     1
102
RTVSPropertyOp32
 70
     1
  0
XRECORD
  5
158E
102
{ACAD_REACTORS
330
158D
102
}
330
158D
100
AcDbXrecord
280
     1
102
RTVSPropertyOp0
 70
     1
102
RTVSPropertyOp1
 70
     1
102
RTVSPropertyOp2
 70
     1
102
RTVSPropertyOp3
 70
     1
102
RTVSPropertyOp4
 70
     1
102
RTVSPropertyOp5
 70
     1
102
RTVSPropertyOp6
 70
     1
102
RTVSPropertyOp7
 70
     1
102
RTVSPropertyOp8
 70
     1
102
RTVSPropertyOp9
 70
     1
102
RTVSPropertyOp10
 70
     1
102
RTVSPropertyOp11
 70
     1
102
RTVSPropertyOp12
 70
     1
102
RTVSPropertyOp13
 70
     1
102
RTVSPropertyOp14
 70
     1
102
RTVSPropertyOp15
 70
     1
102
RTVSPropertyOp16
 70
     1
102
RTVSPropertyOp17
 70
     1
102
RTVSPropertyOp18
 70
     1
102
RTVSPropertyOp19
 70
     1
102
RTVSPropertyOp20
 70
     1
102
RTVSPropertyOp21
 70
     1
102
RTVSPropertyOp22
 70
     1
102
RTVSPropertyOp23
 70
     1
102
RTVSPropertyOp24
 70
     1
102
RTVSPropertyOp25
 70
     1
102
RTVSPropertyOp26
 70
     1
102
RTVSPropertyOp27
 70
     1
102
RTVSPropertyOp28
 70
     1
102
RTVSPropertyOp29
 70
     1
102
RTVSPropertyOp30
 70
     1
102
RTVSPropertyOp31
 70
     1
102
RTVSPropertyOp32
 70
     1
  0
XRECORD
  5
1590
102
{ACAD_REACTORS
330
158F
102
}
330
158F
100
AcDbXrecord
280
     1
102
RTVSPropertyOp0
 70
     1
102
RTVSPropertyOp1
 70
     1
102
RTVSPropertyOp2
 70
     1
102
RTVSPropertyOp3
 70
     1
102
RTVSPropertyOp4
 70
     1
102
RTVSPropertyOp5
 70
     1
102
RTVSPropertyOp6
 70
     1
102
RTVSPropertyOp7
 70
     1
102
RTVSPropertyOp8
 70
     1
102
RTVSPropertyOp9
 70
     1
102
RTVSPropertyOp10
 70
     1
102
RTVSPropertyOp11
 70
     1
102
RTVSPropertyOp12
 70
     1
102
RTVSPropertyOp13
 70
     1
102
RTVSPropertyOp14
 70
     1
102
RTVSPropertyOp15
 70
     1
102
RTVSPropertyOp16
 70
     1
102
RTVSPropertyOp17
 70
     1
102
RTVSPropertyOp18
 70
     1
102
RTVSPropertyOp19
 70
     1
102
RTVSPropertyOp20
 70
     1
102
RTVSPropertyOp21
 70
     1
102
RTVSPropertyOp22
 70
     1
102
RTVSPropertyOp23
 70
     1
102
RTVSPropertyOp24
 70
     1
102
RTVSPropertyOp25
 70
     1
102
RTVSPropertyOp26
 70
     1
102
RTVSPropertyOp27
 70
     1
102
RTVSPropertyOp28
 70
     1
102
RTVSPropertyOp29
 70
     1
102
RTVSPropertyOp30
 70
     1
102
RTVSPropertyOp31
 70
     1
102
RTVSPropertyOp32
 70
     1
  0
XRECORD
  5
1598
102
{ACAD_REACTORS
330
1597
102
}
330
1597
100
AcDbXrecord
280
     1
102
RTVSPropertyOp0
 70
     1
102
RTVSPropertyOp1
 70
     1
102
RTVSPropertyOp2
 70
     1
102
RTVSPropertyOp3
 70
     1
102
RTVSPropertyOp4
 70
     1
102
RTVSPropertyOp5
 70
     1
102
RTVSPropertyOp6
 70
     1
102
RTVSPropertyOp7
 70
     1
102
RTVSPropertyOp8
 70
     1
102
RTVSPropertyOp9
 70
     1
102
RTVSPropertyOp10
 70
     1
102
RTVSPropertyOp11
 70
     1
102
RTVSPropertyOp12
 70
     1
102
RTVSPropertyOp13
 70
     1
102
RTVSPropertyOp14
 70
     1
102
RTVSPropertyOp15
 70
     1
102
RTVSPropertyOp16
 70
     1
102
RTVSPropertyOp17
 70
     1
102
RTVSPropertyOp18
 70
     1
102
RTVSPropertyOp19
 70
     1
102
RTVSPropertyOp20
 70
     1
102
RTVSPropertyOp21
 70
     1
102
RTVSPropertyOp22
 70
     1
102
RTVSPropertyOp23
 70
     1
102
RTVSPropertyOp24
 70
     1
102
RTVSPropertyOp25
 70
     1
102
RTVSPropertyOp26
 70
     1
102
RTVSPropertyOp27
 70
     1
102
RTVSPropertyOp28
 70
     1
102
RTVSPropertyOp29
 70
     1
102
RTVSPropertyOp30
 70
     1
102
RTVSPropertyOp31
 70
     1
102
RTVSPropertyOp32
 70
     1
  0
XRECORD
  5
15B4
102
{ACAD_REACTORS
330
15B3
102
}
330
15B3
100
AcDbXrecord
280
     1
102
RTVSPropertyOp0
 70
     0
102
RTVSPropertyOp1
 70
     0
102
RTVSPropertyOp2
 70
     0
102
RTVSPropertyOp3
 70
     0
102
RTVSPropertyOp4
 70
     0
102
RTVSPropertyOp5
 70
     0
102
RTVSPropertyOp6
 70
     0
102
RTVSPropertyOp7
 70
     0
102
RTVSPropertyOp8
 70
     0
102
RTVSPropertyOp9
 70
     0
102
RTVSPropertyOp10
 70
     0
102
RTVSPropertyOp11
 70
     0
102
RTVSPropertyOp12
 70
     0
102
RTVSPropertyOp13
 70
     0
102
RTVSPropertyOp14
 70
     2
102
RTVSPropertyOp15
 70
     0
102
RTVSPropertyOp16
 70
     0
102
RTVSPropertyOp17
 70
     0
102
RTVSPropertyOp18
 70
     0
102
RTVSPropertyOp19
 70
     0
102
RTVSPropertyOp20
 70
     0
102
RTVSPropertyOp21
 70
     0
102
RTVSPropertyOp22
 70
     0
102
RTVSPropertyOp23
 70
     0
102
RTVSPropertyOp24
 70
     0
102
RTVSPropertyOp25
 70
     0
102
RTVSPropertyOp26
 70
     0
102
RTVSPropertyOp27
 70
     0
102
RTVSPropertyOp28
 70
     0
102
RTVSPropertyOp29
 70
     0
102
RTVSPropertyOp30
 70
     0
102
RTVSPropertyOp31
 70
     0
102
RTVSPropertyOp32
 70
     0
  0
XRECORD
  5
15A4
102
{ACAD_REACTORS
330
15A3
102
}
330
15A3
100
AcDbXrecord
280
     1
102
RTVSPropertyOp0
 70
     1
102
RTVSPropertyOp1
 70
     1
102
RTVSPropertyOp2
 70
     1
102
RTVSPropertyOp3
 70
     1
102
RTVSPropertyOp4
 70
     1
102
RTVSPropertyOp5
 70
     1
102
RTVSPropertyOp6
 70
     1
102
RTVSPropertyOp7
 70
     1
102
RTVSPropertyOp8
 70
     1
102
RTVSPropertyOp9
 70
     1
102
RTVSPropertyOp10
 70
     1
102
RTVSPropertyOp11
 70
     1
102
RTVSPropertyOp12
 70
     1
102
RTVSPropertyOp13
 70
     1
102
RTVSPropertyOp14
 70
     1
102
RTVSPropertyOp15
 70
     1
102
RTVSPropertyOp16
 70
     1
102
RTVSPropertyOp17
 70
     1
102
RTVSPropertyOp18
 70
     1
102
RTVSPropertyOp19
 70
     1
102
RTVSPropertyOp20
 70
     1
102
RTVSPropertyOp21
 70
     1
102
RTVSPropertyOp22
 70
     1
102
RTVSPropertyOp23
 70
     1
102
RTVSPropertyOp24
 70
     1
102
RTVSPropertyOp25
 70
     1
102
RTVSPropertyOp26
 70
     1
102
RTVSPropertyOp27
 70
     1
102
RTVSPropertyOp28
 70
     1
102
RTVSPropertyOp29
 70
     1
102
RTVSPropertyOp30
 70
     1
102
RTVSPropertyOp31
 70
     1
102
RTVSPropertyOp32
 70
     1
  0
XRECORD
  5
15B6
102
{ACAD_REACTORS
330
15B5
102
}
330
15B5
100
AcDbXrecord
280
     1
102
RTVSPropertyOp0
 70
     0
102
RTVSPropertyOp1
 70
     0
102
RTVSPropertyOp2
 70
     0
102
RTVSPropertyOp3
 70
     0
102
RTVSPropertyOp4
 70
     0
102
RTVSPropertyOp5
 70
     0
102
RTVSPropertyOp6
 70
     0
102
RTVSPropertyOp7
 70
     0
102
RTVSPropertyOp8
 70
     0
102
RTVSPropertyOp9
 70
     0
102
RTVSPropertyOp10
 70
     0
102
RTVSPropertyOp11
 70
     0
102
RTVSPropertyOp12
 70
     0
102
RTVSPropertyOp13
 70
     0
102
RTVSPropertyOp14
 70
     2
102
RTVSPropertyOp15
 70
     0
102
RTVSPropertyOp16
 70
     0
102
RTVSPropertyOp17
 70
     0
102
RTVSPropertyOp18
 70
     0
102
RTVSPropertyOp19
 70
     0
102
RTVSPropertyOp20
 70
     0
102
RTVSPropertyOp21
 70
     0
102
RTVSPropertyOp22
 70
     0
102
RTVSPropertyOp23
 70
     0
102
RTVSPropertyOp24
 70
     0
102
RTVSPropertyOp25
 70
     0
102
RTVSPropertyOp26
 70
     0
102
RTVSPropertyOp27
 70
     0
102
RTVSPropertyOp28
 70
     0
102
RTVSPropertyOp29
 70
     0
102
RTVSPropertyOp30
 70
     0
102
RTVSPropertyOp31
 70
     0
102
RTVSPropertyOp32
 70
     0
  0
XRECORD
  5
159C
102
{ACAD_REACTORS
330
159B
102
}
330
159B
100
AcDbXrecord
280
     1
102
RTVSPropertyOp0
 70
     1
102
RTVSPropertyOp1
 70
     1
102
RTVSPropertyOp2
 70
     1
102
RTVSPropertyOp3
 70
     1
102
RTVSPropertyOp4
 70
     1
102
RTVSPropertyOp5
 70
     1
102
RTVSPropertyOp6
 70
     1
102
RTVSPropertyOp7
 70
     1
102
RTVSPropertyOp8
 70
     1
102
RTVSPropertyOp9
 70
     1
102
RTVSPropertyOp10
 70
     1
102
RTVSPropertyOp11
 70
     1
102
RTVSPropertyOp12
 70
     1
102
RTVSPropertyOp13
 70
     1
102
RTVSPropertyOp14
 70
     1
102
RTVSPropertyOp15
 70
     1
102
RTVSPropertyOp16
 70
     1
102
RTVSPropertyOp17
 70
     1
102
RTVSPropertyOp18
 70
     1
102
RTVSPropertyOp19
 70
     1
102
RTVSPropertyOp20
 70
     1
102
RTVSPropertyOp21
 70
     1
102
RTVSPropertyOp22
 70
     1
102
RTVSPropertyOp23
 70
     1
102
RTVSPropertyOp24
 70
     1
102
RTVSPropertyOp25
 70
     1
102
RTVSPropertyOp26
 70
     1
102
RTVSPropertyOp27
 70
     1
102
RTVSPropertyOp28
 70
     1
102
RTVSPropertyOp29
 70
     1
102
RTVSPropertyOp30
 70
     1
102
RTVSPropertyOp31
 70
     1
102
RTVSPropertyOp32
 70
     1
  0
XRECORD
  5
15B2
102
{ACAD_REACTORS
330
15B1
102
}
330
15B1
100
AcDbXrecord
280
     1
102
RTVSPropertyOp0
 70
     1
102
RTVSPropertyOp1
 70
     1
102
RTVSPropertyOp2
 70
     1
102
RTVSPropertyOp3
 70
     1
102
RTVSPropertyOp4
 70
     1
102
RTVSPropertyOp5
 70
     1
102
RTVSPropertyOp6
 70
     1
102
RTVSPropertyOp7
 70
     1
102
RTVSPropertyOp8
 70
     1
102
RTVSPropertyOp9
 70
     1
102
RTVSPropertyOp10
 70
     1
102
RTVSPropertyOp11
 70
     1
102
RTVSPropertyOp12
 70
     1
102
RTVSPropertyOp13
 70
     1
102
RTVSPropertyOp14
 70
     1
102
RTVSPropertyOp15
 70
     1
102
RTVSPropertyOp16
 70
     1
102
RTVSPropertyOp17
 70
     1
102
RTVSPropertyOp18
 70
     1
102
RTVSPropertyOp19
 70
     1
102
RTVSPropertyOp20
 70
     1
102
RTVSPropertyOp21
 70
     1
102
RTVSPropertyOp22
 70
     1
102
RTVSPropertyOp23
 70
     1
102
RTVSPropertyOp24
 70
     1
102
RTVSPropertyOp25
 70
     1
102
RTVSPropertyOp26
 70
     1
102
RTVSPropertyOp27
 70
     1
102
RTVSPropertyOp28
 70
     1
102
RTVSPropertyOp29
 70
     1
102
RTVSPropertyOp30
 70
     1
102
RTVSPropertyOp31
 70
     1
102
RTVSPropertyOp32
 70
     1
  0
XRECORD
  5
15B0
102
{ACAD_REACTORS
330
15AF
102
}
330
15AF
100
AcDbXrecord
280
     1
102
RTVSPropertyOp0
 70
     1
102
RTVSPropertyOp1
 70
     1
102
RTVSPropertyOp2
 70
     1
102
RTVSPropertyOp3
 70
     1
102
RTVSPropertyOp4
 70
     1
102
RTVSPropertyOp5
 70
     1
102
RTVSPropertyOp6
 70
     1
102
RTVSPropertyOp7
 70
     1
102
RTVSPropertyOp8
 70
     1
102
RTVSPropertyOp9
 70
     1
102
RTVSPropertyOp10
 70
     1
102
RTVSPropertyOp11
 70
     1
102
RTVSPropertyOp12
 70
     1
102
RTVSPropertyOp13
 70
     1
102
RTVSPropertyOp14
 70
     1
102
RTVSPropertyOp15
 70
     1
102
RTVSPropertyOp16
 70
     1
102
RTVSPropertyOp17
 70
     1
102
RTVSPropertyOp18
 70
     1
102
RTVSPropertyOp19
 70
     1
102
RTVSPropertyOp20
 70
     1
102
RTVSPropertyOp21
 70
     1
102
RTVSPropertyOp22
 70
     1
102
RTVSPropertyOp23
 70
     1
102
RTVSPropertyOp24
 70
     1
102
RTVSPropertyOp25
 70
     1
102
RTVSPropertyOp26
 70
     1
102
RTVSPropertyOp27
 70
     1
102
RTVSPropertyOp28
 70
     1
102
RTVSPropertyOp29
 70
     1
102
RTVSPropertyOp30
 70
     1
102
RTVSPropertyOp31
 70
     1
102
RTVSPropertyOp32
 70
     1
  0
XRECORD
  5
15AA
102
{ACAD_REACTORS
330
15A9
102
}
330
15A9
100
AcDbXrecord
280
     1
102
RTVSPropertyOp0
 70
     1
102
RTVSPropertyOp1
 70
     1
102
RTVSPropertyOp2
 70
     1
102
RTVSPropertyOp3
 70
     1
102
RTVSPropertyOp4
 70
     1
102
RTVSPropertyOp5
 70
     1
102
RTVSPropertyOp6
 70
     1
102
RTVSPropertyOp7
 70
     1
102
RTVSPropertyOp8
 70
     1
102
RTVSPropertyOp9
 70
     1
102
RTVSPropertyOp10
 70
     1
102
RTVSPropertyOp11
 70
     1
102
RTVSPropertyOp12
 70
     1
102
RTVSPropertyOp13
 70
     1
102
RTVSPropertyOp14
 70
     1
102
RTVSPropertyOp15
 70
     1
102
RTVSPropertyOp16
 70
     1
102
RTVSPropertyOp17
 70
     1
102
RTVSPropertyOp18
 70
     1
102
RTVSPropertyOp19
 70
     1
102
RTVSPropertyOp20
 70
     1
102
RTVSPropertyOp21
 70
     1
102
RTVSPropertyOp22
 70
     1
102
RTVSPropertyOp23
 70
     1
102
RTVSPropertyOp24
 70
     1
102
RTVSPropertyOp25
 70
     1
102
RTVSPropertyOp26
 70
     1
102
RTVSPropertyOp27
 70
     1
102
RTVSPropertyOp28
 70
     1
102
RTVSPropertyOp29
 70
     1
102
RTVSPropertyOp30
 70
     1
102
RTVSPropertyOp31
 70
     1
102
RTVSPropertyOp32
 70
     1
  0
XRECORD
  5
15AC
102
{ACAD_REACTORS
330
15AB
102
}
330
15AB
100
AcDbXrecord
280
     1
102
RTVSPropertyOp0
 70
     1
102
RTVSPropertyOp1
 70
     1
102
RTVSPropertyOp2
 70
     1
102
RTVSPropertyOp3
 70
     1
102
RTVSPropertyOp4
 70
     1
102
RTVSPropertyOp5
 70
     1
102
RTVSPropertyOp6
 70
     1
102
RTVSPropertyOp7
 70
     1
102
RTVSPropertyOp8
 70
     1
102
RTVSPropertyOp9
 70
     1
102
RTVSPropertyOp10
 70
     1
102
RTVSPropertyOp11
 70
     1
102
RTVSPropertyOp12
 70
     1
102
RTVSPropertyOp13
 70
     1
102
RTVSPropertyOp14
 70
     1
102
RTVSPropertyOp15
 70
     1
102
RTVSPropertyOp16
 70
     1
102
RTVSPropertyOp17
 70
     1
102
RTVSPropertyOp18
 70
     1
102
RTVSPropertyOp19
 70
     1
102
RTVSPropertyOp20
 70
     1
102
RTVSPropertyOp21
 70
     1
102
RTVSPropertyOp22
 70
     1
102
RTVSPropertyOp23
 70
     1
102
RTVSPropertyOp24
 70
     1
102
RTVSPropertyOp25
 70
     1
102
RTVSPropertyOp26
 70
     1
102
RTVSPropertyOp27
 70
     1
102
RTVSPropertyOp28
 70
     1
102
RTVSPropertyOp29
 70
     1
102
RTVSPropertyOp30
 70
     1
102
RTVSPropertyOp31
 70
     1
102
RTVSPropertyOp32
 70
     1
  0
XRECORD
  5
15A2
102
{ACAD_REACTORS
330
15A1
102
}
330
15A1
100
AcDbXrecord
280
     1
102
RTVSPropertyOp0
 70
     1
102
RTVSPropertyOp1
 70
     1
102
RTVSPropertyOp2
 70
     1
102
RTVSPropertyOp3
 70
     1
102
RTVSPropertyOp4
 70
     1
102
RTVSPropertyOp5
 70
     1
102
RTVSPropertyOp6
 70
     1
102
RTVSPropertyOp7
 70
     1
102
RTVSPropertyOp8
 70
     1
102
RTVSPropertyOp9
 70
     1
102
RTVSPropertyOp10
 70
     1
102
RTVSPropertyOp11
 70
     1
102
RTVSPropertyOp12
 70
     1
102
RTVSPropertyOp13
 70
     1
102
RTVSPropertyOp14
 70
     1
102
RTVSPropertyOp15
 70
     1
102
RTVSPropertyOp16
 70
     1
102
RTVSPropertyOp17
 70
     1
102
RTVSPropertyOp18
 70
     1
102
RTVSPropertyOp19
 70
     1
102
RTVSPropertyOp20
 70
     1
102
RTVSPropertyOp21
 70
     1
102
RTVSPropertyOp22
 70
     1
102
RTVSPropertyOp23
 70
     1
102
RTVSPropertyOp24
 70
     1
102
RTVSPropertyOp25
 70
     1
102
RTVSPropertyOp26
 70
     1
102
RTVSPropertyOp27
 70
     1
102
RTVSPropertyOp28
 70
     1
102
RTVSPropertyOp29
 70
     1
102
RTVSPropertyOp30
 70
     1
102
RTVSPropertyOp31
 70
     1
102
RTVSPropertyOp32
 70
     1
  0
XRECORD
  5
1596
102
{ACAD_REACTORS
330
1595
102
}
330
1595
100
AcDbXrecord
280
     1
102
RTVSPropertyOp0
 70
     1
102
RTVSPropertyOp1
 70
     1
102
RTVSPropertyOp2
 70
     1
102
RTVSPropertyOp3
 70
     1
102
RTVSPropertyOp4
 70
     1
102
RTVSPropertyOp5
 70
     1
102
RTVSPropertyOp6
 70
     1
102
RTVSPropertyOp7
 70
     1
102
RTVSPropertyOp8
 70
     1
102
RTVSPropertyOp9
 70
     1
102
RTVSPropertyOp10
 70
     1
102
RTVSPropertyOp11
 70
     1
102
RTVSPropertyOp12
 70
     1
102
RTVSPropertyOp13
 70
     1
102
RTVSPropertyOp14
 70
     1
102
RTVSPropertyOp15
 70
     1
102
RTVSPropertyOp16
 70
     1
102
RTVSPropertyOp17
 70
     1
102
RTVSPropertyOp18
 70
     1
102
RTVSPropertyOp19
 70
     1
102
RTVSPropertyOp20
 70
     1
102
RTVSPropertyOp21
 70
     1
102
RTVSPropertyOp22
 70
     1
102
RTVSPropertyOp23
 70
     1
102
RTVSPropertyOp24
 70
     1
102
RTVSPropertyOp25
 70
     1
102
RTVSPropertyOp26
 70
     1
102
RTVSPropertyOp27
 70
     1
102
RTVSPropertyOp28
 70
     1
102
RTVSPropertyOp29
 70
     1
102
RTVSPropertyOp30
 70
     1
102
RTVSPropertyOp31
 70
     1
102
RTVSPropertyOp32
 70
     1
  0
XRECORD
  5
15AE
102
{ACAD_REACTORS
330
15AD
102
}
330
15AD
100
AcDbXrecord
280
     1
102
RTVSPropertyOp0
 70
     1
102
RTVSPropertyOp1
 70
     1
102
RTVSPropertyOp2
 70
     1
102
RTVSPropertyOp3
 70
     1
102
RTVSPropertyOp4
 70
     1
102
RTVSPropertyOp5
 70
     1
102
RTVSPropertyOp6
 70
     1
102
RTVSPropertyOp7
 70
     1
102
RTVSPropertyOp8
 70
     1
102
RTVSPropertyOp9
 70
     1
102
RTVSPropertyOp10
 70
     1
102
RTVSPropertyOp11
 70
     1
102
RTVSPropertyOp12
 70
     1
102
RTVSPropertyOp13
 70
     1
102
RTVSPropertyOp14
 70
     1
102
RTVSPropertyOp15
 70
     1
102
RTVSPropertyOp16
 70
     1
102
RTVSPropertyOp17
 70
     1
102
RTVSPropertyOp18
 70
     1
102
RTVSPropertyOp19
 70
     1
102
RTVSPropertyOp20
 70
     1
102
RTVSPropertyOp21
 70
     1
102
RTVSPropertyOp22
 70
     1
102
RTVSPropertyOp23
 70
     1
102
RTVSPropertyOp24
 70
     1
102
RTVSPropertyOp25
 70
     1
102
RTVSPropertyOp26
 70
     1
102
RTVSPropertyOp27
 70
     1
102
RTVSPropertyOp28
 70
     1
102
RTVSPropertyOp29
 70
     1
102
RTVSPropertyOp30
 70
     1
102
RTVSPropertyOp31
 70
     1
102
RTVSPropertyOp32
 70
     1
  0
ENDSEC
  0
EOF
