  0
SECTION
  2
HEADER
  9
$ACADVER
  1
AC1015
  9
$ACADMAINTVER
 70
    20
  9
$DWGCODEPAGE
  3
ANSI_932
  9
$INSBASE
 10
0.0
 20
0.0
 30
0.0
  9
$EXTMIN
 10
-339.9598596743719
 20
-144.5743167607371
 30
-0.0015258207003583
  9
$EXTMAX
 10
-147.9345556703351
 20
136.5659745314499
 30
0.0000000349246037
  9
$LIMMIN
 10
-102.001
 20
-138.635872
  9
$LIMMAX
 10
90.00100000000001
 20
138.501
  9
$ORTHOMODE
 70
     0
  9
$REGENMODE
 70
     1
  9
$FILLMODE
 70
     1
  9
$QTEXTMODE
 70
     0
  9
$MIRRTEXT
 70
     0
  9
$LTSCALE
 40
4.0
  9
$ATTMODE
 70
     1
  9
$TEXTSIZE
 40
3.2
  9
$TRACEWID
 40
0.05
  9
$TEXTSTYLE
  7
高3.2
  9
$CLAYER
  8
0
  9
$CELTYPE
  6
CONTINUOUS
  9
$CECOLOR
 62
   256
  9
$CELTSCALE
 40
1.0
  9
$DISPSILH
 70
     0
  9
$DIMSCALE
 40
1.0
  9
$DIMASZ
 40
2.5
  9
$DIMEXO
 40
0.25
  9
$DIMDLI
 40
0.2
  9
$DIMRND
 40
0.0
  9
$DIMDLE
 40
0.0
  9
$DIMEXE
 40
1.25
  9
$DIMTP
 40
0.0
  9
$DIMTM
 40
0.0
  9
$DIMTXT
 40
3.0
  9
$DIMCEN
 40
0.0
  9
$DIMTSZ
 40
0.0
  9
$DIMTOL
 70
     0
  9
$DIMLIM
 70
     0
  9
$DIMTIH
 70
     0
  9
$DIMTOH
 70
     0
  9
$DIMSE1
 70
     0
  9
$DIMSE2
 70
     0
  9
$DIMTAD
 70
     3
  9
$DIMZIN
 70
     8
  9
$DIMBLK
  1
Open30
  9
$DIMASO
 70
     1
  9
$DIMSHO
 70
     1
  9
$DIMPOST
  1

  9
$DIMAPOST
  1

  9
$DIMALT
 70
     0
  9
$DIMALTD
 70
     3
  9
$DIMALTF
 40
0.03937007874016
  9
$DIMLFAC
 40
1.0
  9
$DIMTOFL
 70
     1
  9
$DIMTVP
 40
0.0
  9
$DIMTIX
 70
     0
  9
$DIMSOXD
 70
     0
  9
$DIMSAH
 70
     0
  9
$DIMBLK1
  1

  9
$DIMBLK2
  1

  9
$DIMSTYLE
  2
1：1
  9
$DIMCLRD
 70
     0
  9
$DIMCLRE
 70
     0
  9
$DIMCLRT
 70
     4
  9
$DIMTFAC
 40
1.0
  9
$DIMGAP
 40
0.625
  9
$DIMJUST
 70
     0
  9
$DIMSD1
 70
     0
  9
$DIMSD2
 70
     0
  9
$DIMTOLJ
 70
     0
  9
$DIMTZIN
 70
     8
  9
$DIMALTZ
 70
     0
  9
$DIMALTTZ
 70
     0
  9
$DIMUPT
 70
     1
  9
$DIMDEC
 70
     2
  9
$DIMTDEC
 70
     2
  9
$DIMALTU
 70
     2
  9
$DIMALTTD
 70
     3
  9
$DIMTXSTY
  7
STANDARD
  9
$DIMAUNIT
 70
     0
  9
$DIMADEC
 70
     1
  9
$DIMALTRND
 40
0.0
  9
$DIMAZIN
 70
     2
  9
$DIMDSEP
 70
    46
  9
$DIMATFIT
 70
     0
  9
$DIMFRAC
 70
     0
  9
$DIMLDRBLK
  1
Open30
  9
$DIMLUNIT
 70
     2
  9
$DIMLWD
 70
    -2
  9
$DIMLWE
 70
    -2
  9
$DIMTMOVE
 70
     0
  9
$LUNITS
 70
     2
  9
$LUPREC
 70
     4
  9
$SKETCHINC
 40
0.1
  9
$FILLETRAD
 40
0.0
  9
$AUNITS
 70
     0
  9
$AUPREC
 70
     0
  9
$MENU
  1
.
  9
$ELEVATION
 40
0.0
  9
$PELEVATION
 40
0.0
  9
$THICKNESS
 40
0.0
  9
$LIMCHECK
 70
     0
  9
$CHAMFERA
 40
0.9
  9
$CHAMFERB
 40
0.9
  9
$CHAMFERC
 40
0.0
  9
$CHAMFERD
 40
0.0
  9
$SKPOLY
 70
     0
  9
$TDCREATE
 40
2456321.623975301
  9
$TDUCREATE
 40
2456321.248975301
  9
$TDUPDATE
 40
2456589.579869502
  9
$TDUUPDATE
 40
2456589.204869502
  9
$TDINDWG
 40
0.1734212963
  9
$TDUSRTIMER
 40
0.1734212963
  9
$USRTIMER
 70
     1
  9
$ANGBASE
 50
0.0
  9
$ANGDIR
 70
     0
  9
$PDMODE
 70
     0
  9
$PDSIZE
 40
0.0
  9
$PLINEWID
 40
0.0
  9
$SPLFRAME
 70
     0
  9
$SPLINETYPE
 70
     6
  9
$SPLINESEGS
 70
     8
  9
$HANDSEED
  5
E6E
  9
$SURFTAB1
 70
     6
  9
$SURFTAB2
 70
     6
  9
$SURFTYPE
 70
     6
  9
$SURFU
 70
     6
  9
$SURFV
 70
     6
  9
$UCSBASE
  2

  9
$UCSNAME
  2

  9
$UCSORG
 10
0.0
 20
0.0
 30
0.0
  9
$UCSXDIR
 10
1.0
 20
0.0
 30
0.0
  9
$UCSYDIR
 10
0.0
 20
1.0
 30
0.0
  9
$UCSORTHOREF
  2

  9
$UCSORTHOVIEW
 70
     0
  9
$UCSORGTOP
 10
0.0
 20
0.0
 30
0.0
  9
$UCSORGBOTTOM
 10
0.0
 20
0.0
 30
0.0
  9
$UCSORGLEFT
 10
0.0
 20
0.0
 30
0.0
  9
$UCSORGRIGHT
 10
0.0
 20
0.0
 30
0.0
  9
$UCSORGFRONT
 10
0.0
 20
0.0
 30
0.0
  9
$UCSORGBACK
 10
0.0
 20
0.0
 30
0.0
  9
$PUCSBASE
  2

  9
$PUCSNAME
  2

  9
$PUCSORG
 10
0.0
 20
0.0
 30
0.0
  9
$PUCSXDIR
 10
1.0
 20
0.0
 30
0.0
  9
$PUCSYDIR
 10
0.0
 20
1.0
 30
0.0
  9
$PUCSORTHOREF
  2

  9
$PUCSORTHOVIEW
 70
     0
  9
$PUCSORGTOP
 10
0.0
 20
0.0
 30
0.0
  9
$PUCSORGBOTTOM
 10
0.0
 20
0.0
 30
0.0
  9
$PUCSORGLEFT
 10
0.0
 20
0.0
 30
0.0
  9
$PUCSORGRIGHT
 10
0.0
 20
0.0
 30
0.0
  9
$PUCSORGFRONT
 10
0.0
 20
0.0
 30
0.0
  9
$PUCSORGBACK
 10
0.0
 20
0.0
 30
0.0
  9
$USERI1
 70
     0
  9
$USERI2
 70
     0
  9
$USERI3
 70
     0
  9
$USERI4
 70
     0
  9
$USERI5
 70
     0
  9
$USERR1
 40
0.0
  9
$USERR2
 40
0.0
  9
$USERR3
 40
0.0
  9
$USERR4
 40
0.0
  9
$USERR5
 40
0.0
  9
$WORLDVIEW
 70
     1
  9
$SHADEDGE
 70
     3
  9
$SHADEDIF
 70
    70
  9
$TILEMODE
 70
     1
  9
$MAXACTVP
 70
    64
  9
$PINSBASE
 10
0.0
 20
0.0
 30
0.0
  9
$PLIMCHECK
 70
     0
  9
$PEXTMIN
 10
1.000000000000000E+20
 20
1.000000000000000E+20
 30
1.000000000000000E+20
  9
$PEXTMAX
 10
-1.000000000000000E+20
 20
-1.000000000000000E+20
 30
-1.000000000000000E+20
  9
$PLIMMIN
 10
0.0
 20
0.0
  9
$PLIMMAX
 10
12.0
 20
9.0
  9
$UNITMODE
 70
     0
  9
$VISRETAIN
 70
     1
  9
$PLINEGEN
 70
     0
  9
$PSLTSCALE
 70
     1
  9
$TREEDEPTH
 70
  3020
  9
$CMLSTYLE
  2
Standard
  9
$CMLJUST
 70
     0
  9
$CMLSCALE
 40
1.0
  9
$PROXYGRAPHICS
 70
     1
  9
$MEASUREMENT
 70
     0
  9
$CELWEIGHT
370
    -1
  9
$ENDCAPS
280
     0
  9
$JOINSTYLE
280
     0
  9
$LWDISPLAY
290
     0
  9
$INSUNITS
 70
     0
  9
$HYPERLINKBASE
  1

  9
$STYLESHEET
  1
n-plot.ctb
  9
$XEDIT
290
     1
  9
$CEPSNTYPE
380
     0
  9
$PSTYLEMODE
290
     1
  9
$FINGERPRINTGUID
  2
{ADC590FC-FD50-4146-98A6-3F8B40BF8B3C}
  9
$VERSIONGUID
  2
{C33CBB75-533A-4F38-AD98-ABE6A44125E5}
  9
$EXTNAMES
290
     1
  9
$PSVPSCALE
 40
0.0
  9
$OLESTARTUP
290
     0
  0
ENDSEC
  0
SECTION
  2
CLASSES
  0
CLASS
  1
ACDBDICTIONARYWDFLT
  2
AcDbDictionaryWithDefault
  3
ObjectDBX Classes
 90
        0
280
     0
281
     0
  0
CLASS
  1
MATERIAL
  2
AcDbMaterial
  3
ObjectDBX Classes
 90
     1153
280
     0
281
     0
  0
CLASS
  1
VISUALSTYLE
  2
AcDbVisualStyle
  3
ObjectDBX Classes
 90
     4095
280
     0
281
     0
  0
CLASS
  1
SCALE
  2
AcDbScale
  3
ObjectDBX Classes
 90
     1153
280
     0
281
     0
  0
CLASS
  1
TABLESTYLE
  2
AcDbTableStyle
  3
ObjectDBX Classes
 90
     4095
280
     0
281
     0
  0
CLASS
  1
MLEADERSTYLE
  2
AcDbMLeaderStyle
  3
ACDB_MLEADERSTYLE_CLASS
 90
     4095
280
     0
281
     0
  0
CLASS
  1
SORTENTSTABLE
  2
AcDbSortentsTable
  3
ObjectDBX Classes
 90
        0
280
     0
281
     0
  0
CLASS
  1
DICTIONARYVAR
  2
AcDbDictionaryVar
  3
ObjectDBX Classes
 90
        0
280
     0
281
     0
  0
CLASS
  1
CELLSTYLEMAP
  2
AcDbCellStyleMap
  3
ObjectDBX Classes
 90
     1152
280
     0
281
     0
  0
CLASS
  1
ACDBPLACEHOLDER
  2
AcDbPlaceHolder
  3
ObjectDBX Classes
 90
        0
280
     0
281
     0
  0
CLASS
  1
LAYOUT
  2
AcDbLayout
  3
ObjectDBX Classes
 90
        0
280
     0
281
     0
  0
ENDSEC
  0
SECTION
  2
TABLES
  0
TABLE
  2
VPORT
  5
8
330
0
100
AcDbSymbolTable
 70
     1
  0
VPORT
  5
8B
330
8
100
AcDbSymbolTableRecord
100
AcDbViewportTableRecord
  2
*Active
 70
     0
 10
0.0
 20
0.0
 11
1.0
 21
1.0
 12
-129.9207858455529
 22
5.731881043789258
 13
0.0
 23
0.0
 14
1.0
 24
1.0
 15
0.0
 25
0.0
 16
0.0
 26
0.0
 36
1.0
 17
0.0
 27
0.0
 37
0.0
 40
411.2442957220983
 41
2.038258575197889
 42
50.0
 43
0.0
 44
0.0
 50
0.0
 51
0.0
 71
     0
 72
   100
 73
     1
 74
     1
 75
     0
 76
     0
 77
     0
 78
     0
281
     0
 65
     1
110
0.0
120
0.0
130
0.0
111
1.0
121
0.0
131
0.0
112
0.0
122
1.0
132
0.0
 79
     0
146
0.0
  0
ENDTAB
  0
TABLE
  2
LTYPE
  5
5
330
0
100
AcDbSymbolTable
 70
     7
  0
LTYPE
  5
5A
330
5
100
AcDbSymbolTableRecord
100
AcDbLinetypeTableRecord
  2
ByBlock
 70
     0
  3

 72
    65
 73
     0
 40
0.0
  0
LTYPE
  5
5B
330
5
100
AcDbSymbolTableRecord
100
AcDbLinetypeTableRecord
  2
ByLayer
 70
     0
  3

 72
    65
 73
     0
 40
0.0
  0
LTYPE
  5
5C
330
5
100
AcDbSymbolTableRecord
100
AcDbLinetypeTableRecord
  2
CONTINUOUS
 70
     0
  3
Solid-line
 72
    65
 73
     0
 40
0.0
  0
LTYPE
  5
72
330
5
100
AcDbSymbolTableRecord
100
AcDbLinetypeTableRecord
  2
CENTER
 70
     0
  3
CENTER
 72
    65
 73
     4
 40
2.0
 49
1.25
 74
     0
 49
-0.25
 74
     0
 49
0.25
 74
     0
 49
-0.25
 74
     0
  0
LTYPE
  5
78
330
5
100
AcDbSymbolTableRecord
100
AcDbLinetypeTableRecord
  2
DASHED
 70
     0
  3
DASHED
 72
    65
 73
     2
 40
0.75
 49
0.5
 74
     0
 49
-0.25
 74
     0
  0
LTYPE
  5
84
330
5
100
AcDbSymbolTableRecord
100
AcDbLinetypeTableRecord
  2
PHANTOM
 70
     0
  3
PHANTOM
 72
    65
 73
     6
 40
2.5
 49
1.25
 74
     0
 49
-0.25
 74
     0
 49
0.25
 74
     0
 49
-0.25
 74
     0
 49
0.25
 74
     0
 49
-0.25
 74
     0
  0
LTYPE
  5
A36
330
5
100
AcDbSymbolTableRecord
100
AcDbLinetypeTableRecord
  2
HIDDEN
 70
     0
  3
Hidden __ __ __ __ __ __ __ __ __ __ __ __ __ _
 72
    65
 73
     2
 40
0.375
 49
0.25
 74
     0
 49
-0.125
 74
     0
  0
ENDTAB
  0
TABLE
  2
LAYER
  5
2
102
{ACAD_XDICTIONARY
360
31B
102
}
330
0
100
AcDbSymbolTable
 70
     2
  0
LAYER
  5
54
102
{ACAD_XDICTIONARY
360
63E
102
}
330
2
100
AcDbSymbolTableRecord
100
AcDbLayerTableRecord
  2
0
 70
     0
 62
     7
  6
CONTINUOUS
370
    -3
390
F
  0
LAYER
  5
403
330
2
100
AcDbSymbolTableRecord
100
AcDbLayerTableRecord
  2
Defpoints
 70
     0
 62
     7
  6
CONTINUOUS
290
     0
370
    -3
390
F
  0
ENDTAB
  0
TABLE
  2
STYLE
  5
3
330
0
100
AcDbSymbolTable
 70
     8
  0
STYLE
  5
55
330
3
100
AcDbSymbolTableRecord
100
AcDbTextStyleTableRecord
  2
STANDARD
 70
     0
 40
0.0
 41
1.0
 50
0.0
 71
     0
 42
0.2
  3
TXT
  4
BIGFONT
  0
STYLE
  5
310
330
3
100
AcDbSymbolTableRecord
100
AcDbTextStyleTableRecord
  2
高3.2
 70
     0
 40
3.2
 41
1.0
 50
0.0
 71
     0
 42
3.2
  3
txt.shx
  4
bigfont.shx
  0
STYLE
  5
311
330
3
100
AcDbSymbolTableRecord
100
AcDbTextStyleTableRecord
  2
高6.3
 70
     0
 40
6.299999999999998
 41
1.0
 50
0.0
 71
     0
 42
6.299999999999998
  3
txt.shx
  4
bigfont.shx
  0
STYLE
  5
312
330
3
100
AcDbSymbolTableRecord
100
AcDbTextStyleTableRecord
  2
高2.5
 70
     0
 40
2.5
 41
1.0
 50
0.0
 71
     0
 42
0.2
  3
txt.shx
  4
bigfont.shx
  0
STYLE
  5
313
330
3
100
AcDbSymbolTableRecord
100
AcDbTextStyleTableRecord
  2
高4.5
 70
     0
 40
4.5
 41
1.0
 50
0.0
 71
     0
 42
6.299999999999998
  3
txt.shx
  4
bigfont.shx
  0
STYLE
  5
314
330
3
100
AcDbSymbolTableRecord
100
AcDbTextStyleTableRecord
  2
高2
 70
     0
 40
2.0
 41
1.0
 50
0.0
 71
     0
 42
6.299999999999998
  3
txt.shx
  4
bigfont.shx
  0
STYLE
  5
A35
330
3
100
AcDbSymbolTableRecord
100
AcDbTextStyleTableRecord
  2

 70
     1
 40
0.0
 41
1.0
 50
0.0
 71
     0
 42
3.2
  3
ltypeshp.shx
  4

  0
ENDTAB
  0
TABLE
  2
VIEW
  5
6
330
0
100
AcDbSymbolTable
 70
     0
  0
ENDTAB
  0
TABLE
  2
UCS
  5
7
330
0
100
AcDbSymbolTable
 70
     0
  0
ENDTAB
  0
TABLE
  2
APPID
  5
9
330
0
100
AcDbSymbolTable
 70
    11
  0
APPID
  5
56
330
9
100
AcDbSymbolTableRecord
100
AcDbRegAppTableRecord
  2
ACAD
 70
     0
  0
APPID
  5
5D
330
9
100
AcDbSymbolTableRecord
100
AcDbRegAppTableRecord
  2
AcadAnnotative
 70
     0
  0
APPID
  5
31A
330
9
100
AcDbSymbolTableRecord
100
AcDbRegAppTableRecord
  2
ACAD_DSTYLE_DIMJOGGED_JOGANGLE_SYMBOL
 70
     0
  0
APPID
  5
4F4
330
9
100
AcDbSymbolTableRecord
100
AcDbRegAppTableRecord
  2
ACAD_EXEMPT_FROM_CAD_STANDARDS
 70
     0
  0
APPID
  5
70C
330
9
100
AcDbSymbolTableRecord
100
AcDbRegAppTableRecord
  2
ACAD_PSEXT
 70
     0
  0
APPID
  5
843
330
9
100
AcDbSymbolTableRecord
100
AcDbRegAppTableRecord
  2
ACAD_MLEADERVER
 70
     0
  0
APPID
  5
848
330
9
100
AcDbSymbolTableRecord
100
AcDbRegAppTableRecord
  2
ACAD_DSTYLE_DIMARC_LENGTH_SYMBOL
 70
     0
  0
APPID
  5
849
330
9
100
AcDbSymbolTableRecord
100
AcDbRegAppTableRecord
  2
ACAD_DSTYLE_DIMEXT_LENGTH
 70
     0
  0
APPID
  5
924
330
9
100
AcDbSymbolTableRecord
100
AcDbRegAppTableRecord
  2
ACAD_DSTYLE_DIMJAG
 70
     0
  0
APPID
  5
925
330
9
100
AcDbSymbolTableRecord
100
AcDbRegAppTableRecord
  2
ACAD_DSTYLE_DIMBREAK
 70
     0
  0
APPID
  5
926
330
9
100
AcDbSymbolTableRecord
100
AcDbRegAppTableRecord
  2
ACAD_DSTYLE_DIMTALN
 70
     0
  0
ENDTAB
  0
TABLE
  2
DIMSTYLE
  5
A
330
0
100
AcDbSymbolTable
 70
     6
100
AcDbDimStyleTable
 71
     3
340
8CD
340
316
340
57
  0
DIMSTYLE
105
57
330
A
100
AcDbSymbolTableRecord
100
AcDbDimStyleTableRecord
  2
Standard
 70
     0
340
55
  0
DIMSTYLE
105
316
330
A
100
AcDbSymbolTableRecord
100
AcDbDimStyleTableRecord
  2
2：1
 70
     0
 41
2.5
 42
0.25
 43
0.2
 44
1.25
 73
     0
 74
     0
 77
     3
 78
     8
 79
     2
140
3.0
141
0.0
143
0.03937007874016
144
0.5
147
0.625
171
     3
172
     1
178
     4
179
     1
271
     2
272
     2
274
     3
283
     0
284
     8
288
     1
289
     0
340
55
341
238
342
238
1001
ACAD_DSTYLE_DIMARC_LENGTH_SYMBOL
1070
   379
1070
     2
1001
ACAD_DSTYLE_DIMEXT_LENGTH
1070
   378
1040
1.25
1001
ACAD_DSTYLE_DIMJOGGED_JOGANGLE_SYMBOL
1070
   384
1040
1.570796326794896
  0
DIMSTYLE
105
8CD
330
A
100
AcDbSymbolTableRecord
100
AcDbDimStyleTableRecord
  2
1：1
 70
     0
 41
2.5
 42
0.25
 43
0.2
 44
1.25
 73
     0
 74
     0
 77
     3
 78
     8
 79
     2
140
3.0
141
0.0
143
0.03937007874016
147
0.625
171
     3
172
     1
178
     4
179
     1
271
     2
272
     2
274
     3
283
     0
284
     8
288
     1
289
     0
340
55
341
238
342
238
1001
ACAD_DSTYLE_DIMARC_LENGTH_SYMBOL
1070
   379
1070
     2
1001
ACAD_DSTYLE_DIMEXT_LENGTH
1070
   378
1040
1.25
1001
ACAD_DSTYLE_DIMJOGGED_JOGANGLE_SYMBOL
1070
   384
1040
1.570796326794896
  0
DIMSTYLE
105
923
330
A
100
AcDbSymbolTableRecord
100
AcDbDimStyleTableRecord
  2
FREE
 70
     0
 41
2.5
 42
0.25
 43
0.2
 44
1.25
 73
     0
 74
     0
 77
     3
 78
     8
 79
     2
140
3.0
141
0.0
143
0.03937007874016
147
0.625
171
     3
172
     1
178
     4
179
     1
271
     2
272
     2
274
     3
283
     0
284
     8
288
     1
289
     0
340
55
341
238
342
238
1001
ACAD_DSTYLE_DIMBREAK
1070
   391
1040
3.75
1001
ACAD_DSTYLE_DIMJAG
1070
   388
1040
1.5
1001
ACAD_DSTYLE_DIMTALN
1070
   392
1070
     0
1001
ACAD_DSTYLE_DIMARC_LENGTH_SYMBOL
1070
   379
1070
     2
1001
ACAD_DSTYLE_DIMEXT_LENGTH
1070
   378
1040
1.25
1001
ACAD_DSTYLE_DIMJOGGED_JOGANGLE_SYMBOL
1070
   384
1040
1.570796326794896
  0
ENDTAB
  0
TABLE
  2
BLOCK_RECORD
  5
1
330
0
100
AcDbSymbolTable
 70
    17
  0
BLOCK_RECORD
  5
6B
102
{ACAD_XDICTIONARY
360
4E7
102
}
330
1
100
AcDbSymbolTableRecord
100
AcDbBlockTableRecord
  2
*Model_Space
340
6E
  0
BLOCK_RECORD
  5
67
330
1
100
AcDbSymbolTableRecord
100
AcDbBlockTableRecord
  2
*Paper_Space
340
6A
  0
BLOCK_RECORD
  5
238
330
1
100
AcDbSymbolTableRecord
100
AcDbBlockTableRecord
  2
_Open30
340
0
102
{BLKREFS
331
C0B
331
C0C
331
C14
331
C15
331
C1D
331
C1E
331
C28
331
C29
331
C31
331
C32
331
C3A
331
C3B
331
C43
331
C44
331
C50
331
C51
331
C5D
331
C5E
331
C74
331
C75
331
C81
331
C82
102
}
  0
BLOCK_RECORD
  5
404
330
1
100
AcDbSymbolTableRecord
100
AcDbBlockTableRecord
  2
*D1
340
0
  0
BLOCK_RECORD
  5
411
330
1
100
AcDbSymbolTableRecord
100
AcDbBlockTableRecord
  2
*D2
340
0
  0
BLOCK_RECORD
  5
41E
330
1
100
AcDbSymbolTableRecord
100
AcDbBlockTableRecord
  2
*D3
340
0
  0
BLOCK_RECORD
  5
42B
330
1
100
AcDbSymbolTableRecord
100
AcDbBlockTableRecord
  2
*D4
340
0
  0
BLOCK_RECORD
  5
438
330
1
100
AcDbSymbolTableRecord
100
AcDbBlockTableRecord
  2
*D5
340
0
  0
BLOCK_RECORD
  5
445
330
1
100
AcDbSymbolTableRecord
100
AcDbBlockTableRecord
  2
*D6
340
0
  0
BLOCK_RECORD
  5
452
330
1
100
AcDbSymbolTableRecord
100
AcDbBlockTableRecord
  2
*D7
340
0
  0
BLOCK_RECORD
  5
9CD
102
{ACAD_XDICTIONARY
360
A0E
102
}
330
1
100
AcDbSymbolTableRecord
100
AcDbBlockTableRecord
  2
A$C384E7484
340
0
  0
BLOCK_RECORD
  5
C4A
330
1
100
AcDbSymbolTableRecord
100
AcDbBlockTableRecord
  2
*D12
340
0
  0
BLOCK_RECORD
  5
C57
330
1
100
AcDbSymbolTableRecord
100
AcDbBlockTableRecord
  2
*D13
340
0
  0
BLOCK_RECORD
  5
C6E
330
1
100
AcDbSymbolTableRecord
100
AcDbBlockTableRecord
  2
*D14
340
0
  0
BLOCK_RECORD
  5
C7B
330
1
100
AcDbSymbolTableRecord
100
AcDbBlockTableRecord
  2
*D15
340
0
  0
ENDTAB
  0
ENDSEC
  0
SECTION
  2
BLOCKS
  0
BLOCK
  5
6C
330
6B
100
AcDbEntity
  8
0
100
AcDbBlockBegin
  2
*Model_Space
 70
     0
 10
0.0
 20
0.0
 30
0.0
  3
*Model_Space
  1

  0
ENDBLK
  5
6D
330
6B
100
AcDbEntity
  8
0
100
AcDbBlockEnd
  0
BLOCK
  5
68
330
67
100
AcDbEntity
 67
     1
  8
0
100
AcDbBlockBegin
  2
*Paper_Space
 70
     0
 10
0.0
 20
0.0
 30
0.0
  3
*Paper_Space
  1

  0
ENDBLK
  5
69
330
67
100
AcDbEntity
 67
     1
  8
0
100
AcDbBlockEnd
  0
BLOCK
  5
239
330
238
100
AcDbEntity
  8
0
100
AcDbBlockBegin
  2
_Open30
 70
     0
 10
0.0
 20
0.0
 30
0.0
  3
_Open30
  1

  0
LINE
  5
23A
330
238
100
AcDbEntity
  8
0
  6
ByBlock
 62
     0
370
    -2
100
AcDbLine
 10
-1.0
 20
0.267949
 30
0.0
 11
0.0
 21
0.0
 31
0.0
  0
LINE
  5
23B
330
238
100
AcDbEntity
  8
0
  6
ByBlock
 62
     0
370
    -2
100
AcDbLine
 10
0.0
 20
0.0
 30
0.0
 11
-1.0
 21
-0.267949
 31
0.0
  0
LINE
  5
23C
330
238
100
AcDbEntity
  8
0
  6
ByBlock
 62
     0
370
    -2
100
AcDbLine
 10
0.0
 20
0.0
 30
0.0
 11
-1.0
 21
0.0
 31
0.0
  0
ENDBLK
  5
23D
330
238
100
AcDbEntity
  8
0
100
AcDbBlockEnd
  0
BLOCK
  5
405
330
404
100
AcDbEntity
  8
0
100
AcDbBlockBegin
  2
*D1
 70
     1
 10
0.0
 20
0.0
 30
0.0
  3
*D1
  1

  0
LINE
  5
C08
330
404
100
AcDbEntity
  8
0
 62
     0
370
    -2
100
AcDbLine
 10
-245.8722110929507
 20
-57.7390571779232
 30
0.0
 11
-230.7783965929507
 21
-57.7390571779232
 31
0.0
  0
LINE
  5
C09
330
404
100
AcDbEntity
  8
0
 62
     0
370
    -2
100
AcDbLine
 10
-248.622211085382
 20
-32.7390571779232
 30
0.0
 11
-230.7783965929507
 21
-32.73905717792321
 31
0.0
  0
LINE
  5
C0A
330
404
100
AcDbEntity
  8
0
 62
     0
370
    -2
100
AcDbLine
 10
-232.0283965929507
 20
-55.2390571779232
 30
0.0
 11
-232.0283965929507
 21
-35.23905717792321
 31
0.0
  0
INSERT
  5
C0B
330
404
100
AcDbEntity
  8
0
 62
     0
370
    -2
100
AcDbBlockReference
  2
_Open30
 10
-232.0283965929507
 20
-57.7390571779232
 30
0.0
 41
2.5
 42
2.5
 43
2.5
 50
270.0
  0
INSERT
  5
C0C
330
404
100
AcDbEntity
  8
0
 62
     0
370
    -2
100
AcDbBlockReference
  2
_Open30
 10
-232.0283965929507
 20
-32.73905717792321
 30
0.0
 41
2.5
 42
2.5
 43
2.5
 50
90.0
  0
MTEXT
  5
C0D
330
404
100
AcDbEntity
  8
0
 62
     4
100
AcDbMText
 10
-234.1533965929507
 20
-45.23905717792324
 30
0.0
 40
3.0
 41
0.0
 71
     5
 72
     1
  1
25
 11
0.0000000000000001
 21
1.0
 31
0.0
 73
     1
 44
1.0
1001
ACAD
1000
MTEXTBEGIN
1070
    73
1070
     1
1070
    44
1040
1.0
1070
    74
1070
     0
1000
MTEXTEND
  0
POINT
  5
C0E
330
404
100
AcDbEntity
  8
Defpoints
 62
     0
100
AcDbPoint
 10
-246.1222110929507
 20
-57.7390571779232
 30
0.0
  0
POINT
  5
C0F
330
404
100
AcDbEntity
  8
Defpoints
 62
     0
100
AcDbPoint
 10
-248.872211085382
 20
-32.7390571779232
 30
0.0
  0
POINT
  5
C10
330
404
100
AcDbEntity
  8
Defpoints
 62
     0
100
AcDbPoint
 10
-232.0283965929507
 20
-32.73905717792321
 30
0.0
  0
ENDBLK
  5
406
330
404
100
AcDbEntity
  8
0
100
AcDbBlockEnd
  0
BLOCK
  5
412
330
411
100
AcDbEntity
  8
0
100
AcDbBlockBegin
  2
*D2
 70
     1
 10
0.0
 20
0.0
 30
0.0
  3
*D2
  1

  0
LINE
  5
C11
330
411
100
AcDbEntity
  8
0
 62
     0
370
    -2
100
AcDbLine
 10
-245.8722110929507
 20
-57.7390571779232
 30
0.0
 11
-234.4372145929507
 21
-57.7390571779232
 31
0.0
  0
LINE
  5
C12
330
411
100
AcDbEntity
  8
0
 62
     0
370
    -2
100
AcDbLine
 10
-240.2231335929506
 20
-49.7390571779232
 30
0.0
 11
-234.4372145929507
 21
-49.7390571779232
 31
0.0
  0
LINE
  5
C13
330
411
100
AcDbEntity
  8
0
 62
     0
370
    -2
100
AcDbLine
 10
-235.6872145929507
 20
-55.2390571779232
 30
0.0
 11
-235.6872145929507
 21
-52.2390571779232
 31
0.0
  0
INSERT
  5
C14
330
411
100
AcDbEntity
  8
0
 62
     0
370
    -2
100
AcDbBlockReference
  2
_Open30
 10
-235.6872145929507
 20
-57.7390571779232
 30
0.0
 41
2.5
 42
2.5
 43
2.5
 50
270.0
  0
INSERT
  5
C15
330
411
100
AcDbEntity
  8
0
 62
     0
370
    -2
100
AcDbBlockReference
  2
_Open30
 10
-235.6872145929507
 20
-49.7390571779232
 30
0.0
 41
2.5
 42
2.5
 43
2.5
 50
90.0
  0
MTEXT
  5
C16
330
411
100
AcDbEntity
  8
0
 62
     4
100
AcDbMText
 10
-237.8122145929507
 20
-53.73905717792324
 30
0.0
 40
3.0
 41
0.0
 71
     5
 72
     1
  1
8
 11
0.0000000000000001
 21
1.0
 31
0.0
 73
     1
 44
1.0
1001
ACAD
1000
MTEXTBEGIN
1070
    73
1070
     1
1070
    44
1040
1.0
1070
    74
1070
     0
1000
MTEXTEND
  0
POINT
  5
C17
330
411
100
AcDbEntity
  8
Defpoints
 62
     0
100
AcDbPoint
 10
-246.1222110929507
 20
-57.7390571779232
 30
0.0
  0
POINT
  5
C18
330
411
100
AcDbEntity
  8
Defpoints
 62
     0
100
AcDbPoint
 10
-240.4731335929507
 20
-49.7390571779232
 30
0.0
  0
POINT
  5
C19
330
411
100
AcDbEntity
  8
Defpoints
 62
     0
100
AcDbPoint
 10
-235.6872145929507
 20
-49.7390571779232
 30
0.0
  0
ENDBLK
  5
413
330
411
100
AcDbEntity
  8
0
100
AcDbBlockEnd
  0
BLOCK
  5
41F
330
41E
100
AcDbEntity
  8
0
100
AcDbBlockBegin
  2
*D3
 70
     1
 10
0.0
 20
0.0
 30
0.0
  3
*D3
  1

  0
LINE
  5
C1A
330
41E
100
AcDbEntity
  8
0
 62
     0
370
    -2
100
AcDbLine
 10
-273.8722110929507
 20
-57.7390571779232
 30
0.0
 11
-281.1894325929507
 21
-57.7390571779232
 31
0.0
  0
LINE
  5
C1B
330
41E
100
AcDbEntity
  8
0
 62
     0
370
    -2
100
AcDbLine
 10
-275.1222110929507
 20
-14.7390571779232
 30
0.0
 11
-281.1894325929507
 21
-14.7390571779232
 31
0.0
  0
LINE
  5
C1C
330
41E
100
AcDbEntity
  8
0
 62
     0
370
    -2
100
AcDbLine
 10
-279.9394325929506
 20
-55.2390571779232
 30
0.0
 11
-279.9394325929506
 21
-17.2390571779232
 31
0.0
  0
INSERT
  5
C1D
330
41E
100
AcDbEntity
  8
0
 62
     0
370
    -2
100
AcDbBlockReference
  2
_Open30
 10
-279.9394325929506
 20
-57.7390571779232
 30
0.0
 41
2.5
 42
2.5
 43
2.5
 50
270.0
  0
INSERT
  5
C1E
330
41E
100
AcDbEntity
  8
0
 62
     0
370
    -2
100
AcDbBlockReference
  2
_Open30
 10
-279.9394325929506
 20
-14.7390571779232
 30
0.0
 41
2.5
 42
2.5
 43
2.5
 50
90.0
  0
MTEXT
  5
C1F
330
41E
100
AcDbEntity
  8
0
 62
     4
100
AcDbMText
 10
-282.0644325929507
 20
-36.23905717792325
 30
0.0
 40
3.0
 41
0.0
 71
     5
 72
     1
  1
43
 11
0.0000000000000001
 21
1.0
 31
0.0
 73
     1
 44
1.0
1001
ACAD
1000
MTEXTBEGIN
1070
    73
1070
     1
1070
    44
1040
1.0
1070
    74
1070
     0
1000
MTEXTEND
  0
POINT
  5
C20
330
41E
100
AcDbEntity
  8
Defpoints
 62
     0
100
AcDbPoint
 10
-273.6222110929507
 20
-57.7390571779232
 30
0.0
  0
POINT
  5
C21
330
41E
100
AcDbEntity
  8
Defpoints
 62
     0
100
AcDbPoint
 10
-274.8722110929507
 20
-14.7390571779232
 30
0.0
  0
POINT
  5
C22
330
41E
100
AcDbEntity
  8
Defpoints
 62
     0
100
AcDbPoint
 10
-279.9394325929506
 20
-14.7390571779232
 30
0.0
  0
ENDBLK
  5
420
330
41E
100
AcDbEntity
  8
0
100
AcDbBlockEnd
  0
BLOCK
  5
42C
330
42B
100
AcDbEntity
  8
0
100
AcDbBlockBegin
  2
*D4
 70
     1
 10
0.0
 20
0.0
 30
0.0
  3
*D4
  1

  0
LINE
  5
C23
330
42B
100
AcDbEntity
  8
0
 62
     0
370
    -2
100
AcDbLine
 10
-264.8722110929507
 20
-15.1680556779232
 30
0.0
 11
-264.8722110929507
 21
-5.335225691713958
 31
0.0
  0
LINE
  5
C24
330
42B
100
AcDbEntity
  8
0
 62
     0
370
    -2
100
AcDbLine
 10
-254.8722110929507
 20
-15.1680556779232
 30
0.0
 11
-254.8722110929507
 21
-5.335225691713958
 31
0.0
  0
LINE
  5
C25
330
42B
100
AcDbEntity
  8
0
 62
     0
370
    -2
100
AcDbLine
 10
-267.3722110929507
 20
-6.585225691713958
 30
0.0
 11
-269.8722110929507
 21
-6.585225691713958
 31
0.0
  0
LINE
  5
C26
330
42B
100
AcDbEntity
  8
0
 62
     0
370
    -2
100
AcDbLine
 10
-252.3722110929507
 20
-6.585225691713958
 30
0.0
 11
-219.4949985039146
 21
-6.585225691713958
 31
0.0
  0
LINE
  5
C27
330
42B
100
AcDbEntity
  8
0
 62
     0
370
    -2
100
AcDbLine
 10
-264.8722110929507
 20
-6.585225691713958
 30
0.0
 11
-254.8722110929507
 21
-6.585225691713958
 31
0.0
  0
INSERT
  5
C28
330
42B
100
AcDbEntity
  8
0
 62
     0
370
    -2
100
AcDbBlockReference
  2
_Open30
 10
-264.8722110929507
 20
-6.585225691713958
 30
0.0
 41
2.5
 42
2.5
 43
2.5
  0
INSERT
  5
C29
330
42B
100
AcDbEntity
  8
0
 62
     0
370
    -2
100
AcDbBlockReference
  2
_Open30
 10
-254.8722110929507
 20
-6.585225691713958
 30
0.0
 41
2.5
 42
2.5
 43
2.5
 50
180.0
  0
MTEXT
  5
C2A
330
42B
100
AcDbEntity
  8
0
 62
     4
100
AcDbMText
 10
-230.2699985039146
 20
-4.460225691713958
 30
0.0
 40
3.0
 41
0.0
 71
     5
 72
     1
  1
M10 P=1.5
 73
     1
 44
1.0
1001
ACAD
1000
MTEXTBEGIN
1070
    73
1070
     1
1070
    44
1040
1.0
1070
    74
1070
     0
1000
MTEXTEND
  0
POINT
  5
C2B
330
42B
100
AcDbEntity
  8
Defpoints
 62
     0
100
AcDbPoint
 10
-264.8722110929507
 20
-15.4180556779232
 30
0.0
  0
POINT
  5
C2C
330
42B
100
AcDbEntity
  8
Defpoints
 62
     0
100
AcDbPoint
 10
-254.8722110929507
 20
-15.4180556779232
 30
0.0
  0
POINT
  5
C2D
330
42B
100
AcDbEntity
  8
Defpoints
 62
     0
100
AcDbPoint
 10
-254.8722110929507
 20
-6.585225691713958
 30
0.0
  0
ENDBLK
  5
42D
330
42B
100
AcDbEntity
  8
0
100
AcDbBlockEnd
  0
BLOCK
  5
439
330
438
100
AcDbEntity
  8
0
100
AcDbBlockBegin
  2
*D5
 70
     1
 10
0.0
 20
0.0
 30
0.0
  3
*D5
  1

  0
LINE
  5
C2E
330
438
100
AcDbEntity
  8
0
 62
     0
370
    -2
100
AcDbLine
 10
-274.8722110929507
 20
-14.4890571779232
 30
0.0
 11
-274.8722110929507
 21
0.1335496247397714
 31
0.0
  0
LINE
  5
C2F
330
438
100
AcDbEntity
  8
0
 62
     0
370
    -2
100
AcDbLine
 10
-244.8722110929507
 20
-14.4890571779232
 30
0.0
 11
-244.8722110929507
 21
0.1335496247397714
 31
0.0
  0
LINE
  5
C30
330
438
100
AcDbEntity
  8
0
 62
     0
370
    -2
100
AcDbLine
 10
-272.3722110929507
 20
-1.116450375260228
 30
0.0
 11
-247.3722110929507
 21
-1.116450375260228
 31
0.0
  0
INSERT
  5
C31
330
438
100
AcDbEntity
  8
0
 62
     0
370
    -2
100
AcDbBlockReference
  2
_Open30
 10
-274.8722110929507
 20
-1.116450375260228
 30
0.0
 41
2.5
 42
2.5
 43
2.5
 50
180.0
  0
INSERT
  5
C32
330
438
100
AcDbEntity
  8
0
 62
     0
370
    -2
100
AcDbBlockReference
  2
_Open30
 10
-244.8722110929507
 20
-1.116450375260228
 30
0.0
 41
2.5
 42
2.5
 43
2.5
  0
MTEXT
  5
C33
330
438
100
AcDbEntity
  8
0
 62
     4
100
AcDbMText
 10
-260.0036345946275
 20
1.008549624739771
 30
0.0
 40
3.0
 41
0.0
 71
     5
 72
     1
  1
30
 73
     1
 44
1.0
1001
ACAD
1000
MTEXTBEGIN
1070
    73
1070
     1
1070
    44
1040
1.0
1070
    74
1070
     0
1000
MTEXTEND
  0
POINT
  5
C34
330
438
100
AcDbEntity
  8
Defpoints
 62
     0
100
AcDbPoint
 10
-274.8722110929507
 20
-14.7390571779232
 30
0.0
  0
POINT
  5
C35
330
438
100
AcDbEntity
  8
Defpoints
 62
     0
100
AcDbPoint
 10
-244.8722110929507
 20
-14.7390571779232
 30
0.0
  0
POINT
  5
C36
330
438
100
AcDbEntity
  8
Defpoints
 62
     0
100
AcDbPoint
 10
-244.8722110929507
 20
-1.116450375260228
 30
0.0
  0
ENDBLK
  5
43A
330
438
100
AcDbEntity
  8
0
100
AcDbBlockEnd
  0
BLOCK
  5
446
330
445
100
AcDbEntity
  8
0
100
AcDbBlockBegin
  2
*D6
 70
     1
 10
0.0
 20
0.0
 30
0.0
  3
*D6
  1

  0
LINE
  5
C37
330
445
100
AcDbEntity
  8
0
 62
     0
370
    -2
100
AcDbLine
 10
-271.2722110929507
 20
-56.98905717792509
 30
0.0
 11
-271.2722110929507
 21
-66.00463515337094
 31
0.0
  0
LINE
  5
C38
330
445
100
AcDbEntity
  8
0
 62
     0
370
    -2
100
AcDbLine
 10
-248.4722110929507
 20
-56.9890571779232
 30
0.0
 11
-248.4722110929507
 21
-66.00463515337094
 31
0.0
  0
LINE
  5
C39
330
445
100
AcDbEntity
  8
0
 62
     0
370
    -2
100
AcDbLine
 10
-268.7722110929507
 20
-64.75463515337094
 30
0.0
 11
-250.9722110929506
 21
-64.75463515337094
 31
0.0
  0
INSERT
  5
C3A
330
445
100
AcDbEntity
  8
0
 62
     0
370
    -2
100
AcDbBlockReference
  2
_Open30
 10
-271.2722110929507
 20
-64.75463515337094
 30
0.0
 41
2.5
 42
2.5
 43
2.5
 50
180.0
  0
INSERT
  5
C3B
330
445
100
AcDbEntity
  8
0
 62
     0
370
    -2
100
AcDbBlockReference
  2
_Open30
 10
-248.4722110929507
 20
-64.75463515337094
 30
0.0
 41
2.5
 42
2.5
 43
2.5
  0
MTEXT
  5
C3C
330
445
100
AcDbEntity
  8
0
 62
     4
100
AcDbMText
 10
-259.7535775938429
 20
-62.62963515337094
 30
0.0
 40
3.0
 41
0.0
 71
     5
 72
     1
  1
%%C22.8
 73
     1
 44
1.0
1001
ACAD
1000
MTEXTBEGIN
1070
    73
1070
     1
1070
    44
1040
1.0
1070
    74
1070
     0
1000
MTEXTEND
  0
POINT
  5
C3D
330
445
100
AcDbEntity
  8
Defpoints
 62
     0
100
AcDbPoint
 10
-271.2722110929507
 20
-56.73905717792509
 30
0.0
  0
POINT
  5
C3E
330
445
100
AcDbEntity
  8
Defpoints
 62
     0
100
AcDbPoint
 10
-248.4722110929507
 20
-56.7390571779232
 30
0.0
  0
POINT
  5
C3F
330
445
100
AcDbEntity
  8
Defpoints
 62
     0
100
AcDbPoint
 10
-248.4722110929507
 20
-64.75463515337094
 30
0.0
  0
ENDBLK
  5
447
330
445
100
AcDbEntity
  8
0
100
AcDbBlockEnd
  0
BLOCK
  5
453
330
452
100
AcDbEntity
  8
0
100
AcDbBlockBegin
  2
*D7
 70
     1
 10
0.0
 20
0.0
 30
0.0
  3
*D7
  1

  0
LINE
  5
C40
330
452
100
AcDbEntity
  8
0
 62
     0
370
    -2
100
AcDbLine
 10
-274.8722110929507
 20
-56.9890571779232
 30
0.0
 11
-274.8722110929507
 21
-71.84611261515328
 31
0.0
  0
LINE
  5
C41
330
452
100
AcDbEntity
  8
0
 62
     0
370
    -2
100
AcDbLine
 10
-244.8722110929507
 20
-56.9890571779232
 30
0.0
 11
-244.8722110929507
 21
-71.84611261515328
 31
0.0
  0
LINE
  5
C42
330
452
100
AcDbEntity
  8
0
 62
     0
370
    -2
100
AcDbLine
 10
-272.3722110929507
 20
-70.59611261515328
 30
0.0
 11
-247.3722110929507
 21
-70.59611261515328
 31
0.0
  0
INSERT
  5
C43
330
452
100
AcDbEntity
  8
0
 62
     0
370
    -2
100
AcDbBlockReference
  2
_Open30
 10
-274.8722110929507
 20
-70.59611261515328
 30
0.0
 41
2.5
 42
2.5
 43
2.5
 50
180.0
  0
INSERT
  5
C44
330
452
100
AcDbEntity
  8
0
 62
     0
370
    -2
100
AcDbBlockReference
  2
_Open30
 10
-244.8722110929507
 20
-70.59611261515328
 30
0.0
 41
2.5
 42
2.5
 43
2.5
  0
MTEXT
  5
C45
330
452
100
AcDbEntity
  8
0
 62
     4
100
AcDbMText
 10
-260.1858123654088
 20
-68.47111261515329
 30
0.0
 40
3.0
 41
0.0
 71
     5
 72
     1
  1
%%C30
 73
     1
 44
1.0
1001
ACAD
1000
MTEXTBEGIN
1070
    73
1070
     1
1070
    44
1040
1.0
1070
    74
1070
     0
1000
MTEXTEND
  0
POINT
  5
C46
330
452
100
AcDbEntity
  8
Defpoints
 62
     0
100
AcDbPoint
 10
-274.8722110929507
 20
-56.7390571779232
 30
0.0
  0
POINT
  5
C47
330
452
100
AcDbEntity
  8
Defpoints
 62
     0
100
AcDbPoint
 10
-244.8722110929507
 20
-56.7390571779232
 30
0.0
  0
POINT
  5
C48
330
452
100
AcDbEntity
  8
Defpoints
 62
     0
100
AcDbPoint
 10
-244.8722110929507
 20
-70.59611261515328
 30
0.0
  0
ENDBLK
  5
454
330
452
100
AcDbEntity
  8
0
100
AcDbBlockEnd
  0
BLOCK
  5
A10
330
9CD
100
AcDbEntity
  8
0
100
AcDbBlockBegin
  2
A$C384E7484
 70
     0
 10
0.0
 20
0.0
 30
0.0
  3
A$C384E7484
  1

  0
LWPOLYLINE
  5
9CE
330
9CD
100
AcDbEntity
  8
0
100
AcDbPolyline
 90
        3
 70
     0
 43
0.0
 10
18.79332450000004
 20
7.118753499999996
 10
18.25000000000003
 20
8.0
 10
18.27990950000003
 20
6.965156
  0
LINE
  5
9CF
330
9CD
100
AcDbEntity
  8
0
 62
     3
100
AcDbLine
 10
7.5
 20
38.0
 30
0.0
 11
7.5
 21
27.031373
 31
0.0
  0
LINE
  5
9D0
330
9CD
100
AcDbEntity
  8
0
 62
     3
100
AcDbLine
 10
-7.499999999999971
 20
27.031373
 30
0.0
 11
-7.499999999999971
 21
38.0
 31
0.0
  0
ARC
  5
9D1
330
9CD
100
AcDbEntity
  8
0
 62
     3
100
AcDbCircle
 10
14.00000000000003
 20
1.0
 30
0.0
 40
1.0
100
AcDbArc
 50
0.0
 51
90.0
  0
ARC
  5
9D2
330
9CD
100
AcDbEntity
  8
0
 62
     3
100
AcDbCircle
 10
14.00000000000003
 20
1.0
 30
0.0
 40
1.0
100
AcDbArc
 50
270.0
 51
0.0
  0
ARC
  5
9D3
330
9CD
100
AcDbEntity
  8
0
 62
     3
100
AcDbCircle
 10
-13.99999999999996
 20
1.0
 30
0.0
 40
1.0
100
AcDbArc
 50
90.0
 51
180.0
  0
ARC
  5
9D4
330
9CD
100
AcDbEntity
  8
0
 62
     3
100
AcDbCircle
 10
-13.99999999999996
 20
1.0
 30
0.0
 40
1.0
100
AcDbArc
 50
180.0
 51
270.0
  0
ARC
  5
9D5
330
9CD
100
AcDbEntity
  8
0
 62
     3
100
AcDbCircle
 10
-13.74999999999996
 20
3.0
 30
0.0
 40
1.0
100
AcDbArc
 50
270.0
 51
0.0
  0
ARC
  5
9D6
330
9CD
100
AcDbEntity
  8
0
 62
     3
100
AcDbCircle
 10
13.75
 20
3.0
 30
0.0
 40
1.0
100
AcDbArc
 50
180.0
 51
270.0
  0
LINE
  5
9D7
330
9CD
100
AcDbEntity
  8
0
 62
     3
100
AcDbLine
 10
-11.25000000000001
 20
0.0
 30
0.0
 11
-13.74999999999996
 21
0.0
 31
0.0
  0
LINE
  5
9D8
330
9CD
100
AcDbEntity
  8
0
 62
     3
100
AcDbLine
 10
11.25000000000003
 20
0.0
 30
0.0
 11
13.75
 21
0.0
 31
0.0
  0
ARC
  5
9D9
330
9CD
100
AcDbEntity
  8
0
 62
     3
100
AcDbCircle
 10
12.40000000000003
 20
1.0
 30
0.0
 40
1.0
100
AcDbArc
 50
180.0
 51
270.0
  0
ARC
  5
9DA
330
9CD
100
AcDbEntity
  8
0
 62
     3
100
AcDbCircle
 10
-12.39999999999999
 20
1.0
 30
0.0
 40
1.0
100
AcDbArc
 50
270.0
 51
0.0
  0
ARC
  5
9DB
330
9CD
100
AcDbEntity
  8
0
 62
     3
100
AcDbCircle
 10
10.75000000000003
 20
23.01568651765512
 30
0.0
 40
2.0
100
AcDbArc
 50
0.0
 51
82.81924400000033
  0
ARC
  5
9DC
330
9CD
100
AcDbEntity
  8
0
 62
     3
100
AcDbCircle
 10
-10.74999999999997
 20
23.01568651765512
 30
0.0
 40
2.0
100
AcDbArc
 50
97.18075599999968
 51
180.0
  0
ARC
  5
9DD
330
9CD
100
AcDbEntity
  8
0
 62
     3
100
AcDbCircle
 10
9.5
 20
27.0
 30
0.0
 40
2.0
100
AcDbArc
 50
180.0
 51
270.0
  0
ARC
  5
9DE
330
9CD
100
AcDbEntity
  8
0
 62
     3
100
AcDbCircle
 10
-9.499999999999971
 20
27.0
 30
0.0
 40
2.0
100
AcDbArc
 50
270.0
 51
0.0
  0
LINE
  5
9DF
330
9CD
100
AcDbEntity
  8
0
 62
     3
100
AcDbLine
 10
18.25000000000003
 20
5.0
 30
0.0
 11
18.25000000000003
 21
11.0
 31
0.0
  0
LINE
  5
9E0
330
9CD
100
AcDbEntity
  8
0
 62
     3
100
AcDbLine
 10
13.75
 20
12.0
 30
0.0
 11
17.25000000000003
 21
12.0
 31
0.0
  0
LINE
  5
9E1
330
9CD
100
AcDbEntity
  8
0
 62
     3
100
AcDbLine
 10
13.75
 20
4.0
 30
0.0
 11
17.25000000000003
 21
4.0
 31
0.0
  0
ARC
  5
9E2
330
9CD
100
AcDbEntity
  8
0
 62
     3
100
AcDbCircle
 10
17.25000000000003
 20
11.0
 30
0.0
 40
1.0
100
AcDbArc
 50
0.0
 51
90.0
  0
ARC
  5
9E3
330
9CD
100
AcDbEntity
  8
0
 62
     3
100
AcDbCircle
 10
17.25000000000003
 20
5.0
 30
0.0
 40
1.0
100
AcDbArc
 50
270.0
 51
0.0
  0
ARC
  5
9E4
330
9CD
100
AcDbEntity
  8
0
 62
     3
100
AcDbCircle
 10
13.75
 20
13.25
 30
0.0
 40
1.0
100
AcDbArc
 50
180.0
 51
270.0
  0
ARC
  5
9E5
330
9CD
100
AcDbEntity
  8
0
 62
     3
100
AcDbCircle
 10
13.75
 20
3.0
 30
0.0
 40
1.0
100
AcDbArc
 50
90.0
 51
180.0
  0
LINE
  5
9E6
330
9CD
100
AcDbEntity
  8
0
  6
CENTER
100
AcDbLine
 10
9.195966000000026
 20
8.0
 30
0.0
 11
19.39907750000003
 21
8.0
 31
0.0
  0
LINE
  5
9E7
330
9CD
100
AcDbEntity
  8
0
 62
     3
100
AcDbLine
 10
-11.25000000000001
 20
0.0
 30
0.0
 11
11.25000000000003
 21
0.0
 31
0.0
  0
LINE
  5
9E8
330
9CD
100
AcDbEntity
  8
0
 62
     3
100
AcDbLine
 10
-11.00000000756867
 20
25.0
 30
0.0
 11
11.00000000756873
 21
25.0
 31
0.0
  0
LINE
  5
9E9
330
9CD
100
AcDbEntity
  8
0
 62
     3
100
AcDbLine
 10
12.75
 20
43.0
 30
0.0
 11
-12.74999999999996
 21
43.0
 31
0.0
  0
LINE
  5
9EA
330
9CD
100
AcDbEntity
  8
0
 62
     3
100
AcDbLine
 10
15.00000000000003
 20
41.0
 30
0.0
 11
15.00000000000003
 21
43.0
 31
0.0
  0
ARC
  5
9EB
330
9CD
100
AcDbEntity
  8
0
 62
     3
100
AcDbCircle
 10
9.5
 20
38.0
 30
0.0
 40
2.0
100
AcDbArc
 50
90.0
 51
180.0
  0
ARC
  5
9EC
330
9CD
100
AcDbEntity
  8
0
 62
     3
100
AcDbCircle
 10
14.00000000000003
 20
41.0
 30
0.0
 40
1.0
100
AcDbArc
 50
270.0
 51
0.0
  0
LINE
  5
9ED
330
9CD
100
AcDbEntity
  8
0
 62
     3
100
AcDbLine
 10
-14.99999999999996
 20
41.0
 30
0.0
 11
-14.99999999999996
 21
43.0
 31
0.0
  0
ARC
  5
9EE
330
9CD
100
AcDbEntity
  8
0
 62
     3
100
AcDbCircle
 10
-13.99999999999996
 20
41.0
 30
0.0
 40
1.0
100
AcDbArc
 50
180.0
 51
270.0
  0
ARC
  5
9EF
330
9CD
100
AcDbEntity
  8
0
 62
     3
100
AcDbCircle
 10
-9.499999999999971
 20
38.0
 30
0.0
 40
2.0
100
AcDbArc
 50
0.0
 51
90.0
  0
LINE
  5
9F0
330
9CD
100
AcDbEntity
  8
0
 62
     3
100
AcDbLine
 10
-14.99999999999996
 20
43.0
 30
0.0
 11
-12.74999999999996
 21
43.0
 31
0.0
  0
LINE
  5
9F1
330
9CD
100
AcDbEntity
  8
0
 62
     3
100
AcDbLine
 10
12.75
 20
43.0
 30
0.0
 11
15.00000000000003
 21
43.0
 31
0.0
  0
LINE
  5
9F2
330
9CD
100
AcDbEntity
  8
0
 62
     3
100
AcDbLine
 10
15.00000000000003
 20
41.0
 30
0.0
 11
12.75
 21
23.01568651765512
 31
0.0
  0
LINE
  5
9F3
330
9CD
100
AcDbEntity
  8
0
 62
     3
100
AcDbLine
 10
-14.99999999999996
 20
41.0
 30
0.0
 11
-12.74999999999996
 21
23.01568651765512
 31
0.0
  0
ARC
  5
9F4
330
9CD
100
AcDbEntity
  8
0
  6
DASHED
100
AcDbCircle
 10
-10.9031565762109
 20
22.74999989839068
 30
0.0
 40
0.25
100
AcDbArc
 50
90.0
 51
178.9999999999998
  0
LINE
  5
9F5
330
9CD
100
AcDbEntity
  8
0
  6
DASHED
100
AcDbLine
 10
-4.25
 20
41.4179405
 30
0.0
 11
-4.25
 21
23.0
 31
0.0
  0
LINE
  5
9F6
330
9CD
100
AcDbEntity
  8
0
  6
DASHED
100
AcDbLine
 10
4.25
 20
41.4179405
 30
0.0
 11
4.25
 21
23.0
 31
0.0
  0
LINE
  5
9F7
330
9CD
100
AcDbEntity
  8
0
  6
DASHED
100
AcDbLine
 10
-10.9031565762109
 20
22.99999989839068
 30
0.0
 11
10.65262554730714
 21
23.02054691262555
 31
0.0
  0
ARC
  5
9F8
330
9CD
100
AcDbEntity
  8
0
  6
DASHED
100
AcDbCircle
 10
10.65262554730714
 20
22.77054691262555
 30
0.0
 40
0.25
100
AcDbArc
 50
0.9999999999997406
 51
90.0
  0
LINE
  5
9F9
330
9CD
100
AcDbEntity
  8
0
  6
DASHED
100
AcDbLine
 10
18.25000000000003
 20
10.00749349999999
 30
0.0
 11
11.19423840934404
 21
10.00749349999999
 31
0.0
  0
LINE
  5
9FA
330
9CD
100
AcDbEntity
  8
0
  6
DASHED
100
AcDbLine
 10
18.25000000000003
 20
5.992505999999998
 30
0.0
 11
11.28595429173283
 21
5.992505999999998
 31
0.0
  0
LINE
  5
9FB
330
9CD
100
AcDbEntity
  8
0
  6
DASHED
100
AcDbLine
 10
4.25
 20
41.4179405
 30
0.0
 11
-4.25
 21
41.4179405
 31
0.0
  0
LINE
  5
9FC
330
9CD
100
AcDbEntity
  8
0
  6
DASHED
100
AcDbLine
 10
-5.563914000000011
 20
43.0
 30
0.0
 11
-4.25
 21
41.4179405
 31
0.0
  0
LINE
  5
9FD
330
9CD
100
AcDbEntity
  8
0
  6
DASHED
100
AcDbLine
 10
5.563913500000026
 20
43.0
 30
0.0
 11
4.25
 21
41.4179405
 31
0.0
  0
LINE
  5
9FE
330
9CD
100
AcDbEntity
  8
0
 62
     3
100
AcDbLine
 10
-3.499999999999971
 20
40.0
 30
0.0
 11
-13.99999999999996
 21
40.0
 31
0.0
  0
LINE
  5
9FF
330
9CD
100
AcDbEntity
  8
0
 62
     3
100
AcDbLine
 10
-13.74999999999996
 20
2.0
 30
0.0
 11
13.75
 21
2.0
 31
0.0
  0
LINE
  5
A00
330
9CD
100
AcDbEntity
  8
0
 62
     3
100
AcDbLine
 10
-1.499999999999971
 20
38.0
 30
0.0
 11
-1.499999999999971
 21
27.031373
 31
0.0
  0
LINE
  5
A01
330
9CD
100
AcDbEntity
  8
0
 62
     3
100
AcDbLine
 10
1.500000000000028
 20
38.0
 30
0.0
 11
1.500000000000028
 21
27.031373
 31
0.0
  0
ARC
  5
A02
330
9CD
100
AcDbEntity
  8
0
 62
     3
100
AcDbCircle
 10
3.500000000000028
 20
27.0
 30
0.0
 40
2.0
100
AcDbArc
 50
180.0
 51
270.0
  0
ARC
  5
A03
330
9CD
100
AcDbEntity
  8
0
 62
     3
100
AcDbCircle
 10
-3.499999999999971
 20
27.0
 30
0.0
 40
2.0
100
AcDbArc
 50
270.0
 51
0.0
  0
ARC
  5
A04
330
9CD
100
AcDbEntity
  8
0
 62
     3
100
AcDbCircle
 10
-3.499999999999971
 20
38.0
 30
0.0
 40
2.0
100
AcDbArc
 50
0.0
 51
90.0
  0
LINE
  5
A05
330
9CD
100
AcDbEntity
  8
0
 62
     3
100
AcDbLine
 10
3.500000000000028
 20
40.0
 30
0.0
 11
14.00000000000003
 21
40.0
 31
0.0
  0
ARC
  5
A06
330
9CD
100
AcDbEntity
  8
0
 62
     3
100
AcDbCircle
 10
3.500000000000028
 20
38.0
 30
0.0
 40
2.0
100
AcDbArc
 50
90.0
 51
180.0
  0
LINE
  5
A07
330
9CD
100
AcDbEntity
  8
0
 62
     3
100
AcDbLine
 10
-3.499999999999971
 20
40.0
 30
0.0
 11
3.500000000000028
 21
40.0
 31
0.0
  0
LINE
  5
A08
330
9CD
100
AcDbEntity
  8
0
 62
     3
100
AcDbLine
 10
-3.499999999999971
 20
25.03137300000001
 30
0.0
 11
3.500000000000028
 21
25.03137300000001
 31
0.0
  0
LINE
  5
A09
330
9CD
100
AcDbEntity
  8
0
 62
     3
100
AcDbLine
 10
-12.74999999999996
 20
23.01568651765512
 30
0.0
 11
-12.74999999999996
 21
3.0
 31
0.0
  0
LINE
  5
A0A
330
9CD
100
AcDbEntity
  8
0
 62
     3
100
AcDbLine
 10
12.75
 20
23.01568651765512
 30
0.0
 11
12.75
 21
3.0
 31
0.0
  0
LINE
  5
A0B
330
9CD
100
AcDbEntity
  8
0
  6
DASHED
100
AcDbLine
 10
-11.1531185
 20
22.754363
 30
0.0
 11
-11.39999999999999
 21
1.0
 31
0.0
  0
LINE
  5
A0C
330
9CD
100
AcDbEntity
  8
0
  6
DASHED
100
AcDbLine
 10
10.90315650000003
 20
22.75
 30
0.0
 11
11.40000000000003
 21
1.0
 31
0.0
  0
LINE
  5
A0D
330
9CD
100
AcDbEntity
  8
0
  6
CENTER
100
AcDbLine
 10
0.0
 20
-1.473559919873139
 30
0.0
 11
0.0
 21
44.77025192537428
 31
0.0
  0
ENDBLK
  5
A11
330
9CD
100
AcDbEntity
  8
0
100
AcDbBlockEnd
  0
BLOCK
  5
C4B
330
C4A
100
AcDbEntity
  8
0
100
AcDbBlockBegin
  2
*D12
 70
     1
 10
0.0
 20
0.0
 30
0.0
  3
*D12
  1

  0
LINE
  5
C4D
330
C4A
100
AcDbEntity
  8
0
  6
Continuous
 62
     0
370
    -2
100
AcDbLine
 10
-194.4416217996437
 20
-31.7390571779232
 30
0.0
 11
-170.678595733081
 21
-31.73905717792321
 31
0.0
  0
LINE
  5
C4E
330
C4A
100
AcDbEntity
  8
0
  6
Continuous
 62
     0
370
    -2
100
AcDbLine
 10
-194.4416217996437
 20
-67.7390571779232
 30
0.0
 11
-170.678595733081
 21
-67.7390571779232
 31
0.0
  0
LINE
  5
C4F
330
C4A
100
AcDbEntity
  8
0
  6
Continuous
 62
     0
370
    -2
100
AcDbLine
 10
-171.928595733081
 20
-34.23905717792321
 30
0.0
 11
-171.928595733081
 21
-65.2390571779232
 31
0.0
  0
INSERT
  5
C50
330
C4A
100
AcDbEntity
  8
0
  6
Continuous
 62
     0
370
    -2
100
AcDbBlockReference
  2
_Open30
 10
-171.928595733081
 20
-31.73905717792321
 30
0.0
 41
2.5
 42
2.5
 43
2.5
 50
90.0
  0
INSERT
  5
C51
330
C4A
100
AcDbEntity
  8
0
  6
Continuous
 62
     0
370
    -2
100
AcDbBlockReference
  2
_Open30
 10
-171.928595733081
 20
-67.7390571779232
 30
0.0
 41
2.5
 42
2.5
 43
2.5
 50
270.0
  0
MTEXT
  5
C52
330
C4A
100
AcDbEntity
  8
0
  6
Continuous
 62
     4
100
AcDbMText
 10
-174.053595733081
 20
-50.36937049831658
 30
0.0
 40
3.0
 41
0.0
 71
     5
 72
     1
  1
36
 11
0.0000000000000001
 21
1.0
 31
0.0
 73
     1
 44
1.0
1001
ACAD
1000
MTEXTBEGIN
1070
    73
1070
     1
1070
    44
1040
1.0
1070
    74
1070
     0
1000
MTEXTEND
  0
POINT
  5
C53
330
C4A
100
AcDbEntity
  8
Defpoints
  6
Continuous
 62
     0
100
AcDbPoint
 10
-194.6916217996437
 20
-31.7390571779232
 30
0.0
  0
POINT
  5
C54
330
C4A
100
AcDbEntity
  8
Defpoints
  6
Continuous
 62
     0
100
AcDbPoint
 10
-194.6916217996437
 20
-67.7390571779232
 30
0.0
  0
POINT
  5
C55
330
C4A
100
AcDbEntity
  8
Defpoints
  6
Continuous
 62
     0
100
AcDbPoint
 10
-171.928595733081
 20
-67.7390571779232
 30
0.0
  0
ENDBLK
  5
C4C
330
C4A
100
AcDbEntity
  8
0
100
AcDbBlockEnd
  0
BLOCK
  5
C58
330
C57
100
AcDbEntity
  8
0
100
AcDbBlockBegin
  2
*D13
 70
     1
 10
0.0
 20
0.0
 30
0.0
  3
*D13
  1

  0
LINE
  5
C5A
330
C57
100
AcDbEntity
  8
0
  6
Continuous
 62
     0
370
    -2
100
AcDbLine
 10
-205.6916217996437
 20
-44.1390571779232
 30
0.0
 11
-205.6916217996437
 21
-23.13556825141564
 31
0.0
  0
LINE
  5
C5B
330
C57
100
AcDbEntity
  8
0
  6
Continuous
 62
     0
370
    -2
100
AcDbLine
 10
-185.6916217996438
 20
-49.4890571779232
 30
0.0
 11
-185.6916217996438
 21
-23.13556825141564
 31
0.0
  0
LINE
  5
C5C
330
C57
100
AcDbEntity
  8
0
  6
Continuous
 62
     0
370
    -2
100
AcDbLine
 10
-203.1916217996438
 20
-24.38556825141564
 30
0.0
 11
-188.1916217996438
 21
-24.38556825141564
 31
0.0
  0
INSERT
  5
C5D
330
C57
100
AcDbEntity
  8
0
  6
Continuous
 62
     0
370
    -2
100
AcDbBlockReference
  2
_Open30
 10
-205.6916217996437
 20
-24.38556825141564
 30
0.0
 41
2.5
 42
2.5
 43
2.5
 50
180.0
  0
INSERT
  5
C5E
330
C57
100
AcDbEntity
  8
0
  6
Continuous
 62
     0
370
    -2
100
AcDbBlockReference
  2
_Open30
 10
-185.6916217996438
 20
-24.38556825141564
 30
0.0
 41
2.5
 42
2.5
 43
2.5
  0
MTEXT
  5
C5F
330
C57
100
AcDbEntity
  8
0
  6
Continuous
 62
     4
100
AcDbMText
 10
-196.2068741032794
 20
-22.26056825141563
 30
0.0
 40
3.0
 41
0.0
 71
     5
 72
     1
  1
20
 73
     1
 44
1.0
1001
ACAD
1000
MTEXTBEGIN
1070
    73
1070
     1
1070
    44
1040
1.0
1070
    74
1070
     0
1000
MTEXTEND
  0
POINT
  5
C60
330
C57
100
AcDbEntity
  8
Defpoints
  6
Continuous
 62
     0
100
AcDbPoint
 10
-205.6916217996437
 20
-44.3890571779232
 30
0.0
  0
POINT
  5
C61
330
C57
100
AcDbEntity
  8
Defpoints
  6
Continuous
 62
     0
100
AcDbPoint
 10
-185.6916217996438
 20
-49.7390571779232
 30
0.0
  0
POINT
  5
C62
330
C57
100
AcDbEntity
  8
Defpoints
  6
Continuous
 62
     0
100
AcDbPoint
 10
-185.6916217996438
 20
-24.38556825141564
 30
0.0
  0
ENDBLK
  5
C59
330
C57
100
AcDbEntity
  8
0
100
AcDbBlockEnd
  0
BLOCK
  5
C6F
330
C6E
100
AcDbEntity
  8
0
100
AcDbBlockBegin
  2
*D14
 70
     1
 10
0.0
 20
0.0
 30
0.0
  3
*D14
  1

  0
LINE
  5
C71
330
C6E
100
AcDbEntity
  8
0
  6
Continuous
 62
     0
370
    -2
100
AcDbLine
 10
-279.8722120391743
 20
43.48992689396879
 30
0.0
 11
-279.8722120391743
 21
56.34863032183557
 31
0.0
  0
LINE
  5
C72
330
C6E
100
AcDbEntity
  8
0
  6
Continuous
 62
     0
370
    -2
100
AcDbLine
 10
-239.8722120391745
 20
43.48992689396879
 30
0.0
 11
-239.8722120391745
 21
56.34863032183557
 31
0.0
  0
LINE
  5
C73
330
C6E
100
AcDbEntity
  8
0
  6
Continuous
 62
     0
370
    -2
100
AcDbLine
 10
-277.3722120391743
 20
55.09863032183557
 30
0.0
 11
-242.3722120391745
 21
55.09863032183557
 31
0.0
  0
INSERT
  5
C74
330
C6E
100
AcDbEntity
  8
0
  6
Continuous
 62
     0
370
    -2
100
AcDbBlockReference
  2
_Open30
 10
-279.8722120391743
 20
55.09863032183557
 30
0.0
 41
2.5
 42
2.5
 43
2.5
 50
180.0
  0
INSERT
  5
C75
330
C6E
100
AcDbEntity
  8
0
  6
Continuous
 62
     0
370
    -2
100
AcDbBlockReference
  2
_Open30
 10
-239.8722120391745
 20
55.09863032183557
 30
0.0
 41
2.5
 42
2.5
 43
2.5
  0
MTEXT
  5
C76
330
C6E
100
AcDbEntity
  8
0
  6
Continuous
 62
     4
100
AcDbMText
 10
-258.7184511166556
 20
57.22363032183557
 30
0.0
 40
3.0
 41
0.0
 71
     5
 72
     1
  1
40
 73
     1
 44
1.0
1001
ACAD
1000
MTEXTBEGIN
1070
    73
1070
     1
1070
    44
1040
1.0
1070
    74
1070
     0
1000
MTEXTEND
  0
POINT
  5
C77
330
C6E
100
AcDbEntity
  8
Defpoints
  6
Continuous
 62
     0
100
AcDbPoint
 10
-279.8722120391743
 20
43.2399268939688
 30
0.0
  0
POINT
  5
C78
330
C6E
100
AcDbEntity
  8
Defpoints
  6
Continuous
 62
     0
100
AcDbPoint
 10
-239.8722120391745
 20
43.2399268939688
 30
0.0
  0
POINT
  5
C79
330
C6E
100
AcDbEntity
  8
Defpoints
  6
Continuous
 62
     0
100
AcDbPoint
 10
-239.8722120391745
 20
55.09863032183557
 30
0.0
  0
ENDBLK
  5
C70
330
C6E
100
AcDbEntity
  8
0
100
AcDbBlockEnd
  0
BLOCK
  5
C7C
330
C7B
100
AcDbEntity
  8
0
100
AcDbBlockBegin
  2
*D15
 70
     1
 10
0.0
 20
0.0
 30
0.0
  3
*D15
  1

  0
LINE
  5
C7E
330
C7B
100
AcDbEntity
  8
0
  6
Continuous
 62
     0
370
    -2
100
AcDbLine
 10
-268.1222114729302
 20
33.81622434235476
 30
0.0
 11
-288.5592162089092
 21
33.81622434235477
 31
0.0
  0
LINE
  5
C7F
330
C7B
100
AcDbEntity
  8
0
  6
Continuous
 62
     0
370
    -2
100
AcDbLine
 10
-259.0023702527799
 20
48.81309655126236
 30
0.0
 11
-288.5592162089092
 21
48.81309655126237
 31
0.0
  0
LINE
  5
C80
330
C7B
100
AcDbEntity
  8
0
  6
Continuous
 62
     0
370
    -2
100
AcDbLine
 10
-287.3092162089092
 20
36.31622434235477
 30
0.0
 11
-287.3092162089092
 21
46.31309655126236
 31
0.0
  0
INSERT
  5
C81
330
C7B
100
AcDbEntity
  8
0
  6
Continuous
 62
     0
370
    -2
100
AcDbBlockReference
  2
_Open30
 10
-287.3092162089092
 20
33.81622434235477
 30
0.0
 41
2.5
 42
2.5
 43
2.5
 50
270.0
  0
INSERT
  5
C82
330
C7B
100
AcDbEntity
  8
0
  6
Continuous
 62
     0
370
    -2
100
AcDbBlockReference
  2
_Open30
 10
-287.3092162089092
 20
48.81309655126237
 30
0.0
 41
2.5
 42
2.5
 43
2.5
 50
90.0
  0
MTEXT
  5
C83
330
C7B
100
AcDbEntity
  8
0
  6
Continuous
 62
     4
100
AcDbMText
 10
-289.4342162089092
 20
41.48321719817182
 30
0.0
 40
3.0
 41
0.0
 71
     5
 72
     1
  1
15
 11
0.0000000000000001
 21
1.0
 31
0.0
 73
     1
 44
1.0
1001
ACAD
1000
MTEXTBEGIN
1070
    73
1070
     1
1070
    44
1040
1.0
1070
    74
1070
     0
1000
MTEXTEND
  0
POINT
  5
C84
330
C7B
100
AcDbEntity
  8
Defpoints
  6
Continuous
 62
     0
100
AcDbPoint
 10
-267.8722114729302
 20
33.81622434235476
 30
0.0
  0
POINT
  5
C85
330
C7B
100
AcDbEntity
  8
Defpoints
  6
Continuous
 62
     0
100
AcDbPoint
 10
-258.7523702527799
 20
48.81309655126236
 30
0.0
  0
POINT
  5
C86
330
C7B
100
AcDbEntity
  8
Defpoints
  6
Continuous
 62
     0
100
AcDbPoint
 10
-287.3092162089092
 20
48.81309655126237
 30
0.0
  0
ENDBLK
  5
C7D
330
C7B
100
AcDbEntity
  8
0
100
AcDbBlockEnd
  0
ENDSEC
  0
SECTION
  2
ENTITIES
  0
LINE
  5
387
330
6B
100
AcDbEntity
  8
0
 62
     3
100
AcDbLine
 10
-252.3722110929507
 20
-19.7390571779232
 30
0.0
 11
-252.3722110929507
 21
-30.7076841779232
 31
0.0
  0
LINE
  5
388
330
6B
100
AcDbEntity
  8
0
 62
     3
100
AcDbLine
 10
-267.3722110929507
 20
-30.7076841779232
 30
0.0
 11
-267.3722110929507
 21
-19.7390571779232
 31
0.0
  0
ARC
  5
389
330
6B
100
AcDbEntity
  8
0
 62
     3
100
AcDbCircle
 10
-245.8722110929507
 20
-56.7390571779232
 30
0.0
 40
1.0
100
AcDbArc
 50
0.0
 51
90.0
  0
ARC
  5
38A
330
6B
100
AcDbEntity
  8
0
 62
     3
100
AcDbCircle
 10
-245.8722110929507
 20
-56.7390571779232
 30
0.0
 40
1.0
100
AcDbArc
 50
270.0
 51
0.0
  0
ARC
  5
38B
330
6B
100
AcDbEntity
  8
0
 62
     3
100
AcDbCircle
 10
-273.8722110929507
 20
-56.7390571779232
 30
0.0
 40
1.0
100
AcDbArc
 50
90.0
 51
180.0
  0
ARC
  5
38C
330
6B
100
AcDbEntity
  8
0
 62
     3
100
AcDbCircle
 10
-273.8722110929507
 20
-56.7390571779232
 30
0.0
 40
1.0
100
AcDbArc
 50
180.0
 51
270.0
  0
ARC
  5
38D
330
6B
100
AcDbEntity
  8
0
 62
     3
100
AcDbCircle
 10
-273.6222110929507
 20
-54.7390571779232
 30
0.0
 40
1.0
100
AcDbArc
 50
270.0
 51
0.0
  0
ARC
  5
38E
330
6B
100
AcDbEntity
  8
0
 62
     3
100
AcDbCircle
 10
-246.1222110929507
 20
-54.7390571779232
 30
0.0
 40
1.0
100
AcDbArc
 50
180.0
 51
270.0
  0
LINE
  5
38F
330
6B
100
AcDbEntity
  8
0
 62
     3
100
AcDbLine
 10
-271.1222110929507
 20
-57.7390571779232
 30
0.0
 11
-273.6222110929507
 21
-57.7390571779232
 31
0.0
  0
LINE
  5
390
330
6B
100
AcDbEntity
  8
0
 62
     3
100
AcDbLine
 10
-248.6222110929507
 20
-57.7390571779232
 30
0.0
 11
-246.1222110929507
 21
-57.7390571779232
 31
0.0
  0
ARC
  5
391
330
6B
100
AcDbEntity
  8
0
 62
     3
100
AcDbCircle
 10
-247.4722110929507
 20
-56.7390571779232
 30
0.0
 40
1.0
100
AcDbArc
 50
180.0
 51
270.0
  0
ARC
  5
392
330
6B
100
AcDbEntity
  8
0
 62
     3
100
AcDbCircle
 10
-272.2722110929507
 20
-56.7390571779232
 30
0.0
 40
1.0
100
AcDbArc
 50
270.0
 51
0.0
  0
ARC
  5
393
330
6B
100
AcDbEntity
  8
0
 62
     3
100
AcDbCircle
 10
-249.1222110929507
 20
-34.72337066026808
 30
0.0
 40
2.0
100
AcDbArc
 50
0.0
 51
82.81924400000034
  0
ARC
  5
394
330
6B
100
AcDbEntity
  8
0
 62
     3
100
AcDbCircle
 10
-270.6222110929507
 20
-34.72337066026808
 30
0.0
 40
2.0
100
AcDbArc
 50
97.18075599999968
 51
180.0
  0
ARC
  5
395
330
6B
100
AcDbEntity
  8
0
 62
     3
100
AcDbCircle
 10
-250.3722110929507
 20
-30.7390571779232
 30
0.0
 40
2.0
100
AcDbArc
 50
180.0
 51
270.0
  0
ARC
  5
396
330
6B
100
AcDbEntity
  8
0
 62
     3
100
AcDbCircle
 10
-269.3722110929507
 20
-30.7390571779232
 30
0.0
 40
2.0
100
AcDbArc
 50
270.0
 51
0.0
  0
LINE
  5
397
330
6B
100
AcDbEntity
  8
0
 62
     3
100
AcDbLine
 10
-241.6222110929507
 20
-52.7390571779232
 30
0.0
 11
-241.6222110929507
 21
-46.7390571779232
 31
0.0
  0
LINE
  5
398
330
6B
100
AcDbEntity
  8
0
 62
     3
100
AcDbLine
 10
-246.1222110929507
 20
-45.7390571779232
 30
0.0
 11
-242.6222110929507
 21
-45.7390571779232
 31
0.0
  0
LINE
  5
399
330
6B
100
AcDbEntity
  8
0
 62
     3
100
AcDbLine
 10
-246.1222110929507
 20
-53.7390571779232
 30
0.0
 11
-242.6222110929507
 21
-53.7390571779232
 31
0.0
  0
ARC
  5
39A
330
6B
100
AcDbEntity
  8
0
 62
     3
100
AcDbCircle
 10
-242.6222110929507
 20
-46.7390571779232
 30
0.0
 40
1.0
100
AcDbArc
 50
0.0
 51
90.0
  0
ARC
  5
39B
330
6B
100
AcDbEntity
  8
0
 62
     3
100
AcDbCircle
 10
-242.6222110929507
 20
-52.7390571779232
 30
0.0
 40
1.0
100
AcDbArc
 50
270.0
 51
0.0
  0
ARC
  5
39C
330
6B
100
AcDbEntity
  8
0
 62
     3
100
AcDbCircle
 10
-246.1222110929507
 20
-44.7390571779232
 30
0.0
 40
1.0
100
AcDbArc
 50
180.0
 51
270.0
  0
ARC
  5
39D
330
6B
100
AcDbEntity
  8
0
 62
     3
100
AcDbCircle
 10
-246.1222110929507
 20
-54.7390571779232
 30
0.0
 40
1.0
100
AcDbArc
 50
90.0
 51
180.0
  0
LINE
  5
39E
330
6B
100
AcDbEntity
  8
0
  6
CENTER
100
AcDbLine
 10
-250.6762450929507
 20
-49.7390571779232
 30
0.0
 11
-240.4731335929507
 21
-49.7390571779232
 31
0.0
  0
LINE
  5
39F
330
6B
100
AcDbEntity
  8
0
 62
     3
100
AcDbLine
 10
-271.1222110929507
 20
-57.7390571779232
 30
0.0
 11
-248.6222110929507
 21
-57.7390571779232
 31
0.0
  0
LINE
  5
3A0
330
6B
100
AcDbEntity
  8
0
 62
     3
100
AcDbLine
 10
-247.1222110929507
 20
-14.7390571779232
 30
0.0
 11
-272.6222110929507
 21
-14.7390571779232
 31
0.0
  0
LINE
  5
3A1
330
6B
100
AcDbEntity
  8
0
 62
     3
100
AcDbLine
 10
-244.8722110929507
 20
-16.7390571779232
 30
0.0
 11
-244.8722110929507
 21
-14.7390571779232
 31
0.0
  0
ARC
  5
3A2
330
6B
100
AcDbEntity
  8
0
 62
     3
100
AcDbCircle
 10
-250.3722110929507
 20
-19.7390571779232
 30
0.0
 40
2.0
100
AcDbArc
 50
90.0
 51
180.0
  0
ARC
  5
3A3
330
6B
100
AcDbEntity
  8
0
 62
     3
100
AcDbCircle
 10
-245.8722110929507
 20
-16.7390571779232
 30
0.0
 40
1.0
100
AcDbArc
 50
270.0
 51
0.0
  0
LINE
  5
3A4
330
6B
100
AcDbEntity
  8
0
 62
     3
100
AcDbLine
 10
-274.8722110929507
 20
-16.73905717792319
 30
0.0
 11
-274.8722110929507
 21
-14.73905717792319
 31
0.0
  0
ARC
  5
3A5
330
6B
100
AcDbEntity
  8
0
 62
     3
100
AcDbCircle
 10
-273.8722110929507
 20
-16.73905717792319
 30
0.0
 40
1.0
100
AcDbArc
 50
180.0
 51
270.0
  0
ARC
  5
3A6
330
6B
100
AcDbEntity
  8
0
 62
     3
100
AcDbCircle
 10
-269.3722110929507
 20
-19.7390571779232
 30
0.0
 40
2.0
100
AcDbArc
 50
0.0
 51
90.0
  0
LINE
  5
3B8
330
6B
100
AcDbEntity
  8
0
 62
     3
100
AcDbLine
 10
-274.8722110929507
 20
-14.7390571779232
 30
0.0
 11
-272.6222110929507
 21
-14.7390571779232
 31
0.0
  0
LINE
  5
3B9
330
6B
100
AcDbEntity
  8
0
 62
     3
100
AcDbLine
 10
-247.1222110929507
 20
-14.7390571779232
 30
0.0
 11
-244.8722110929507
 21
-14.7390571779232
 31
0.0
  0
LINE
  5
3BA
330
6B
100
AcDbEntity
  8
0
 62
     3
100
AcDbLine
 10
-244.8722110929507
 20
-16.7390571779232
 30
0.0
 11
-247.1222110929507
 21
-34.72337066026808
 31
0.0
  0
LINE
  5
3BB
330
6B
100
AcDbEntity
  8
0
 62
     3
100
AcDbLine
 10
-274.8722110929507
 20
-16.73905717792319
 30
0.0
 11
-272.6222110929507
 21
-34.72337066026808
 31
0.0
  0
ARC
  5
3E2
330
6B
100
AcDbEntity
  8
0
  6
HIDDEN
100
AcDbCircle
 10
-270.7753676691616
 20
-34.98905727953252
 30
0.0
 40
0.25
100
AcDbArc
 50
90.0
 51
178.9999999999998
  0
LINE
  5
3E3
330
6B
100
AcDbEntity
  8
0
  6
HIDDEN
100
AcDbLine
 10
-264.1222110929507
 20
-16.3211166779232
 30
0.0
 11
-264.1222110929507
 21
-34.7390571779232
 31
0.0
  0
LINE
  5
3E4
330
6B
100
AcDbEntity
  8
0
  6
HIDDEN
100
AcDbLine
 10
-255.6222110929507
 20
-16.3211166779232
 30
0.0
 11
-255.6222110929507
 21
-34.7390571779232
 31
0.0
  0
LINE
  5
3E5
330
6B
100
AcDbEntity
  8
0
  6
HIDDEN
100
AcDbLine
 10
-270.7753676691616
 20
-34.73905727953253
 30
0.0
 11
-249.2195855456436
 21
-34.71851026529765
 31
0.0
  0
ARC
  5
3E6
330
6B
100
AcDbEntity
  8
0
  6
HIDDEN
100
AcDbCircle
 10
-249.2195855456436
 20
-34.96851026529765
 30
0.0
 40
0.25
100
AcDbArc
 50
1.000000000000147
 51
90.0
  0
LINE
  5
3E9
330
6B
100
AcDbEntity
  8
0
  6
HIDDEN
100
AcDbLine
 10
-255.6222110929507
 20
-16.3211166779232
 30
0.0
 11
-264.1222110929507
 21
-16.3211166779232
 31
0.0
  0
LINE
  5
3EA
330
6B
100
AcDbEntity
  8
0
  6
HIDDEN
100
AcDbLine
 10
-265.4361250929507
 20
-14.7390571779232
 30
0.0
 11
-264.1222110929507
 21
-16.3211166779232
 31
0.0
  0
LINE
  5
3EB
330
6B
100
AcDbEntity
  8
0
  6
HIDDEN
100
AcDbLine
 10
-254.3082975929507
 20
-14.7390571779232
 30
0.0
 11
-255.6222110929507
 21
-16.3211166779232
 31
0.0
  0
LINE
  5
3EC
330
6B
100
AcDbEntity
  8
0
 62
     3
100
AcDbLine
 10
-263.3722110929507
 20
-17.7390571779232
 30
0.0
 11
-273.8722110929507
 21
-17.73905717792319
 31
0.0
  0
LINE
  5
3EE
330
6B
100
AcDbEntity
  8
0
 62
     3
100
AcDbLine
 10
-273.6222110929507
 20
-55.7390571779232
 30
0.0
 11
-246.1222110929507
 21
-55.7390571779232
 31
0.0
  0
LINE
  5
3EF
330
6B
100
AcDbEntity
  8
0
 62
     3
100
AcDbLine
 10
-261.3722110929507
 20
-19.7390571779232
 30
0.0
 11
-261.3722110929507
 21
-30.7076841779232
 31
0.0
  0
LINE
  5
3F0
330
6B
100
AcDbEntity
  8
0
 62
     3
100
AcDbLine
 10
-258.3722110929507
 20
-19.7390571779232
 30
0.0
 11
-258.3722110929507
 21
-30.7076841779232
 31
0.0
  0
ARC
  5
3F1
330
6B
100
AcDbEntity
  8
0
 62
     3
100
AcDbCircle
 10
-256.3722110929507
 20
-30.7390571779232
 30
0.0
 40
2.0
100
AcDbArc
 50
180.0
 51
270.0
  0
ARC
  5
3F3
330
6B
100
AcDbEntity
  8
0
 62
     3
100
AcDbCircle
 10
-263.3722110929507
 20
-30.7390571779232
 30
0.0
 40
2.0
100
AcDbArc
 50
270.0
 51
0.0
  0
ARC
  5
3F4
330
6B
100
AcDbEntity
  8
0
 62
     3
100
AcDbCircle
 10
-263.3722110929507
 20
-19.7390571779232
 30
0.0
 40
2.0
100
AcDbArc
 50
0.0
 51
90.0
  0
LINE
  5
3F5
330
6B
100
AcDbEntity
  8
0
 62
     3
100
AcDbLine
 10
-256.3722110929507
 20
-17.7390571779232
 30
0.0
 11
-245.8722110929507
 21
-17.7390571779232
 31
0.0
  0
ARC
  5
3F6
330
6B
100
AcDbEntity
  8
0
 62
     3
100
AcDbCircle
 10
-256.3722110929507
 20
-19.7390571779232
 30
0.0
 40
2.0
100
AcDbArc
 50
90.0
 51
180.0
  0
LINE
  5
3F7
330
6B
100
AcDbEntity
  8
0
 62
     3
100
AcDbLine
 10
-263.3722110929507
 20
-17.7390571779232
 30
0.0
 11
-256.3722110929507
 21
-17.7390571779232
 31
0.0
  0
LINE
  5
3F8
330
6B
100
AcDbEntity
  8
0
 62
     3
100
AcDbLine
 10
-263.3722110929507
 20
-32.7076841779232
 30
0.0
 11
-256.3722110929507
 21
-32.7076841779232
 31
0.0
  0
LINE
  5
3F9
330
6B
100
AcDbEntity
  8
0
 62
     3
100
AcDbLine
 10
-272.6222110929507
 20
-34.72337066026808
 30
0.0
 11
-272.6222110929507
 21
-54.7390571779232
 31
0.0
  0
LINE
  5
3FA
330
6B
100
AcDbEntity
  8
0
 62
     3
100
AcDbLine
 10
-247.1222110929507
 20
-34.72337066026808
 30
0.0
 11
-247.1222110929507
 21
-54.7390571779232
 31
0.0
  0
LINE
  5
3FB
330
6B
100
AcDbEntity
  8
0
  6
HIDDEN
100
AcDbLine
 10
-271.0253295929507
 20
-34.9846941779232
 30
0.0
 11
-271.2722110929507
 21
-56.7390571779232
 31
0.0
  0
LINE
  5
3FC
330
6B
100
AcDbEntity
  8
0
  6
HIDDEN
100
AcDbLine
 10
-248.9690545929507
 20
-34.9890571779232
 30
0.0
 11
-248.4722110929507
 21
-56.7390571779232
 31
0.0
  0
TEXT
  5
401
330
6B
100
AcDbEntity
  8
0
 62
     3
100
AcDbText
 10
-197.3024184108482
 20
37.123316397141
 30
0.0
 40
3.2
  1
取　付　図
  7
高3.2
100
AcDbText
  0
LINE
  5
402
330
6B
100
AcDbEntity
  8
0
100
AcDbLine
 10
-197.4642474640792
 20
35.92899191936453
 30
0.0
 11
-178.832155254407
 21
35.92899191936453
 31
0.0
  0
LINE
  5
55C
330
6B
100
AcDbEntity
  8
0
 62
     3
100
AcDbLine
 10
-270.8722111005194
 20
-32.7390571779232
 30
0.0
 11
-248.872211085382
 21
-32.7390571779232
 31
0.0
  0
LINE
  5
56E
330
6B
100
AcDbEntity
  8
0
 62
     3
100
AcDbLine
 10
-339.4588128816703
 20
-6.065678910304882
 30
0.0
 11
-339.9467397116703
 21
-6.065678910304882
 31
0.0
  0
LINE
  5
56F
330
6B
100
AcDbEntity
  8
0
 62
     3
100
AcDbLine
 10
-327.9467397116702
 20
132.4343210896951
 30
0.0
 11
-327.9467397116702
 21
-144.5656789103049
 31
0.0
  0
LINE
  5
571
330
6B
100
AcDbEntity
  8
0
 62
     3
100
AcDbLine
 10
-147.9467397116702
 20
-144.5656789103049
 30
0.0
 11
-147.9467397116702
 21
132.4343210896951
 31
0.0
  0
LINE
  5
572
330
6B
100
AcDbEntity
  8
0
 62
     3
100
AcDbLine
 10
-327.9467397116702
 20
-144.5656789103049
 30
0.0
 11
-147.9467397116702
 21
-144.5656789103049
 31
0.0
  0
LINE
  5
573
330
6B
100
AcDbEntity
  8
0
 62
     3
100
AcDbLine
 10
-290.8623876916703
 20
134.2217651896951
 30
0.0
 11
-290.4266397816702
 21
133.9942970496951
 31
0.0
  0
LINE
  5
574
330
6B
100
AcDbEntity
  8
0
 62
     3
100
AcDbLine
 10
-290.8623876916703
 20
130.4911347096951
 30
0.0
 11
-290.4266397816702
 21
130.7186028496951
 31
0.0
  0
LINE
  5
575
330
6B
100
AcDbEntity
  8
0
 62
     3
100
AcDbLine
 10
-290.4266397816702
 20
133.9942970496951
 30
0.0
 11
-290.4266397816702
 21
130.7186028496951
 31
0.0
  0
LINE
  5
576
330
6B
100
AcDbEntity
  8
0
 62
     3
100
AcDbLine
 10
-289.3231223616703
 20
130.4911347096951
 30
0.0
 11
-289.7588702716703
 21
130.7186028496951
 31
0.0
  0
LINE
  5
577
330
6B
100
AcDbEntity
  8
0
 62
     3
100
AcDbLine
 10
-289.7588702716703
 20
132.715461659695
 30
0.0
 11
-289.7588702716703
 21
130.7186028496951
 31
0.0
  0
LINE
  5
578
330
6B
100
AcDbEntity
  8
0
 62
     3
100
AcDbLine
 10
-286.7812595816703
 20
134.2217651896951
 30
0.0
 11
-287.2170074916702
 21
133.9942970496951
 31
0.0
  0
LINE
  5
579
330
6B
100
AcDbEntity
  8
0
 62
     3
100
AcDbLine
 10
-288.3205249116703
 20
134.2217651896951
 30
0.0
 11
-287.8847770016703
 21
133.9942970496951
 31
0.0
  0
LINE
  5
57A
330
6B
100
AcDbEntity
  8
0
 62
     3
100
AcDbLine
 10
-287.8847770016703
 20
133.9942970496951
 30
0.0
 11
-287.8847770016703
 21
132.5519599896951
 31
0.0
  0
LINE
  5
57B
330
6B
100
AcDbEntity
  8
0
 62
     3
100
AcDbLine
 10
-287.2170074916702
 20
133.9942970496951
 30
0.0
 11
-287.2170074916702
 21
130.2795735696951
 31
0.0
  0
LINE
  5
57C
330
6B
100
AcDbEntity
  8
0
 62
     3
100
AcDbLine
 10
-286.5659623816703
 20
134.2217625596951
 30
0.0
 11
-286.1302160416702
 21
133.9942914196951
 31
0.0
  0
LINE
  5
57D
330
6B
100
AcDbEntity
  8
0
 62
     3
100
AcDbLine
 10
-286.5660403516703
 20
130.4911846896951
 30
0.0
 11
-286.1302845016702
 21
130.7186376096951
 31
0.0
  0
LINE
  5
57E
330
6B
100
AcDbEntity
  8
0
 62
     3
100
AcDbLine
 10
-286.1302160416702
 20
133.9942914196951
 30
0.0
 11
-286.1302160416702
 21
130.7186376096951
 31
0.0
  0
LINE
  5
57F
330
6B
100
AcDbEntity
  8
0
 62
     3
100
AcDbLine
 10
-284.6364259816702
 20
134.2217388896951
 30
0.0
 11
-285.0721770716702
 21
133.994276859695
 31
0.0
  0
LINE
  5
580
330
6B
100
AcDbEntity
  8
0
 62
     3
100
AcDbLine
 10
-285.0721770716702
 20
133.994276859695
 30
0.0
 11
-285.0721770716702
 21
130.7186230396951
 31
0.0
  0
LINE
  5
581
330
6B
100
AcDbEntity
  8
0
 62
     3
100
AcDbLine
 10
-284.6364259816702
 20
130.4911610096951
 30
0.0
 11
-285.0721770716702
 21
130.7186230396951
 31
0.0
  0
LINE
  5
582
330
6B
100
AcDbEntity
  8
0
 62
     3
100
AcDbLine
 10
-280.9461725416703
 20
134.2216978896951
 30
0.0
 11
-280.5104254216701
 21
133.9942282496951
 31
0.0
  0
LINE
  5
583
330
6B
100
AcDbEntity
  8
0
 62
     3
100
AcDbLine
 10
-280.5104254216701
 20
133.9942282496951
 30
0.0
 11
-280.5104825916702
 21
130.7185744396951
 31
0.0
  0
LINE
  5
584
330
6B
100
AcDbEntity
  8
0
 62
     3
100
AcDbLine
 10
-280.9462376516702
 20
130.4911200096951
 30
0.0
 11
-280.5104825916702
 21
130.7185744396951
 31
0.0
  0
LINE
  5
585
330
6B
100
AcDbEntity
  8
0
 62
     3
100
AcDbLine
 10
-278.9939115816702
 20
134.2216978896951
 30
0.0
 11
-279.4296587016703
 21
133.9942282496951
 31
0.0
  0
LINE
  5
586
330
6B
100
AcDbEntity
  8
0
 62
     3
100
AcDbLine
 10
-278.9938464716703
 20
130.4911200096951
 30
0.0
 11
-279.4296015316703
 21
130.7185744396951
 31
0.0
  0
LINE
  5
587
330
6B
100
AcDbEntity
  8
0
 62
     3
100
AcDbLine
 10
-278.7901837216702
 20
134.2216978896951
 30
0.0
 11
-278.3544365916703
 21
133.9942282496951
 31
0.0
  0
LINE
  5
588
330
6B
100
AcDbEntity
  8
0
 62
     3
100
AcDbLine
 10
-278.7902488316703
 20
130.4911200096951
 30
0.0
 11
-278.3544937716702
 21
130.7185744396951
 31
0.0
  0
LINE
  5
589
330
6B
100
AcDbEntity
  8
0
 62
     3
100
AcDbLine
 10
-276.8379227516703
 20
134.2216978896951
 30
0.0
 11
-277.2736698716702
 21
133.9942282496951
 31
0.0
  0
LINE
  5
58A
330
6B
100
AcDbEntity
  8
0
 62
     3
100
AcDbLine
 10
-277.2736698716702
 20
133.9942282496951
 30
0.0
 11
-277.2736127016703
 21
130.7185744396951
 31
0.0
  0
LINE
  5
58B
330
6B
100
AcDbEntity
  8
0
 62
     3
100
AcDbLine
 10
-276.8378576416702
 20
130.4911200096951
 30
0.0
 11
-277.2736127016703
 21
130.7185744396951
 31
0.0
  0
LINE
  5
58C
330
6B
100
AcDbEntity
  8
0
 62
     3
100
AcDbLine
 10
-278.3544615016702
 20
132.5670951296951
 30
0.0
 11
-279.4296337916702
 21
132.5670951296951
 31
0.0
  0
LINE
  5
58D
330
6B
100
AcDbEntity
  8
0
 62
     3
100
AcDbLine
 10
-278.3544688616703
 20
132.1458047696951
 30
0.0
 11
-279.4296264416703
 21
132.1458047696951
 31
0.0
  0
LINE
  5
58E
330
6B
100
AcDbEntity
  8
0
 62
     3
100
AcDbLine
 10
-278.3544365916703
 20
133.9942282496951
 30
0.0
 11
-278.3544615016702
 21
132.5670951296951
 31
0.0
  0
LINE
  5
58F
330
6B
100
AcDbEntity
  8
0
 62
     3
100
AcDbLine
 10
-278.3544688616703
 20
132.1458047696951
 30
0.0
 11
-278.3544937716702
 21
130.7185744396951
 31
0.0
  0
LINE
  5
590
330
6B
100
AcDbEntity
  8
0
 62
     3
100
AcDbLine
 10
-279.4296587016703
 20
133.9942282496951
 30
0.0
 11
-279.4296337916702
 21
132.5670951296951
 31
0.0
  0
LINE
  5
591
330
6B
100
AcDbEntity
  8
0
 62
     3
100
AcDbLine
 10
-279.4296264416703
 20
132.1458047696951
 30
0.0
 11
-279.4296015316703
 21
130.7185744396951
 31
0.0
  0
LINE
  5
592
330
6B
100
AcDbEntity
  8
0
 62
     3
100
AcDbLine
 10
-276.6309636316703
 20
134.2216978896951
 30
0.0
 11
-276.1952165116703
 21
133.9942282496951
 31
0.0
  0
LINE
  5
593
330
6B
100
AcDbEntity
  8
0
 62
     3
100
AcDbLine
 10
-276.1952165116703
 20
133.9942282496951
 30
0.0
 11
-276.1952736816703
 21
130.7185744396951
 31
0.0
  0
LINE
  5
594
330
6B
100
AcDbEntity
  8
0
 62
     3
100
AcDbLine
 10
-276.6310287416703
 20
130.4911200096951
 30
0.0
 11
-276.1952736816703
 21
130.7185744396951
 31
0.0
  0
LINE
  5
595
330
6B
100
AcDbEntity
  8
0
 62
     3
100
AcDbLine
 10
-274.7014533616702
 20
134.2216978896951
 30
0.0
 11
-275.1372004816702
 21
133.9942282496951
 31
0.0
  0
LINE
  5
596
330
6B
100
AcDbEntity
  8
0
 62
     3
100
AcDbLine
 10
-275.1372004816702
 20
133.9942282496951
 30
0.0
 11
-275.1371433116702
 21
130.7185744396951
 31
0.0
  0
LINE
  5
597
330
6B
100
AcDbEntity
  8
0
 62
     3
100
AcDbLine
 10
-274.7013882516702
 20
130.4911200096951
 30
0.0
 11
-275.1371433116702
 21
130.7185744396951
 31
0.0
  0
LINE
  5
598
330
6B
100
AcDbEntity
  8
0
 62
     3
100
AcDbLine
 10
-274.4870937916702
 20
134.2216978896951
 30
0.0
 11
-274.0513466716703
 21
133.9942282496951
 31
0.0
  0
LINE
  5
599
330
6B
100
AcDbEntity
  8
0
 62
     3
100
AcDbLine
 10
-274.0513466716703
 20
133.9942282496951
 30
0.0
 11
-274.0514038416703
 21
130.7185744396951
 31
0.0
  0
LINE
  5
59A
330
6B
100
AcDbEntity
  8
0
 62
     3
100
AcDbLine
 10
-274.4871589016702
 20
130.4911200096951
 30
0.0
 11
-274.0514038416703
 21
130.7185744396951
 31
0.0
  0
ARC
  5
59B
330
6B
100
AcDbEntity
  8
0
 62
     3
100
AcDbCircle
 10
-282.3380838116703
 20
132.3658397096951
 30
0.0
 40
2.086285909999999
100
AcDbArc
 50
97.70152350999723
 51
270.0
  0
ARC
  5
59C
330
6B
100
AcDbEntity
  8
0
 62
     3
100
AcDbCircle
 10
-269.4574829716703
 20
132.344883079695
 30
0.0
 40
2.108943379999999
100
AcDbArc
 50
0.314250269999277
 51
69.00558244999635
  0
ARC
  5
59D
330
6B
100
AcDbEntity
  8
0
 62
     3
100
AcDbCircle
 10
-268.9968076516703
 20
132.344883079695
 30
0.0
 40
2.108943379999999
100
AcDbArc
 50
110.9944175499969
 51
148.116611020001
  0
ARC
  5
59E
330
6B
100
AcDbEntity
  8
0
 62
     3
100
AcDbCircle
 10
-269.4574829716703
 20
132.3680168196951
 30
0.0
 40
2.108943379999999
100
AcDbArc
 50
290.9944175500036
 51
359.6857497300007
  0
ARC
  5
59F
330
6B
100
AcDbEntity
  8
0
 62
     3
100
AcDbCircle
 10
-268.9968076516703
 20
132.3680168196951
 30
0.0
 40
2.108943379999999
100
AcDbArc
 50
211.8833889799975
 51
249.0055824499964
  0
ARC
  5
5A0
330
6B
100
AcDbEntity
  8
0
 62
     3
100
AcDbCircle
 10
-269.2271453116703
 20
133.219255339695
 30
0.0
 40
1.214070989999998
100
AcDbArc
 50
64.36517189999993
 51
115.6348281
  0
ARC
  5
5A1
330
6B
100
AcDbEntity
  8
0
 62
     3
100
AcDbCircle
 10
-269.2271453116703
 20
131.4936445596951
 30
0.0
 40
1.214070989999998
100
AcDbArc
 50
244.3651718999999
 51
295.6348281
  0
ARC
  5
5A2
330
6B
100
AcDbEntity
  8
0
 62
     3
100
AcDbCircle
 10
-269.2271453116703
 20
133.2423170196951
 30
0.0
 40
0.59585563
100
AcDbArc
 50
19.48660554000177
 51
160.5133944599982
  0
ARC
  5
5A3
330
6B
100
AcDbEntity
  8
0
 62
     3
100
AcDbCircle
 10
-269.2271453116703
 20
131.4936445596951
 30
0.0
 40
1.214070989999998
100
AcDbArc
 50
244.3651718999999
 51
295.6348281
  0
ARC
  5
5A4
330
6B
100
AcDbEntity
  8
0
 62
     3
100
AcDbCircle
 10
-269.2271453116703
 20
131.4705828796951
 30
0.0
 40
0.59585563
100
AcDbArc
 50
199.4866055400017
 51
340.5133944599981
  0
ARC
  5
5A5
330
6B
100
AcDbEntity
  8
0
 62
     3
100
AcDbCircle
 10
-273.9696178116702
 20
110.1283901096951
 30
0.0
 40
26.04
100
AcDbArc
 50
69.50571480000154
 51
81.68998806999741
  0
ARC
  5
5A6
330
6B
100
AcDbEntity
  8
0
 62
     3
100
AcDbCircle
 10
-273.9696178116702
 20
154.5845097896951
 30
0.0
 40
26.04
100
AcDbArc
 50
278.3100119300026
 51
290.4942851999985
  0
ARC
  5
5A7
330
6B
100
AcDbEntity
  8
0
 62
     3
100
AcDbCircle
 10
-265.6614136816703
 20
132.3564499496951
 30
0.0
 40
2.31
100
AcDbArc
 50
290.4942851999985
 51
69.50571480000154
  0
ARC
  5
5A8
330
6B
100
AcDbEntity
  8
0
 62
     3
100
AcDbCircle
 10
-292.9614136816702
 20
132.3564499496951
 30
0.0
 40
2.31
100
AcDbArc
 50
110.4942851999985
 51
249.5057147999943
  0
ARC
  5
5A9
330
6B
100
AcDbEntity
  8
0
 62
     3
100
AcDbCircle
 10
-284.6532095616701
 20
110.1283901096951
 30
0.0
 40
26.04
100
AcDbArc
 50
98.31001192999615
 51
110.4942851999985
  0
ARC
  5
5AA
330
6B
100
AcDbEntity
  8
0
 62
     3
100
AcDbCircle
 10
-284.6532095616701
 20
154.5845097896951
 30
0.0
 40
26.04
100
AcDbArc
 50
249.5057147999943
 51
261.6899880699974
  0
ARC
  5
5AB
330
6B
100
AcDbEntity
  8
0
 62
     3
100
AcDbCircle
 10
-279.3114136816703
 20
73.55644994969513
 30
0.0
 40
62.99999987
100
AcDbArc
 50
81.68998806999741
 51
98.31001192999615
  0
ARC
  5
5AC
330
6B
100
AcDbEntity
  8
0
 62
     3
100
AcDbCircle
 10
-279.3114136816703
 20
191.1564499496951
 30
0.0
 40
62.99999987
100
AcDbArc
 50
261.6899880699974
 51
278.3100119300026
  0
ARC
  5
5AD
330
6B
100
AcDbEntity
  8
0
 62
     3
100
AcDbCircle
 10
-279.3114136816703
 20
73.55644994969513
 30
0.0
 40
62.36999987
100
AcDbArc
 50
81.68998806999741
 51
98.31001192999615
  0
ARC
  5
5AE
330
6B
100
AcDbEntity
  8
0
 62
     3
100
AcDbCircle
 10
-279.3114136816703
 20
191.1564499496951
 30
0.0
 40
62.36999987
100
AcDbArc
 50
261.6899880699974
 51
278.3100119300026
  0
ARC
  5
5AF
330
6B
100
AcDbEntity
  8
0
 62
     3
100
AcDbCircle
 10
-273.9696178116702
 20
154.5845097896951
 30
0.0
 40
25.41
100
AcDbArc
 50
278.3100119300026
 51
290.4942851999985
  0
ARC
  5
5B0
330
6B
100
AcDbEntity
  8
0
 62
     3
100
AcDbCircle
 10
-273.9696178116702
 20
110.1283901096951
 30
0.0
 40
25.41
100
AcDbArc
 50
69.50571480000154
 51
81.68998806999741
  0
ARC
  5
5B1
330
6B
100
AcDbEntity
  8
0
 62
     3
100
AcDbCircle
 10
-265.6614136816703
 20
132.3564499496951
 30
0.0
 40
1.679999999999999
100
AcDbArc
 50
290.4942851999985
 51
69.50571480000154
  0
ARC
  5
5B2
330
6B
100
AcDbEntity
  8
0
 62
     3
100
AcDbCircle
 10
-292.9614136816702
 20
132.3564499496951
 30
0.0
 40
1.679999999999999
100
AcDbArc
 50
110.4942851999985
 51
249.5057147999943
  0
ARC
  5
5B3
330
6B
100
AcDbEntity
  8
0
 62
     3
100
AcDbCircle
 10
-284.6532095616701
 20
110.1283901096951
 30
0.0
 40
25.41
100
AcDbArc
 50
98.31001192999615
 51
110.4942851999985
  0
ARC
  5
5B4
330
6B
100
AcDbEntity
  8
0
 62
     3
100
AcDbCircle
 10
-284.6532095616701
 20
154.5845097896951
 30
0.0
 40
25.41
100
AcDbArc
 50
249.5057147999943
 51
261.6899880699974
  0
LINE
  5
5B5
330
6B
100
AcDbEntity
  8
0
 62
     3
100
AcDbLine
 10
-274.7014525816702
 20
130.2795735696951
 30
0.0
 11
-276.6309644116703
 21
130.2795735696951
 31
0.0
  0
LINE
  5
5B6
330
6B
100
AcDbEntity
  8
0
 62
     3
100
AcDbLine
 10
-274.7014525816702
 20
130.4911347096951
 30
0.0
 11
-274.7014525816702
 21
130.2795735696951
 31
0.0
  0
LINE
  5
5B7
330
6B
100
AcDbEntity
  8
0
 62
     3
100
AcDbLine
 10
-276.8379219716702
 20
134.4332276096951
 30
0.0
 11
-278.7901845016703
 21
134.4332276096951
 31
0.0
  0
LINE
  5
5B8
330
6B
100
AcDbEntity
  8
0
 62
     3
100
AcDbLine
 10
-276.8379219716702
 20
134.4332276096951
 30
0.0
 11
-276.8379219716702
 21
134.2217651896951
 31
0.0
  0
LINE
  5
5B9
330
6B
100
AcDbEntity
  8
0
 62
     3
100
AcDbLine
 10
-276.8379219716702
 20
130.4911347096951
 30
0.0
 11
-276.8379219716702
 21
130.2794748596951
 31
0.0
  0
LINE
  5
5BA
330
6B
100
AcDbEntity
  8
0
 62
     3
100
AcDbLine
 10
-276.8379219716702
 20
130.2794748596951
 30
0.0
 11
-278.7901845016703
 21
130.2794748596951
 31
0.0
  0
LINE
  5
5BB
330
6B
100
AcDbEntity
  8
0
 62
     3
100
AcDbLine
 10
-274.7014525816702
 20
134.4333263296951
 30
0.0
 11
-274.7014525816702
 21
134.2217651896951
 31
0.0
  0
LINE
  5
5BC
330
6B
100
AcDbEntity
  8
0
 62
     3
100
AcDbLine
 10
-274.7014525816702
 20
134.4333263296951
 30
0.0
 11
-276.6309644116703
 21
134.4333263296951
 31
0.0
  0
LINE
  5
5BD
330
6B
100
AcDbEntity
  8
0
 62
     3
100
AcDbLine
 10
-276.6309644116703
 20
134.4333263296951
 30
0.0
 11
-276.6309644116703
 21
134.2217651896951
 31
0.0
  0
LINE
  5
5BE
330
6B
100
AcDbEntity
  8
0
 62
     3
100
AcDbLine
 10
-274.4870945816702
 20
130.4911347096951
 30
0.0
 11
-274.4870945816702
 21
130.2795735696951
 31
0.0
  0
LINE
  5
5BF
330
6B
100
AcDbEntity
  8
0
 62
     3
100
AcDbLine
 10
-272.5027940216703
 20
130.2795735696951
 30
0.0
 11
-274.4870945816702
 21
130.2795735696951
 31
0.0
  0
LINE
  5
5C0
330
6B
100
AcDbEntity
  8
0
 62
     3
100
AcDbLine
 10
-272.9933306516703
 20
133.7655568096951
 30
0.0
 11
-272.9933306516703
 21
130.9473430896951
 31
0.0
  0
LINE
  5
5C1
330
6B
100
AcDbEntity
  8
0
 62
     3
100
AcDbLine
 10
-272.9933306516703
 20
130.9473430896951
 30
0.0
 11
-272.8032816816702
 21
130.9473430896951
 31
0.0
  0
ARC
  5
5C2
330
6B
100
AcDbEntity
  8
0
 62
     3
100
AcDbCircle
 10
-273.7750674216703
 20
132.3564499496951
 30
0.0
 40
1.71170957
100
AcDbArc
 50
304.5919552700023
 51
55.4080447299977
  0
LINE
  5
5C3
330
6B
100
AcDbEntity
  8
0
 62
     3
100
AcDbLine
 10
-272.5027940216703
 20
134.4333263296951
 30
0.0
 11
-274.4870945816702
 21
134.4333263296951
 31
0.0
  0
LINE
  5
5C4
330
6B
100
AcDbEntity
  8
0
 62
     3
100
AcDbLine
 10
-274.4870945816702
 20
134.4333263296951
 30
0.0
 11
-274.4870945816702
 21
134.2217651896951
 31
0.0
  0
LINE
  5
5C5
330
6B
100
AcDbEntity
  8
0
 62
     3
100
AcDbLine
 10
-276.6309644116703
 20
130.4911347096951
 30
0.0
 11
-276.6309644116703
 21
130.2795735696951
 31
0.0
  0
LINE
  5
5C6
330
6B
100
AcDbEntity
  8
0
 62
     3
100
AcDbLine
 10
-272.9933306516703
 20
133.7655568096951
 30
0.0
 11
-272.8032816816702
 21
133.7655568096951
 31
0.0
  0
LINE
  5
5C7
330
6B
100
AcDbEntity
  8
0
 62
     3
100
AcDbLine
 10
-284.6364903116703
 20
130.4911347096951
 30
0.0
 11
-284.6364940016703
 21
130.2795537996951
 31
0.0
  0
LINE
  5
5C8
330
6B
100
AcDbEntity
  8
0
 62
     3
100
AcDbLine
 10
-286.5660058416703
 20
130.279593339695
 30
0.0
 11
-284.6364940016703
 21
130.2795596696951
 31
0.0
  0
LINE
  5
5C9
330
6B
100
AcDbEntity
  8
0
 62
     3
100
AcDbLine
 10
-290.8623876916703
 20
130.2795735696951
 30
0.0
 11
-289.3231223616703
 21
130.2795735696951
 31
0.0
  0
ARC
  5
5CA
330
6B
100
AcDbEntity
  8
0
 62
     3
100
AcDbCircle
 10
-295.8443303716702
 20
132.4053565696951
 30
0.0
 40
14.71356563
100
AcDbArc
 50
353.8660061900003
 51
357.69403426
  0
LINE
  5
5CB
330
6B
100
AcDbEntity
  8
0
 62
     3
100
AcDbLine
 10
-282.1277505116702
 20
131.8169889196951
 30
0.0
 11
-281.1426796216703
 21
131.8133440396951
 31
0.0
  0
LINE
  5
5CD
330
6B
100
AcDbEntity
  8
0
 62
     3
100
AcDbLine
 10
-282.1237720916703
 20
132.8922036596951
 30
0.0
 11
-281.1387012116703
 21
132.888558789695
 31
0.0
  0
ARC
  5
5CE
330
6B
100
AcDbEntity
  8
0
 62
     3
100
AcDbCircle
 10
-295.8443303716702
 20
132.4053565696951
 30
0.0
 40
14.71356563
100
AcDbArc
 50
1.881965739999678
 51
5.709993809999575
  0
LINE
  5
5CF
330
6B
100
AcDbEntity
  8
0
 62
     3
100
AcDbLine
 10
-284.6364215116703
 20
134.4333065596951
 30
0.0
 11
-284.6364252016702
 21
134.2217651896951
 31
0.0
  0
LINE
  5
5D0
330
6B
100
AcDbEntity
  8
0
 62
     3
100
AcDbLine
 10
-286.5659333416703
 20
134.4333460996951
 30
0.0
 11
-284.6364215116703
 21
134.4333124196951
 31
0.0
  0
LINE
  5
5D1
330
6B
100
AcDbEntity
  8
0
 62
     3
100
AcDbLine
 10
-286.5660021516702
 20
130.4911347096951
 30
0.0
 11
-286.5660058416703
 21
130.279593339695
 31
0.0
  0
LINE
  5
5D2
330
6B
100
AcDbEntity
  8
0
 62
     3
100
AcDbLine
 10
-286.5659333416703
 20
134.4333460996951
 30
0.0
 11
-286.5659370316702
 21
134.2217651896951
 31
0.0
  0
LINE
  5
5D3
330
6B
100
AcDbEntity
  8
0
 62
     3
100
AcDbLine
 10
-289.3231223616703
 20
130.4911347096951
 30
0.0
 11
-289.3231223616703
 21
130.2795735696951
 31
0.0
  0
LINE
  5
5D4
330
6B
100
AcDbEntity
  8
0
 62
     3
100
AcDbLine
 10
-289.7588702716703
 20
132.715461659695
 30
0.0
 11
-288.2364402116703
 21
130.2795735696951
 31
0.0
  0
LINE
  5
5D5
330
6B
100
AcDbEntity
  8
0
 62
     3
100
AcDbLine
 10
-288.2364402116703
 20
130.2795735696951
 30
0.0
 11
-287.2170074916702
 21
130.2795735696951
 31
0.0
  0
LINE
  5
5D6
330
6B
100
AcDbEntity
  8
0
 62
     3
100
AcDbLine
 10
-286.7812595816703
 20
134.4333263296951
 30
0.0
 11
-286.7812595816703
 21
134.2217651896951
 31
0.0
  0
LINE
  5
5D7
330
6B
100
AcDbEntity
  8
0
 62
     3
100
AcDbLine
 10
-288.3205249116703
 20
134.4333263296951
 30
0.0
 11
-286.7812595816703
 21
134.4333263296951
 31
0.0
  0
LINE
  5
5D8
330
6B
100
AcDbEntity
  8
0
 62
     3
100
AcDbLine
 10
-288.3205249116703
 20
134.4333263296951
 30
0.0
 11
-288.3205249116703
 21
134.2217651896951
 31
0.0
  0
LINE
  5
5D9
330
6B
100
AcDbEntity
  8
0
 62
     3
100
AcDbLine
 10
-287.8847770016703
 20
132.5519599896951
 30
0.0
 11
-289.1194236716702
 21
134.4333263296951
 31
0.0
  0
LINE
  5
5DA
330
6B
100
AcDbEntity
  8
0
 62
     3
100
AcDbLine
 10
-290.8623876916703
 20
134.4333263296951
 30
0.0
 11
-289.1194236716702
 21
134.4333263296951
 31
0.0
  0
LINE
  5
5DB
330
6B
100
AcDbEntity
  8
0
 62
     3
100
AcDbLine
 10
-280.9461733316703
 20
134.4332276096951
 30
0.0
 11
-278.9939107916703
 21
134.4332276096951
 31
0.0
  0
LINE
  5
5DC
330
6B
100
AcDbEntity
  8
0
 62
     3
100
AcDbLine
 10
-280.9461733316703
 20
134.2217651896951
 30
0.0
 11
-280.9461733316703
 21
134.4332276096951
 31
0.0
  0
LINE
  5
5DD
330
6B
100
AcDbEntity
  8
0
 62
     3
100
AcDbLine
 10
-280.9461733316703
 20
130.2794748596951
 30
0.0
 11
-280.9461733316703
 21
130.4911347096951
 31
0.0
  0
LINE
  5
5DE
330
6B
100
AcDbEntity
  8
0
 62
     3
100
AcDbLine
 10
-280.9461733316703
 20
130.2794748596951
 30
0.0
 11
-278.9939107916703
 21
130.2794748596951
 31
0.0
  0
LINE
  5
5DF
330
6B
100
AcDbEntity
  8
0
 62
     3
100
AcDbLine
 10
-278.7901845016703
 20
130.4911347096951
 30
0.0
 11
-278.7901845016703
 21
130.2794748596951
 31
0.0
  0
LINE
  5
5E0
330
6B
100
AcDbEntity
  8
0
 62
     3
100
AcDbLine
 10
-278.9939107916703
 20
130.4911347096951
 30
0.0
 11
-278.9939107916703
 21
130.2794748596951
 31
0.0
  0
LINE
  5
5E1
330
6B
100
AcDbEntity
  8
0
 62
     3
100
AcDbLine
 10
-278.9939107916703
 20
134.2217651896951
 30
0.0
 11
-278.9939107916703
 21
134.4332276096951
 31
0.0
  0
LINE
  5
5E2
330
6B
100
AcDbEntity
  8
0
 62
     3
100
AcDbLine
 10
-278.7901845016703
 20
134.2217651896951
 30
0.0
 11
-278.7901845016703
 21
134.4332276096951
 31
0.0
  0
LINE
  5
5E3
330
6B
100
AcDbEntity
  8
0
 62
     3
100
AcDbLine
 10
-290.8623876916703
 20
130.4911347096951
 30
0.0
 11
-290.8623876916703
 21
130.2795735696951
 31
0.0
  0
LINE
  5
5E4
330
6B
100
AcDbEntity
  8
0
 62
     3
100
AcDbLine
 10
-290.8623876916703
 20
134.4333263296951
 30
0.0
 11
-290.8623876916703
 21
134.2217651896951
 31
0.0
  0
ARC
  5
5E5
330
6B
100
AcDbEntity
  8
0
 62
     3
100
AcDbCircle
 10
-272.2927940216703
 20
132.792197859695
 30
0.0
 40
1.641128469999999
100
AcDbArc
 50
17.30874897999955
 51
23.76507095999876
  0
ARC
  5
5E6
330
6B
100
AcDbEntity
  8
0
 62
     3
100
AcDbCircle
 10
-273.6910674216702
 20
132.3564499496951
 30
0.0
 40
3.105725599999998
100
AcDbArc
 50
342.6912510199989
 51
17.30856644000181
  0
ARC
  5
5E7
330
6B
100
AcDbEntity
  8
0
 62
     3
100
AcDbCircle
 10
-272.2927940216703
 20
131.9207020496951
 30
0.0
 40
1.641128469999999
100
AcDbArc
 50
336.2349290399968
 51
342.6912510199989
  0
ARC
  5
5E8
330
6B
100
AcDbEntity
  8
0
 62
     3
100
AcDbCircle
 10
-272.5027940216703
 20
132.792197859695
 30
0.0
 40
1.641128469999999
100
AcDbArc
 50
17.30874897999955
 51
90.0
  0
ARC
  5
5E9
330
6B
100
AcDbEntity
  8
0
 62
     3
100
AcDbCircle
 10
-273.9010674216703
 20
132.3564499496951
 30
0.0
 40
3.105725599999998
100
AcDbArc
 50
342.6912510199989
 51
17.30856644000181
  0
ARC
  5
5EA
330
6B
100
AcDbEntity
  8
0
 62
     3
100
AcDbCircle
 10
-272.5027940216703
 20
131.9207020496951
 30
0.0
 40
1.641128469999999
100
AcDbArc
 50
270.0
 51
342.6912510199989
  0
ARC
  5
5EB
330
6B
100
AcDbEntity
  8
0
 62
     3
100
AcDbCircle
 10
-282.6267343916703
 20
132.3564499496951
 30
0.0
 40
2.076876379999998
100
AcDbArc
 50
46.75287961000178
 51
89.74999828999569
  0
ARC
  5
5EC
330
6B
100
AcDbEntity
  8
0
 62
     3
100
AcDbCircle
 10
-282.6267343916703
 20
132.3564499496951
 30
0.0
 40
2.076876379999998
100
AcDbArc
 50
273.9763331499971
 51
312.8231203899991
  0
ARC
  5
5ED
330
6B
100
AcDbEntity
  8
0
 62
     3
100
AcDbCircle
 10
-271.1849264516703
 20
132.3243884196951
 30
0.0
 40
2.755888999999998
100
AcDbArc
 50
0.6665840599998134
 51
23.90392827000101
  0
ARC
  5
5EE
330
6B
100
AcDbEntity
  8
0
 62
     3
100
AcDbCircle
 10
-267.2693641716702
 20
132.3243884196951
 30
0.0
 40
2.755888999999998
100
AcDbArc
 50
156.096071729999
 51
179.3334159400002
  0
ARC
  5
5EF
330
6B
100
AcDbEntity
  8
0
 62
     3
100
AcDbCircle
 10
-271.1849264516703
 20
132.3885114796951
 30
0.0
 40
2.755888999999998
100
AcDbArc
 50
336.096071729999
 51
359.3334159400002
  0
ARC
  5
5F0
330
6B
100
AcDbEntity
  8
0
 62
     3
100
AcDbCircle
 10
-267.2693641716702
 20
132.3885114796951
 30
0.0
 40
2.755888999999998
100
AcDbArc
 50
180.6665840599998
 51
203.903928270001
  0
LINE
  5
5F1
330
6B
100
AcDbEntity
  8
0
 62
     3
100
AcDbLine
 10
-262.6190770816703
 20
132.4343210896951
 30
0.0
 11
-147.9467397116702
 21
132.4343210896951
 31
0.0
  0
LINE
  5
5F3
330
6B
100
AcDbEntity
  8
0
 62
     3
100
AcDbLine
 10
-296.0318236016702
 20
132.4343210896951
 30
0.0
 11
-327.9467397116702
 21
132.4343210896951
 31
0.0
  0
LINE
  5
5F4
330
6B
100
AcDbEntity
  8
0
 62
     3
100
AcDbLine
 10
-199.9467397116703
 20
-144.5656789103049
 30
0.0
 11
-199.9467397116703
 21
-99.06567891030487
 31
0.0
  0
LINE
  5
5F5
330
6B
100
AcDbEntity
  8
0
 62
     3
100
AcDbLine
 10
-186.9467397116702
 20
-134.5656789103049
 30
0.0
 11
-186.9467397116702
 21
-106.5656789103049
 31
0.0
  0
LINE
  5
5F6
330
6B
100
AcDbEntity
  8
0
 62
     3
100
AcDbLine
 10
-226.9467397116703
 20
-134.5656789103049
 30
0.0
 11
-226.9467397116703
 21
-120.5656789103048
 31
0.0
  0
LINE
  5
5F7
330
6B
100
AcDbEntity
  8
0
 62
     3
100
AcDbLine
 10
-216.9467397116703
 20
-120.5656789103048
 30
0.0
 11
-216.9467397116703
 21
-144.5656789103049
 31
0.0
  0
LINE
  5
5F8
330
6B
100
AcDbEntity
  8
0
 62
     3
100
AcDbLine
 10
-245.9467397116703
 20
-104.5656789103049
 30
0.0
 11
-245.9467397116703
 21
-127.5656789103049
 31
0.0
  0
LINE
  5
5F9
330
6B
100
AcDbEntity
  8
0
 62
     3
100
AcDbLine
 10
-186.9467397116702
 20
-106.5656789103049
 30
0.0
 11
-186.9467397116702
 21
-104.5656789103049
 31
0.0
  0
LINE
  5
5FA
330
6B
100
AcDbEntity
  8
0
 62
     3
100
AcDbLine
 10
-173.9467397116702
 20
-127.5656789103049
 30
0.0
 11
-173.9467397116702
 21
-99.06567891030487
 31
0.0
  0
LINE
  5
5FB
330
6B
100
AcDbEntity
  8
0
 62
     3
100
AcDbLine
 10
-147.9467397116702
 20
-104.5656789103049
 30
0.0
 11
-259.1921743516701
 21
-104.5656789103048
 31
0.0
  0
LINE
  5
5FC
330
6B
100
AcDbEntity
  8
0
 62
     3
100
AcDbLine
 10
-147.9467397116702
 20
-113.5656789103049
 30
0.0
 11
-259.1921743516703
 21
-113.5656789103049
 31
0.0
  0
LINE
  5
5FD
330
6B
100
AcDbEntity
  8
0
 62
     3
100
AcDbLine
 10
-147.9467397116702
 20
-127.5656789103049
 30
0.0
 11
-259.1921743516703
 21
-127.5656789103049
 31
0.0
  0
LINE
  5
5FE
330
6B
100
AcDbEntity
  8
0
 62
     3
100
AcDbLine
 10
-147.9467397116702
 20
-134.5656789103049
 30
0.0
 11
-259.2501822116703
 21
-134.5656789103049
 31
0.0
  0
LINE
  5
5FF
330
6B
100
AcDbEntity
  8
0
 62
     3
100
AcDbLine
 10
-160.9467397116701
 20
-127.5656789103049
 30
0.0
 11
-160.9467397116701
 21
-104.5656789103049
 31
0.0
  0
LINE
  5
600
330
6B
100
AcDbEntity
  8
0
 62
     3
100
AcDbLine
 10
-259.1921743516703
 20
-104.5656789103048
 30
0.0
 11
-259.1921743516703
 21
-144.5656789103049
 31
0.0
  0
LINE
  5
601
330
6B
100
AcDbEntity
  8
0
 62
     3
100
AcDbLine
 10
-199.9467397116703
 20
-120.5656789103048
 30
0.0
 11
-259.1921743516703
 21
-120.5656789103049
 31
0.0
  0
LINE
  5
602
330
6B
100
AcDbEntity
  8
0
 62
     3
100
AcDbLine
 10
-216.6684147816703
 20
-139.7328176503049
 30
0.0
 11
-199.9467397116703
 21
-139.7328176503049
 31
0.0
  0
LINE
  5
603
330
6B
100
AcDbEntity
  8
0
 62
     3
100
AcDbLine
 10
-212.9467397116703
 20
-113.5656789103049
 30
0.0
 11
-204.9467397116703
 21
-113.5656789103049
 31
0.0
  0
TEXT
  5
604
330
6B
100
AcDbEntity
  8
0
 62
     3
100
AcDbText
 10
-215.7824142983545
 20
-125.4925820569395
 30
0.0
 40
2.5
  1
-
  7
高2.5
100
AcDbText
  0
TEXT
  5
605
330
6B
100
AcDbEntity
  8
0
 62
     3
100
AcDbText
 10
-244.7503710164181
 20
-125.2678645053209
 30
0.0
 40
2.5
  1
ADC
  7
高2.5
100
AcDbText
  0
TEXT
  5
606
330
6B
100
AcDbEntity
  8
0
 62
     3
100
AcDbText
 10
-244.4854632617206
 20
-112.253429386547
 30
0.0
 40
4.5
  1
投光器用アダプター
 41
0.8
  7
高4.5
100
AcDbText
1001
ACAD
1000
ACAD_MTEXT_DEFINED_HEIGHT_BEGIN
1070
    46
1040
0.0
1000
ACAD_MTEXT_DEFINED_HEIGHT_END
  0
TEXT
  5
607
330
6B
100
AcDbEntity
  8
0
 62
     3
100
AcDbText
 10
-157.8811506181962
 20
-108.0519868116013
 30
0.0
 40
2.0
  1
DEF
  7
高2
100
AcDbText
  0
TEXT
  5
608
330
6B
100
AcDbEntity
  8
0
 62
     3
100
AcDbText
 10
-171.8202489719044
 20
-108.0519868116013
 30
0.0
 40
2.0
  1
DESN
  7
高2
100
AcDbText
  0
TEXT
  5
609
330
6B
100
AcDbEntity
  8
0
 62
     3
100
AcDbText
 10
-198.0746159119046
 20
-108.0519868116013
 30
0.0
 40
2.0
  1
APPD
  7
高2
100
AcDbText
  0
TEXT
  5
60A
330
6B
100
AcDbEntity
  8
0
 62
     3
100
AcDbText
 10
-184.9618798116703
 20
-108.0519868116012
 30
0.0
 40
2.0
  1
CHCK
  7
高2
100
AcDbText
  0
TEXT
  5
60B
330
6B
100
AcDbEntity
  8
0
 62
     3
100
AcDbText
 10
-226.0195740725176
 20
-130.397280087074
 30
0.0
 40
2.0
  1
SCALE
 41
0.8
  7
高2
100
AcDbText
  0
TEXT
  5
60C
330
6B
100
AcDbEntity
  8
0
 62
     3
100
AcDbText
 10
-257.5075956486241
 20
-130.397280087074
 30
0.0
 40
2.0
  1
3AD　ANGLE
 41
1.5
  7
高2
100
AcDbText
  0
TEXT
  5
60D
330
6B
100
AcDbEntity
  8
0
 62
     3
100
AcDbText
 10
-226.7501683816688
 20
-123.645742018117
 30
0.0
 40
2.0
  1
REMARKS
 41
0.7
  7
高2
100
AcDbText
  0
TEXT
  5
60E
330
6B
100
AcDbEntity
  8
0
 62
     3
100
AcDbText
 10
-257.7245040016703
 20
-123.5656789103048
 30
0.0
 40
2.0
  1
MATERIAL
 41
0.7
  7
高2
100
AcDbText
  0
TEXT
  5
60F
330
6B
100
AcDbEntity
  8
0
 62
     3
100
AcDbText
 10
-257.1480167989161
 20
-116.5656789103049
 30
0.0
 40
2.0
  1
MODEL
  7
高2
100
AcDbText
  0
TEXT
  5
610
330
6B
100
AcDbEntity
  8
0
 62
     3
100
AcDbText
 10
-257.5110959175849
 20
-107.8586575597058
 30
0.0
 40
2.0
  1
CONPONENTS
 41
0.5
  7
高2
100
AcDbText
  0
TEXT
  5
611
330
6B
100
AcDbEntity
  8
0
 62
     3
100
AcDbText
 10
-244.8039804464181
 20
-119.4781977824929
 30
0.0
 40
4.5
  1
AT-01
  7
高4.5
100
AcDbText
  0
TEXT
  5
612
330
6B
100
AcDbEntity
  8
0
 62
     3
100
AcDbText
 10
-196.7314953071843
 20
-143.2663843411691
 30
0.0
 40
6.299999999999998
  1
AT-01
  7
高6.3
100
AcDbText
1001
ACAD
1000
ACAD_MTEXT_DEFINED_HEIGHT_BEGIN
1070
    46
1040
0.0
1000
ACAD_MTEXT_DEFINED_HEIGHT_END
  0
TEXT
  5
613
330
6B
100
AcDbEntity
  8
0
 62
     3
100
AcDbText
 10
-183.3832299613407
 20
-133.4647897520718
 30
0.0
 40
3.2
  1
2003.6.2
  7
高3.2
100
AcDbText
1001
ACAD
1000
ACAD_MTEXT_DEFINED_HEIGHT_BEGIN
1070
    46
1040
0.0
1000
ACAD_MTEXT_DEFINED_HEIGHT_END
  0
TEXT
  5
614
330
6B
100
AcDbEntity
  8
0
 62
     3
100
AcDbText
 10
-213.159141817024
 20
-133.464761907737
 30
0.0
 40
3.2
  1
1/1
  7
高3.2
100
AcDbText
  0
TEXT
  5
615
330
6B
100
AcDbEntity
  8
0
 62
     3
100
AcDbText
 10
-216.0818128416703
 20
-143.7488007371689
 30
0.0
 40
3.2
  1
ZK-A4Y
 41
0.8
  7
高3.2
100
AcDbText
  0
TEXT
  5
616
330
6B
100
AcDbEntity
  8
0
 62
     3
100
AcDbText
 10
-258.3614733116704
 20
-138.041058488117
 30
0.0
 40
2.0
  1
NICHIDO IND.CO.LTD
 41
1.3
  7
高2
100
AcDbText
  0
TEXT
  5
617
330
6B
100
AcDbEntity
  8
0
 62
     3
100
AcDbText
 10
-257.1799500467131
 20
-112.4251507024199
 30
0.0
 40
3.2
  1
品 名
  7
高3.2
100
AcDbText
1001
ACAD
1000
ACAD_MTEXT_DEFINED_HEIGHT_BEGIN
1070
    46
1040
0.0
1000
ACAD_MTEXT_DEFINED_HEIGHT_END
  0
TEXT
  5
618
330
6B
100
AcDbEntity
  8
0
 62
     3
100
AcDbText
 10
-257.1799500467131
 20
-120.0656789103049
 30
0.0
 40
3.2
  1
型 式
  7
高3.2
100
AcDbText
1001
ACAD
1000
ACAD_MTEXT_DEFINED_HEIGHT_BEGIN
1070
    46
1040
3.064735913775954
1000
ACAD_MTEXT_DEFINED_HEIGHT_END
  0
TEXT
  5
619
330
6B
100
AcDbEntity
  8
0
 62
     3
100
AcDbText
 10
-257.1799500467131
 20
-127.0656789103049
 30
0.0
 40
3.2
  1
材 質
  7
高3.2
100
AcDbText
1001
ACAD
1000
ACAD_MTEXT_DEFINED_HEIGHT_BEGIN
1070
    46
1040
0.0
1000
ACAD_MTEXT_DEFINED_HEIGHT_END
  0
TEXT
  5
61A
330
6B
100
AcDbEntity
  8
0
 62
     3
100
AcDbText
 10
-257.4849849967131
 20
-134.0982389180586
 30
0.0
 40
3.2
  1
第 三 角 法
  7
高3.2
100
AcDbText
1001
ACAD
1000
ACAD_MTEXT_DEFINED_HEIGHT_BEGIN
1070
    46
1040
0.0
1000
ACAD_MTEXT_DEFINED_HEIGHT_END
  0
TEXT
  5
61B
330
6B
100
AcDbEntity
  8
0
 62
     3
100
AcDbText
 10
-259.0784523891842
 20
-143.4251507024199
 30
0.0
 40
3.2
  1
日動工業株式会社
 41
1.199999999999999
  7
高3.2
100
AcDbText
1001
ACAD
1000
ACAD_MTEXT_DEFINED_HEIGHT_BEGIN
1070
    46
1040
0.0
1000
ACAD_MTEXT_DEFINED_HEIGHT_END
  0
TEXT
  5
61C
330
6B
100
AcDbEntity
  8
0
 62
     3
100
AcDbText
 10
-225.4428281897058
 20
-127.1811003771373
 30
0.0
 40
3.2
  1
備考
  7
高3.2
100
AcDbText
1001
ACAD
1000
ACAD_MTEXT_DEFINED_HEIGHT_BEGIN
1070
    46
1040
0.0
1000
ACAD_MTEXT_DEFINED_HEIGHT_END
  0
TEXT
  5
61D
330
6B
100
AcDbEntity
  8
0
 62
     3
100
AcDbText
 10
-215.7937707426703
 20
-138.4194488847346
 30
0.0
 40
2.5
  1
出図コード
  7
高2.5
100
AcDbText
1001
ACAD
1000
ACAD_MTEXT_DEFINED_HEIGHT_BEGIN
1070
    46
1040
0.0
1000
ACAD_MTEXT_DEFINED_HEIGHT_END
  0
TEXT
  5
61E
330
6B
100
AcDbEntity
  8
0
 62
     3
100
AcDbText
 10
-225.6015943077932
 20
-134.1124439998919
 30
0.0
 40
3.2
  1
尺度
  7
高3.2
100
AcDbText
1001
ACAD
1000
ACAD_MTEXT_DEFINED_HEIGHT_BEGIN
1070
    46
1040
0.0
1000
ACAD_MTEXT_DEFINED_HEIGHT_END
  0
TEXT
  5
61F
330
6B
100
AcDbEntity
  8
0
 62
     3
100
AcDbText
 10
-198.4553328260144
 20
-132.9809655517745
 30
0.0
 40
3.2
  1
作成日
  7
高3.2
100
AcDbText
1001
ACAD
1000
ACAD_MTEXT_DEFINED_HEIGHT_BEGIN
1070
    46
1040
0.0
1000
ACAD_MTEXT_DEFINED_HEIGHT_END
  0
TEXT
  5
620
330
6B
100
AcDbEntity
  8
0
 62
     3
100
AcDbText
 10
-198.5608588191503
 20
-112.4251507024199
 30
0.0
 40
3.2
  1
承 認
  7
高3.2
100
AcDbText
1001
ACAD
1000
ACAD_MTEXT_DEFINED_HEIGHT_BEGIN
1070
    46
1040
0.0
1000
ACAD_MTEXT_DEFINED_HEIGHT_END
  0
TEXT
  5
621
330
6B
100
AcDbEntity
  8
0
 62
     3
100
AcDbText
 10
-185.5608588191505
 20
-112.4251507024199
 30
0.0
 40
3.2
  1
検 図
  7
高3.2
100
AcDbText
1001
ACAD
1000
ACAD_MTEXT_DEFINED_HEIGHT_BEGIN
1070
    46
1040
0.0
1000
ACAD_MTEXT_DEFINED_HEIGHT_END
  0
TEXT
  5
622
330
6B
100
AcDbEntity
  8
0
 62
     3
100
AcDbText
 10
-172.5608588191505
 20
-112.4251507024199
 30
0.0
 40
3.2
  1
設 計
  7
高3.2
100
AcDbText
1001
ACAD
1000
ACAD_MTEXT_DEFINED_HEIGHT_BEGIN
1070
    46
1040
0.0
1000
ACAD_MTEXT_DEFINED_HEIGHT_END
  0
TEXT
  5
623
330
6B
100
AcDbEntity
  8
0
 62
     3
100
AcDbText
 10
-159.2602222991505
 20
-112.4251507024199
 30
0.0
 40
3.2
  1
製 図
  7
高3.2
100
AcDbText
1001
ACAD
1000
ACAD_MTEXT_DEFINED_HEIGHT_BEGIN
1070
    46
1040
0.0
1000
ACAD_MTEXT_DEFINED_HEIGHT_END
  0
TEXT
  5
624
330
6B
100
AcDbEntity
  8
0
 62
     3
100
AcDbText
 10
-160.4467397116702
 20
122.9343210896951
 30
0.0
 40
3.2
  1
担　当
  7
高3.2
100
AcDbText
  0
TEXT
  5
625
330
6B
100
AcDbEntity
  8
0
 62
     3
100
AcDbText
 10
-204.4467397116703
 20
122.9343210896951
 30
0.0
 40
3.2
  1
変更・追記内容
  7
高3.2
100
AcDbText
  0
TEXT
  5
626
330
6B
100
AcDbEntity
  8
0
 62
     3
100
AcDbText
 10
-229.333224711331
 20
118.2637825797868
 30
0.0
 40
2.0
  1
1
  7
高2
100
AcDbText
  0
TEXT
  5
627
330
6B
100
AcDbEntity
  8
0
 62
     3
100
AcDbText
 10
-229.6417361880883
 20
113.0939658675139
 30
0.0
 40
2.0
  1
2
  7
高2
100
AcDbText
  0
TEXT
  5
628
330
6B
100
AcDbEntity
  8
0
 62
     3
100
AcDbText
 10
-222.4467397116703
 20
122.9343210896951
 30
0.0
 40
3.2
  1
日　付
  7
高3.2
100
AcDbText
  0
TEXT
  5
629
330
6B
100
AcDbEntity
  8
0
 62
     3
100
AcDbText
 10
-222.4467397116703
 20
127.9343210896951
 30
0.0
 40
3.2
  1
図　　　　面　　　　略　　　　歴
  7
高3.2
100
AcDbText
  0
TEXT
  5
62A
330
6B
100
AcDbEntity
  8
0
 62
     3
100
AcDbText
 10
-232.4467397116702
 20
122.9343210896951
 30
0.0
 40
3.2
  1
記号
  7
高3.2
100
AcDbText
  0
LINE
  5
62B
330
6B
100
AcDbEntity
  8
0
100
AcDbLine
 10
-228.9467397116703
 20
116.2252170896952
 30
0.0
 11
-230.8467397116702
 21
112.9343210896951
 31
0.0
  0
LINE
  5
62C
330
6B
100
AcDbEntity
  8
0
100
AcDbLine
 10
-228.9467397116703
 20
116.2252170896952
 30
0.0
 11
-227.0467397116703
 21
112.9343210896951
 31
0.0
  0
LINE
  5
62D
330
6B
100
AcDbEntity
  8
0
100
AcDbLine
 10
-230.8467397116702
 20
112.9343210896951
 30
0.0
 11
-227.0467397116703
 21
112.9343210896951
 31
0.0
  0
LINE
  5
62E
330
6B
100
AcDbEntity
  8
0
100
AcDbLine
 10
-228.9467397116703
 20
121.2252180896952
 30
0.0
 11
-230.8467397116702
 21
117.9343210896951
 31
0.0
  0
LINE
  5
62F
330
6B
100
AcDbEntity
  8
0
100
AcDbLine
 10
-228.9467397116703
 20
121.2252180896952
 30
0.0
 11
-227.0467397116703
 21
117.9343210896951
 31
0.0
  0
LINE
  5
630
330
6B
100
AcDbEntity
  8
0
100
AcDbLine
 10
-230.8467397116702
 20
117.9343210896951
 30
0.0
 11
-227.0467397116703
 21
117.9343210896951
 31
0.0
  0
LINE
  5
631
330
6B
100
AcDbEntity
  8
0
 62
     3
100
AcDbLine
 10
-233.9467397116703
 20
127.4343210896951
 30
0.0
 11
-147.9467397116702
 21
127.4343210896951
 31
0.0
  0
LINE
  5
632
330
6B
100
AcDbEntity
  8
0
 62
     3
100
AcDbLine
 10
-233.9467397116703
 20
122.4343210896951
 30
0.0
 11
-147.9467397116702
 21
122.4343210896951
 31
0.0
  0
LINE
  5
633
330
6B
100
AcDbEntity
  8
0
 62
     7
100
AcDbLine
 10
-233.9467397116703
 20
117.4343210896951
 30
0.0
 11
-147.9467397116702
 21
117.4343210896951
 31
0.0
  0
LINE
  5
634
330
6B
100
AcDbEntity
  8
0
 62
     3
100
AcDbLine
 10
-233.9467397116703
 20
112.4343210896951
 30
0.0
 11
-147.9467397116702
 21
112.4343210896951
 31
0.0
  0
LINE
  5
635
330
6B
100
AcDbEntity
  8
0
 62
     7
100
AcDbLine
 10
-161.9467397116701
 20
112.4343210896951
 30
0.0
 11
-161.9467397116701
 21
127.4343210896951
 31
0.0
  0
LINE
  5
636
330
6B
100
AcDbEntity
  8
0
 62
     7
100
AcDbLine
 10
-205.9467397116703
 20
112.4343210896951
 30
0.0
 11
-205.9467397116703
 21
127.4343210896951
 31
0.0
  0
LINE
  5
637
330
6B
100
AcDbEntity
  8
0
 62
     7
100
AcDbLine
 10
-223.9467397116702
 20
112.4343210896951
 30
0.0
 11
-223.9467397116702
 21
127.4343210896951
 31
0.0
  0
LINE
  5
638
330
6B
100
AcDbEntity
  8
0
 62
     3
100
AcDbLine
 10
-233.9467397116703
 20
112.4343210896951
 30
0.0
 11
-233.9467397116703
 21
132.4343210896951
 31
0.0
  0
TEXT
  5
639
330
6B
100
AcDbEntity
  8
0
 62
     3
100
AcDbText
 10
-193.5850017116702
 20
-104.2873299103048
 30
0.0
 40
4.5
  1
コード
  7
高4.5
100
AcDbText
  0
LINE
  5
63A
330
6B
100
AcDbEntity
  8
0
 62
     3
100
AcDbLine
 10
-199.9467397116703
 20
-99.06567891030487
 30
0.0
 11
-147.9464797116702
 21
-99.06567891030487
 31
0.0
  0
TEXT
  5
63B
330
6B
100
AcDbEntity
  8
0
 62
     3
100
AcDbText
 10
-170.7653857116701
 20
-104.0521409103049
 30
0.0
 40
4.5
  1
29204
  7
高4.5
100
AcDbText
  0
TEXT
  5
63C
330
6B
100
AcDbEntity
  8
0
 62
     3
100
AcDbText
 10
-234.257591871801
 20
-93.12890521889915
 30
0.0
 40
4.5
  1
材質　アルミ合金ダイキャスト
  7
高4.5
100
AcDbText
  0
LINE
  5
63D
330
6B
100
AcDbEntity
  8
0
100
AcDbLine
 10
-234.3228625321192
 20
-94.23063537135442
 30
0.0
 11
-162.8228625321192
 21
-94.23063537135442
 31
0.0
  0
LINE
  5
806
330
6B
100
AcDbEntity
  8
0
  6
CENTER
100
AcDbLine
 10
-259.8722110929507
 20
-59.21261709779634
 30
0.0
 11
-259.8722110929507
 21
-12.96880525254892
 31
0.0
  0
LINE
  5
8F4
330
6B
100
AcDbEntity
  8
0
 62
     3
100
AcDbLine
 10
-251.8722125756162
 20
33.81622434235476
 30
0.0
 11
-251.8722125756162
 21
38.8162232992737
 31
0.0
  0
LINE
  5
8F5
330
6B
100
AcDbEntity
  8
0
 62
     3
100
AcDbLine
 10
-267.8722114729302
 20
38.8162232992737
 30
0.0
 11
-267.8722114729302
 21
33.81622434235476
 31
0.0
  0
LINE
  5
8F8
330
6B
100
AcDbEntity
  8
0
 62
     3
100
AcDbLine
 10
-252.5722113865035
 20
31.81622401452876
 30
0.0
 11
-252.5722113865035
 21
33.81622434235476
 31
0.0
  0
LINE
  5
8F9
330
6B
100
AcDbEntity
  8
0
 62
     3
100
AcDbLine
 10
-267.1722107993977
 20
33.81622434235476
 30
0.0
 11
-267.1722107993977
 21
31.81622401452876
 31
0.0
  0
LINE
  5
8FA
330
6B
100
AcDbEntity
  8
0
 62
     3
100
AcDbLine
 10
-252.1222112196106
 20
30.21622300721094
 30
0.0
 11
-252.1222112196106
 21
31.81622401452876
 31
0.0
  0
LINE
  5
8FB
330
6B
100
AcDbEntity
  8
0
 62
     3
100
AcDbLine
 10
-267.6222109662908
 20
31.81622401452876
 30
0.0
 11
-267.6222109662908
 21
30.21622300721094
 31
0.0
  0
LINE
  5
8FC
330
6B
100
AcDbEntity
  8
0
 62
     3
100
AcDbLine
 10
-263.7332612144368
 20
46.81622461057588
 30
0.0
 11
-256.0111628341096
 21
46.81622461057588
 31
0.0
  0
SPLINE
  5
8FD
330
6B
100
AcDbEntity
  8
0
 62
     3
100
AcDbSpline
210
0.0
220
0.0
230
1.0
 70
     8
 71
     3
 72
    14
 73
    10
 74
     0
 42
0.0000000001
 43
0.0000000001
 40
0.0
 40
0.0
 40
0.0
 40
0.0
 40
0.227525579317814
 40
0.4543482629175179
 40
0.6112158751336562
 40
0.7689666678165115
 40
0.8707702714778957
 40
0.9570715897677047
 40
1.0
 40
1.0
 40
1.0
 40
1.0
 10
-256.0111628341096
 20
46.81622461057588
 30
0.0
 10
-255.8250562822341
 20
46.81232081716086
 30
0.0
 10
-255.4534181182276
 20
46.80452529033675
 30
0.0
 10
-254.9581507953194
 20
46.71555598753468
 30
0.0
 10
-254.5403443625842
 20
46.56138697781273
 30
0.0
 10
-254.2492345027049
 20
46.36988492797979
 30
0.0
 10
-254.0678049136722
 20
46.14399163622067
 30
0.0
 10
-253.9962704416133
 20
45.96010430446074
 30
0.0
 10
-253.9903506840779
 20
45.85210014150573
 30
0.0
 10
-253.9883842187541
 20
45.81622258401774
 30
0.0
  0
SPLINE
  5
8FE
330
6B
100
AcDbEntity
  8
0
 62
     3
100
AcDbSpline
210
0.0
220
0.0
230
1.0
 70
     8
 71
     3
 72
    13
 73
     9
 74
     0
 42
0.0000000001
 43
0.0000000001
 40
0.0
 40
0.0
 40
0.0
 40
0.0
 40
0.0942409592276018
 40
0.1878457117342619
 40
0.3292765401620468
 40
0.5665851666547437
 40
0.7830188915988991
 40
1.0
 40
1.0
 40
1.0
 40
1.0
 10
-265.7560416924375
 20
45.81622258401774
 30
0.0
 10
-265.7465618179988
 20
45.89524962395069
 30
0.0
 10
-265.727666066346
 20
46.05277020400478
 30
0.0
 10
-265.5745821202186
 20
46.28794990442372
 30
0.0
 10
-265.2711342457201
 20
46.53893981151975
 30
0.0
 10
-264.807087770758
 20
46.7141386626987
 30
0.0
 10
-264.2651492258436
 20
46.80544107593767
 30
0.0
 10
-263.9107064333452
 20
46.81262707383178
 30
0.0
 10
-263.7332612144368
 20
46.81622461057588
 30
0.0
  0
LINE
  5
8FF
330
6B
100
AcDbEntity
  8
0
 62
     3
100
AcDbLine
 10
-267.8722114729302
 20
33.81622434235476
 30
0.0
 11
-251.8722125756162
 21
33.81622434235476
 31
0.0
  0
LINE
  5
900
330
6B
100
AcDbEntity
  8
0
 62
     3
100
AcDbLine
 10
-265.7560416924375
 20
45.81622258401774
 30
0.0
 11
-265.7560416924375
 21
38.8162232992737
 31
0.0
  0
LINE
  5
901
330
6B
100
AcDbEntity
  8
0
 62
     3
100
AcDbLine
 10
-253.9883842187541
 20
38.8162232992737
 30
0.0
 11
-253.9883842187541
 21
45.81622258401774
 31
0.0
  0
SPLINE
  5
902
330
6B
100
AcDbEntity
  8
0
 62
     3
100
AcDbSpline
210
0.0
220
0.0
230
1.0
 70
     8
 71
     3
 72
    10
 73
     6
 74
     0
 42
0.0000000001
 43
0.0000000001
 40
0.0
 40
0.0
 40
0.0
 40
0.0
 40
0.1735519513532988
 40
0.5809271048372128
 40
1.0
 40
1.0
 40
1.0
 40
1.0
 10
-260.9920547770876
 20
48.81309569455073
 30
0.0
 10
-260.8638587989392
 20
48.8137343798029
 30
0.0
 10
-260.4347508698335
 20
48.81587223865074
 30
0.0
 10
-259.6785617898655
 20
48.81701335810873
 30
0.0
 10
-259.0639996636221
 20
48.81441384710171
 30
0.0
 10
-258.7523692714589
 20
48.81309569455073
 30
0.0
  0
LINE
  5
903
330
6B
100
AcDbEntity
  8
0
 62
     3
100
AcDbLine
 10
-253.9883842187541
 20
38.8162232992737
 30
0.0
 11
-240.6696201729196
 21
38.8162232992737
 31
0.0
  0
ARC
  5
904
330
6B
100
AcDbEntity
  8
0
 62
     3
100
AcDbCircle
 10
-259.8722120391743
 20
-151.6837761285223
 30
0.0
 40
200.5000000000009
100
AcDbArc
 50
85.59957966625326
 51
89.67998732330585
  0
LINE
  5
905
330
6B
100
AcDbEntity
  8
0
 62
     3
100
AcDbLine
 10
-279.0748038756268
 20
38.8162232992737
 30
0.0
 11
-265.7560416924375
 21
38.8162232992737
 31
0.0
  0
ARC
  5
906
330
6B
100
AcDbEntity
  8
0
 62
     3
100
AcDbCircle
 10
-259.8722120391743
 20
-151.6837761285223
 30
0.0
 40
200.5000000000009
100
AcDbArc
 50
90.32001267669413
 51
94.40042033374835
  0
ARC
  5
909
330
6B
100
AcDbEntity
  8
0
 62
     3
100
AcDbCircle
 10
-244.8722120391745
 20
43.2399268939688
 30
0.0
 40
5.000000000000028
100
AcDbArc
 50
0.0
 51
85.59957966625326
  0
ARC
  5
90A
330
6B
100
AcDbEntity
  8
0
 62
     3
100
AcDbCircle
 10
-274.8722120391743
 20
43.2399268939688
 30
0.0
 40
5.000000000000028
100
AcDbArc
 50
94.40042033374835
 51
180.0
  0
LINE
  5
90B
330
6B
100
AcDbEntity
  8
0
 62
     3
100
AcDbLine
 10
-239.872212471308
 20
43.23992729760073
 30
0.0
 11
-239.872212471308
 21
38.8162232992737
 31
0.0
  0
LINE
  5
90C
330
6B
100
AcDbEntity
  8
0
 62
     3
100
AcDbLine
 10
-239.872212471308
 20
38.8162232992737
 30
0.0
 11
-240.6696201729196
 21
38.8162232992737
 31
0.0
  0
LINE
  5
90D
330
6B
100
AcDbEntity
  8
0
 62
     3
100
AcDbLine
 10
-279.8722134398836
 20
38.8162232992737
 30
0.0
 11
-279.8722134398836
 21
43.23992729760073
 31
0.0
  0
LINE
  5
90E
330
6B
100
AcDbEntity
  8
0
 62
     3
100
AcDbLine
 10
-279.0748038756268
 20
38.8162232992737
 30
0.0
 11
-279.8722134398836
 21
38.8162232992737
 31
0.0
  0
ELLIPSE
  5
90F
330
6B
100
AcDbEntity
  8
0
 62
     3
100
AcDbEllipse
 10
-259.8722120391743
 20
31.81622387147888
 30
0.0
 11
7.299969553063675
 21
29.19999952483434
 31
0.0
210
0.0
220
0.0
230
1.0
 40
0.0007220477807646
 41
1.502430020144504
 42
1.570976837988182
  0
ELLIPSE
  5
910
330
6B
100
AcDbEntity
  8
0
 62
     3
100
AcDbEllipse
 10
-259.8722120391743
 20
33.81622387147888
 30
0.0
 11
7.299969553063675
 21
29.19999952483434
 31
0.0
210
0.0
220
0.0
230
1.0
 40
0.0007220477807646
 41
1.570976837988182
 42
1.639523655831793
  0
ELLIPSE
  5
911
330
6B
100
AcDbEntity
  8
0
 62
     3
100
AcDbEllipse
 10
-259.8722120391743
 20
33.81622387147888
 30
0.0
 11
4.099982899570163
 21
16.39999973274311
 31
0.0
210
0.0
220
0.0
230
1.0
 40
0.0007220477807826
 41
1.570976837988186
 42
1.693232377028889
  0
LINE
  5
912
330
6B
100
AcDbEntity
  8
0
 62
     3
100
AcDbLine
 10
-259.8722138869184
 20
31.81622401452876
 30
0.0
 11
-252.1222112196106
 21
31.81622401452876
 31
0.0
  0
LINE
  5
913
330
6B
100
AcDbEntity
  8
0
 62
     3
100
AcDbLine
 10
-267.6222109662908
 20
31.81622401452876
 30
0.0
 11
-259.8722138869184
 21
31.81622401452876
 31
0.0
  0
LINE
  5
914
330
6B
100
AcDbEntity
  8
0
  6
Continuous
 62
     3
100
AcDbLine
 10
-267.6222109662908
 20
30.21622300721094
 30
0.0
 11
-252.1222112196106
 21
30.21622300721094
 31
0.0
  0
LINE
  5
916
330
6B
100
AcDbEntity
  8
0
 62
     3
100
AcDbLine
 10
-263.6222110929507
 20
13.81622434235476
 30
0.0
 11
-256.1222110929507
 21
13.81622434235476
 31
0.0
  0
LINE
  5
918
330
6B
100
AcDbEntity
  8
0
  6
Continuous
 62
     3
100
AcDbLine
 10
-264.8722110929507
 20
30.21622300721094
 30
0.0
 11
-264.8722110929507
 21
15.06622434235476
 31
0.0
  0
LINE
  5
919
330
6B
100
AcDbEntity
  8
0
  6
Continuous
 62
     3
100
AcDbLine
 10
-254.8722110929507
 20
30.21622300721094
 30
0.0
 11
-254.8722110929507
 21
15.06622434235476
 31
0.0
  0
LINE
  5
91A
330
6B
100
AcDbEntity
  8
0
  6
Continuous
 62
     3
100
AcDbLine
 10
-264.8722110929507
 20
15.06622434235476
 30
0.0
 11
-263.6222110929507
 21
13.81622434235476
 31
0.0
  0
LINE
  5
91B
330
6B
100
AcDbEntity
  8
0
  6
Continuous
 62
     3
100
AcDbLine
 10
-256.1222110929507
 20
13.81622434235476
 30
0.0
 11
-254.8722110929507
 21
15.06622434235476
 31
0.0
  0
LINE
  5
91C
330
6B
100
AcDbEntity
  8
0
  6
Continuous
100
AcDbLine
 10
-264.8722110929507
 20
15.06622434235476
 30
0.0
 11
-254.8722110929507
 21
15.06622434235476
 31
0.0
  0
LINE
  5
91D
330
6B
100
AcDbEntity
  8
0
  6
Continuous
100
AcDbLine
 10
-263.6222110929507
 20
13.81622434235476
 30
0.0
 11
-263.6222110929507
 21
30.21622300721094
 31
0.0
  0
LINE
  5
91E
330
6B
100
AcDbEntity
  8
0
  6
Continuous
100
AcDbLine
 10
-256.1222110929507
 20
13.81622434235476
 30
0.0
 11
-256.1222110929507
 21
30.21622300721094
 31
0.0
  0
LINE
  5
95D
330
6B
100
AcDbEntity
  8
0
  6
PHANTOM
 62
     7
100
AcDbLine
 10
-181.912089717939
 20
51.15151688982667
 30
0.0
 11
-181.912089717939
 21
53.15151688982666
 31
0.0
  0
ARC
  5
95E
330
6B
100
AcDbEntity
  8
0
  6
PHANTOM
 62
     7
100
AcDbCircle
 10
-183.412089717939
 20
53.15151688982666
 30
0.0
 40
1.5
100
AcDbArc
 50
0.0
 51
90.0
  0
LINE
  5
95F
330
6B
100
AcDbEntity
  8
0
  6
PHANTOM
 62
     7
100
AcDbLine
 10
-175.662089717939
 20
49.65151688982667
 30
0.0
 11
-180.412089717939
 21
49.65151688982667
 31
0.0
  0
ARC
  5
960
330
6B
100
AcDbEntity
  8
0
  6
PHANTOM
 62
     7
100
AcDbCircle
 10
-180.412089717939
 20
51.15151688982667
 30
0.0
 40
1.5
100
AcDbArc
 50
180.0
 51
270.0
  0
LINE
  5
966
330
6B
100
AcDbEntity
  8
0
  6
PHANTOM
 62
     7
100
AcDbLine
 10
-186.162089717939
 20
52.65151688982666
 30
0.0
 11
-185.912089717939
 21
52.40151688982667
 31
0.0
  0
LINE
  5
967
330
6B
100
AcDbEntity
  8
0
  6
PHANTOM
 62
     7
100
AcDbLine
 10
-191.412089717939
 20
52.40151688982667
 30
0.0
 11
-191.162089717939
 21
52.65151688982666
 31
0.0
  0
ARC
  5
968
330
6B
100
AcDbEntity
  8
0
  6
PHANTOM
 62
     7
100
AcDbCircle
 10
-175.662089717939
 20
45.40151688982667
 30
0.0
 40
4.25
100
AcDbArc
 50
0.0
 51
90.0
  0
LINE
  5
969
330
6B
100
AcDbEntity
  8
0
  6
PHANTOM
 62
     7
100
AcDbLine
 10
-203.912089717939
 20
48.90151688982661
 30
0.0
 11
-196.912089717939
 21
48.90151688982661
 31
0.0
  0
ARC
  5
96A
330
6B
100
AcDbEntity
  8
0
  6
PHANTOM
 62
     7
100
AcDbCircle
 10
-196.912089717939
 20
50.40151688982667
 30
0.0
 40
1.5
100
AcDbArc
 50
270.0
 51
0.0
  0
LINE
  5
96B
330
6B
100
AcDbEntity
  8
0
  6
PHANTOM
 62
     7
100
AcDbLine
 10
-195.412089717939
 20
50.40151688982667
 30
0.0
 11
-195.412089717939
 21
53.15151688982666
 31
0.0
  0
LINE
  5
96C
330
6B
100
AcDbEntity
  8
0
  6
PHANTOM
 62
     7
100
AcDbLine
 10
-193.912089717939
 20
54.65151688982667
 30
0.0
 11
-183.412089717939
 21
54.65151688982667
 31
0.0
  0
ARC
  5
96D
330
6B
100
AcDbEntity
  8
0
  6
PHANTOM
 62
     7
100
AcDbCircle
 10
-193.912089717939
 20
53.15151688982666
 30
0.0
 40
1.5
100
AcDbArc
 50
90.0
 51
180.0
  0
ARC
  5
96E
330
6B
100
AcDbEntity
  8
0
  6
PHANTOM
 62
     7
100
AcDbCircle
 10
-203.912089717939
 20
48.40151688982667
 30
0.0
 40
0.5
100
AcDbArc
 50
90.0
 51
180.0
  0
ARC
  5
96F
330
6B
100
AcDbEntity
  8
0
  6
PHANTOM
 62
     7
100
AcDbCircle
 10
-187.9013037179389
 20
66.05442738982668
 30
0.0
 40
11.4281925
100
AcDbArc
 50
287.7841579999996
 51
297.3259819999993
  0
ARC
  5
970
330
6B
100
AcDbEntity
  8
0
  6
PHANTOM
 62
     7
100
AcDbCircle
 10
-189.420787217939
 20
66.05442738982668
 30
0.0
 40
11.4281925
100
AcDbArc
 50
242.6740180000007
 51
255.9208439999997
  0
LINE
  5
971
330
6B
100
AcDbEntity
  8
0
  6
PHANTOM
 62
     7
100
AcDbLine
 10
-193.1610452179389
 20
47.40151688982666
 30
0.0
 11
-193.1610452179389
 21
52.40151688982667
 31
0.0
  0
LINE
  5
972
330
6B
100
AcDbEntity
  8
0
  6
PHANTOM
 62
     7
100
AcDbLine
 10
-193.1610452179389
 20
52.40151688982667
 30
0.0
 11
-184.161045217939
 21
52.40151688982667
 31
0.0
  0
LINE
  5
973
330
6B
100
AcDbEntity
  8
0
  6
PHANTOM
 62
     7
100
AcDbLine
 10
-204.412089717939
 20
45.40151688982667
 30
0.0
 11
-196.625147217939
 21
45.40151688982667
 31
0.0
  0
ARC
  5
974
330
6B
100
AcDbEntity
  8
0
  6
PHANTOM
 62
     7
100
AcDbCircle
 10
-198.6620897179389
 20
59.76758488982667
 30
0.0
 40
4.0
100
AcDbArc
 50
278.7529290000002
 51
0.0
  0
LINE
  5
975
330
6B
100
AcDbEntity
  8
0
  6
PHANTOM
 62
     7
100
AcDbLine
 10
-194.662089717939
 20
55.90151688982667
 30
0.0
 11
-194.662089717939
 21
60.40151688982667
 31
0.0
  0
LINE
  5
976
330
6B
100
AcDbEntity
  8
0
 62
     3
100
AcDbLine
 10
-194.662089717939
 20
60.40151688982667
 30
0.0
 11
-182.630716717939
 21
60.40151688982667
 31
0.0
  0
LINE
  5
977
330
6B
100
AcDbEntity
  8
0
  6
PHANTOM
 62
     7
100
AcDbLine
 10
-182.655163717939
 20
55.90151688982667
 30
0.0
 11
-182.655163717939
 21
60.40151688982667
 31
0.0
  0
ARC
  5
978
330
6B
100
AcDbEntity
  8
0
  6
PHANTOM
 62
     7
100
AcDbCircle
 10
-178.662089717939
 20
59.90151688982667
 30
0.0
 40
4.0
100
AcDbArc
 50
176.6277129999986
 51
270.0
  0
LINE
  5
979
330
6B
100
AcDbEntity
  8
0
  6
PHANTOM
 62
     7
100
AcDbLine
 10
-178.662089717939
 20
55.90151688982667
 30
0.0
 11
-175.912089717939
 21
55.90151688982667
 31
0.0
  0
LINE
  5
97A
330
6B
100
AcDbEntity
  8
0
  6
PHANTOM
 62
     7
100
AcDbLine
 10
-184.161045217939
 20
47.40151688982666
 30
0.0
 11
-180.696943717939
 21
45.40151688982667
 31
0.0
  0
LINE
  5
97B
330
6B
100
AcDbEntity
  8
0
  6
PHANTOM
 62
     7
100
AcDbLine
 10
-184.161045217939
 20
47.40151688982666
 30
0.0
 11
-184.161045217939
 21
52.40151688982667
 31
0.0
  0
ARC
  5
97C
330
6B
100
AcDbEntity
  8
0
  6
PHANTOM
 62
     7
100
AcDbCircle
 10
-176.412089717939
 20
45.15151688982666
 30
0.0
 40
2.0
100
AcDbArc
 50
0.0
 51
90.0
  0
ARC
  5
97D
330
6B
100
AcDbEntity
  8
0
  6
PHANTOM
 62
     7
100
AcDbCircle
 10
-176.412089717939
 20
45.40151688982667
 30
0.0
 40
1.75
100
AcDbArc
 50
90.0
 51
180.0
  0
LINE
  5
97E
330
6B
100
AcDbEntity
  8
0
  6
PHANTOM
 62
     7
100
AcDbLine
 10
-180.696943717939
 20
45.40151688982667
 30
0.0
 11
-178.162089717939
 21
45.40151688982667
 31
0.0
  0
ARC
  5
97F
330
6B
100
AcDbEntity
  8
0
  6
PHANTOM
 62
     7
100
AcDbCircle
 10
-175.912089717939
 20
43.40151688982667
 30
0.0
 40
12.5
100
AcDbArc
 50
0.0
 51
90.0
  0
ARC
  5
980
330
6B
100
AcDbEntity
  8
0
  6
PHANTOM
 62
     7
100
AcDbCircle
 10
-196.912089717939
 20
48.40151688982667
 30
0.0
 40
7.5
100
AcDbArc
 50
98.75292900000021
 51
176.1774460000006
  0
ARC
  5
981
330
6B
100
AcDbEntity
  8
0
  6
PHANTOM
 62
     7
100
AcDbCircle
 10
-196.912089717939
 20
48.40151688982667
 30
0.0
 40
7.5
100
AcDbArc
 50
176.1774460000006
 51
180.0
  0
LINE
  5
982
330
6B
100
AcDbEntity
  8
0
  6
PHANTOM
 62
     7
100
AcDbLine
 10
-204.412089717939
 20
48.40151688982667
 30
0.0
 11
-204.412089717939
 21
45.40151688982667
 31
0.0
  0
LINE
  5
983
330
6B
100
AcDbEntity
  8
0
  6
PHANTOM
 62
     7
100
AcDbLine
 10
-196.625147217939
 20
45.40151688982667
 30
0.0
 11
-193.1610452179389
 21
47.40151688982666
 31
0.0
  0
LINE
  5
984
330
6B
100
AcDbEntity
  8
0
  6
PHANTOM
 62
     7
100
AcDbLine
 10
-183.912089717939
 20
69.40151688982666
 30
0.0
 11
-193.412089717939
 21
69.40151688982666
 31
0.0
  0
LINE
  5
985
330
6B
100
AcDbEntity
  8
0
  6
PHANTOM
 62
     7
100
AcDbLine
 10
-193.412089717939
 20
69.40151688982666
 30
0.0
 11
-193.412089717939
 21
67.40151688982667
 31
0.0
  0
LINE
  5
986
330
6B
100
AcDbEntity
  8
0
  6
PHANTOM
 62
     7
100
AcDbLine
 10
-183.912089717939
 20
67.40151688982667
 30
0.0
 11
-193.412089717939
 21
67.40151688982667
 31
0.0
  0
LINE
  5
987
330
6B
100
AcDbEntity
  8
0
  6
PHANTOM
 62
     7
100
AcDbLine
 10
-192.912089717939
 20
67.40151688982667
 30
0.0
 11
-192.912089717939
 21
62.40151688982667
 31
0.0
  0
LINE
  5
988
330
6B
100
AcDbEntity
  8
0
  6
PHANTOM
 62
     7
100
AcDbLine
 10
-184.412089717939
 20
67.40151688982667
 30
0.0
 11
-184.412089717939
 21
62.40151688982667
 31
0.0
  0
LINE
  5
989
330
6B
100
AcDbEntity
  8
0
  6
PHANTOM
 62
     7
100
AcDbLine
 10
-193.412089717939
 20
62.40151688982667
 30
0.0
 11
-183.912089717939
 21
62.40151688982667
 31
0.0
  0
LINE
  5
98A
330
6B
100
AcDbEntity
  8
0
  6
PHANTOM
 62
     7
100
AcDbLine
 10
-183.912089717939
 20
62.40151688982667
 30
0.0
 11
-183.912089717939
 21
60.40151688982667
 31
0.0
  0
LINE
  5
98B
330
6B
100
AcDbEntity
  8
0
  6
PHANTOM
 62
     7
100
AcDbLine
 10
-193.412089717939
 20
62.40151688982667
 30
0.0
 11
-193.412089717939
 21
60.40151688982667
 31
0.0
  0
LINE
  5
98C
330
6B
100
AcDbEntity
  8
0
  6
PHANTOM
 62
     7
100
AcDbLine
 10
-183.912089717939
 20
69.40151688982666
 30
0.0
 11
-183.912089717939
 21
67.40151688982667
 31
0.0
  0
LINE
  5
A18
330
6B
100
AcDbEntity
  8
0
  6
Continuous
 62
     3
100
AcDbLine
 10
-171.912089717939
 20
55.40151688982667
 30
0.0
 11
-171.912089717939
 21
73.40151688982667
 31
0.0
  0
LINE
  5
A1B
330
6B
100
AcDbEntity
  8
0
  6
Continuous
 62
     3
100
AcDbLine
 10
-176.912089717939
 20
61.15151688982667
 30
0.0
 11
-176.912089717939
 21
67.65151688982666
 31
0.0
  0
LINE
  5
A1C
330
6B
100
AcDbEntity
  8
0
  6
Continuous
 62
     3
100
AcDbLine
 10
-171.912089717939
 20
67.65151688982666
 30
0.0
 11
-176.912089717939
 21
67.65151688982666
 31
0.0
  0
LINE
  5
A1D
330
6B
100
AcDbEntity
  8
0
  6
Continuous
 62
     3
100
AcDbLine
 10
-171.912089717939
 20
61.15151688982667
 30
0.0
 11
-176.912089717939
 21
61.15151688982667
 31
0.0
  0
LINE
  5
A1E
330
6B
100
AcDbEntity
  8
0
  6
Continuous
 62
     3
100
AcDbLine
 10
-177.412089717939
 20
67.07651688982666
 30
0.0
 11
-176.912089717939
 21
67.07651688982666
 31
0.0
  0
LINE
  5
A1F
330
6B
100
AcDbEntity
  8
0
  6
Continuous
 62
     3
100
AcDbLine
 10
-177.412089717939
 20
61.72651688982667
 30
0.0
 11
-176.912089717939
 21
61.72651688982667
 31
0.0
  0
LINE
  5
A20
330
6B
100
AcDbEntity
  8
0
  6
Continuous
 62
     3
100
AcDbLine
 10
-177.412089717939
 20
67.07651688982666
 30
0.0
 11
-177.412089717939
 21
61.72651688982667
 31
0.0
  0
LINE
  5
A25
330
6B
100
AcDbEntity
  8
0
  6
Continuous
 62
     3
100
AcDbLine
 10
-171.912089717939
 20
73.40151688982667
 30
0.0
 11
-168.412089717939
 21
72.90151688982667
 31
0.0
  0
LINE
  5
A26
330
6B
100
AcDbEntity
  8
0
  6
Continuous
 62
     3
100
AcDbLine
 10
-171.912089717939
 20
55.40151688982667
 30
0.0
 11
-168.412089717939
 21
55.90151688982667
 31
0.0
  0
ARC
  5
A27
330
6B
100
AcDbEntity
  8
0
  6
Continuous
 62
     3
100
AcDbCircle
 10
-204.037089717939
 20
64.40151688982666
 30
0.0
 40
36.62500000000001
100
AcDbArc
 50
346.5803263844861
 51
13.41967361551354
  0
LINE
  5
A28
330
6B
100
AcDbEntity
  8
0
  6
Continuous
 62
     3
100
AcDbLine
 10
-179.521403217939
 20
65.90151688982667
 30
0.0
 11
-177.412089717939
 21
65.90151688982667
 31
0.0
  0
LINE
  5
A29
330
6B
100
AcDbEntity
  8
0
  6
Continuous
 62
     3
100
AcDbLine
 10
-179.521403217939
 20
62.90151688982667
 30
0.0
 11
-177.412089717939
 21
62.90151688982667
 31
0.0
  0
LINE
  5
A2B
330
6B
100
AcDbEntity
  8
0
  6
Continuous
100
AcDbLine
 10
-179.521403217939
 20
65.45151688982667
 30
0.0
 11
-177.412089717939
 21
65.45151688982667
 31
0.0
  0
LINE
  5
A2C
330
6B
100
AcDbEntity
  8
0
  6
Continuous
100
AcDbLine
 10
-179.521403217939
 20
63.35151688982667
 30
0.0
 11
-177.412089717939
 21
63.35151688982667
 31
0.0
  0
LINE
  5
A32
330
6B
100
AcDbEntity
  8
0
  6
HIDDEN
100
AcDbLine
 10
-248.7006448860541
 20
-46.7390571779232
 30
0.0
 11
-241.6222110929507
 21
-46.7390571779232
 31
0.0
  0
LINE
  5
A33
330
6B
100
AcDbEntity
  8
0
  6
HIDDEN
100
AcDbLine
 10
-248.5635846101921
 20
-52.7390571779232
 30
0.0
 11
-241.6222110929507
 21
-52.7390571779232
 31
0.0
  0
LINE
  5
A3B
330
6B
100
AcDbEntity
  8
0
  6
PHANTOM
 62
     7
100
AcDbLine
 10
-220.0068980151787
 20
81.90151688982666
 30
0.0
 11
-157.2859084206993
 21
81.90151688982666
 31
0.0
  0
LINE
  5
A3C
330
6B
100
AcDbEntity
  8
0
  6
PHANTOM
 62
     7
100
AcDbLine
 10
-220.0068980151787
 20
83.40151688982667
 30
0.0
 11
-157.2859084206993
 21
83.40151688982667
 31
0.0
  0
LINE
  5
A3D
330
6B
100
AcDbEntity
  8
0
 62
     3
100
AcDbLine
 10
-184.6464039592717
 20
85.20151755739858
 30
0.0
 11
-184.6464039592717
 21
87.70151703585804
 31
0.0
  0
LINE
  5
A3E
330
6B
100
AcDbEntity
  8
0
 62
     3
100
AcDbLine
 10
-192.6464034079287
 20
87.70151703585804
 30
0.0
 11
-192.6464034079287
 21
85.20151755739858
 31
0.0
  0
LINE
  5
A3F
330
6B
100
AcDbEntity
  8
0
 62
     3
100
AcDbLine
 10
-184.9964033647154
 20
84.20151739348558
 30
0.0
 11
-184.9964033647154
 21
85.20151755739858
 31
0.0
  0
LINE
  5
A40
330
6B
100
AcDbEntity
  8
0
 62
     3
100
AcDbLine
 10
-192.2964030711624
 20
85.20151755739858
 30
0.0
 11
-192.2964030711624
 21
84.20151739348558
 31
0.0
  0
LINE
  5
A41
330
6B
100
AcDbEntity
  8
0
 62
     3
100
AcDbLine
 10
-184.7714032812689
 20
83.40151688982667
 30
0.0
 11
-184.7714032812689
 21
84.20151739348558
 31
0.0
  0
LINE
  5
A42
330
6B
100
AcDbEntity
  8
0
 62
     3
100
AcDbLine
 10
-192.521403154609
 20
84.20151739348558
 30
0.0
 11
-192.521403154609
 21
83.40151688982667
 31
0.0
  0
LINE
  5
A43
330
6B
100
AcDbEntity
  8
0
 62
     3
100
AcDbLine
 10
-190.576928278682
 20
91.70151769150914
 30
0.0
 11
-186.7158790885184
 21
91.70151769150914
 31
0.0
  0
SPLINE
  5
A44
330
6B
100
AcDbEntity
  8
0
 62
     3
100
AcDbSpline
210
0.0
220
0.0
230
1.0
 70
     8
 71
     3
 72
    14
 73
    10
 74
     0
 42
0.0000000001
 43
0.0000000001
 40
0.0
 40
0.0
 40
0.0
 40
0.0
 40
0.227525579317814
 40
0.4543482629175179
 40
0.6112158751336562
 40
0.7689666678165115
 40
0.8707702714778957
 40
0.9570715897677047
 40
1.0
 40
1.0
 40
1.0
 40
1.0
 10
-186.7158790885184
 20
91.70151769150914
 30
0.0
 10
-186.6228258125807
 20
91.69956579480162
 30
0.0
 10
-186.4370067305774
 20
91.69566803138957
 30
0.0
 10
-186.1893730691233
 20
91.65118337998853
 30
0.0
 10
-185.9804698527557
 20
91.57409887512756
 30
0.0
 10
-185.8349149228161
 20
91.47834785021109
 30
0.0
 10
-185.7442001282997
 20
91.36540120433153
 30
0.0
 10
-185.7084328922702
 20
91.27345753845157
 30
0.0
 10
-185.7054730135025
 20
91.21945545697405
 30
0.0
 10
-185.7044897808407
 20
91.20151667823007
 30
0.0
  0
SPLINE
  5
A45
330
6B
100
AcDbEntity
  8
0
 62
     3
100
AcDbSpline
210
0.0
220
0.0
230
1.0
 70
     8
 71
     3
 72
    13
 73
     9
 74
     0
 42
0.0000000001
 43
0.0000000001
 40
0.0
 40
0.0
 40
0.0
 40
0.0
 40
0.0942409592276018
 40
0.1878457117342619
 40
0.3292765401620468
 40
0.5665851666547437
 40
0.7830188915988991
 40
1.0
 40
1.0
 40
1.0
 40
1.0
 10
-191.5883185176824
 20
91.20151667823007
 30
0.0
 10
-191.583578580463
 20
91.24103019819655
 30
0.0
 10
-191.5741307046366
 20
91.31979048822358
 30
0.0
 10
-191.4975887315729
 20
91.43738033843305
 30
0.0
 10
-191.3458647943237
 20
91.56287529198108
 30
0.0
 10
-191.1138415568426
 20
91.65047471757054
 30
0.0
 10
-190.8428722843854
 20
91.69612592419003
 30
0.0
 10
-190.6656508881362
 20
91.69971892313709
 30
0.0
 10
-190.576928278682
 20
91.70151769150914
 30
0.0
  0
LINE
  5
A46
330
6B
100
AcDbEntity
  8
0
 62
     3
100
AcDbLine
 10
-192.6464034079287
 20
85.20151755739858
 30
0.0
 11
-184.6464039592717
 21
85.20151755739858
 31
0.0
  0
LINE
  5
A49
330
6B
100
AcDbEntity
  8
0
 62
     3
100
AcDbLine
 10
-191.5883185176824
 20
91.20151667823007
 30
0.0
 11
-191.5883185176824
 21
87.70151703585804
 31
0.0
  0
LINE
  5
A4A
330
6B
100
AcDbEntity
  8
0
 62
     3
100
AcDbLine
 10
-185.7044897808407
 20
87.70151703585804
 30
0.0
 11
-185.7044897808407
 21
91.20151667823007
 31
0.0
  0
SPLINE
  5
A4B
330
6B
100
AcDbEntity
  8
0
 62
     3
100
AcDbSpline
210
0.0
220
0.0
230
1.0
 70
     8
 71
     3
 72
    10
 73
     6
 74
     0
 42
0.0000000001
 43
0.0000000001
 40
0.0
 40
0.0
 40
0.0
 40
0.0
 40
0.1735519513532988
 40
0.5809271048372128
 40
1.0
 40
1.0
 40
1.0
 40
1.0
 10
-189.2063250600074
 20
92.69995323349656
 30
0.0
 10
-189.1422270709332
 20
92.70027257612264
 30
0.0
 10
-188.9276731063804
 20
92.70134150554657
 30
0.0
 10
-188.5495785663963
 20
92.70191206527556
 30
0.0
 10
-188.2422975032746
 20
92.70061230977205
 30
0.0
 10
-188.0864823071931
 20
92.69995323349656
 30
0.0
  0
LINE
  5
A4C
330
6B
100
AcDbEntity
  8
0
 62
     3
100
AcDbLine
 10
-185.7044897808407
 20
87.70151703585804
 30
0.0
 11
-179.0451077579234
 21
87.70151703585804
 31
0.0
  0
ARC
  5
A4D
330
6B
100
AcDbEntity
  8
0
 62
     3
100
AcDbCircle
 10
-188.6464036910507
 20
-7.548482678039981
 30
0.0
 40
100.2500000000004
100
AcDbArc
 50
85.59957966625326
 51
89.67998732330585
  0
LINE
  5
A4E
330
6B
100
AcDbEntity
  8
0
 62
     3
100
AcDbLine
 10
-198.247699609277
 20
87.70151703585804
 30
0.0
 11
-191.5883185176824
 21
87.70151703585804
 31
0.0
  0
ARC
  5
A4F
330
6B
100
AcDbEntity
  8
0
 62
     3
100
AcDbCircle
 10
-188.6464036910507
 20
-7.548482678039981
 30
0.0
 40
100.2500000000004
100
AcDbArc
 50
90.32001267669413
 51
94.40042033374835
  0
ARC
  5
A50
330
6B
100
AcDbEntity
  8
0
 62
     3
100
AcDbCircle
 10
-181.1464036910508
 20
89.9133688332056
 30
0.0
 40
2.500000000000014
100
AcDbArc
 50
0.0
 51
85.59957966625326
  0
ARC
  5
A51
330
6B
100
AcDbEntity
  8
0
 62
     3
100
AcDbCircle
 10
-196.1464036910507
 20
89.9133688332056
 30
0.0
 40
2.500000000000014
100
AcDbArc
 50
94.40042033374835
 51
180.0
  0
LINE
  5
A52
330
6B
100
AcDbEntity
  8
0
 62
     3
100
AcDbLine
 10
-178.6464039071176
 20
89.91336903502157
 30
0.0
 11
-178.6464039071176
 21
87.70151703585804
 31
0.0
  0
LINE
  5
A53
330
6B
100
AcDbEntity
  8
0
 62
     3
100
AcDbLine
 10
-178.6464039071176
 20
87.70151703585804
 30
0.0
 11
-179.0451077579234
 21
87.70151703585804
 31
0.0
  0
LINE
  5
A54
330
6B
100
AcDbEntity
  8
0
 62
     3
100
AcDbLine
 10
-198.6464043914054
 20
87.70151703585804
 30
0.0
 11
-198.6464043914054
 21
89.91336903502157
 31
0.0
  0
LINE
  5
A55
330
6B
100
AcDbEntity
  8
0
 62
     3
100
AcDbLine
 10
-198.247699609277
 20
87.70151703585804
 30
0.0
 11
-198.6464043914054
 21
87.70151703585804
 31
0.0
  0
ELLIPSE
  5
A56
330
6B
100
AcDbEntity
  8
0
 62
     3
100
AcDbEllipse
 10
-188.6464036910507
 20
84.20151732196064
 30
0.0
 11
3.649984776531837
 21
14.59999976241717
 31
0.0
210
0.0
220
0.0
230
1.0
 40
0.0007220477807646
 41
1.502430020144504
 42
1.570976837988182
  0
ELLIPSE
  5
A57
330
6B
100
AcDbEntity
  8
0
 62
     3
100
AcDbEllipse
 10
-188.6464036910507
 20
85.20151732196064
 30
0.0
 11
3.649984776531837
 21
14.59999976241717
 31
0.0
210
0.0
220
0.0
230
1.0
 40
0.0007220477807646
 41
1.570976837988182
 42
1.639523655831793
  0
ELLIPSE
  5
A58
330
6B
100
AcDbEntity
  8
0
 62
     3
100
AcDbEllipse
 10
-188.6464036910507
 20
85.20151732196064
 30
0.0
 11
2.049991449785081
 21
8.199999866371554
 31
0.0
210
0.0
220
0.0
230
1.0
 40
0.0007220477807826
 41
1.570976837988186
 42
1.693232377028889
  0
LINE
  5
A59
330
6B
100
AcDbEntity
  8
0
 62
     3
100
AcDbLine
 10
-188.6464046149228
 20
84.20151739348558
 30
0.0
 11
-184.7714032812689
 21
84.20151739348558
 31
0.0
  0
LINE
  5
A5A
330
6B
100
AcDbEntity
  8
0
 62
     3
100
AcDbLine
 10
-192.521403154609
 20
84.20151739348558
 30
0.0
 11
-188.6464046149228
 21
84.20151739348558
 31
0.0
  0
LINE
  5
A5B
330
6B
100
AcDbEntity
  8
0
  6
Continuous
 62
     3
100
AcDbLine
 10
-192.521403154609
 20
83.40151688982667
 30
0.0
 11
-184.7714032812689
 21
83.40151688982667
 31
0.0
  0
LINE
  5
A63
330
6B
100
AcDbEntity
  8
0
  6
HIDDEN
100
AcDbLine
 10
-254.8722110929507
 20
-34.72389835917053
 30
0.0
 11
-254.8722110929507
 21
-15.41805523209745
 31
0.0
  0
LINE
  5
A64
330
6B
100
AcDbEntity
  8
0
  6
HIDDEN
100
AcDbLine
 10
-264.8722110929507
 20
-34.73343037898644
 30
0.0
 11
-264.8722110929507
 21
-15.4180555757506
 31
0.0
  0
LINE
  5
A65
330
6B
100
AcDbEntity
  8
0
  6
HIDDEN
100
AcDbLine
 10
-248.7006448860541
 20
-47.1890571779232
 30
0.0
 11
-241.6222110929507
 21
-47.1890571779232
 31
0.0
  0
LINE
  5
A66
330
6B
100
AcDbEntity
  8
0
  6
HIDDEN
100
AcDbLine
 10
-248.5635846101921
 20
-52.28905717792319
 30
0.0
 11
-241.6222110929507
 21
-52.28905717792319
 31
0.0
  0
LINE
  5
A68
330
6B
100
AcDbEntity
  8
0
 62
     3
100
AcDbLine
 10
-184.896403217939
 20
79.40151688982666
 30
0.0
 11
-184.896403217939
 21
73.91720338982667
 31
0.0
  0
LINE
  5
A69
330
6B
100
AcDbEntity
  8
0
 62
     3
100
AcDbLine
 10
-192.396403217939
 20
73.91720338982667
 30
0.0
 11
-192.396403217939
 21
79.40151688982666
 31
0.0
  0
ARC
  5
A6A
330
6B
100
AcDbEntity
  8
0
 62
     3
100
AcDbCircle
 10
-181.646403217939
 20
60.90151688982667
 30
0.0
 40
0.5
100
AcDbArc
 50
0.0
 51
90.0
  0
ARC
  5
A6B
330
6B
100
AcDbEntity
  8
0
 62
     3
100
AcDbCircle
 10
-181.646403217939
 20
60.90151688982667
 30
0.0
 40
0.5
100
AcDbArc
 50
270.0
 51
0.0
  0
ARC
  5
A6C
330
6B
100
AcDbEntity
  8
0
 62
     3
100
AcDbCircle
 10
-195.6464032179389
 20
60.90151688982667
 30
0.0
 40
0.5
100
AcDbArc
 50
90.0
 51
180.0
  0
ARC
  5
A6D
330
6B
100
AcDbEntity
  8
0
 62
     3
100
AcDbCircle
 10
-195.6464032179389
 20
60.90151688982667
 30
0.0
 40
0.5
100
AcDbArc
 50
180.0
 51
270.0
  0
ARC
  5
A6E
330
6B
100
AcDbEntity
  8
0
 62
     3
100
AcDbCircle
 10
-195.5214032179389
 20
61.90151688982666
 30
0.0
 40
0.5
100
AcDbArc
 50
270.0
 51
0.0
  0
ARC
  5
A6F
330
6B
100
AcDbEntity
  8
0
 62
     3
100
AcDbCircle
 10
-181.771403217939
 20
61.90151688982666
 30
0.0
 40
0.5
100
AcDbArc
 50
180.0
 51
270.0
  0
LINE
  5
A70
330
6B
100
AcDbEntity
  8
0
 62
     3
100
AcDbLine
 10
-194.271403217939
 20
60.40151688982667
 30
0.0
 11
-195.5214032179389
 21
60.40151688982667
 31
0.0
  0
LINE
  5
A71
330
6B
100
AcDbEntity
  8
0
 62
     3
100
AcDbLine
 10
-183.021403217939
 20
60.40151688982667
 30
0.0
 11
-181.771403217939
 21
60.40151688982667
 31
0.0
  0
ARC
  5
A74
330
6B
100
AcDbEntity
  8
0
 62
     3
100
AcDbCircle
 10
-183.271403217939
 20
71.90936014865423
 30
0.0
 40
1.0
100
AcDbArc
 50
0.0
 51
82.81924400000033
  0
ARC
  5
A75
330
6B
100
AcDbEntity
  8
0
 62
     3
100
AcDbCircle
 10
-194.021403217939
 20
71.90936014865423
 30
0.0
 40
1.0
100
AcDbArc
 50
97.18075599999968
 51
180.0
  0
ARC
  5
A76
330
6B
100
AcDbEntity
  8
0
 62
     3
100
AcDbCircle
 10
-183.896403217939
 20
73.90151688982666
 30
0.0
 40
1.0
100
AcDbArc
 50
180.0
 51
270.0
  0
ARC
  5
A77
330
6B
100
AcDbEntity
  8
0
 62
     3
100
AcDbCircle
 10
-193.396403217939
 20
73.90151688982666
 30
0.0
 40
1.0
100
AcDbArc
 50
270.0
 51
0.0
  0
LINE
  5
A78
330
6B
100
AcDbEntity
  8
0
 62
     3
100
AcDbLine
 10
-179.521403217939
 20
62.90151688982667
 30
0.0
 11
-179.521403217939
 21
65.90151688982667
 31
0.0
  0
LINE
  5
A79
330
6B
100
AcDbEntity
  8
0
 62
     3
100
AcDbLine
 10
-181.771403217939
 20
66.40151688982666
 30
0.0
 11
-180.021403217939
 21
66.40151688982666
 31
0.0
  0
LINE
  5
A7A
330
6B
100
AcDbEntity
  8
0
 62
     3
100
AcDbLine
 10
-181.771403217939
 20
62.40151688982667
 30
0.0
 11
-180.021403217939
 21
62.40151688982667
 31
0.0
  0
ARC
  5
A7B
330
6B
100
AcDbEntity
  8
0
 62
     3
100
AcDbCircle
 10
-180.021403217939
 20
65.90151688982667
 30
0.0
 40
0.5
100
AcDbArc
 50
0.0
 51
90.0
  0
ARC
  5
A7C
330
6B
100
AcDbEntity
  8
0
 62
     3
100
AcDbCircle
 10
-180.021403217939
 20
62.90151688982667
 30
0.0
 40
0.5
100
AcDbArc
 50
270.0
 51
0.0
  0
ARC
  5
A7D
330
6B
100
AcDbEntity
  8
0
 62
     3
100
AcDbCircle
 10
-181.771403217939
 20
67.02651688982666
 30
0.0
 40
0.5
100
AcDbArc
 50
180.0
 51
270.0
  0
ARC
  5
A7E
330
6B
100
AcDbEntity
  8
0
 62
     3
100
AcDbCircle
 10
-181.771403217939
 20
61.90151688982666
 30
0.0
 40
0.5
100
AcDbArc
 50
90.0
 51
180.0
  0
LINE
  5
A80
330
6B
100
AcDbEntity
  8
0
 62
     3
100
AcDbLine
 10
-194.271403217939
 20
60.40151688982667
 30
0.0
 11
-183.021403217939
 21
60.40151688982667
 31
0.0
  0
LINE
  5
A81
330
6B
100
AcDbEntity
  8
0
 62
     3
100
AcDbLine
 10
-194.1464032217233
 20
72.90151688982667
 30
0.0
 11
-183.1464032141546
 21
72.90151688982667
 31
0.0
  0
LINE
  5
A82
330
6B
100
AcDbEntity
  8
0
 62
     3
100
AcDbLine
 10
-182.271403217939
 20
81.90151688982666
 30
0.0
 11
-195.0214032179389
 21
81.90151688982666
 31
0.0
  0
LINE
  5
A83
330
6B
100
AcDbEntity
  8
0
 62
     3
100
AcDbLine
 10
-181.146403217939
 20
80.90151688982667
 30
0.0
 11
-181.146403217939
 21
81.90151688982666
 31
0.0
  0
ARC
  5
A84
330
6B
100
AcDbEntity
  8
0
 62
     3
100
AcDbCircle
 10
-183.896403217939
 20
79.40151688982666
 30
0.0
 40
1.0
100
AcDbArc
 50
90.0
 51
180.0
  0
ARC
  5
A85
330
6B
100
AcDbEntity
  8
0
 62
     3
100
AcDbCircle
 10
-181.646403217939
 20
80.90151688982667
 30
0.0
 40
0.5
100
AcDbArc
 50
270.0
 51
0.0
  0
LINE
  5
A86
330
6B
100
AcDbEntity
  8
0
 62
     3
100
AcDbLine
 10
-196.1464032179389
 20
80.90151688982667
 30
0.0
 11
-196.1464032179389
 21
81.90151688982666
 31
0.0
  0
ARC
  5
A87
330
6B
100
AcDbEntity
  8
0
 62
     3
100
AcDbCircle
 10
-195.6464032179389
 20
80.90151688982667
 30
0.0
 40
0.5
100
AcDbArc
 50
180.0
 51
270.0
  0
ARC
  5
A88
330
6B
100
AcDbEntity
  8
0
 62
     3
100
AcDbCircle
 10
-193.396403217939
 20
79.40151688982666
 30
0.0
 40
1.0
100
AcDbArc
 50
0.0
 51
90.0
  0
LINE
  5
A89
330
6B
100
AcDbEntity
  8
0
 62
     3
100
AcDbLine
 10
-196.1464032179389
 20
81.90151688982666
 30
0.0
 11
-195.0214032179389
 21
81.90151688982666
 31
0.0
  0
LINE
  5
A8A
330
6B
100
AcDbEntity
  8
0
 62
     3
100
AcDbLine
 10
-182.271403217939
 20
81.90151688982666
 30
0.0
 11
-181.146403217939
 21
81.90151688982666
 31
0.0
  0
LINE
  5
A8B
330
6B
100
AcDbEntity
  8
0
 62
     3
100
AcDbLine
 10
-181.146403217939
 20
80.90151688982667
 30
0.0
 11
-182.271403217939
 21
71.90936014865423
 31
0.0
  0
LINE
  5
A8C
330
6B
100
AcDbEntity
  8
0
 62
     3
100
AcDbLine
 10
-196.1464032179389
 20
80.90151688982667
 30
0.0
 11
-195.0214032179389
 21
71.90936014865423
 31
0.0
  0
LINE
  5
A97
330
6B
100
AcDbEntity
  8
0
 62
     3
100
AcDbLine
 10
-190.396403217939
 20
80.40151688982666
 30
0.0
 11
-195.6464032179389
 21
80.40151688982666
 31
0.0
  0
LINE
  5
A98
330
6B
100
AcDbEntity
  8
0
 62
     3
100
AcDbLine
 10
-195.5214032179389
 20
61.40151688982666
 30
0.0
 11
-181.771403217939
 21
61.40151688982666
 31
0.0
  0
LINE
  5
A99
330
6B
100
AcDbEntity
  8
0
 62
     3
100
AcDbLine
 10
-189.396403217939
 20
79.40151688982666
 30
0.0
 11
-189.396403217939
 21
73.91720338982667
 31
0.0
  0
LINE
  5
A9A
330
6B
100
AcDbEntity
  8
0
 62
     3
100
AcDbLine
 10
-187.896403217939
 20
79.40151688982666
 30
0.0
 11
-187.896403217939
 21
73.91720338982667
 31
0.0
  0
ARC
  5
A9B
330
6B
100
AcDbEntity
  8
0
 62
     3
100
AcDbCircle
 10
-186.896403217939
 20
73.90151688982666
 30
0.0
 40
1.0
100
AcDbArc
 50
180.0
 51
270.0
  0
ARC
  5
A9C
330
6B
100
AcDbEntity
  8
0
 62
     3
100
AcDbCircle
 10
-190.396403217939
 20
73.90151688982666
 30
0.0
 40
1.0
100
AcDbArc
 50
270.0
 51
0.0
  0
ARC
  5
A9D
330
6B
100
AcDbEntity
  8
0
 62
     3
100
AcDbCircle
 10
-190.396403217939
 20
79.40151688982666
 30
0.0
 40
1.0
100
AcDbArc
 50
0.0
 51
90.0
  0
LINE
  5
A9E
330
6B
100
AcDbEntity
  8
0
 62
     3
100
AcDbLine
 10
-186.896403217939
 20
80.40151688982666
 30
0.0
 11
-181.646403217939
 21
80.40151688982666
 31
0.0
  0
ARC
  5
A9F
330
6B
100
AcDbEntity
  8
0
 62
     3
100
AcDbCircle
 10
-186.896403217939
 20
79.40151688982666
 30
0.0
 40
1.0
100
AcDbArc
 50
90.0
 51
180.0
  0
LINE
  5
AA0
330
6B
100
AcDbEntity
  8
0
 62
     3
100
AcDbLine
 10
-190.396403217939
 20
80.40151688982666
 30
0.0
 11
-186.896403217939
 21
80.40151688982666
 31
0.0
  0
LINE
  5
AA1
330
6B
100
AcDbEntity
  8
0
 62
     3
100
AcDbLine
 10
-190.396403217939
 20
72.91720338982667
 30
0.0
 11
-186.896403217939
 21
72.91720338982667
 31
0.0
  0
LINE
  5
AA2
330
6B
100
AcDbEntity
  8
0
 62
     3
100
AcDbLine
 10
-195.0214032179389
 20
71.90936014865423
 30
0.0
 11
-195.0214032179389
 21
61.90151688982666
 31
0.0
  0
LINE
  5
AA3
330
6B
100
AcDbEntity
  8
0
 62
     3
100
AcDbLine
 10
-182.271403217939
 20
71.90936014865423
 30
0.0
 11
-182.271403217939
 21
61.90151688982666
 31
0.0
  0
LINE
  5
AA6
330
6B
100
AcDbEntity
  8
0
  6
CENTER
100
AcDbLine
 10
-188.646403217939
 20
59.66473692989009
 30
0.0
 11
-188.646403217939
 21
82.7866428525138
 31
0.0
  0
LINE
  5
AA7
330
6B
100
AcDbEntity
  8
0
  6
Continuous
 62
     3
100
AcDbLine
 10
-218.7916217996438
 20
-52.7390571779232
 30
0.0
 11
-205.6916217996437
 21
-52.7390571779232
 31
0.0
  0
LINE
  5
AA8
330
6B
100
AcDbEntity
  8
0
  6
Continuous
100
AcDbLine
 10
-219.6916217996438
 20
-51.8390571779232
 30
0.0
 11
-205.6916217996437
 21
-51.8390571779232
 31
0.0
  0
LINE
  5
AA9
330
6B
100
AcDbEntity
  8
0
  6
Continuous
 62
     3
100
AcDbLine
 10
-218.7916217996438
 20
-46.7390571779232
 30
0.0
 11
-205.6916217996437
 21
-46.7390571779232
 31
0.0
  0
LINE
  5
AAA
330
6B
100
AcDbEntity
  8
0
  6
Continuous
100
AcDbLine
 10
-219.6916217996438
 20
-47.6390571779232
 30
0.0
 11
-205.6916217996437
 21
-47.6390571779232
 31
0.0
  0
LINE
  5
AAB
330
6B
100
AcDbEntity
  8
0
  6
Continuous
 62
     3
100
AcDbLine
 10
-205.6916217996437
 20
-55.0890571779232
 30
0.0
 11
-204.6916217996438
 21
-55.0890571779232
 31
0.0
  0
LINE
  5
AAC
330
6B
100
AcDbEntity
  8
0
  6
Continuous
 62
     3
100
AcDbLine
 10
-205.6916217996437
 20
-44.3890571779232
 30
0.0
 11
-204.6916217996438
 21
-44.3890571779232
 31
0.0
  0
LINE
  5
AAD
330
6B
100
AcDbEntity
  8
0
  6
Continuous
 62
     3
100
AcDbLine
 10
-194.6916217996437
 20
-56.2390571779232
 30
0.0
 11
-204.6916217996438
 21
-56.2390571779232
 31
0.0
  0
LINE
  5
AAE
330
6B
100
AcDbEntity
  8
0
  6
Continuous
 62
     3
100
AcDbLine
 10
-194.6916217996437
 20
-43.2390571779232
 30
0.0
 11
-204.6916217996438
 21
-43.2390571779232
 31
0.0
  0
LINE
  5
AAF
330
6B
100
AcDbEntity
  8
0
  6
Continuous
 62
     3
100
AcDbLine
 10
-194.6916217996437
 20
-67.7390571779232
 30
0.0
 11
-194.6916217996437
 21
-31.7390571779232
 31
0.0
  0
LINE
  5
AB0
330
6B
100
AcDbEntity
  8
0
  6
Continuous
 62
     3
100
AcDbLine
 10
-204.6916217996438
 20
-56.2390571779232
 30
0.0
 11
-204.6916217996438
 21
-43.2390571779232
 31
0.0
  0
LINE
  5
AB1
330
6B
100
AcDbEntity
  8
0
  6
Continuous
 62
     3
100
AcDbLine
 10
-205.6916217996437
 20
-44.3890571779232
 30
0.0
 11
-205.6916217996437
 21
-55.0890571779232
 31
0.0
  0
LINE
  5
AB2
330
6B
100
AcDbEntity
  8
0
  6
Continuous
 62
     3
100
AcDbLine
 10
-219.6916217996438
 20
-47.6390571779232
 30
0.0
 11
-219.6916217996438
 21
-51.8390571779232
 31
0.0
  0
LINE
  5
AB3
330
6B
100
AcDbEntity
  8
0
  6
Continuous
 62
     3
100
AcDbLine
 10
-194.6916217996437
 20
-31.7390571779232
 30
0.0
 11
-187.6916217996438
 21
-32.7390571779232
 31
0.0
  0
LINE
  5
AB4
330
6B
100
AcDbEntity
  8
0
  6
Continuous
 62
     3
100
AcDbLine
 10
-194.6916217996437
 20
-67.7390571779232
 30
0.0
 11
-187.6916217996438
 21
-66.7390571779232
 31
0.0
  0
ARC
  5
AB5
330
6B
100
AcDbEntity
  8
0
  6
Continuous
 62
     3
100
AcDbCircle
 10
-258.9416217996438
 20
-49.7390571779232
 30
0.0
 40
73.25000000000002
100
AcDbArc
 50
346.5803263844864
 51
13.41967361551359
  0
LINE
  5
AB6
330
6B
100
AcDbEntity
  8
0
  6
Continuous
 62
     3
100
AcDbLine
 10
-219.6916217996438
 20
-47.6390571779232
 30
0.0
 11
-218.7916217996438
 21
-46.7390571779232
 31
0.0
  0
LINE
  5
AB7
330
6B
100
AcDbEntity
  8
0
  6
Continuous
 62
     3
100
AcDbLine
 10
-219.6916217996438
 20
-51.8390571779232
 30
0.0
 11
-218.7916217996438
 21
-52.7390571779232
 31
0.0
  0
LINE
  5
AB8
330
6B
100
AcDbEntity
  8
0
  6
Continuous
100
AcDbLine
 10
-218.7916217996438
 20
-46.7390571779232
 30
0.0
 11
-218.7916217996438
 21
-52.7390571779232
 31
0.0
  0
LINE
  5
D4A
330
6B
100
AcDbEntity
  8
0
  6
Continuous
100
AcDbLine
 10
-268.1222114729302
 20
33.81622434235476
 30
0.0
 11
-288.5592162089092
 21
33.81622434235477
 31
0.0
  0
LINE
  5
D4B
330
6B
100
AcDbEntity
  8
0
  6
Continuous
100
AcDbLine
 10
-259.0023702527799
 20
48.81309655126236
 30
0.0
 11
-288.5592162089092
 21
48.81309655126237
 31
0.0
  0
LINE
  5
D4C
330
6B
100
AcDbEntity
  8
0
  6
Continuous
100
AcDbLine
 10
-287.3092162089092
 20
36.31622434235477
 30
0.0
 11
-287.3092162089092
 21
46.31309655126236
 31
0.0
  0
LINE
  5
D50
330
6B
100
AcDbEntity
  8
0
  6
Continuous
100
AcDbLine
 10
-279.8722120391743
 20
43.48992689396879
 30
0.0
 11
-279.8722120391743
 21
56.34863032183557
 31
0.0
  0
LINE
  5
D51
330
6B
100
AcDbEntity
  8
0
  6
Continuous
100
AcDbLine
 10
-239.8722120391745
 20
43.48992689396879
 30
0.0
 11
-239.8722120391745
 21
56.34863032183557
 31
0.0
  0
LINE
  5
D52
330
6B
100
AcDbEntity
  8
0
  6
Continuous
100
AcDbLine
 10
-277.3722120391743
 20
55.09863032183557
 30
0.0
 11
-242.3722120391745
 21
55.09863032183557
 31
0.0
  0
TEXT
  5
D56
330
6B
100
AcDbEntity
  8
0
  6
Continuous
 62
     4
100
AcDbText
 10
-240.1539883248584
 20
17.07705161657259
 30
0.0
 40
3.0
  1
M10x20
100
AcDbText
  0
TEXT
  5
D59
330
6B
100
AcDbEntity
  8
0
  6
Continuous
 62
     4
100
AcDbText
 10
-233.6726060796962
 20
-64.98828806700419
 30
0.0
 40
3.0
  1
M6
100
AcDbText
  0
TEXT
  5
D5C
330
6B
100
AcDbEntity
  8
0
  6
Continuous
 62
     4
100
AcDbText
 10
-205.7630866760617
 20
-74.28356910552736
 30
0.0
 40
3.0
  1
M6x14
100
AcDbText
  0
LINE
  5
D5F
330
6B
100
AcDbEntity
  8
0
  6
Continuous
100
AcDbLine
 10
-205.6916217996437
 20
-44.1390571779232
 30
0.0
 11
-205.6916217996437
 21
-23.13556825141564
 31
0.0
  0
LINE
  5
D60
330
6B
100
AcDbEntity
  8
0
  6
Continuous
100
AcDbLine
 10
-185.6916217996438
 20
-49.4890571779232
 30
0.0
 11
-185.6916217996438
 21
-23.13556825141564
 31
0.0
  0
LINE
  5
D61
330
6B
100
AcDbEntity
  8
0
  6
Continuous
100
AcDbLine
 10
-203.1916217996438
 20
-24.38556825141564
 30
0.0
 11
-188.1916217996438
 21
-24.38556825141564
 31
0.0
  0
LINE
  5
D65
330
6B
100
AcDbEntity
  8
0
  6
Continuous
100
AcDbLine
 10
-194.4416217996437
 20
-31.7390571779232
 30
0.0
 11
-170.678595733081
 21
-31.73905717792321
 31
0.0
  0
LINE
  5
D66
330
6B
100
AcDbEntity
  8
0
  6
Continuous
100
AcDbLine
 10
-194.4416217996437
 20
-67.7390571779232
 30
0.0
 11
-170.678595733081
 21
-67.7390571779232
 31
0.0
  0
LINE
  5
D67
330
6B
100
AcDbEntity
  8
0
  6
Continuous
100
AcDbLine
 10
-171.928595733081
 20
-34.23905717792321
 30
0.0
 11
-171.928595733081
 21
-65.2390571779232
 31
0.0
  0
LINE
  5
D6B
330
6B
100
AcDbEntity
  8
0
 62
     3
100
AcDbLine
 10
-282.1237720916703
 20
132.8922036596951
 30
0.0
 11
-282.1423996216703
 21
133.0114714296951
 31
0.0
  0
LINE
  5
D6C
330
6B
100
AcDbEntity
  8
0
 62
     3
100
AcDbLine
 10
-282.1423996216703
 20
133.0114714296951
 30
0.0
 11
-282.1647708016702
 21
133.1256762096951
 31
0.0
  0
LINE
  5
D6D
330
6B
100
AcDbEntity
  8
0
 62
     3
100
AcDbLine
 10
-282.1647708016702
 20
133.1256762096951
 30
0.0
 11
-282.1907127316702
 21
133.2339352696951
 31
0.0
  0
LINE
  5
D6E
330
6B
100
AcDbEntity
  8
0
 62
     3
100
AcDbLine
 10
-282.1907127316702
 20
133.2339352696951
 30
0.0
 11
-282.2200248716703
 21
133.3354118196951
 31
0.0
  0
LINE
  5
D6F
330
6B
100
AcDbEntity
  8
0
 62
     3
100
AcDbLine
 10
-282.2200248716703
 20
133.3354118196951
 30
0.0
 11
-282.2524806816702
 21
133.4293214996951
 31
0.0
  0
LINE
  5
D70
330
6B
100
AcDbEntity
  8
0
 62
     3
100
AcDbLine
 10
-282.2524806816702
 20
133.4293214996951
 30
0.0
 11
-282.2878292716703
 21
133.5149384396951
 31
0.0
  0
LINE
  5
D71
330
6B
100
AcDbEntity
  8
0
 62
     3
100
AcDbLine
 10
-282.2878292716703
 20
133.5149384396951
 30
0.0
 11
-282.3257974216702
 21
133.5916008496951
 31
0.0
  0
LINE
  5
D72
330
6B
100
AcDbEntity
  8
0
 62
     3
100
AcDbLine
 10
-282.3257974216702
 20
133.5916008496951
 30
0.0
 11
-282.3660916716702
 21
133.6587161896951
 31
0.0
  0
LINE
  5
D73
330
6B
100
AcDbEntity
  8
0
 62
     3
100
AcDbLine
 10
-282.3660916716702
 20
133.6587161896951
 30
0.0
 11
-282.4084005416703
 21
133.7157656796951
 31
0.0
  0
LINE
  5
D74
330
6B
100
AcDbEntity
  8
0
 62
     3
100
AcDbLine
 10
-282.4084005416703
 20
133.7157656796951
 30
0.0
 11
-282.4523970316704
 21
133.7623083496951
 31
0.0
  0
LINE
  5
D75
330
6B
100
AcDbEntity
  8
0
 62
     3
100
AcDbLine
 10
-282.4523970316704
 20
133.7623083496951
 30
0.0
 11
-282.4977410516702
 21
133.7979844696951
 31
0.0
  0
LINE
  5
D76
330
6B
100
AcDbEntity
  8
0
 62
     3
100
AcDbLine
 10
-282.4977410516702
 20
133.7979844696951
 30
0.0
 11
-282.5440821216703
 21
133.8225182596951
 31
0.0
  0
LINE
  5
D77
330
6B
100
AcDbEntity
  8
0
 62
     3
100
AcDbLine
 10
-282.5440821216703
 20
133.8225182596951
 30
0.0
 11
-282.5910620616702
 21
133.8357201096951
 31
0.0
  0
LINE
  5
D78
330
6B
100
AcDbEntity
  8
0
 62
     3
100
AcDbLine
 10
-282.5910620616702
 20
133.8357201096951
 30
0.0
 11
-282.6383177216702
 21
133.8374879496951
 31
0.0
  0
LINE
  5
D79
330
6B
100
AcDbEntity
  8
0
 62
     3
100
AcDbLine
 10
-282.6383177216702
 20
133.8374879496951
 30
0.0
 11
-282.6854838516703
 21
133.8278081396951
 31
0.0
  0
LINE
  5
D7A
330
6B
100
AcDbEntity
  8
0
 62
     3
100
AcDbLine
 10
-282.6854838516703
 20
133.8278081396951
 30
0.0
 11
-282.7321958816702
 21
133.8067554796951
 31
0.0
  0
LINE
  5
D7B
330
6B
100
AcDbEntity
  8
0
 62
     3
100
AcDbLine
 10
-282.7321958816702
 20
133.8067554796951
 30
0.0
 11
-282.7780927416703
 21
133.7744927096951
 31
0.0
  0
LINE
  5
D7C
330
6B
100
AcDbEntity
  8
0
 62
     3
100
AcDbLine
 10
-282.7780927416703
 20
133.7744927096951
 30
0.0
 11
-282.8228196816702
 21
133.7312691996951
 31
0.0
  0
LINE
  5
D7D
330
6B
100
AcDbEntity
  8
0
 62
     3
100
AcDbLine
 10
-282.8228196816702
 20
133.7312691996951
 30
0.0
 11
-282.8660309916703
 21
133.6774190396951
 31
0.0
  0
LINE
  5
D7E
330
6B
100
AcDbEntity
  8
0
 62
     3
100
AcDbLine
 10
-282.8660309916703
 20
133.6774190396951
 30
0.0
 11
-282.9073926516702
 21
133.6133584696951
 31
0.0
  0
LINE
  5
D7F
330
6B
100
AcDbEntity
  8
0
 62
     3
100
AcDbLine
 10
-282.9073926516702
 20
133.6133584696951
 30
0.0
 11
-282.9465849716703
 21
133.5395826496951
 31
0.0
  0
LINE
  5
D80
330
6B
100
AcDbEntity
  8
0
 62
     3
100
AcDbLine
 10
-282.9465849716703
 20
133.5395826496951
 30
0.0
 11
-282.9833050116702
 21
133.4566618196951
 31
0.0
  0
LINE
  5
D81
330
6B
100
AcDbEntity
  8
0
 62
     3
100
AcDbLine
 10
-282.9833050116702
 20
133.4566618196951
 30
0.0
 11
-283.0172689416703
 21
133.3652369096951
 31
0.0
  0
LINE
  5
D82
330
6B
100
AcDbEntity
  8
0
 62
     3
100
AcDbLine
 10
-283.0172689416703
 20
133.3652369096951
 30
0.0
 11
-283.0482142416703
 21
133.2660146096951
 31
0.0
  0
LINE
  5
D83
330
6B
100
AcDbEntity
  8
0
 62
     3
100
AcDbLine
 10
-283.0482142416703
 20
133.2660146096951
 30
0.0
 11
-283.0759017216702
 21
133.1597618396951
 31
0.0
  0
LINE
  5
D84
330
6B
100
AcDbEntity
  8
0
 62
     3
100
AcDbLine
 10
-283.0759017216702
 20
133.1597618396951
 30
0.0
 11
-283.1001173716703
 21
133.0472998796951
 31
0.0
  0
LINE
  5
D85
330
6B
100
AcDbEntity
  8
0
 62
     3
100
AcDbLine
 10
-283.1001173716703
 20
133.0472998796951
 30
0.0
 11
-283.1206740116703
 21
132.9294979996951
 31
0.0
  0
LINE
  5
D86
330
6B
100
AcDbEntity
  8
0
 62
     3
100
AcDbLine
 10
-283.1206740116703
 20
132.9294979996951
 30
0.0
 11
-283.1374127516702
 21
132.8072667596951
 31
0.0
  0
LINE
  5
D87
330
6B
100
AcDbEntity
  8
0
 62
     3
100
AcDbLine
 10
-283.1374127516702
 20
132.8072667596951
 30
0.0
 11
-283.1502042116703
 21
132.6815509396951
 31
0.0
  0
LINE
  5
D88
330
6B
100
AcDbEntity
  8
0
 62
     3
100
AcDbLine
 10
-283.1502042116703
 20
132.6815509396951
 30
0.0
 11
-283.1589495216702
 21
132.553322259695
 31
0.0
  0
LINE
  5
D89
330
6B
100
AcDbEntity
  8
0
 62
     3
100
AcDbLine
 10
-283.1589495216702
 20
132.553322259695
 30
0.0
 11
-283.1635810816703
 21
132.4235718496951
 31
0.0
  0
LINE
  5
D8A
330
6B
100
AcDbEntity
  8
0
 62
     3
100
AcDbLine
 10
-283.1635810816703
 20
132.4235718496951
 30
0.0
 11
-283.1640630916703
 21
132.2933026196951
 31
0.0
  0
LINE
  5
D8B
330
6B
100
AcDbEntity
  8
0
 62
     3
100
AcDbLine
 10
-283.1640630916703
 20
132.2933026196951
 30
0.0
 11
-283.1603918316702
 21
132.1635214996951
 31
0.0
  0
LINE
  5
D8C
330
6B
100
AcDbEntity
  8
0
 62
     3
100
AcDbLine
 10
-283.1603918316702
 20
132.1635214996951
 30
0.0
 11
-283.1525956716703
 21
132.0352316096951
 31
0.0
  0
LINE
  5
D8D
330
6B
100
AcDbEntity
  8
0
 62
     3
100
AcDbLine
 10
-283.1525956716703
 20
132.0352316096951
 30
0.0
 11
-283.1407348716703
 21
131.9094245696951
 31
0.0
  0
LINE
  5
D8E
330
6B
100
AcDbEntity
  8
0
 62
     3
100
AcDbLine
 10
-283.1407348716703
 20
131.9094245696951
 30
0.0
 11
-283.1249011116703
 21
131.7870727996951
 31
0.0
  0
LINE
  5
D8F
330
6B
100
AcDbEntity
  8
0
 62
     3
100
AcDbLine
 10
-283.1249011116703
 20
131.7870727996951
 30
0.0
 11
-283.1052167916703
 21
131.6691220296951
 31
0.0
  0
LINE
  5
D90
330
6B
100
AcDbEntity
  8
0
 62
     3
100
AcDbLine
 10
-283.1052167916703
 20
131.6691220296951
 30
0.0
 11
-283.0818340316703
 21
131.5564839596951
 31
0.0
  0
LINE
  5
D91
330
6B
100
AcDbEntity
  8
0
 62
     3
100
AcDbLine
 10
-283.0818340316703
 20
131.5564839596951
 30
0.0
 11
-283.0549336016703
 21
131.4500291996951
 31
0.0
  0
LINE
  5
D92
330
6B
100
AcDbEntity
  8
0
 62
     3
100
AcDbLine
 10
-283.0549336016703
 20
131.4500291996951
 30
0.0
 11
-283.0247234016702
 21
131.3505806096951
 31
0.0
  0
LINE
  5
D93
330
6B
100
AcDbEntity
  8
0
 62
     3
100
AcDbLine
 10
-283.0247234016702
 20
131.3505806096951
 30
0.0
 11
-282.9914369516703
 21
131.2589068796951
 31
0.0
  0
LINE
  5
D94
330
6B
100
AcDbEntity
  8
0
 62
     3
100
AcDbLine
 10
-282.9914369516703
 20
131.2589068796951
 30
0.0
 11
-282.9553315516703
 21
131.1757165796951
 31
0.0
  0
LINE
  5
D95
330
6B
100
AcDbEntity
  8
0
 62
     3
100
AcDbLine
 10
-282.9553315516703
 20
131.1757165796951
 30
0.0
 11
-282.9166862516703
 21
131.1016527496951
 31
0.0
  0
LINE
  5
D96
330
6B
100
AcDbEntity
  8
0
 62
     3
100
AcDbLine
 10
-282.9166862516703
 20
131.1016527496951
 30
0.0
 11
-282.8757997716703
 21
131.0372878596951
 31
0.0
  0
LINE
  5
D97
330
6B
100
AcDbEntity
  8
0
 62
     3
100
AcDbLine
 10
-282.8757997716703
 20
131.0372878596951
 30
0.0
 11
-282.8329881516703
 21
130.9831194096951
 31
0.0
  0
LINE
  5
D98
330
6B
100
AcDbEntity
  8
0
 62
     3
100
AcDbLine
 10
-282.8329881516703
 20
130.9831194096951
 30
0.0
 11
-282.7885822916702
 21
130.9395660896951
 31
0.0
  0
LINE
  5
D99
330
6B
100
AcDbEntity
  8
0
 62
     3
100
AcDbLine
 10
-282.7885822916702
 20
130.9395660896951
 30
0.0
 11
-282.7429254416703
 21
130.9069645596951
 31
0.0
  0
LINE
  5
D9A
330
6B
100
AcDbEntity
  8
0
 62
     3
100
AcDbLine
 10
-282.7429254416703
 20
130.9069645596951
 30
0.0
 11
-282.6963704816702
 21
130.8855667996951
 31
0.0
  0
LINE
  5
D9B
330
6B
100
AcDbEntity
  8
0
 62
     3
100
AcDbLine
 10
-282.6963704816702
 20
130.8855667996951
 30
0.0
 11
-282.6492772716703
 21
130.8755382196951
 31
0.0
  0
LINE
  5
D9C
330
6B
100
AcDbEntity
  8
0
 62
     3
100
AcDbLine
 10
-282.6492772716703
 20
130.8755382196951
 30
0.0
 11
-282.6020098216703
 21
130.8769563196951
 31
0.0
  0
LINE
  5
D9D
330
6B
100
AcDbEntity
  8
0
 62
     3
100
AcDbLine
 10
-282.6020098216703
 20
130.8769563196951
 30
0.0
 11
-282.5549334816702
 21
130.8898101396951
 31
0.0
  0
LINE
  5
D9E
330
6B
100
AcDbEntity
  8
0
 62
     3
100
AcDbLine
 10
-282.5549334816702
 20
130.8898101396951
 30
0.0
 11
-282.5084121216703
 21
130.9140003396951
 31
0.0
  0
LINE
  5
D9F
330
6B
100
AcDbEntity
  8
0
 62
     3
100
AcDbLine
 10
-282.5084121216703
 20
130.9140003396951
 30
0.0
 11
-282.4628053316702
 21
130.9493399196951
 31
0.0
  0
LINE
  5
DA0
330
6B
100
AcDbEntity
  8
0
 62
     3
100
AcDbLine
 10
-282.4628053316702
 20
130.9493399196951
 30
0.0
 11
-282.4184656316703
 21
130.9955557396951
 31
0.0
  0
LINE
  5
DA1
330
6B
100
AcDbEntity
  8
0
 62
     3
100
AcDbLine
 10
-282.4184656316703
 20
130.9955557396951
 30
0.0
 11
-282.3757357416702
 21
131.0522905796951
 31
0.0
  0
LINE
  5
DA2
330
6B
100
AcDbEntity
  8
0
 62
     3
100
AcDbLine
 10
-282.3757357416702
 20
131.0522905796951
 30
0.0
 11
-282.3349459416703
 21
131.1191058896951
 31
0.0
  0
LINE
  5
DA3
330
6B
100
AcDbEntity
  8
0
 62
     3
100
AcDbLine
 10
-282.3349459416703
 20
131.1191058896951
 30
0.0
 11
-282.2964115116702
 21
131.1954852396951
 31
0.0
  0
LINE
  5
DA4
330
6B
100
AcDbEntity
  8
0
 62
     3
100
AcDbLine
 10
-282.2964115116702
 20
131.1954852396951
 30
0.0
 11
-282.2604303116703
 21
131.280838249695
 31
0.0
  0
LINE
  5
DA5
330
6B
100
AcDbEntity
  8
0
 62
     3
100
AcDbLine
 10
-282.2604303116703
 20
131.280838249695
 30
0.0
 11
-282.2272804516702
 21
131.3745051796951
 31
0.0
  0
LINE
  5
DA6
330
6B
100
AcDbEntity
  8
0
 62
     3
100
AcDbLine
 10
-282.2272804516702
 20
131.3745051796951
 30
0.0
 11
-282.1972181716702
 21
131.4757620396951
 31
0.0
  0
LINE
  5
DA7
330
6B
100
AcDbEntity
  8
0
 62
     3
100
AcDbLine
 10
-282.1972181716702
 20
131.4757620396951
 30
0.0
 11
-282.1704758216703
 21
131.5838261596951
 31
0.0
  0
LINE
  5
DA8
330
6B
100
AcDbEntity
  8
0
 62
     3
100
AcDbLine
 10
-282.1704758216703
 20
131.5838261596951
 30
0.0
 11
-282.1472601216702
 21
131.6978622696951
 31
0.0
  0
LINE
  5
DA9
330
6B
100
AcDbEntity
  8
0
 62
     3
100
AcDbLine
 10
-282.1472601216702
 20
131.6978622696951
 30
0.0
 11
-282.1277505116702
 21
131.8169889196951
 31
0.0
  0
LINE
  5
DAA
330
6B
100
AcDbEntity
  8
0
100
AcDbLine
 10
-274.8722110929507
 20
-56.9890571779232
 30
0.0
 11
-274.8722110929507
 21
-71.84611261515328
 31
0.0
  0
LINE
  5
DAB
330
6B
100
AcDbEntity
  8
0
100
AcDbLine
 10
-244.8722110929507
 20
-56.9890571779232
 30
0.0
 11
-244.8722110929507
 21
-71.84611261515328
 31
0.0
  0
LINE
  5
DAC
330
6B
100
AcDbEntity
  8
0
100
AcDbLine
 10
-272.3722110929507
 20
-70.59611261515328
 30
0.0
 11
-247.3722110929507
 21
-70.59611261515328
 31
0.0
  0
LINE
  5
DB0
330
6B
100
AcDbEntity
  8
0
100
AcDbLine
 10
-271.2722110929507
 20
-56.98905717792509
 30
0.0
 11
-271.2722110929507
 21
-66.00463515337094
 31
0.0
  0
LINE
  5
DB1
330
6B
100
AcDbEntity
  8
0
100
AcDbLine
 10
-248.4722110929507
 20
-56.9890571779232
 30
0.0
 11
-248.4722110929507
 21
-66.00463515337094
 31
0.0
  0
LINE
  5
DB2
330
6B
100
AcDbEntity
  8
0
100
AcDbLine
 10
-268.7722110929507
 20
-64.75463515337094
 30
0.0
 11
-250.9722110929506
 21
-64.75463515337094
 31
0.0
  0
LINE
  5
DB6
330
6B
100
AcDbEntity
  8
0
100
AcDbLine
 10
-274.8722110929507
 20
-14.4890571779232
 30
0.0
 11
-274.8722110929507
 21
0.1335496247397714
 31
0.0
  0
LINE
  5
DB7
330
6B
100
AcDbEntity
  8
0
100
AcDbLine
 10
-244.8722110929507
 20
-14.4890571779232
 30
0.0
 11
-244.8722110929507
 21
0.1335496247397714
 31
0.0
  0
LINE
  5
DB8
330
6B
100
AcDbEntity
  8
0
100
AcDbLine
 10
-272.3722110929507
 20
-1.116450375260228
 30
0.0
 11
-247.3722110929507
 21
-1.116450375260228
 31
0.0
  0
LINE
  5
DBC
330
6B
100
AcDbEntity
  8
0
100
AcDbLine
 10
-264.8722110929507
 20
-15.1680556779232
 30
0.0
 11
-264.8722110929507
 21
-5.335225691713958
 31
0.0
  0
LINE
  5
DBD
330
6B
100
AcDbEntity
  8
0
100
AcDbLine
 10
-254.8722110929507
 20
-15.1680556779232
 30
0.0
 11
-254.8722110929507
 21
-5.335225691713958
 31
0.0
  0
LINE
  5
DBE
330
6B
100
AcDbEntity
  8
0
100
AcDbLine
 10
-267.3722110929507
 20
-6.585225691713958
 30
0.0
 11
-269.8722110929507
 21
-6.585225691713958
 31
0.0
  0
LINE
  5
DBF
330
6B
100
AcDbEntity
  8
0
100
AcDbLine
 10
-252.3722110929507
 20
-6.585225691713958
 30
0.0
 11
-219.4949985039146
 21
-6.585225691713958
 31
0.0
  0
LINE
  5
DC0
330
6B
100
AcDbEntity
  8
0
100
AcDbLine
 10
-264.8722110929507
 20
-6.585225691713958
 30
0.0
 11
-254.8722110929507
 21
-6.585225691713958
 31
0.0
  0
LINE
  5
DC4
330
6B
100
AcDbEntity
  8
0
100
AcDbLine
 10
-273.8722110929507
 20
-57.7390571779232
 30
0.0
 11
-281.1894325929507
 21
-57.7390571779232
 31
0.0
  0
LINE
  5
DC5
330
6B
100
AcDbEntity
  8
0
100
AcDbLine
 10
-275.1222110929507
 20
-14.7390571779232
 30
0.0
 11
-281.1894325929507
 21
-14.7390571779232
 31
0.0
  0
LINE
  5
DC6
330
6B
100
AcDbEntity
  8
0
100
AcDbLine
 10
-279.9394325929506
 20
-55.2390571779232
 30
0.0
 11
-279.9394325929506
 21
-17.2390571779232
 31
0.0
  0
LINE
  5
DCA
330
6B
100
AcDbEntity
  8
0
100
AcDbLine
 10
-245.8722110929507
 20
-57.7390571779232
 30
0.0
 11
-234.4372145929507
 21
-57.7390571779232
 31
0.0
  0
LINE
  5
DCB
330
6B
100
AcDbEntity
  8
0
100
AcDbLine
 10
-240.2231335929506
 20
-49.7390571779232
 30
0.0
 11
-234.4372145929507
 21
-49.7390571779232
 31
0.0
  0
LINE
  5
DCC
330
6B
100
AcDbEntity
  8
0
100
AcDbLine
 10
-235.6872145929507
 20
-55.2390571779232
 30
0.0
 11
-235.6872145929507
 21
-52.2390571779232
 31
0.0
  0
LINE
  5
DD0
330
6B
100
AcDbEntity
  8
0
100
AcDbLine
 10
-245.8722110929507
 20
-57.7390571779232
 30
0.0
 11
-230.7783965929507
 21
-57.7390571779232
 31
0.0
  0
LINE
  5
DD1
330
6B
100
AcDbEntity
  8
0
100
AcDbLine
 10
-248.622211085382
 20
-32.7390571779232
 30
0.0
 11
-230.7783965929507
 21
-32.73905717792321
 31
0.0
  0
LINE
  5
DD2
330
6B
100
AcDbEntity
  8
0
100
AcDbLine
 10
-232.0283965929507
 20
-55.2390571779232
 30
0.0
 11
-232.0283965929507
 21
-35.23905717792321
 31
0.0
  0
TEXT
  5
DD6
330
6B
100
AcDbEntity
  8
0
  6
Continuous
 62
     4
100
AcDbText
 10
-287.9342162089092
 20
39.48321719817182
 30
0.0
 40
3.0
  1
15
 50
90.0
100
AcDbText
  0
LINE
  5
DD7
330
6B
100
AcDbEntity
  8
0
  6
ByBlock
 62
     0
370
    -2
100
AcDbLine
 10
-287.9790887089092
 20
46.31309655126236
 30
0.0
 11
-287.3092162089092
 21
48.81309655126237
 31
0.0
  0
LINE
  5
DD8
330
6B
100
AcDbEntity
  8
0
  6
ByBlock
 62
     0
370
    -2
100
AcDbLine
 10
-287.3092162089092
 20
48.81309655126237
 30
0.0
 11
-286.6393437089092
 21
46.31309655126236
 31
0.0
  0
LINE
  5
DD9
330
6B
100
AcDbEntity
  8
0
  6
ByBlock
 62
     0
370
    -2
100
AcDbLine
 10
-287.3092162089092
 20
48.81309655126237
 30
0.0
 11
-287.3092162089092
 21
46.31309655126236
 31
0.0
  0
LINE
  5
DDA
330
6B
100
AcDbEntity
  8
0
  6
ByBlock
 62
     0
370
    -2
100
AcDbLine
 10
-286.6393437089092
 20
36.31622434235477
 30
0.0
 11
-287.3092162089092
 21
33.81622434235477
 31
0.0
  0
LINE
  5
DDB
330
6B
100
AcDbEntity
  8
0
  6
ByBlock
 62
     0
370
    -2
100
AcDbLine
 10
-287.3092162089092
 20
33.81622434235477
 30
0.0
 11
-287.9790887089092
 21
36.31622434235477
 31
0.0
  0
LINE
  5
DDC
330
6B
100
AcDbEntity
  8
0
  6
ByBlock
 62
     0
370
    -2
100
AcDbLine
 10
-287.3092162089092
 20
33.81622434235477
 30
0.0
 11
-287.3092162089092
 21
36.31622434235477
 31
0.0
  0
TEXT
  5
DDD
330
6B
100
AcDbEntity
  8
0
  6
Continuous
 62
     4
100
AcDbText
 10
-260.9684511166556
 20
55.72363032183557
 30
0.0
 40
3.0
  1
40
100
AcDbText
  0
LINE
  5
DDE
330
6B
100
AcDbEntity
  8
0
  6
ByBlock
 62
     0
370
    -2
100
AcDbLine
 10
-242.3722120391745
 20
55.76850282183556
 30
0.0
 11
-239.8722120391745
 21
55.09863032183557
 31
0.0
  0
LINE
  5
DDF
330
6B
100
AcDbEntity
  8
0
  6
ByBlock
 62
     0
370
    -2
100
AcDbLine
 10
-239.8722120391745
 20
55.09863032183557
 30
0.0
 11
-242.3722120391745
 21
54.42875782183557
 31
0.0
  0
LINE
  5
DE0
330
6B
100
AcDbEntity
  8
0
  6
ByBlock
 62
     0
370
    -2
100
AcDbLine
 10
-239.8722120391745
 20
55.09863032183557
 30
0.0
 11
-242.3722120391745
 21
55.09863032183557
 31
0.0
  0
LINE
  5
DE1
330
6B
100
AcDbEntity
  8
0
  6
ByBlock
 62
     0
370
    -2
100
AcDbLine
 10
-277.3722120391743
 20
54.42875782183557
 30
0.0
 11
-279.8722120391743
 21
55.09863032183557
 31
0.0
  0
LINE
  5
DE2
330
6B
100
AcDbEntity
  8
0
  6
ByBlock
 62
     0
370
    -2
100
AcDbLine
 10
-279.8722120391743
 20
55.09863032183557
 30
0.0
 11
-277.3722120391743
 21
55.76850282183556
 31
0.0
  0
LINE
  5
DE3
330
6B
100
AcDbEntity
  8
0
  6
ByBlock
 62
     0
370
    -2
100
AcDbLine
 10
-279.8722120391743
 20
55.09863032183557
 30
0.0
 11
-277.3722120391743
 21
55.09863032183557
 31
0.0
  0
LINE
  5
DE4
330
6B
100
AcDbEntity
  8
0
  6
Continuous
100
AcDbLine
 10
-252.5129807382791
 20
21.81416132308481
 30
0.0
 11
-243.2789883248584
 21
18.57705161657259
 31
0.0
1001
ACAD
1000
DSTYLE
1002
{
1070
   147
1040
0.625
1070
    77
1070
     0
1002
}
  0
LINE
  5
DE5
330
6B
100
AcDbEntity
  8
0
  6
Continuous
100
AcDbLine
 10
-243.2789883248584
 20
18.57705161657259
 30
0.0
 11
-240.7789883248583
 21
18.57705161657259
 31
0.0
1001
ACAD
1000
DSTYLE
1002
{
1070
   147
1040
0.625
1070
    77
1070
     0
1002
}
  0
LINE
  5
DE6
330
6B
100
AcDbEntity
  8
0
  6
ByBlock
 62
     0
370
    -2
100
AcDbLine
 10
-252.7345912683543
 20
21.18200790878093
 30
0.0
 11
-254.8722110929507
 21
22.64122367478285
 31
0.0
  0
LINE
  5
DE7
330
6B
100
AcDbEntity
  8
0
  6
ByBlock
 62
     0
370
    -2
100
AcDbLine
 10
-254.8722110929507
 20
22.64122367478285
 30
0.0
 11
-252.291370208204
 21
22.4463147373887
 31
0.0
  0
LINE
  5
DE8
330
6B
100
AcDbEntity
  8
0
  6
ByBlock
 62
     0
370
    -2
100
AcDbLine
 10
-254.8722110929507
 20
22.64122367478285
 30
0.0
 11
-252.5129807382791
 21
21.81416132308481
 31
0.0
  0
LINE
  5
DE9
330
6B
100
AcDbEntity
  8
0
  6
Continuous
100
AcDbLine
 10
-240.7944439229857
 20
-52.09804033011569
 30
0.0
 11
-236.7976060796962
 21
-63.48828806700419
 31
0.0
1001
ACAD
1000
DSTYLE
1002
{
1070
   147
1040
0.625
1070
    77
1070
     0
1002
}
  0
LINE
  5
DEA
330
6B
100
AcDbEntity
  8
0
  6
Continuous
100
AcDbLine
 10
-236.7976060796962
 20
-63.48828806700419
 30
0.0
 11
-234.2976060796961
 21
-63.48828806700419
 31
0.0
1001
ACAD
1000
DSTYLE
1002
{
1070
   147
1040
0.625
1070
    77
1070
     0
1002
}
  0
LINE
  5
DEB
330
6B
100
AcDbEntity
  8
0
  6
ByBlock
 62
     0
370
    -2
100
AcDbLine
 10
-241.4265310996325
 20
-52.31983971554066
 30
0.0
 11
-241.6222110929507
 21
-49.7390571779232
 31
0.0
  0
LINE
  5
DEC
330
6B
100
AcDbEntity
  8
0
  6
ByBlock
 62
     0
370
    -2
100
AcDbLine
 10
-241.6222110929507
 20
-49.7390571779232
 30
0.0
 11
-240.1623567463388
 21
-51.87624094469072
 31
0.0
  0
LINE
  5
DED
330
6B
100
AcDbEntity
  8
0
  6
ByBlock
 62
     0
370
    -2
100
AcDbLine
 10
-241.6222110929507
 20
-49.7390571779232
 30
0.0
 11
-240.7944439229857
 21
-52.09804033011569
 31
0.0
  0
LINE
  5
DEE
330
6B
100
AcDbEntity
  8
0
  6
Continuous
100
AcDbLine
 10
-211.8290944222528
 20
-55.20478651483407
 30
0.0
 11
-208.8880866760617
 21
-72.78356910552736
 31
0.0
1001
ACAD
1000
DSTYLE
1002
{
1070
   147
1040
0.625
1070
    77
1070
     0
1002
}
  0
LINE
  5
DEF
330
6B
100
AcDbEntity
  8
0
  6
Continuous
100
AcDbLine
 10
-208.8880866760617
 20
-72.78356910552736
 30
0.0
 11
-206.3880866760617
 21
-72.78356910552736
 31
0.0
1001
ACAD
1000
DSTYLE
1002
{
1070
   147
1040
0.625
1070
    77
1070
     0
1002
}
  0
LINE
  5
DF0
330
6B
100
AcDbEntity
  8
0
  6
ByBlock
 62
     0
370
    -2
100
AcDbLine
 10
-212.4897841323487
 20
-55.3153228130786
 30
0.0
 11
-212.2416217996438
 21
-52.7390571779232
 31
0.0
  0
LINE
  5
DF1
330
6B
100
AcDbEntity
  8
0
  6
ByBlock
 62
     0
370
    -2
100
AcDbLine
 10
-212.2416217996438
 20
-52.7390571779232
 30
0.0
 11
-211.1684047121568
 21
-55.09425021658952
 31
0.0
  0
LINE
  5
DF2
330
6B
100
AcDbEntity
  8
0
  6
ByBlock
 62
     0
370
    -2
100
AcDbLine
 10
-212.2416217996438
 20
-52.7390571779232
 30
0.0
 11
-211.8290944222528
 21
-55.20478651483407
 31
0.0
  0
TEXT
  5
DF3
330
6B
100
AcDbEntity
  8
0
  6
Continuous
 62
     4
100
AcDbText
 10
-198.4568741032794
 20
-23.76056825141564
 30
0.0
 40
3.0
  1
20
100
AcDbText
  0
LINE
  5
DF4
330
6B
100
AcDbEntity
  8
0
  6
ByBlock
 62
     0
370
    -2
100
AcDbLine
 10
-188.1916217996438
 20
-23.71569575141563
 30
0.0
 11
-185.6916217996438
 21
-24.38556825141564
 31
0.0
  0
LINE
  5
DF5
330
6B
100
AcDbEntity
  8
0
  6
ByBlock
 62
     0
370
    -2
100
AcDbLine
 10
-185.6916217996438
 20
-24.38556825141564
 30
0.0
 11
-188.1916217996438
 21
-25.05544075141564
 31
0.0
  0
LINE
  5
DF6
330
6B
100
AcDbEntity
  8
0
  6
ByBlock
 62
     0
370
    -2
100
AcDbLine
 10
-185.6916217996438
 20
-24.38556825141564
 30
0.0
 11
-188.1916217996438
 21
-24.38556825141564
 31
0.0
  0
LINE
  5
DF7
330
6B
100
AcDbEntity
  8
0
  6
ByBlock
 62
     0
370
    -2
100
AcDbLine
 10
-203.1916217996438
 20
-25.05544075141564
 30
0.0
 11
-205.6916217996437
 21
-24.38556825141564
 31
0.0
  0
LINE
  5
DF8
330
6B
100
AcDbEntity
  8
0
  6
ByBlock
 62
     0
370
    -2
100
AcDbLine
 10
-205.6916217996437
 20
-24.38556825141564
 30
0.0
 11
-203.1916217996438
 21
-23.71569575141563
 31
0.0
  0
LINE
  5
DF9
330
6B
100
AcDbEntity
  8
0
  6
ByBlock
 62
     0
370
    -2
100
AcDbLine
 10
-205.6916217996437
 20
-24.38556825141564
 30
0.0
 11
-203.1916217996438
 21
-24.38556825141564
 31
0.0
  0
TEXT
  5
DFA
330
6B
100
AcDbEntity
  8
0
  6
Continuous
 62
     4
100
AcDbText
 10
-172.553595733081
 20
-52.86937049831658
 30
0.0
 40
3.0
  1
36
 50
90.0
100
AcDbText
  0
LINE
  5
DFB
330
6B
100
AcDbEntity
  8
0
  6
ByBlock
 62
     0
370
    -2
100
AcDbLine
 10
-171.258723233081
 20
-65.2390571779232
 30
0.0
 11
-171.928595733081
 21
-67.7390571779232
 31
0.0
  0
LINE
  5
DFC
330
6B
100
AcDbEntity
  8
0
  6
ByBlock
 62
     0
370
    -2
100
AcDbLine
 10
-171.928595733081
 20
-67.7390571779232
 30
0.0
 11
-172.598468233081
 21
-65.2390571779232
 31
0.0
  0
LINE
  5
DFD
330
6B
100
AcDbEntity
  8
0
  6
ByBlock
 62
     0
370
    -2
100
AcDbLine
 10
-171.928595733081
 20
-67.7390571779232
 30
0.0
 11
-171.928595733081
 21
-65.2390571779232
 31
0.0
  0
LINE
  5
DFE
330
6B
100
AcDbEntity
  8
0
  6
ByBlock
 62
     0
370
    -2
100
AcDbLine
 10
-172.598468233081
 20
-34.2390571779232
 30
0.0
 11
-171.928595733081
 21
-31.73905717792321
 31
0.0
  0
LINE
  5
DFF
330
6B
100
AcDbEntity
  8
0
  6
ByBlock
 62
     0
370
    -2
100
AcDbLine
 10
-171.928595733081
 20
-31.73905717792321
 30
0.0
 11
-171.258723233081
 21
-34.2390571779232
 31
0.0
  0
LINE
  5
E00
330
6B
100
AcDbEntity
  8
0
  6
ByBlock
 62
     0
370
    -2
100
AcDbLine
 10
-171.928595733081
 20
-31.73905717792321
 30
0.0
 11
-171.928595733081
 21
-34.2390571779232
 31
0.0
  0
TEXT
  5
E01
330
6B
100
AcDbEntity
  8
0
  6
Continuous
 62
     4
100
AcDbText
 10
-263.9358123654087
 20
-69.97111261515328
 30
0.0
 40
3.0
  1
\U+220530
100
AcDbText
  0
LINE
  5
E02
330
6B
100
AcDbEntity
  8
0
  6
ByBlock
 62
     0
370
    -2
100
AcDbLine
 10
-247.3722110929507
 20
-69.92624011515329
 30
0.0
 11
-244.8722110929507
 21
-70.59611261515328
 31
0.0
  0
LINE
  5
E03
330
6B
100
AcDbEntity
  8
0
  6
ByBlock
 62
     0
370
    -2
100
AcDbLine
 10
-244.8722110929507
 20
-70.59611261515328
 30
0.0
 11
-247.3722110929507
 21
-71.26598511515329
 31
0.0
  0
LINE
  5
E04
330
6B
100
AcDbEntity
  8
0
  6
ByBlock
 62
     0
370
    -2
100
AcDbLine
 10
-244.8722110929507
 20
-70.59611261515328
 30
0.0
 11
-247.3722110929507
 21
-70.59611261515328
 31
0.0
  0
LINE
  5
E05
330
6B
100
AcDbEntity
  8
0
  6
ByBlock
 62
     0
370
    -2
100
AcDbLine
 10
-272.3722110929507
 20
-71.26598511515329
 30
0.0
 11
-274.8722110929507
 21
-70.59611261515328
 31
0.0
  0
LINE
  5
E06
330
6B
100
AcDbEntity
  8
0
  6
ByBlock
 62
     0
370
    -2
100
AcDbLine
 10
-274.8722110929507
 20
-70.59611261515328
 30
0.0
 11
-272.3722110929507
 21
-69.92624011515329
 31
0.0
  0
LINE
  5
E07
330
6B
100
AcDbEntity
  8
0
  6
ByBlock
 62
     0
370
    -2
100
AcDbLine
 10
-274.8722110929507
 20
-70.59611261515328
 30
0.0
 11
-272.3722110929507
 21
-70.59611261515328
 31
0.0
  0
TEXT
  5
E08
330
6B
100
AcDbEntity
  8
0
  6
Continuous
 62
     4
100
AcDbText
 10
-265.7535775938429
 20
-64.12963515337094
 30
0.0
 40
3.0
  1
\U+220522.8
100
AcDbText
  0
LINE
  5
E09
330
6B
100
AcDbEntity
  8
0
  6
ByBlock
 62
     0
370
    -2
100
AcDbLine
 10
-250.9722110929506
 20
-64.08476265337094
 30
0.0
 11
-248.4722110929507
 21
-64.75463515337094
 31
0.0
  0
LINE
  5
E0A
330
6B
100
AcDbEntity
  8
0
  6
ByBlock
 62
     0
370
    -2
100
AcDbLine
 10
-248.4722110929507
 20
-64.75463515337094
 30
0.0
 11
-250.9722110929506
 21
-65.42450765337093
 31
0.0
  0
LINE
  5
E0B
330
6B
100
AcDbEntity
  8
0
  6
ByBlock
 62
     0
370
    -2
100
AcDbLine
 10
-248.4722110929507
 20
-64.75463515337094
 30
0.0
 11
-250.9722110929506
 21
-64.75463515337094
 31
0.0
  0
LINE
  5
E0C
330
6B
100
AcDbEntity
  8
0
  6
ByBlock
 62
     0
370
    -2
100
AcDbLine
 10
-268.7722110929507
 20
-65.42450765337093
 30
0.0
 11
-271.2722110929507
 21
-64.75463515337094
 31
0.0
  0
LINE
  5
E0D
330
6B
100
AcDbEntity
  8
0
  6
ByBlock
 62
     0
370
    -2
100
AcDbLine
 10
-271.2722110929507
 20
-64.75463515337094
 30
0.0
 11
-268.7722110929507
 21
-64.08476265337094
 31
0.0
  0
LINE
  5
E0E
330
6B
100
AcDbEntity
  8
0
  6
ByBlock
 62
     0
370
    -2
100
AcDbLine
 10
-271.2722110929507
 20
-64.75463515337094
 30
0.0
 11
-268.7722110929507
 21
-64.75463515337094
 31
0.0
  0
TEXT
  5
E0F
330
6B
100
AcDbEntity
  8
0
  6
Continuous
 62
     4
100
AcDbText
 10
-262.2536345946276
 20
-0.4914503752602287
 30
0.0
 40
3.0
  1
30
100
AcDbText
  0
LINE
  5
E10
330
6B
100
AcDbEntity
  8
0
  6
ByBlock
 62
     0
370
    -2
100
AcDbLine
 10
-247.3722110929507
 20
-0.4465778752602287
 30
0.0
 11
-244.8722110929507
 21
-1.116450375260228
 31
0.0
  0
LINE
  5
E11
330
6B
100
AcDbEntity
  8
0
  6
ByBlock
 62
     0
370
    -2
100
AcDbLine
 10
-244.8722110929507
 20
-1.116450375260228
 30
0.0
 11
-247.3722110929507
 21
-1.786322875260228
 31
0.0
  0
LINE
  5
E12
330
6B
100
AcDbEntity
  8
0
  6
ByBlock
 62
     0
370
    -2
100
AcDbLine
 10
-244.8722110929507
 20
-1.116450375260228
 30
0.0
 11
-247.3722110929507
 21
-1.116450375260228
 31
0.0
  0
LINE
  5
E13
330
6B
100
AcDbEntity
  8
0
  6
ByBlock
 62
     0
370
    -2
100
AcDbLine
 10
-272.3722110929507
 20
-1.786322875260228
 30
0.0
 11
-274.8722110929507
 21
-1.116450375260228
 31
0.0
  0
LINE
  5
E14
330
6B
100
AcDbEntity
  8
0
  6
ByBlock
 62
     0
370
    -2
100
AcDbLine
 10
-274.8722110929507
 20
-1.116450375260228
 30
0.0
 11
-272.3722110929507
 21
-0.446577875260229
 31
0.0
  0
LINE
  5
E15
330
6B
100
AcDbEntity
  8
0
  6
ByBlock
 62
     0
370
    -2
100
AcDbLine
 10
-274.8722110929507
 20
-1.116450375260228
 30
0.0
 11
-272.3722110929507
 21
-1.116450375260228
 31
0.0
  0
TEXT
  5
E16
330
6B
100
AcDbEntity
  8
0
  6
Continuous
 62
     4
100
AcDbText
 10
-240.4199985039146
 20
-5.960225691713958
 30
0.0
 40
3.0
  1
M10 P=1.5
100
AcDbText
  0
LINE
  5
E17
330
6B
100
AcDbEntity
  8
0
  6
ByBlock
 62
     0
370
    -2
100
AcDbLine
 10
-252.3722110929507
 20
-7.255098191713958
 30
0.0
 11
-254.8722110929507
 21
-6.585225691713958
 31
0.0
  0
LINE
  5
E18
330
6B
100
AcDbEntity
  8
0
  6
ByBlock
 62
     0
370
    -2
100
AcDbLine
 10
-254.8722110929507
 20
-6.585225691713958
 30
0.0
 11
-252.3722110929507
 21
-5.915353191713959
 31
0.0
  0
LINE
  5
E19
330
6B
100
AcDbEntity
  8
0
  6
ByBlock
 62
     0
370
    -2
100
AcDbLine
 10
-254.8722110929507
 20
-6.585225691713958
 30
0.0
 11
-252.3722110929507
 21
-6.585225691713958
 31
0.0
  0
LINE
  5
E1A
330
6B
100
AcDbEntity
  8
0
  6
ByBlock
 62
     0
370
    -2
100
AcDbLine
 10
-267.3722110929507
 20
-5.915353191713958
 30
0.0
 11
-264.8722110929507
 21
-6.585225691713958
 31
0.0
  0
LINE
  5
E1B
330
6B
100
AcDbEntity
  8
0
  6
ByBlock
 62
     0
370
    -2
100
AcDbLine
 10
-264.8722110929507
 20
-6.585225691713958
 30
0.0
 11
-267.3722110929507
 21
-7.255098191713958
 31
0.0
  0
LINE
  5
E1C
330
6B
100
AcDbEntity
  8
0
  6
ByBlock
 62
     0
370
    -2
100
AcDbLine
 10
-264.8722110929507
 20
-6.585225691713958
 30
0.0
 11
-267.3722110929507
 21
-6.585225691713958
 31
0.0
  0
TEXT
  5
E1D
330
6B
100
AcDbEntity
  8
0
  6
Continuous
 62
     4
100
AcDbText
 10
-280.5644325929506
 20
-38.73905717792325
 30
0.0
 40
3.0
  1
43
 50
90.0
100
AcDbText
  0
LINE
  5
E1E
330
6B
100
AcDbEntity
  8
0
  6
ByBlock
 62
     0
370
    -2
100
AcDbLine
 10
-280.6093050929506
 20
-17.2390571779232
 30
0.0
 11
-279.9394325929506
 21
-14.7390571779232
 31
0.0
  0
LINE
  5
E1F
330
6B
100
AcDbEntity
  8
0
  6
ByBlock
 62
     0
370
    -2
100
AcDbLine
 10
-279.9394325929506
 20
-14.7390571779232
 30
0.0
 11
-279.2695600929507
 21
-17.2390571779232
 31
0.0
  0
LINE
  5
E20
330
6B
100
AcDbEntity
  8
0
  6
ByBlock
 62
     0
370
    -2
100
AcDbLine
 10
-279.9394325929506
 20
-14.7390571779232
 30
0.0
 11
-279.9394325929506
 21
-17.2390571779232
 31
0.0
  0
LINE
  5
E21
330
6B
100
AcDbEntity
  8
0
  6
ByBlock
 62
     0
370
    -2
100
AcDbLine
 10
-279.2695600929507
 20
-55.2390571779232
 30
0.0
 11
-279.9394325929506
 21
-57.7390571779232
 31
0.0
  0
LINE
  5
E22
330
6B
100
AcDbEntity
  8
0
  6
ByBlock
 62
     0
370
    -2
100
AcDbLine
 10
-279.9394325929506
 20
-57.7390571779232
 30
0.0
 11
-280.6093050929506
 21
-55.2390571779232
 31
0.0
  0
LINE
  5
E23
330
6B
100
AcDbEntity
  8
0
  6
ByBlock
 62
     0
370
    -2
100
AcDbLine
 10
-279.9394325929506
 20
-57.7390571779232
 30
0.0
 11
-279.9394325929506
 21
-55.2390571779232
 31
0.0
  0
TEXT
  5
E24
330
6B
100
AcDbEntity
  8
0
  6
Continuous
 62
     4
100
AcDbText
 10
-236.3122145929507
 20
-54.73905717792324
 30
0.0
 40
3.0
  1
8
 50
90.0
100
AcDbText
  0
LINE
  5
E25
330
6B
100
AcDbEntity
  8
0
  6
ByBlock
 62
     0
370
    -2
100
AcDbLine
 10
-236.3570870929507
 20
-52.2390571779232
 30
0.0
 11
-235.6872145929507
 21
-49.7390571779232
 31
0.0
  0
LINE
  5
E26
330
6B
100
AcDbEntity
  8
0
  6
ByBlock
 62
     0
370
    -2
100
AcDbLine
 10
-235.6872145929507
 20
-49.7390571779232
 30
0.0
 11
-235.0173420929507
 21
-52.2390571779232
 31
0.0
  0
LINE
  5
E27
330
6B
100
AcDbEntity
  8
0
  6
ByBlock
 62
     0
370
    -2
100
AcDbLine
 10
-235.6872145929507
 20
-49.7390571779232
 30
0.0
 11
-235.6872145929507
 21
-52.2390571779232
 31
0.0
  0
LINE
  5
E28
330
6B
100
AcDbEntity
  8
0
  6
ByBlock
 62
     0
370
    -2
100
AcDbLine
 10
-235.0173420929507
 20
-55.2390571779232
 30
0.0
 11
-235.6872145929507
 21
-57.7390571779232
 31
0.0
  0
LINE
  5
E29
330
6B
100
AcDbEntity
  8
0
  6
ByBlock
 62
     0
370
    -2
100
AcDbLine
 10
-235.6872145929507
 20
-57.7390571779232
 30
0.0
 11
-236.3570870929507
 21
-55.2390571779232
 31
0.0
  0
LINE
  5
E2A
330
6B
100
AcDbEntity
  8
0
  6
ByBlock
 62
     0
370
    -2
100
AcDbLine
 10
-235.6872145929507
 20
-57.7390571779232
 30
0.0
 11
-235.6872145929507
 21
-55.2390571779232
 31
0.0
  0
TEXT
  5
E2B
330
6B
100
AcDbEntity
  8
0
  6
Continuous
 62
     4
100
AcDbText
 10
-232.6533965929507
 20
-47.73905717792324
 30
0.0
 40
3.0
  1
25
 50
90.0
100
AcDbText
  0
LINE
  5
E2C
330
6B
100
AcDbEntity
  8
0
  6
ByBlock
 62
     0
370
    -2
100
AcDbLine
 10
-232.6982690929507
 20
-35.23905717792321
 30
0.0
 11
-232.0283965929507
 21
-32.73905717792321
 31
0.0
  0
LINE
  5
E2D
330
6B
100
AcDbEntity
  8
0
  6
ByBlock
 62
     0
370
    -2
100
AcDbLine
 10
-232.0283965929507
 20
-32.73905717792321
 30
0.0
 11
-231.3585240929507
 21
-35.23905717792321
 31
0.0
  0
LINE
  5
E2E
330
6B
100
AcDbEntity
  8
0
  6
ByBlock
 62
     0
370
    -2
100
AcDbLine
 10
-232.0283965929507
 20
-32.73905717792321
 30
0.0
 11
-232.0283965929507
 21
-35.23905717792321
 31
0.0
  0
LINE
  5
E2F
330
6B
100
AcDbEntity
  8
0
  6
ByBlock
 62
     0
370
    -2
100
AcDbLine
 10
-231.3585240929507
 20
-55.2390571779232
 30
0.0
 11
-232.0283965929507
 21
-57.7390571779232
 31
0.0
  0
LINE
  5
E30
330
6B
100
AcDbEntity
  8
0
  6
ByBlock
 62
     0
370
    -2
100
AcDbLine
 10
-232.0283965929507
 20
-57.7390571779232
 30
0.0
 11
-232.6982690929507
 21
-55.2390571779232
 31
0.0
  0
LINE
  5
E31
330
6B
100
AcDbEntity
  8
0
  6
ByBlock
 62
     0
370
    -2
100
AcDbLine
 10
-232.0283965929507
 20
-57.7390571779232
 30
0.0
 11
-232.0283965929507
 21
-55.2390571779232
 31
0.0
  0
ENDSEC
  0
SECTION
  2
OBJECTS
  0
DICTIONARY
  5
C
330
0
100
AcDbDictionary
281
     1
  3
ACAD_2007HEADERVARS_RT
350
E35
  3
ACAD_COLOR
350
62
  3
ACAD_GROUP
350
D
  3
ACAD_LAYOUT
350
61
  3
ACAD_MATERIAL
350
10
  3
ACAD_MLEADERSTYLE
350
65
  3
ACAD_MLINESTYLE
350
5E
  3
ACAD_PLOTSETTINGS
350
60
  3
ACAD_PLOTSTYLENAME
350
E
  3
ACAD_SCALELIST
350
42
  3
ACAD_TABLESTYLE
350
63
  3
ACAD_VISUALSTYLE
350
29
  3
AcadDim
350
C88
  3
ACDB_RECOMPOSE_DATA
350
E33
  3
AcDbVariableDictionary
350
643
  3
DWGPROPS
350
E34
  0
DICTIONARY
  5
31B
330
2
100
AcDbDictionary
280
     1
281
     1
  3
ACAD_LAYERSTATES
360
31C
  0
DICTIONARY
  5
63E
330
54
100
AcDbDictionary
280
     1
281
     1
  3
ADSK_XREC_LAYER_RECONCILED
360
63F
  0
DICTIONARY
  5
4E7
330
6B
100
AcDbDictionary
280
     1
281
     1
  3
ACAD_SORTENTS
360
4E8
  0
DICTIONARY
  5
A0E
330
9CD
100
AcDbDictionary
280
     1
281
     1
  3
ACAD_SORTENTS
360
A0F
  0
DICTIONARY
  5
E35
102
{ACAD_REACTORS
330
C
102
}
330
C
100
AcDbDictionary
281
     1
  3
DIMARCSYM
350
E37
  3
DIMFXL
350
E36
  3
DIMJOGANG
350
E38
  0
DICTIONARY
  5
62
102
{ACAD_REACTORS
330
C
102
}
330
C
100
AcDbDictionary
281
     1
  0
DICTIONARY
  5
D
102
{ACAD_REACTORS
330
C
102
}
330
C
100
AcDbDictionary
281
     1
  0
DICTIONARY
  5
61
102
{ACAD_REACTORS
330
C
102
}
330
C
100
AcDbDictionary
281
     1
  3
Model
350
6E
  3
レイアウト1
350
6A
  0
DICTIONARY
  5
10
102
{ACAD_REACTORS
330
C
102
}
330
C
100
AcDbDictionary
281
     1
  3
ByBlock
350
19
  3
ByLayer
350
11
  3
Global
350
21
  0
DICTIONARY
  5
65
102
{ACAD_REACTORS
330
C
102
}
330
C
100
AcDbDictionary
281
     1
  3
Standard
350
66
  0
DICTIONARY
  5
5E
102
{ACAD_REACTORS
330
C
102
}
330
C
100
AcDbDictionary
281
     1
  3
Standard
350
5F
  0
DICTIONARY
  5
60
102
{ACAD_REACTORS
330
C
102
}
330
C
100
AcDbDictionary
281
     1
  0
ACDBDICTIONARYWDFLT
  5
E
102
{ACAD_REACTORS
330
C
102
}
330
C
100
AcDbDictionary
281
     1
  3
Normal
350
F
100
AcDbDictionaryWithDefault
340
F
  0
DICTIONARY
  5
42
102
{ACAD_REACTORS
330
C
102
}
330
C
100
AcDbDictionary
281
     1
  3
A0
350
43
  3
A1
350
44
  3
A2
350
45
  3
A3
350
46
  3
A4
350
47
  3
A5
350
48
  3
A6
350
49
  3
A7
350
4A
  3
A8
350
4B
  3
A9
350
4C
  3
B0
350
4D
  3
B1
350
4E
  3
B2
350
4F
  3
B3
350
50
  3
B4
350
51
  3
B5
350
52
  3
B6
350
53
  0
DICTIONARY
  5
63
102
{ACAD_REACTORS
330
C
102
}
330
C
100
AcDbDictionary
281
     1
  3
Standard
350
64
  0
DICTIONARY
  5
29
102
{ACAD_REACTORS
330
C
102
}
330
C
100
AcDbDictionary
281
     1
  3
2dWireframe
350
2F
  3
Basic
350
2E
  3
Brighten
350
35
  3
ColorChange
350
39
  3
Conceptual
350
32
  3
Dim
350
34
  3
EdgeColorOff
350
41
  3
Facepattern
350
38
  3
Flat
350
2A
  3
FlatWithEdges
350
2B
  3
Gouraud
350
2C
  3
GouraudWithEdges
350
2D
  3
Hidden
350
31
  3
JitterOff
350
3F
  3
Linepattern
350
37
  3
OverhangOff
350
40
  3
Realistic
350
33
  3
Shaded
350
3E
  3
Shaded with edges
350
3D
  3
Shades of Gray
350
3A
  3
Sketchy
350
3B
  3
Thicken
350
36
  3
Wireframe
350
30
  3
X-Ray
350
3C
  0
XRECORD
  5
C88
102
{ACAD_REACTORS
330
C
102
}
330
C
100
AcDbXrecord
280
     1
 90
   990106
  3

 60
     0
 61
     0
 62
     1
 63
     3
 64
     0
 65
     0
 66
     0
 67
     3
 68
     1
 69
     0
 70
     0
 71
     0
 72
     0
 40
0.0
170
     0
  0
XRECORD
  5
E33
102
{ACAD_REACTORS
330
C
102
}
330
C
100
AcDbXrecord
280
     1
 90
        1
330
64
  0
DICTIONARY
  5
643
102
{ACAD_REACTORS
330
C
102
}
330
C
100
AcDbDictionary
281
     1
  3
CANNOSCALE
350
646
  3
CMLEADERSTYLE
350
645
  3
CTABLESTYLE
350
644
  3
DIMASSOC
350
649
  3
INDEXCTL
350
648
  3
SORTENTS
350
647
  3
XCLIPFRAME
350
C89
  0
XRECORD
  5
E34
102
{ACAD_REACTORS
330
C
102
}
330
C
100
AcDbXrecord
280
     1
  1
DWGPROPS COOKIE
  2

  3

  4

  6

  7

  8
imamura
  9

300
=
301
=
302
=
303
=
304
=
305
=
306
=
307
=
308
=
309
=
 40
0.1734211921296296
 41
2456321.623975301
 42
2456589.579869502
  1

 90
        0
  0
DICTIONARY
  5
31C
102
{ACAD_REACTORS
330
31B
102
}
330
31B
100
AcDbDictionary
281
     1
  0
XRECORD
  5
63F
102
{ACAD_REACTORS
330
63E
102
}
330
63E
100
AcDbXrecord
280
     1
290
     1
  0
SORTENTSTABLE
  5
4E8
102
{ACAD_REACTORS
330
4E7
102
}
330
4E7
100
AcDbSortentsTable
330
6B
331
DF7
  5
E05
331
DF3
  5
E0B
331
DEF
  5
E10
331
E2E
  5
335
331
D7F
  5
97C
331
DEB
  5
E12
331
E2A
  5
33F
331
D7B
  5
978
331
D77
  5
974
331
DB6
  5
368
331
906
  5
AA8
331
D73
  5
970
331
DB2
  5
375
331
902
  5
AA4
331
3A6
  5
A69
331
5AC
  5
3C3
331
97E
  5
D68
331
3A2
  5
A5F
331
5A8
  5
3BF
331
97A
  5
D64
331
3E5
  5
A71
331
AAF
  5
DEE
331
5EF
  5
5D1
331
AAB
  5
DEA
331
5EB
  5
5CD
331
A6C
  5
D7B
331
57C
  5
391
331
626
  5
8FE
331
AA7
  5
DE6
331
5E7
  5
5CA
331
A29
  5
DA7
331
A68
  5
D77
331
578
  5
38D
331
622
  5
8F9
331
AA3
  5
DA5
331
5E3
  5
5C6
331
DE7
  5
E19
331
E26
  5
344
331
DE3
  5
E23
331
E22
  5
352
331
DDF
  5
E25
331
E1E
  5
357
331
D6F
  5
967
331
DDB
  5
E2C
331
E1A
  5
361
331
8FE
  5
A9E
331
D6B
  5
963
331
DAA
  5
37E
331
D67
  5
DFA
331
DA6
  5
A3D
331
8FA
  5
A9A
331
DA2
  5
A30
331
39E
  5
A4A
331
5A4
  5
3BB
331
976
  5
D60
331
39A
  5
A46
331
5A0
  5
3B7
331
402
  5
A8D
331
972
  5
D5C
331
396
  5
A41
331
59C
  5
3B3
331
96E
  5
D58
331
392
  5
95F
331
598
  5
3AF
331
96A
  5
D54
331
A25
  5
DB2
331
A64
  5
A94
331
574
  5
389
331
61E
  5
806
331
A9F
  5
DA1
331
5DF
  5
5C2
331
61A
  5
637
331
A9B
  5
D9D
331
5DB
  5
5BE
331
A1D
  5
DAD
331
616
  5
632
331
A97
  5
D99
331
5D7
  5
3ED
331
A58
  5
DE2
331
612
  5
62E
331
5D3
  5
3E9
331
DD7
  5
E2E
331
E16
  5
367
331
E12
  5
370
331
D5F
  5
E02
331
D9E
  5
A2C
331
E0E
  5
378
331
E0A
  5
37A
331
D9A
  5
A28
331
DCB
  5
33B
331
D96
  5
993
331
D92
  5
98F
331
38E
  5
91D
331
594
  5
3AB
331
966
  5
D50
331
38A
  5
916
331
590
  5
3A6
331
63B
  5
A90
331
58C
  5
3A2
331
95E
  5
D4D
331
588
  5
39D
331
91B
  5
AB6
331
A54
  5
DDE
331
55C
  5
A52
331
60E
  5
62A
331
5CF
  5
3E5
331
A50
  5
DDA
331
60A
  5
626
331
A8B
  5
D97
331
5CB
  5
3E2
331
A4C
  5
DD6
331
3FC
  5
A8B
331
606
  5
5F9
331
A87
  5
D93
331
5C7
  5
3DE
331
3F8
  5
A84
331
3B9
  5
A6B
331
602
  5
5F7
331
A83
  5
D8F
331
5C3
  5
3DA
331
E06
  5
382
331
E02
  5
385
331
DFE
  5
DFB
331
D8E
  5
98B
331
DBF
  5
35F
331
DFA
  5
E01
331
D4B
  5
E29
331
D8A
  5
987
331
D86
  5
983
331
E31
  5
32D
331
D82
  5
97F
331
584
  5
399
331
580
  5
395
331
913
  5
AB3
331
989
  5
D73
331
90F
  5
AAF
331
985
  5
D6F
331
90B
  5
AAB
331
981
  5
D6B
331
A44
  5
DCA
331
3F4
  5
A7F
331
5FE
  5
5E1
331
5BF
  5
3D6
331
A40
  5
DBD
331
3F0
  5
A7C
331
5FA
  5
5DD
331
A7B
  5
D88
331
5BB
  5
3D2
331
635
  5
911
331
A3C
  5
DB6
331
3EC
  5
A79
331
AB6
  5
DF5
331
5F6
  5
5D9
331
A77
  5
D84
331
5B7
  5
3CE
331
631
  5
90C
331
AB2
  5
DF1
331
62D
  5
906
331
5B3
  5
3CA
331
629
  5
901
331
DF6
  5
E0A
331
DF2
  5
E0E
331
DEE
  5
E0F
331
E2D
  5
334
331
D7E
  5
97B
331
DEA
  5
E16
331
E29
  5
33E
331
D7A
  5
977
331
D76
  5
973
331
905
  5
AA7
331
D72
  5
96F
331
DB1
  5
374
331
901
  5
AA3
331
5AF
  5
3C6
331
3A5
  5
A68
331
5AB
  5
3C2
331
97D
  5
D67
331
3A1
  5
A54
331
979
  5
D63
331
3E4
  5
A70
331
AAE
  5
DED
331
5EE
  5
5D0
331
A6F
  5
D7E
331
57F
  5
394
331
AAA
  5
DE9
331
5EA
  5
5CC
331
A2C
  5
DA8
331
A6B
  5
D7A
331
57B
  5
390
331
625
  5
8FD
331
AA6
  5
DA6
331
5E6
  5
5C9
331
A28
  5
DA9
331
621
  5
8F8
331
AA2
  5
DA4
331
5E2
  5
5C5
331
DE6
  5
E18
331
E25
  5
343
331
DE2
  5
E22
331
E21
  5
351
331
DDE
  5
E24
331
E1D
  5
35A
331
D6E
  5
966
331
DDA
  5
E2B
331
E19
  5
366
331
8FD
  5
A9D
331
DA9
  5
A40
331
D66
  5
DF9
331
DA5
  5
A3C
331
8F9
  5
A99
331
8F5
  5
A97
331
DA1
  5
A2F
331
5A7
  5
3BE
331
39D
  5
A49
331
5A3
  5
3BA
331
975
  5
D5F
331
399
  5
A44
331
59F
  5
3B6
331
401
  5
A8C
331
971
  5
D5B
331
395
  5
962
331
59B
  5
3B2
331
96D
  5
D57
331
391
  5
95E
331
969
  5
D53
331
577
  5
38C
331
A63
  5
A95
331
573
  5
37D
331
61D
  5
63D
331
A9E
  5
DA0
331
5DE
  5
5C1
331
A20
  5
DB1
331
56F
  5
34A
331
619
  5
636
331
A9A
  5
D9C
331
5DA
  5
3F1
331
A5B
  5
DE5
331
A1C
  5
DAE
331
615
  5
631
331
5D6
  5
3EC
331
A18
  5
DAF
331
611
  5
62C
331
5D2
  5
3E8
331
DD6
  5
E31
331
E15
  5
36D
331
E11
  5
36F
331
DD2
  5
32E
331
D9D
  5
A2B
331
E0D
  5
377
331
E09
  5
379
331
D99
  5
A27
331
DCA
  5
33A
331
D56
  5
E1D
331
D95
  5
992
331
D52
  5
E20
331
D91
  5
98E
331
597
  5
3AE
331
38D
  5
91C
331
593
  5
3A9
331
389
  5
919
331
58F
  5
3A5
331
63A
  5
A8F
331
58B
  5
3A1
331
95D
  5
D4C
331
91E
  5
D4B
331
91A
  5
AA1
331
A57
  5
DE1
331
A53
  5
DDD
331
60D
  5
628
331
5CE
  5
3E4
331
A4F
  5
DD9
331
609
  5
625
331
A8A
  5
D96
331
5CA
  5
3E1
331
A4B
  5
DD2
331
3FB
  5
A8A
331
605
  5
620
331
A86
  5
D92
331
5C6
  5
3DD
331
3B8
  5
A6A
331
601
  5
5E4
331
A82
  5
D8E
331
5C2
  5
3D9
331
E05
  5
381
331
DC6
  5
350
331
E01
  5
388
331
DFD
  5
E00
331
D8D
  5
98A
331
DBE
  5
35E
331
DF9
  5
E07
331
D4A
  5
E28
331
D89
  5
986
331
D85
  5
982
331
E30
  5
32C
331
D81
  5
97E
331
587
  5
39C
331
583
  5
398
331
916
  5
AA0
331
98C
  5
D76
331
912
  5
AB2
331
988
  5
D72
331
90E
  5
AAE
331
984
  5
D6E
331
90A
  5
AAA
331
980
  5
D6A
331
3F7
  5
A83
331
A43
  5
DC9
331
3F3
  5
A7E
331
5FD
  5
5E0
331
A7E
  5
D8B
331
5BE
  5
3D5
331
A3F
  5
DBC
331
3EF
  5
A7B
331
5F9
  5
5DB
331
A7A
  5
D87
331
5BA
  5
3D1
331
634
  5
90F
331
A3B
  5
DB5
331
3EB
  5
A78
331
AB5
  5
DF4
331
5F5
  5
5D5
331
A76
  5
D83
331
5B6
  5
3CD
331
630
  5
90B
331
AB1
  5
DF0
331
5F1
  5
5D2
331
62C
  5
905
331
5B2
  5
3C9
331
628
  5
900
331
DF5
  5
E09
331
DF1
  5
E0D
331
DED
  5
E14
331
E2C
  5
333
331
D7D
  5
97A
331
DE9
  5
E15
331
E28
  5
33D
331
D79
  5
976
331
D75
  5
972
331
904
  5
AA6
331
D71
  5
969
331
DB0
  5
373
331
900
  5
AA2
331
5AE
  5
3C5
331
3A4
  5
A67
331
5AA
  5
3C1
331
97C
  5
D66
331
3A0
  5
A53
331
978
  5
D62
331
3E3
  5
A6F
331
A33
  5
A4B
331
AAD
  5
DEC
331
5ED
  5
5CF
331
A6E
  5
D7D
331
57E
  5
393
331
AA9
  5
DE8
331
5E9
  5
5CC
331
A2B
  5
DAA
331
A6A
  5
D79
331
57A
  5
38F
331
624
  5
8FC
331
5E5
  5
5C8
331
620
  5
8F5
331
AA1
  5
DA3
331
5E1
  5
5C4
331
DE5
  5
E1C
331
E24
  5
349
331
DE1
  5
E21
331
E20
  5
359
331
DDD
  5
E27
331
E1C
  5
363
331
D6D
  5
965
331
DAC
  5
380
331
DD9
  5
E30
331
E18
  5
365
331
8FC
  5
A9C
331
DA8
  5
A3F
331
D65
  5
DF8
331
DA4
  5
A3B
331
8F8
  5
A98
331
D61
  5
E04
331
DA0
  5
A2E
331
8F4
  5
A96
331
5A6
  5
3BD
331
39C
  5
A48
331
5A2
  5
3B9
331
974
  5
D5E
331
398
  5
A43
331
59E
  5
3B5
331
970
  5
D5A
331
394
  5
961
331
59A
  5
3B1
331
96C
  5
D56
331
390
  5
91E
331
968
  5
D52
331
A27
  5
DB4
331
A66
  5
A4E
331
576
  5
38B
331
61C
  5
638
331
572
  5
372
331
A9D
  5
D9F
331
5DD
  5
5C0
331
A1F
  5
DAB
331
618
  5
634
331
A99
  5
D9B
331
5D9
  5
3F0
331
56E
  5
325
331
A5A
  5
DE4
331
A1B
  5
DB0
331
614
  5
62F
331
5D5
  5
3EB
331
610
  5
62D
331
5D1
  5
3E7
331
E14
  5
36C
331
E10
  5
36E
331
DD1
  5
326
331
D9C
  5
A2A
331
E0C
  5
376
331
D59
  5
E17
331
D98
  5
995
331
E08
  5
37C
331
D94
  5
991
331
D51
  5
E1F
331
D90
  5
98D
331
596
  5
3AD
331
38C
  5
91B
331
592
  5
3A8
331
63D
  5
A92
331
388
  5
915
331
58E
  5
3A4
331
639
  5
A8E
331
960
  5
D4F
331
58A
  5
39F
331
91D
  5
D4A
331
919
  5
AB5
331
A56
  5
DE0
331
A52
  5
DDC
331
60C
  5
629
331
5CD
  5
3E3
331
A4E
  5
DD8
331
608
  5
622
331
A89
  5
D95
331
5C9
  5
3E0
331
A4A
  5
DD1
331
3FA
  5
A89
331
3BB
  5
A6D
331
604
  5
5F8
331
A85
  5
D91
331
5C5
  5
3DC
331
600
  5
5E2
331
A81
  5
D8D
331
5C1
  5
3D8
331
E04
  5
387
331
DC5
  5
34C
331
E00
  5
DFD
331
DFC
  5
DFF
331
D8C
  5
989
331
DBD
  5
35D
331
DF8
  5
E06
331
D88
  5
985
331
D84
  5
981
331
D80
  5
97D
331
586
  5
39B
331
582
  5
397
331
98B
  5
D75
331
911
  5
AB1
331
987
  5
D71
331
90D
  5
AAD
331
983
  5
D6D
331
909
  5
AA9
331
A46
  5
DCC
331
3F6
  5
A82
331
A42
  5
DC6
331
5FC
  5
5DE
331
A7D
  5
D8A
331
5BD
  5
3D4
331
637
  5
912
331
A3E
  5
DBB
331
3EE
  5
A7A
331
AB8
  5
DF7
331
5F8
  5
5DC
331
A79
  5
D86
331
5B9
  5
3D0
331
633
  5
90E
331
3EA
  5
A77
331
AB4
  5
DF3
331
5F4
  5
5D8
331
A75
  5
D82
331
5B5
  5
3CC
331
62F
  5
90A
331
AB0
  5
DEF
331
5F0
  5
5D3
331
A71
  5
D80
331
5B1
  5
3C8
331
62B
  5
904
331
DF4
  5
E08
331
DF0
  5
E0C
331
E2F
  5
328
331
DEC
  5
E13
331
E2B
  5
336
331
D7C
  5
979
331
DE8
  5
E1A
331
D78
  5
975
331
DB7
  5
369
331
D74
  5
971
331
903
  5
AA5
331
D70
  5
968
331
5AD
  5
3C4
331
97F
  5
D69
331
3A3
  5
A60
331
5A9
  5
3C0
331
97B
  5
D65
331
3E6
  5
A74
331
3E2
  5
A6E
331
A32
  5
A4F
331
AAC
  5
DEB
331
5EC
  5
5CE
331
A6D
  5
D7C
331
57D
  5
392
331
627
  5
8FF
331
AA8
  5
DE7
331
5E8
  5
5CB
331
A69
  5
D78
331
579
  5
38E
331
623
  5
8FB
331
5E4
  5
5C7
331
AA0
  5
DA2
331
5E0
  5
5C3
331
E27
  5
345
331
DE4
  5
E1B
331
E23
  5
353
331
DE0
  5
E26
331
E1F
  5
358
331
DDC
  5
E2D
331
E1B
  5
362
331
8FF
  5
A9F
331
D6C
  5
964
331
DAB
  5
37F
331
DD8
  5
E2F
331
8FB
  5
A9B
331
DA7
  5
A3E
331
DA3
  5
A33
331
D60
  5
E03
331
39F
  5
A51
331
5A5
  5
3BC
331
977
  5
D61
331
39B
  5
A47
331
5A1
  5
3B8
331
973
  5
D5D
331
397
  5
A42
331
59D
  5
3B4
331
96F
  5
D59
331
393
  5
960
331
599
  5
3B0
331
96B
  5
D55
331
A26
  5
DB3
331
A65
  5
A50
331
575
  5
38A
331
61F
  5
8F4
331
61B
  5
639
331
571
  5
35B
331
A9C
  5
D9E
331
5DC
  5
5BF
331
A1E
  5
DAC
331
617
  5
635
331
A98
  5
D9A
331
5D8
  5
3EE
331
A59
  5
DE3
331
613
  5
630
331
5D4
  5
3EA
331
5D0
  5
3E6
331
E17
  5
364
331
E13
  5
36B
331
E0F
  5
371
331
D9F
  5
A2D
331
DD0
  5
325
331
E0B
  5
37B
331
D5C
  5
E11
331
D9B
  5
A29
331
DCC
  5
33C
331
D97
  5
994
331
D93
  5
990
331
D50
  5
E1E
331
38F
  5
95D
331
595
  5
3AC
331
967
  5
D51
331
38B
  5
91A
331
591
  5
3A7
331
63C
  5
A91
331
387
  5
914
331
58D
  5
3A3
331
638
  5
913
331
95F
  5
D4E
331
589
  5
39E
331
91C
  5
AB8
331
918
  5
AB7
331
A55
  5
DDF
331
60F
  5
62B
331
A51
  5
DDB
331
A8C
  5
D98
331
60B
  5
627
331
A4D
  5
DD7
331
607
  5
621
331
A88
  5
D94
331
5C8
  5
3DF
331
A49
  5
DD0
331
3F9
  5
A88
331
3BA
  5
A6C
331
603
  5
5F6
331
A84
  5
D90
331
5C4
  5
3DB
331
806
  5
A93
331
A80
  5
D8C
331
5C0
  5
3D7
331
E07
  5
384
331
E03
  5
386
331
DC4
  5
34B
331
DFF
  5
DFC
331
D8F
  5
98C
331
DC0
  5
360
331
DFB
  5
DFE
331
D4C
  5
E2A
331
D8B
  5
988
331
DBC
  5
35C
331
D87
  5
984
331
DB8
  5
36A
331
D83
  5
980
331
585
  5
39A
331
581
  5
396
331
914
  5
AB4
331
98A
  5
D74
331
910
  5
AB0
331
986
  5
D70
331
90C
  5
AAC
331
982
  5
D6C
331
A45
  5
DCB
331
3F5
  5
A80
331
5FF
  5
5E3
331
A41
  5
DC3
331
3F1
  5
A7D
331
5FB
  5
5DF
331
A7C
  5
D89
331
5BC
  5
3D3
331
636
  5
910
331
A3D
  5
DB7
331
AB7
  5
DF6
331
5F7
  5
5DA
331
A78
  5
D85
331
5B8
  5
3CF
331
632
  5
90D
331
3E9
  5
A76
331
AB3
  5
DF2
331
5F3
  5
5D4
331
A74
  5
D81
331
5B4
  5
3CB
331
62E
  5
907
331
A70
  5
D7F
331
5B0
  5
3C7
331
62A
  5
903
  0
SORTENTSTABLE
  5
A0F
102
{ACAD_REACTORS
330
A0E
102
}
330
A0E
100
AcDbSortentsTable
330
9CD
  0
XRECORD
  5
E37
102
{ACAD_REACTORS
330
E35
102
}
330
E35
100
AcDbXrecord
280
     1
 70
     2
  0
XRECORD
  5
E36
102
{ACAD_REACTORS
330
E35
102
}
330
E35
100
AcDbXrecord
280
     1
 40
1.25
  0
XRECORD
  5
E38
102
{ACAD_REACTORS
330
E35
102
}
330
E35
100
AcDbXrecord
280
     1
 40
1.570796326794896
  0
LAYOUT
  5
6E
102
{ACAD_XDICTIONARY
360
E6C
102
}
102
{ACAD_REACTORS
330
61
102
}
330
61
100
AcDbPlotSettings
  1

  2
none_device
  4
Letter_(8.50_x_11.00_Inches)
  6

 40
6.349999904632567
 41
6.349999904632567
 42
6.350006103515625
 43
6.350006103515625
 44
215.8999938964844
 45
279.3999938964844
 46
0.0
 47
0.0
 48
0.0
 49
0.0
140
0.0
141
0.0
142
1.0
143
91.01948664436941
 70
 11952
 72
     0
 73
     1
 74
     0
  7

 75
     0
147
0.0109866583175446
148
18756.20760882739
149
6811.877871962614
100
AcDbLayout
  1
Model
 70
     1
 71
     0
 10
0.0
 20
0.0
 11
12.0
 21
9.0
 12
0.0
 22
0.0
 32
0.0
 14
0.0
 24
0.0
 34
0.0
 15
0.0
 25
0.0
 35
0.0
146
0.0
 13
0.0
 23
0.0
 33
0.0
 16
1.0
 26
0.0
 36
0.0
 17
0.0
 27
1.0
 37
0.0
 76
     0
330
6B
331
8B
1001
ACAD_PSEXT
1000
なし
1000
なし
1000
適切ではありません
1000
新しいプロッタ環境設定名を選択しない限り、レイアウトは印刷されません。
1070
     0
  0
LAYOUT
  5
6A
102
{ACAD_XDICTIONARY
360
E6A
102
}
102
{ACAD_REACTORS
330
61
102
}
330
61
100
AcDbPlotSettings
  1

  2
FX DP 205
  4

  6

 40
0.0
 41
0.0
 42
0.0
 43
0.0
 44
0.0
 45
0.0
 46
0.0
 47
0.0
 48
0.0
 49
0.0
140
0.0
141
0.0
142
1.0
143
1.0
 70
   688
 72
     0
 73
     0
 74
     5
  7

 75
    16
147
1.0
148
0.0
149
0.0
100
AcDbLayout
  1
レイアウト1
 70
     1
 71
     1
 10
0.0
 20
0.0
 11
12.0
 21
9.0
 12
0.0
 22
0.0
 32
0.0
 14
1.000000000000000E+20
 24
1.000000000000000E+20
 34
1.000000000000000E+20
 15
-1.000000000000000E+20
 25
-1.000000000000000E+20
 35
-1.000000000000000E+20
146
0.0
 13
0.0
 23
0.0
 33
0.0
 16
1.0
 26
0.0
 36
0.0
 17
0.0
 27
1.0
 37
0.0
 76
     0
330
67
  0
MATERIAL
  5
19
102
{ACAD_XDICTIONARY
360
1A
102
}
102
{ACAD_REACTORS
330
10
102
}
330
10
100
AcDbMaterial
  1
ByBlock
 72
     0
 43
0.0208333333333333
 43
0.0
 43
0.0
 43
0.0
 43
0.0
 43
0.0208333333333333
 43
0.0
 43
0.0
 43
0.0
 43
0.0
 43
1.0
 43
0.0
 43
0.0
 43
0.0
 43
0.0
 43
1.0
 77
     0
 47
0.0208333333333333
 47
0.0
 47
0.0
 47
0.0
 47
0.0
 47
0.0208333333333333
 47
0.0
 47
0.0
 47
0.0
 47
0.0
 47
1.0
 47
0.0
 47
0.0
 47
0.0
 47
0.0
 47
1.0
171
     0
 49
0.0208333333333333
 49
0.0
 49
0.0
 49
0.0
 49
0.0
 49
0.0208333333333333
 49
0.0
 49
0.0
 49
0.0
 49
0.0
 49
1.0
 49
0.0
 49
0.0
 49
0.0
 49
0.0
 49
1.0
175
     0
142
0.0208333333333333
142
0.0
142
0.0
142
0.0
142
0.0
142
0.0208333333333333
142
0.0
142
0.0
142
0.0
142
0.0
142
1.0
142
0.0
142
0.0
142
0.0
142
0.0
142
1.0
179
     0
144
0.0208333333333333
144
0.0
144
0.0
144
0.0
144
0.0
144
0.0208333333333333
144
0.0
144
0.0
144
0.0
144
0.0
144
1.0
144
0.0
144
0.0
144
0.0
144
0.0
144
1.0
147
0.0208333333333333
147
0.0
147
0.0
147
0.0
147
0.0
147
0.0208333333333333
147
0.0
147
0.0
147
0.0
147
0.0
147
1.0
147
0.0
147
0.0
147
0.0
147
0.0
147
1.0
  0
MATERIAL
  5
11
102
{ACAD_XDICTIONARY
360
12
102
}
102
{ACAD_REACTORS
330
10
102
}
330
10
100
AcDbMaterial
  1
ByLayer
 72
     0
 43
0.0208333333333333
 43
0.0
 43
0.0
 43
0.0
 43
0.0
 43
0.0208333333333333
 43
0.0
 43
0.0
 43
0.0
 43
0.0
 43
1.0
 43
0.0
 43
0.0
 43
0.0
 43
0.0
 43
1.0
 77
     0
 47
0.0208333333333333
 47
0.0
 47
0.0
 47
0.0
 47
0.0
 47
0.0208333333333333
 47
0.0
 47
0.0
 47
0.0
 47
0.0
 47
1.0
 47
0.0
 47
0.0
 47
0.0
 47
0.0
 47
1.0
171
     0
 49
0.0208333333333333
 49
0.0
 49
0.0
 49
0.0
 49
0.0
 49
0.0208333333333333
 49
0.0
 49
0.0
 49
0.0
 49
0.0
 49
1.0
 49
0.0
 49
0.0
 49
0.0
 49
0.0
 49
1.0
175
     0
142
0.0208333333333333
142
0.0
142
0.0
142
0.0
142
0.0
142
0.0208333333333333
142
0.0
142
0.0
142
0.0
142
0.0
142
1.0
142
0.0
142
0.0
142
0.0
142
0.0
142
1.0
179
     0
144
0.0208333333333333
144
0.0
144
0.0
144
0.0
144
0.0
144
0.0208333333333333
144
0.0
144
0.0
144
0.0
144
0.0
144
1.0
144
0.0
144
0.0
144
0.0
144
0.0
144
1.0
147
0.0208333333333333
147
0.0
147
0.0
147
0.0
147
0.0
147
0.0208333333333333
147
0.0
147
0.0
147
0.0
147
0.0
147
1.0
147
0.0
147
0.0
147
0.0
147
0.0
147
1.0
  0
MATERIAL
  5
21
102
{ACAD_XDICTIONARY
360
22
102
}
102
{ACAD_REACTORS
330
10
102
}
330
10
100
AcDbMaterial
  1
Global
 72
     0
 43
0.0208333333333333
 43
0.0
 43
0.0
 43
0.0
 43
0.0
 43
0.0208333333333333
 43
0.0
 43
0.0
 43
0.0
 43
0.0
 43
1.0
 43
0.0
 43
0.0
 43
0.0
 43
0.0
 43
1.0
 77
     0
 47
0.0208333333333333
 47
0.0
 47
0.0
 47
0.0
 47
0.0
 47
0.0208333333333333
 47
0.0
 47
0.0
 47
0.0
 47
0.0
 47
1.0
 47
0.0
 47
0.0
 47
0.0
 47
0.0
 47
1.0
171
     0
 49
0.0208333333333333
 49
0.0
 49
0.0
 49
0.0
 49
0.0
 49
0.0208333333333333
 49
0.0
 49
0.0
 49
0.0
 49
0.0
 49
1.0
 49
0.0
 49
0.0
 49
0.0
 49
0.0
 49
1.0
175
     0
142
0.0208333333333333
142
0.0
142
0.0
142
0.0
142
0.0
142
0.0208333333333333
142
0.0
142
0.0
142
0.0
142
0.0
142
1.0
142
0.0
142
0.0
142
0.0
142
0.0
142
1.0
179
     0
144
0.0208333333333333
144
0.0
144
0.0
144
0.0
144
0.0
144
0.0208333333333333
144
0.0
144
0.0
144
0.0
144
0.0
144
1.0
144
0.0
144
0.0
144
0.0
144
0.0
144
1.0
147
0.0208333333333333
147
0.0
147
0.0
147
0.0
147
0.0
147
0.0208333333333333
147
0.0
147
0.0
147
0.0
147
0.0
147
1.0
147
0.0
147
0.0
147
0.0
147
0.0
147
1.0
  0
MLEADERSTYLE
  5
66
102
{ACAD_REACTORS
330
65
102
}
330
65
100
AcDbMLeaderStyle
170
     2
171
     1
172
     0
 90
        2
 40
0.0
 41
0.0
173
     1
 91
-1056964608
340
5A
 92
       -2
290
     1
 42
0.09
291
     1
 43
0.36
  3
Standard
 44
0.18
300

342
55
174
     1
178
     6
175
     1
176
     0
 93
-1056964608
 45
0.18
292
     0
297
     0
 46
0.18
 94
-1056964608
 47
1.0
 49
1.0
140
1.0
293
     1
141
0.0
294
     1
177
     0
142
1.0
295
     0
296
     0
143
0.125
1001
ACAD_MLEADERVER
1070
     2
  0
MLINESTYLE
  5
5F
102
{ACAD_REACTORS
330
5E
102
}
330
5E
100
AcDbMlineStyle
  2
STANDARD
 70
     0
  3

 62
   256
 51
90.0
 52
90.0
 71
     2
 49
0.5
 62
   256
  6
BYLAYER
 49
-0.5
 62
   256
  6
BYLAYER
  0
ACDBPLACEHOLDER
  5
F
102
{ACAD_REACTORS
330
E
102
}
330
E
  0
SCALE
  5
43
102
{ACAD_REACTORS
330
42
102
}
330
42
100
AcDbScale
 70
     0
300
1:1
140
1.0
141
1.0
290
     1
  0
SCALE
  5
44
102
{ACAD_REACTORS
330
42
102
}
330
42
100
AcDbScale
 70
     0
300
1/128" = 1'-0"
140
0.0078125
141
12.0
290
     0
  0
SCALE
  5
45
102
{ACAD_REACTORS
330
42
102
}
330
42
100
AcDbScale
 70
     0
300
1/64" = 1'-0"
140
0.015625
141
12.0
290
     0
  0
SCALE
  5
46
102
{ACAD_REACTORS
330
42
102
}
330
42
100
AcDbScale
 70
     0
300
1/32" = 1'-0"
140
0.03125
141
12.0
290
     0
  0
SCALE
  5
47
102
{ACAD_REACTORS
330
42
102
}
330
42
100
AcDbScale
 70
     0
300
1/16" = 1'-0"
140
0.0625
141
12.0
290
     0
  0
SCALE
  5
48
102
{ACAD_REACTORS
330
42
102
}
330
42
100
AcDbScale
 70
     0
300
3/32" = 1'-0"
140
0.09375
141
12.0
290
     0
  0
SCALE
  5
49
102
{ACAD_REACTORS
330
42
102
}
330
42
100
AcDbScale
 70
     0
300
1/8" = 1'-0"
140
0.125
141
12.0
290
     0
  0
SCALE
  5
4A
102
{ACAD_REACTORS
330
42
102
}
330
42
100
AcDbScale
 70
     0
300
3/16" = 1'-0"
140
0.1875
141
12.0
290
     0
  0
SCALE
  5
4B
102
{ACAD_REACTORS
330
42
102
}
330
42
100
AcDbScale
 70
     0
300
1/4" = 1'-0"
140
0.25
141
12.0
290
     0
  0
SCALE
  5
4C
102
{ACAD_REACTORS
330
42
102
}
330
42
100
AcDbScale
 70
     0
300
3/8" = 1'-0"
140
0.375
141
12.0
290
     0
  0
SCALE
  5
4D
102
{ACAD_REACTORS
330
42
102
}
330
42
100
AcDbScale
 70
     0
300
1/2" = 1'-0"
140
0.5
141
12.0
290
     0
  0
SCALE
  5
4E
102
{ACAD_REACTORS
330
42
102
}
330
42
100
AcDbScale
 70
     0
300
3/4" = 1'-0"
140
0.75
141
12.0
290
     0
  0
SCALE
  5
4F
102
{ACAD_REACTORS
330
42
102
}
330
42
100
AcDbScale
 70
     0
300
1" = 1'-0"
140
1.0
141
12.0
290
     0
  0
SCALE
  5
50
102
{ACAD_REACTORS
330
42
102
}
330
42
100
AcDbScale
 70
     0
300
1-1/2" = 1'-0"
140
1.5
141
12.0
290
     0
  0
SCALE
  5
51
102
{ACAD_REACTORS
330
42
102
}
330
42
100
AcDbScale
 70
     0
300
3" = 1'-0"
140
3.0
141
12.0
290
     0
  0
SCALE
  5
52
102
{ACAD_REACTORS
330
42
102
}
330
42
100
AcDbScale
 70
     0
300
6" = 1'-0"
140
6.0
141
12.0
290
     0
  0
SCALE
  5
53
102
{ACAD_REACTORS
330
42
102
}
330
42
100
AcDbScale
 70
     0
300
1'-0" = 1'-0"
140
12.0
141
12.0
290
     0
  0
TABLESTYLE
  5
64
102
{ACAD_XDICTIONARY
360
807
102
}
102
{ACAD_REACTORS
330
63
102
}
330
63
100
AcDbTableStyle
  3
Standard
 70
     0
 71
     0
 40
0.06
 41
0.06
280
     0
281
     0
  7
STANDARD
140
0.18
170
     2
 62
     0
 63
     7
283
     0
274
    -2
284
     1
 64
     0
275
    -2
285
     1
 65
     0
276
    -2
286
     1
 66
     0
277
    -2
287
     1
 67
     0
278
    -2
288
     1
 68
     0
279
    -2
289
     1
 69
     0
  7
STANDARD
140
0.25
170
     5
 62
     0
 63
     7
283
     0
274
    -2
284
     1
 64
     0
275
    -2
285
     1
 65
     0
276
    -2
286
     1
 66
     0
277
    -2
287
     1
 67
     0
278
    -2
288
     1
 68
     0
279
    -2
289
     1
 69
     0
  7
STANDARD
140
0.18
170
     5
 62
     0
 63
     7
283
     0
274
    -2
284
     1
 64
     0
275
    -2
285
     1
 65
     0
276
    -2
286
     1
 66
     0
277
    -2
287
     1
 67
     0
278
    -2
288
     1
 68
     0
279
    -2
289
     1
 69
     0
  0
VISUALSTYLE
  5
2F
102
{ACAD_XDICTIONARY
360
E43
102
}
102
{ACAD_REACTORS
330
29
102
}
330
29
100
AcDbVisualStyle
  2

 70
     4
 71
     0
 72
     2
 73
     0
 90
        0
 40
-0.6
 41
-30.0
 62
     5
 63
     7
 74
     1
 91
        4
 64
     7
 65
   257
 75
     1
175
     1
 42
1.0
 92
        0
 66
   257
 43
1.0
 76
     1
 77
     6
 78
     2
 67
     7
 79
     5
170
     0
171
     0
290
     0
174
     0
 93
        1
 44
0.0
173
     0
291
     0
 45
0.0
1001
ACAD
1000
AcDbSavedByObjectVersion
1070
     0
  0
VISUALSTYLE
  5
2E
102
{ACAD_XDICTIONARY
360
E41
102
}
102
{ACAD_REACTORS
330
29
102
}
330
29
100
AcDbVisualStyle
  2

 70
     7
 71
     1
 72
     0
 73
     1
 90
        0
 40
-0.6
 41
-30.0
 62
     5
 63
     7
 74
     0
 91
        4
 64
     7
 65
   257
 75
     1
175
     1
 42
1.0
 92
        8
 66
     7
 43
1.0
 76
     1
 77
     6
 78
     2
 67
     7
 79
     5
170
     0
171
     0
290
     0
174
     0
 93
        1
 44
0.0
173
     0
291
     1
 45
0.0
1001
ACAD
1000
AcDbSavedByObjectVersion
1070
     0
  0
VISUALSTYLE
  5
35
102
{ACAD_XDICTIONARY
360
E4F
102
}
102
{ACAD_REACTORS
330
29
102
}
330
29
100
AcDbVisualStyle
  2

 70
    12
 71
     2
 72
     2
 73
     0
 90
        0
 40
-0.6
 41
-30.0
 62
     5
 63
     7
 74
     1
 91
        4
 64
     7
 65
   257
 75
     1
175
     1
 42
1.0
 92
        8
 66
     7
 43
1.0
 76
     1
 77
     6
 78
     2
 67
     7
 79
     5
170
     0
171
     0
290
     0
174
     0
 93
        1
 44
50.0
173
     0
291
     1
 45
0.0
1001
ACAD
1000
AcDbSavedByObjectVersion
1070
     0
  0
VISUALSTYLE
  5
39
102
{ACAD_XDICTIONARY
360
E57
102
}
102
{ACAD_REACTORS
330
29
102
}
330
29
100
AcDbVisualStyle
  2

 70
    16
 71
     2
 72
     2
 73
     3
 90
        0
 40
-0.6
 41
-30.0
 62
     5
 63
     8
 74
     1
 91
        4
 64
     7
 65
   257
 75
     1
175
     1
 42
1.0
 92
        8
 66
     8
 43
1.0
 76
     1
 77
     6
 78
     2
 67
     7
 79
     5
170
     0
171
     0
290
     0
174
     0
 93
        1
 44
0.0
173
     0
291
     1
 45
0.0
1001
ACAD
1000
AcDbSavedByObjectVersion
1070
     0
  0
VISUALSTYLE
  5
32
102
{ACAD_XDICTIONARY
360
E49
102
}
102
{ACAD_REACTORS
330
29
102
}
330
29
100
AcDbVisualStyle
  2

 70
     9
 71
     3
 72
     2
 73
     0
 90
        0
 40
-0.6
 41
-30.0
 62
     5
 63
     7
 74
     2
 91
        2
 64
     7
 65
   257
 75
     1
175
     1
 42
179.0
 92
        8
 66
     7
 43
1.0
 76
     1
 77
     6
 78
     2
 67
     7
 79
     3
170
     0
171
     0
290
     0
174
     0
 93
        1
 44
0.0
173
     0
291
     0
 45
0.0
1001
ACAD
1000
AcDbSavedByObjectVersion
1070
     0
  0
VISUALSTYLE
  5
34
102
{ACAD_XDICTIONARY
360
E4D
102
}
102
{ACAD_REACTORS
330
29
102
}
330
29
100
AcDbVisualStyle
  2

 70
    11
 71
     2
 72
     2
 73
     0
 90
        0
 40
-0.6
 41
-30.0
 62
     5
 63
     7
 74
     1
 91
        4
 64
     7
 65
   257
 75
     1
175
     1
 42
1.0
 92
        8
 66
     7
 43
1.0
 76
     1
 77
     6
 78
     2
 67
     7
 79
     5
170
     0
171
     0
290
     0
174
     0
 93
        1
 44
-50.0
173
     0
291
     1
 45
0.0
1001
ACAD
1000
AcDbSavedByObjectVersion
1070
     0
  0
VISUALSTYLE
  5
41
102
{ACAD_XDICTIONARY
360
E67
102
}
102
{ACAD_REACTORS
330
29
102
}
330
29
100
AcDbVisualStyle
  2

 70
    22
 71
     2
 72
     2
 73
     0
 90
        0
 40
-0.6
 41
-30.0
 62
     5
 63
     7
 74
     1
 91
        4
 64
     7
 65
   257
 75
     1
175
     1
 42
1.0
 92
        8
 66
     7
 43
1.0
 76
     1
 77
     6
 78
     2
 67
     7
 79
     5
170
     0
171
     0
290
     0
174
     0
 93
        1
 44
0.0
173
     0
291
     1
 45
0.0
1001
ACAD
1000
AcDbSavedByObjectVersion
1070
     0
  0
VISUALSTYLE
  5
38
102
{ACAD_XDICTIONARY
360
E55
102
}
102
{ACAD_REACTORS
330
29
102
}
330
29
100
AcDbVisualStyle
  2

 70
    15
 71
     2
 72
     2
 73
     0
 90
        0
 40
-0.6
 41
-30.0
 62
     5
 63
     7
 74
     1
 91
        4
 64
     7
 65
   257
 75
     1
175
     1
 42
1.0
 92
        8
 66
     7
 43
1.0
 76
     1
 77
     6
 78
     2
 67
     7
 79
     5
170
     0
171
     0
290
     0
174
     0
 93
        1
 44
0.0
173
     0
291
     1
 45
0.0
1001
ACAD
1000
AcDbSavedByObjectVersion
1070
     0
  0
VISUALSTYLE
  5
2A
102
{ACAD_XDICTIONARY
360
E39
102
}
102
{ACAD_REACTORS
330
29
102
}
330
29
100
AcDbVisualStyle
  2

 70
     0
 71
     2
 72
     1
 73
     1
 90
        2
 40
-0.6
 41
30.0
 62
     5
 63
     7
 74
     0
 91
        0
 64
     7
 65
   257
 75
     1
175
     1
 42
1.0
 92
        8
 66
     7
 43
1.0
 76
     1
 77
     6
 78
     2
 67
     7
 79
     5
170
     0
171
     0
290
     0
174
     0
 93
       13
 44
0.0
173
     0
291
     1
 45
0.0
1001
ACAD
1000
AcDbSavedByObjectVersion
1070
     0
  0
VISUALSTYLE
  5
2B
102
{ACAD_XDICTIONARY
360
E3B
102
}
102
{ACAD_REACTORS
330
29
102
}
330
29
100
AcDbVisualStyle
  2

 70
     1
 71
     2
 72
     1
 73
     1
 90
        2
 40
-0.6
 41
30.0
 62
     5
 63
     7
 74
     1
 91
        0
 64
     7
 65
   257
 75
     1
175
     1
 42
1.0
 92
        0
 66
   257
 43
1.0
 76
     1
 77
     6
 78
     2
 67
     7
 79
     5
170
     0
171
     0
290
     0
174
     0
 93
       13
 44
0.0
173
     0
291
     1
 45
0.0
1001
ACAD
1000
AcDbSavedByObjectVersion
1070
     0
  0
VISUALSTYLE
  5
2C
102
{ACAD_XDICTIONARY
360
E3D
102
}
102
{ACAD_REACTORS
330
29
102
}
330
29
100
AcDbVisualStyle
  2

 70
     2
 71
     2
 72
     2
 73
     1
 90
        2
 40
-0.6
 41
30.0
 62
     5
 63
     7
 74
     0
 91
        0
 64
     7
 65
   257
 75
     1
175
     1
 42
1.0
 92
        0
 66
     7
 43
1.0
 76
     1
 77
     6
 78
     2
 67
     7
 79
     5
170
     0
171
     0
290
     0
174
     0
 93
       13
 44
0.0
173
     0
291
     1
 45
0.0
1001
ACAD
1000
AcDbSavedByObjectVersion
1070
     0
  0
VISUALSTYLE
  5
2D
102
{ACAD_XDICTIONARY
360
E3F
102
}
102
{ACAD_REACTORS
330
29
102
}
330
29
100
AcDbVisualStyle
  2

 70
     3
 71
     2
 72
     2
 73
     1
 90
        2
 40
-0.6
 41
30.0
 62
     5
 63
     7
 74
     1
 91
        0
 64
     7
 65
   257
 75
     1
175
     1
 42
1.0
 92
        0
 66
   257
 43
1.0
 76
     1
 77
     6
 78
     2
 67
     7
 79
     5
170
     0
171
     0
290
     0
174
     0
 93
       13
 44
0.0
173
     0
291
     1
 45
0.0
1001
ACAD
1000
AcDbSavedByObjectVersion
1070
     0
  0
VISUALSTYLE
  5
31
102
{ACAD_XDICTIONARY
360
E47
102
}
102
{ACAD_REACTORS
330
29
102
}
330
29
100
AcDbVisualStyle
  2

 70
     6
 71
     1
 72
     2
 73
     2
 90
        0
 40
-0.6
 41
-30.0
 62
     5
 63
     7
 74
     2
 91
        2
 64
     7
 65
   257
 75
     2
175
     1
 42
40.0
 92
        0
 66
   257
 43
1.0
 76
     1
 77
     6
 78
     2
 67
     7
 79
     3
170
     0
171
     0
290
     0
174
     0
 93
        1
 44
0.0
173
     0
291
     0
 45
0.0
1001
ACAD
1000
AcDbSavedByObjectVersion
1070
     0
  0
VISUALSTYLE
  5
3F
102
{ACAD_XDICTIONARY
360
E63
102
}
102
{ACAD_REACTORS
330
29
102
}
330
29
100
AcDbVisualStyle
  2

 70
    20
 71
     2
 72
     2
 73
     0
 90
        0
 40
-0.6
 41
-30.0
 62
     5
 63
     7
 74
     1
 91
        4
 64
     7
 65
   257
 75
     1
175
     1
 42
1.0
 92
       10
 66
     7
 43
1.0
 76
     1
 77
     6
 78
     2
 67
     7
 79
     5
170
     0
171
     0
290
     0
174
     0
 93
        1
 44
0.0
173
     0
291
     1
 45
0.0
1001
ACAD
1000
AcDbSavedByObjectVersion
1070
     0
  0
VISUALSTYLE
  5
37
102
{ACAD_XDICTIONARY
360
E53
102
}
102
{ACAD_REACTORS
330
29
102
}
330
29
100
AcDbVisualStyle
  2

 70
    14
 71
     2
 72
     2
 73
     0
 90
        0
 40
-0.6
 41
-30.0
 62
     5
 63
     7
 74
     1
 91
        4
 64
     7
 65
   257
 75
     7
175
     7
 42
1.0
 92
        8
 66
     7
 43
1.0
 76
     1
 77
     6
 78
     2
 67
     7
 79
     5
170
     0
171
     0
290
     0
174
     0
 93
        1
 44
0.0
173
     0
291
     1
 45
0.0
1001
ACAD
1000
AcDbSavedByObjectVersion
1070
     0
  0
VISUALSTYLE
  5
40
102
{ACAD_XDICTIONARY
360
E65
102
}
102
{ACAD_REACTORS
330
29
102
}
330
29
100
AcDbVisualStyle
  2

 70
    21
 71
     2
 72
     2
 73
     0
 90
        0
 40
-0.6
 41
-30.0
 62
     5
 63
     7
 74
     1
 91
        4
 64
     7
 65
   257
 75
     1
175
     1
 42
1.0
 92
        9
 66
     7
 43
1.0
 76
     1
 77
     6
 78
     2
 67
     7
 79
     5
170
     0
171
     0
290
     0
174
     0
 93
        1
 44
0.0
173
     0
291
     1
 45
0.0
1001
ACAD
1000
AcDbSavedByObjectVersion
1070
     0
  0
VISUALSTYLE
  5
33
102
{ACAD_XDICTIONARY
360
E4B
102
}
102
{ACAD_REACTORS
330
29
102
}
330
29
100
AcDbVisualStyle
  2

 70
     8
 71
     2
 72
     3
 73
     0
 90
        2
 40
-0.6
 41
30.0
 62
     5
 63
     7
 74
     0
 91
        0
 64
     7
 65
   257
 75
     1
175
     1
 42
1.0
 92
        8
 66
   257
 43
1.0
 76
     1
 77
     6
 78
     2
 67
     7
 79
     3
170
     0
171
     0
290
     0
174
     0
 93
       13
 44
0.0
173
     0
291
     0
 45
0.0
1001
ACAD
1000
AcDbSavedByObjectVersion
1070
     0
  0
VISUALSTYLE
  5
3E
102
{ACAD_XDICTIONARY
360
E61
102
}
102
{ACAD_REACTORS
330
29
102
}
330
29
100
AcDbVisualStyle
  2

 70
    27
 71
     2
 72
     2
 73
     1
 90
        2
 40
-0.6
 41
30.0
 62
     5
 63
     7
 74
     0
 91
        4
 64
     7
 65
   257
 75
     1
175
     1
 42
1.0
 92
        8
 66
   257
 43
1.0
 76
     1
 77
     6
 78
     2
 67
     8
 79
     3
170
     0
171
     0
290
     0
174
     0
 93
        5
 44
0.0
173
     0
291
     0
 45
0.0
1001
ACAD
1000
AcDbSavedByObjectVersion
1070
     0
  0
VISUALSTYLE
  5
3D
102
{ACAD_XDICTIONARY
360
E5F
102
}
102
{ACAD_REACTORS
330
29
102
}
330
29
100
AcDbVisualStyle
  2

 70
    26
 71
     2
 72
     2
 73
     1
 90
        2
 40
-0.6
 41
30.0
 62
     5
 63
     7
 74
     1
 91
       10
 64
     7
 65
   257
 75
     2
175
     1
 42
1.0
 92
        8
 66
   257
 43
1.0
 76
     1
 77
     6
 78
     2
 67
     7
 79
     3
170
     0
171
     0
290
     0
174
     0
 93
        5
 44
0.0
173
     0
291
     0
 45
0.0
1001
ACAD
1000
AcDbSavedByObjectVersion
1070
     0
  0
VISUALSTYLE
  5
3A
102
{ACAD_XDICTIONARY
360
E59
102
}
102
{ACAD_REACTORS
330
29
102
}
330
29
100
AcDbVisualStyle
  2

 70
    23
 71
     2
 72
     2
 73
     3
 90
        0
 40
-0.6
 41
-30.0
 62
     5
 63
     7
 74
     2
 91
        2
 64
     7
 65
     7
 75
     1
175
     1
 42
40.0
 92
        8
 66
     7
 43
1.0
 76
     1
 77
     6
 78
     2
 67
     7
 79
     3
170
     0
171
     0
290
     0
174
     0
 93
        1
 44
0.0
173
     0
291
     0
 45
0.0
1001
ACAD
1000
AcDbSavedByObjectVersion
1070
     0
  0
VISUALSTYLE
  5
3B
102
{ACAD_XDICTIONARY
360
E5B
102
}
102
{ACAD_REACTORS
330
29
102
}
330
29
100
AcDbVisualStyle
  2

 70
    24
 71
     1
 72
     2
 73
     2
 90
        0
 40
-0.6
 41
-30.0
 62
     5
 63
     7
 74
     2
 91
        2
 64
     7
 65
     7
 75
     1
175
     1
 42
40.0
 92
       11
 66
     7
 43
1.0
 76
     1
 77
     6
 78
     2
 67
     7
 79
     6
170
     0
171
     0
290
     0
174
     0
 93
        1
 44
0.0
173
     0
291
     0
 45
0.0
1001
ACAD
1000
AcDbSavedByObjectVersion
1070
     0
  0
VISUALSTYLE
  5
36
102
{ACAD_XDICTIONARY
360
E51
102
}
102
{ACAD_REACTORS
330
29
102
}
330
29
100
AcDbVisualStyle
  2

 70
    13
 71
     2
 72
     2
 73
     0
 90
        0
 40
-0.6
 41
-30.0
 62
     5
 63
     7
 74
     1
 91
        4
 64
     7
 65
   257
 75
     1
175
     1
 42
1.0
 92
       12
 66
     7
 43
1.0
 76
     1
 77
     6
 78
     2
 67
     7
 79
     5
170
     0
171
     0
290
     0
174
     0
 93
        1
 44
0.0
173
     0
291
     1
 45
0.0
1001
ACAD
1000
AcDbSavedByObjectVersion
1070
     0
  0
VISUALSTYLE
  5
30
102
{ACAD_XDICTIONARY
360
E45
102
}
102
{ACAD_REACTORS
330
29
102
}
330
29
100
AcDbVisualStyle
  2

 70
     5
 71
     0
 72
     2
 73
     0
 90
        0
 40
-0.6
 41
-30.0
 62
     5
 63
     7
 74
     1
 91
        4
 64
     7
 65
   257
 75
     1
175
     1
 42
1.0
 92
        0
 66
   257
 43
1.0
 76
     1
 77
     6
 78
     2
 67
     7
 79
     3
170
     0
171
     0
290
     0
174
     0
 93
        1
 44
0.0
173
     0
291
     0
 45
0.0
1001
ACAD
1000
AcDbSavedByObjectVersion
1070
     0
  0
VISUALSTYLE
  5
3C
102
{ACAD_XDICTIONARY
360
E5D
102
}
102
{ACAD_REACTORS
330
29
102
}
330
29
100
AcDbVisualStyle
  2

 70
    25
 71
     2
 72
     2
 73
     1
 90
        1
 40
0.5
 41
-30.0
 62
     5
 63
     7
 74
     1
 91
        0
 64
     7
 65
   257
 75
     1
175
     1
 42
1.0
 92
        8
 66
     7
 43
1.0
 76
     1
 77
     6
 78
     2
 67
     7
 79
     3
170
     0
171
     0
290
     0
174
     0
 93
       13
 44
0.0
173
     0
291
     0
 45
0.0
1001
ACAD
1000
AcDbSavedByObjectVersion
1070
     0
  0
DICTIONARYVAR
  5
646
102
{ACAD_REACTORS
330
643
102
}
330
643
100
DictionaryVariables
280
     0
  1
1:1
  0
DICTIONARYVAR
  5
645
102
{ACAD_REACTORS
330
643
102
}
330
643
100
DictionaryVariables
280
     0
  1
STANDARD
  0
DICTIONARYVAR
  5
644
102
{ACAD_REACTORS
330
643
102
}
330
643
100
DictionaryVariables
280
     0
  1
STANDARD
  0
DICTIONARYVAR
  5
649
102
{ACAD_REACTORS
330
643
102
}
330
643
100
DictionaryVariables
280
     0
  1
1
  0
DICTIONARYVAR
  5
648
102
{ACAD_REACTORS
330
643
102
}
330
643
100
DictionaryVariables
280
     0
  1
0
  0
DICTIONARYVAR
  5
647
102
{ACAD_REACTORS
330
643
102
}
330
643
100
DictionaryVariables
280
     0
  1
127
  0
DICTIONARYVAR
  5
C89
102
{ACAD_REACTORS
330
643
102
}
330
643
100
DictionaryVariables
280
     0
  1
2
  0
DICTIONARY
  5
E6C
330
6E
100
AcDbDictionary
280
     1
281
     1
  3
ACAD_XREC_ROUNDTRIP
360
E6D
  0
DICTIONARY
  5
E6A
330
6A
100
AcDbDictionary
280
     1
281
     1
  3
ACAD_XREC_ROUNDTRIP
360
E6B
  0
DICTIONARY
  5
1A
330
19
100
AcDbDictionary
280
     1
281
     1
  3
ACAD_XREC_ROUNDTRIP
360
810
  3
BUMPTILE
360
1C
  3
DIFFUSETILE
360
1B
  3
OPACITYTILE
360
1F
  3
REFLECTIONTILE
360
1E
  3
REFRACTIONTILE
360
20
  3
SPECULARTILE
360
1D
  0
DICTIONARY
  5
12
330
11
100
AcDbDictionary
280
     1
281
     1
  3
ACAD_XREC_ROUNDTRIP
360
80F
  3
BUMPTILE
360
14
  3
DIFFUSETILE
360
13
  3
OPACITYTILE
360
17
  3
REFLECTIONTILE
360
16
  3
REFRACTIONTILE
360
18
  3
SPECULARTILE
360
15
  0
DICTIONARY
  5
22
330
21
100
AcDbDictionary
280
     1
281
     1
  3
ACAD_XREC_ROUNDTRIP
360
811
  3
BUMPTILE
360
24
  3
DIFFUSETILE
360
23
  3
OPACITYTILE
360
27
  3
REFLECTIONTILE
360
26
  3
REFRACTIONTILE
360
28
  3
SPECULARTILE
360
25
  0
DICTIONARY
  5
807
330
64
100
AcDbDictionary
280
     1
281
     1
  3
ACAD_ROUNDTRIP_2008_TABLESTYLE_CELLSTYLEMAP
360
E32
  3
ACAD_XREC_ROUNDTRIP
360
E69
  0
DICTIONARY
  5
E43
330
2F
100
AcDbDictionary
280
     1
281
     1
  3
ACAD_XREC_ROUNDTRIP
360
E44
  0
DICTIONARY
  5
E41
330
2E
100
AcDbDictionary
280
     1
281
     1
  3
ACAD_XREC_ROUNDTRIP
360
E42
  0
DICTIONARY
  5
E4F
330
35
100
AcDbDictionary
280
     1
281
     1
  3
ACAD_XREC_ROUNDTRIP
360
E50
  0
DICTIONARY
  5
E57
330
39
100
AcDbDictionary
280
     1
281
     1
  3
ACAD_XREC_ROUNDTRIP
360
E58
  0
DICTIONARY
  5
E49
330
32
100
AcDbDictionary
280
     1
281
     1
  3
ACAD_XREC_ROUNDTRIP
360
E4A
  0
DICTIONARY
  5
E4D
330
34
100
AcDbDictionary
280
     1
281
     1
  3
ACAD_XREC_ROUNDTRIP
360
E4E
  0
DICTIONARY
  5
E67
330
41
100
AcDbDictionary
280
     1
281
     1
  3
ACAD_XREC_ROUNDTRIP
360
E68
  0
DICTIONARY
  5
E55
330
38
100
AcDbDictionary
280
     1
281
     1
  3
ACAD_XREC_ROUNDTRIP
360
E56
  0
DICTIONARY
  5
E39
330
2A
100
AcDbDictionary
280
     1
281
     1
  3
ACAD_XREC_ROUNDTRIP
360
E3A
  0
DICTIONARY
  5
E3B
330
2B
100
AcDbDictionary
280
     1
281
     1
  3
ACAD_XREC_ROUNDTRIP
360
E3C
  0
DICTIONARY
  5
E3D
330
2C
100
AcDbDictionary
280
     1
281
     1
  3
ACAD_XREC_ROUNDTRIP
360
E3E
  0
DICTIONARY
  5
E3F
330
2D
100
AcDbDictionary
280
     1
281
     1
  3
ACAD_XREC_ROUNDTRIP
360
E40
  0
DICTIONARY
  5
E47
330
31
100
AcDbDictionary
280
     1
281
     1
  3
ACAD_XREC_ROUNDTRIP
360
E48
  0
DICTIONARY
  5
E63
330
3F
100
AcDbDictionary
280
     1
281
     1
  3
ACAD_XREC_ROUNDTRIP
360
E64
  0
DICTIONARY
  5
E53
330
37
100
AcDbDictionary
280
     1
281
     1
  3
ACAD_XREC_ROUNDTRIP
360
E54
  0
DICTIONARY
  5
E65
330
40
100
AcDbDictionary
280
     1
281
     1
  3
ACAD_XREC_ROUNDTRIP
360
E66
  0
DICTIONARY
  5
E4B
330
33
100
AcDbDictionary
280
     1
281
     1
  3
ACAD_XREC_ROUNDTRIP
360
E4C
  0
DICTIONARY
  5
E61
330
3E
100
AcDbDictionary
280
     1
281
     1
  3
ACAD_XREC_ROUNDTRIP
360
E62
  0
DICTIONARY
  5
E5F
330
3D
100
AcDbDictionary
280
     1
281
     1
  3
ACAD_XREC_ROUNDTRIP
360
E60
  0
DICTIONARY
  5
E59
330
3A
100
AcDbDictionary
280
     1
281
     1
  3
ACAD_XREC_ROUNDTRIP
360
E5A
  0
DICTIONARY
  5
E5B
330
3B
100
AcDbDictionary
280
     1
281
     1
  3
ACAD_XREC_ROUNDTRIP
360
E5C
  0
DICTIONARY
  5
E51
330
36
100
AcDbDictionary
280
     1
281
     1
  3
ACAD_XREC_ROUNDTRIP
360
E52
  0
DICTIONARY
  5
E45
330
30
100
AcDbDictionary
280
     1
281
     1
  3
ACAD_XREC_ROUNDTRIP
360
E46
  0
DICTIONARY
  5
E5D
330
3C
100
AcDbDictionary
280
     1
281
     1
  3
ACAD_XREC_ROUNDTRIP
360
E5E
  0
XRECORD
  5
E6D
102
{ACAD_REACTORS
330
E6C
102
}
330
E6C
100
AcDbXrecord
280
     1
102
SHADEPLOT
 70
     0
102
SHADEPLOTRESLEVEL
 70
     2
102
SHADEPLOTCUSTOMDPI
 70
   300
  0
XRECORD
  5
E6B
102
{ACAD_REACTORS
330
E6A
102
}
330
E6A
100
AcDbXrecord
280
     1
102
SHADEPLOT
 70
     0
102
SHADEPLOTRESLEVEL
 70
     2
102
SHADEPLOTCUSTOMDPI
 70
   300
  0
XRECORD
  5
810
102
{ACAD_REACTORS
330
1A
102
}
330
1A
100
AcDbXrecord
280
     1
102
MATERIAL
148
0.0
149
0.0
149
0.0
 93
        0
 94
      127
282
     0
 72
     0
 77
     0
171
     0
175
     0
179
     0
273
     0
  0
XRECORD
  5
1C
102
{ACAD_REACTORS
330
1A
102
}
330
1A
100
AcDbXrecord
280
     1
270
     1
271
     1
  0
XRECORD
  5
1B
102
{ACAD_REACTORS
330
1A
102
}
330
1A
100
AcDbXrecord
280
     1
270
     1
271
     1
  0
XRECORD
  5
1F
102
{ACAD_REACTORS
330
1A
102
}
330
1A
100
AcDbXrecord
280
     1
270
     1
271
     1
  0
XRECORD
  5
1E
102
{ACAD_REACTORS
330
1A
102
}
330
1A
100
AcDbXrecord
280
     1
270
     1
271
     1
  0
XRECORD
  5
20
102
{ACAD_REACTORS
330
1A
102
}
330
1A
100
AcDbXrecord
280
     1
270
     1
271
     1
  0
XRECORD
  5
1D
102
{ACAD_REACTORS
330
1A
102
}
330
1A
100
AcDbXrecord
280
     1
270
     1
271
     1
  0
XRECORD
  5
80F
102
{ACAD_REACTORS
330
12
102
}
330
12
100
AcDbXrecord
280
     1
102
MATERIAL
148
0.0
149
0.0
149
0.0
 93
        0
 94
      127
282
     0
 72
     0
 77
     0
171
     0
175
     0
179
     0
273
     0
  0
XRECORD
  5
14
102
{ACAD_REACTORS
330
12
102
}
330
12
100
AcDbXrecord
280
     1
270
     1
271
     1
  0
XRECORD
  5
13
102
{ACAD_REACTORS
330
12
102
}
330
12
100
AcDbXrecord
280
     1
270
     1
271
     1
  0
XRECORD
  5
17
102
{ACAD_REACTORS
330
12
102
}
330
12
100
AcDbXrecord
280
     1
270
     1
271
     1
  0
XRECORD
  5
16
102
{ACAD_REACTORS
330
12
102
}
330
12
100
AcDbXrecord
280
     1
270
     1
271
     1
  0
XRECORD
  5
18
102
{ACAD_REACTORS
330
12
102
}
330
12
100
AcDbXrecord
280
     1
270
     1
271
     1
  0
XRECORD
  5
15
102
{ACAD_REACTORS
330
12
102
}
330
12
100
AcDbXrecord
280
     1
270
     1
271
     1
  0
XRECORD
  5
811
102
{ACAD_REACTORS
330
22
102
}
330
22
100
AcDbXrecord
280
     1
102
MATERIAL
148
0.0
149
0.0
149
0.0
 93
        0
 94
      127
282
     0
 72
     0
 77
     0
171
     0
175
     0
179
     0
273
     0
  0
XRECORD
  5
24
102
{ACAD_REACTORS
330
22
102
}
330
22
100
AcDbXrecord
280
     1
270
     1
271
     1
  0
XRECORD
  5
23
102
{ACAD_REACTORS
330
22
102
}
330
22
100
AcDbXrecord
280
     1
270
     1
271
     1
  0
XRECORD
  5
27
102
{ACAD_REACTORS
330
22
102
}
330
22
100
AcDbXrecord
280
     1
270
     1
271
     1
  0
XRECORD
  5
26
102
{ACAD_REACTORS
330
22
102
}
330
22
100
AcDbXrecord
280
     1
270
     1
271
     1
  0
XRECORD
  5
28
102
{ACAD_REACTORS
330
22
102
}
330
22
100
AcDbXrecord
280
     1
270
     1
271
     1
  0
XRECORD
  5
25
102
{ACAD_REACTORS
330
22
102
}
330
22
100
AcDbXrecord
280
     1
270
     1
271
     1
  0
CELLSTYLEMAP
  5
E32
102
{ACAD_REACTORS
330
807
102
}
330
807
100
AcDbCellStyleMap
 90
        3
300
CELLSTYLE
  1
TABLEFORMAT_BEGIN
 90
        5
170
     1
 91
        0
 92
    32768
 62
   257
 93
        1
300
CONTENTFORMAT
  1
CONTENTFORMAT_BEGIN
 90
        0
 91
        0
 92
      512
 93
        0
300

 40
0.0
140
1.0
 94
        5
 62
     0
340
55
144
0.25
309
CONTENTFORMAT_END
171
     1
301
MARGIN
  1
CELLMARGIN_BEGIN
 40
0.06
 40
0.06
 40
0.06
 40
0.06
 40
0.18
 40
0.18
309
CELLMARGIN_END
 94
        6
 95
        1
302
GRIDFORMAT
  1
GRIDFORMAT_BEGIN
 90
        0
 91
        1
 62
     0
 92
       -2
340
0
 93
        0
 40
0.045
309
GRIDFORMAT_END
 95
        2
302
GRIDFORMAT
  1
GRIDFORMAT_BEGIN
 90
        0
 91
        1
 62
     0
 92
       -2
340
0
 93
        0
 40
0.045
309
GRIDFORMAT_END
 95
        4
302
GRIDFORMAT
  1
GRIDFORMAT_BEGIN
 90
        0
 91
        1
 62
     0
 92
       -2
340
0
 93
        0
 40
0.045
309
GRIDFORMAT_END
 95
        8
302
GRIDFORMAT
  1
GRIDFORMAT_BEGIN
 90
        0
 91
        1
 62
     0
 92
       -2
340
0
 93
        0
 40
0.045
309
GRIDFORMAT_END
 95
       16
302
GRIDFORMAT
  1
GRIDFORMAT_BEGIN
 90
        0
 91
        1
 62
     0
 92
       -2
340
0
 93
        0
 40
0.045
309
GRIDFORMAT_END
 95
       32
302
GRIDFORMAT
  1
GRIDFORMAT_BEGIN
 90
        0
 91
        1
 62
     0
 92
       -2
340
0
 93
        0
 40
0.045
309
GRIDFORMAT_END
309
TABLEFORMAT_END
  1
CELLSTYLE_BEGIN
 90
        1
 91
        1
300
_TITLE
309
CELLSTYLE_END
300
CELLSTYLE
  1
TABLEFORMAT_BEGIN
 90
        5
170
     1
 91
        0
 92
        0
 62
   257
 93
        1
300
CONTENTFORMAT
  1
CONTENTFORMAT_BEGIN
 90
        0
 91
        0
 92
      512
 93
        0
300

 40
0.0
140
1.0
 94
        5
 62
     0
340
55
144
0.18
309
CONTENTFORMAT_END
171
     1
301
MARGIN
  1
CELLMARGIN_BEGIN
 40
0.06
 40
0.06
 40
0.06
 40
0.06
 40
0.18
 40
0.18
309
CELLMARGIN_END
 94
        6
 95
        1
302
GRIDFORMAT
  1
GRIDFORMAT_BEGIN
 90
        0
 91
        1
 62
     0
 92
       -2
340
0
 93
        0
 40
0.045
309
GRIDFORMAT_END
 95
        2
302
GRIDFORMAT
  1
GRIDFORMAT_BEGIN
 90
        0
 91
        1
 62
     0
 92
       -2
340
0
 93
        0
 40
0.045
309
GRIDFORMAT_END
 95
        4
302
GRIDFORMAT
  1
GRIDFORMAT_BEGIN
 90
        0
 91
        1
 62
     0
 92
       -2
340
0
 93
        0
 40
0.045
309
GRIDFORMAT_END
 95
        8
302
GRIDFORMAT
  1
GRIDFORMAT_BEGIN
 90
        0
 91
        1
 62
     0
 92
       -2
340
0
 93
        0
 40
0.045
309
GRIDFORMAT_END
 95
       16
302
GRIDFORMAT
  1
GRIDFORMAT_BEGIN
 90
        0
 91
        1
 62
     0
 92
       -2
340
0
 93
        0
 40
0.045
309
GRIDFORMAT_END
 95
       32
302
GRIDFORMAT
  1
GRIDFORMAT_BEGIN
 90
        0
 91
        1
 62
     0
 92
       -2
340
0
 93
        0
 40
0.045
309
GRIDFORMAT_END
309
TABLEFORMAT_END
  1
CELLSTYLE_BEGIN
 90
        2
 91
        1
300
_HEADER
309
CELLSTYLE_END
300
CELLSTYLE
  1
TABLEFORMAT_BEGIN
 90
        5
170
     1
 91
        0
 92
        0
 62
   257
 93
        1
300
CONTENTFORMAT
  1
CONTENTFORMAT_BEGIN
 90
        0
 91
        0
 92
      512
 93
        0
300

 40
0.0
140
1.0
 94
        2
 62
     0
340
55
144
0.18
309
CONTENTFORMAT_END
171
     1
301
MARGIN
  1
CELLMARGIN_BEGIN
 40
0.06
 40
0.06
 40
0.06
 40
0.06
 40
0.18
 40
0.18
309
CELLMARGIN_END
 94
        6
 95
        1
302
GRIDFORMAT
  1
GRIDFORMAT_BEGIN
 90
        0
 91
        1
 62
     0
 92
       -2
340
0
 93
        0
 40
0.045
309
GRIDFORMAT_END
 95
        2
302
GRIDFORMAT
  1
GRIDFORMAT_BEGIN
 90
        0
 91
        1
 62
     0
 92
       -2
340
0
 93
        0
 40
0.045
309
GRIDFORMAT_END
 95
        4
302
GRIDFORMAT
  1
GRIDFORMAT_BEGIN
 90
        0
 91
        1
 62
     0
 92
       -2
340
0
 93
        0
 40
0.045
309
GRIDFORMAT_END
 95
        8
302
GRIDFORMAT
  1
GRIDFORMAT_BEGIN
 90
        0
 91
        1
 62
     0
 92
       -2
340
0
 93
        0
 40
0.045
309
GRIDFORMAT_END
 95
       16
302
GRIDFORMAT
  1
GRIDFORMAT_BEGIN
 90
        0
 91
        1
 62
     0
 92
       -2
340
0
 93
        0
 40
0.045
309
GRIDFORMAT_END
 95
       32
302
GRIDFORMAT
  1
GRIDFORMAT_BEGIN
 90
        0
 91
        1
 62
     0
 92
       -2
340
0
 93
        0
 40
0.045
309
GRIDFORMAT_END
309
TABLEFORMAT_END
  1
CELLSTYLE_BEGIN
 90
        3
 91
        2
300
_DATA
309
CELLSTYLE_END
  0
XRECORD
  5
E69
102
{ACAD_REACTORS
330
807
102
}
330
807
100
AcDbXrecord
280
     1
102
ACAD_ROUNDTRIP_PRE2007_TABLESTYLE
 90
      512
 91
        0
  1

 92
      512
 93
        0
  2

 94
      512
 95
        0
  3

  0
XRECORD
  5
E44
102
{ACAD_REACTORS
330
E43
102
}
330
E43
100
AcDbXrecord
280
     1
102
RTVSPropertyOp0
 70
     1
102
RTVSPropertyOp1
 70
     1
102
RTVSPropertyOp2
 70
     1
102
RTVSPropertyOp3
 70
     1
102
RTVSPropertyOp4
 70
     1
102
RTVSPropertyOp5
 70
     1
102
RTVSPropertyOp6
 70
     1
102
RTVSPropertyOp7
 70
     1
102
RTVSPropertyOp8
 70
     1
102
RTVSPropertyOp9
 70
     1
102
RTVSPropertyOp10
 70
     1
102
RTVSPropertyOp11
 70
     1
102
RTVSPropertyOp12
 70
     1
102
RTVSPropertyOp13
 70
     1
102
RTVSPropertyOp14
 70
     1
102
RTVSPropertyOp15
 70
     1
102
RTVSPropertyOp16
 70
     1
102
RTVSPropertyOp17
 70
     1
102
RTVSPropertyOp18
 70
     1
102
RTVSPropertyOp19
 70
     1
102
RTVSPropertyOp20
 70
     1
102
RTVSPropertyOp21
 70
     1
102
RTVSPropertyOp22
 70
     1
102
RTVSPropertyOp23
 70
     1
102
RTVSPropertyOp24
 70
     1
102
RTVSPropertyOp25
 70
     1
102
RTVSPropertyOp26
 70
     1
102
RTVSPropertyOp27
 70
     1
102
RTVSPropertyOp28
 70
     1
102
RTVSPropertyOp29
 70
     1
102
RTVSPropertyOp30
 70
     1
102
RTVSPropertyOp31
 70
     1
102
RTVSPropertyOp32
 70
     1
  0
XRECORD
  5
E42
102
{ACAD_REACTORS
330
E41
102
}
330
E41
100
AcDbXrecord
280
     1
102
RTVSPropertyOp0
 70
     1
102
RTVSPropertyOp1
 70
     1
102
RTVSPropertyOp2
 70
     1
102
RTVSPropertyOp3
 70
     1
102
RTVSPropertyOp4
 70
     1
102
RTVSPropertyOp5
 70
     1
102
RTVSPropertyOp6
 70
     1
102
RTVSPropertyOp7
 70
     1
102
RTVSPropertyOp8
 70
     1
102
RTVSPropertyOp9
 70
     1
102
RTVSPropertyOp10
 70
     1
102
RTVSPropertyOp11
 70
     1
102
RTVSPropertyOp12
 70
     1
102
RTVSPropertyOp13
 70
     1
102
RTVSPropertyOp14
 70
     1
102
RTVSPropertyOp15
 70
     1
102
RTVSPropertyOp16
 70
     1
102
RTVSPropertyOp17
 70
     1
102
RTVSPropertyOp18
 70
     1
102
RTVSPropertyOp19
 70
     1
102
RTVSPropertyOp20
 70
     1
102
RTVSPropertyOp21
 70
     1
102
RTVSPropertyOp22
 70
     1
102
RTVSPropertyOp23
 70
     1
102
RTVSPropertyOp24
 70
     1
102
RTVSPropertyOp25
 70
     1
102
RTVSPropertyOp26
 70
     1
102
RTVSPropertyOp27
 70
     1
102
RTVSPropertyOp28
 70
     1
102
RTVSPropertyOp29
 70
     1
102
RTVSPropertyOp30
 70
     1
102
RTVSPropertyOp31
 70
     1
102
RTVSPropertyOp32
 70
     1
  0
XRECORD
  5
E50
102
{ACAD_REACTORS
330
E4F
102
}
330
E4F
100
AcDbXrecord
280
     1
102
RTVSPropertyOp0
 70
     1
102
RTVSPropertyOp1
 70
     1
102
RTVSPropertyOp2
 70
     1
102
RTVSPropertyOp3
 70
     1
102
RTVSPropertyOp4
 70
     1
102
RTVSPropertyOp5
 70
     1
102
RTVSPropertyOp6
 70
     1
102
RTVSPropertyOp7
 70
     1
102
RTVSPropertyOp8
 70
     1
102
RTVSPropertyOp9
 70
     1
102
RTVSPropertyOp10
 70
     1
102
RTVSPropertyOp11
 70
     1
102
RTVSPropertyOp12
 70
     1
102
RTVSPropertyOp13
 70
     1
102
RTVSPropertyOp14
 70
     1
102
RTVSPropertyOp15
 70
     1
102
RTVSPropertyOp16
 70
     1
102
RTVSPropertyOp17
 70
     1
102
RTVSPropertyOp18
 70
     1
102
RTVSPropertyOp19
 70
     1
102
RTVSPropertyOp20
 70
     1
102
RTVSPropertyOp21
 70
     1
102
RTVSPropertyOp22
 70
     1
102
RTVSPropertyOp23
 70
     1
102
RTVSPropertyOp24
 70
     1
102
RTVSPropertyOp25
 70
     1
102
RTVSPropertyOp26
 70
     1
102
RTVSPropertyOp27
 70
     1
102
RTVSPropertyOp28
 70
     1
102
RTVSPropertyOp29
 70
     1
102
RTVSPropertyOp30
 70
     1
102
RTVSPropertyOp31
 70
     1
102
RTVSPropertyOp32
 70
     1
  0
XRECORD
  5
E58
102
{ACAD_REACTORS
330
E57
102
}
330
E57
100
AcDbXrecord
280
     1
102
RTVSPropertyOp0
 70
     1
102
RTVSPropertyOp1
 70
     1
102
RTVSPropertyOp2
 70
     1
102
RTVSPropertyOp3
 70
     1
102
RTVSPropertyOp4
 70
     1
102
RTVSPropertyOp5
 70
     1
102
RTVSPropertyOp6
 70
     1
102
RTVSPropertyOp7
 70
     1
102
RTVSPropertyOp8
 70
     1
102
RTVSPropertyOp9
 70
     1
102
RTVSPropertyOp10
 70
     1
102
RTVSPropertyOp11
 70
     1
102
RTVSPropertyOp12
 70
     1
102
RTVSPropertyOp13
 70
     1
102
RTVSPropertyOp14
 70
     1
102
RTVSPropertyOp15
 70
     1
102
RTVSPropertyOp16
 70
     1
102
RTVSPropertyOp17
 70
     1
102
RTVSPropertyOp18
 70
     1
102
RTVSPropertyOp19
 70
     1
102
RTVSPropertyOp20
 70
     1
102
RTVSPropertyOp21
 70
     1
102
RTVSPropertyOp22
 70
     1
102
RTVSPropertyOp23
 70
     1
102
RTVSPropertyOp24
 70
     1
102
RTVSPropertyOp25
 70
     1
102
RTVSPropertyOp26
 70
     1
102
RTVSPropertyOp27
 70
     1
102
RTVSPropertyOp28
 70
     1
102
RTVSPropertyOp29
 70
     1
102
RTVSPropertyOp30
 70
     1
102
RTVSPropertyOp31
 70
     1
102
RTVSPropertyOp32
 70
     1
  0
XRECORD
  5
E4A
102
{ACAD_REACTORS
330
E49
102
}
330
E49
100
AcDbXrecord
280
     1
102
RTVSPropertyOp0
 70
     1
102
RTVSPropertyOp1
 70
     1
102
RTVSPropertyOp2
 70
     1
102
RTVSPropertyOp3
 70
     1
102
RTVSPropertyOp4
 70
     1
102
RTVSPropertyOp5
 70
     1
102
RTVSPropertyOp6
 70
     1
102
RTVSPropertyOp7
 70
     1
102
RTVSPropertyOp8
 70
     1
102
RTVSPropertyOp9
 70
     1
102
RTVSPropertyOp10
 70
     1
102
RTVSPropertyOp11
 70
     1
102
RTVSPropertyOp12
 70
     1
102
RTVSPropertyOp13
 70
     1
102
RTVSPropertyOp14
 70
     1
102
RTVSPropertyOp15
 70
     1
102
RTVSPropertyOp16
 70
     1
102
RTVSPropertyOp17
 70
     1
102
RTVSPropertyOp18
 70
     1
102
RTVSPropertyOp19
 70
     1
102
RTVSPropertyOp20
 70
     1
102
RTVSPropertyOp21
 70
     1
102
RTVSPropertyOp22
 70
     1
102
RTVSPropertyOp23
 70
     1
102
RTVSPropertyOp24
 70
     1
102
RTVSPropertyOp25
 70
     1
102
RTVSPropertyOp26
 70
     1
102
RTVSPropertyOp27
 70
     1
102
RTVSPropertyOp28
 70
     1
102
RTVSPropertyOp29
 70
     1
102
RTVSPropertyOp30
 70
     1
102
RTVSPropertyOp31
 70
     1
102
RTVSPropertyOp32
 70
     1
  0
XRECORD
  5
E4E
102
{ACAD_REACTORS
330
E4D
102
}
330
E4D
100
AcDbXrecord
280
     1
102
RTVSPropertyOp0
 70
     1
102
RTVSPropertyOp1
 70
     1
102
RTVSPropertyOp2
 70
     1
102
RTVSPropertyOp3
 70
     1
102
RTVSPropertyOp4
 70
     1
102
RTVSPropertyOp5
 70
     1
102
RTVSPropertyOp6
 70
     1
102
RTVSPropertyOp7
 70
     1
102
RTVSPropertyOp8
 70
     1
102
RTVSPropertyOp9
 70
     1
102
RTVSPropertyOp10
 70
     1
102
RTVSPropertyOp11
 70
     1
102
RTVSPropertyOp12
 70
     1
102
RTVSPropertyOp13
 70
     1
102
RTVSPropertyOp14
 70
     1
102
RTVSPropertyOp15
 70
     1
102
RTVSPropertyOp16
 70
     1
102
RTVSPropertyOp17
 70
     1
102
RTVSPropertyOp18
 70
     1
102
RTVSPropertyOp19
 70
     1
102
RTVSPropertyOp20
 70
     1
102
RTVSPropertyOp21
 70
     1
102
RTVSPropertyOp22
 70
     1
102
RTVSPropertyOp23
 70
     1
102
RTVSPropertyOp24
 70
     1
102
RTVSPropertyOp25
 70
     1
102
RTVSPropertyOp26
 70
     1
102
RTVSPropertyOp27
 70
     1
102
RTVSPropertyOp28
 70
     1
102
RTVSPropertyOp29
 70
     1
102
RTVSPropertyOp30
 70
     1
102
RTVSPropertyOp31
 70
     1
102
RTVSPropertyOp32
 70
     1
  0
XRECORD
  5
E68
102
{ACAD_REACTORS
330
E67
102
}
330
E67
100
AcDbXrecord
280
     1
102
RTVSPropertyOp0
 70
     0
102
RTVSPropertyOp1
 70
     0
102
RTVSPropertyOp2
 70
     0
102
RTVSPropertyOp3
 70
     0
102
RTVSPropertyOp4
 70
     0
102
RTVSPropertyOp5
 70
     0
102
RTVSPropertyOp6
 70
     0
102
RTVSPropertyOp7
 70
     0
102
RTVSPropertyOp8
 70
     0
102
RTVSPropertyOp9
 70
     0
102
RTVSPropertyOp10
 70
     0
102
RTVSPropertyOp11
 70
     0
102
RTVSPropertyOp12
 70
     0
102
RTVSPropertyOp13
 70
     0
102
RTVSPropertyOp14
 70
     2
102
RTVSPropertyOp15
 70
     0
102
RTVSPropertyOp16
 70
     0
102
RTVSPropertyOp17
 70
     0
102
RTVSPropertyOp18
 70
     0
102
RTVSPropertyOp19
 70
     0
102
RTVSPropertyOp20
 70
     0
102
RTVSPropertyOp21
 70
     0
102
RTVSPropertyOp22
 70
     0
102
RTVSPropertyOp23
 70
     0
102
RTVSPropertyOp24
 70
     0
102
RTVSPropertyOp25
 70
     0
102
RTVSPropertyOp26
 70
     0
102
RTVSPropertyOp27
 70
     0
102
RTVSPropertyOp28
 70
     0
102
RTVSPropertyOp29
 70
     0
102
RTVSPropertyOp30
 70
     0
102
RTVSPropertyOp31
 70
     0
102
RTVSPropertyOp32
 70
     0
  0
XRECORD
  5
E56
102
{ACAD_REACTORS
330
E55
102
}
330
E55
100
AcDbXrecord
280
     1
102
RTVSPropertyOp0
 70
     1
102
RTVSPropertyOp1
 70
     1
102
RTVSPropertyOp2
 70
     1
102
RTVSPropertyOp3
 70
     1
102
RTVSPropertyOp4
 70
     1
102
RTVSPropertyOp5
 70
     1
102
RTVSPropertyOp6
 70
     1
102
RTVSPropertyOp7
 70
     1
102
RTVSPropertyOp8
 70
     1
102
RTVSPropertyOp9
 70
     1
102
RTVSPropertyOp10
 70
     1
102
RTVSPropertyOp11
 70
     1
102
RTVSPropertyOp12
 70
     1
102
RTVSPropertyOp13
 70
     1
102
RTVSPropertyOp14
 70
     1
102
RTVSPropertyOp15
 70
     1
102
RTVSPropertyOp16
 70
     1
102
RTVSPropertyOp17
 70
     1
102
RTVSPropertyOp18
 70
     1
102
RTVSPropertyOp19
 70
     1
102
RTVSPropertyOp20
 70
     1
102
RTVSPropertyOp21
 70
     1
102
RTVSPropertyOp22
 70
     1
102
RTVSPropertyOp23
 70
     1
102
RTVSPropertyOp24
 70
     1
102
RTVSPropertyOp25
 70
     1
102
RTVSPropertyOp26
 70
     1
102
RTVSPropertyOp27
 70
     1
102
RTVSPropertyOp28
 70
     1
102
RTVSPropertyOp29
 70
     1
102
RTVSPropertyOp30
 70
     1
102
RTVSPropertyOp31
 70
     1
102
RTVSPropertyOp32
 70
     1
  0
XRECORD
  5
E3A
102
{ACAD_REACTORS
330
E39
102
}
330
E39
100
AcDbXrecord
280
     1
102
RTVSPropertyOp0
 70
     1
102
RTVSPropertyOp1
 70
     1
102
RTVSPropertyOp2
 70
     1
102
RTVSPropertyOp3
 70
     1
102
RTVSPropertyOp4
 70
     1
102
RTVSPropertyOp5
 70
     1
102
RTVSPropertyOp6
 70
     1
102
RTVSPropertyOp7
 70
     1
102
RTVSPropertyOp8
 70
     1
102
RTVSPropertyOp9
 70
     1
102
RTVSPropertyOp10
 70
     1
102
RTVSPropertyOp11
 70
     1
102
RTVSPropertyOp12
 70
     1
102
RTVSPropertyOp13
 70
     1
102
RTVSPropertyOp14
 70
     1
102
RTVSPropertyOp15
 70
     1
102
RTVSPropertyOp16
 70
     1
102
RTVSPropertyOp17
 70
     1
102
RTVSPropertyOp18
 70
     1
102
RTVSPropertyOp19
 70
     1
102
RTVSPropertyOp20
 70
     1
102
RTVSPropertyOp21
 70
     1
102
RTVSPropertyOp22
 70
     1
102
RTVSPropertyOp23
 70
     1
102
RTVSPropertyOp24
 70
     1
102
RTVSPropertyOp25
 70
     1
102
RTVSPropertyOp26
 70
     1
102
RTVSPropertyOp27
 70
     1
102
RTVSPropertyOp28
 70
     1
102
RTVSPropertyOp29
 70
     1
102
RTVSPropertyOp30
 70
     1
102
RTVSPropertyOp31
 70
     1
102
RTVSPropertyOp32
 70
     1
  0
XRECORD
  5
E3C
102
{ACAD_REACTORS
330
E3B
102
}
330
E3B
100
AcDbXrecord
280
     1
102
RTVSPropertyOp0
 70
     1
102
RTVSPropertyOp1
 70
     1
102
RTVSPropertyOp2
 70
     1
102
RTVSPropertyOp3
 70
     1
102
RTVSPropertyOp4
 70
     1
102
RTVSPropertyOp5
 70
     1
102
RTVSPropertyOp6
 70
     1
102
RTVSPropertyOp7
 70
     1
102
RTVSPropertyOp8
 70
     1
102
RTVSPropertyOp9
 70
     1
102
RTVSPropertyOp10
 70
     1
102
RTVSPropertyOp11
 70
     1
102
RTVSPropertyOp12
 70
     1
102
RTVSPropertyOp13
 70
     1
102
RTVSPropertyOp14
 70
     1
102
RTVSPropertyOp15
 70
     1
102
RTVSPropertyOp16
 70
     1
102
RTVSPropertyOp17
 70
     1
102
RTVSPropertyOp18
 70
     1
102
RTVSPropertyOp19
 70
     1
102
RTVSPropertyOp20
 70
     1
102
RTVSPropertyOp21
 70
     1
102
RTVSPropertyOp22
 70
     1
102
RTVSPropertyOp23
 70
     1
102
RTVSPropertyOp24
 70
     1
102
RTVSPropertyOp25
 70
     1
102
RTVSPropertyOp26
 70
     1
102
RTVSPropertyOp27
 70
     1
102
RTVSPropertyOp28
 70
     1
102
RTVSPropertyOp29
 70
     1
102
RTVSPropertyOp30
 70
     1
102
RTVSPropertyOp31
 70
     1
102
RTVSPropertyOp32
 70
     1
  0
XRECORD
  5
E3E
102
{ACAD_REACTORS
330
E3D
102
}
330
E3D
100
AcDbXrecord
280
     1
102
RTVSPropertyOp0
 70
     1
102
RTVSPropertyOp1
 70
     1
102
RTVSPropertyOp2
 70
     1
102
RTVSPropertyOp3
 70
     1
102
RTVSPropertyOp4
 70
     1
102
RTVSPropertyOp5
 70
     1
102
RTVSPropertyOp6
 70
     1
102
RTVSPropertyOp7
 70
     1
102
RTVSPropertyOp8
 70
     1
102
RTVSPropertyOp9
 70
     1
102
RTVSPropertyOp10
 70
     1
102
RTVSPropertyOp11
 70
     1
102
RTVSPropertyOp12
 70
     1
102
RTVSPropertyOp13
 70
     1
102
RTVSPropertyOp14
 70
     1
102
RTVSPropertyOp15
 70
     1
102
RTVSPropertyOp16
 70
     1
102
RTVSPropertyOp17
 70
     1
102
RTVSPropertyOp18
 70
     1
102
RTVSPropertyOp19
 70
     1
102
RTVSPropertyOp20
 70
     1
102
RTVSPropertyOp21
 70
     1
102
RTVSPropertyOp22
 70
     1
102
RTVSPropertyOp23
 70
     1
102
RTVSPropertyOp24
 70
     1
102
RTVSPropertyOp25
 70
     1
102
RTVSPropertyOp26
 70
     1
102
RTVSPropertyOp27
 70
     1
102
RTVSPropertyOp28
 70
     1
102
RTVSPropertyOp29
 70
     1
102
RTVSPropertyOp30
 70
     1
102
RTVSPropertyOp31
 70
     1
102
RTVSPropertyOp32
 70
     1
  0
XRECORD
  5
E40
102
{ACAD_REACTORS
330
E3F
102
}
330
E3F
100
AcDbXrecord
280
     1
102
RTVSPropertyOp0
 70
     1
102
RTVSPropertyOp1
 70
     1
102
RTVSPropertyOp2
 70
     1
102
RTVSPropertyOp3
 70
     1
102
RTVSPropertyOp4
 70
     1
102
RTVSPropertyOp5
 70
     1
102
RTVSPropertyOp6
 70
     1
102
RTVSPropertyOp7
 70
     1
102
RTVSPropertyOp8
 70
     1
102
RTVSPropertyOp9
 70
     1
102
RTVSPropertyOp10
 70
     1
102
RTVSPropertyOp11
 70
     1
102
RTVSPropertyOp12
 70
     1
102
RTVSPropertyOp13
 70
     1
102
RTVSPropertyOp14
 70
     1
102
RTVSPropertyOp15
 70
     1
102
RTVSPropertyOp16
 70
     1
102
RTVSPropertyOp17
 70
     1
102
RTVSPropertyOp18
 70
     1
102
RTVSPropertyOp19
 70
     1
102
RTVSPropertyOp20
 70
     1
102
RTVSPropertyOp21
 70
     1
102
RTVSPropertyOp22
 70
     1
102
RTVSPropertyOp23
 70
     1
102
RTVSPropertyOp24
 70
     1
102
RTVSPropertyOp25
 70
     1
102
RTVSPropertyOp26
 70
     1
102
RTVSPropertyOp27
 70
     1
102
RTVSPropertyOp28
 70
     1
102
RTVSPropertyOp29
 70
     1
102
RTVSPropertyOp30
 70
     1
102
RTVSPropertyOp31
 70
     1
102
RTVSPropertyOp32
 70
     1
  0
XRECORD
  5
E48
102
{ACAD_REACTORS
330
E47
102
}
330
E47
100
AcDbXrecord
280
     1
102
RTVSPropertyOp0
 70
     1
102
RTVSPropertyOp1
 70
     1
102
RTVSPropertyOp2
 70
     1
102
RTVSPropertyOp3
 70
     1
102
RTVSPropertyOp4
 70
     1
102
RTVSPropertyOp5
 70
     1
102
RTVSPropertyOp6
 70
     1
102
RTVSPropertyOp7
 70
     1
102
RTVSPropertyOp8
 70
     1
102
RTVSPropertyOp9
 70
     1
102
RTVSPropertyOp10
 70
     1
102
RTVSPropertyOp11
 70
     1
102
RTVSPropertyOp12
 70
     1
102
RTVSPropertyOp13
 70
     1
102
RTVSPropertyOp14
 70
     1
102
RTVSPropertyOp15
 70
     1
102
RTVSPropertyOp16
 70
     1
102
RTVSPropertyOp17
 70
     1
102
RTVSPropertyOp18
 70
     1
102
RTVSPropertyOp19
 70
     1
102
RTVSPropertyOp20
 70
     1
102
RTVSPropertyOp21
 70
     1
102
RTVSPropertyOp22
 70
     1
102
RTVSPropertyOp23
 70
     1
102
RTVSPropertyOp24
 70
     1
102
RTVSPropertyOp25
 70
     1
102
RTVSPropertyOp26
 70
     1
102
RTVSPropertyOp27
 70
     1
102
RTVSPropertyOp28
 70
     1
102
RTVSPropertyOp29
 70
     1
102
RTVSPropertyOp30
 70
     1
102
RTVSPropertyOp31
 70
     1
102
RTVSPropertyOp32
 70
     1
  0
XRECORD
  5
E64
102
{ACAD_REACTORS
330
E63
102
}
330
E63
100
AcDbXrecord
280
     1
102
RTVSPropertyOp0
 70
     0
102
RTVSPropertyOp1
 70
     0
102
RTVSPropertyOp2
 70
     0
102
RTVSPropertyOp3
 70
     0
102
RTVSPropertyOp4
 70
     0
102
RTVSPropertyOp5
 70
     0
102
RTVSPropertyOp6
 70
     0
102
RTVSPropertyOp7
 70
     0
102
RTVSPropertyOp8
 70
     0
102
RTVSPropertyOp9
 70
     0
102
RTVSPropertyOp10
 70
     0
102
RTVSPropertyOp11
 70
     0
102
RTVSPropertyOp12
 70
     0
102
RTVSPropertyOp13
 70
     0
102
RTVSPropertyOp14
 70
     2
102
RTVSPropertyOp15
 70
     0
102
RTVSPropertyOp16
 70
     0
102
RTVSPropertyOp17
 70
     0
102
RTVSPropertyOp18
 70
     0
102
RTVSPropertyOp19
 70
     0
102
RTVSPropertyOp20
 70
     0
102
RTVSPropertyOp21
 70
     0
102
RTVSPropertyOp22
 70
     0
102
RTVSPropertyOp23
 70
     0
102
RTVSPropertyOp24
 70
     0
102
RTVSPropertyOp25
 70
     0
102
RTVSPropertyOp26
 70
     0
102
RTVSPropertyOp27
 70
     0
102
RTVSPropertyOp28
 70
     0
102
RTVSPropertyOp29
 70
     0
102
RTVSPropertyOp30
 70
     0
102
RTVSPropertyOp31
 70
     0
102
RTVSPropertyOp32
 70
     0
  0
XRECORD
  5
E54
102
{ACAD_REACTORS
330
E53
102
}
330
E53
100
AcDbXrecord
280
     1
102
RTVSPropertyOp0
 70
     1
102
RTVSPropertyOp1
 70
     1
102
RTVSPropertyOp2
 70
     1
102
RTVSPropertyOp3
 70
     1
102
RTVSPropertyOp4
 70
     1
102
RTVSPropertyOp5
 70
     1
102
RTVSPropertyOp6
 70
     1
102
RTVSPropertyOp7
 70
     1
102
RTVSPropertyOp8
 70
     1
102
RTVSPropertyOp9
 70
     1
102
RTVSPropertyOp10
 70
     1
102
RTVSPropertyOp11
 70
     1
102
RTVSPropertyOp12
 70
     1
102
RTVSPropertyOp13
 70
     1
102
RTVSPropertyOp14
 70
     1
102
RTVSPropertyOp15
 70
     1
102
RTVSPropertyOp16
 70
     1
102
RTVSPropertyOp17
 70
     1
102
RTVSPropertyOp18
 70
     1
102
RTVSPropertyOp19
 70
     1
102
RTVSPropertyOp20
 70
     1
102
RTVSPropertyOp21
 70
     1
102
RTVSPropertyOp22
 70
     1
102
RTVSPropertyOp23
 70
     1
102
RTVSPropertyOp24
 70
     1
102
RTVSPropertyOp25
 70
     1
102
RTVSPropertyOp26
 70
     1
102
RTVSPropertyOp27
 70
     1
102
RTVSPropertyOp28
 70
     1
102
RTVSPropertyOp29
 70
     1
102
RTVSPropertyOp30
 70
     1
102
RTVSPropertyOp31
 70
     1
102
RTVSPropertyOp32
 70
     1
  0
XRECORD
  5
E66
102
{ACAD_REACTORS
330
E65
102
}
330
E65
100
AcDbXrecord
280
     1
102
RTVSPropertyOp0
 70
     0
102
RTVSPropertyOp1
 70
     0
102
RTVSPropertyOp2
 70
     0
102
RTVSPropertyOp3
 70
     0
102
RTVSPropertyOp4
 70
     0
102
RTVSPropertyOp5
 70
     0
102
RTVSPropertyOp6
 70
     0
102
RTVSPropertyOp7
 70
     0
102
RTVSPropertyOp8
 70
     0
102
RTVSPropertyOp9
 70
     0
102
RTVSPropertyOp10
 70
     0
102
RTVSPropertyOp11
 70
     0
102
RTVSPropertyOp12
 70
     0
102
RTVSPropertyOp13
 70
     0
102
RTVSPropertyOp14
 70
     2
102
RTVSPropertyOp15
 70
     0
102
RTVSPropertyOp16
 70
     0
102
RTVSPropertyOp17
 70
     0
102
RTVSPropertyOp18
 70
     0
102
RTVSPropertyOp19
 70
     0
102
RTVSPropertyOp20
 70
     0
102
RTVSPropertyOp21
 70
     0
102
RTVSPropertyOp22
 70
     0
102
RTVSPropertyOp23
 70
     0
102
RTVSPropertyOp24
 70
     0
102
RTVSPropertyOp25
 70
     0
102
RTVSPropertyOp26
 70
     0
102
RTVSPropertyOp27
 70
     0
102
RTVSPropertyOp28
 70
     0
102
RTVSPropertyOp29
 70
     0
102
RTVSPropertyOp30
 70
     0
102
RTVSPropertyOp31
 70
     0
102
RTVSPropertyOp32
 70
     0
  0
XRECORD
  5
E4C
102
{ACAD_REACTORS
330
E4B
102
}
330
E4B
100
AcDbXrecord
280
     1
102
RTVSPropertyOp0
 70
     1
102
RTVSPropertyOp1
 70
     1
102
RTVSPropertyOp2
 70
     1
102
RTVSPropertyOp3
 70
     1
102
RTVSPropertyOp4
 70
     1
102
RTVSPropertyOp5
 70
     1
102
RTVSPropertyOp6
 70
     1
102
RTVSPropertyOp7
 70
     1
102
RTVSPropertyOp8
 70
     1
102
RTVSPropertyOp9
 70
     1
102
RTVSPropertyOp10
 70
     1
102
RTVSPropertyOp11
 70
     1
102
RTVSPropertyOp12
 70
     1
102
RTVSPropertyOp13
 70
     1
102
RTVSPropertyOp14
 70
     1
102
RTVSPropertyOp15
 70
     1
102
RTVSPropertyOp16
 70
     1
102
RTVSPropertyOp17
 70
     1
102
RTVSPropertyOp18
 70
     1
102
RTVSPropertyOp19
 70
     1
102
RTVSPropertyOp20
 70
     1
102
RTVSPropertyOp21
 70
     1
102
RTVSPropertyOp22
 70
     1
102
RTVSPropertyOp23
 70
     1
102
RTVSPropertyOp24
 70
     1
102
RTVSPropertyOp25
 70
     1
102
RTVSPropertyOp26
 70
     1
102
RTVSPropertyOp27
 70
     1
102
RTVSPropertyOp28
 70
     1
102
RTVSPropertyOp29
 70
     1
102
RTVSPropertyOp30
 70
     1
102
RTVSPropertyOp31
 70
     1
102
RTVSPropertyOp32
 70
     1
  0
XRECORD
  5
E62
102
{ACAD_REACTORS
330
E61
102
}
330
E61
100
AcDbXrecord
280
     1
102
RTVSPropertyOp0
 70
     1
102
RTVSPropertyOp1
 70
     1
102
RTVSPropertyOp2
 70
     1
102
RTVSPropertyOp3
 70
     1
102
RTVSPropertyOp4
 70
     1
102
RTVSPropertyOp5
 70
     1
102
RTVSPropertyOp6
 70
     1
102
RTVSPropertyOp7
 70
     1
102
RTVSPropertyOp8
 70
     1
102
RTVSPropertyOp9
 70
     1
102
RTVSPropertyOp10
 70
     1
102
RTVSPropertyOp11
 70
     1
102
RTVSPropertyOp12
 70
     1
102
RTVSPropertyOp13
 70
     1
102
RTVSPropertyOp14
 70
     1
102
RTVSPropertyOp15
 70
     1
102
RTVSPropertyOp16
 70
     1
102
RTVSPropertyOp17
 70
     1
102
RTVSPropertyOp18
 70
     1
102
RTVSPropertyOp19
 70
     1
102
RTVSPropertyOp20
 70
     1
102
RTVSPropertyOp21
 70
     1
102
RTVSPropertyOp22
 70
     1
102
RTVSPropertyOp23
 70
     1
102
RTVSPropertyOp24
 70
     1
102
RTVSPropertyOp25
 70
     1
102
RTVSPropertyOp26
 70
     1
102
RTVSPropertyOp27
 70
     1
102
RTVSPropertyOp28
 70
     1
102
RTVSPropertyOp29
 70
     1
102
RTVSPropertyOp30
 70
     1
102
RTVSPropertyOp31
 70
     1
102
RTVSPropertyOp32
 70
     1
  0
XRECORD
  5
E60
102
{ACAD_REACTORS
330
E5F
102
}
330
E5F
100
AcDbXrecord
280
     1
102
RTVSPropertyOp0
 70
     1
102
RTVSPropertyOp1
 70
     1
102
RTVSPropertyOp2
 70
     1
102
RTVSPropertyOp3
 70
     1
102
RTVSPropertyOp4
 70
     1
102
RTVSPropertyOp5
 70
     1
102
RTVSPropertyOp6
 70
     1
102
RTVSPropertyOp7
 70
     1
102
RTVSPropertyOp8
 70
     1
102
RTVSPropertyOp9
 70
     1
102
RTVSPropertyOp10
 70
     1
102
RTVSPropertyOp11
 70
     1
102
RTVSPropertyOp12
 70
     1
102
RTVSPropertyOp13
 70
     1
102
RTVSPropertyOp14
 70
     1
102
RTVSPropertyOp15
 70
     1
102
RTVSPropertyOp16
 70
     1
102
RTVSPropertyOp17
 70
     1
102
RTVSPropertyOp18
 70
     1
102
RTVSPropertyOp19
 70
     1
102
RTVSPropertyOp20
 70
     1
102
RTVSPropertyOp21
 70
     1
102
RTVSPropertyOp22
 70
     1
102
RTVSPropertyOp23
 70
     1
102
RTVSPropertyOp24
 70
     1
102
RTVSPropertyOp25
 70
     1
102
RTVSPropertyOp26
 70
     1
102
RTVSPropertyOp27
 70
     1
102
RTVSPropertyOp28
 70
     1
102
RTVSPropertyOp29
 70
     1
102
RTVSPropertyOp30
 70
     1
102
RTVSPropertyOp31
 70
     1
102
RTVSPropertyOp32
 70
     1
  0
XRECORD
  5
E5A
102
{ACAD_REACTORS
330
E59
102
}
330
E59
100
AcDbXrecord
280
     1
102
RTVSPropertyOp0
 70
     1
102
RTVSPropertyOp1
 70
     1
102
RTVSPropertyOp2
 70
     1
102
RTVSPropertyOp3
 70
     1
102
RTVSPropertyOp4
 70
     1
102
RTVSPropertyOp5
 70
     1
102
RTVSPropertyOp6
 70
     1
102
RTVSPropertyOp7
 70
     1
102
RTVSPropertyOp8
 70
     1
102
RTVSPropertyOp9
 70
     1
102
RTVSPropertyOp10
 70
     1
102
RTVSPropertyOp11
 70
     1
102
RTVSPropertyOp12
 70
     1
102
RTVSPropertyOp13
 70
     1
102
RTVSPropertyOp14
 70
     1
102
RTVSPropertyOp15
 70
     1
102
RTVSPropertyOp16
 70
     1
102
RTVSPropertyOp17
 70
     1
102
RTVSPropertyOp18
 70
     1
102
RTVSPropertyOp19
 70
     1
102
RTVSPropertyOp20
 70
     1
102
RTVSPropertyOp21
 70
     1
102
RTVSPropertyOp22
 70
     1
102
RTVSPropertyOp23
 70
     1
102
RTVSPropertyOp24
 70
     1
102
RTVSPropertyOp25
 70
     1
102
RTVSPropertyOp26
 70
     1
102
RTVSPropertyOp27
 70
     1
102
RTVSPropertyOp28
 70
     1
102
RTVSPropertyOp29
 70
     1
102
RTVSPropertyOp30
 70
     1
102
RTVSPropertyOp31
 70
     1
102
RTVSPropertyOp32
 70
     1
  0
XRECORD
  5
E5C
102
{ACAD_REACTORS
330
E5B
102
}
330
E5B
100
AcDbXrecord
280
     1
102
RTVSPropertyOp0
 70
     1
102
RTVSPropertyOp1
 70
     1
102
RTVSPropertyOp2
 70
     1
102
RTVSPropertyOp3
 70
     1
102
RTVSPropertyOp4
 70
     1
102
RTVSPropertyOp5
 70
     1
102
RTVSPropertyOp6
 70
     1
102
RTVSPropertyOp7
 70
     1
102
RTVSPropertyOp8
 70
     1
102
RTVSPropertyOp9
 70
     1
102
RTVSPropertyOp10
 70
     1
102
RTVSPropertyOp11
 70
     1
102
RTVSPropertyOp12
 70
     1
102
RTVSPropertyOp13
 70
     1
102
RTVSPropertyOp14
 70
     1
102
RTVSPropertyOp15
 70
     1
102
RTVSPropertyOp16
 70
     1
102
RTVSPropertyOp17
 70
     1
102
RTVSPropertyOp18
 70
     1
102
RTVSPropertyOp19
 70
     1
102
RTVSPropertyOp20
 70
     1
102
RTVSPropertyOp21
 70
     1
102
RTVSPropertyOp22
 70
     1
102
RTVSPropertyOp23
 70
     1
102
RTVSPropertyOp24
 70
     1
102
RTVSPropertyOp25
 70
     1
102
RTVSPropertyOp26
 70
     1
102
RTVSPropertyOp27
 70
     1
102
RTVSPropertyOp28
 70
     1
102
RTVSPropertyOp29
 70
     1
102
RTVSPropertyOp30
 70
     1
102
RTVSPropertyOp31
 70
     1
102
RTVSPropertyOp32
 70
     1
  0
XRECORD
  5
E52
102
{ACAD_REACTORS
330
E51
102
}
330
E51
100
AcDbXrecord
280
     1
102
RTVSPropertyOp0
 70
     1
102
RTVSPropertyOp1
 70
     1
102
RTVSPropertyOp2
 70
     1
102
RTVSPropertyOp3
 70
     1
102
RTVSPropertyOp4
 70
     1
102
RTVSPropertyOp5
 70
     1
102
RTVSPropertyOp6
 70
     1
102
RTVSPropertyOp7
 70
     1
102
RTVSPropertyOp8
 70
     1
102
RTVSPropertyOp9
 70
     1
102
RTVSPropertyOp10
 70
     1
102
RTVSPropertyOp11
 70
     1
102
RTVSPropertyOp12
 70
     1
102
RTVSPropertyOp13
 70
     1
102
RTVSPropertyOp14
 70
     1
102
RTVSPropertyOp15
 70
     1
102
RTVSPropertyOp16
 70
     1
102
RTVSPropertyOp17
 70
     1
102
RTVSPropertyOp18
 70
     1
102
RTVSPropertyOp19
 70
     1
102
RTVSPropertyOp20
 70
     1
102
RTVSPropertyOp21
 70
     1
102
RTVSPropertyOp22
 70
     1
102
RTVSPropertyOp23
 70
     1
102
RTVSPropertyOp24
 70
     1
102
RTVSPropertyOp25
 70
     1
102
RTVSPropertyOp26
 70
     1
102
RTVSPropertyOp27
 70
     1
102
RTVSPropertyOp28
 70
     1
102
RTVSPropertyOp29
 70
     1
102
RTVSPropertyOp30
 70
     1
102
RTVSPropertyOp31
 70
     1
102
RTVSPropertyOp32
 70
     1
  0
XRECORD
  5
E46
102
{ACAD_REACTORS
330
E45
102
}
330
E45
100
AcDbXrecord
280
     1
102
RTVSPropertyOp0
 70
     1
102
RTVSPropertyOp1
 70
     1
102
RTVSPropertyOp2
 70
     1
102
RTVSPropertyOp3
 70
     1
102
RTVSPropertyOp4
 70
     1
102
RTVSPropertyOp5
 70
     1
102
RTVSPropertyOp6
 70
     1
102
RTVSPropertyOp7
 70
     1
102
RTVSPropertyOp8
 70
     1
102
RTVSPropertyOp9
 70
     1
102
RTVSPropertyOp10
 70
     1
102
RTVSPropertyOp11
 70
     1
102
RTVSPropertyOp12
 70
     1
102
RTVSPropertyOp13
 70
     1
102
RTVSPropertyOp14
 70
     1
102
RTVSPropertyOp15
 70
     1
102
RTVSPropertyOp16
 70
     1
102
RTVSPropertyOp17
 70
     1
102
RTVSPropertyOp18
 70
     1
102
RTVSPropertyOp19
 70
     1
102
RTVSPropertyOp20
 70
     1
102
RTVSPropertyOp21
 70
     1
102
RTVSPropertyOp22
 70
     1
102
RTVSPropertyOp23
 70
     1
102
RTVSPropertyOp24
 70
     1
102
RTVSPropertyOp25
 70
     1
102
RTVSPropertyOp26
 70
     1
102
RTVSPropertyOp27
 70
     1
102
RTVSPropertyOp28
 70
     1
102
RTVSPropertyOp29
 70
     1
102
RTVSPropertyOp30
 70
     1
102
RTVSPropertyOp31
 70
     1
102
RTVSPropertyOp32
 70
     1
  0
XRECORD
  5
E5E
102
{ACAD_REACTORS
330
E5D
102
}
330
E5D
100
AcDbXrecord
280
     1
102
RTVSPropertyOp0
 70
     1
102
RTVSPropertyOp1
 70
     1
102
RTVSPropertyOp2
 70
     1
102
RTVSPropertyOp3
 70
     1
102
RTVSPropertyOp4
 70
     1
102
RTVSPropertyOp5
 70
     1
102
RTVSPropertyOp6
 70
     1
102
RTVSPropertyOp7
 70
     1
102
RTVSPropertyOp8
 70
     1
102
RTVSPropertyOp9
 70
     1
102
RTVSPropertyOp10
 70
     1
102
RTVSPropertyOp11
 70
     1
102
RTVSPropertyOp12
 70
     1
102
RTVSPropertyOp13
 70
     1
102
RTVSPropertyOp14
 70
     1
102
RTVSPropertyOp15
 70
     1
102
RTVSPropertyOp16
 70
     1
102
RTVSPropertyOp17
 70
     1
102
RTVSPropertyOp18
 70
     1
102
RTVSPropertyOp19
 70
     1
102
RTVSPropertyOp20
 70
     1
102
RTVSPropertyOp21
 70
     1
102
RTVSPropertyOp22
 70
     1
102
RTVSPropertyOp23
 70
     1
102
RTVSPropertyOp24
 70
     1
102
RTVSPropertyOp25
 70
     1
102
RTVSPropertyOp26
 70
     1
102
RTVSPropertyOp27
 70
     1
102
RTVSPropertyOp28
 70
     1
102
RTVSPropertyOp29
 70
     1
102
RTVSPropertyOp30
 70
     1
102
RTVSPropertyOp31
 70
     1
102
RTVSPropertyOp32
 70
     1
  0
ENDSEC
  0
EOF
