  0
SECTION
  2
HEADER
  9
$ACADVER
  1
AC1015
  9
$ACADMAINTVER
 70
    20
  9
$DWGCODEPAGE
  3
ANSI_932
  9
$INSBASE
 10
0.0
 20
0.0
 30
0.0
  9
$EXTMIN
 10
-32.78207800000001
 20
-14.4155
 30
0.0
  9
$EXTMAX
 10
377.147
 20
262.5845
 30
0.0
  9
$LIMMIN
 10
-32.783078
 20
-14.4165
  9
$LIMMAX
 10
377.148003
 20
262.585503
  9
$ORTHOMODE
 70
     1
  9
$REGENMODE
 70
     1
  9
$FILLMODE
 70
     1
  9
$QTEXTMODE
 70
     0
  9
$MIRRTEXT
 70
     0
  9
$LTSCALE
 40
6.832150999999997
  9
$ATTMODE
 70
     1
  9
$TEXTSIZE
 40
3.2
  9
$TRACEWID
 40
0.05
  9
$TEXTSTYLE
  7
高3.2
  9
$CLAYER
  8
0
  9
$CELTYPE
  6
ByLayer
  9
$CECOLOR
 62
   256
  9
$CELTSCALE
 40
1.0
  9
$DISPSILH
 70
     0
  9
$DIMSCALE
 40
1.0
  9
$DIMASZ
 40
2.5
  9
$DIMEXO
 40
0.25
  9
$DIMDLI
 40
0.2
  9
$DIMRND
 40
0.0
  9
$DIMDLE
 40
0.0
  9
$DIMEXE
 40
1.25
  9
$DIMTP
 40
0.0
  9
$DIMTM
 40
0.0
  9
$DIMTXT
 40
3.0
  9
$DIMCEN
 40
0.0
  9
$DIMTSZ
 40
0.0
  9
$DIMTOL
 70
     0
  9
$DIMLIM
 70
     0
  9
$DIMTIH
 70
     0
  9
$DIMTOH
 70
     0
  9
$DIMSE1
 70
     0
  9
$DIMSE2
 70
     0
  9
$DIMTAD
 70
     3
  9
$DIMZIN
 70
     8
  9
$DIMBLK
  1
Open30
  9
$DIMASO
 70
     1
  9
$DIMSHO
 70
     1
  9
$DIMPOST
  1

  9
$DIMAPOST
  1

  9
$DIMALT
 70
     0
  9
$DIMALTD
 70
     3
  9
$DIMALTF
 40
0.03937007874016
  9
$DIMLFAC
 40
1.0
  9
$DIMTOFL
 70
     1
  9
$DIMTVP
 40
0.0
  9
$DIMTIX
 70
     0
  9
$DIMSOXD
 70
     0
  9
$DIMSAH
 70
     0
  9
$DIMBLK1
  1

  9
$DIMBLK2
  1

  9
$DIMSTYLE
  2
FREE
  9
$DIMCLRD
 70
     0
  9
$DIMCLRE
 70
     0
  9
$DIMCLRT
 70
     4
  9
$DIMTFAC
 40
1.0
  9
$DIMGAP
 40
0.625
  9
$DIMJUST
 70
     0
  9
$DIMSD1
 70
     0
  9
$DIMSD2
 70
     0
  9
$DIMTOLJ
 70
     0
  9
$DIMTZIN
 70
     8
  9
$DIMALTZ
 70
     0
  9
$DIMALTTZ
 70
     0
  9
$DIMUPT
 70
     1
  9
$DIMDEC
 70
     2
  9
$DIMTDEC
 70
     2
  9
$DIMALTU
 70
     2
  9
$DIMALTTD
 70
     3
  9
$DIMTXSTY
  7
STANDARD
  9
$DIMAUNIT
 70
     0
  9
$DIMADEC
 70
     1
  9
$DIMALTRND
 40
0.0
  9
$DIMAZIN
 70
     2
  9
$DIMDSEP
 70
    46
  9
$DIMATFIT
 70
     0
  9
$DIMFRAC
 70
     0
  9
$DIMLDRBLK
  1
Open30
  9
$DIMLUNIT
 70
     2
  9
$DIMLWD
 70
    -2
  9
$DIMLWE
 70
    -2
  9
$DIMTMOVE
 70
     0
  9
$LUNITS
 70
     2
  9
$LUPREC
 70
     4
  9
$SKETCHINC
 40
0.1
  9
$FILLETRAD
 40
0.0
  9
$AUNITS
 70
     0
  9
$AUPREC
 70
     0
  9
$MENU
  1
.
  9
$ELEVATION
 40
0.0
  9
$PELEVATION
 40
0.0
  9
$THICKNESS
 40
0.0
  9
$LIMCHECK
 70
     0
  9
$CHAMFERA
 40
0.0
  9
$CHAMFERB
 40
0.0
  9
$CHAMFERC
 40
0.0
  9
$CHAMFERD
 40
0.0
  9
$SKPOLY
 70
     0
  9
$TDCREATE
 40
2456311.423459062
  9
$TDUCREATE
 40
2456311.048459062
  9
$TDUPDATE
 40
2459893.544051517
  9
$TDUUPDATE
 40
2459893.169051516
  9
$TDINDWG
 40
0.1990760880
  9
$TDUSRTIMER
 40
0.1990679514
  9
$USRTIMER
 70
     1
  9
$ANGBASE
 50
0.0
  9
$ANGDIR
 70
     0
  9
$PDMODE
 70
     0
  9
$PDSIZE
 40
0.0
  9
$PLINEWID
 40
0.0
  9
$SPLFRAME
 70
     0
  9
$SPLINETYPE
 70
     6
  9
$SPLINESEGS
 70
     8
  9
$HANDSEED
  5
187C
  9
$SURFTAB1
 70
     6
  9
$SURFTAB2
 70
     6
  9
$SURFTYPE
 70
     6
  9
$SURFU
 70
     6
  9
$SURFV
 70
     6
  9
$UCSBASE
  2

  9
$UCSNAME
  2

  9
$UCSORG
 10
0.0
 20
0.0
 30
0.0
  9
$UCSXDIR
 10
1.0
 20
0.0
 30
0.0
  9
$UCSYDIR
 10
0.0
 20
1.0
 30
0.0
  9
$UCSORTHOREF
  2

  9
$UCSORTHOVIEW
 70
     0
  9
$UCSORGTOP
 10
0.0
 20
0.0
 30
0.0
  9
$UCSORGBOTTOM
 10
0.0
 20
0.0
 30
0.0
  9
$UCSORGLEFT
 10
0.0
 20
0.0
 30
0.0
  9
$UCSORGRIGHT
 10
0.0
 20
0.0
 30
0.0
  9
$UCSORGFRONT
 10
0.0
 20
0.0
 30
0.0
  9
$UCSORGBACK
 10
0.0
 20
0.0
 30
0.0
  9
$PUCSBASE
  2

  9
$PUCSNAME
  2

  9
$PUCSORG
 10
0.0
 20
0.0
 30
0.0
  9
$PUCSXDIR
 10
1.0
 20
0.0
 30
0.0
  9
$PUCSYDIR
 10
0.0
 20
1.0
 30
0.0
  9
$PUCSORTHOREF
  2

  9
$PUCSORTHOVIEW
 70
     0
  9
$PUCSORGTOP
 10
0.0
 20
0.0
 30
0.0
  9
$PUCSORGBOTTOM
 10
0.0
 20
0.0
 30
0.0
  9
$PUCSORGLEFT
 10
0.0
 20
0.0
 30
0.0
  9
$PUCSORGRIGHT
 10
0.0
 20
0.0
 30
0.0
  9
$PUCSORGFRONT
 10
0.0
 20
0.0
 30
0.0
  9
$PUCSORGBACK
 10
0.0
 20
0.0
 30
0.0
  9
$USERI1
 70
     0
  9
$USERI2
 70
     0
  9
$USERI3
 70
     0
  9
$USERI4
 70
     0
  9
$USERI5
 70
     0
  9
$USERR1
 40
0.0
  9
$USERR2
 40
0.0
  9
$USERR3
 40
0.0
  9
$USERR4
 40
0.0
  9
$USERR5
 40
0.0
  9
$WORLDVIEW
 70
     1
  9
$SHADEDGE
 70
     3
  9
$SHADEDIF
 70
    70
  9
$TILEMODE
 70
     1
  9
$MAXACTVP
 70
    64
  9
$PINSBASE
 10
0.0
 20
0.0
 30
0.0
  9
$PLIMCHECK
 70
     0
  9
$PEXTMIN
 10
1.000000000000000E+20
 20
1.000000000000000E+20
 30
1.000000000000000E+20
  9
$PEXTMAX
 10
-1.000000000000000E+20
 20
-1.000000000000000E+20
 30
-1.000000000000000E+20
  9
$PLIMMIN
 10
0.0
 20
0.0
  9
$PLIMMAX
 10
12.0
 20
9.0
  9
$UNITMODE
 70
     0
  9
$VISRETAIN
 70
     1
  9
$PLINEGEN
 70
     0
  9
$PSLTSCALE
 70
     1
  9
$TREEDEPTH
 70
  3020
  9
$CMLSTYLE
  2
Standard
  9
$CMLJUST
 70
     0
  9
$CMLSCALE
 40
1.0
  9
$PROXYGRAPHICS
 70
     1
  9
$MEASUREMENT
 70
     0
  9
$CELWEIGHT
370
    -1
  9
$ENDCAPS
280
     0
  9
$JOINSTYLE
280
     0
  9
$LWDISPLAY
290
     0
  9
$INSUNITS
 70
     0
  9
$HYPERLINKBASE
  1

  9
$STYLESHEET
  1

  9
$XEDIT
290
     1
  9
$CEPSNTYPE
380
     0
  9
$PSTYLEMODE
290
     1
  9
$FINGERPRINTGUID
  2
{4573C980-3CF6-42DE-95BD-D8FB6557C1C8}
  9
$VERSIONGUID
  2
{B8B14C94-EAC8-42F9-9322-8FAECEC3982C}
  9
$EXTNAMES
290
     1
  9
$PSVPSCALE
 40
0.0
  9
$OLESTARTUP
290
     0
  0
ENDSEC
  0
SECTION
  2
CLASSES
  0
CLASS
  1
ACDBDICTIONARYWDFLT
  2
AcDbDictionaryWithDefault
  3
ObjectDBX Classes
 90
        0
280
     0
281
     0
  0
CLASS
  1
MATERIAL
  2
AcDbMaterial
  3
ObjectDBX Classes
 90
     1153
280
     0
281
     0
  0
CLASS
  1
VISUALSTYLE
  2
AcDbVisualStyle
  3
ObjectDBX Classes
 90
     4095
280
     0
281
     0
  0
CLASS
  1
SCALE
  2
AcDbScale
  3
ObjectDBX Classes
 90
     1153
280
     0
281
     0
  0
CLASS
  1
TABLESTYLE
  2
AcDbTableStyle
  3
ObjectDBX Classes
 90
     4095
280
     0
281
     0
  0
CLASS
  1
MLEADERSTYLE
  2
AcDbMLeaderStyle
  3
ACDB_MLEADERSTYLE_CLASS
 90
     4095
280
     0
281
     0
  0
CLASS
  1
SORTENTSTABLE
  2
AcDbSortentsTable
  3
ObjectDBX Classes
 90
        0
280
     0
281
     0
  0
CLASS
  1
DICTIONARYVAR
  2
AcDbDictionaryVar
  3
ObjectDBX Classes
 90
        0
280
     0
281
     0
  0
CLASS
  1
CELLSTYLEMAP
  2
AcDbCellStyleMap
  3
ObjectDBX Classes
 90
     1152
280
     0
281
     0
  0
CLASS
  1
ACDBPLACEHOLDER
  2
AcDbPlaceHolder
  3
ObjectDBX Classes
 90
        0
280
     0
281
     0
  0
CLASS
  1
LAYOUT
  2
AcDbLayout
  3
ObjectDBX Classes
 90
        0
280
     0
281
     0
  0
ENDSEC
  0
SECTION
  2
TABLES
  0
TABLE
  2
VPORT
  5
8
330
0
100
AcDbSymbolTable
 70
     1
  0
VPORT
  5
8B
330
8
100
AcDbSymbolTableRecord
100
AcDbViewportTableRecord
  2
*Active
 70
     0
 10
0.0
 20
0.0
 11
1.0
 21
1.0
 12
196.7306104329936
 22
127.6008022126073
 13
0.0
 23
0.0
 14
1.0
 24
1.0
 15
0.0
 25
0.0
 16
0.0
 26
0.0
 36
1.0
 17
0.0
 27
0.0
 37
0.0
 40
504.5158933725433
 41
1.311572700296735
 42
50.0
 43
0.0
 44
0.0
 50
0.0
 51
0.0
 71
     0
 72
   100
 73
     1
 74
     1
 75
     0
 76
     0
 77
     0
 78
     0
281
     0
 65
     1
110
0.0
120
0.0
130
0.0
111
1.0
121
0.0
131
0.0
112
0.0
122
1.0
132
0.0
 79
     0
146
0.0
  0
ENDTAB
  0
TABLE
  2
LTYPE
  5
5
330
0
100
AcDbSymbolTable
 70
     2
  0
LTYPE
  5
5A
330
5
100
AcDbSymbolTableRecord
100
AcDbLinetypeTableRecord
  2
ByBlock
 70
     0
  3

 72
    65
 73
     0
 40
0.0
  0
LTYPE
  5
5B
330
5
100
AcDbSymbolTableRecord
100
AcDbLinetypeTableRecord
  2
ByLayer
 70
     0
  3

 72
    65
 73
     0
 40
0.0
  0
LTYPE
  5
5C
330
5
100
AcDbSymbolTableRecord
100
AcDbLinetypeTableRecord
  2
CONTINUOUS
 70
     0
  3
Solid-line
 72
    65
 73
     0
 40
0.0
  0
ENDTAB
  0
TABLE
  2
LAYER
  5
2
102
{ACAD_XDICTIONARY
360
5D4
102
}
330
0
100
AcDbSymbolTable
 70
     2
  0
LAYER
  5
54
102
{ACAD_XDICTIONARY
360
7A0
102
}
330
2
100
AcDbSymbolTableRecord
100
AcDbLayerTableRecord
  2
0
 70
     0
 62
     7
  6
CONTINUOUS
370
    -3
390
F
  0
LAYER
  5
5BF
330
2
100
AcDbSymbolTableRecord
100
AcDbLayerTableRecord
  2
Defpoints
 70
     0
 62
     7
  6
CONTINUOUS
290
     0
370
    -3
390
F
  0
ENDTAB
  0
TABLE
  2
STYLE
  5
3
330
0
100
AcDbSymbolTable
 70
     6
  0
STYLE
  5
55
330
3
100
AcDbSymbolTableRecord
100
AcDbTextStyleTableRecord
  2
STANDARD
 70
     0
 40
0.0
 41
1.0
 50
0.0
 71
     0
 42
0.2
  3
TXT
  4
BIGFONT
  0
STYLE
  5
5C0
330
3
100
AcDbSymbolTableRecord
100
AcDbTextStyleTableRecord
  2
高3.2
 70
     0
 40
3.2
 41
1.0
 50
0.0
 71
     0
 42
3.2
  3
txt.shx
  4
bigfont.shx
  0
STYLE
  5
5C1
330
3
100
AcDbSymbolTableRecord
100
AcDbTextStyleTableRecord
  2
高6.3
 70
     0
 40
6.299999999999998
 41
1.0
 50
0.0
 71
     0
 42
6.299999999999998
  3
txt.shx
  4
bigfont.shx
  0
STYLE
  5
5C3
330
3
100
AcDbSymbolTableRecord
100
AcDbTextStyleTableRecord
  2
高4.5
 70
     0
 40
4.5
 41
1.0
 50
0.0
 71
     0
 42
6.299999999999998
  3
txt.shx
  4
bigfont.shx
  0
STYLE
  5
5C4
330
3
100
AcDbSymbolTableRecord
100
AcDbTextStyleTableRecord
  2
高2
 70
     0
 40
2.0
 41
1.0
 50
0.0
 71
     0
 42
2.0
  3
txt.shx
  4
bigfont.shx
  0
STYLE
  5
1419
330
3
100
AcDbSymbolTableRecord
100
AcDbTextStyleTableRecord
  2
高2.5
 70
     0
 40
2.5
 41
1.0
 50
0.0
 71
     0
 42
0.2
  3
txt.shx
  4
bigfont.shx
  0
ENDTAB
  0
TABLE
  2
VIEW
  5
6
330
0
100
AcDbSymbolTable
 70
     0
  0
ENDTAB
  0
TABLE
  2
UCS
  5
7
330
0
100
AcDbSymbolTable
 70
     0
  0
ENDTAB
  0
TABLE
  2
APPID
  5
9
330
0
100
AcDbSymbolTable
 70
    11
  0
APPID
  5
56
330
9
100
AcDbSymbolTableRecord
100
AcDbRegAppTableRecord
  2
ACAD
 70
     0
  0
APPID
  5
5D
330
9
100
AcDbSymbolTableRecord
100
AcDbRegAppTableRecord
  2
AcadAnnotative
 70
     0
  0
APPID
  5
5CF
330
9
100
AcDbSymbolTableRecord
100
AcDbRegAppTableRecord
  2
ACAD_DSTYLE_DIMJOGGED_JOGANGLE_SYMBOL
 70
     0
  0
APPID
  5
5D0
330
9
100
AcDbSymbolTableRecord
100
AcDbRegAppTableRecord
  2
ACAD_DSTYLE_DIMJAG
 70
     0
  0
APPID
  5
5D1
330
9
100
AcDbSymbolTableRecord
100
AcDbRegAppTableRecord
  2
ACAD_DSTYLE_DIMBREAK
 70
     0
  0
APPID
  5
5D2
330
9
100
AcDbSymbolTableRecord
100
AcDbRegAppTableRecord
  2
ACAD_DSTYLE_DIMTALN
 70
     0
  0
APPID
  5
733
330
9
100
AcDbSymbolTableRecord
100
AcDbRegAppTableRecord
  2
ACAD_EXEMPT_FROM_CAD_STANDARDS
 70
     0
  0
APPID
  5
7E6
330
9
100
AcDbSymbolTableRecord
100
AcDbRegAppTableRecord
  2
ACAD_MLEADERVER
 70
     0
  0
APPID
  5
7EB
330
9
100
AcDbSymbolTableRecord
100
AcDbRegAppTableRecord
  2
ACAD_DSTYLE_DIMARC_LENGTH_SYMBOL
 70
     0
  0
APPID
  5
7EC
330
9
100
AcDbSymbolTableRecord
100
AcDbRegAppTableRecord
  2
ACAD_DSTYLE_DIMEXT_LENGTH
 70
     0
  0
APPID
  5
106E
330
9
100
AcDbSymbolTableRecord
100
AcDbRegAppTableRecord
  2
ACAD_PSEXT
 70
     0
  0
ENDTAB
  0
TABLE
  2
DIMSTYLE
  5
A
330
0
100
AcDbSymbolTable
 70
    12
100
AcDbDimStyleTable
 71
     2
340
5CE
340
5CD
  0
DIMSTYLE
105
57
330
A
100
AcDbSymbolTableRecord
100
AcDbDimStyleTableRecord
  2
Standard
 70
     0
340
55
  0
DIMSTYLE
105
5CD
330
A
100
AcDbSymbolTableRecord
100
AcDbDimStyleTableRecord
  2
1／3
 70
     0
 41
2.5
 42
0.25
 43
0.2
 44
1.25
 73
     0
 74
     0
 77
     3
 78
     8
 79
     2
140
3.0
141
0.0
143
0.03937007874016
144
3.0
147
0.625
171
     3
172
     1
178
     4
179
     1
271
     2
272
     2
274
     3
283
     0
284
     8
288
     1
289
     0
340
55
341
52F
342
52F
1001
ACAD_DSTYLE_DIMARC_LENGTH_SYMBOL
1070
   379
1070
     2
1001
ACAD_DSTYLE_DIMEXT_LENGTH
1070
   378
1040
1.25
1001
ACAD_DSTYLE_DIMJOGGED_JOGANGLE_SYMBOL
1070
   384
1040
1.570796326794896
  0
DIMSTYLE
105
5CE
330
A
100
AcDbSymbolTableRecord
100
AcDbDimStyleTableRecord
  2
FREE
 70
     0
 41
2.5
 42
0.25
 43
0.2
 44
1.25
 73
     0
 74
     0
 77
     3
 78
     8
 79
     2
140
3.0
141
0.0
143
0.03937007874016
147
0.625
171
     3
172
     1
178
     4
179
     1
271
     2
272
     2
274
     3
283
     0
284
     8
288
     1
289
     0
340
55
341
52F
342
52F
1001
ACAD_DSTYLE_DIMBREAK
1070
   391
1040
3.75
1001
ACAD_DSTYLE_DIMJAG
1070
   388
1040
1.5
1001
ACAD_DSTYLE_DIMTALN
1070
   392
1070
     0
1001
ACAD_DSTYLE_DIMARC_LENGTH_SYMBOL
1070
   379
1070
     2
1001
ACAD_DSTYLE_DIMEXT_LENGTH
1070
   378
1040
1.25
1001
ACAD_DSTYLE_DIMJOGGED_JOGANGLE_SYMBOL
1070
   384
1040
1.570796326794896
  0
DIMSTYLE
105
141A
330
A
100
AcDbSymbolTableRecord
100
AcDbDimStyleTableRecord
  2
1：1
 70
     0
 41
2.5
 42
0.25
 43
0.2
 44
1.25
 73
     0
 74
     0
 77
     3
 78
     8
 79
     2
140
3.0
141
0.0
143
0.03937007874016
147
0.625
171
     3
172
     1
178
     4
179
     1
271
     2
272
     2
274
     3
283
     0
284
     8
288
     1
289
     0
340
55
341
52F
342
52F
1001
ACAD_DSTYLE_DIMARC_LENGTH_SYMBOL
1070
   379
1070
     2
1001
ACAD_DSTYLE_DIMEXT_LENGTH
1070
   378
1040
1.25
1001
ACAD_DSTYLE_DIMJOGGED_JOGANGLE_SYMBOL
1070
   384
1040
1.570796326794896
  0
DIMSTYLE
105
141B
330
A
100
AcDbSymbolTableRecord
100
AcDbDimStyleTableRecord
  2
2：1
 70
     0
 41
2.5
 42
0.25
 43
0.2
 44
1.25
 73
     0
 74
     0
 77
     3
 78
     8
 79
     2
140
3.0
141
0.0
143
0.03937007874016
144
0.5
147
0.625
171
     3
172
     1
178
     4
179
     1
271
     2
272
     2
274
     3
283
     0
284
     8
288
     1
289
     0
340
55
341
52F
342
52F
1001
ACAD_DSTYLE_DIMARC_LENGTH_SYMBOL
1070
   379
1070
     2
1001
ACAD_DSTYLE_DIMEXT_LENGTH
1070
   378
1040
1.25
1001
ACAD_DSTYLE_DIMJOGGED_JOGANGLE_SYMBOL
1070
   384
1040
1.570796326794896
  0
DIMSTYLE
105
141C
330
A
100
AcDbSymbolTableRecord
100
AcDbDimStyleTableRecord
  2
5：1
 70
     0
 41
2.5
 42
0.25
 43
0.2
 44
1.25
 73
     0
 74
     0
 77
     3
 78
     8
 79
     2
140
3.0
141
0.0
143
0.03937007874016
144
0.2
147
0.625
171
     3
172
     1
178
     4
179
     1
271
     2
272
     2
274
     3
283
     0
284
     8
288
     1
289
     0
340
55
341
52F
342
52F
1001
ACAD_DSTYLE_DIMARC_LENGTH_SYMBOL
1070
   379
1070
     2
1001
ACAD_DSTYLE_DIMEXT_LENGTH
1070
   378
1040
1.25
1001
ACAD_DSTYLE_DIMJOGGED_JOGANGLE_SYMBOL
1070
   384
1040
1.570796326794896
  0
DIMSTYLE
105
141D
330
A
100
AcDbSymbolTableRecord
100
AcDbDimStyleTableRecord
  2
10：1
 70
     0
 41
2.5
 42
0.25
 43
0.2
 44
1.25
 73
     0
 74
     0
 77
     3
 78
     8
 79
     2
140
3.0
141
0.0
143
0.03937007874016
144
0.1
147
0.625
171
     3
172
     1
178
     4
179
     1
271
     2
272
     2
274
     3
283
     0
284
     8
288
     1
289
     0
340
55
341
52F
342
52F
1001
ACAD_DSTYLE_DIMARC_LENGTH_SYMBOL
1070
   379
1070
     2
1001
ACAD_DSTYLE_DIMEXT_LENGTH
1070
   378
1040
1.25
1001
ACAD_DSTYLE_DIMJOGGED_JOGANGLE_SYMBOL
1070
   384
1040
1.570796326794896
  0
DIMSTYLE
105
141E
330
A
100
AcDbSymbolTableRecord
100
AcDbDimStyleTableRecord
  2
1／2
 70
     0
 41
2.5
 42
0.25
 43
0.2
 44
1.25
 73
     0
 74
     0
 77
     3
 78
     8
 79
     2
140
3.0
141
0.0
143
0.03937007874016
144
2.0
147
0.625
171
     3
172
     1
178
     4
179
     1
271
     2
272
     2
274
     3
283
     0
284
     8
288
     1
289
     0
340
55
341
52F
342
52F
1001
ACAD_DSTYLE_DIMARC_LENGTH_SYMBOL
1070
   379
1070
     2
1001
ACAD_DSTYLE_DIMEXT_LENGTH
1070
   378
1040
1.25
1001
ACAD_DSTYLE_DIMJOGGED_JOGANGLE_SYMBOL
1070
   384
1040
1.570796326794896
  0
DIMSTYLE
105
141F
330
A
100
AcDbSymbolTableRecord
100
AcDbDimStyleTableRecord
  2
1／5
 70
     0
 41
2.5
 42
0.25
 43
0.2
 44
1.25
 73
     0
 74
     0
 77
     3
 78
     8
 79
     2
140
3.0
141
0.0
143
0.03937007874016
144
5.0
147
0.625
171
     3
172
     1
178
     4
179
     1
271
     2
272
     2
274
     3
283
     0
284
     8
288
     1
289
     0
340
55
341
52F
342
52F
1001
ACAD_DSTYLE_DIMARC_LENGTH_SYMBOL
1070
   379
1070
     2
1001
ACAD_DSTYLE_DIMEXT_LENGTH
1070
   378
1040
1.25
1001
ACAD_DSTYLE_DIMJOGGED_JOGANGLE_SYMBOL
1070
   384
1040
1.570796326794896
  0
DIMSTYLE
105
1420
330
A
100
AcDbSymbolTableRecord
100
AcDbDimStyleTableRecord
  2
1／10
 70
     0
 41
2.5
 42
0.25
 43
0.2
 44
1.25
 73
     0
 74
     0
 77
     3
 78
     8
 79
     2
140
3.0
141
0.0
143
0.03937007874016
144
10.0
147
0.625
171
     3
172
     1
178
     4
179
     1
271
     2
272
     2
274
     3
283
     0
284
     8
288
     1
289
     0
340
55
341
52F
342
52F
1001
ACAD_DSTYLE_DIMARC_LENGTH_SYMBOL
1070
   379
1070
     2
1001
ACAD_DSTYLE_DIMEXT_LENGTH
1070
   378
1040
1.25
1001
ACAD_DSTYLE_DIMJOGGED_JOGANGLE_SYMBOL
1070
   384
1040
1.570796326794896
  0
DIMSTYLE
105
1421
330
A
100
AcDbSymbolTableRecord
100
AcDbDimStyleTableRecord
  2
1／4
 70
     0
 41
2.5
 42
0.25
 43
0.2
 44
1.25
 73
     0
 74
     0
 77
     3
 78
     8
 79
     2
140
3.0
141
0.0
143
0.03937007874016
144
4.0
147
0.625
171
     3
172
     1
178
     4
179
     1
271
     2
272
     2
274
     3
283
     0
284
     8
288
     1
289
     0
340
55
341
52F
342
52F
1001
ACAD_DSTYLE_DIMARC_LENGTH_SYMBOL
1070
   379
1070
     2
1001
ACAD_DSTYLE_DIMEXT_LENGTH
1070
   378
1040
1.25
1001
ACAD_DSTYLE_DIMJOGGED_JOGANGLE_SYMBOL
1070
   384
1040
1.570796326794896
  0
ENDTAB
  0
TABLE
  2
BLOCK_RECORD
  5
1
330
0
100
AcDbSymbolTable
 70
    28
  0
BLOCK_RECORD
  5
6B
102
{ACAD_XDICTIONARY
360
E46
102
}
330
1
100
AcDbSymbolTableRecord
100
AcDbBlockTableRecord
  2
*Model_Space
340
6E
  0
BLOCK_RECORD
  5
67
330
1
100
AcDbSymbolTableRecord
100
AcDbBlockTableRecord
  2
*Paper_Space
340
6A
  0
BLOCK_RECORD
  5
52F
330
1
100
AcDbSymbolTableRecord
100
AcDbBlockTableRecord
  2
_Open30
340
0
102
{BLKREFS
331
1396
331
1397
331
13A4
331
13A5
331
13B2
331
13B3
331
13C0
331
13C1
331
13CE
331
13CF
331
13DC
331
13DD
331
13EA
331
13EB
331
13F8
331
13F9
331
1406
331
1407
331
1412
331
1413
331
14CD
331
14CE
331
14D8
331
14D9
331
14E3
331
14E4
331
14EE
331
14EF
331
14F9
331
14FA
331
1504
331
1505
331
150F
331
1510
331
151A
331
151B
331
1525
331
1526
331
152E
331
152F
331
1699
331
169A
331
16A4
331
16A5
331
16AD
331
16AE
331
16B6
331
16B7
331
16D4
331
16D5
102
}
  0
BLOCK_RECORD
  5
D9E
330
1
100
AcDbSymbolTableRecord
100
AcDbBlockTableRecord
  2
*D1
340
0
  0
BLOCK_RECORD
  5
DAB
330
1
100
AcDbSymbolTableRecord
100
AcDbBlockTableRecord
  2
*D2
340
0
  0
BLOCK_RECORD
  5
DD0
330
1
100
AcDbSymbolTableRecord
100
AcDbBlockTableRecord
  2
*D3
340
0
  0
BLOCK_RECORD
  5
DDF
330
1
100
AcDbSymbolTableRecord
100
AcDbBlockTableRecord
  2
*D4
340
0
  0
BLOCK_RECORD
  5
DFF
330
1
100
AcDbSymbolTableRecord
100
AcDbBlockTableRecord
  2
*D5
340
0
  0
BLOCK_RECORD
  5
F21
330
1
100
AcDbSymbolTableRecord
100
AcDbBlockTableRecord
  2
_DotSmall
340
0
  0
BLOCK_RECORD
  5
138F
330
1
100
AcDbSymbolTableRecord
100
AcDbBlockTableRecord
  2
*D7
340
0
  0
BLOCK_RECORD
  5
139D
330
1
100
AcDbSymbolTableRecord
100
AcDbBlockTableRecord
  2
*D8
340
0
  0
BLOCK_RECORD
  5
13AB
330
1
100
AcDbSymbolTableRecord
100
AcDbBlockTableRecord
  2
*D9
340
0
  0
BLOCK_RECORD
  5
13B9
330
1
100
AcDbSymbolTableRecord
100
AcDbBlockTableRecord
  2
*D10
340
0
  0
BLOCK_RECORD
  5
13C7
330
1
100
AcDbSymbolTableRecord
100
AcDbBlockTableRecord
  2
*D11
340
0
  0
BLOCK_RECORD
  5
13D5
330
1
100
AcDbSymbolTableRecord
100
AcDbBlockTableRecord
  2
*D12
340
0
  0
BLOCK_RECORD
  5
13E3
330
1
100
AcDbSymbolTableRecord
100
AcDbBlockTableRecord
  2
*D13
340
0
  0
BLOCK_RECORD
  5
13F1
330
1
100
AcDbSymbolTableRecord
100
AcDbBlockTableRecord
  2
*D14
340
0
  0
BLOCK_RECORD
  5
13FF
330
1
100
AcDbSymbolTableRecord
100
AcDbBlockTableRecord
  2
*D15
340
0
  0
BLOCK_RECORD
  5
140D
330
1
100
AcDbSymbolTableRecord
100
AcDbBlockTableRecord
  2
*D16
340
0
  0
BLOCK_RECORD
  5
143E
330
1
100
AcDbSymbolTableRecord
100
AcDbBlockTableRecord
  2
*D17
340
0
  0
BLOCK_RECORD
  5
144C
330
1
100
AcDbSymbolTableRecord
100
AcDbBlockTableRecord
  2
*D18
340
0
  0
BLOCK_RECORD
  5
145A
330
1
100
AcDbSymbolTableRecord
100
AcDbBlockTableRecord
  2
*D19
340
0
  0
BLOCK_RECORD
  5
1468
330
1
100
AcDbSymbolTableRecord
100
AcDbBlockTableRecord
  2
*D20
340
0
  0
BLOCK_RECORD
  5
1476
330
1
100
AcDbSymbolTableRecord
100
AcDbBlockTableRecord
  2
*D21
340
0
  0
BLOCK_RECORD
  5
1484
330
1
100
AcDbSymbolTableRecord
100
AcDbBlockTableRecord
  2
*D22
340
0
  0
BLOCK_RECORD
  5
1492
330
1
100
AcDbSymbolTableRecord
100
AcDbBlockTableRecord
  2
*D23
340
0
  0
BLOCK_RECORD
  5
14A0
330
1
100
AcDbSymbolTableRecord
100
AcDbBlockTableRecord
  2
*D24
340
0
  0
BLOCK_RECORD
  5
14AE
330
1
100
AcDbSymbolTableRecord
100
AcDbBlockTableRecord
  2
*D25
340
0
  0
BLOCK_RECORD
  5
14BC
330
1
100
AcDbSymbolTableRecord
100
AcDbBlockTableRecord
  2
*D26
340
0
  0
ENDTAB
  0
ENDSEC
  0
SECTION
  2
BLOCKS
  0
BLOCK
  5
6C
330
6B
100
AcDbEntity
  8
0
100
AcDbBlockBegin
  2
*Model_Space
 70
     0
 10
0.0
 20
0.0
 30
0.0
  3
*Model_Space
  1

  0
ENDBLK
  5
6D
330
6B
100
AcDbEntity
  8
0
100
AcDbBlockEnd
  0
BLOCK
  5
68
330
67
100
AcDbEntity
 67
     1
  8
0
100
AcDbBlockBegin
  2
*Paper_Space
 70
     0
 10
0.0
 20
0.0
 30
0.0
  3
*Paper_Space
  1

  0
ENDBLK
  5
69
330
67
100
AcDbEntity
 67
     1
  8
0
100
AcDbBlockEnd
  0
BLOCK
  5
530
330
52F
100
AcDbEntity
  8
0
100
AcDbBlockBegin
  2
_Open30
 70
     0
 10
0.0
 20
0.0
 30
0.0
  3
_Open30
  1

  0
LINE
  5
531
330
52F
100
AcDbEntity
  8
0
  6
ByBlock
 62
     0
370
    -2
100
AcDbLine
 10
-1.0
 20
0.267949
 30
0.0
 11
0.0
 21
0.0
 31
0.0
  0
LINE
  5
532
330
52F
100
AcDbEntity
  8
0
  6
ByBlock
 62
     0
370
    -2
100
AcDbLine
 10
0.0
 20
0.0
 30
0.0
 11
-1.0
 21
-0.267949
 31
0.0
  0
LINE
  5
533
330
52F
100
AcDbEntity
  8
0
  6
ByBlock
 62
     0
370
    -2
100
AcDbLine
 10
0.0
 20
0.0
 30
0.0
 11
-1.0
 21
0.0
 31
0.0
  0
ENDBLK
  5
534
330
52F
100
AcDbEntity
  8
0
100
AcDbBlockEnd
  0
BLOCK
  5
D9F
330
D9E
100
AcDbEntity
  8
0
100
AcDbBlockBegin
  2
*D1
 70
     1
 10
0.0
 20
0.0
 30
0.0
  3
*D1
  1

  0
LINE
  5
16D1
330
D9E
100
AcDbEntity
  8
0
 62
     0
370
    -2
100
AcDbLine
 10
22.11756846593571
 20
171.1221394770847
 30
0.0
 11
22.1175684659357
 21
132.9366822140991
 31
0.0
  0
LINE
  5
16D2
330
D9E
100
AcDbEntity
  8
0
 62
     0
370
    -2
100
AcDbLine
 10
108.7842351326024
 20
171.1221394770848
 30
0.0
 11
108.7842351326024
 21
132.9366822140991
 31
0.0
  0
LINE
  5
16D3
330
D9E
100
AcDbEntity
  8
0
 62
     0
370
    -2
100
AcDbLine
 10
24.6175684659357
 20
134.1866822140991
 30
0.0
 11
106.2842351326023
 21
134.1866822140991
 31
0.0
  0
INSERT
  5
16D4
330
D9E
100
AcDbEntity
  8
0
 62
     0
370
    -2
100
AcDbBlockReference
  2
_Open30
 10
22.1175684659357
 20
134.1866822140991
 30
0.0
 41
2.5
 42
2.5
 43
2.5
 50
180.0
  0
INSERT
  5
16D5
330
D9E
100
AcDbEntity
  8
0
 62
     0
370
    -2
100
AcDbBlockReference
  2
_Open30
 10
108.7842351326024
 20
134.1866822140991
 30
0.0
 41
2.5
 42
2.5
 43
2.5
  0
MTEXT
  5
16D6
330
D9E
100
AcDbEntity
  8
0
 62
     4
100
AcDbMText
 10
67.00521810664941
 20
136.3116822140991
 30
0.0
 40
3.0
 41
0.0
 71
     5
 72
     1
  1
260
 73
     1
 44
1.0
1001
ACAD
1000
MTEXTBEGIN
1070
    73
1070
     1
1070
    44
1040
1.0
1070
    74
1070
     0
1000
MTEXTEND
  0
POINT
  5
16D7
330
D9E
100
AcDbEntity
  8
Defpoints
 62
     0
100
AcDbPoint
 10
22.11756846593571
 20
171.3721394770848
 30
0.0
  0
POINT
  5
16D8
330
D9E
100
AcDbEntity
  8
Defpoints
 62
     0
100
AcDbPoint
 10
108.7842351326024
 20
171.3721394770848
 30
0.0
  0
POINT
  5
16D9
330
D9E
100
AcDbEntity
  8
Defpoints
 62
     0
100
AcDbPoint
 10
108.7842351326024
 20
134.1866822140991
 30
0.0
  0
ENDBLK
  5
DA0
330
D9E
100
AcDbEntity
  8
0
100
AcDbBlockEnd
  0
BLOCK
  5
DAC
330
DAB
100
AcDbEntity
  8
0
100
AcDbBlockBegin
  2
*D2
 70
     1
 10
0.0
 20
0.0
 30
0.0
  3
*D2
  1

  0
LINE
  5
1696
330
DAB
100
AcDbEntity
  8
0
 62
     0
370
    -2
100
AcDbLine
 10
132.4614883218853
 20
166.4554728104181
 30
0.0
 11
132.4614883218853
 21
132.9366822140991
 31
0.0
  0
LINE
  5
1697
330
DAB
100
AcDbEntity
  8
0
 62
     0
370
    -2
100
AcDbLine
 10
217.4614883218853
 20
166.4554728104181
 30
0.0
 11
217.4614883218853
 21
132.9366822140991
 31
0.0
  0
LINE
  5
1698
330
DAB
100
AcDbEntity
  8
0
 62
     0
370
    -2
100
AcDbLine
 10
134.9614883218853
 20
134.1866822140991
 30
0.0
 11
214.9614883218853
 21
134.1866822140991
 31
0.0
  0
INSERT
  5
1699
330
DAB
100
AcDbEntity
  8
0
 62
     0
370
    -2
100
AcDbBlockReference
  2
_Open30
 10
132.4614883218853
 20
134.1866822140991
 30
0.0
 41
2.5
 42
2.5
 43
2.5
 50
180.0
  0
INSERT
  5
169A
330
DAB
100
AcDbEntity
  8
0
 62
     0
370
    -2
100
AcDbBlockReference
  2
_Open30
 10
217.4614883218853
 20
134.1866822140991
 30
0.0
 41
2.5
 42
2.5
 43
2.5
  0
MTEXT
  5
169B
330
DAB
100
AcDbEntity
  8
0
 62
     4
100
AcDbMText
 10
178.91719039089
 20
136.3116822140991
 30
0.0
 40
3.0
 41
0.0
 71
     5
 72
     1
  1
255
 73
     1
 44
1.0
1001
ACAD
1000
MTEXTBEGIN
1070
    73
1070
     1
1070
    44
1040
1.0
1070
    74
1070
     0
1000
MTEXTEND
  0
POINT
  5
169C
330
DAB
100
AcDbEntity
  8
Defpoints
 62
     0
100
AcDbPoint
 10
132.4614883218853
 20
166.7054728104181
 30
0.0
  0
POINT
  5
169D
330
DAB
100
AcDbEntity
  8
Defpoints
 62
     0
100
AcDbPoint
 10
217.4614883218853
 20
166.7054728104181
 30
0.0
  0
POINT
  5
169E
330
DAB
100
AcDbEntity
  8
Defpoints
 62
     0
100
AcDbPoint
 10
217.4614883218853
 20
134.1866822140991
 30
0.0
  0
ENDBLK
  5
DAD
330
DAB
100
AcDbEntity
  8
0
100
AcDbBlockEnd
  0
BLOCK
  5
DD1
330
DD0
100
AcDbEntity
  8
0
100
AcDbBlockBegin
  2
*D3
 70
     1
 10
0.0
 20
0.0
 30
0.0
  3
*D3
  1

  0
LINE
  5
169F
330
DD0
100
AcDbEntity
  8
0
 62
     0
370
    -2
100
AcDbLine
 10
211.878154988552
 20
161.0388061437514
 30
0.0
 11
225.3406561486205
 21
161.0388061437514
 31
0.0
  0
LINE
  5
16A0
330
DD0
100
AcDbEntity
  8
0
 62
     0
370
    -2
100
AcDbLine
 10
217.7114883218853
 20
166.7054728104181
 30
0.0
 11
225.3406561486205
 21
166.7054728104181
 31
0.0
  0
LINE
  5
16A1
330
DD0
100
AcDbEntity
  8
0
 62
     0
370
    -2
100
AcDbLine
 10
224.0906561486204
 20
169.2054728104181
 30
0.0
 11
224.0906561486204
 21
171.7054728104181
 31
0.0
  0
LINE
  5
16A2
330
DD0
100
AcDbEntity
  8
0
 62
     0
370
    -2
100
AcDbLine
 10
224.0906561486204
 20
158.5388061437514
 30
0.0
 11
224.0906561486204
 21
150.7888061437513
 31
0.0
  0
LINE
  5
16A3
330
DD0
100
AcDbEntity
  8
0
 62
     0
370
    -2
100
AcDbLine
 10
224.0906561486204
 20
166.7054728104181
 30
0.0
 11
224.0906561486204
 21
161.0388061437514
 31
0.0
  0
INSERT
  5
16A4
330
DD0
100
AcDbEntity
  8
0
 62
     0
370
    -2
100
AcDbBlockReference
  2
_Open30
 10
224.0906561486204
 20
166.7054728104181
 30
0.0
 41
2.5
 42
2.5
 43
2.5
 50
270.0
  0
INSERT
  5
16A5
330
DD0
100
AcDbEntity
  8
0
 62
     0
370
    -2
100
AcDbBlockReference
  2
_Open30
 10
224.0906561486204
 20
161.0388061437514
 30
0.0
 41
2.5
 42
2.5
 43
2.5
 50
90.0
  0
MTEXT
  5
16A6
330
DD0
100
AcDbEntity
  8
0
 62
     4
100
AcDbMText
 10
221.9656561486204
 20
153.4138061437514
 30
0.0
 40
3.0
 41
0.0
 71
     5
 72
     1
  1
17
 11
0.0000000000000001
 21
1.0
 31
0.0
 73
     1
 44
1.0
1001
ACAD
1000
MTEXTBEGIN
1070
    73
1070
     1
1070
    44
1040
1.0
1070
    74
1070
     0
1000
MTEXTEND
  0
POINT
  5
16A7
330
DD0
100
AcDbEntity
  8
Defpoints
 62
     0
100
AcDbPoint
 10
211.628154988552
 20
161.0388061437514
 30
0.0
  0
POINT
  5
16A8
330
DD0
100
AcDbEntity
  8
Defpoints
 62
     0
100
AcDbPoint
 10
217.4614883218853
 20
166.7054728104181
 30
0.0
  0
POINT
  5
16A9
330
DD0
100
AcDbEntity
  8
Defpoints
 62
     0
100
AcDbPoint
 10
224.0906561486204
 20
166.7054728104181
 30
0.0
  0
ENDBLK
  5
DD2
330
DD0
100
AcDbEntity
  8
0
100
AcDbBlockEnd
  0
BLOCK
  5
DE0
330
DDF
100
AcDbEntity
  8
0
100
AcDbBlockBegin
  2
*D4
 70
     1
 10
0.0
 20
0.0
 30
0.0
  3
*D4
  1

  0
LINE
  5
16AA
330
DDF
100
AcDbEntity
  8
0
 62
     0
370
    -2
100
AcDbLine
 10
211.878154988552
 20
161.0388061437514
 30
0.0
 11
235.690006927985
 21
161.0388061437514
 31
0.0
  0
LINE
  5
16AB
330
DDF
100
AcDbEntity
  8
0
 62
     0
370
    -2
100
AcDbLine
 10
213.0639863777049
 20
238.0394013989913
 30
0.0
 11
235.6900069279851
 21
238.0394013989913
 31
0.0
  0
LINE
  5
16AC
330
DDF
100
AcDbEntity
  8
0
 62
     0
370
    -2
100
AcDbLine
 10
234.440006927985
 20
163.5388061437514
 30
0.0
 11
234.4400069279851
 21
235.5394013989913
 31
0.0
  0
INSERT
  5
16AD
330
DDF
100
AcDbEntity
  8
0
 62
     0
370
    -2
100
AcDbBlockReference
  2
_Open30
 10
234.440006927985
 20
161.0388061437514
 30
0.0
 41
2.5
 42
2.5
 43
2.5
 50
270.0
  0
INSERT
  5
16AE
330
DDF
100
AcDbEntity
  8
0
 62
     0
370
    -2
100
AcDbBlockReference
  2
_Open30
 10
234.4400069279851
 20
238.0394013989913
 30
0.0
 41
2.5
 42
2.5
 43
2.5
 50
90.0
  0
MTEXT
  5
16AF
330
DDF
100
AcDbEntity
  8
0
 62
     4
100
AcDbMText
 10
232.315006927985
 20
200.9395869803752
 30
0.0
 40
3.0
 41
0.0
 71
     5
 72
     1
  1
230
 11
0.0000000000000001
 21
1.0
 31
0.0
 73
     1
 44
1.0
1001
ACAD
1000
MTEXTBEGIN
1070
    73
1070
     1
1070
    44
1040
1.0
1070
    74
1070
     0
1000
MTEXTEND
  0
POINT
  5
16B0
330
DDF
100
AcDbEntity
  8
Defpoints
 62
     0
100
AcDbPoint
 10
211.628154988552
 20
161.0388061437514
 30
0.0
  0
POINT
  5
16B1
330
DDF
100
AcDbEntity
  8
Defpoints
 62
     0
100
AcDbPoint
 10
212.8139863777049
 20
238.0394013989913
 30
0.0
  0
POINT
  5
16B2
330
DDF
100
AcDbEntity
  8
Defpoints
 62
     0
100
AcDbPoint
 10
234.4400069279851
 20
238.0394013989913
 30
0.0
  0
ENDBLK
  5
DE1
330
DDF
100
AcDbEntity
  8
0
100
AcDbBlockEnd
  0
BLOCK
  5
E00
330
DFF
100
AcDbEntity
  8
0
100
AcDbBlockBegin
  2
*D5
 70
     1
 10
0.0
 20
0.0
 30
0.0
  3
*D5
  1

  0
LINE
  5
16B3
330
DFF
100
AcDbEntity
  8
0
 62
     0
370
    -2
100
AcDbLine
 10
217.7114883218853
 20
219.7054728104183
 30
0.0
 11
229.2616588921779
 21
219.7054728104183
 31
0.0
  0
LINE
  5
16B4
330
DFF
100
AcDbEntity
  8
0
 62
     0
370
    -2
100
AcDbLine
 10
213.0639863777049
 20
238.0394013989913
 30
0.0
 11
229.2616588921779
 21
238.0394013989913
 31
0.0
  0
LINE
  5
16B5
330
DFF
100
AcDbEntity
  8
0
 62
     0
370
    -2
100
AcDbLine
 10
228.0116588921779
 20
222.2054728104183
 30
0.0
 11
228.0116588921779
 21
235.5394013989913
 31
0.0
  0
INSERT
  5
16B6
330
DFF
100
AcDbEntity
  8
0
 62
     0
370
    -2
100
AcDbBlockReference
  2
_Open30
 10
228.0116588921779
 20
219.7054728104183
 30
0.0
 41
2.5
 42
2.5
 43
2.5
 50
270.0
  0
INSERT
  5
16B7
330
DFF
100
AcDbEntity
  8
0
 62
     0
370
    -2
100
AcDbBlockReference
  2
_Open30
 10
228.0116588921779
 20
238.0394013989913
 30
0.0
 41
2.5
 42
2.5
 43
2.5
 50
90.0
  0
MTEXT
  5
16B8
330
DFF
100
AcDbEntity
  8
0
 62
     4
100
AcDbMText
 10
225.8866588921778
 20
229.0945499167861
 30
0.0
 40
3.0
 41
0.0
 71
     5
 72
     1
  1
55
 11
0.0000000000000001
 21
1.0
 31
0.0
 73
     1
 44
1.0
1001
ACAD
1000
MTEXTBEGIN
1070
    73
1070
     1
1070
    44
1040
1.0
1070
    74
1070
     0
1000
MTEXTEND
  0
POINT
  5
16B9
330
DFF
100
AcDbEntity
  8
Defpoints
 62
     0
100
AcDbPoint
 10
217.4614883218853
 20
219.7054728104183
 30
0.0
  0
POINT
  5
16BA
330
DFF
100
AcDbEntity
  8
Defpoints
 62
     0
100
AcDbPoint
 10
212.8139863777049
 20
238.0394013989913
 30
0.0
  0
POINT
  5
16BB
330
DFF
100
AcDbEntity
  8
Defpoints
 62
     0
100
AcDbPoint
 10
228.0116588921779
 20
238.0394013989913
 30
0.0
  0
ENDBLK
  5
E01
330
DFF
100
AcDbEntity
  8
0
100
AcDbBlockEnd
  0
BLOCK
  5
F23
330
F21
100
AcDbEntity
  8
0
100
AcDbBlockBegin
  2
_DotSmall
 70
     0
 10
0.0
 20
0.0
 30
0.0
  3
_DotSmall
  1

  0
LWPOLYLINE
  5
F22
330
F21
100
AcDbEntity
  8
0
  6
ByBlock
 62
     0
100
AcDbPolyline
 90
        2
 70
     1
 43
0.5
 10
-0.0625
 20
0.0
 42
1.0
 10
0.0625
 20
0.0
 42
1.0
  0
ENDBLK
  5
F24
330
F21
100
AcDbEntity
  8
0
100
AcDbBlockEnd
  0
BLOCK
  5
1390
330
138F
100
AcDbEntity
  8
0
100
AcDbBlockBegin
  2
*D7
 70
     1
 10
0.0
 20
0.0
 30
0.0
  3
*D7
  1

  0
LINE
  5
1391
330
138F
100
AcDbEntity
  8
0
 62
     0
370
    -2
100
AcDbLine
 10
-178.2339678749101
 20
-812.0370112307897
 30
0.0
 11
-178.2339678749101
 21
-814.9466426527986
 31
0.0
  0
LINE
  5
1392
330
138F
100
AcDbEntity
  8
0
 62
     0
370
    -2
100
AcDbLine
 10
-180.6911549290304
 20
-812.0370112307897
 30
0.0
 11
-180.6911549290304
 21
-814.9466426527986
 31
0.0
  0
LINE
  5
1393
330
138F
100
AcDbEntity
  8
0
 62
     0
370
    -2
100
AcDbLine
 10
-175.7339678749101
 20
-813.6966426527985
 30
0.0
 11
-173.2339678749101
 21
-813.6966426527985
 31
0.0
  0
LINE
  5
1394
330
138F
100
AcDbEntity
  8
0
 62
     0
370
    -2
100
AcDbLine
 10
-183.1911549290304
 20
-813.6966426527985
 30
0.0
 11
-195.9411549290304
 21
-813.6966426527985
 31
0.0
  0
LINE
  5
1395
330
138F
100
AcDbEntity
  8
0
 62
     0
370
    -2
100
AcDbLine
 10
-178.2339678749101
 20
-813.6966426527985
 30
0.0
 11
-180.6911549290304
 21
-813.6966426527985
 31
0.0
  0
INSERT
  5
1396
330
138F
100
AcDbEntity
  8
0
 62
     0
370
    -2
100
AcDbBlockReference
  2
_Open30
 10
-178.2339678749101
 20
-813.6966426527985
 30
0.0
 41
2.5
 42
2.5
 43
2.5
 50
180.0
  0
INSERT
  5
1397
330
138F
100
AcDbEntity
  8
0
 62
     0
370
    -2
100
AcDbBlockReference
  2
_Open30
 10
-180.6911549290304
 20
-813.6966426527985
 30
0.0
 41
2.5
 42
2.5
 43
2.5
  0
MTEXT
  5
1398
330
138F
100
AcDbEntity
  8
0
 62
     4
100
AcDbMText
 10
-190.8161549290304
 20
-811.5716426527985
 30
0.0
 40
3.0
 41
0.0
 71
     5
 72
     1
  1
2.46
 73
     1
 44
1.0
1001
ACAD
1000
MTEXTBEGIN
1070
    73
1070
     1
1070
    44
1040
1.0
1070
    74
1070
     0
1000
MTEXTEND
  0
POINT
  5
1399
330
138F
100
AcDbEntity
  8
Defpoints
 62
     0
100
AcDbPoint
 10
-178.2339678749101
 20
-811.7870112307898
 30
0.0
  0
POINT
  5
139A
330
138F
100
AcDbEntity
  8
Defpoints
 62
     0
100
AcDbPoint
 10
-180.6911549290304
 20
-811.7870112307898
 30
0.0
  0
POINT
  5
139B
330
138F
100
AcDbEntity
  8
Defpoints
 62
     0
100
AcDbPoint
 10
-180.6911549290304
 20
-813.6966426527985
 30
0.0
  0
ENDBLK
  5
139C
330
138F
100
AcDbEntity
  8
0
100
AcDbBlockEnd
  0
BLOCK
  5
139E
330
139D
100
AcDbEntity
  8
0
100
AcDbBlockBegin
  2
*D8
 70
     1
 10
0.0
 20
0.0
 30
0.0
  3
*D8
  1

  0
LINE
  5
139F
330
139D
100
AcDbEntity
  8
0
 62
     0
370
    -2
100
AcDbLine
 10
-176.5958429688369
 20
-817.4931008035521
 30
0.0
 11
-176.5958429688369
 21
-820.0389928730155
 31
0.0
  0
LINE
  5
13A0
330
139D
100
AcDbEntity
  8
0
 62
     0
370
    -2
100
AcDbLine
 10
-179.6900787669798
 20
-817.4931008035521
 30
0.0
 11
-179.6900787669798
 21
-820.0389928730155
 31
0.0
  0
LINE
  5
13A1
330
139D
100
AcDbEntity
  8
0
 62
     0
370
    -2
100
AcDbLine
 10
-174.0958429688369
 20
-818.7889928730154
 30
0.0
 11
-171.5958429688369
 21
-818.7889928730154
 31
0.0
  0
LINE
  5
13A2
330
139D
100
AcDbEntity
  8
0
 62
     0
370
    -2
100
AcDbLine
 10
-182.1900787669798
 20
-818.7889928730154
 30
0.0
 11
-196.0234121003131
 21
-818.7889928730154
 31
0.0
  0
LINE
  5
13A3
330
139D
100
AcDbEntity
  8
0
 62
     0
370
    -2
100
AcDbLine
 10
-176.5958429688369
 20
-818.7889928730154
 30
0.0
 11
-179.6900787669798
 21
-818.7889928730154
 31
0.0
  0
INSERT
  5
13A4
330
139D
100
AcDbEntity
  8
0
 62
     0
370
    -2
100
AcDbBlockReference
  2
_Open30
 10
-176.5958429688369
 20
-818.7889928730154
 30
0.0
 41
2.5
 42
2.5
 43
2.5
 50
180.0
  0
INSERT
  5
13A5
330
139D
100
AcDbEntity
  8
0
 62
     0
370
    -2
100
AcDbBlockReference
  2
_Open30
 10
-179.6900787669798
 20
-818.7889928730154
 30
0.0
 41
2.5
 42
2.5
 43
2.5
  0
MTEXT
  5
13A6
330
139D
100
AcDbEntity
  8
0
 62
     4
100
AcDbMText
 10
-190.8150787669798
 20
-816.9139928730155
 30
0.0
 40
2.5
 41
0.0
 71
     5
 72
     1
  1
15.47
  7
高2.5
 73
     1
 44
1.0
1001
ACAD
1000
MTEXTBEGIN
1070
    73
1070
     1
1070
    44
1040
1.0
1070
    74
1070
     0
1000
MTEXTEND
  0
POINT
  5
13A7
330
139D
100
AcDbEntity
  8
Defpoints
 62
     0
100
AcDbPoint
 10
-176.5958429688369
 20
-817.2431008035522
 30
0.0
  0
POINT
  5
13A8
330
139D
100
AcDbEntity
  8
Defpoints
 62
     0
100
AcDbPoint
 10
-179.6900787669798
 20
-817.2431008035522
 30
0.0
  0
POINT
  5
13A9
330
139D
100
AcDbEntity
  8
Defpoints
 62
     0
100
AcDbPoint
 10
-179.6900787669798
 20
-818.7889928730154
 30
0.0
  0
ENDBLK
  5
13AA
330
139D
100
AcDbEntity
  8
0
100
AcDbBlockEnd
  0
BLOCK
  5
13AC
330
13AB
100
AcDbEntity
  8
0
100
AcDbBlockBegin
  2
*D9
 70
     1
 10
0.0
 20
0.0
 30
0.0
  3
*D9
  1

  0
LINE
  5
13AD
330
13AB
100
AcDbEntity
  8
0
 62
     0
370
    -2
100
AcDbLine
 10
-174.8667113607514
 20
-822.9491905193986
 30
0.0
 11
-174.8667113607514
 21
-825.2222781817659
 31
0.0
  0
LINE
  5
13AE
330
13AB
100
AcDbEntity
  8
0
 62
     0
370
    -2
100
AcDbLine
 10
-178.8710163139432
 20
-822.9491905193986
 30
0.0
 11
-178.8710163139432
 21
-825.2222781817659
 31
0.0
  0
LINE
  5
13AF
330
13AB
100
AcDbEntity
  8
0
 62
     0
370
    -2
100
AcDbLine
 10
-172.3667113607514
 20
-823.9722781817658
 30
0.0
 11
-169.8667113607514
 21
-823.9722781817658
 31
0.0
  0
LINE
  5
13B0
330
13AB
100
AcDbEntity
  8
0
 62
     0
370
    -2
100
AcDbLine
 10
-181.3710163139432
 20
-823.9722781817658
 30
0.0
 11
-193.1210163139432
 21
-823.9722781817658
 31
0.0
  0
LINE
  5
13B1
330
13AB
100
AcDbEntity
  8
0
 62
     0
370
    -2
100
AcDbLine
 10
-174.8667113607514
 20
-823.9722781817658
 30
0.0
 11
-178.8710163139432
 21
-823.9722781817658
 31
0.0
  0
INSERT
  5
13B2
330
13AB
100
AcDbEntity
  8
0
 62
     0
370
    -2
100
AcDbBlockReference
  2
_Open30
 10
-174.8667113607514
 20
-823.9722781817658
 30
0.0
 41
2.5
 42
2.5
 43
2.5
 50
180.0
  0
INSERT
  5
13B3
330
13AB
100
AcDbEntity
  8
0
 62
     0
370
    -2
100
AcDbBlockReference
  2
_Open30
 10
-178.8710163139432
 20
-823.9722781817658
 30
0.0
 41
2.5
 42
2.5
 43
2.5
  0
MTEXT
  5
13B4
330
13AB
100
AcDbEntity
  8
0
 62
     4
100
AcDbMText
 10
-188.4960163139432
 20
-821.7472781817658
 30
0.0
 40
3.2
 41
0.0
 71
     5
 72
     1
  1
8.01
  7
高3.2
 73
     1
 44
1.0
1001
ACAD
1000
MTEXTBEGIN
1070
    73
1070
     1
1070
    44
1040
1.0
1070
    74
1070
     0
1000
MTEXTEND
  0
POINT
  5
13B5
330
13AB
100
AcDbEntity
  8
Defpoints
 62
     0
100
AcDbPoint
 10
-174.8667113607514
 20
-822.6991905193985
 30
0.0
  0
POINT
  5
13B6
330
13AB
100
AcDbEntity
  8
Defpoints
 62
     0
100
AcDbPoint
 10
-178.8710163139432
 20
-822.6991905193985
 30
0.0
  0
POINT
  5
13B7
330
13AB
100
AcDbEntity
  8
Defpoints
 62
     0
100
AcDbPoint
 10
-178.8710163139432
 20
-823.9722781817658
 30
0.0
  0
ENDBLK
  5
13B8
330
13AB
100
AcDbEntity
  8
0
100
AcDbBlockEnd
  0
BLOCK
  5
13BA
330
13B9
100
AcDbEntity
  8
0
100
AcDbBlockBegin
  2
*D10
 70
     1
 10
0.0
 20
0.0
 30
0.0
  3
*D10
  1

  0
LINE
  5
13BB
330
13B9
100
AcDbEntity
  8
0
 62
     0
370
    -2
100
AcDbLine
 10
-174.9577180627636
 20
-828.2234104874302
 30
0.0
 11
-174.9577180627636
 21
-830.0418239948866
 31
0.0
  0
LINE
  5
13BC
330
13B9
100
AcDbEntity
  8
0
 62
     0
370
    -2
100
AcDbLine
 10
-179.6900787669798
 20
-828.2234104874302
 30
0.0
 11
-179.6900787669798
 21
-830.0418239948866
 31
0.0
  0
LINE
  5
13BD
330
13B9
100
AcDbEntity
  8
0
 62
     0
370
    -2
100
AcDbLine
 10
-172.4577180627636
 20
-828.7918239948865
 30
0.0
 11
-169.9577180627637
 21
-828.7918239948865
 31
0.0
  0
LINE
  5
13BE
330
13B9
100
AcDbEntity
  8
0
 62
     0
370
    -2
100
AcDbLine
 10
-182.1900787669798
 20
-828.7918239948865
 30
0.0
 11
-203.9400787669798
 21
-828.7918239948865
 31
0.0
  0
LINE
  5
13BF
330
13B9
100
AcDbEntity
  8
0
 62
     0
370
    -2
100
AcDbLine
 10
-174.9577180627636
 20
-828.7918239948865
 30
0.0
 11
-179.6900787669798
 21
-828.7918239948865
 31
0.0
  0
INSERT
  5
13C0
330
13B9
100
AcDbEntity
  8
0
 62
     0
370
    -2
100
AcDbBlockReference
  2
_Open30
 10
-174.9577180627636
 20
-828.7918239948865
 30
0.0
 41
2.5
 42
2.5
 43
2.5
 50
180.0
  0
INSERT
  5
13C1
330
13B9
100
AcDbEntity
  8
0
 62
     0
370
    -2
100
AcDbBlockReference
  2
_Open30
 10
-179.6900787669798
 20
-828.7918239948865
 30
0.0
 41
2.5
 42
2.5
 43
2.5
  0
MTEXT
  5
13C2
330
13B9
100
AcDbEntity
  8
0
 62
     4
100
AcDbMText
 10
-194.3150787669798
 20
-825.9168239948866
 30
0.0
 40
4.5
 41
0.0
 71
     5
 72
     1
  1
47.32
  7
高4.5
 73
     1
 44
1.0
1001
ACAD
1000
MTEXTBEGIN
1070
    73
1070
     1
1070
    44
1040
1.0
1070
    74
1070
     0
1000
MTEXTEND
  0
POINT
  5
13C3
330
13B9
100
AcDbEntity
  8
Defpoints
 62
     0
100
AcDbPoint
 10
-174.9577180627636
 20
-827.9734104874302
 30
0.0
  0
POINT
  5
13C4
330
13B9
100
AcDbEntity
  8
Defpoints
 62
     0
100
AcDbPoint
 10
-179.6900787669798
 20
-827.9734104874302
 30
0.0
  0
POINT
  5
13C5
330
13B9
100
AcDbEntity
  8
Defpoints
 62
     0
100
AcDbPoint
 10
-179.6900787669798
 20
-828.7918239948865
 30
0.0
  0
ENDBLK
  5
13C6
330
13B9
100
AcDbEntity
  8
0
100
AcDbBlockEnd
  0
BLOCK
  5
13C8
330
13C7
100
AcDbEntity
  8
0
100
AcDbBlockBegin
  2
*D11
 70
     1
 10
0.0
 20
0.0
 30
0.0
  3
*D11
  1

  0
LINE
  5
13C9
330
13C7
100
AcDbEntity
  8
0
 62
     0
370
    -2
100
AcDbLine
 10
-153.4800817947562
 20
-812.0370112307897
 30
0.0
 11
-153.4800817947562
 21
-814.9466426527986
 31
0.0
  0
LINE
  5
13CA
330
13C7
100
AcDbEntity
  8
0
 62
     0
370
    -2
100
AcDbLine
 10
-155.9372688488765
 20
-812.0370112307897
 30
0.0
 11
-155.9372688488765
 21
-814.9466426527986
 31
0.0
  0
LINE
  5
13CB
330
13C7
100
AcDbEntity
  8
0
 62
     0
370
    -2
100
AcDbLine
 10
-150.9800817947562
 20
-813.6966426527985
 30
0.0
 11
-148.4800817947562
 21
-813.6966426527985
 31
0.0
  0
LINE
  5
13CC
330
13C7
100
AcDbEntity
  8
0
 62
     0
370
    -2
100
AcDbLine
 10
-158.4372688488765
 20
-813.6966426527985
 30
0.0
 11
-180.0372688488765
 21
-813.6966426527985
 31
0.0
  0
LINE
  5
13CD
330
13C7
100
AcDbEntity
  8
0
 62
     0
370
    -2
100
AcDbLine
 10
-153.4800817947562
 20
-813.6966426527985
 30
0.0
 11
-155.9372688488765
 21
-813.6966426527985
 31
0.0
  0
INSERT
  5
13CE
330
13C7
100
AcDbEntity
  8
0
 62
     0
370
    -2
100
AcDbBlockReference
  2
_Open30
 10
-153.4800817947562
 20
-813.6966426527985
 30
0.0
 41
2.5
 42
2.5
 43
2.5
 50
180.0
  0
INSERT
  5
13CF
330
13C7
100
AcDbEntity
  8
0
 62
     0
370
    -2
100
AcDbBlockReference
  2
_Open30
 10
-155.9372688488765
 20
-813.6966426527985
 30
0.0
 41
2.5
 42
2.5
 43
2.5
  0
MTEXT
  5
13D0
330
13C7
100
AcDbEntity
  8
0
 62
     4
100
AcDbMText
 10
-170.4872688488765
 20
-809.9216426527986
 30
0.0
 40
6.299999999999998
 41
0.0
 71
     5
 72
     1
  1
0.25
  7
高6.3
 73
     1
 44
1.0
1001
ACAD
1000
MTEXTBEGIN
1070
    73
1070
     1
1070
    44
1040
1.0
1070
    74
1070
     0
1000
MTEXTEND
  0
POINT
  5
13D1
330
13C7
100
AcDbEntity
  8
Defpoints
 62
     0
100
AcDbPoint
 10
-153.4800817947562
 20
-811.7870112307898
 30
0.0
  0
POINT
  5
13D2
330
13C7
100
AcDbEntity
  8
Defpoints
 62
     0
100
AcDbPoint
 10
-155.9372688488765
 20
-811.7870112307898
 30
0.0
  0
POINT
  5
13D3
330
13C7
100
AcDbEntity
  8
Defpoints
 62
     0
100
AcDbPoint
 10
-155.9372688488765
 20
-813.6966426527985
 30
0.0
  0
ENDBLK
  5
13D4
330
13C7
100
AcDbEntity
  8
0
100
AcDbBlockEnd
  0
BLOCK
  5
13D6
330
13D5
100
AcDbEntity
  8
0
100
AcDbBlockBegin
  2
*D12
 70
     1
 10
0.0
 20
0.0
 30
0.0
  3
*D12
  1

  0
LINE
  5
13D7
330
13D5
100
AcDbEntity
  8
0
 62
     0
370
    -2
100
AcDbLine
 10
-151.841956888683
 20
-817.4931008035521
 30
0.0
 11
-151.841956888683
 21
-820.0389928730155
 31
0.0
  0
LINE
  5
13D8
330
13D5
100
AcDbEntity
  8
0
 62
     0
370
    -2
100
AcDbLine
 10
-154.9361926868259
 20
-817.4931008035521
 30
0.0
 11
-154.9361926868259
 21
-820.0389928730155
 31
0.0
  0
LINE
  5
13D9
330
13D5
100
AcDbEntity
  8
0
 62
     0
370
    -2
100
AcDbLine
 10
-149.341956888683
 20
-818.7889928730154
 30
0.0
 11
-146.841956888683
 21
-818.7889928730154
 31
0.0
  0
LINE
  5
13DA
330
13D5
100
AcDbEntity
  8
0
 62
     0
370
    -2
100
AcDbLine
 10
-157.4361926868259
 20
-818.7889928730154
 30
0.0
 11
-169.4361926868259
 21
-818.7889928730154
 31
0.0
  0
LINE
  5
13DB
330
13D5
100
AcDbEntity
  8
0
 62
     0
370
    -2
100
AcDbLine
 10
-151.841956888683
 20
-818.7889928730154
 30
0.0
 11
-154.9361926868259
 21
-818.7889928730154
 31
0.0
  0
INSERT
  5
13DC
330
13D5
100
AcDbEntity
  8
0
 62
     0
370
    -2
100
AcDbBlockReference
  2
_Open30
 10
-151.841956888683
 20
-818.7889928730154
 30
0.0
 41
2.5
 42
2.5
 43
2.5
 50
180.0
  0
INSERT
  5
13DD
330
13D5
100
AcDbEntity
  8
0
 62
     0
370
    -2
100
AcDbBlockReference
  2
_Open30
 10
-154.9361926868259
 20
-818.7889928730154
 30
0.0
 41
2.5
 42
2.5
 43
2.5
  0
MTEXT
  5
13DE
330
13D5
100
AcDbEntity
  8
0
 62
     4
100
AcDbMText
 10
-164.8111926868259
 20
-816.6639928730154
 30
0.0
 40
3.0
 41
0.0
 71
     5
 72
     1
  1
1.55
 73
     1
 44
1.0
1001
ACAD
1000
MTEXTBEGIN
1070
    73
1070
     1
1070
    44
1040
1.0
1070
    74
1070
     0
1000
MTEXTEND
  0
POINT
  5
13DF
330
13D5
100
AcDbEntity
  8
Defpoints
 62
     0
100
AcDbPoint
 10
-151.841956888683
 20
-817.2431008035522
 30
0.0
  0
POINT
  5
13E0
330
13D5
100
AcDbEntity
  8
Defpoints
 62
     0
100
AcDbPoint
 10
-154.9361926868259
 20
-817.2431008035522
 30
0.0
  0
POINT
  5
13E1
330
13D5
100
AcDbEntity
  8
Defpoints
 62
     0
100
AcDbPoint
 10
-154.9361926868259
 20
-818.7889928730154
 30
0.0
  0
ENDBLK
  5
13E2
330
13D5
100
AcDbEntity
  8
0
100
AcDbBlockEnd
  0
BLOCK
  5
13E4
330
13E3
100
AcDbEntity
  8
0
100
AcDbBlockBegin
  2
*D13
 70
     1
 10
0.0
 20
0.0
 30
0.0
  3
*D13
  1

  0
LINE
  5
13E5
330
13E3
100
AcDbEntity
  8
0
 62
     0
370
    -2
100
AcDbLine
 10
-150.1128252805975
 20
-822.9491905193986
 30
0.0
 11
-150.1128252805975
 21
-825.2222781817659
 31
0.0
  0
LINE
  5
13E6
330
13E3
100
AcDbEntity
  8
0
 62
     0
370
    -2
100
AcDbLine
 10
-154.1171302337894
 20
-822.9491905193986
 30
0.0
 11
-154.1171302337894
 21
-825.2222781817659
 31
0.0
  0
LINE
  5
13E7
330
13E3
100
AcDbEntity
  8
0
 62
     0
370
    -2
100
AcDbLine
 10
-147.6128252805976
 20
-823.9722781817658
 30
0.0
 11
-145.1128252805975
 21
-823.9722781817658
 31
0.0
  0
LINE
  5
13E8
330
13E3
100
AcDbEntity
  8
0
 62
     0
370
    -2
100
AcDbLine
 10
-156.6171302337894
 20
-823.9722781817658
 30
0.0
 11
-164.9504635671227
 21
-823.9722781817658
 31
0.0
  0
LINE
  5
13E9
330
13E3
100
AcDbEntity
  8
0
 62
     0
370
    -2
100
AcDbLine
 10
-150.1128252805975
 20
-823.9722781817658
 30
0.0
 11
-154.1171302337894
 21
-823.9722781817658
 31
0.0
  0
INSERT
  5
13EA
330
13E3
100
AcDbEntity
  8
0
 62
     0
370
    -2
100
AcDbBlockReference
  2
_Open30
 10
-150.1128252805975
 20
-823.9722781817658
 30
0.0
 41
2.5
 42
2.5
 43
2.5
 50
180.0
  0
INSERT
  5
13EB
330
13E3
100
AcDbEntity
  8
0
 62
     0
370
    -2
100
AcDbBlockReference
  2
_Open30
 10
-154.1171302337894
 20
-823.9722781817658
 30
0.0
 41
2.5
 42
2.5
 43
2.5
  0
MTEXT
  5
13EC
330
13E3
100
AcDbEntity
  8
0
 62
     4
100
AcDbMText
 10
-162.4921302337894
 20
-822.3472781817658
 30
0.0
 40
2.0
 41
0.0
 71
     5
 72
     1
  1
0.8
  7
高2
 73
     1
 44
1.0
1001
ACAD
1000
MTEXTBEGIN
1070
    73
1070
     1
1070
    44
1040
1.0
1070
    74
1070
     0
1000
MTEXTEND
  0
POINT
  5
13ED
330
13E3
100
AcDbEntity
  8
Defpoints
 62
     0
100
AcDbPoint
 10
-150.1128252805975
 20
-822.6991905193985
 30
0.0
  0
POINT
  5
13EE
330
13E3
100
AcDbEntity
  8
Defpoints
 62
     0
100
AcDbPoint
 10
-154.1171302337894
 20
-822.6991905193985
 30
0.0
  0
POINT
  5
13EF
330
13E3
100
AcDbEntity
  8
Defpoints
 62
     0
100
AcDbPoint
 10
-154.1171302337894
 20
-823.9722781817658
 30
0.0
  0
ENDBLK
  5
13F0
330
13E3
100
AcDbEntity
  8
0
100
AcDbBlockEnd
  0
BLOCK
  5
13F2
330
13F1
100
AcDbEntity
  8
0
100
AcDbBlockBegin
  2
*D14
 70
     1
 10
0.0
 20
0.0
 30
0.0
  3
*D14
  1

  0
LINE
  5
13F3
330
13F1
100
AcDbEntity
  8
0
 62
     0
370
    -2
100
AcDbLine
 10
-150.2038319826098
 20
-828.2234104874302
 30
0.0
 11
-150.2038319826098
 21
-830.0418239948866
 31
0.0
  0
LINE
  5
13F4
330
13F1
100
AcDbEntity
  8
0
 62
     0
370
    -2
100
AcDbLine
 10
-154.9361926868259
 20
-828.2234104874302
 30
0.0
 11
-154.9361926868259
 21
-830.0418239948866
 31
0.0
  0
LINE
  5
13F5
330
13F1
100
AcDbEntity
  8
0
 62
     0
370
    -2
100
AcDbLine
 10
-147.7038319826099
 20
-828.7918239948865
 30
0.0
 11
-145.2038319826098
 21
-828.7918239948865
 31
0.0
  0
LINE
  5
13F6
330
13F1
100
AcDbEntity
  8
0
 62
     0
370
    -2
100
AcDbLine
 10
-157.4361926868259
 20
-828.7918239948865
 30
0.0
 11
-172.1861926868259
 21
-828.7918239948865
 31
0.0
  0
LINE
  5
13F7
330
13F1
100
AcDbEntity
  8
0
 62
     0
370
    -2
100
AcDbLine
 10
-150.2038319826098
 20
-828.7918239948865
 30
0.0
 11
-154.9361926868259
 21
-828.7918239948865
 31
0.0
  0
INSERT
  5
13F8
330
13F1
100
AcDbEntity
  8
0
 62
     0
370
    -2
100
AcDbBlockReference
  2
_Open30
 10
-150.2038319826098
 20
-828.7918239948865
 30
0.0
 41
2.5
 42
2.5
 43
2.5
 50
180.0
  0
INSERT
  5
13F9
330
13F1
100
AcDbEntity
  8
0
 62
     0
370
    -2
100
AcDbBlockReference
  2
_Open30
 10
-154.9361926868259
 20
-828.7918239948865
 30
0.0
 41
2.5
 42
2.5
 43
2.5
  0
MTEXT
  5
13FA
330
13F1
100
AcDbEntity
  8
0
 62
     4
100
AcDbMText
 10
-166.0611926868259
 20
-826.6668239948867
 30
0.0
 40
3.0
 41
0.0
 71
     5
 72
     1
  1
18.93
 73
     1
 44
1.0
1001
ACAD
1000
MTEXTBEGIN
1070
    73
1070
     1
1070
    44
1040
1.0
1070
    74
1070
     0
1000
MTEXTEND
  0
POINT
  5
13FB
330
13F1
100
AcDbEntity
  8
Defpoints
 62
     0
100
AcDbPoint
 10
-150.2038319826098
 20
-827.9734104874302
 30
0.0
  0
POINT
  5
13FC
330
13F1
100
AcDbEntity
  8
Defpoints
 62
     0
100
AcDbPoint
 10
-154.9361926868259
 20
-827.9734104874302
 30
0.0
  0
POINT
  5
13FD
330
13F1
100
AcDbEntity
  8
Defpoints
 62
     0
100
AcDbPoint
 10
-154.9361926868259
 20
-828.7918239948865
 30
0.0
  0
ENDBLK
  5
13FE
330
13F1
100
AcDbEntity
  8
0
100
AcDbBlockEnd
  0
BLOCK
  5
1400
330
13FF
100
AcDbEntity
  8
0
100
AcDbBlockBegin
  2
*D15
 70
     1
 10
0.0
 20
0.0
 30
0.0
  3
*D15
  1

  0
LINE
  5
1401
330
13FF
100
AcDbEntity
  8
0
 62
     0
370
    -2
100
AcDbLine
 10
-153.0082588337482
 20
-833.2792506940199
 30
0.0
 11
-153.0082588337482
 21
-835.5891717708955
 31
0.0
  0
LINE
  5
1402
330
13FF
100
AcDbEntity
  8
0
 62
     0
370
    -2
100
AcDbLine
 10
-157.5969340358961
 20
-833.2792506940199
 30
0.0
 11
-157.5969340358961
 21
-835.5891717708955
 31
0.0
  0
LINE
  5
1403
330
13FF
100
AcDbEntity
  8
0
 62
     0
370
    -2
100
AcDbLine
 10
-150.5082588337482
 20
-834.3391717708955
 30
0.0
 11
-148.0082588337482
 21
-834.3391717708955
 31
0.0
  0
LINE
  5
1404
330
13FF
100
AcDbEntity
  8
0
 62
     0
370
    -2
100
AcDbLine
 10
-160.0969340358961
 20
-834.3391717708955
 30
0.0
 11
-174.8469340358961
 21
-834.3391717708955
 31
0.0
  0
LINE
  5
1405
330
13FF
100
AcDbEntity
  8
0
 62
     0
370
    -2
100
AcDbLine
 10
-153.0082588337482
 20
-834.3391717708955
 30
0.0
 11
-157.5969340358961
 21
-834.3391717708955
 31
0.0
  0
INSERT
  5
1406
330
13FF
100
AcDbEntity
  8
0
 62
     0
370
    -2
100
AcDbBlockReference
  2
_Open30
 10
-153.0082588337482
 20
-834.3391717708955
 30
0.0
 41
2.5
 42
2.5
 43
2.5
 50
180.0
  0
INSERT
  5
1407
330
13FF
100
AcDbEntity
  8
0
 62
     0
370
    -2
100
AcDbBlockReference
  2
_Open30
 10
-157.5969340358961
 20
-834.3391717708955
 30
0.0
 41
2.5
 42
2.5
 43
2.5
  0
MTEXT
  5
1408
330
13FF
100
AcDbEntity
  8
0
 62
     4
100
AcDbMText
 10
-168.7219340358961
 20
-832.2141717708955
 30
0.0
 40
3.0
 41
0.0
 71
     5
 72
     1
  1
13.77
 73
     1
 44
1.0
1001
ACAD
1000
MTEXTBEGIN
1070
    73
1070
     1
1070
    44
1040
1.0
1070
    74
1070
     0
1000
MTEXTEND
  0
POINT
  5
1409
330
13FF
100
AcDbEntity
  8
Defpoints
 62
     0
100
AcDbPoint
 10
-153.0082588337482
 20
-833.0292506940201
 30
0.0
  0
POINT
  5
140A
330
13FF
100
AcDbEntity
  8
Defpoints
 62
     0
100
AcDbPoint
 10
-157.5969340358961
 20
-833.0292506940201
 30
0.0
  0
POINT
  5
140B
330
13FF
100
AcDbEntity
  8
Defpoints
 62
     0
100
AcDbPoint
 10
-157.5969340358961
 20
-834.3391717708955
 30
0.0
  0
ENDBLK
  5
140C
330
13FF
100
AcDbEntity
  8
0
100
AcDbBlockEnd
  0
BLOCK
  5
140E
330
140D
100
AcDbEntity
  8
0
100
AcDbBlockBegin
  2
*D16
 70
     1
 10
0.0
 20
0.0
 30
0.0
  3
*D16
  1

  0
LINE
  5
140F
330
140D
100
AcDbEntity
  8
0
 62
     0
370
    -2
100
AcDbLine
 10
-160.1045416668985
 20
-802.3497593757458
 30
0.0
 11
-160.1045416668985
 21
-794.9532258978079
 31
0.0
  0
LINE
  5
1410
330
140D
100
AcDbEntity
  8
0
 62
     0
370
    -2
100
AcDbLine
 10
-170.0430160363884
 20
-802.3497593757458
 30
0.0
 11
-170.0430160363884
 21
-794.9532258978079
 31
0.0
  0
LINE
  5
1411
330
140D
100
AcDbEntity
  8
0
 62
     0
370
    -2
100
AcDbLine
 10
-162.6045416668985
 20
-796.2032258978077
 30
0.0
 11
-167.5430160363885
 21
-796.2032258978077
 31
0.0
  0
INSERT
  5
1412
330
140D
100
AcDbEntity
  8
0
 62
     0
370
    -2
100
AcDbBlockReference
  2
_Open30
 10
-160.1045416668985
 20
-796.2032258978077
 30
0.0
 41
2.5
 42
2.5
 43
2.5
  0
INSERT
  5
1413
330
140D
100
AcDbEntity
  8
0
 62
     0
370
    -2
100
AcDbBlockReference
  2
_Open30
 10
-170.0430160363884
 20
-796.2032258978077
 30
0.0
 41
2.5
 42
2.5
 43
2.5
 50
180.0
  0
MTEXT
  5
1414
330
140D
100
AcDbEntity
  8
0
 62
     4
100
AcDbMText
 10
-165.0737788516435
 20
-793.1282258978077
 30
0.0
 40
3.0
 41
0.0
 71
     5
 72
     1
  1
9.94\H0.7X;\S+0^ -0.02;
 73
     1
 44
1.0
1001
ACAD
1000
MTEXTBEGIN
1070
    73
1070
     1
1070
    44
1040
1.0
1070
    74
1070
     0
1000
MTEXTEND
  0
POINT
  5
1415
330
140D
100
AcDbEntity
  8
Defpoints
 62
     0
100
AcDbPoint
 10
-160.1045416668985
 20
-802.5997593757455
 30
0.0
  0
POINT
  5
1416
330
140D
100
AcDbEntity
  8
Defpoints
 62
     0
100
AcDbPoint
 10
-170.0430160363884
 20
-802.5997593757455
 30
0.0
  0
POINT
  5
1417
330
140D
100
AcDbEntity
  8
Defpoints
 62
     0
100
AcDbPoint
 10
-170.0430160363884
 20
-796.2032258978077
 30
0.0
  0
ENDBLK
  5
1418
330
140D
100
AcDbEntity
  8
0
100
AcDbBlockEnd
  0
BLOCK
  5
143F
330
143E
100
AcDbEntity
  8
0
100
AcDbBlockBegin
  2
*D17
 70
     1
 10
0.0
 20
0.0
 30
0.0
  3
*D17
  1

  0
LINE
  5
14C8
330
143E
100
AcDbEntity
  8
0
 62
     0
370
    -2
100
AcDbLine
 10
336.8169088736425
 20
318.345171548268
 30
0.0
 11
336.8169088736425
 21
315.4355401262592
 31
0.0
  0
LINE
  5
14C9
330
143E
100
AcDbEntity
  8
0
 62
     0
370
    -2
100
AcDbLine
 10
334.3597218195222
 20
318.345171548268
 30
0.0
 11
334.3597218195222
 21
315.4355401262592
 31
0.0
  0
LINE
  5
14CA
330
143E
100
AcDbEntity
  8
0
 62
     0
370
    -2
100
AcDbLine
 10
339.3169088736425
 20
316.6855401262592
 30
0.0
 11
341.8169088736425
 21
316.6855401262592
 31
0.0
  0
LINE
  5
14CB
330
143E
100
AcDbEntity
  8
0
 62
     0
370
    -2
100
AcDbLine
 10
331.8597218195222
 20
316.6855401262592
 30
0.0
 11
319.1097218195222
 21
316.6855401262592
 31
0.0
  0
LINE
  5
14CC
330
143E
100
AcDbEntity
  8
0
 62
     0
370
    -2
100
AcDbLine
 10
336.8169088736425
 20
316.6855401262592
 30
0.0
 11
334.3597218195222
 21
316.6855401262592
 31
0.0
  0
INSERT
  5
14CD
330
143E
100
AcDbEntity
  8
0
 62
     0
370
    -2
100
AcDbBlockReference
  2
_Open30
 10
336.8169088736425
 20
316.6855401262592
 30
0.0
 41
2.5
 42
2.5
 43
2.5
 50
180.0
  0
INSERT
  5
14CE
330
143E
100
AcDbEntity
  8
0
 62
     0
370
    -2
100
AcDbBlockReference
  2
_Open30
 10
334.3597218195222
 20
316.6855401262592
 30
0.0
 41
2.5
 42
2.5
 43
2.5
  0
MTEXT
  5
14CF
330
143E
100
AcDbEntity
  8
0
 62
     4
100
AcDbMText
 10
324.2347218195222
 20
318.8105401262592
 30
0.0
 40
3.0
 41
0.0
 71
     5
 72
     1
  1
2.46
 73
     1
 44
1.0
1001
ACAD
1000
MTEXTBEGIN
1070
    73
1070
     1
1070
    44
1040
1.0
1070
    74
1070
     0
1000
MTEXTEND
  0
POINT
  5
14D0
330
143E
100
AcDbEntity
  8
Defpoints
 62
     0
100
AcDbPoint
 10
336.8169088736425
 20
318.595171548268
 30
0.0
  0
POINT
  5
14D1
330
143E
100
AcDbEntity
  8
Defpoints
 62
     0
100
AcDbPoint
 10
334.3597218195222
 20
318.595171548268
 30
0.0
  0
POINT
  5
14D2
330
143E
100
AcDbEntity
  8
Defpoints
 62
     0
100
AcDbPoint
 10
334.3597218195222
 20
316.6855401262592
 30
0.0
  0
ENDBLK
  5
1440
330
143E
100
AcDbEntity
  8
0
100
AcDbBlockEnd
  0
BLOCK
  5
144D
330
144C
100
AcDbEntity
  8
0
100
AcDbBlockBegin
  2
*D18
 70
     1
 10
0.0
 20
0.0
 30
0.0
  3
*D18
  1

  0
LINE
  5
14D3
330
144C
100
AcDbEntity
  8
0
 62
     0
370
    -2
100
AcDbLine
 10
338.4550337797157
 20
312.8890819755056
 30
0.0
 11
338.4550337797157
 21
310.3431899060423
 31
0.0
  0
LINE
  5
14D4
330
144C
100
AcDbEntity
  8
0
 62
     0
370
    -2
100
AcDbLine
 10
335.3607979815728
 20
312.8890819755056
 30
0.0
 11
335.3607979815728
 21
310.3431899060423
 31
0.0
  0
LINE
  5
14D5
330
144C
100
AcDbEntity
  8
0
 62
     0
370
    -2
100
AcDbLine
 10
340.9550337797157
 20
311.5931899060423
 30
0.0
 11
343.4550337797157
 21
311.5931899060423
 31
0.0
  0
LINE
  5
14D6
330
144C
100
AcDbEntity
  8
0
 62
     0
370
    -2
100
AcDbLine
 10
332.8607979815728
 20
311.5931899060423
 30
0.0
 11
319.0274646482393
 21
311.5931899060423
 31
0.0
  0
LINE
  5
14D7
330
144C
100
AcDbEntity
  8
0
 62
     0
370
    -2
100
AcDbLine
 10
338.4550337797157
 20
311.5931899060423
 30
0.0
 11
335.3607979815728
 21
311.5931899060423
 31
0.0
  0
INSERT
  5
14D8
330
144C
100
AcDbEntity
  8
0
 62
     0
370
    -2
100
AcDbBlockReference
  2
_Open30
 10
338.4550337797157
 20
311.5931899060423
 30
0.0
 41
2.5
 42
2.5
 43
2.5
 50
180.0
  0
INSERT
  5
14D9
330
144C
100
AcDbEntity
  8
0
 62
     0
370
    -2
100
AcDbBlockReference
  2
_Open30
 10
335.3607979815728
 20
311.5931899060423
 30
0.0
 41
2.5
 42
2.5
 43
2.5
  0
MTEXT
  5
14DA
330
144C
100
AcDbEntity
  8
0
 62
     4
100
AcDbMText
 10
324.2357979815728
 20
313.4681899060423
 30
0.0
 40
2.5
 41
0.0
 71
     5
 72
     1
  1
15.47
  7
高2.5
 73
     1
 44
1.0
1001
ACAD
1000
MTEXTBEGIN
1070
    73
1070
     1
1070
    44
1040
1.0
1070
    74
1070
     0
1000
MTEXTEND
  0
POINT
  5
14DB
330
144C
100
AcDbEntity
  8
Defpoints
 62
     0
100
AcDbPoint
 10
338.4550337797157
 20
313.1390819755056
 30
0.0
  0
POINT
  5
14DC
330
144C
100
AcDbEntity
  8
Defpoints
 62
     0
100
AcDbPoint
 10
335.3607979815728
 20
313.1390819755056
 30
0.0
  0
POINT
  5
14DD
330
144C
100
AcDbEntity
  8
Defpoints
 62
     0
100
AcDbPoint
 10
335.3607979815728
 20
311.5931899060423
 30
0.0
  0
ENDBLK
  5
144E
330
144C
100
AcDbEntity
  8
0
100
AcDbBlockEnd
  0
BLOCK
  5
145B
330
145A
100
AcDbEntity
  8
0
100
AcDbBlockBegin
  2
*D19
 70
     1
 10
0.0
 20
0.0
 30
0.0
  3
*D19
  1

  0
LINE
  5
14DE
330
145A
100
AcDbEntity
  8
0
 62
     0
370
    -2
100
AcDbLine
 10
340.1841653878012
 20
307.4329922596592
 30
0.0
 11
340.1841653878012
 21
305.1599045972919
 31
0.0
  0
LINE
  5
14DF
330
145A
100
AcDbEntity
  8
0
 62
     0
370
    -2
100
AcDbLine
 10
336.1798604346093
 20
307.4329922596592
 30
0.0
 11
336.1798604346093
 21
305.1599045972919
 31
0.0
  0
LINE
  5
14E0
330
145A
100
AcDbEntity
  8
0
 62
     0
370
    -2
100
AcDbLine
 10
342.6841653878012
 20
306.4099045972919
 30
0.0
 11
345.1841653878012
 21
306.4099045972919
 31
0.0
  0
LINE
  5
14E1
330
145A
100
AcDbEntity
  8
0
 62
     0
370
    -2
100
AcDbLine
 10
333.6798604346093
 20
306.4099045972919
 30
0.0
 11
321.9298604346093
 21
306.4099045972919
 31
0.0
  0
LINE
  5
14E2
330
145A
100
AcDbEntity
  8
0
 62
     0
370
    -2
100
AcDbLine
 10
340.1841653878012
 20
306.4099045972919
 30
0.0
 11
336.1798604346093
 21
306.4099045972919
 31
0.0
  0
INSERT
  5
14E3
330
145A
100
AcDbEntity
  8
0
 62
     0
370
    -2
100
AcDbBlockReference
  2
_Open30
 10
340.1841653878012
 20
306.4099045972919
 30
0.0
 41
2.5
 42
2.5
 43
2.5
 50
180.0
  0
INSERT
  5
14E4
330
145A
100
AcDbEntity
  8
0
 62
     0
370
    -2
100
AcDbBlockReference
  2
_Open30
 10
336.1798604346093
 20
306.4099045972919
 30
0.0
 41
2.5
 42
2.5
 43
2.5
  0
MTEXT
  5
14E5
330
145A
100
AcDbEntity
  8
0
 62
     4
100
AcDbMText
 10
326.5548604346093
 20
308.6349045972919
 30
0.0
 40
3.2
 41
0.0
 71
     5
 72
     1
  1
8.01
  7
高3.2
 73
     1
 44
1.0
1001
ACAD
1000
MTEXTBEGIN
1070
    73
1070
     1
1070
    44
1040
1.0
1070
    74
1070
     0
1000
MTEXTEND
  0
POINT
  5
14E6
330
145A
100
AcDbEntity
  8
Defpoints
 62
     0
100
AcDbPoint
 10
340.1841653878012
 20
307.6829922596592
 30
0.0
  0
POINT
  5
14E7
330
145A
100
AcDbEntity
  8
Defpoints
 62
     0
100
AcDbPoint
 10
336.1798604346093
 20
307.6829922596592
 30
0.0
  0
POINT
  5
14E8
330
145A
100
AcDbEntity
  8
Defpoints
 62
     0
100
AcDbPoint
 10
336.1798604346093
 20
306.4099045972919
 30
0.0
  0
ENDBLK
  5
145C
330
145A
100
AcDbEntity
  8
0
100
AcDbBlockEnd
  0
BLOCK
  5
1469
330
1468
100
AcDbEntity
  8
0
100
AcDbBlockBegin
  2
*D20
 70
     1
 10
0.0
 20
0.0
 30
0.0
  3
*D20
  1

  0
LINE
  5
14E9
330
1468
100
AcDbEntity
  8
0
 62
     0
370
    -2
100
AcDbLine
 10
340.0931586857889
 20
302.1587722916275
 30
0.0
 11
340.0931586857889
 21
300.3403587841711
 31
0.0
  0
LINE
  5
14EA
330
1468
100
AcDbEntity
  8
0
 62
     0
370
    -2
100
AcDbLine
 10
335.3607979815728
 20
302.1587722916275
 30
0.0
 11
335.3607979815728
 21
300.3403587841711
 31
0.0
  0
LINE
  5
14EB
330
1468
100
AcDbEntity
  8
0
 62
     0
370
    -2
100
AcDbLine
 10
342.5931586857889
 20
301.5903587841711
 30
0.0
 11
345.0931586857889
 21
301.5903587841711
 31
0.0
  0
LINE
  5
14EC
330
1468
100
AcDbEntity
  8
0
 62
     0
370
    -2
100
AcDbLine
 10
332.8607979815728
 20
301.5903587841711
 30
0.0
 11
311.1107979815728
 21
301.5903587841711
 31
0.0
  0
LINE
  5
14ED
330
1468
100
AcDbEntity
  8
0
 62
     0
370
    -2
100
AcDbLine
 10
340.0931586857889
 20
301.5903587841711
 30
0.0
 11
335.3607979815728
 21
301.5903587841711
 31
0.0
  0
INSERT
  5
14EE
330
1468
100
AcDbEntity
  8
0
 62
     0
370
    -2
100
AcDbBlockReference
  2
_Open30
 10
340.0931586857889
 20
301.5903587841711
 30
0.0
 41
2.5
 42
2.5
 43
2.5
 50
180.0
  0
INSERT
  5
14EF
330
1468
100
AcDbEntity
  8
0
 62
     0
370
    -2
100
AcDbBlockReference
  2
_Open30
 10
335.3607979815728
 20
301.5903587841711
 30
0.0
 41
2.5
 42
2.5
 43
2.5
  0
MTEXT
  5
14F0
330
1468
100
AcDbEntity
  8
0
 62
     4
100
AcDbMText
 10
320.7357979815728
 20
304.4653587841712
 30
0.0
 40
4.5
 41
0.0
 71
     5
 72
     1
  1
47.32
  7
高4.5
 73
     1
 44
1.0
1001
ACAD
1000
MTEXTBEGIN
1070
    73
1070
     1
1070
    44
1040
1.0
1070
    74
1070
     0
1000
MTEXTEND
  0
POINT
  5
14F1
330
1468
100
AcDbEntity
  8
Defpoints
 62
     0
100
AcDbPoint
 10
340.0931586857889
 20
302.4087722916275
 30
0.0
  0
POINT
  5
14F2
330
1468
100
AcDbEntity
  8
Defpoints
 62
     0
100
AcDbPoint
 10
335.3607979815728
 20
302.4087722916275
 30
0.0
  0
POINT
  5
14F3
330
1468
100
AcDbEntity
  8
Defpoints
 62
     0
100
AcDbPoint
 10
335.3607979815728
 20
301.5903587841711
 30
0.0
  0
ENDBLK
  5
146A
330
1468
100
AcDbEntity
  8
0
100
AcDbBlockEnd
  0
BLOCK
  5
1477
330
1476
100
AcDbEntity
  8
0
100
AcDbBlockBegin
  2
*D21
 70
     1
 10
0.0
 20
0.0
 30
0.0
  3
*D21
  1

  0
LINE
  5
14F4
330
1476
100
AcDbEntity
  8
0
 62
     0
370
    -2
100
AcDbLine
 10
361.5707949537963
 20
318.345171548268
 30
0.0
 11
361.5707949537963
 21
315.4355401262592
 31
0.0
  0
LINE
  5
14F5
330
1476
100
AcDbEntity
  8
0
 62
     0
370
    -2
100
AcDbLine
 10
359.113607899676
 20
318.345171548268
 30
0.0
 11
359.113607899676
 21
315.4355401262592
 31
0.0
  0
LINE
  5
14F6
330
1476
100
AcDbEntity
  8
0
 62
     0
370
    -2
100
AcDbLine
 10
364.0707949537963
 20
316.6855401262592
 30
0.0
 11
366.5707949537964
 21
316.6855401262592
 31
0.0
  0
LINE
  5
14F7
330
1476
100
AcDbEntity
  8
0
 62
     0
370
    -2
100
AcDbLine
 10
356.6136078996759
 20
316.6855401262592
 30
0.0
 11
335.0136078996761
 21
316.6855401262592
 31
0.0
  0
LINE
  5
14F8
330
1476
100
AcDbEntity
  8
0
 62
     0
370
    -2
100
AcDbLine
 10
361.5707949537963
 20
316.6855401262592
 30
0.0
 11
359.113607899676
 21
316.6855401262592
 31
0.0
  0
INSERT
  5
14F9
330
1476
100
AcDbEntity
  8
0
 62
     0
370
    -2
100
AcDbBlockReference
  2
_Open30
 10
361.5707949537963
 20
316.6855401262592
 30
0.0
 41
2.5
 42
2.5
 43
2.5
 50
180.0
  0
INSERT
  5
14FA
330
1476
100
AcDbEntity
  8
0
 62
     0
370
    -2
100
AcDbBlockReference
  2
_Open30
 10
359.113607899676
 20
316.6855401262592
 30
0.0
 41
2.5
 42
2.5
 43
2.5
  0
MTEXT
  5
14FB
330
1476
100
AcDbEntity
  8
0
 62
     4
100
AcDbMText
 10
344.563607899676
 20
320.4605401262591
 30
0.0
 40
6.299999999999998
 41
0.0
 71
     5
 72
     1
  1
0.25
  7
高6.3
 73
     1
 44
1.0
1001
ACAD
1000
MTEXTBEGIN
1070
    73
1070
     1
1070
    44
1040
1.0
1070
    74
1070
     0
1000
MTEXTEND
  0
POINT
  5
14FC
330
1476
100
AcDbEntity
  8
Defpoints
 62
     0
100
AcDbPoint
 10
361.5707949537963
 20
318.595171548268
 30
0.0
  0
POINT
  5
14FD
330
1476
100
AcDbEntity
  8
Defpoints
 62
     0
100
AcDbPoint
 10
359.113607899676
 20
318.595171548268
 30
0.0
  0
POINT
  5
14FE
330
1476
100
AcDbEntity
  8
Defpoints
 62
     0
100
AcDbPoint
 10
359.113607899676
 20
316.6855401262592
 30
0.0
  0
ENDBLK
  5
1478
330
1476
100
AcDbEntity
  8
0
100
AcDbBlockEnd
  0
BLOCK
  5
1485
330
1484
100
AcDbEntity
  8
0
100
AcDbBlockBegin
  2
*D22
 70
     1
 10
0.0
 20
0.0
 30
0.0
  3
*D22
  1

  0
LINE
  5
14FF
330
1484
100
AcDbEntity
  8
0
 62
     0
370
    -2
100
AcDbLine
 10
363.2089198598695
 20
312.8890819755056
 30
0.0
 11
363.2089198598695
 21
310.3431899060423
 31
0.0
  0
LINE
  5
1500
330
1484
100
AcDbEntity
  8
0
 62
     0
370
    -2
100
AcDbLine
 10
360.1146840617266
 20
312.8890819755056
 30
0.0
 11
360.1146840617266
 21
310.3431899060423
 31
0.0
  0
LINE
  5
1501
330
1484
100
AcDbEntity
  8
0
 62
     0
370
    -2
100
AcDbLine
 10
365.7089198598695
 20
311.5931899060423
 30
0.0
 11
368.2089198598695
 21
311.5931899060423
 31
0.0
  0
LINE
  5
1502
330
1484
100
AcDbEntity
  8
0
 62
     0
370
    -2
100
AcDbLine
 10
357.6146840617266
 20
311.5931899060423
 30
0.0
 11
345.6146840617266
 21
311.5931899060423
 31
0.0
  0
LINE
  5
1503
330
1484
100
AcDbEntity
  8
0
 62
     0
370
    -2
100
AcDbLine
 10
363.2089198598695
 20
311.5931899060423
 30
0.0
 11
360.1146840617266
 21
311.5931899060423
 31
0.0
  0
INSERT
  5
1504
330
1484
100
AcDbEntity
  8
0
 62
     0
370
    -2
100
AcDbBlockReference
  2
_Open30
 10
363.2089198598695
 20
311.5931899060423
 30
0.0
 41
2.5
 42
2.5
 43
2.5
 50
180.0
  0
INSERT
  5
1505
330
1484
100
AcDbEntity
  8
0
 62
     0
370
    -2
100
AcDbBlockReference
  2
_Open30
 10
360.1146840617266
 20
311.5931899060423
 30
0.0
 41
2.5
 42
2.5
 43
2.5
  0
MTEXT
  5
1506
330
1484
100
AcDbEntity
  8
0
 62
     4
100
AcDbMText
 10
350.2396840617266
 20
313.7181899060423
 30
0.0
 40
3.0
 41
0.0
 71
     5
 72
     1
  1
1.55
 73
     1
 44
1.0
1001
ACAD
1000
MTEXTBEGIN
1070
    73
1070
     1
1070
    44
1040
1.0
1070
    74
1070
     0
1000
MTEXTEND
  0
POINT
  5
1507
330
1484
100
AcDbEntity
  8
Defpoints
 62
     0
100
AcDbPoint
 10
363.2089198598695
 20
313.1390819755056
 30
0.0
  0
POINT
  5
1508
330
1484
100
AcDbEntity
  8
Defpoints
 62
     0
100
AcDbPoint
 10
360.1146840617266
 20
313.1390819755056
 30
0.0
  0
POINT
  5
1509
330
1484
100
AcDbEntity
  8
Defpoints
 62
     0
100
AcDbPoint
 10
360.1146840617266
 20
311.5931899060423
 30
0.0
  0
ENDBLK
  5
1486
330
1484
100
AcDbEntity
  8
0
100
AcDbBlockEnd
  0
BLOCK
  5
1493
330
1492
100
AcDbEntity
  8
0
100
AcDbBlockBegin
  2
*D23
 70
     1
 10
0.0
 20
0.0
 30
0.0
  3
*D23
  1

  0
LINE
  5
150A
330
1492
100
AcDbEntity
  8
0
 62
     0
370
    -2
100
AcDbLine
 10
364.938051467955
 20
307.4329922596592
 30
0.0
 11
364.938051467955
 21
305.1599045972919
 31
0.0
  0
LINE
  5
150B
330
1492
100
AcDbEntity
  8
0
 62
     0
370
    -2
100
AcDbLine
 10
360.9337465147632
 20
307.4329922596592
 30
0.0
 11
360.9337465147632
 21
305.1599045972919
 31
0.0
  0
LINE
  5
150C
330
1492
100
AcDbEntity
  8
0
 62
     0
370
    -2
100
AcDbLine
 10
367.438051467955
 20
306.4099045972919
 30
0.0
 11
369.938051467955
 21
306.4099045972919
 31
0.0
  0
LINE
  5
150D
330
1492
100
AcDbEntity
  8
0
 62
     0
370
    -2
100
AcDbLine
 10
358.4337465147632
 20
306.4099045972919
 30
0.0
 11
350.1004131814298
 21
306.4099045972919
 31
0.0
  0
LINE
  5
150E
330
1492
100
AcDbEntity
  8
0
 62
     0
370
    -2
100
AcDbLine
 10
364.938051467955
 20
306.4099045972919
 30
0.0
 11
360.9337465147632
 21
306.4099045972919
 31
0.0
  0
INSERT
  5
150F
330
1492
100
AcDbEntity
  8
0
 62
     0
370
    -2
100
AcDbBlockReference
  2
_Open30
 10
364.938051467955
 20
306.4099045972919
 30
0.0
 41
2.5
 42
2.5
 43
2.5
 50
180.0
  0
INSERT
  5
1510
330
1492
100
AcDbEntity
  8
0
 62
     0
370
    -2
100
AcDbBlockReference
  2
_Open30
 10
360.9337465147632
 20
306.4099045972919
 30
0.0
 41
2.5
 42
2.5
 43
2.5
  0
MTEXT
  5
1511
330
1492
100
AcDbEntity
  8
0
 62
     4
100
AcDbMText
 10
352.5587465147632
 20
308.0349045972919
 30
0.0
 40
2.0
 41
0.0
 71
     5
 72
     1
  1
0.8
  7
高2
 73
     1
 44
1.0
1001
ACAD
1000
MTEXTBEGIN
1070
    73
1070
     1
1070
    44
1040
1.0
1070
    74
1070
     0
1000
MTEXTEND
  0
POINT
  5
1512
330
1492
100
AcDbEntity
  8
Defpoints
 62
     0
100
AcDbPoint
 10
364.938051467955
 20
307.6829922596592
 30
0.0
  0
POINT
  5
1513
330
1492
100
AcDbEntity
  8
Defpoints
 62
     0
100
AcDbPoint
 10
360.9337465147632
 20
307.6829922596592
 30
0.0
  0
POINT
  5
1514
330
1492
100
AcDbEntity
  8
Defpoints
 62
     0
100
AcDbPoint
 10
360.9337465147632
 20
306.4099045972919
 30
0.0
  0
ENDBLK
  5
1494
330
1492
100
AcDbEntity
  8
0
100
AcDbBlockEnd
  0
BLOCK
  5
14A1
330
14A0
100
AcDbEntity
  8
0
100
AcDbBlockBegin
  2
*D24
 70
     1
 10
0.0
 20
0.0
 30
0.0
  3
*D24
  1

  0
LINE
  5
1515
330
14A0
100
AcDbEntity
  8
0
 62
     0
370
    -2
100
AcDbLine
 10
364.8470447659427
 20
302.1587722916275
 30
0.0
 11
364.8470447659427
 21
300.3403587841711
 31
0.0
  0
LINE
  5
1516
330
14A0
100
AcDbEntity
  8
0
 62
     0
370
    -2
100
AcDbLine
 10
360.1146840617266
 20
302.1587722916275
 30
0.0
 11
360.1146840617266
 21
300.3403587841711
 31
0.0
  0
LINE
  5
1517
330
14A0
100
AcDbEntity
  8
0
 62
     0
370
    -2
100
AcDbLine
 10
367.3470447659427
 20
301.5903587841711
 30
0.0
 11
369.8470447659427
 21
301.5903587841711
 31
0.0
  0
LINE
  5
1518
330
14A0
100
AcDbEntity
  8
0
 62
     0
370
    -2
100
AcDbLine
 10
357.6146840617266
 20
301.5903587841711
 30
0.0
 11
342.8646840617266
 21
301.5903587841711
 31
0.0
  0
LINE
  5
1519
330
14A0
100
AcDbEntity
  8
0
 62
     0
370
    -2
100
AcDbLine
 10
364.8470447659427
 20
301.5903587841711
 30
0.0
 11
360.1146840617266
 21
301.5903587841711
 31
0.0
  0
INSERT
  5
151A
330
14A0
100
AcDbEntity
  8
0
 62
     0
370
    -2
100
AcDbBlockReference
  2
_Open30
 10
364.8470447659427
 20
301.5903587841711
 30
0.0
 41
2.5
 42
2.5
 43
2.5
 50
180.0
  0
INSERT
  5
151B
330
14A0
100
AcDbEntity
  8
0
 62
     0
370
    -2
100
AcDbBlockReference
  2
_Open30
 10
360.1146840617266
 20
301.5903587841711
 30
0.0
 41
2.5
 42
2.5
 43
2.5
  0
MTEXT
  5
151C
330
14A0
100
AcDbEntity
  8
0
 62
     4
100
AcDbMText
 10
348.9896840617266
 20
303.7153587841711
 30
0.0
 40
3.0
 41
0.0
 71
     5
 72
     1
  1
18.93
 73
     1
 44
1.0
1001
ACAD
1000
MTEXTBEGIN
1070
    73
1070
     1
1070
    44
1040
1.0
1070
    74
1070
     0
1000
MTEXTEND
  0
POINT
  5
151D
330
14A0
100
AcDbEntity
  8
Defpoints
 62
     0
100
AcDbPoint
 10
364.8470447659427
 20
302.4087722916275
 30
0.0
  0
POINT
  5
151E
330
14A0
100
AcDbEntity
  8
Defpoints
 62
     0
100
AcDbPoint
 10
360.1146840617266
 20
302.4087722916275
 30
0.0
  0
POINT
  5
151F
330
14A0
100
AcDbEntity
  8
Defpoints
 62
     0
100
AcDbPoint
 10
360.1146840617266
 20
301.5903587841711
 30
0.0
  0
ENDBLK
  5
14A2
330
14A0
100
AcDbEntity
  8
0
100
AcDbBlockEnd
  0
BLOCK
  5
14AF
330
14AE
100
AcDbEntity
  8
0
100
AcDbBlockBegin
  2
*D25
 70
     1
 10
0.0
 20
0.0
 30
0.0
  3
*D25
  1

  0
LINE
  5
1520
330
14AE
100
AcDbEntity
  8
0
 62
     0
370
    -2
100
AcDbLine
 10
362.0426179148044
 20
297.1029320850377
 30
0.0
 11
362.0426179148044
 21
294.7930110081622
 31
0.0
  0
LINE
  5
1521
330
14AE
100
AcDbEntity
  8
0
 62
     0
370
    -2
100
AcDbLine
 10
357.4539427126565
 20
297.1029320850377
 30
0.0
 11
357.4539427126565
 21
294.7930110081622
 31
0.0
  0
LINE
  5
1522
330
14AE
100
AcDbEntity
  8
0
 62
     0
370
    -2
100
AcDbLine
 10
364.5426179148044
 20
296.0430110081622
 30
0.0
 11
367.0426179148044
 21
296.0430110081622
 31
0.0
  0
LINE
  5
1523
330
14AE
100
AcDbEntity
  8
0
 62
     0
370
    -2
100
AcDbLine
 10
354.9539427126565
 20
296.0430110081622
 30
0.0
 11
340.2039427126565
 21
296.0430110081622
 31
0.0
  0
LINE
  5
1524
330
14AE
100
AcDbEntity
  8
0
 62
     0
370
    -2
100
AcDbLine
 10
362.0426179148044
 20
296.0430110081622
 30
0.0
 11
357.4539427126565
 21
296.0430110081622
 31
0.0
  0
INSERT
  5
1525
330
14AE
100
AcDbEntity
  8
0
 62
     0
370
    -2
100
AcDbBlockReference
  2
_Open30
 10
362.0426179148044
 20
296.0430110081622
 30
0.0
 41
2.5
 42
2.5
 43
2.5
 50
180.0
  0
INSERT
  5
1526
330
14AE
100
AcDbEntity
  8
0
 62
     0
370
    -2
100
AcDbBlockReference
  2
_Open30
 10
357.4539427126565
 20
296.0430110081622
 30
0.0
 41
2.5
 42
2.5
 43
2.5
  0
MTEXT
  5
1527
330
14AE
100
AcDbEntity
  8
0
 62
     4
100
AcDbMText
 10
346.3289427126565
 20
298.1680110081622
 30
0.0
 40
3.0
 41
0.0
 71
     5
 72
     1
  1
13.77
 73
     1
 44
1.0
1001
ACAD
1000
MTEXTBEGIN
1070
    73
1070
     1
1070
    44
1040
1.0
1070
    74
1070
     0
1000
MTEXTEND
  0
POINT
  5
1528
330
14AE
100
AcDbEntity
  8
Defpoints
 62
     0
100
AcDbPoint
 10
362.0426179148044
 20
297.3529320850378
 30
0.0
  0
POINT
  5
1529
330
14AE
100
AcDbEntity
  8
Defpoints
 62
     0
100
AcDbPoint
 10
357.4539427126565
 20
297.3529320850378
 30
0.0
  0
POINT
  5
152A
330
14AE
100
AcDbEntity
  8
Defpoints
 62
     0
100
AcDbPoint
 10
357.4539427126565
 20
296.0430110081622
 30
0.0
  0
ENDBLK
  5
14B0
330
14AE
100
AcDbEntity
  8
0
100
AcDbBlockEnd
  0
BLOCK
  5
14BD
330
14BC
100
AcDbEntity
  8
0
100
AcDbBlockBegin
  2
*D26
 70
     1
 10
0.0
 20
0.0
 30
0.0
  3
*D26
  1

  0
LINE
  5
152B
330
14BC
100
AcDbEntity
  8
0
 62
     0
370
    -2
100
AcDbLine
 10
354.9463350816541
 20
328.0324234033121
 30
0.0
 11
354.9463350816541
 21
335.4289568812498
 31
0.0
  0
LINE
  5
152C
330
14BC
100
AcDbEntity
  8
0
 62
     0
370
    -2
100
AcDbLine
 10
345.0078607121641
 20
328.0324234033121
 30
0.0
 11
345.0078607121641
 21
335.4289568812498
 31
0.0
  0
LINE
  5
152D
330
14BC
100
AcDbEntity
  8
0
 62
     0
370
    -2
100
AcDbLine
 10
352.4463350816541
 20
334.1789568812499
 30
0.0
 11
347.5078607121641
 21
334.1789568812499
 31
0.0
  0
INSERT
  5
152E
330
14BC
100
AcDbEntity
  8
0
 62
     0
370
    -2
100
AcDbBlockReference
  2
_Open30
 10
354.9463350816541
 20
334.1789568812499
 30
0.0
 41
2.5
 42
2.5
 43
2.5
  0
INSERT
  5
152F
330
14BC
100
AcDbEntity
  8
0
 62
     0
370
    -2
100
AcDbBlockReference
  2
_Open30
 10
345.0078607121641
 20
334.1789568812499
 30
0.0
 41
2.5
 42
2.5
 43
2.5
 50
180.0
  0
MTEXT
  5
1530
330
14BC
100
AcDbEntity
  8
0
 62
     4
100
AcDbMText
 10
349.9770978969091
 20
337.2539568812499
 30
0.0
 40
3.0
 41
0.0
 71
     5
 72
     1
  1
9.94\H0.7X;\S+0^ -0.02;
 73
     1
 44
1.0
1001
ACAD
1000
MTEXTBEGIN
1070
    73
1070
     1
1070
    44
1040
1.0
1070
    74
1070
     0
1000
MTEXTEND
  0
POINT
  5
1531
330
14BC
100
AcDbEntity
  8
Defpoints
 62
     0
100
AcDbPoint
 10
354.9463350816541
 20
327.7824234033121
 30
0.0
  0
POINT
  5
1532
330
14BC
100
AcDbEntity
  8
Defpoints
 62
     0
100
AcDbPoint
 10
345.0078607121641
 20
327.7824234033121
 30
0.0
  0
POINT
  5
1533
330
14BC
100
AcDbEntity
  8
Defpoints
 62
     0
100
AcDbPoint
 10
345.0078607121641
 20
334.1789568812499
 30
0.0
  0
ENDBLK
  5
14BE
330
14BC
100
AcDbEntity
  8
0
100
AcDbBlockEnd
  0
ENDSEC
  0
SECTION
  2
ENTITIES
  0
LINE
  5
1B6
330
6B
100
AcDbEntity
  8
0
100
AcDbLine
 10
309.1245468758996
 20
109.0035047806327
 30
0.0
 11
309.1245468758995
 21
37.50350478063275
 31
0.0
  0
LINE
  5
209
330
6B
100
AcDbEntity
  8
0
100
AcDbLine
 10
299.3478568055074
 20
110.0170292998375
 30
0.0
 11
346.858428919053
 21
110.0170292998375
 31
0.0
  0
TEXT
  5
2E8
330
6B
100
AcDbEntity
  8
0
 62
     3
100
AcDbText
 10
342.446443
 20
-3.378208
 30
0.0
 40
3.2
  1
2013.09.19
  7
高3.2
100
AcDbText
  0
TEXT
  5
2FD
330
6B
100
AcDbEntity
  8
0
 62
     3
100
AcDbText
 10
286.0072518758994
 20
43.50350478063274
 30
0.0
 40
3.2
  1
適合バッテリー
 41
0.8
  7
高3.2
100
AcDbText
  0
TEXT
  5
2FE
330
6B
100
AcDbEntity
  8
0
 62
     3
100
AcDbText
 10
286.0072518758995
 20
82.00350478063274
 30
0.0
 40
3.2
  1
出　力　電　流
 41
0.8
  7
高3.2
100
AcDbText
  0
TEXT
  5
302
330
6B
100
AcDbEntity
  8
0
 62
     3
100
AcDbText
 10
286.0072518758995
 20
87.50350478063273
 30
0.0
 40
3.2
  1
入　力　保　護
 41
0.8
  7
高3.2
100
AcDbText
  0
TEXT
  5
306
330
6B
100
AcDbEntity
  8
0
 62
     3
100
AcDbText
 10
286.0072518758995
 20
76.50350478063273
 30
0.0
 40
3.2
  1
ブースト時電流
 41
0.8
  7
高3.2
100
AcDbText
  0
TEXT
  5
307
330
6B
100
AcDbEntity
  8
0
 62
     3
100
AcDbText
 10
286.0072518758995
 20
65.50350478063274
 30
0.0
 40
3.2
  1
検　出　回　路
 41
0.8
  7
高3.2
100
AcDbText
  0
TEXT
  5
30F
330
6B
100
AcDbEntity
  8
0
 62
     3
100
AcDbText
 10
286.0072518758995
 20
54.50350478063274
 30
0.0
 40
3.2
  1
入力　コード
 41
0.8
  7
高3.2
100
AcDbText
  0
TEXT
  5
314
330
6B
100
AcDbEntity
  8
0
 62
     3
100
AcDbText
 10
286.0072518758995
 20
49.00350478063272
 30
0.0
 40
3.2
  1
出力　コード
 41
0.8
  7
高3.2
100
AcDbText
  0
TEXT
  5
319
330
6B
100
AcDbEntity
  8
0
 62
     3
100
AcDbText
 10
286.0072518758995
 20
38.00350478063275
 30
0.0
 40
3.2
  1
質　　　　　量
 41
0.8
  7
高3.2
100
AcDbText
  0
LINE
  5
31B
330
6B
100
AcDbEntity
  8
0
 62
     3
100
AcDbLine
 10
361.0249393058615
 20
109.0035047806327
 30
0.0
 11
361.0249393058615
 21
37.50350478063275
 31
0.0
  0
LINE
  5
31C
330
6B
100
AcDbEntity
  8
0
 62
     3
100
AcDbLine
 10
284.5072518758994
 20
109.0035047806327
 30
0.0
 11
284.5072518758994
 21
37.50350478063275
 31
0.0
  0
TEXT
  5
31D
330
6B
100
AcDbEntity
  8
0
 62
     3
100
AcDbText
 10
310.6245468758995
 20
65.50350478063274
 30
0.0
 40
3.2
  1
ピーク電圧検出後タイマーOFF
 41
0.8
  7
高3.2
100
AcDbText
  0
TEXT
  5
31F
330
6B
100
AcDbEntity
  8
0
 62
     3
100
AcDbText
 10
310.6245468758995
 20
54.50350478063274
 30
0.0
 40
3.2
  1
VCTFK 1.25sqx2cx2m
 41
0.8
  7
高3.2
100
AcDbText
  0
TEXT
  5
320
330
6B
100
AcDbEntity
  8
0
 62
     3
100
AcDbText
 10
310.6245468758995
 20
49.00350478063272
 30
0.0
 40
3.2
  1
8sqx2m(赤、黒)クリップ付き
 41
0.8
  7
高3.2
100
AcDbText
  0
TEXT
  5
321
330
6B
100
AcDbEntity
  8
0
 62
     3
100
AcDbText
 10
310.6245468758995
 20
38.00350478063275
 30
0.0
 40
3.2
  1
13.3kg
 41
0.8
  7
高3.2
100
AcDbText
  0
TEXT
  5
323
330
6B
100
AcDbEntity
  8
0
 62
     3
100
AcDbText
 10
310.6245468758995
 20
43.50350478063274
 30
0.0
 40
3.2
  1
DC12/24V(26～120Ah)
 41
0.8
  7
高3.2
100
AcDbText
  0
LINE
  5
324
330
6B
100
AcDbEntity
  8
0
 62
     3
100
AcDbLine
 10
102.7238849919441
 20
75.51126767676769
 30
0.0
 11
102.7238849919441
 21
-14.4155
 31
0.0
  0
CIRCLE
  5
32B
330
6B
100
AcDbEntity
  8
0
100
AcDbCircle
 10
217.372684758655
 20
247.6106160012112
 30
0.0
 40
5.0
  0
TEXT
  5
32C
330
6B
100
AcDbEntity
  8
0
 62
     4
100
AcDbText
 10
216.3373424709489
 20
244.5937567648025
 30
0.0
 40
6.299999999999998
  1
1
  7
高6.3
100
AcDbText
  0
CIRCLE
  5
333
330
6B
100
AcDbEntity
  8
0
100
AcDbCircle
 10
258.2240230746224
 20
247.6106160012112
 30
0.0
 40
5.0
  0
TEXT
  5
334
330
6B
100
AcDbEntity
  8
0
 62
     4
100
AcDbText
 10
256.1466070006147
 20
244.5806952711642
 30
0.0
 40
6.299999999999998
  1
4
  7
高6.3
100
AcDbText
  0
CIRCLE
  5
33B
330
6B
100
AcDbEntity
  8
0
100
AcDbCircle
 10
161.5678237258807
 20
247.6106160012112
 30
0.0
 40
5.0
  0
TEXT
  5
33C
330
6B
100
AcDbEntity
  8
0
 62
     4
100
AcDbText
 10
36.21935728519975
 20
245.3520751366303
 30
0.0
 40
4.5
  1
14
  7
高4.5
100
AcDbText
  0
CIRCLE
  5
34B
330
6B
100
AcDbEntity
  8
0
100
AcDbCircle
 10
135.2658868170506
 20
247.6106160012112
 30
0.0
 40
5.0
  0
TEXT
  5
34C
330
6B
100
AcDbEntity
  8
0
 62
     4
100
AcDbText
 10
333.0138184328844
 20
146.9692676272494
 30
0.0
 40
4.5
  1
17
  7
高4.5
100
AcDbText
  0
CIRCLE
  5
353
330
6B
100
AcDbEntity
  8
0
100
AcDbCircle
 10
23.1879912998802
 20
247.6106160012112
 30
0.0
 40
5.0
  0
TEXT
  5
354
330
6B
100
AcDbEntity
  8
0
 62
     4
100
AcDbText
 10
21.1105752258725
 20
244.5806952711642
 30
0.0
 40
6.299999999999998
  1
3
  7
高6.3
100
AcDbText
  0
CIRCLE
  5
35B
330
6B
100
AcDbEntity
  8
0
100
AcDbCircle
 10
39.15124194145892
 20
247.6106160012112
 30
0.0
 40
5.0
  0
TEXT
  5
35C
330
6B
100
AcDbEntity
  8
0
 62
     4
100
AcDbText
 10
132.9910477521084
 20
244.456656693799
 30
0.0
 40
6.299999999999998
  1
6
  7
高6.3
100
AcDbText
  0
CIRCLE
  5
363
330
6B
100
AcDbEntity
  8
0
100
AcDbCircle
 10
84.94321173003255
 20
247.6106160012112
 30
0.0
 40
5.0
  0
TEXT
  5
364
330
6B
100
AcDbEntity
  8
0
 62
     4
100
AcDbText
 10
82.34518383783779
 20
147.1272047357035
 30
0.0
 40
4.5
  1
12
  7
高4.5
100
AcDbText
  0
CIRCLE
  5
383
330
6B
100
AcDbEntity
  8
0
100
AcDbCircle
 10
205.0713720940089
 20
149.2847767379709
 30
0.0
 40
5.0
  0
TEXT
  5
384
330
6B
100
AcDbEntity
  8
0
 62
     4
100
AcDbText
 10
202.9939560200012
 20
146.2548560079238
 30
0.0
 40
6.299999999999998
  1
5
  7
高6.3
100
AcDbText
  0
CIRCLE
  5
38B
330
6B
100
AcDbEntity
  8
0
100
AcDbCircle
 10
188.6438076363733
 20
149.2847767379709
 30
0.0
 40
5.0
  0
TEXT
  5
38C
330
6B
100
AcDbEntity
  8
0
 62
     4
100
AcDbText
 10
186.5663915623656
 20
146.2548560079238
 30
0.0
 40
6.299999999999998
  1
2
  7
高6.3
100
AcDbText
  0
CIRCLE
  5
39B
330
6B
100
AcDbEntity
  8
0
100
AcDbCircle
 10
241.7730781981709
 20
149.2847767379709
 30
0.0
 40
5.0
  0
TEXT
  5
39C
330
6B
100
AcDbEntity
  8
0
 62
     4
100
AcDbText
 10
98.77510448825844
 20
147.0256643256979
 30
0.0
 40
4.5
  1
13
  7
高4.5
100
AcDbText
  0
CIRCLE
  5
3A3
330
6B
100
AcDbEntity
  8
0
100
AcDbCircle
 10
335.9013874864663
 20
149.2847767379709
 30
0.0
 40
5.0
  0
TEXT
  5
3A4
330
6B
100
AcDbEntity
  8
0
 62
     4
100
AcDbText
 10
238.8032752766226
 20
147.0544042762532
 30
0.0
 40
4.5
  1
16
  7
高4.5
100
AcDbText
  0
TEXT
  5
3A5
330
6B
100
AcDbEntity
  8
0
 62
     3
100
AcDbText
 10
329.2640540548187
 20
-13.3754285885484
 30
0.0
 40
6.299999999999998
  1
ANB-1224S
 41
0.8
  7
高6.3
100
AcDbText
  0
LINE
  5
3A9
330
6B
100
AcDbEntity
  8
0
 62
     3
100
AcDbLine
 10
351.447637
 20
2.250223
 30
0.0
 11
351.447637
 21
25.250223
 31
0.0
  0
LINE
  5
3AB
330
6B
100
AcDbEntity
  8
0
 62
     3
100
AcDbLine
 10
298.394027
 20
-4.749776999999999
 30
0.0
 11
298.394027
 21
9.250223
 31
0.0
  0
TEXT
  5
3AD
330
6B
100
AcDbEntity
  8
0
 62
     3
100
AcDbText
 10
327.457955
 20
21.455339
 30
0.0
 40
2.0
  1
A
 41
0.7
100
AcDbText
  0
TEXT
  5
3AE
330
6B
100
AcDbEntity
  8
0
 62
     3
100
AcDbText
 10
329.993241
 20
21.455339
 30
0.0
 40
2.0
  1
P
 41
0.7
100
AcDbText
  0
TEXT
  5
3AF
330
6B
100
AcDbEntity
  8
0
 62
     3
100
AcDbText
 10
332.528527
 20
21.455339
 30
0.0
 40
2.0
  1
P
 41
0.7
100
AcDbText
  0
TEXT
  5
3B0
330
6B
100
AcDbEntity
  8
0
 62
     3
100
AcDbText
 10
335.063813
 20
21.455339
 30
0.0
 40
2.0
  1
D
 41
0.7
100
AcDbText
  0
TEXT
  5
3B1
330
6B
100
AcDbEntity
  8
0
 62
     3
100
AcDbText
 10
340.432496
 20
21.455339
 30
0.0
 40
2.0
  1
C
 41
0.7
100
AcDbText
  0
TEXT
  5
3B2
330
6B
100
AcDbEntity
  8
0
 62
     3
100
AcDbText
 10
342.967783
 20
21.455339
 30
0.0
 40
2.0
  1
H
 41
0.7
100
AcDbText
  0
TEXT
  5
3B3
330
6B
100
AcDbEntity
  8
0
 62
     3
100
AcDbText
 10
345.503069
 20
21.455339
 30
0.0
 40
2.0
  1
C
 41
0.7
100
AcDbText
  0
TEXT
  5
3B4
330
6B
100
AcDbEntity
  8
0
 62
     3
100
AcDbText
 10
348.0383549999999
 20
21.455339
 30
0.0
 40
2.0
  1
K
 41
0.7
100
AcDbText
  0
TEXT
  5
3B5
330
6B
100
AcDbEntity
  8
0
 62
     3
100
AcDbText
 10
353.712322
 20
21.455339
 30
0.0
 40
2.0
  1
DESN
 41
1.216762999999998
100
AcDbText
  0
TEXT
  5
3B6
330
6B
100
AcDbEntity
  8
0
 62
     3
100
AcDbText
 10
268.705963
 20
-7.891159
 30
0.0
 40
2.0
  1
NICHIDO IND.CO.LTD
 41
1.274876
100
AcDbText
  0
LINE
  5
3B7
330
6B
100
AcDbEntity
  8
0
 62
     3
100
AcDbLine
 10
279.088992
 20
25.25022300000001
 30
0.0
 11
279.088992
 21
2.250223
 31
0.0
  0
LINE
  5
3B8
330
6B
100
AcDbEntity
  8
0
 62
     3
100
AcDbLine
 10
325.447637
 20
25.250223
 30
0.0
 11
325.447637
 21
-14.4155
 31
0.0
  0
LINE
  5
3BD
330
6B
100
AcDbEntity
  8
0
 62
     3
100
AcDbLine
 10
338.447637
 20
25.250223
 30
0.0
 11
338.447637
 21
-4.749776999999999
 31
0.0
  0
TEXT
  5
3BE
330
6B
100
AcDbEntity
  8
0
 62
     3
100
AcDbText
 10
326.560081
 20
-3.885091
 30
0.0
 40
3.2
  1
作成日
 41
1.017225999999997
100
AcDbText
  0
LINE
  5
3BF
330
6B
100
AcDbEntity
  8
0
 62
     3
100
AcDbLine
 10
377.147
 20
25.250223
 30
0.0
 11
265.843558
 21
25.250223
 31
0.0
  0
LINE
  5
3C0
330
6B
100
AcDbEntity
  8
0
 62
     3
100
AcDbLine
 10
364.447637
 20
2.250223
 30
0.0
 11
364.447637
 21
25.250223
 31
0.0
  0
TEXT
  5
3C1
330
6B
100
AcDbEntity
  8
0
 62
     3
100
AcDbText
 10
367.77144
 20
21.541157
 30
0.0
 40
1.8
  1
D
 41
0.666667
100
AcDbText
  0
TEXT
  5
3C2
330
6B
100
AcDbEntity
  8
0
 62
     3
100
AcDbText
 10
370.588068
 20
21.541157
 30
0.0
 40
1.8
  1
E
 41
0.666667
100
AcDbText
  0
TEXT
  5
3C3
330
6B
100
AcDbEntity
  8
0
 62
     3
100
AcDbText
 10
373.404696
 20
21.541157
 30
0.0
 40
1.8
  1
F
 41
0.666667
100
AcDbText
  0
TEXT
  5
3C4
330
6B
100
AcDbEntity
  8
0
 62
     3
100
AcDbText
 10
367.77144
 20
17.548604
 30
0.0
 40
3.2
  1
製図
 41
1.076369
100
AcDbText
  0
LINE
  5
3C5
330
6B
100
AcDbEntity
  8
0
 62
     3
100
AcDbLine
 10
265.843558
 20
25.250223
 30
0.0
 11
265.843558
 21
-14.4155
 31
0.0
  0
TEXT
  5
3C6
330
6B
100
AcDbEntity
  8
0
 62
     3
100
AcDbText
 10
267.22021
 20
-14.083035
 30
0.0
 40
5.0
  1
日動工業株式会社
 41
0.833333
100
AcDbText
  0
LINE
  5
3C7
330
6B
100
AcDbEntity
  8
0
 62
     3
100
AcDbLine
 10
308.725961
 20
9.250223
 30
0.0
 11
308.725961
 21
-14.4155
 31
0.0
  0
LINE
  5
3C8
330
6B
100
AcDbEntity
  8
0
 62
     3
100
AcDbLine
 10
308.725961
 20
-9.582639
 30
0.0
 11
325.447637
 21
-9.582639
 31
0.0
  0
TEXT
  5
3C9
330
6B
100
AcDbEntity
  8
0
 62
     3
100
AcDbText
 10
309.312563
 20
-8.766208
 30
0.0
 40
3.2
  1
出図コード
 41
0.8356860000000001
100
AcDbText
  0
LINE
  5
3CB
330
6B
100
AcDbEntity
  8
0
 62
     3
100
AcDbLine
 10
265.843558
 20
-4.749776999999999
 30
0.0
 11
377.147
 21
-4.749776999999999
 31
0.0
  0
LINE
  5
3CD
330
6B
100
AcDbEntity
  8
0
 62
     3
100
AcDbLine
 10
265.843558
 20
16.250223
 30
0.0
 11
377.147
 21
16.250223
 31
0.0
  0
LINE
  5
3D3
330
6B
100
AcDbEntity
  8
0
 62
     3
100
AcDbLine
 10
265.843558
 20
9.250223
 30
0.0
 11
325.447637
 21
9.250223
 31
0.0
  0
LINE
  5
3D9
330
6B
100
AcDbEntity
  8
0
 62
     3
100
AcDbLine
 10
265.843558
 20
2.250223
 30
0.0
 11
377.147
 21
2.250223
 31
0.0
  0
TEXT
  5
3DA
330
6B
100
AcDbEntity
  8
0
 62
     3
100
AcDbText
 10
309.180015
 20
-13.84953592668705
 30
0.0
 40
3.2
  1
ZK-A3X
 41
0.8112849999999999
100
AcDbText
  0
TEXT
  5
3DB
330
6B
100
AcDbEntity
  8
0
 62
     3
100
AcDbText
 10
267.660954
 20
21.419748
 30
0.0
 40
2.0
  1
CONPONENTS
 41
0.5331600000000001
100
AcDbText
  0
TEXT
  5
3DC
330
6B
100
AcDbEntity
  8
0
 62
     3
100
AcDbText
 10
267.311228
 20
2.487572
 30
0.0
 40
3.0
  1
材
 41
0.833333
100
AcDbText
  0
TEXT
  5
3DD
330
6B
100
AcDbEntity
  8
0
 62
     3
100
AcDbText
 10
274.84687
 20
2.487572
 30
0.0
 40
3.0
  1
質
 41
0.833333
100
AcDbText
  0
TEXT
  5
3DE
330
6B
100
AcDbEntity
  8
0
 62
     3
100
AcDbText
 10
267.399298
 20
13.112096
 30
0.0
 40
2.0
  1
MODEL
 41
1.031072999999999
100
AcDbText
  0
TEXT
  5
3DF
330
6B
100
AcDbEntity
  8
0
 62
     3
100
AcDbText
 10
267.311228
 20
6.16988
 30
0.0
 40
2.0
  1
MATERIAL
 41
0.659278
100
AcDbText
  0
TEXT
  5
3E0
330
6B
100
AcDbEntity
  8
0
 62
     3
100
AcDbText
 10
298.618508
 20
2.487572
 30
0.0
 40
3.0
  1
備
 41
0.833333
100
AcDbText
  0
TEXT
  5
3E1
330
6B
100
AcDbEntity
  8
0
 62
     3
100
AcDbText
 10
305.35151
 20
2.487572
 30
0.0
 40
3.0
  1
考
 41
0.833333
100
AcDbText
  0
TEXT
  5
3E2
330
6B
100
AcDbEntity
  8
0
 62
     3
100
AcDbText
 10
298.8726645572981
 20
6.16988
 30
0.0
 40
2.0
  1
REMARKS
 41
0.675794
100
AcDbText
  0
TEXT
  5
3E3
330
6B
100
AcDbEntity
  8
0
 62
     3
100
AcDbText
 10
268.900957
 20
-0.750241
 30
0.0
 40
2.0
  1
3AD
 41
1.42614
100
AcDbText
  0
TEXT
  5
3E4
330
6B
100
AcDbEntity
  8
0
 62
     3
100
AcDbText
 10
278.211937
 20
-0.584507
 30
0.0
 40
2.0
  1
ANGLE
 41
1.669883999999995
100
AcDbText
  0
TEXT
  5
3E5
330
6B
100
AcDbEntity
  8
0
 62
     3
100
AcDbText
 10
299.145824
 20
-0.9613479999999999
 30
0.0
 40
2.0
  1
SCALE
 41
0.7719630000000001
100
AcDbText
  0
TEXT
  5
3E6
330
6B
100
AcDbEntity
  8
0
 62
     3
100
AcDbText
 10
268.587087
 20
-4.749776999999999
 30
0.0
 40
3.0
  1
第
 41
0.833333
100
AcDbText
  0
TEXT
  5
3E7
330
6B
100
AcDbEntity
  8
0
 62
     3
100
AcDbText
 10
276.373937
 20
-4.749776999999999
 30
0.0
 40
3.0
  1
三
 41
0.833333
100
AcDbText
  0
TEXT
  5
3E8
330
6B
100
AcDbEntity
  8
0
 62
     3
100
AcDbText
 10
284.160787
 20
-4.749776999999999
 30
0.0
 40
3.0
  1
角
 41
0.833333
100
AcDbText
  0
TEXT
  5
3E9
330
6B
100
AcDbEntity
  8
0
 62
     3
100
AcDbText
 10
291.947637
 20
-4.749776999999999
 30
0.0
 40
3.0
  1
法
 41
0.833333
100
AcDbText
  0
TEXT
  5
3EA
330
6B
100
AcDbEntity
  8
0
 62
     3
100
AcDbText
 10
299.009029
 20
-4.461348
 30
0.0
 40
3.0
  1
尺
 41
0.833333
100
AcDbText
  0
TEXT
  5
3EB
330
6B
100
AcDbEntity
  8
0
 62
     3
100
AcDbText
 10
305.74203
 20
-4.461348
 30
0.0
 40
3.0
  1
度
 41
0.833333
100
AcDbText
  0
TEXT
  5
3EC
330
6B
100
AcDbEntity
  8
0
 62
     3
100
AcDbText
 10
328.325301
 20
17.707951
 30
0.0
 40
3.0
  1
承認
 41
1.089472999999999
100
AcDbText
  0
TEXT
  5
3ED
330
6B
100
AcDbEntity
  8
0
 62
     3
100
AcDbText
 10
341.568181
 20
17.650223
 30
0.0
 40
3.0
  1
検図
 41
0.931761
100
AcDbText
  0
TEXT
  5
3EE
330
6B
100
AcDbEntity
  8
0
 62
     3
100
AcDbText
 10
354.568578
 20
17.650223
 30
0.0
 40
3.0
  1
設
 41
0.833333
100
AcDbText
  0
TEXT
  5
3EF
330
6B
100
AcDbEntity
  8
0
 62
     3
100
AcDbText
 10
359.058446
 20
17.650223
 30
0.0
 40
3.0
  1
計
 41
0.833333
100
AcDbText
  0
TEXT
  5
3F0
330
6B
100
AcDbEntity
  8
0
 62
     3
100
AcDbText
 10
267.731061
 20
17.822775
 30
0.0
 40
3.0
  1
品
 41
0.833333
100
AcDbText
  0
TEXT
  5
3F1
330
6B
100
AcDbEntity
  8
0
 62
     3
100
AcDbText
 10
275.266703
 20
17.822775
 30
0.0
 40
3.0
  1
名
 41
0.833333
100
AcDbText
  0
TEXT
  5
3F2
330
6B
100
AcDbEntity
  8
0
 62
     3
100
AcDbText
 10
267.399298
 20
9.636361365023272
 30
0.0
 40
3.0
  1
型
 41
0.833333
100
AcDbText
  0
TEXT
  5
3F3
330
6B
100
AcDbEntity
  8
0
 62
     3
100
AcDbText
 10
274.947389
 20
9.636361365023272
 30
0.0
 40
3.0
  1
式
 41
0.833333
100
AcDbText
  0
LINE
  5
3F4
330
6B
100
AcDbEntity
  8
0
 62
     3
100
AcDbLine
 10
-30.184002
 20
135.942657
 30
0.0
 11
-32.78207800000001
 21
134.442657
 31
0.0
  0
LINE
  5
3F5
330
6B
100
AcDbEntity
  8
0
 62
     3
100
AcDbLine
 10
-30.184002
 20
135.942657
 30
0.0
 11
-32.78207800000001
 21
137.442657
 31
0.0
  0
LINE
  5
3F6
330
6B
100
AcDbEntity
  8
0
 62
     3
100
AcDbLine
 10
-32.78207800000001
 20
134.442657
 30
0.0
 11
-32.78207800000001
 21
137.442657
 31
0.0
  0
TEXT
  5
3FE
330
6B
100
AcDbEntity
  8
0
 62
     3
100
AcDbText
 10
310.876661
 20
-3.193033999999998
 30
0.0
 40
3.2
  1
FREE
  7
高3.2
100
AcDbText
  0
LINE
  5
3FF
330
6B
100
AcDbEntity
  8
0
 62
     3
100
AcDbLine
 10
-12.853
 20
262.5845
 30
0.0
 11
-12.853
 21
-14.4155
 31
0.0
  0
LINE
  5
400
330
6B
100
AcDbEntity
  8
0
 62
     3
100
AcDbLine
 10
377.147
 20
-14.4155
 30
0.0
 11
377.147
 21
262.5845
 31
0.0
  0
LINE
  5
401
330
6B
100
AcDbEntity
  8
0
 62
     3
100
AcDbLine
 10
-12.853
 20
262.5845
 30
0.0
 11
377.147
 21
262.5845
 31
0.0
  0
LINE
  5
402
330
6B
100
AcDbEntity
  8
0
 62
     3
100
AcDbLine
 10
-12.853
 20
-14.4155
 30
0.0
 11
377.147
 21
-14.4155
 31
0.0
  0
TEXT
  5
403
330
6B
100
AcDbEntity
  8
0
 62
     3
100
AcDbText
 10
281.1900190868014
 20
18.173387
 30
0.0
 40
4.5
  1
ブースター付全自動充電器
 41
0.6
  7
高4.5
100
AcDbText
  0
TEXT
  5
404
330
6B
100
AcDbEntity
  8
0
 62
     3
100
AcDbText
 10
283.519202
 20
10.307994
 30
0.0
 40
4.5
  1
ANB-1224S
  7
高4.5
100
AcDbText
  0
TEXT
  5
410
330
6B
100
AcDbEntity
  8
0
 62
     3
100
AcDbText
 10
286.0072518758995
 20
104.0035047806327
 30
0.0
 40
3.2
  1
型　　　　　式
 41
0.8
  7
高3.2
100
AcDbText
  0
TEXT
  5
411
330
6B
100
AcDbEntity
  8
0
 62
     3
100
AcDbText
 10
286.0072518758995
 20
98.50350478063269
 30
0.0
 40
3.2
  1
入　力　電　圧
 41
0.8
  7
高3.2
100
AcDbText
  0
TEXT
  5
412
330
6B
100
AcDbEntity
  8
0
 62
     3
100
AcDbText
 10
299.3478568055074
 20
110.7684467806327
 30
0.0
 40
4.5
  1
主　　　仕　　　様
  7
高4.5
100
AcDbText
  0
TEXT
  5
413
330
6B
100
AcDbEntity
  8
0
 62
     3
100
AcDbText
 10
310.6245468758995
 20
104.0035047806327
 30
0.0
 40
3.2
  1
ANB-1224S
 41
0.8
  7
高3.2
100
AcDbText
  0
TEXT
  5
414
330
6B
100
AcDbEntity
  8
0
 62
     3
100
AcDbText
 10
310.6245468758995
 20
82.00350478063274
 30
0.0
 40
3.2
  1
4A～12A(切替式)
 41
0.8
  7
高3.2
100
AcDbText
  0
TEXT
  5
415
330
6B
100
AcDbEntity
  8
0
 62
     3
100
AcDbText
 10
310.6245468758995
 20
87.50350478063273
 30
0.0
 40
3.2
  1
サーキットブレーカー　20A
 41
0.8
  7
高3.2
100
AcDbText
  0
TEXT
  5
416
330
6B
100
AcDbEntity
  8
0
 62
     3
100
AcDbText
 10
310.6245468758995
 20
76.50350478063271
 30
0.0
 40
3.2
  1
最大150A(10秒max)
 41
0.8
  7
高3.2
100
AcDbText
  0
TEXT
  5
417
330
6B
100
AcDbEntity
  8
0
 62
     3
100
AcDbText
 10
310.6245468758995
 20
98.50350478063269
 30
0.0
 40
3.2
  1
AC100V 50/60HZ
 41
0.8
  7
高3.2
100
AcDbText
  0
LINE
  5
419
330
6B
100
AcDbEntity
  8
0
 62
     3
100
AcDbLine
 10
284.5072518758994
 20
109.0035047806327
 30
0.0
 11
361.0249393058615
 21
109.0035047806327
 31
0.0
  0
LINE
  5
4C7
330
6B
100
AcDbEntity
  8
0
100
AcDbLine
 10
63.75997660363537
 20
75.51126767676769
 30
0.0
 11
63.75997660363537
 21
-14.4155
 31
0.0
  0
LINE
  5
4C8
330
6B
100
AcDbEntity
  8
0
100
AcDbLine
 10
95.32186515556446
 20
75.51126767676769
 30
0.0
 11
95.32186515556446
 21
-14.4155
 31
0.0
  0
LINE
  5
4C9
330
6B
100
AcDbEntity
  8
0
100
AcDbLine
 10
-4.489363636363632
 20
75.51126767676769
 30
0.0
 11
-4.489363636363632
 21
-14.4155
 31
0.0
  0
LINE
  5
4CA
330
6B
100
AcDbEntity
  8
0
100
AcDbLine
 10
41.75812026624647
 20
75.51126767676769
 30
0.0
 11
41.75812026624649
 21
-14.4155
 31
0.0
  0
TEXT
  5
4CB
330
6B
100
AcDbEntity
  8
0
 62
     3
100
AcDbText
 10
65.2599766036354
 20
26.05167171717172
 30
0.0
 40
3.2
  1
成形品
 41
0.8
  7
高3.2
100
AcDbText
  0
TEXT
  5
4CC
330
6B
100
AcDbEntity
  8
0
 62
     3
100
AcDbText
 10
65.2599766036354
 20
16.06008922558922
 30
0.0
 40
3.2
  1
成形品
 41
0.8
  7
高3.2
100
AcDbText
  0
TEXT
  5
4CD
330
6B
100
AcDbEntity
  8
0
 62
     3
100
AcDbText
 10
65.2599766036354
 20
21.05588047138048
 30
0.0
 40
3.2
  1
成形品
 41
0.8
  7
高3.2
100
AcDbText
  0
TEXT
  5
4CE
330
6B
100
AcDbEntity
  8
0
 62
     3
100
AcDbText
 10
65.25997660363536
 20
41.03904545454545
 30
0.0
 40
3.2
  1
シーソー型
 41
0.8
  7
高3.2
100
AcDbText
  0
TEXT
  5
4CF
330
6B
100
AcDbEntity
  8
0
 62
     3
100
AcDbText
 10
65.25997660363536
 20
46.0348367003367
 30
0.0
 40
3.2
  1
20A
 41
0.8
  7
高3.2
100
AcDbText
  0
TEXT
  5
4D0
330
6B
100
AcDbEntity
  8
0
 62
     3
100
AcDbText
 10
65.2599766036354
 20
11.06429797979798
 30
0.0
 40
3.2
  1
%%c25
 41
0.8
  7
高3.2
100
AcDbText
  0
TEXT
  5
4D1
330
6B
100
AcDbEntity
  8
0
 62
     3
100
AcDbText
 10
65.2599766036354
 20
6.068506734006732
 30
0.0
 40
3.2
  1
焼付塗装仕上げ
 41
0.8
  7
高3.2
100
AcDbText
  0
TEXT
  5
4D2
330
6B
100
AcDbEntity
  8
0
 62
     3
100
AcDbText
 10
65.2599766036354
 20
-3.923917508417502
 30
0.0
 40
3.2
  1
焼付塗装仕上げ
 41
0.8
  7
高3.2
100
AcDbText
  0
TEXT
  5
4D3
330
6B
100
AcDbEntity
  8
0
 62
     3
100
AcDbText
 10
65.2599766036354
 20
1.071873737373737
 30
0.0
 40
3.2
  1
焼付塗装仕上げ
 41
0.8
  7
高3.2
100
AcDbText
  0
TEXT
  5
4D4
330
6B
100
AcDbEntity
  8
0
 62
     3
100
AcDbText
 10
65.2599766036354
 20
-8.919708754208752
 30
0.0
 40
3.2
  1
焼付塗装仕上げ
 41
0.8
  7
高3.2
100
AcDbText
  0
TEXT
  5
4D6
330
6B
100
AcDbEntity
  8
0
 62
     3
100
AcDbText
 10
65.25997660363536
 20
71.01463468013469
 30
0.0
 40
3.2
  1
8sqx2m
 41
0.8
  7
高3.2
100
AcDbText
  0
TEXT
  5
4D7
330
6B
100
AcDbEntity
  8
0
 62
     3
100
AcDbText
 10
65.25997660363536
 20
66.0180016835017
 30
0.0
 40
3.2
  1
1.25sqx2cx2m
 41
0.8
  7
高3.2
100
AcDbText
  0
TEXT
  5
4D8
330
6B
100
AcDbEntity
  8
0
 62
     3
100
AcDbText
 10
96.82186515556448
 20
-8.919708754208752
 30
0.0
 40
3.2
  1
1
 41
0.8
  7
高3.2
100
AcDbText
  0
TEXT
  5
4D9
330
6B
100
AcDbEntity
  8
0
 62
     3
100
AcDbText
 10
96.82186515556448
 20
-3.923917508417506
 30
0.0
 40
3.2
  1
1
 41
0.8
  7
高3.2
100
AcDbText
  0
TEXT
  5
4DA
330
6B
100
AcDbEntity
  8
0
 62
     3
100
AcDbText
 10
96.82186515556448
 20
1.071873737373737
 30
0.0
 40
3.2
  1
1
 41
0.8
  7
高3.2
100
AcDbText
  0
TEXT
  5
4DB
330
6B
100
AcDbEntity
  8
0
 62
     3
100
AcDbText
 10
96.82186515556448
 20
6.068506734006732
 30
0.0
 40
3.2
  1
1
 41
0.8
  7
高3.2
100
AcDbText
  0
TEXT
  5
4DC
330
6B
100
AcDbEntity
  8
0
 62
     3
100
AcDbText
 10
96.82186515556448
 20
11.06429797979798
 30
0.0
 40
3.2
  1
4
 41
0.8
  7
高3.2
100
AcDbText
  0
TEXT
  5
4DD
330
6B
100
AcDbEntity
  8
0
 62
     3
100
AcDbText
 10
96.82186515556448
 20
56.02641919191922
 30
0.0
 40
3.2
  1
1
 41
0.8
  7
高3.2
100
AcDbText
  0
TEXT
  5
4DE
330
6B
100
AcDbEntity
  8
0
 62
     3
100
AcDbText
 10
96.82186515556448
 20
31.04746296296298
 30
0.0
 40
3.2
  1
1
 41
0.8
  7
高3.2
100
AcDbText
  0
TEXT
  5
4DF
330
6B
100
AcDbEntity
  8
0
 62
     3
100
AcDbText
 10
96.82186515556448
 20
41.03904545454546
 30
0.0
 40
3.2
  1
1
 41
0.8
  7
高3.2
100
AcDbText
  0
TEXT
  5
4E0
330
6B
100
AcDbEntity
  8
0
 62
     3
100
AcDbText
 10
96.82186515556448
 20
36.04325420875422
 30
0.0
 40
3.2
  1
1
 41
0.8
  7
高3.2
100
AcDbText
  0
TEXT
  5
4E1
330
6B
100
AcDbEntity
  8
0
 62
     3
100
AcDbText
 10
96.82186515556448
 20
26.05082996632997
 30
0.0
 40
3.2
  1
2
 41
0.8
  7
高3.2
100
AcDbText
  0
TEXT
  5
4E2
330
6B
100
AcDbEntity
  8
0
 62
     3
100
AcDbText
 10
96.82186515556448
 20
16.06008922558922
 30
0.0
 40
3.2
  1
1
 41
0.8
  7
高3.2
100
AcDbText
  0
TEXT
  5
4E3
330
6B
100
AcDbEntity
  8
0
 62
     3
100
AcDbText
 10
96.82186515556448
 20
66.01800168350172
 30
0.0
 40
3.2
  1
1
 41
0.8
  7
高3.2
100
AcDbText
  0
TEXT
  5
4E4
330
6B
100
AcDbEntity
  8
0
 62
     3
100
AcDbText
 10
96.82186515556448
 20
21.05588047138048
 30
0.0
 40
3.2
  1
1
 41
0.8
  7
高3.2
100
AcDbText
  0
TEXT
  5
4E5
330
6B
100
AcDbEntity
  8
0
 62
     3
100
AcDbText
 10
96.82186515556448
 20
61.02221043771047
 30
0.0
 40
3.2
  1
1
 41
0.8
  7
高3.2
100
AcDbText
  0
TEXT
  5
4E6
330
6B
100
AcDbEntity
  8
0
 62
     3
100
AcDbText
 10
96.82186515556448
 20
46.0348367003367
 30
0.0
 40
3.2
  1
1
 41
0.8
  7
高3.2
100
AcDbText
  0
TEXT
  5
4E7
330
6B
100
AcDbEntity
  8
0
 62
     3
100
AcDbText
 10
96.82186515556448
 20
71.013792929293
 30
0.0
 40
3.2
  1
各1
 41
0.8
  7
高3.2
100
AcDbText
  0
TEXT
  5
4E8
330
6B
100
AcDbEntity
  8
0
 62
     3
100
AcDbText
 10
43.25812026624649
 20
6.068506734006732
 30
0.0
 40
3.2
  1
SPCC
 41
0.8
  7
高3.2
100
AcDbText
  0
TEXT
  5
4E9
330
6B
100
AcDbEntity
  8
0
 62
     3
100
AcDbText
 10
43.25812026624649
 20
1.071873737373737
 30
0.0
 40
3.2
  1
SPCC
 41
0.8
  7
高3.2
100
AcDbText
  0
TEXT
  5
4EA
330
6B
100
AcDbEntity
  8
0
 62
     3
100
AcDbText
 10
43.25812026624649
 20
-3.923917508417502
 30
0.0
 40
3.2
  1
SPCC
 41
0.8
  7
高3.2
100
AcDbText
  0
TEXT
  5
4EB
330
6B
100
AcDbEntity
  8
0
 62
     3
100
AcDbText
 10
43.25812026624649
 20
-8.919708754208752
 30
0.0
 40
3.2
  1
SPCC
 41
0.8
  7
高3.2
100
AcDbText
  0
TEXT
  5
4EC
330
6B
100
AcDbEntity
  8
0
 62
     3
100
AcDbText
 10
43.25812026624649
 20
16.06008922558922
 30
0.0
 40
3.2
  1
ナイロン樹脂
 41
0.8
  7
高3.2
100
AcDbText
  0
TEXT
  5
4ED
330
6B
100
AcDbEntity
  8
0
 62
     3
100
AcDbText
 10
43.25812026624649
 20
26.05167171717172
 30
0.0
 40
3.2
  1
ナイロン樹脂
 41
0.8
  7
高3.2
100
AcDbText
  0
TEXT
  5
4EE
330
6B
100
AcDbEntity
  8
0
 62
     3
100
AcDbText
 10
43.25812026624649
 20
11.06429797979798
 30
0.0
 40
3.2
  1
合成ゴム
 41
0.8
  7
高3.2
100
AcDbText
  0
TEXT
  5
4EF
330
6B
100
AcDbEntity
  8
0
 62
     3
100
AcDbText
 10
43.25812026624649
 20
21.05588047138048
 30
0.0
 40
3.2
  1
PF樹脂
 41
0.8
  7
高3.2
100
AcDbText
  0
TEXT
  5
4F0
330
6B
100
AcDbEntity
  8
0
 62
     3
100
AcDbText
 10
43.25812026624649
 20
66.0180016835017
 30
0.0
 40
3.2
  1
VCTFK
 41
0.8
  7
高3.2
100
AcDbText
  0
TEXT
  5
4F2
330
6B
100
AcDbEntity
  8
0
 62
     3
100
AcDbText
 10
43.25812026624649
 20
71.01463468013469
 30
0.0
 40
3.2
  1
KIV 赤／黒
 41
0.8
  7
高3.2
100
AcDbText
  0
TEXT
  5
4F3
330
6B
100
AcDbEntity
  8
0
 62
     3
100
AcDbText
 10
-2.989363636363632
 20
6.068506734006732
 30
0.0
 40
3.2
  1
後面パネル
 41
0.8
  7
高3.2
100
AcDbText
  0
TEXT
  5
4F4
330
6B
100
AcDbEntity
  8
0
 62
     3
100
AcDbText
 10
-2.989363636363632
 20
1.071873737373737
 30
0.0
 40
3.2
  1
前面パネル
 41
0.8
  7
高3.2
100
AcDbText
  0
TEXT
  5
4F5
330
6B
100
AcDbEntity
  8
0
 62
     3
100
AcDbText
 10
-2.989363636363632
 20
-3.923917508417502
 30
0.0
 40
3.2
  1
シャ－シ
 41
0.8
  7
高3.2
100
AcDbText
  0
TEXT
  5
4F6
330
6B
100
AcDbEntity
  8
0
 62
     3
100
AcDbText
 10
-2.989363636363632
 20
-8.919708754208752
 30
0.0
 40
3.2
  1
カバ－
 41
0.8
  7
高3.2
100
AcDbText
  0
TEXT
  5
4F7
330
6B
100
AcDbEntity
  8
0
 62
     3
100
AcDbText
 10
-2.989363636363632
 20
26.05167171717172
 30
0.0
 40
3.2
  1
コ－ドフック
 41
0.8
  7
高3.2
100
AcDbText
  0
TEXT
  5
4F8
330
6B
100
AcDbEntity
  8
0
 62
     3
100
AcDbText
 10
-2.989363636363632
 20
16.06008922558922
 30
0.0
 40
3.2
  1
プロテクタ　－
 41
0.8
  7
高3.2
100
AcDbText
  0
TEXT
  5
4F9
330
6B
100
AcDbEntity
  8
0
 62
     3
100
AcDbText
 10
-2.989363636363632
 20
21.05588047138048
 30
0.0
 40
3.2
  1
取手
 41
0.8
  7
高3.2
100
AcDbText
  0
TEXT
  5
4FA
330
6B
100
AcDbEntity
  8
0
 62
     3
100
AcDbText
 10
-11.353
 20
31.04746296296297
 30
0.0
 40
3.2
  1
9
 41
0.8
  7
高3.2
100
AcDbText
  0
TEXT
  5
4FB
330
6B
100
AcDbEntity
  8
0
 62
     3
100
AcDbText
 10
-11.353
 20
26.05167171717172
 30
0.0
 40
3.2
  1
8
 41
0.8
  7
高3.2
100
AcDbText
  0
TEXT
  5
4FC
330
6B
100
AcDbEntity
  8
0
 62
     3
100
AcDbText
 10
-11.353
 20
21.05588047138048
 30
0.0
 40
3.2
  1
7
 41
0.8
  7
高3.2
100
AcDbText
  0
TEXT
  5
4FD
330
6B
100
AcDbEntity
  8
0
 62
     3
100
AcDbText
 10
-11.353
 20
16.06008922558922
 30
0.0
 40
3.2
  1
6
 41
0.8
  7
高3.2
100
AcDbText
  0
TEXT
  5
4FE
330
6B
100
AcDbEntity
  8
0
 62
     3
100
AcDbText
 10
-11.353
 20
11.06429797979798
 30
0.0
 40
3.2
  1
5
 41
0.8
  7
高3.2
100
AcDbText
  0
TEXT
  5
4FF
330
6B
100
AcDbEntity
  8
0
 62
     3
100
AcDbText
 10
-11.353
 20
6.068506734006732
 30
0.0
 40
3.2
  1
4
 41
0.8
  7
高3.2
100
AcDbText
  0
TEXT
  5
500
330
6B
100
AcDbEntity
  8
0
 62
     3
100
AcDbText
 10
-11.353
 20
1.071873737373737
 30
0.0
 40
3.2
  1
3
 41
0.8
  7
高3.2
100
AcDbText
  0
TEXT
  5
501
330
6B
100
AcDbEntity
  8
0
 62
     3
100
AcDbText
 10
-11.353
 20
-3.923917508417502
 30
0.0
 40
3.2
  1
2
 41
0.8
  7
高3.2
100
AcDbText
  0
TEXT
  5
502
330
6B
100
AcDbEntity
  8
0
 62
     3
100
AcDbText
 10
-11.353
 20
-8.919708754208752
 30
0.0
 40
3.2
  1
1
 41
0.8
  7
高3.2
100
AcDbText
  0
TEXT
  5
503
330
6B
100
AcDbEntity
  8
0
 62
     3
100
AcDbText
 10
-11.353
 20
36.04325420875422
 30
0.0
 40
3.2
  1
10
 41
0.8
  7
高3.2
100
AcDbText
  0
TEXT
  5
504
330
6B
100
AcDbEntity
  8
0
 62
     3
100
AcDbText
 10
-11.353
 20
41.03904545454545
 30
0.0
 40
3.2
  1
11
 41
0.8
  7
高3.2
100
AcDbText
  0
TEXT
  5
505
330
6B
100
AcDbEntity
  8
0
 62
     3
100
AcDbText
 10
-11.353
 20
46.0348367003367
 30
0.0
 40
3.2
  1
12
 41
0.8
  7
高3.2
100
AcDbText
  0
TEXT
  5
506
330
6B
100
AcDbEntity
  8
0
 62
     3
100
AcDbText
 10
-11.353
 20
51.03062794612792
 30
0.0
 40
3.2
  1
13
 41
0.8
  7
高3.2
100
AcDbText
  0
TEXT
  5
507
330
6B
100
AcDbEntity
  8
0
 62
     3
100
AcDbText
 10
-11.353
 20
56.02641919191921
 30
0.0
 40
3.2
  1
14
 41
0.8
  7
高3.2
100
AcDbText
  0
TEXT
  5
508
330
6B
100
AcDbEntity
  8
0
 62
     3
100
AcDbText
 10
-11.353
 20
61.02221043771042
 30
0.0
 40
3.2
  1
15
 41
0.8
  7
高3.2
100
AcDbText
  0
TEXT
  5
509
330
6B
100
AcDbEntity
  8
0
 62
     3
100
AcDbText
 10
-11.353
 20
66.0180016835017
 30
0.0
 40
3.2
  1
16
 41
0.8
  7
高3.2
100
AcDbText
  0
TEXT
  5
50A
330
6B
100
AcDbEntity
  8
0
 62
     3
100
AcDbText
 10
-2.989363636363632
 20
56.02641919191921
 30
0.0
 40
3.2
  1
出力電流計
 41
0.8
  7
高3.2
100
AcDbText
  0
TEXT
  5
50B
330
6B
100
AcDbEntity
  8
0
 62
     3
100
AcDbText
 10
-2.989363636363632
 20
31.04746296296297
 30
0.0
 40
3.2
  1
バッテリー電圧切替スイッチ
 41
0.8
  7
高3.2
100
AcDbText
  0
TEXT
  5
50C
330
6B
100
AcDbEntity
  8
0
 62
     3
100
AcDbText
 10
-2.989363636363632
 20
11.06429797979798
 30
0.0
 40
3.2
  1
ゴム足
 41
0.8
  7
高3.2
100
AcDbText
  0
TEXT
  5
50D
330
6B
100
AcDbEntity
  8
0
 62
     3
100
AcDbText
 10
-2.989363636363632
 20
36.04325420875422
 30
0.0
 40
3.2
  1
充電電流切替スイッチ
 41
0.8
  7
高3.2
100
AcDbText
  0
TEXT
  5
50E
330
6B
100
AcDbEntity
  8
0
 62
     3
100
AcDbText
 10
-2.989363636363632
 20
41.03904545454545
 30
0.0
 40
3.2
  1
電源スイッチ
 41
0.8
  7
高3.2
100
AcDbText
  0
TEXT
  5
50F
330
6B
100
AcDbEntity
  8
0
 62
     3
100
AcDbText
 10
-2.989363636363632
 20
46.0348367003367
 30
0.0
 40
3.2
  1
入力サ－キットブレ－カ－
 41
0.8
  7
高3.2
100
AcDbText
  0
TEXT
  5
510
330
6B
100
AcDbEntity
  8
0
 62
     3
100
AcDbText
 10
-2.989363636363632
 20
61.02221043771042
 30
0.0
 40
3.2
  1
バッテリー電圧チェックボタン
 41
0.8
  7
高3.2
100
AcDbText
  0
TEXT
  5
511
330
6B
100
AcDbEntity
  8
0
 62
     3
100
AcDbText
 10
-2.989363636363632
 20
66.0180016835017
 30
0.0
 40
3.2
  1
電源コ－ド
 41
0.8
  7
高3.2
100
AcDbText
  0
TEXT
  5
512
330
6B
100
AcDbEntity
  8
0
 62
     3
100
AcDbText
 10
-2.989363636363632
 20
71.01463468013469
 30
0.0
 40
3.2
  1
クリップ付き出力コ－ド
 41
0.8
  7
高3.2
100
AcDbText
  0
TEXT
  5
513
330
6B
100
AcDbEntity
  8
0
 62
     3
100
AcDbText
 10
65.2599766036354
 20
-13.91549999999999
 30
0.0
 40
3.2
  1
備　　　　考
 41
0.8
  7
高3.2
100
AcDbText
  0
TEXT
  5
514
330
6B
100
AcDbEntity
  8
0
 62
     3
100
AcDbText
 10
43.25812026624649
 20
-13.9155
 30
0.0
 40
3.2
  1
材　　質
 41
0.8
  7
高3.2
100
AcDbText
  0
TEXT
  5
515
330
6B
100
AcDbEntity
  8
0
 62
     3
100
AcDbText
 10
96.82186515556448
 20
-13.9155
 30
0.0
 40
3.2
  1
数
 41
0.8
  7
高3.2
100
AcDbText
  0
TEXT
  5
516
330
6B
100
AcDbEntity
  8
0
 62
     3
100
AcDbText
 10
-2.989363636363633
 20
-13.91549999999999
 30
0.0
 40
3.2
  1
部　　　品　　　名
 41
0.8
  7
高3.2
100
AcDbText
  0
TEXT
  5
517
330
6B
100
AcDbEntity
  8
0
 62
     3
100
AcDbText
 10
-11.353
 20
-13.9155
 30
0.0
 40
3.2
  1
No
 41
0.8
  7
高3.2
100
AcDbText
  0
LINE
  5
518
330
6B
100
AcDbEntity
  8
0
 62
     3
100
AcDbLine
 10
377.046964
 20
31.250223
 30
0.0
 11
325.4476
 21
31.250223
 31
0.0
  0
TEXT
  5
519
330
6B
100
AcDbEntity
  8
0
 62
     3
100
AcDbText
 10
326.497114
 20
25.806308
 30
0.0
 40
4.5
  1
コード
  7
高4.5
100
AcDbText
  0
LINE
  5
51A
330
6B
100
AcDbEntity
  8
0
 62
     3
100
AcDbLine
 10
351.4476
 20
25.250223
 30
0.0
 11
351.4476
 21
31.250223
 31
0.0
  0
LINE
  5
51B
330
6B
100
AcDbEntity
  8
0
 62
     3
100
AcDbLine
 10
325.4476
 20
25.250223
 30
0.0
 11
325.4476
 21
31.250223
 31
0.0
  0
LINE
  5
51C
330
6B
100
AcDbEntity
  8
0
 62
     7
100
AcDbLine
 10
-12.853
 20
70.51463468013469
 30
0.0
 11
102.7238849919441
 21
70.51463468013469
 31
0.0
  0
LINE
  5
51D
330
6B
100
AcDbEntity
  8
0
100
AcDbLine
 10
-12.853
 20
50.53062794612793
 30
0.0
 11
102.7238849919441
 21
50.53062794612793
 31
0.0
  0
LINE
  5
51E
330
6B
100
AcDbEntity
  8
0
100
AcDbLine
 10
-12.853
 20
45.5348367003367
 30
0.0
 11
102.7238849919441
 21
45.5348367003367
 31
0.0
  0
LINE
  5
51F
330
6B
100
AcDbEntity
  8
0
100
AcDbLine
 10
-12.853
 20
40.53904545454545
 30
0.0
 11
102.7238849919441
 21
40.53904545454545
 31
0.0
  0
LINE
  5
520
330
6B
100
AcDbEntity
  8
0
100
AcDbLine
 10
-12.853
 20
65.51800168350169
 30
0.0
 11
102.7238849919441
 21
65.51800168350169
 31
0.0
  0
LINE
  5
521
330
6B
100
AcDbEntity
  8
0
100
AcDbLine
 10
-12.853
 20
60.52221043771043
 30
0.0
 11
102.7238849919441
 21
60.52221043771043
 31
0.0
  0
LINE
  5
522
330
6B
100
AcDbEntity
  8
0
100
AcDbLine
 10
-12.853
 20
55.5264191919192
 30
0.0
 11
102.7238849919441
 21
55.5264191919192
 31
0.0
  0
LINE
  5
523
330
6B
100
AcDbEntity
  8
0
100
AcDbLine
 10
-12.853
 20
20.55588047138048
 30
0.0
 11
102.7238849919441
 21
20.55588047138048
 31
0.0
  0
LINE
  5
524
330
6B
100
AcDbEntity
  8
0
100
AcDbLine
 10
-12.853
 20
25.55167171717172
 30
0.0
 11
102.7238849919441
 21
25.55167171717172
 31
0.0
  0
LINE
  5
525
330
6B
100
AcDbEntity
  8
0
100
AcDbLine
 10
-12.853
 20
30.54746296296297
 30
0.0
 11
102.7238849919441
 21
30.54746296296297
 31
0.0
  0
LINE
  5
526
330
6B
100
AcDbEntity
  8
0
100
AcDbLine
 10
-12.853
 20
-4.423917508417502
 30
0.0
 11
102.7238849919441
 21
-4.423917508417502
 31
0.0
  0
LINE
  5
527
330
6B
100
AcDbEntity
  8
0
100
AcDbLine
 10
-12.853
 20
0.5718737373737386
 30
0.0
 11
102.7238849919441
 21
0.5718737373737386
 31
0.0
  0
LINE
  5
528
330
6B
100
AcDbEntity
  8
0
100
AcDbLine
 10
-12.853
 20
5.568506734006733
 30
0.0
 11
102.7238849919441
 21
5.568506734006733
 31
0.0
  0
LINE
  5
529
330
6B
100
AcDbEntity
  8
0
100
AcDbLine
 10
-12.853
 20
10.56429797979798
 30
0.0
 11
102.7238849919441
 21
10.56429797979798
 31
0.0
  0
LINE
  5
52A
330
6B
100
AcDbEntity
  8
0
100
AcDbLine
 10
-12.853
 20
15.56008922558922
 30
0.0
 11
102.7238849919441
 21
15.56008922558922
 31
0.0
  0
LINE
  5
52B
330
6B
100
AcDbEntity
  8
0
100
AcDbLine
 10
-12.853
 20
35.54325420875422
 30
0.0
 11
102.7238849919441
 21
35.54325420875422
 31
0.0
  0
LINE
  5
52C
330
6B
100
AcDbEntity
  8
0
 62
     7
100
AcDbLine
 10
-12.853
 20
-9.419708754208752
 30
0.0
 11
102.7238849919441
 21
-9.419708754208752
 31
0.0
  0
TEXT
  5
52D
330
6B
100
AcDbEntity
  8
0
 62
     3
100
AcDbText
 10
356.0665125331377
 20
25.748579
 30
0.0
 40
4.5
  1
6570
  7
高4.5
100
AcDbText
  0
TEXT
  5
609
330
6B
100
AcDbEntity
  8
0
 62
     3
100
AcDbText
 10
364.647
 20
253.0845
 30
0.0
 40
3.2
  1
担　当
  7
高3.2
100
AcDbText
  0
TEXT
  5
60A
330
6B
100
AcDbEntity
  8
0
 62
     3
100
AcDbText
 10
320.647
 20
253.0845
 30
0.0
 40
3.2
  1
変更・追記内容
  7
高3.2
100
AcDbText
  0
TEXT
  5
60B
330
6B
100
AcDbEntity
  8
0
 62
     3
100
AcDbText
 10
295.7605150003392
 20
248.4139614900917
 30
0.0
 40
2.0
  1
1
  7
高2
100
AcDbText
  0
TEXT
  5
60C
330
6B
100
AcDbEntity
  8
0
 62
     3
100
AcDbText
 10
295.452003523582
 20
243.2441447778188
 30
0.0
 40
2.0
  1
2
  7
高2
100
AcDbText
  0
TEXT
  5
60D
330
6B
100
AcDbEntity
  8
0
 62
     3
100
AcDbText
 10
302.647
 20
253.0845
 30
0.0
 40
3.2
  1
日　付
  7
高3.2
100
AcDbText
  0
TEXT
  5
60E
330
6B
100
AcDbEntity
  8
0
 62
     3
100
AcDbText
 10
302.647
 20
258.0845
 30
0.0
 40
3.2
  1
図　　　　面　　　　略　　　　歴
  7
高3.2
100
AcDbText
  0
TEXT
  5
60F
330
6B
100
AcDbEntity
  8
0
 62
     3
100
AcDbText
 10
292.647
 20
253.0845
 30
0.0
 40
3.2
  1
記号
  7
高3.2
100
AcDbText
  0
LINE
  5
610
330
6B
100
AcDbEntity
  8
0
100
AcDbLine
 10
296.147
 20
246.3753960000001
 30
0.0
 11
294.247
 21
243.0845
 31
0.0
  0
LINE
  5
611
330
6B
100
AcDbEntity
  8
0
100
AcDbLine
 10
296.147
 20
246.3753960000001
 30
0.0
 11
298.047
 21
243.0845
 31
0.0
  0
LINE
  5
612
330
6B
100
AcDbEntity
  8
0
100
AcDbLine
 10
294.247
 20
243.0845
 30
0.0
 11
298.047
 21
243.0845
 31
0.0
  0
LINE
  5
613
330
6B
100
AcDbEntity
  8
0
100
AcDbLine
 10
296.147
 20
251.3753970000001
 30
0.0
 11
294.247
 21
248.0845
 31
0.0
  0
LINE
  5
614
330
6B
100
AcDbEntity
  8
0
100
AcDbLine
 10
296.147
 20
251.3753970000001
 30
0.0
 11
298.047
 21
248.0845
 31
0.0
  0
LINE
  5
615
330
6B
100
AcDbEntity
  8
0
100
AcDbLine
 10
294.247
 20
248.0845
 30
0.0
 11
298.047
 21
248.0845
 31
0.0
  0
LINE
  5
616
330
6B
100
AcDbEntity
  8
0
 62
     3
100
AcDbLine
 10
291.147
 20
257.5845
 30
0.0
 11
377.147
 21
257.5845
 31
0.0
  0
LINE
  5
617
330
6B
100
AcDbEntity
  8
0
 62
     3
100
AcDbLine
 10
291.147
 20
252.5845
 30
0.0
 11
377.147
 21
252.5845
 31
0.0
  0
LINE
  5
618
330
6B
100
AcDbEntity
  8
0
 62
     7
100
AcDbLine
 10
291.147
 20
247.5845
 30
0.0
 11
377.147
 21
247.5845
 31
0.0
  0
LINE
  5
619
330
6B
100
AcDbEntity
  8
0
 62
     3
100
AcDbLine
 10
291.147
 20
242.5845
 30
0.0
 11
377.147
 21
242.5845
 31
0.0
  0
LINE
  5
61A
330
6B
100
AcDbEntity
  8
0
 62
     7
100
AcDbLine
 10
363.1469999999998
 20
242.5845
 30
0.0
 11
363.147
 21
257.5845
 31
0.0
  0
LINE
  5
61B
330
6B
100
AcDbEntity
  8
0
 62
     7
100
AcDbLine
 10
319.147
 20
242.5845
 30
0.0
 11
319.147
 21
257.5845
 31
0.0
  0
LINE
  5
61C
330
6B
100
AcDbEntity
  8
0
 62
     7
100
AcDbLine
 10
301.147
 20
242.5845
 30
0.0
 11
301.147
 21
257.5845
 31
0.0
  0
LINE
  5
61D
330
6B
100
AcDbEntity
  8
0
 62
     3
100
AcDbLine
 10
291.147
 20
242.5845
 30
0.0
 11
291.147
 21
262.5845
 31
0.0
  0
CIRCLE
  5
AE2
330
6B
100
AcDbEntity
  8
0
 62
     7
100
AcDbCircle
 10
95.45038411323151
 20
208.2054728104183
 30
0.0
 40
0.8666666666666667
  0
CIRCLE
  5
AF2
330
6B
100
AcDbEntity
  8
0
 62
     7
100
AcDbCircle
 10
149.9518216552186
 20
193.3754728104182
 30
0.0
 40
1.5
  0
LINE
  5
AF3
330
6B
100
AcDbEntity
  8
0
 62
     7
100
AcDbLine
 10
149.0944883218852
 20
193.2254728104182
 30
0.0
 11
149.4161549885519
 21
193.2254728104182
 31
0.0
  0
LINE
  5
AF4
330
6B
100
AcDbEntity
  8
0
 62
     7
100
AcDbLine
 10
149.8018216552186
 20
192.5184728104182
 30
0.0
 11
149.8018216552186
 21
192.8398061437514
 31
0.0
  0
ARC
  5
AF5
330
6B
100
AcDbEntity
  8
0
 62
     7
100
AcDbCircle
 10
149.4161549885519
 20
192.8398061437514
 30
0.0
 40
0.3856666666666666
100
AcDbArc
 50
0.0
 51
90.0
  0
LINE
  5
AF6
330
6B
100
AcDbEntity
  8
0
 62
     7
100
AcDbLine
 10
150.1018216552186
 20
192.5184728104182
 30
0.0
 11
150.1018216552186
 21
192.8398061437514
 31
0.0
  0
LINE
  5
AF7
330
6B
100
AcDbEntity
  8
0
 62
     7
100
AcDbLine
 10
150.8088216552186
 20
193.5254728104182
 30
0.0
 11
150.8088216552186
 21
193.2254728104182
 31
0.0
  0
LINE
  5
AF8
330
6B
100
AcDbEntity
  8
0
 62
     7
100
AcDbLine
 10
150.8088216552186
 20
193.2254728104182
 30
0.0
 11
150.4874883218852
 21
193.2254728104182
 31
0.0
  0
ARC
  5
AF9
330
6B
100
AcDbEntity
  8
0
 62
     7
100
AcDbCircle
 10
150.4874883218852
 20
192.8398061437514
 30
0.0
 40
0.3856666666666666
100
AcDbArc
 50
90.0
 51
180.0
  0
LINE
  5
AFA
330
6B
100
AcDbEntity
  8
0
 62
     7
100
AcDbLine
 10
150.1018216552186
 20
192.5184728104182
 30
0.0
 11
149.8018216552186
 21
192.5184728104182
 31
0.0
  0
LINE
  5
AFB
330
6B
100
AcDbEntity
  8
0
 62
     7
100
AcDbLine
 10
150.1018216552186
 20
194.2324728104182
 30
0.0
 11
150.1018216552186
 21
193.9111394770849
 31
0.0
  0
ARC
  5
AFC
330
6B
100
AcDbEntity
  8
0
 62
     7
100
AcDbCircle
 10
150.4874883218852
 20
193.9111394770849
 30
0.0
 40
0.3856666666666666
100
AcDbArc
 50
180.0
 51
270.0
  0
LINE
  5
AFD
330
6B
100
AcDbEntity
  8
0
 62
     7
100
AcDbLine
 10
149.8018216552186
 20
194.2324728104182
 30
0.0
 11
150.1018216552186
 21
194.2324728104182
 31
0.0
  0
LINE
  5
AFE
330
6B
100
AcDbEntity
  8
0
 62
     7
100
AcDbLine
 10
150.8088216552186
 20
193.5254728104182
 30
0.0
 11
150.4874883218852
 21
193.5254728104182
 31
0.0
  0
LINE
  5
AFF
330
6B
100
AcDbEntity
  8
0
 62
     7
100
AcDbLine
 10
149.0944883218852
 20
193.5254728104182
 30
0.0
 11
149.4161549885519
 21
193.5254728104182
 31
0.0
  0
ARC
  5
B00
330
6B
100
AcDbEntity
  8
0
 62
     7
100
AcDbCircle
 10
149.4161549885519
 20
193.9111394770849
 30
0.0
 40
0.3856666666666666
100
AcDbArc
 50
270.0
 51
0.0
  0
LINE
  5
B01
330
6B
100
AcDbEntity
  8
0
 62
     7
100
AcDbLine
 10
149.8018216552186
 20
194.2324728104182
 30
0.0
 11
149.8018216552186
 21
193.9111394770849
 31
0.0
  0
LINE
  5
B02
330
6B
100
AcDbEntity
  8
0
 62
     7
100
AcDbLine
 10
149.0944883218852
 20
193.2254728104182
 30
0.0
 11
149.0944883218852
 21
193.5254728104182
 31
0.0
  0
CIRCLE
  5
B03
330
6B
100
AcDbEntity
  8
0
 62
     7
100
AcDbCircle
 10
149.9518216552186
 20
208.3754728104182
 30
0.0
 40
1.5
  0
LINE
  5
B04
330
6B
100
AcDbEntity
  8
0
 62
     7
100
AcDbLine
 10
149.0944883218852
 20
208.2254728104182
 30
0.0
 11
149.4161549885519
 21
208.2254728104182
 31
0.0
  0
LINE
  5
B05
330
6B
100
AcDbEntity
  8
0
 62
     7
100
AcDbLine
 10
149.8018216552186
 20
207.5184728104182
 30
0.0
 11
149.8018216552186
 21
207.8398061437515
 31
0.0
  0
ARC
  5
B06
330
6B
100
AcDbEntity
  8
0
 62
     7
100
AcDbCircle
 10
149.4161549885519
 20
207.8398061437515
 30
0.0
 40
0.3856666666666666
100
AcDbArc
 50
0.0
 51
90.0
  0
LINE
  5
B07
330
6B
100
AcDbEntity
  8
0
 62
     7
100
AcDbLine
 10
150.1018216552186
 20
207.5184728104182
 30
0.0
 11
150.1018216552186
 21
207.8398061437515
 31
0.0
  0
LINE
  5
B08
330
6B
100
AcDbEntity
  8
0
 62
     7
100
AcDbLine
 10
150.8088216552186
 20
208.5254728104183
 30
0.0
 11
150.8088216552186
 21
208.2254728104182
 31
0.0
  0
LINE
  5
B09
330
6B
100
AcDbEntity
  8
0
 62
     7
100
AcDbLine
 10
150.8088216552186
 20
208.2254728104182
 30
0.0
 11
150.4874883218852
 21
208.2254728104182
 31
0.0
  0
ARC
  5
B0A
330
6B
100
AcDbEntity
  8
0
 62
     7
100
AcDbCircle
 10
150.4874883218852
 20
207.8398061437515
 30
0.0
 40
0.3856666666666666
100
AcDbArc
 50
90.0
 51
180.0
  0
LINE
  5
B0B
330
6B
100
AcDbEntity
  8
0
 62
     7
100
AcDbLine
 10
150.1018216552186
 20
207.5184728104182
 30
0.0
 11
149.8018216552186
 21
207.5184728104182
 31
0.0
  0
LINE
  5
B0C
330
6B
100
AcDbEntity
  8
0
 62
     7
100
AcDbLine
 10
150.1018216552186
 20
209.2324728104182
 30
0.0
 11
150.1018216552186
 21
208.9111394770849
 31
0.0
  0
ARC
  5
B0D
330
6B
100
AcDbEntity
  8
0
 62
     7
100
AcDbCircle
 10
150.4874883218852
 20
208.9111394770849
 30
0.0
 40
0.3856666666666666
100
AcDbArc
 50
180.0
 51
270.0
  0
LINE
  5
B0E
330
6B
100
AcDbEntity
  8
0
 62
     7
100
AcDbLine
 10
149.8018216552186
 20
209.2324728104182
 30
0.0
 11
150.1018216552186
 21
209.2324728104182
 31
0.0
  0
LINE
  5
B0F
330
6B
100
AcDbEntity
  8
0
 62
     7
100
AcDbLine
 10
150.8088216552186
 20
208.5254728104183
 30
0.0
 11
150.4874883218852
 21
208.5254728104183
 31
0.0
  0
LINE
  5
B10
330
6B
100
AcDbEntity
  8
0
 62
     7
100
AcDbLine
 10
149.0944883218852
 20
208.5254728104183
 30
0.0
 11
149.4161549885519
 21
208.5254728104183
 31
0.0
  0
ARC
  5
B11
330
6B
100
AcDbEntity
  8
0
 62
     7
100
AcDbCircle
 10
149.4161549885519
 20
208.9111394770849
 30
0.0
 40
0.3856666666666666
100
AcDbArc
 50
270.0
 51
0.0
  0
LINE
  5
B12
330
6B
100
AcDbEntity
  8
0
 62
     7
100
AcDbLine
 10
149.8018216552186
 20
209.2324728104182
 30
0.0
 11
149.8018216552186
 21
208.9111394770849
 31
0.0
  0
LINE
  5
B13
330
6B
100
AcDbEntity
  8
0
 62
     7
100
AcDbLine
 10
149.0944883218852
 20
208.2254728104182
 30
0.0
 11
149.0944883218852
 21
208.5254728104183
 31
0.0
  0
CIRCLE
  5
B14
330
6B
100
AcDbEntity
  8
0
 62
     7
100
AcDbCircle
 10
149.9518216552186
 20
178.3754728104182
 30
0.0
 40
1.5
  0
LINE
  5
B15
330
6B
100
AcDbEntity
  8
0
 62
     7
100
AcDbLine
 10
149.0944883218852
 20
178.2254728104182
 30
0.0
 11
149.4161549885519
 21
178.2254728104182
 31
0.0
  0
LINE
  5
B16
330
6B
100
AcDbEntity
  8
0
 62
     7
100
AcDbLine
 10
149.8018216552186
 20
177.5184728104182
 30
0.0
 11
149.8018216552186
 21
177.8398061437514
 31
0.0
  0
ARC
  5
B17
330
6B
100
AcDbEntity
  8
0
 62
     7
100
AcDbCircle
 10
149.4161549885519
 20
177.8398061437514
 30
0.0
 40
0.3856666666666666
100
AcDbArc
 50
0.0
 51
90.0
  0
LINE
  5
B18
330
6B
100
AcDbEntity
  8
0
 62
     7
100
AcDbLine
 10
150.1018216552186
 20
177.5184728104182
 30
0.0
 11
150.1018216552186
 21
177.8398061437514
 31
0.0
  0
LINE
  5
B19
330
6B
100
AcDbEntity
  8
0
 62
     7
100
AcDbLine
 10
150.8088216552186
 20
178.5254728104182
 30
0.0
 11
150.8088216552186
 21
178.2254728104182
 31
0.0
  0
LINE
  5
B1A
330
6B
100
AcDbEntity
  8
0
 62
     7
100
AcDbLine
 10
150.8088216552186
 20
178.2254728104182
 30
0.0
 11
150.4874883218852
 21
178.2254728104182
 31
0.0
  0
ARC
  5
B1B
330
6B
100
AcDbEntity
  8
0
 62
     7
100
AcDbCircle
 10
150.4874883218852
 20
177.8398061437514
 30
0.0
 40
0.3856666666666666
100
AcDbArc
 50
90.0
 51
180.0
  0
LINE
  5
B1C
330
6B
100
AcDbEntity
  8
0
 62
     7
100
AcDbLine
 10
150.1018216552186
 20
177.5184728104182
 30
0.0
 11
149.8018216552186
 21
177.5184728104182
 31
0.0
  0
LINE
  5
B1D
330
6B
100
AcDbEntity
  8
0
 62
     7
100
AcDbLine
 10
150.1018216552186
 20
179.2324728104182
 30
0.0
 11
150.1018216552186
 21
178.9111394770849
 31
0.0
  0
ARC
  5
B1E
330
6B
100
AcDbEntity
  8
0
 62
     7
100
AcDbCircle
 10
150.4874883218852
 20
178.9111394770849
 30
0.0
 40
0.3856666666666666
100
AcDbArc
 50
180.0
 51
270.0
  0
LINE
  5
B1F
330
6B
100
AcDbEntity
  8
0
 62
     7
100
AcDbLine
 10
149.8018216552186
 20
179.2324728104182
 30
0.0
 11
150.1018216552186
 21
179.2324728104182
 31
0.0
  0
LINE
  5
B20
330
6B
100
AcDbEntity
  8
0
 62
     7
100
AcDbLine
 10
150.8088216552186
 20
178.5254728104182
 30
0.0
 11
150.4874883218852
 21
178.5254728104182
 31
0.0
  0
LINE
  5
B21
330
6B
100
AcDbEntity
  8
0
 62
     7
100
AcDbLine
 10
149.0944883218852
 20
178.5254728104182
 30
0.0
 11
149.4161549885519
 21
178.5254728104182
 31
0.0
  0
ARC
  5
B22
330
6B
100
AcDbEntity
  8
0
 62
     7
100
AcDbCircle
 10
149.4161549885519
 20
178.9111394770849
 30
0.0
 40
0.3856666666666666
100
AcDbArc
 50
270.0
 51
0.0
  0
LINE
  5
B23
330
6B
100
AcDbEntity
  8
0
 62
     7
100
AcDbLine
 10
149.8018216552186
 20
179.2324728104182
 30
0.0
 11
149.8018216552186
 21
178.9111394770849
 31
0.0
  0
LINE
  5
B24
330
6B
100
AcDbEntity
  8
0
 62
     7
100
AcDbLine
 10
149.0944883218852
 20
178.2254728104182
 30
0.0
 11
149.0944883218852
 21
178.5254728104182
 31
0.0
  0
ARC
  5
B25
330
6B
100
AcDbEntity
  8
0
 62
     7
100
AcDbCircle
 10
149.9518216552186
 20
218.7754728104183
 30
0.0
 40
1.766666666666665
100
AcDbArc
 50
31.89100000000014
 51
148.1089999999998
  0
ARC
  5
B26
330
6B
100
AcDbEntity
  8
0
 62
     7
100
AcDbCircle
 10
211.6184883218852
 20
218.7754728104183
 30
0.0
 40
1.766666666666665
100
AcDbArc
 50
31.89100000000014
 51
148.1089999999998
  0
ARC
  5
B3A
330
6B
100
AcDbEntity
  8
0
 62
     3
100
AcDbCircle
 10
28.6175684659357
 20
171.3721394770848
 30
0.0
 40
6.5
100
AcDbArc
 50
180.0
 51
270.0
  0
ARC
  5
B3B
330
6B
100
AcDbEntity
  8
0
 62
     3
100
AcDbCircle
 10
28.6175684659357
 20
171.3721394770848
 30
0.0
 40
3.166666666666666
100
AcDbArc
 50
180.0
 51
270.0
  0
LINE
  5
B3C
330
6B
100
AcDbEntity
  8
0
 62
     3
100
AcDbLine
 10
25.45090179926902
 20
214.3721394770849
 30
0.0
 11
25.45090179926902
 21
171.3721394770848
 31
0.0
  0
ARC
  5
B3D
330
6B
100
AcDbEntity
  8
0
 62
     3
100
AcDbCircle
 10
28.6175684659357
 20
214.3721394770849
 30
0.0
 40
3.166666666666666
100
AcDbArc
 50
90.0
 51
180.0
  0
LINE
  5
B3E
330
6B
100
AcDbEntity
  8
0
 62
     3
100
AcDbLine
 10
102.2842351326024
 20
217.5388061437516
 30
0.0
 11
28.6175684659357
 21
217.5388061437516
 31
0.0
  0
ARC
  5
B3F
330
6B
100
AcDbEntity
  8
0
 62
     3
100
AcDbCircle
 10
102.2842351326024
 20
214.3721394770849
 30
0.0
 40
3.166666666666666
100
AcDbArc
 50
0.0
 51
90.0
  0
LINE
  5
B40
330
6B
100
AcDbEntity
  8
0
 62
     3
100
AcDbLine
 10
28.6175684659357
 20
168.2054728104181
 30
0.0
 11
102.2842351326024
 21
168.2054728104181
 31
0.0
  0
LINE
  5
B41
330
6B
100
AcDbEntity
  8
0
 62
     3
100
AcDbLine
 10
105.4509017992689
 20
171.3721394770848
 30
0.0
 11
105.4509017992689
 21
214.3721394770849
 31
0.0
  0
ARC
  5
B42
330
6B
100
AcDbEntity
  8
0
 62
     3
100
AcDbCircle
 10
102.2842351326024
 20
171.3721394770848
 30
0.0
 40
3.166666666666666
100
AcDbArc
 50
270.0
 51
0.0
  0
LINE
  5
B43
330
6B
100
AcDbEntity
  8
0
 62
     3
100
AcDbLine
 10
28.6175684659357
 20
164.8721394770848
 30
0.0
 11
102.2842351326024
 21
164.8721394770848
 31
0.0
  0
ARC
  5
B44
330
6B
100
AcDbEntity
  8
0
 62
     3
100
AcDbCircle
 10
102.2842351326024
 20
171.3721394770848
 30
0.0
 40
6.5
100
AcDbArc
 50
270.0
 51
0.0
  0
LINE
  5
B45
330
6B
100
AcDbEntity
  8
0
 62
     3
100
AcDbLine
 10
108.7842351326024
 20
171.3721394770848
 30
0.0
 11
108.7842351326024
 21
214.3721394770849
 31
0.0
  0
ARC
  5
B46
330
6B
100
AcDbEntity
  8
0
 62
     3
100
AcDbCircle
 10
102.2842351326024
 20
214.3721394770849
 30
0.0
 40
6.5
100
AcDbArc
 50
0.0
 51
90.0
  0
LINE
  5
B47
330
6B
100
AcDbEntity
  8
0
 62
     3
100
AcDbLine
 10
22.11756846593571
 20
214.3721394770849
 30
0.0
 11
22.11756846593571
 21
171.3721394770848
 31
0.0
  0
LINE
  5
B48
330
6B
100
AcDbEntity
  8
0
 62
     3
100
AcDbLine
 10
102.2842351326024
 20
220.8721394770849
 30
0.0
 11
28.6175684659357
 21
220.8721394770849
 31
0.0
  0
ARC
  5
B49
330
6B
100
AcDbEntity
  8
0
 62
     3
100
AcDbCircle
 10
28.6175684659357
 20
214.3721394770849
 30
0.0
 40
6.5
100
AcDbArc
 50
90.0
 51
180.0
  0
LINE
  5
B4D
330
6B
100
AcDbEntity
  8
0
 62
     3
100
AcDbLine
 10
37.28371744656482
 20
161.0388061437514
 30
0.0
 11
30.28371744656482
 21
161.0388061437514
 31
0.0
  0
LINE
  5
B4E
330
6B
100
AcDbEntity
  8
0
 62
     3
100
AcDbLine
 10
37.76305077989814
 20
164.8721394770847
 30
0.0
 11
37.28371744656482
 21
161.0388061437514
 31
0.0
  0
LINE
  5
B4F
330
6B
100
AcDbEntity
  8
0
 62
     3
100
AcDbLine
 10
30.28371744656482
 20
161.0388061437514
 30
0.0
 11
29.80471744656484
 21
164.8721394770847
 31
0.0
  0
LINE
  5
B50
330
6B
100
AcDbEntity
  8
0
 62
     3
100
AcDbLine
 10
93.61705077989816
 20
161.0388061437514
 30
0.0
 11
100.6170507798981
 21
161.0388061437514
 31
0.0
  0
LINE
  5
B51
330
6B
100
AcDbEntity
  8
0
 62
     3
100
AcDbLine
 10
93.1380507798981
 20
164.8721394770847
 30
0.0
 11
93.61705077989816
 21
161.0388061437514
 31
0.0
  0
LINE
  5
B52
330
6B
100
AcDbEntity
  8
0
 62
     3
100
AcDbLine
 10
100.6170507798981
 20
161.0388061437514
 30
0.0
 11
101.0963841132314
 21
164.8721394770847
 31
0.0
  0
LINE
  5
B53
330
6B
100
AcDbEntity
  8
0
 62
     3
100
AcDbLine
 10
185.7518216552185
 20
193.4088061437514
 30
0.0
 11
205.7518216552186
 21
193.4088061437514
 31
0.0
  0
ARC
  5
B54
330
6B
100
AcDbEntity
  8
0
 62
     3
100
AcDbCircle
 10
201.8971549885518
 20
193.0834728104182
 30
0.0
 40
3.901333333333333
100
AcDbArc
 50
4.785000000000446
 51
69.68500000000061
  0
ARC
  5
B55
330
6B
100
AcDbEntity
  8
0
 62
     3
100
AcDbCircle
 10
189.6064883218853
 20
193.0834728104182
 30
0.0
 40
3.901333333333333
100
AcDbArc
 50
110.3149999999994
 51
175.2149999999995
  0
LINE
  5
B56
330
6B
100
AcDbEntity
  8
0
 62
     3
100
AcDbLine
 10
203.2518216552186
 20
196.7421394770847
 30
0.0
 11
188.2518216552186
 21
196.7421394770847
 31
0.0
  0
LINE
  5
B57
330
6B
100
AcDbEntity
  8
0
 62
     3
100
AcDbLine
 10
185.7518216552185
 20
197.7421394770847
 30
0.0
 11
205.7518216552186
 21
197.7421394770847
 31
0.0
  0
ARC
  5
B58
330
6B
100
AcDbEntity
  8
0
 62
     3
100
AcDbCircle
 10
201.8971549885518
 20
197.4168061437515
 30
0.0
 40
3.901333333333333
100
AcDbArc
 50
4.785000000000446
 51
69.68500000000061
  0
ARC
  5
B59
330
6B
100
AcDbEntity
  8
0
 62
     3
100
AcDbCircle
 10
189.6064883218853
 20
197.4168061437515
 30
0.0
 40
3.901333333333333
100
AcDbArc
 50
110.3149999999994
 51
175.2149999999995
  0
LINE
  5
B5A
330
6B
100
AcDbEntity
  8
0
 62
     3
100
AcDbLine
 10
203.2518216552186
 20
201.0754728104182
 30
0.0
 11
188.2518216552186
 21
201.0754728104182
 31
0.0
  0
LINE
  5
B5B
330
6B
100
AcDbEntity
  8
0
 62
     3
100
AcDbLine
 10
185.7518216552185
 20
202.0754728104182
 30
0.0
 11
205.7518216552186
 21
202.0754728104182
 31
0.0
  0
ARC
  5
B5C
330
6B
100
AcDbEntity
  8
0
 62
     3
100
AcDbCircle
 10
201.8971549885518
 20
201.7501394770848
 30
0.0
 40
3.901333333333333
100
AcDbArc
 50
4.785000000000446
 51
69.68500000000061
  0
ARC
  5
B5D
330
6B
100
AcDbEntity
  8
0
 62
     3
100
AcDbCircle
 10
189.6064883218853
 20
201.7501394770848
 30
0.0
 40
3.901333333333333
100
AcDbArc
 50
110.3149999999994
 51
175.2149999999995
  0
LINE
  5
B5E
330
6B
100
AcDbEntity
  8
0
 62
     3
100
AcDbLine
 10
203.2518216552186
 20
205.4088061437516
 30
0.0
 11
188.2518216552186
 21
205.4088061437516
 31
0.0
  0
LINE
  5
B5F
330
6B
100
AcDbEntity
  8
0
 62
     3
100
AcDbLine
 10
185.7518216552185
 20
206.4088061437514
 30
0.0
 11
205.7518216552186
 21
206.4088061437514
 31
0.0
  0
ARC
  5
B60
330
6B
100
AcDbEntity
  8
0
 62
     3
100
AcDbCircle
 10
201.8971549885518
 20
206.0834728104182
 30
0.0
 40
3.901333333333333
100
AcDbArc
 50
4.785000000000446
 51
69.68500000000061
  0
ARC
  5
B61
330
6B
100
AcDbEntity
  8
0
 62
     3
100
AcDbCircle
 10
189.6064883218853
 20
206.0834728104182
 30
0.0
 40
3.901333333333333
100
AcDbArc
 50
110.3149999999994
 51
175.2149999999995
  0
LINE
  5
B62
330
6B
100
AcDbEntity
  8
0
 62
     3
100
AcDbLine
 10
203.2518216552186
 20
209.7421394770849
 30
0.0
 11
188.2518216552186
 21
209.7421394770849
 31
0.0
  0
LINE
  5
B63
330
6B
100
AcDbEntity
  8
0
 62
     3
100
AcDbLine
 10
155.7518216552186
 20
193.4088061437514
 30
0.0
 11
175.7518216552186
 21
193.4088061437514
 31
0.0
  0
ARC
  5
B64
330
6B
100
AcDbEntity
  8
0
 62
     3
100
AcDbCircle
 10
171.8971549885519
 20
193.0834728104182
 30
0.0
 40
3.901333333333333
100
AcDbArc
 50
4.785000000000446
 51
69.68500000000061
  0
ARC
  5
B65
330
6B
100
AcDbEntity
  8
0
 62
     3
100
AcDbCircle
 10
159.6064883218853
 20
193.0834728104182
 30
0.0
 40
3.901333333333333
100
AcDbArc
 50
110.3149999999994
 51
175.2149999999995
  0
LINE
  5
B66
330
6B
100
AcDbEntity
  8
0
 62
     3
100
AcDbLine
 10
173.2518216552185
 20
196.7421394770847
 30
0.0
 11
158.2518216552186
 21
196.7421394770847
 31
0.0
  0
LINE
  5
B67
330
6B
100
AcDbEntity
  8
0
 62
     3
100
AcDbLine
 10
155.7518216552186
 20
197.7421394770847
 30
0.0
 11
175.7518216552186
 21
197.7421394770847
 31
0.0
  0
ARC
  5
B68
330
6B
100
AcDbEntity
  8
0
 62
     3
100
AcDbCircle
 10
171.8971549885519
 20
197.4168061437515
 30
0.0
 40
3.901333333333333
100
AcDbArc
 50
4.785000000000446
 51
69.68500000000061
  0
ARC
  5
B69
330
6B
100
AcDbEntity
  8
0
 62
     3
100
AcDbCircle
 10
159.6064883218853
 20
197.4168061437515
 30
0.0
 40
3.901333333333333
100
AcDbArc
 50
110.3149999999994
 51
175.2149999999995
  0
LINE
  5
B6A
330
6B
100
AcDbEntity
  8
0
 62
     3
100
AcDbLine
 10
173.2518216552185
 20
201.0754728104182
 30
0.0
 11
158.2518216552186
 21
201.0754728104182
 31
0.0
  0
LINE
  5
B6B
330
6B
100
AcDbEntity
  8
0
 62
     3
100
AcDbLine
 10
155.7518216552186
 20
202.0754728104182
 30
0.0
 11
175.7518216552186
 21
202.0754728104182
 31
0.0
  0
ARC
  5
B6C
330
6B
100
AcDbEntity
  8
0
 62
     3
100
AcDbCircle
 10
171.8971549885519
 20
201.7501394770848
 30
0.0
 40
3.901333333333333
100
AcDbArc
 50
4.785000000000446
 51
69.68500000000061
  0
ARC
  5
B6D
330
6B
100
AcDbEntity
  8
0
 62
     3
100
AcDbCircle
 10
159.6064883218853
 20
201.7501394770848
 30
0.0
 40
3.901333333333333
100
AcDbArc
 50
110.3149999999994
 51
175.2149999999995
  0
LINE
  5
B6E
330
6B
100
AcDbEntity
  8
0
 62
     3
100
AcDbLine
 10
173.2518216552185
 20
205.4088061437516
 30
0.0
 11
158.2518216552186
 21
205.4088061437516
 31
0.0
  0
LINE
  5
B6F
330
6B
100
AcDbEntity
  8
0
 62
     3
100
AcDbLine
 10
155.7518216552186
 20
206.4088061437514
 30
0.0
 11
175.7518216552186
 21
206.4088061437514
 31
0.0
  0
ARC
  5
B70
330
6B
100
AcDbEntity
  8
0
 62
     3
100
AcDbCircle
 10
171.8971549885519
 20
206.0834728104182
 30
0.0
 40
3.901333333333333
100
AcDbArc
 50
4.785000000000446
 51
69.68500000000061
  0
ARC
  5
B71
330
6B
100
AcDbEntity
  8
0
 62
     3
100
AcDbCircle
 10
159.6064883218853
 20
206.0834728104182
 30
0.0
 40
3.901333333333333
100
AcDbArc
 50
110.3149999999994
 51
175.2149999999995
  0
LINE
  5
B72
330
6B
100
AcDbEntity
  8
0
 62
     3
100
AcDbLine
 10
173.2518216552185
 20
209.7421394770849
 30
0.0
 11
158.2518216552186
 21
209.7421394770849
 31
0.0
  0
ARC
  5
B83
330
6B
100
AcDbEntity
  8
0
 62
     3
100
AcDbCircle
 10
324.7508931579322
 20
171.3721394770848
 30
0.0
 40
6.5
100
AcDbArc
 50
270.0
 51
0.0
  0
ARC
  5
B84
330
6B
100
AcDbEntity
  8
0
 62
     3
100
AcDbCircle
 10
251.0842264912655
 20
171.3721394770848
 30
0.0
 40
6.5
100
AcDbArc
 50
180.0
 51
270.0
  0
LINE
  5
B85
330
6B
100
AcDbEntity
  8
0
 62
     3
100
AcDbLine
 10
244.5842264912656
 20
171.3721394770848
 30
0.0
 11
244.5842264912656
 21
214.3721394770849
 31
0.0
  0
ARC
  5
B86
330
6B
100
AcDbEntity
  8
0
 62
     3
100
AcDbCircle
 10
251.0842264912655
 20
214.3721394770849
 30
0.0
 40
6.5
100
AcDbArc
 50
90.0
 51
180.0
  0
LINE
  5
B87
330
6B
100
AcDbEntity
  8
0
 62
     3
100
AcDbLine
 10
331.2508931579323
 20
214.3721394770849
 30
0.0
 11
331.2508931579323
 21
171.3721394770848
 31
0.0
  0
LINE
  5
B88
330
6B
100
AcDbEntity
  8
0
 62
     3
100
AcDbLine
 10
251.0842264912655
 20
220.8721394770849
 30
0.0
 11
324.7508931579322
 21
220.8721394770849
 31
0.0
  0
ARC
  5
B89
330
6B
100
AcDbEntity
  8
0
 62
     3
100
AcDbCircle
 10
324.7508931579322
 20
214.3721394770849
 30
0.0
 40
6.5
100
AcDbArc
 50
0.0
 51
90.0
  0
LINE
  5
B8D
330
6B
100
AcDbEntity
  8
0
 62
     3
100
AcDbLine
 10
315.6043754718949
 20
164.8721394770847
 30
0.0
 11
316.0837088052281
 21
161.0388061437514
 31
0.0
  0
LINE
  5
B8E
330
6B
100
AcDbEntity
  8
0
 62
     3
100
AcDbLine
 10
323.0837088052281
 20
161.0388061437514
 30
0.0
 11
323.5627088052282
 21
164.8721394770847
 31
0.0
  0
LINE
  5
B8F
330
6B
100
AcDbEntity
  8
0
 62
     3
100
AcDbLine
 10
260.2293754718949
 20
164.8721394770847
 30
0.0
 11
259.7503754718948
 21
161.0388061437514
 31
0.0
  0
LINE
  5
B90
330
6B
100
AcDbEntity
  8
0
 62
     3
100
AcDbLine
 10
252.7503754718948
 20
161.0388061437514
 30
0.0
 11
252.2710421385615
 21
164.8721394770847
 31
0.0
  0
ARC
  5
B91
330
6B
100
AcDbEntity
  8
0
 62
     3
100
AcDbCircle
 10
324.7508931579322
 20
214.3721394770849
 30
0.0
 40
4.666666666666666
100
AcDbArc
 50
0.0
 51
90.0
  0
LINE
  5
B92
330
6B
100
AcDbEntity
  8
0
 62
     3
100
AcDbLine
 10
329.4175598245989
 20
214.3721394770849
 30
0.0
 11
329.4175598245989
 21
171.3721394770848
 31
0.0
  0
ARC
  5
B93
330
6B
100
AcDbEntity
  8
0
 62
     3
100
AcDbCircle
 10
324.7508931579322
 20
171.3721394770848
 30
0.0
 40
4.666666666666666
100
AcDbArc
 50
270.0
 51
0.0
  0
ARC
  5
B94
330
6B
100
AcDbEntity
  8
0
 62
     3
100
AcDbCircle
 10
251.0842264912655
 20
171.3721394770848
 30
0.0
 40
4.666666666666666
100
AcDbArc
 50
180.0
 51
270.0
  0
LINE
  5
B95
330
6B
100
AcDbEntity
  8
0
 62
     3
100
AcDbLine
 10
251.0842264912655
 20
219.0388061437516
 30
0.0
 11
324.7508931579322
 21
219.0388061437516
 31
0.0
  0
LINE
  5
B96
330
6B
100
AcDbEntity
  8
0
 62
     3
100
AcDbLine
 10
246.4175598245989
 20
171.3721394770848
 30
0.0
 11
246.4175598245989
 21
214.3721394770849
 31
0.0
  0
ARC
  5
B97
330
6B
100
AcDbEntity
  8
0
 62
     3
100
AcDbCircle
 10
251.0842264912655
 20
214.3721394770849
 30
0.0
 40
4.666666666666666
100
AcDbArc
 50
90.0
 51
180.0
  0
LINE
  5
B98
330
6B
100
AcDbEntity
  8
0
 62
     3
100
AcDbLine
 10
292.9407088052282
 20
197.7421394770847
 30
0.0
 11
312.9407088052281
 21
197.7421394770847
 31
0.0
  0
ARC
  5
B99
330
6B
100
AcDbEntity
  8
0
 62
     3
100
AcDbCircle
 10
309.0860421385614
 20
197.4168061437515
 30
0.0
 40
3.901333333333333
100
AcDbArc
 50
4.785000000000446
 51
69.68500000000061
  0
ARC
  5
B9A
330
6B
100
AcDbEntity
  8
0
 62
     3
100
AcDbCircle
 10
296.7953754718949
 20
197.4168061437515
 30
0.0
 40
3.901333333333333
100
AcDbArc
 50
110.3149999999994
 51
175.2149999999995
  0
LINE
  5
B9B
330
6B
100
AcDbEntity
  8
0
 62
     3
100
AcDbLine
 10
310.4407088052282
 20
201.0754728104182
 30
0.0
 11
295.4407088052282
 21
201.0754728104182
 31
0.0
  0
LINE
  5
B9C
330
6B
100
AcDbEntity
  8
0
 62
     3
100
AcDbLine
 10
292.9407088052282
 20
202.0754728104182
 30
0.0
 11
312.9407088052281
 21
202.0754728104182
 31
0.0
  0
ARC
  5
B9D
330
6B
100
AcDbEntity
  8
0
 62
     3
100
AcDbCircle
 10
309.0860421385614
 20
201.7501394770848
 30
0.0
 40
3.901333333333333
100
AcDbArc
 50
4.785000000000446
 51
69.68500000000061
  0
ARC
  5
B9E
330
6B
100
AcDbEntity
  8
0
 62
     3
100
AcDbCircle
 10
296.7953754718949
 20
201.7501394770848
 30
0.0
 40
3.901333333333333
100
AcDbArc
 50
110.3149999999994
 51
175.2149999999995
  0
LINE
  5
B9F
330
6B
100
AcDbEntity
  8
0
 62
     3
100
AcDbLine
 10
310.4407088052282
 20
205.4088061437516
 30
0.0
 11
295.4407088052282
 21
205.4088061437516
 31
0.0
  0
LINE
  5
BA0
330
6B
100
AcDbEntity
  8
0
 62
     3
100
AcDbLine
 10
262.9407088052281
 20
197.7421394770847
 30
0.0
 11
282.9407088052282
 21
197.7421394770847
 31
0.0
  0
ARC
  5
BA1
330
6B
100
AcDbEntity
  8
0
 62
     3
100
AcDbCircle
 10
279.0860421385614
 20
197.4168061437515
 30
0.0
 40
3.901333333333333
100
AcDbArc
 50
4.785000000000446
 51
69.68500000000061
  0
ARC
  5
BA2
330
6B
100
AcDbEntity
  8
0
 62
     3
100
AcDbCircle
 10
266.7953754718948
 20
197.4168061437515
 30
0.0
 40
3.901333333333333
100
AcDbArc
 50
110.3149999999994
 51
175.2149999999995
  0
LINE
  5
BA3
330
6B
100
AcDbEntity
  8
0
 62
     3
100
AcDbLine
 10
280.4407088052282
 20
201.0754728104182
 30
0.0
 11
265.4407088052281
 21
201.0754728104182
 31
0.0
  0
LINE
  5
BA4
330
6B
100
AcDbEntity
  8
0
 62
     3
100
AcDbLine
 10
262.9407088052281
 20
202.0754728104182
 30
0.0
 11
282.9407088052282
 21
202.0754728104182
 31
0.0
  0
ARC
  5
BA5
330
6B
100
AcDbEntity
  8
0
 62
     3
100
AcDbCircle
 10
279.0860421385614
 20
201.7501394770848
 30
0.0
 40
3.901333333333333
100
AcDbArc
 50
4.785000000000446
 51
69.68500000000061
  0
ARC
  5
BA6
330
6B
100
AcDbEntity
  8
0
 62
     3
100
AcDbCircle
 10
266.7953754718948
 20
201.7501394770848
 30
0.0
 40
3.901333333333333
100
AcDbArc
 50
110.3149999999994
 51
175.2149999999995
  0
LINE
  5
BA7
330
6B
100
AcDbEntity
  8
0
 62
     3
100
AcDbLine
 10
280.4407088052282
 20
205.4088061437516
 30
0.0
 11
265.4407088052281
 21
205.4088061437516
 31
0.0
  0
LINE
  5
BA8
330
6B
100
AcDbEntity
  8
0
 62
     3
100
AcDbLine
 10
314.1573754718947
 20
144.2088061437514
 30
0.0
 11
314.1573754718947
 21
124.2088061437514
 31
0.0
  0
LINE
  5
BA9
330
6B
100
AcDbEntity
  8
0
 62
     3
100
AcDbLine
 10
314.1573754718947
 20
124.2088061437514
 30
0.0
 11
319.1573754718947
 21
124.2088061437514
 31
0.0
  0
LINE
  5
BAA
330
6B
100
AcDbEntity
  8
0
 62
     3
100
AcDbLine
 10
319.1573754718947
 20
124.2088061437514
 30
0.0
 11
319.1573754718947
 21
144.2088061437514
 31
0.0
  0
LINE
  5
BAB
330
6B
100
AcDbEntity
  8
0
 62
     3
100
AcDbLine
 10
319.1573754718947
 20
144.2088061437514
 30
0.0
 11
314.1573754718947
 21
144.2088061437514
 31
0.0
  0
LINE
  5
BAC
330
6B
100
AcDbEntity
  8
0
 62
     3
100
AcDbLine
 10
329.1573754718949
 20
141.5294728104181
 30
0.0
 11
319.1573754718947
 21
124.2088061437514
 31
0.0
  0
LINE
  5
BAD
330
6B
100
AcDbEntity
  8
0
 62
     3
100
AcDbLine
 10
319.1573754718947
 20
124.2088061437514
 30
0.0
 11
323.4873754718949
 21
121.7088061437514
 31
0.0
  0
LINE
  5
BAE
330
6B
100
AcDbEntity
  8
0
 62
     3
100
AcDbLine
 10
323.4873754718949
 20
121.7088061437514
 30
0.0
 11
333.4873754718949
 21
139.0294728104181
 31
0.0
  0
LINE
  5
BAF
330
6B
100
AcDbEntity
  8
0
 62
     3
100
AcDbLine
 10
333.4873754718949
 20
139.0294728104181
 30
0.0
 11
329.1573754718949
 21
141.5294728104181
 31
0.0
  0
LINE
  5
BB0
330
6B
100
AcDbEntity
  8
0
 62
     3
100
AcDbLine
 10
319.1573754718947
 20
141.7088061437514
 30
0.0
 11
321.6573754718947
 21
141.7088061437514
 31
0.0
  0
LINE
  5
BB1
330
6B
100
AcDbEntity
  8
0
 62
     3
100
AcDbLine
 10
321.6573754718947
 20
141.7088061437514
 30
0.0
 11
321.6573754718947
 21
128.5838061437514
 31
0.0
  0
LINE
  5
BB2
330
6B
100
AcDbEntity
  8
0
 62
     3
100
AcDbLine
 10
321.6573754718947
 20
122.9588061437514
 30
0.0
 11
321.6573754718947
 21
119.2088061437514
 31
0.0
  0
LINE
  5
BB3
330
6B
100
AcDbEntity
  8
0
 62
     3
100
AcDbLine
 10
321.6573754718947
 20
119.2088061437514
 30
0.0
 11
316.6573754718947
 21
119.2088061437514
 31
0.0
  0
LINE
  5
BB4
330
6B
100
AcDbEntity
  8
0
 62
     3
100
AcDbLine
 10
316.6573754718947
 20
119.2088061437514
 30
0.0
 11
316.6573754718947
 21
124.2088061437514
 31
0.0
  0
LINE
  5
BB5
330
6B
100
AcDbEntity
  8
0
 62
     3
100
AcDbLine
 10
321.6573754718947
 20
119.2088061437514
 30
0.0
 11
323.5323754718947
 21
121.7088061437514
 31
0.0
  0
LINE
  5
BB6
330
6B
100
AcDbEntity
  8
0
 62
     3
100
AcDbLine
 10
321.6573754718947
 20
119.2088061437514
 30
0.0
 11
325.4073754718949
 21
116.7088061437514
 31
0.0
  0
LINE
  5
BB7
330
6B
100
AcDbEntity
  8
0
 62
     3
100
AcDbLine
 10
325.4073754718949
 20
116.7088061437514
 30
0.0
 11
336.0323754718948
 21
134.2088061437514
 31
0.0
  0
LINE
  5
BB8
330
6B
100
AcDbEntity
  8
0
 62
     3
100
AcDbLine
 10
336.0323754718948
 20
134.2088061437514
 30
0.0
 11
332.2823754718949
 21
136.0838061437514
 31
0.0
  0
LINE
  5
BB9
330
6B
100
AcDbEntity
  8
0
 62
     3
100
AcDbLine
 10
321.0323754718948
 20
153.5838061437514
 30
0.0
 11
313.5323754718947
 21
154.2088061437514
 31
0.0
  0
LINE
  5
BBA
330
6B
100
AcDbEntity
  8
0
 62
     3
100
AcDbLine
 10
321.0323754718948
 20
152.3338061437514
 30
0.0
 11
313.5323754718947
 21
152.9588061437514
 31
0.0
  0
LINE
  5
BBB
330
6B
100
AcDbEntity
  8
0
 62
     3
100
AcDbLine
 10
319.7823754718947
 20
152.4378061437514
 30
0.0
 11
319.7823754718947
 21
141.7088061437514
 31
0.0
  0
LINE
  5
BBC
330
6B
100
AcDbEntity
  8
0
 62
     3
100
AcDbLine
 10
317.9073754718948
 20
144.2088061437514
 30
0.0
 11
317.9073754718948
 21
152.5941394770848
 31
0.0
  0
LINE
  5
BBD
330
6B
100
AcDbEntity
  8
0
 62
     3
100
AcDbLine
 10
316.0323754718947
 20
152.7504728104181
 30
0.0
 11
316.0323754718947
 21
144.2088061437514
 31
0.0
  0
LINE
  5
BBE
330
6B
100
AcDbEntity
  8
0
 62
     3
100
AcDbLine
 10
319.7823754718947
 20
176.7088061437514
 30
0.0
 11
319.7823754718947
 21
153.6878061437514
 31
0.0
  0
LINE
  5
BBF
330
6B
100
AcDbEntity
  8
0
 62
     3
100
AcDbLine
 10
316.0323754718947
 20
176.7088061437514
 30
0.0
 11
316.0323754718947
 21
154.0004728104181
 31
0.0
  0
ARC
  5
BC0
330
6B
100
AcDbEntity
  8
0
 62
     3
100
AcDbCircle
 10
317.9073754718948
 20
176.7088061437514
 30
0.0
 40
2.0
100
AcDbArc
 50
0.0
 51
180.0
  0
ARC
  5
BC1
330
6B
100
AcDbEntity
  8
0
 62
     3
100
AcDbCircle
 10
317.9073754718948
 20
176.7088061437514
 30
0.0
 40
3.166666666666666
100
AcDbArc
 50
309.1669999999955
 51
230.8330000000045
  0
LINE
  5
BC2
330
6B
100
AcDbEntity
  8
0
 62
     3
100
AcDbLine
 10
324.7508931579322
 20
166.7054728104181
 30
0.0
 11
319.7823754718947
 21
166.7054728104181
 31
0.0
  0
LINE
  5
BC3
330
6B
100
AcDbEntity
  8
0
 62
     3
100
AcDbLine
 10
324.7508931579322
 20
164.8721394770848
 30
0.0
 11
319.7823754718947
 21
164.8721394770847
 31
0.0
  0
LINE
  5
BC4
330
6B
100
AcDbEntity
  8
0
 62
     3
100
AcDbLine
 10
319.7823754718947
 20
161.0388061437514
 30
0.0
 11
323.0837088052281
 21
161.0388061437514
 31
0.0
  0
LINE
  5
BC5
330
6B
100
AcDbEntity
  8
0
 62
     3
100
AcDbLine
 10
317.9073754718948
 20
153.8441394770847
 30
0.0
 11
317.9073754718948
 21
178.7088061437515
 31
0.0
  0
LINE
  5
BC6
330
6B
100
AcDbEntity
  8
0
 62
     3
100
AcDbLine
 10
255.0200421385614
 20
133.3754728104181
 30
0.0
 11
257.4807088052282
 21
133.3754728104181
 31
0.0
  0
LINE
  5
BC7
330
6B
100
AcDbEntity
  8
0
 62
     3
100
AcDbLine
 10
257.4807088052282
 20
133.3754728104181
 30
0.0
 11
257.8323754718948
 21
130.2114728104181
 31
0.0
  0
LINE
  5
BC8
330
6B
100
AcDbEntity
  8
0
 62
     3
100
AcDbLine
 10
257.8323754718948
 20
130.2114728104181
 30
0.0
 11
254.6683754718948
 21
130.2114728104181
 31
0.0
  0
LINE
  5
BC9
330
6B
100
AcDbEntity
  8
0
 62
     3
100
AcDbLine
 10
254.6683754718948
 20
130.2114728104181
 30
0.0
 11
255.0200421385614
 21
133.3754728104181
 31
0.0
  0
LINE
  5
BCA
330
6B
100
AcDbEntity
  8
0
 62
     3
100
AcDbLine
 10
254.6683754718948
 20
130.2114728104181
 30
0.0
 11
253.7893754718948
 21
130.2114728104181
 31
0.0
  0
LINE
  5
BCB
330
6B
100
AcDbEntity
  8
0
 62
     3
100
AcDbLine
 10
253.7893754718948
 20
130.2114728104181
 30
0.0
 11
253.7893754718948
 21
129.8598061437514
 31
0.0
  0
LINE
  5
BCC
330
6B
100
AcDbEntity
  8
0
 62
     3
100
AcDbLine
 10
253.7893754718948
 20
129.8598061437514
 30
0.0
 11
258.7113754718948
 21
129.8598061437514
 31
0.0
  0
LINE
  5
BCD
330
6B
100
AcDbEntity
  8
0
 62
     3
100
AcDbLine
 10
258.7113754718948
 20
129.8598061437514
 30
0.0
 11
258.7113754718948
 21
130.2114728104181
 31
0.0
  0
LINE
  5
BCE
330
6B
100
AcDbEntity
  8
0
 62
     3
100
AcDbLine
 10
258.7113754718948
 20
130.2114728104181
 30
0.0
 11
257.8323754718948
 21
130.2114728104181
 31
0.0
  0
ARC
  5
BCF
330
6B
100
AcDbEntity
  8
0
 62
     3
100
AcDbCircle
 10
253.3720421385615
 20
128.8051394770846
 30
0.0
 40
1.134333333333332
100
AcDbArc
 50
291.5949999999959
 51
68.40500000000409
  0
ARC
  5
BD0
330
6B
100
AcDbEntity
  8
0
 62
     3
100
AcDbCircle
 10
260.3390421385615
 20
122.9234728104181
 30
0.0
 40
8.135999999999999
100
AcDbArc
 50
143.6100000000012
 51
181.9069999999999
  0
ARC
  5
BD1
330
6B
100
AcDbEntity
  8
0
 62
     3
100
AcDbCircle
 10
259.1287088052281
 20
128.8051394770846
 30
0.0
 40
1.134333333333332
100
AcDbArc
 50
111.5949999999958
 51
248.4050000000041
  0
ARC
  5
BD2
330
6B
100
AcDbEntity
  8
0
 62
     3
100
AcDbCircle
 10
252.1617088052281
 20
122.9234728104181
 30
0.0
 40
8.135999999999999
100
AcDbArc
 50
358.0930000000001
 51
36.38999999999876
  0
LINE
  5
BD3
330
6B
100
AcDbEntity
  8
0
 62
     3
100
AcDbLine
 10
252.2073754718948
 20
122.6528061437514
 30
0.0
 11
260.2933754718948
 21
122.6528061437514
 31
0.0
  0
LINE
  5
BD4
330
6B
100
AcDbEntity
  8
0
 62
     3
100
AcDbLine
 10
254.6683754718948
 20
122.6528061437514
 30
0.0
 11
254.6683754718948
 21
118.0824728104181
 31
0.0
  0
LINE
  5
BD5
330
6B
100
AcDbEntity
  8
0
 62
     3
100
AcDbLine
 10
254.6683754718948
 20
118.0824728104181
 30
0.0
 11
253.9653754718947
 21
118.0824728104181
 31
0.0
  0
LINE
  5
BD6
330
6B
100
AcDbEntity
  8
0
 62
     3
100
AcDbLine
 10
253.9653754718947
 20
118.0824728104181
 30
0.0
 11
253.9653754718947
 21
122.6528061437514
 31
0.0
  0
LINE
  5
BD7
330
6B
100
AcDbEntity
  8
0
 62
     3
100
AcDbLine
 10
258.5353754718948
 20
122.6528061437514
 30
0.0
 11
258.5353754718948
 21
118.0824728104181
 31
0.0
  0
LINE
  5
BD8
330
6B
100
AcDbEntity
  8
0
 62
     3
100
AcDbLine
 10
258.5353754718948
 20
118.0824728104181
 30
0.0
 11
257.8323754718948
 21
118.0824728104181
 31
0.0
  0
LINE
  5
BD9
330
6B
100
AcDbEntity
  8
0
 62
     3
100
AcDbLine
 10
257.8323754718948
 20
118.0824728104181
 30
0.0
 11
257.8323754718948
 21
122.6528061437514
 31
0.0
  0
LINE
  5
BDA
330
6B
100
AcDbEntity
  8
0
 62
     3
100
AcDbLine
 10
255.0200421385614
 20
133.3754728104181
 30
0.0
 11
257.4807088052282
 21
133.3754728104181
 31
0.0
  0
LINE
  5
BDB
330
6B
100
AcDbEntity
  8
0
 62
     3
100
AcDbLine
 10
257.4807088052282
 20
133.3754728104181
 30
0.0
 11
257.8323754718948
 21
130.2114728104181
 31
0.0
  0
LINE
  5
BDC
330
6B
100
AcDbEntity
  8
0
 62
     3
100
AcDbLine
 10
257.8323754718948
 20
130.2114728104181
 30
0.0
 11
254.6683754718948
 21
130.2114728104181
 31
0.0
  0
LINE
  5
BDD
330
6B
100
AcDbEntity
  8
0
 62
     3
100
AcDbLine
 10
254.6683754718948
 20
130.2114728104181
 30
0.0
 11
255.0200421385614
 21
133.3754728104181
 31
0.0
  0
LINE
  5
BDE
330
6B
100
AcDbEntity
  8
0
 62
     3
100
AcDbLine
 10
254.6683754718948
 20
130.2114728104181
 30
0.0
 11
253.7893754718948
 21
130.2114728104181
 31
0.0
  0
LINE
  5
BDF
330
6B
100
AcDbEntity
  8
0
 62
     3
100
AcDbLine
 10
253.7893754718948
 20
130.2114728104181
 30
0.0
 11
253.7893754718948
 21
129.8598061437514
 31
0.0
  0
LINE
  5
BE0
330
6B
100
AcDbEntity
  8
0
 62
     3
100
AcDbLine
 10
253.7893754718948
 20
129.8598061437514
 30
0.0
 11
258.7113754718948
 21
129.8598061437514
 31
0.0
  0
LINE
  5
BE1
330
6B
100
AcDbEntity
  8
0
 62
     3
100
AcDbLine
 10
258.7113754718948
 20
129.8598061437514
 30
0.0
 11
258.7113754718948
 21
130.2114728104181
 31
0.0
  0
LINE
  5
BE2
330
6B
100
AcDbEntity
  8
0
 62
     3
100
AcDbLine
 10
258.7113754718948
 20
130.2114728104181
 30
0.0
 11
257.8323754718948
 21
130.2114728104181
 31
0.0
  0
ARC
  5
BE3
330
6B
100
AcDbEntity
  8
0
 62
     3
100
AcDbCircle
 10
253.3720421385615
 20
128.8051394770846
 30
0.0
 40
1.134333333333332
100
AcDbArc
 50
291.5949999999959
 51
68.40500000000409
  0
ARC
  5
BE4
330
6B
100
AcDbEntity
  8
0
 62
     3
100
AcDbCircle
 10
260.3390421385615
 20
122.9234728104181
 30
0.0
 40
8.135999999999999
100
AcDbArc
 50
143.6100000000012
 51
181.9069999999999
  0
ARC
  5
BE5
330
6B
100
AcDbEntity
  8
0
 62
     3
100
AcDbCircle
 10
259.1287088052281
 20
128.8051394770846
 30
0.0
 40
1.134333333333332
100
AcDbArc
 50
111.5949999999958
 51
248.4050000000041
  0
ARC
  5
BE6
330
6B
100
AcDbEntity
  8
0
 62
     3
100
AcDbCircle
 10
252.1617088052281
 20
122.9234728104181
 30
0.0
 40
8.135999999999999
100
AcDbArc
 50
358.0930000000001
 51
36.38999999999876
  0
LINE
  5
BE7
330
6B
100
AcDbEntity
  8
0
 62
     3
100
AcDbLine
 10
252.2073754718948
 20
122.6528061437514
 30
0.0
 11
260.2933754718948
 21
122.6528061437514
 31
0.0
  0
LINE
  5
BE8
330
6B
100
AcDbEntity
  8
0
 62
     3
100
AcDbLine
 10
254.6683754718948
 20
122.6528061437514
 30
0.0
 11
254.6683754718948
 21
118.0824728104181
 31
0.0
  0
LINE
  5
BE9
330
6B
100
AcDbEntity
  8
0
 62
     3
100
AcDbLine
 10
254.6683754718948
 20
118.0824728104181
 30
0.0
 11
253.9653754718947
 21
118.0824728104181
 31
0.0
  0
LINE
  5
BEA
330
6B
100
AcDbEntity
  8
0
 62
     3
100
AcDbLine
 10
253.9653754718947
 20
118.0824728104181
 30
0.0
 11
253.9653754718947
 21
122.6528061437514
 31
0.0
  0
LINE
  5
BEB
330
6B
100
AcDbEntity
  8
0
 62
     3
100
AcDbLine
 10
258.5353754718948
 20
122.6528061437514
 30
0.0
 11
258.5353754718948
 21
118.0824728104181
 31
0.0
  0
LINE
  5
BEC
330
6B
100
AcDbEntity
  8
0
 62
     3
100
AcDbLine
 10
258.5353754718948
 20
118.0824728104181
 30
0.0
 11
257.8323754718948
 21
118.0824728104181
 31
0.0
  0
LINE
  5
BED
330
6B
100
AcDbEntity
  8
0
 62
     3
100
AcDbLine
 10
257.8323754718948
 20
118.0824728104181
 30
0.0
 11
257.8323754718948
 21
122.6528061437514
 31
0.0
  0
LINE
  5
BEE
330
6B
100
AcDbEntity
  8
0
 62
     3
100
AcDbLine
 10
255.0200421385614
 20
133.3754728104181
 30
0.0
 11
257.4807088052282
 21
133.3754728104181
 31
0.0
  0
LINE
  5
BEF
330
6B
100
AcDbEntity
  8
0
 62
     3
100
AcDbLine
 10
257.4807088052282
 20
133.3754728104181
 30
0.0
 11
257.8323754718948
 21
130.2114728104181
 31
0.0
  0
LINE
  5
BF0
330
6B
100
AcDbEntity
  8
0
 62
     3
100
AcDbLine
 10
257.8323754718948
 20
130.2114728104181
 30
0.0
 11
254.6683754718948
 21
130.2114728104181
 31
0.0
  0
LINE
  5
BF1
330
6B
100
AcDbEntity
  8
0
 62
     3
100
AcDbLine
 10
254.6683754718948
 20
130.2114728104181
 30
0.0
 11
255.0200421385614
 21
133.3754728104181
 31
0.0
  0
LINE
  5
BF2
330
6B
100
AcDbEntity
  8
0
 62
     3
100
AcDbLine
 10
254.6683754718948
 20
130.2114728104181
 30
0.0
 11
253.7893754718948
 21
130.2114728104181
 31
0.0
  0
LINE
  5
BF3
330
6B
100
AcDbEntity
  8
0
 62
     3
100
AcDbLine
 10
253.7893754718948
 20
130.2114728104181
 30
0.0
 11
253.7893754718948
 21
129.8598061437514
 31
0.0
  0
LINE
  5
BF4
330
6B
100
AcDbEntity
  8
0
 62
     3
100
AcDbLine
 10
253.7893754718948
 20
129.8598061437514
 30
0.0
 11
258.7113754718948
 21
129.8598061437514
 31
0.0
  0
LINE
  5
BF5
330
6B
100
AcDbEntity
  8
0
 62
     3
100
AcDbLine
 10
258.7113754718948
 20
129.8598061437514
 30
0.0
 11
258.7113754718948
 21
130.2114728104181
 31
0.0
  0
LINE
  5
BF6
330
6B
100
AcDbEntity
  8
0
 62
     3
100
AcDbLine
 10
258.7113754718948
 20
130.2114728104181
 30
0.0
 11
257.8323754718948
 21
130.2114728104181
 31
0.0
  0
ARC
  5
BF7
330
6B
100
AcDbEntity
  8
0
 62
     3
100
AcDbCircle
 10
253.3720421385615
 20
128.8051394770846
 30
0.0
 40
1.134333333333332
100
AcDbArc
 50
291.5949999999959
 51
68.40500000000409
  0
ARC
  5
BF8
330
6B
100
AcDbEntity
  8
0
 62
     3
100
AcDbCircle
 10
260.3390421385615
 20
122.9234728104181
 30
0.0
 40
8.135999999999999
100
AcDbArc
 50
143.6100000000012
 51
181.9069999999999
  0
ARC
  5
BF9
330
6B
100
AcDbEntity
  8
0
 62
     3
100
AcDbCircle
 10
259.1287088052281
 20
128.8051394770846
 30
0.0
 40
1.134333333333332
100
AcDbArc
 50
111.5949999999958
 51
248.4050000000041
  0
ARC
  5
BFA
330
6B
100
AcDbEntity
  8
0
 62
     3
100
AcDbCircle
 10
252.1617088052281
 20
122.9234728104181
 30
0.0
 40
8.135999999999999
100
AcDbArc
 50
358.0930000000001
 51
36.38999999999876
  0
LINE
  5
BFB
330
6B
100
AcDbEntity
  8
0
 62
     3
100
AcDbLine
 10
252.2073754718948
 20
122.6528061437514
 30
0.0
 11
260.2933754718948
 21
122.6528061437514
 31
0.0
  0
LINE
  5
BFC
330
6B
100
AcDbEntity
  8
0
 62
     3
100
AcDbLine
 10
254.6683754718948
 20
122.6528061437514
 30
0.0
 11
254.6683754718948
 21
118.0824728104181
 31
0.0
  0
LINE
  5
BFD
330
6B
100
AcDbEntity
  8
0
 62
     3
100
AcDbLine
 10
254.6683754718948
 20
118.0824728104181
 30
0.0
 11
253.9653754718947
 21
118.0824728104181
 31
0.0
  0
LINE
  5
BFE
330
6B
100
AcDbEntity
  8
0
 62
     3
100
AcDbLine
 10
253.9653754718947
 20
118.0824728104181
 30
0.0
 11
253.9653754718947
 21
122.6528061437514
 31
0.0
  0
LINE
  5
BFF
330
6B
100
AcDbEntity
  8
0
 62
     3
100
AcDbLine
 10
258.5353754718948
 20
122.6528061437514
 30
0.0
 11
258.5353754718948
 21
118.0824728104181
 31
0.0
  0
LINE
  5
C00
330
6B
100
AcDbEntity
  8
0
 62
     3
100
AcDbLine
 10
258.5353754718948
 20
118.0824728104181
 30
0.0
 11
257.8323754718948
 21
118.0824728104181
 31
0.0
  0
LINE
  5
C01
330
6B
100
AcDbEntity
  8
0
 62
     3
100
AcDbLine
 10
257.8323754718948
 20
118.0824728104181
 30
0.0
 11
257.8323754718948
 21
122.6528061437514
 31
0.0
  0
LINE
  5
C02
330
6B
100
AcDbEntity
  8
0
 62
     3
100
AcDbLine
 10
257.3050421385616
 20
137.9424728104181
 30
0.0
 11
257.3050421385616
 21
133.3754728104181
 31
0.0
  0
LINE
  5
C03
330
6B
100
AcDbEntity
  8
0
 62
     3
100
AcDbLine
 10
257.3050421385616
 20
137.9424728104181
 30
0.0
 11
257.3050421385616
 21
133.3754728104181
 31
0.0
  0
LINE
  5
C04
330
6B
100
AcDbEntity
  8
0
 62
     3
100
AcDbLine
 10
257.3050421385616
 20
137.9424728104181
 30
0.0
 11
257.3050421385616
 21
133.3754728104181
 31
0.0
  0
LINE
  5
C05
330
6B
100
AcDbEntity
  8
0
 62
     3
100
AcDbLine
 10
255.1957088052282
 20
136.9838061437514
 30
0.0
 11
255.1957088052282
 21
133.3754728104181
 31
0.0
  0
LINE
  5
C06
330
6B
100
AcDbEntity
  8
0
 62
     3
100
AcDbLine
 10
255.1957088052282
 20
136.9838061437514
 30
0.0
 11
255.1957088052282
 21
133.3754728104181
 31
0.0
  0
LINE
  5
C07
330
6B
100
AcDbEntity
  8
0
 62
     3
100
AcDbLine
 10
255.1957088052282
 20
136.9838061437514
 30
0.0
 11
255.1957088052282
 21
133.3754728104181
 31
0.0
  0
LINE
  5
C08
330
6B
100
AcDbEntity
  8
0
 62
     3
100
AcDbLine
 10
253.3857088052282
 20
136.1611394770847
 30
0.0
 11
259.1150421385614
 21
138.7651394770847
 31
0.0
  0
LINE
  5
C09
330
6B
100
AcDbEntity
  8
0
 62
     3
100
AcDbLine
 10
253.3857088052282
 20
137.2028061437514
 30
0.0
 11
258.5940421385615
 21
139.8068061437514
 31
0.0
  0
LINE
  5
C0A
330
6B
100
AcDbEntity
  8
0
 62
     3
100
AcDbLine
 10
255.2327088052282
 20
138.0898061437514
 30
0.0
 11
255.2327088052282
 21
176.7088061437514
 31
0.0
  0
LINE
  5
C0B
330
6B
100
AcDbEntity
  8
0
 62
     3
100
AcDbLine
 10
257.3160421385614
 20
139.1314728104181
 30
0.0
 11
257.3160421385614
 21
176.7088061437514
 31
0.0
  0
LINE
  5
C0C
330
6B
100
AcDbEntity
  8
0
 62
     3
100
AcDbLine
 10
258.5837088052281
 20
177.6064728104182
 30
0.0
 11
258.5837088052281
 21
175.8111394770847
 31
0.0
  0
ARC
  5
C0D
330
6B
100
AcDbEntity
  8
0
 62
     3
100
AcDbCircle
 10
256.2503754718948
 20
176.7088061437514
 30
0.0
 40
2.5
100
AcDbArc
 50
21.03900000000061
 51
158.9609999999994
  0
LINE
  5
C0E
330
6B
100
AcDbEntity
  8
0
 62
     3
100
AcDbLine
 10
253.9170421385614
 20
177.6064728104182
 30
0.0
 11
253.9170421385614
 21
175.8111394770847
 31
0.0
  0
ARC
  5
C0F
330
6B
100
AcDbEntity
  8
0
 62
     3
100
AcDbCircle
 10
256.2503754718948
 20
176.7088061437514
 30
0.0
 40
2.5
100
AcDbArc
 50
295.2330000000008
 51
338.9609999999994
  0
ARC
  5
C10
330
6B
100
AcDbEntity
  8
0
 62
     3
100
AcDbCircle
 10
256.2503754718948
 20
176.7088061437514
 30
0.0
 40
2.5
100
AcDbArc
 50
201.0390000000006
 51
246.4379999999954
  0
LINE
  5
C11
330
6B
100
AcDbEntity
  8
0
 62
     3
100
AcDbLine
 10
255.2327088052282
 20
176.7088061437514
 30
0.0
 11
257.3160421385614
 21
176.7088061437514
 31
0.0
  0
LINE
  5
C12
330
6B
100
AcDbEntity
  8
0
 62
     3
100
AcDbLine
 10
255.2327088052282
 20
161.0388061437514
 30
0.0
 11
252.7503754718948
 21
161.0388061437514
 31
0.0
  0
LINE
  5
C13
330
6B
100
AcDbEntity
  8
0
 62
     3
100
AcDbLine
 10
255.2327088052282
 20
166.7054728104181
 30
0.0
 11
251.0842264912655
 21
166.7054728104181
 31
0.0
  0
LINE
  5
C14
330
6B
100
AcDbEntity
  8
0
 62
     3
100
AcDbLine
 10
255.2327088052282
 20
164.8721394770847
 30
0.0
 11
251.0842264912655
 21
164.8721394770848
 31
0.0
  0
LINE
  5
C15
330
6B
100
AcDbEntity
  8
0
 62
     3
100
AcDbLine
 10
259.7503754718948
 20
161.0388061437514
 30
0.0
 11
257.3160421385614
 21
161.0388061437514
 31
0.0
  0
LINE
  5
C16
330
6B
100
AcDbEntity
  8
0
 62
     3
100
AcDbLine
 10
316.0323754718947
 20
166.7054728104181
 30
0.0
 11
257.3160421385614
 21
166.7054728104181
 31
0.0
  0
LINE
  5
C17
330
6B
100
AcDbEntity
  8
0
 62
     3
100
AcDbLine
 10
316.0323754718947
 20
164.8721394770847
 30
0.0
 11
257.3160421385614
 21
164.8721394770847
 31
0.0
  0
ARC
  5
C4F
330
6B
100
AcDbEntity
  8
0
 62
     3
100
AcDbCircle
 10
134.1281549885519
 20
166.7054728104181
 30
0.0
 40
1.666666666666666
100
AcDbArc
 50
180.0
 51
270.0
  0
LINE
  5
C50
330
6B
100
AcDbEntity
  8
0
 62
     3
100
AcDbLine
 10
132.4614883218853
 20
166.7054728104181
 30
0.0
 11
132.4614883218853
 21
219.7054728104183
 31
0.0
  0
ARC
  5
C51
330
6B
100
AcDbEntity
  8
0
 62
     3
100
AcDbCircle
 10
134.1281549885519
 20
219.7054728104183
 30
0.0
 40
1.666666666666666
100
AcDbArc
 50
90.0
 51
180.0
  0
LINE
  5
C52
330
6B
100
AcDbEntity
  8
0
 62
     3
100
AcDbLine
 10
140.4614883218853
 20
221.3721394770848
 30
0.0
 11
134.1281549885519
 21
221.3721394770848
 31
0.0
  0
ARC
  5
C53
330
6B
100
AcDbEntity
  8
0
 62
     3
100
AcDbCircle
 10
140.4614883218853
 20
220.7054728104183
 30
0.0
 40
0.6666666666666666
100
AcDbArc
 50
0.0
 51
90.0
  0
LINE
  5
C54
330
6B
100
AcDbEntity
  8
0
 62
     3
100
AcDbLine
 10
134.1281549885519
 20
165.0388061437514
 30
0.0
 11
140.4614883218853
 21
165.0388061437514
 31
0.0
  0
LINE
  5
C55
330
6B
100
AcDbEntity
  8
0
 62
     3
100
AcDbLine
 10
141.1281549885519
 20
165.705472810418
 30
0.0
 11
141.1281549885519
 21
220.7054728104183
 31
0.0
  0
ARC
  5
C56
330
6B
100
AcDbEntity
  8
0
 62
     3
100
AcDbCircle
 10
140.4614883218853
 20
165.705472810418
 30
0.0
 40
0.6666666666666666
100
AcDbArc
 50
270.0
 51
0.0
  0
LINE
  5
C5A
330
6B
100
AcDbEntity
  8
0
 62
     7
100
AcDbLine
 10
214.0944883218854
 20
193.2254728104182
 30
0.0
 11
214.416154988552
 21
193.2254728104182
 31
0.0
  0
LINE
  5
C5B
330
6B
100
AcDbEntity
  8
0
 62
     7
100
AcDbLine
 10
214.8018216552186
 20
192.5184728104182
 30
0.0
 11
214.8018216552186
 21
192.8398061437514
 31
0.0
  0
ARC
  5
C5C
330
6B
100
AcDbEntity
  8
0
 62
     7
100
AcDbCircle
 10
214.416154988552
 20
192.8398061437514
 30
0.0
 40
0.3856666666666666
100
AcDbArc
 50
0.0
 51
90.0
  0
LINE
  5
C5D
330
6B
100
AcDbEntity
  8
0
 62
     7
100
AcDbLine
 10
215.1018216552186
 20
192.5184728104182
 30
0.0
 11
215.1018216552186
 21
192.8398061437514
 31
0.0
  0
LINE
  5
C5E
330
6B
100
AcDbEntity
  8
0
 62
     7
100
AcDbLine
 10
215.8088216552186
 20
193.5254728104182
 30
0.0
 11
215.8088216552186
 21
193.2254728104182
 31
0.0
  0
LINE
  5
C5F
330
6B
100
AcDbEntity
  8
0
 62
     7
100
AcDbLine
 10
215.8088216552186
 20
193.2254728104182
 30
0.0
 11
215.4874883218853
 21
193.2254728104182
 31
0.0
  0
ARC
  5
C60
330
6B
100
AcDbEntity
  8
0
 62
     7
100
AcDbCircle
 10
215.4874883218853
 20
192.8398061437514
 30
0.0
 40
0.3856666666666666
100
AcDbArc
 50
90.0
 51
180.0
  0
LINE
  5
C61
330
6B
100
AcDbEntity
  8
0
 62
     7
100
AcDbLine
 10
215.1018216552186
 20
192.5184728104182
 30
0.0
 11
214.8018216552186
 21
192.5184728104182
 31
0.0
  0
LINE
  5
C62
330
6B
100
AcDbEntity
  8
0
 62
     7
100
AcDbLine
 10
215.1018216552186
 20
194.2324728104182
 30
0.0
 11
215.1018216552186
 21
193.9111394770849
 31
0.0
  0
ARC
  5
C63
330
6B
100
AcDbEntity
  8
0
 62
     7
100
AcDbCircle
 10
215.4874883218853
 20
193.9111394770849
 30
0.0
 40
0.3856666666666666
100
AcDbArc
 50
180.0
 51
270.0
  0
LINE
  5
C64
330
6B
100
AcDbEntity
  8
0
 62
     7
100
AcDbLine
 10
214.8018216552186
 20
194.2324728104182
 30
0.0
 11
215.1018216552186
 21
194.2324728104182
 31
0.0
  0
LINE
  5
C65
330
6B
100
AcDbEntity
  8
0
 62
     7
100
AcDbLine
 10
215.8088216552186
 20
193.5254728104182
 30
0.0
 11
215.4874883218853
 21
193.5254728104182
 31
0.0
  0
LINE
  5
C66
330
6B
100
AcDbEntity
  8
0
 62
     7
100
AcDbLine
 10
214.0944883218854
 20
193.5254728104182
 30
0.0
 11
214.416154988552
 21
193.5254728104182
 31
0.0
  0
ARC
  5
C67
330
6B
100
AcDbEntity
  8
0
 62
     7
100
AcDbCircle
 10
214.416154988552
 20
193.9111394770849
 30
0.0
 40
0.3856666666666666
100
AcDbArc
 50
270.0
 51
0.0
  0
LINE
  5
C68
330
6B
100
AcDbEntity
  8
0
 62
     7
100
AcDbLine
 10
214.8018216552186
 20
194.2324728104182
 30
0.0
 11
214.8018216552186
 21
193.9111394770849
 31
0.0
  0
LINE
  5
C69
330
6B
100
AcDbEntity
  8
0
 62
     7
100
AcDbLine
 10
214.0944883218854
 20
193.2254728104182
 30
0.0
 11
214.0944883218854
 21
193.5254728104182
 31
0.0
  0
LINE
  5
C6A
330
6B
100
AcDbEntity
  8
0
 62
     7
100
AcDbLine
 10
214.0944883218854
 20
208.2254728104182
 30
0.0
 11
214.416154988552
 21
208.2254728104182
 31
0.0
  0
LINE
  5
C6B
330
6B
100
AcDbEntity
  8
0
 62
     7
100
AcDbLine
 10
214.8018216552186
 20
207.5184728104182
 30
0.0
 11
214.8018216552186
 21
207.8398061437515
 31
0.0
  0
ARC
  5
C6C
330
6B
100
AcDbEntity
  8
0
 62
     7
100
AcDbCircle
 10
214.416154988552
 20
207.8398061437515
 30
0.0
 40
0.3856666666666666
100
AcDbArc
 50
0.0
 51
90.0
  0
LINE
  5
C6D
330
6B
100
AcDbEntity
  8
0
 62
     7
100
AcDbLine
 10
215.1018216552186
 20
207.5184728104182
 30
0.0
 11
215.1018216552186
 21
207.8398061437515
 31
0.0
  0
LINE
  5
C6E
330
6B
100
AcDbEntity
  8
0
 62
     7
100
AcDbLine
 10
215.8088216552186
 20
208.5254728104183
 30
0.0
 11
215.8088216552186
 21
208.2254728104182
 31
0.0
  0
LINE
  5
C6F
330
6B
100
AcDbEntity
  8
0
 62
     7
100
AcDbLine
 10
215.8088216552186
 20
208.2254728104182
 30
0.0
 11
215.4874883218853
 21
208.2254728104182
 31
0.0
  0
ARC
  5
C70
330
6B
100
AcDbEntity
  8
0
 62
     7
100
AcDbCircle
 10
215.4874883218853
 20
207.8398061437515
 30
0.0
 40
0.3856666666666666
100
AcDbArc
 50
90.0
 51
180.0
  0
LINE
  5
C71
330
6B
100
AcDbEntity
  8
0
 62
     7
100
AcDbLine
 10
215.1018216552186
 20
207.5184728104182
 30
0.0
 11
214.8018216552186
 21
207.5184728104182
 31
0.0
  0
LINE
  5
C72
330
6B
100
AcDbEntity
  8
0
 62
     7
100
AcDbLine
 10
215.1018216552186
 20
209.2324728104182
 30
0.0
 11
215.1018216552186
 21
208.9111394770849
 31
0.0
  0
ARC
  5
C73
330
6B
100
AcDbEntity
  8
0
 62
     7
100
AcDbCircle
 10
215.4874883218853
 20
208.9111394770849
 30
0.0
 40
0.3856666666666666
100
AcDbArc
 50
180.0
 51
270.0
  0
LINE
  5
C74
330
6B
100
AcDbEntity
  8
0
 62
     7
100
AcDbLine
 10
214.8018216552186
 20
209.2324728104182
 30
0.0
 11
215.1018216552186
 21
209.2324728104182
 31
0.0
  0
LINE
  5
C75
330
6B
100
AcDbEntity
  8
0
 62
     7
100
AcDbLine
 10
215.8088216552186
 20
208.5254728104183
 30
0.0
 11
215.4874883218853
 21
208.5254728104183
 31
0.0
  0
LINE
  5
C76
330
6B
100
AcDbEntity
  8
0
 62
     7
100
AcDbLine
 10
214.0944883218854
 20
208.5254728104183
 30
0.0
 11
214.416154988552
 21
208.5254728104183
 31
0.0
  0
ARC
  5
C77
330
6B
100
AcDbEntity
  8
0
 62
     7
100
AcDbCircle
 10
214.416154988552
 20
208.9111394770849
 30
0.0
 40
0.3856666666666666
100
AcDbArc
 50
270.0
 51
0.0
  0
LINE
  5
C78
330
6B
100
AcDbEntity
  8
0
 62
     7
100
AcDbLine
 10
214.8018216552186
 20
209.2324728104182
 30
0.0
 11
214.8018216552186
 21
208.9111394770849
 31
0.0
  0
LINE
  5
C79
330
6B
100
AcDbEntity
  8
0
 62
     7
100
AcDbLine
 10
214.0944883218854
 20
208.2254728104182
 30
0.0
 11
214.0944883218854
 21
208.5254728104183
 31
0.0
  0
LINE
  5
C7A
330
6B
100
AcDbEntity
  8
0
 62
     7
100
AcDbLine
 10
214.0944883218854
 20
178.2254728104182
 30
0.0
 11
214.416154988552
 21
178.2254728104182
 31
0.0
  0
LINE
  5
C7B
330
6B
100
AcDbEntity
  8
0
 62
     7
100
AcDbLine
 10
214.8018216552186
 20
177.5184728104182
 30
0.0
 11
214.8018216552186
 21
177.8398061437514
 31
0.0
  0
ARC
  5
C7C
330
6B
100
AcDbEntity
  8
0
 62
     7
100
AcDbCircle
 10
214.416154988552
 20
177.8398061437514
 30
0.0
 40
0.3856666666666666
100
AcDbArc
 50
0.0
 51
90.0
  0
LINE
  5
C7D
330
6B
100
AcDbEntity
  8
0
 62
     7
100
AcDbLine
 10
215.1018216552186
 20
177.5184728104182
 30
0.0
 11
215.1018216552186
 21
177.8398061437514
 31
0.0
  0
LINE
  5
C7E
330
6B
100
AcDbEntity
  8
0
 62
     7
100
AcDbLine
 10
215.8088216552186
 20
178.5254728104182
 30
0.0
 11
215.8088216552186
 21
178.2254728104182
 31
0.0
  0
LINE
  5
C7F
330
6B
100
AcDbEntity
  8
0
 62
     7
100
AcDbLine
 10
215.8088216552186
 20
178.2254728104182
 30
0.0
 11
215.4874883218853
 21
178.2254728104182
 31
0.0
  0
ARC
  5
C80
330
6B
100
AcDbEntity
  8
0
 62
     7
100
AcDbCircle
 10
215.4874883218853
 20
177.8398061437514
 30
0.0
 40
0.3856666666666666
100
AcDbArc
 50
90.0
 51
180.0
  0
LINE
  5
C81
330
6B
100
AcDbEntity
  8
0
 62
     7
100
AcDbLine
 10
215.1018216552186
 20
177.5184728104182
 30
0.0
 11
214.8018216552186
 21
177.5184728104182
 31
0.0
  0
LINE
  5
C82
330
6B
100
AcDbEntity
  8
0
 62
     7
100
AcDbLine
 10
215.1018216552186
 20
179.2324728104182
 30
0.0
 11
215.1018216552186
 21
178.9111394770849
 31
0.0
  0
ARC
  5
C83
330
6B
100
AcDbEntity
  8
0
 62
     7
100
AcDbCircle
 10
215.4874883218853
 20
178.9111394770849
 30
0.0
 40
0.3856666666666666
100
AcDbArc
 50
180.0
 51
270.0
  0
LINE
  5
C84
330
6B
100
AcDbEntity
  8
0
 62
     7
100
AcDbLine
 10
214.8018216552186
 20
179.2324728104182
 30
0.0
 11
215.1018216552186
 21
179.2324728104182
 31
0.0
  0
LINE
  5
C85
330
6B
100
AcDbEntity
  8
0
 62
     7
100
AcDbLine
 10
215.8088216552186
 20
178.5254728104182
 30
0.0
 11
215.4874883218853
 21
178.5254728104182
 31
0.0
  0
LINE
  5
C86
330
6B
100
AcDbEntity
  8
0
 62
     7
100
AcDbLine
 10
214.0944883218854
 20
178.5254728104182
 30
0.0
 11
214.416154988552
 21
178.5254728104182
 31
0.0
  0
ARC
  5
C87
330
6B
100
AcDbEntity
  8
0
 62
     7
100
AcDbCircle
 10
214.416154988552
 20
178.9111394770849
 30
0.0
 40
0.3856666666666666
100
AcDbArc
 50
270.0
 51
0.0
  0
LINE
  5
C88
330
6B
100
AcDbEntity
  8
0
 62
     7
100
AcDbLine
 10
214.8018216552186
 20
179.2324728104182
 30
0.0
 11
214.8018216552186
 21
178.9111394770849
 31
0.0
  0
LINE
  5
C89
330
6B
100
AcDbEntity
  8
0
 62
     7
100
AcDbLine
 10
214.0944883218854
 20
178.2254728104182
 30
0.0
 11
214.0944883218854
 21
178.5254728104182
 31
0.0
  0
LINE
  5
C8A
330
6B
100
AcDbEntity
  8
0
 62
     3
100
AcDbLine
 10
217.4614883218853
 20
166.7054728104181
 30
0.0
 11
217.4614883218853
 21
219.7054728104183
 31
0.0
  0
LINE
  5
C8B
330
6B
100
AcDbEntity
  8
0
 62
     3
100
AcDbLine
 10
217.4614883218853
 20
202.0754728104182
 30
0.0
 11
218.4614883218853
 21
202.0754728104182
 31
0.0
  0
ARC
  5
C8C
330
6B
100
AcDbEntity
  8
0
 62
     3
100
AcDbCircle
 10
211.1024883218854
 20
201.6844728104182
 30
0.0
 40
7.369333333333332
100
AcDbArc
 50
3.041999999999898
 51
30.35699999999798
  0
LINE
  5
C8D
330
6B
100
AcDbEntity
  8
0
 62
     3
100
AcDbLine
 10
217.4614883218853
 20
206.4088061437514
 30
0.0
 11
218.4614883218853
 21
206.4088061437514
 31
0.0
  0
ARC
  5
C8E
330
6B
100
AcDbEntity
  8
0
 62
     3
100
AcDbCircle
 10
211.1024883218854
 20
206.0178061437515
 30
0.0
 40
7.369333333333332
100
AcDbArc
 50
3.041999999999898
 51
30.35699999999798
  0
LINE
  5
C90
330
6B
100
AcDbEntity
  8
0
 62
     4
100
AcDbLine
 10
225.6700154536682
 20
161.0388061437514
 30
0.0
 11
215.628154988552
 21
161.0388061437514
 31
0.0
  0
LINE
  5
C93
330
6B
100
AcDbEntity
  8
0
 62
     3
100
AcDbLine
 10
141.1281549885519
 20
166.7054728104181
 30
0.0
 11
217.4614883218853
 21
166.7054728104181
 31
0.0
  0
LINE
  5
C94
330
6B
100
AcDbEntity
  8
0
 62
     3
100
AcDbLine
 10
141.1281549885519
 20
219.7054728104183
 30
0.0
 11
217.4614883218853
 21
219.7054728104183
 31
0.0
  0
LINE
  5
C95
330
6B
100
AcDbEntity
  8
0
 62
     3
100
AcDbLine
 10
217.4614883218853
 20
183.3721394770847
 30
0.0
 11
141.1281549885519
 21
183.3721394770847
 31
0.0
  0
CIRCLE
  5
C97
330
6B
100
AcDbEntity
  8
0
 62
     7
100
AcDbCircle
 10
214.9518216552186
 20
193.3754728104182
 30
0.0
 40
1.5
  0
CIRCLE
  5
C98
330
6B
100
AcDbEntity
  8
0
 62
     7
100
AcDbCircle
 10
214.9518216552186
 20
208.3754728104182
 30
0.0
 40
1.5
  0
CIRCLE
  5
C99
330
6B
100
AcDbEntity
  8
0
 62
     7
100
AcDbCircle
 10
214.9518216552186
 20
178.3754728104182
 30
0.0
 40
1.5
  0
LINE
  5
C9A
330
6B
100
AcDbEntity
  8
0
 62
     3
100
AcDbLine
 10
204.628154988552
 20
161.0388061437514
 30
0.0
 11
211.628154988552
 21
161.0388061437514
 31
0.0
  0
LINE
  5
C9B
330
6B
100
AcDbEntity
  8
0
 62
     3
100
AcDbLine
 10
203.9198216552186
 20
166.7054728104181
 30
0.0
 11
204.628154988552
 21
161.0388061437514
 31
0.0
  0
LINE
  5
C9C
330
6B
100
AcDbEntity
  8
0
 62
     3
100
AcDbLine
 10
211.628154988552
 20
161.0388061437514
 30
0.0
 11
212.3364883218853
 21
166.7054728104181
 31
0.0
  0
LINE
  5
C9D
330
6B
100
AcDbEntity
  8
0
 62
     3
100
AcDbLine
 10
151.2948216552186
 20
161.0388061437514
 30
0.0
 11
158.2948216552186
 21
161.0388061437514
 31
0.0
  0
LINE
  5
C9E
330
6B
100
AcDbEntity
  8
0
 62
     3
100
AcDbLine
 10
150.5864883218853
 20
166.7054728104181
 30
0.0
 11
151.2948216552186
 21
161.0388061437514
 31
0.0
  0
LINE
  5
C9F
330
6B
100
AcDbEntity
  8
0
 62
     3
100
AcDbLine
 10
158.2948216552186
 20
161.0388061437514
 30
0.0
 11
159.0031549885519
 21
166.7054728104181
 31
0.0
  0
LINE
  5
CA4
330
6B
100
AcDbEntity
  8
0
 62
     7
100
AcDbLine
 10
38.49288411323147
 20
209.2918061437516
 30
0.0
 11
39.32538411323151
 21
207.6118061437516
 31
0.0
  0
LINE
  5
CA5
330
6B
100
AcDbEntity
  8
0
 62
     7
100
AcDbLine
 10
38.70038411323151
 20
211.9868061437515
 30
0.0
 11
46.20038411323149
 21
201.3618061437515
 31
0.0
  0
ARC
  5
CA6
330
6B
100
AcDbEntity
  8
0
 62
     7
100
AcDbCircle
 10
47.45038411323149
 20
191.2103061437514
 30
0.0
 40
18.3035
100
AcDbArc
 50
63.64700000000135
 51
116.3529999999985
  0
LINE
  5
CA7
330
6B
100
AcDbEntity
  8
0
 62
     7
100
AcDbLine
 10
56.4078841132315
 20
209.2918061437516
 30
0.0
 11
55.5753841132315
 21
207.6118061437516
 31
0.0
  0
ARC
  5
CA8
330
6B
100
AcDbEntity
  8
0
 62
     7
100
AcDbCircle
 10
47.45038411323149
 20
191.2103061437514
 30
0.0
 40
20.1785
100
AcDbArc
 50
63.64700000000135
 51
116.3529999999985
  0
CIRCLE
  5
CA9
330
6B
100
AcDbEntity
  8
0
 62
     7
100
AcDbCircle
 10
95.45038411323151
 20
208.2054728104183
 30
0.0
 40
1.0
  0
CIRCLE
  5
CAA
330
6B
100
AcDbEntity
  8
0
 62
     7
100
AcDbCircle
 10
47.45038411323149
 20
194.2221394770847
 30
0.0
 40
1.0
  0
CIRCLE
  5
CAB
330
6B
100
AcDbEntity
  8
0
 62
     7
100
AcDbCircle
 10
80.45038411323153
 20
179.8721394770848
 30
0.0
 40
2.0
  0
CIRCLE
  5
CAC
330
6B
100
AcDbEntity
  8
0
 62
     3
100
AcDbCircle
 10
80.45038411323153
 20
179.8721394770848
 30
0.0
 40
2.5
  0
CIRCLE
  5
CAD
330
6B
100
AcDbEntity
  8
0
 62
     7
100
AcDbCircle
 10
80.45038411323153
 20
179.8721394770848
 30
0.0
 40
1.875
  0
CIRCLE
  5
CAE
330
6B
100
AcDbEntity
  8
0
 62
     7
100
AcDbCircle
 10
80.45038411323153
 20
179.8721394770848
 30
0.0
 40
0.625
  0
CIRCLE
  5
CAF
330
6B
100
AcDbEntity
  8
0
 62
     7
100
AcDbCircle
 10
95.45038411323151
 20
179.8054728104182
 30
0.0
 40
2.5
  0
CIRCLE
  5
CB0
330
6B
100
AcDbEntity
  8
0
 62
     3
100
AcDbCircle
 10
95.45038411323151
 20
179.8054728104182
 30
0.0
 40
2.666666666666666
  0
CIRCLE
  5
CB1
330
6B
100
AcDbEntity
  8
0
 62
     7
100
AcDbCircle
 10
95.45038411323151
 20
181.1388061437515
 30
0.0
 40
1.0
  0
LINE
  5
CB2
330
6B
100
AcDbEntity
  8
0
 62
     7
100
AcDbLine
 10
94.9503841132315
 20
179.4721394770847
 30
0.0
 11
94.45038411323151
 21
181.1388061437515
 31
0.0
  0
LINE
  5
CB3
330
6B
100
AcDbEntity
  8
0
 62
     7
100
AcDbLine
 10
95.9503841132315
 20
179.4721394770847
 30
0.0
 11
96.45038411323151
 21
181.1388061437515
 31
0.0
  0
CIRCLE
  5
CB4
330
6B
100
AcDbEntity
  8
0
 62
     7
100
AcDbCircle
 10
35.45038411323151
 20
179.8721394770848
 30
0.0
 40
2.5
  0
CIRCLE
  5
CB5
330
6B
100
AcDbEntity
  8
0
 62
     3
100
AcDbCircle
 10
35.45038411323151
 20
179.8721394770848
 30
0.0
 40
2.666666666666666
  0
CIRCLE
  5
CB6
330
6B
100
AcDbEntity
  8
0
 62
     7
100
AcDbCircle
 10
35.45038411323151
 20
181.2054728104181
 30
0.0
 40
1.0
  0
LINE
  5
CB7
330
6B
100
AcDbEntity
  8
0
 62
     7
100
AcDbLine
 10
34.95038411323152
 20
179.5388061437515
 30
0.0
 11
34.45038411323152
 21
181.2054728104181
 31
0.0
  0
LINE
  5
CB8
330
6B
100
AcDbEntity
  8
0
 62
     7
100
AcDbLine
 10
35.95038411323151
 20
179.5388061437515
 30
0.0
 11
36.45038411323151
 21
181.2054728104181
 31
0.0
  0
LINE
  5
CB9
330
6B
100
AcDbEntity
  8
0
 62
     3
100
AcDbLine
 10
62.96763323861267
 20
174.6634113691318
 30
0.0
 11
68.30096657194599
 21
174.6634113691318
 31
0.0
  0
LINE
  5
CBA
330
6B
100
AcDbEntity
  8
0
 62
     3
100
AcDbLine
 10
68.30096657194599
 20
174.6634113691318
 30
0.0
 11
68.30096657194599
 21
185.3300780357984
 31
0.0
  0
LINE
  5
CBB
330
6B
100
AcDbEntity
  8
0
 62
     3
100
AcDbLine
 10
68.30096657194599
 20
185.3300780357984
 30
0.0
 11
62.96763323861267
 21
185.3300780357984
 31
0.0
  0
LINE
  5
CBC
330
6B
100
AcDbEntity
  8
0
 62
     3
100
AcDbLine
 10
62.96763323861267
 20
185.3300780357984
 30
0.0
 11
62.96763323861267
 21
174.6634113691318
 31
0.0
  0
LINE
  5
CBD
330
6B
100
AcDbEntity
  8
0
 62
     7
100
AcDbLine
 10
63.63429990527937
 20
176.1634113691318
 30
0.0
 11
67.63429990527936
 21
176.1634113691318
 31
0.0
  0
LINE
  5
CBE
330
6B
100
AcDbEntity
  8
0
 62
     7
100
AcDbLine
 10
67.63429990527936
 20
176.1634113691318
 30
0.0
 11
67.63429990527936
 21
183.8300780357984
 31
0.0
  0
LINE
  5
CBF
330
6B
100
AcDbEntity
  8
0
 62
     7
100
AcDbLine
 10
67.63429990527936
 20
183.8300780357984
 30
0.0
 11
63.63429990527937
 21
183.8300780357984
 31
0.0
  0
LINE
  5
CC0
330
6B
100
AcDbEntity
  8
0
 62
     7
100
AcDbLine
 10
63.63429990527937
 20
183.8300780357984
 30
0.0
 11
63.63429990527937
 21
176.1634113691318
 31
0.0
  0
LINE
  5
CC1
330
6B
100
AcDbEntity
  8
0
 62
     7
100
AcDbLine
 10
63.96763323861268
 20
176.8300780357984
 30
0.0
 11
67.30096657194599
 21
176.8300780357984
 31
0.0
  0
LINE
  5
CC2
330
6B
100
AcDbEntity
  8
0
 62
     7
100
AcDbLine
 10
67.30096657194599
 20
176.8300780357984
 30
0.0
 11
67.30096657194599
 21
183.4967447024649
 31
0.0
  0
LINE
  5
CC3
330
6B
100
AcDbEntity
  8
0
 62
     7
100
AcDbLine
 10
67.30096657194599
 20
183.4967447024649
 30
0.0
 11
63.96763323861268
 21
183.4967447024649
 31
0.0
  0
LINE
  5
CC4
330
6B
100
AcDbEntity
  8
0
 62
     7
100
AcDbLine
 10
63.96763323861268
 20
183.4967447024649
 30
0.0
 11
63.96763323861268
 21
176.8300780357984
 31
0.0
  0
LINE
  5
CC5
330
6B
100
AcDbEntity
  8
0
 62
     7
100
AcDbLine
 10
63.96763323861268
 20
180.4967447024649
 30
0.0
 11
67.30096657194599
 21
180.4967447024649
 31
0.0
  0
LINE
  5
CC6
330
6B
100
AcDbEntity
  8
0
 62
     7
100
AcDbLine
 10
63.96763323861268
 20
178.1634113691317
 30
0.0
 11
67.30096657194599
 21
178.1634113691317
 31
0.0
  0
CIRCLE
  5
CC7
330
6B
100
AcDbEntity
  8
0
 62
     7
100
AcDbCircle
 10
65.63429990527936
 20
180.4967447024649
 30
0.0
 40
1.0
  0
TEXT
  5
CC8
330
6B
100
AcDbEntity
  8
0
 62
     4
100
AcDbText
 10
62.56817874535972
 20
187.3138085363247
 30
0.0
 40
3.333333333333333
  1
ＯＮ
100
AcDbText
  0
TEXT
  5
CC9
330
6B
100
AcDbEntity
  8
0
 62
     4
100
AcDbText
 10
61.30719683321501
 20
168.3784080195289
 30
0.0
 40
3.333333333333333
  1
ＯＦＦ
100
AcDbText
  0
TEXT
  5
CCA
330
6B
100
AcDbEntity
  8
0
 62
     4
100
AcDbText
 10
29.71890130254229
 20
185.3572480999194
 30
0.0
 40
3.333333333333333
  1
２４Ｖ
100
AcDbText
  0
TEXT
  5
CCB
330
6B
100
AcDbEntity
  8
0
 62
     4
100
AcDbText
 10
28.97471525603066
 20
171.7758527510822
 30
0.0
 40
3.333333333333333
  1
１２Ｖ
100
AcDbText
  0
CIRCLE
  5
CCC
330
6B
100
AcDbEntity
  8
0
 62
     7
100
AcDbCircle
 10
50.34717534790548
 20
179.5844405106764
 30
0.0
 40
4.808999999999998
  0
ARC
  5
CCD
330
6B
100
AcDbEntity
  8
0
 62
     3
100
AcDbCircle
 10
50.34717534790548
 20
179.5844405106764
 30
0.0
 40
5.657666666666663
100
AcDbArc
 50
114.3010000000031
 51
105.6990000000003
  0
LINE
  5
CCE
330
6B
100
AcDbEntity
  8
0
 62
     7
100
AcDbLine
 10
49.07017534790544
 20
183.9194405106763
 30
0.0
 11
48.53884201457216
 21
183.7257738440097
 31
0.0
  0
LINE
  5
CCF
330
6B
100
AcDbEntity
  8
0
 62
     7
100
AcDbLine
 10
48.53884201457216
 20
183.7257738440097
 30
0.0
 11
48.73217534790546
 21
183.194107177343
 31
0.0
  0
LINE
  5
CD0
330
6B
100
AcDbEntity
  8
0
 62
     7
100
AcDbLine
 10
48.73217534790546
 20
183.194107177343
 30
0.0
 11
49.26384201457215
 21
183.3877738440097
 31
0.0
  0
LINE
  5
CD1
330
6B
100
AcDbEntity
  8
0
 62
     7
100
AcDbLine
 10
49.26384201457215
 20
183.3877738440097
 30
0.0
 11
49.07017534790544
 21
183.9194405106763
 31
0.0
  0
LINE
  5
CD2
330
6B
100
AcDbEntity
  8
0
 62
     7
100
AcDbLine
 10
48.72250868123882
 20
183.2207738440097
 30
0.0
 11
49.2541753479055
 21
183.414107177343
 31
0.0
  0
LINE
  5
CD3
330
6B
100
AcDbEntity
  8
0
 62
     7
100
AcDbLine
 10
48.71284201457218
 20
183.2474405106763
 30
0.0
 11
49.24450868123881
 21
183.4407738440097
 31
0.0
  0
LINE
  5
CD4
330
6B
100
AcDbEntity
  8
0
 62
     7
100
AcDbLine
 10
48.70317534790546
 20
183.2737738440097
 30
0.0
 11
49.23484201457217
 21
183.4674405106764
 31
0.0
  0
LINE
  5
CD5
330
6B
100
AcDbEntity
  8
0
 62
     7
100
AcDbLine
 10
48.69350868123882
 20
183.3004405106764
 30
0.0
 11
49.22517534790552
 21
183.494107177343
 31
0.0
  0
LINE
  5
CD6
330
6B
100
AcDbEntity
  8
0
 62
     7
100
AcDbLine
 10
48.68384201457217
 20
183.3271071773429
 30
0.0
 11
49.21550868123881
 21
183.5204405106764
 31
0.0
  0
LINE
  5
CD7
330
6B
100
AcDbEntity
  8
0
 62
     7
100
AcDbLine
 10
48.67417534790546
 20
183.3537738440097
 30
0.0
 11
49.20584201457216
 21
183.547107177343
 31
0.0
  0
LINE
  5
CD8
330
6B
100
AcDbEntity
  8
0
 62
     7
100
AcDbLine
 10
48.66450868123884
 20
183.380107177343
 30
0.0
 11
49.19617534790552
 21
183.5737738440097
 31
0.0
  0
LINE
  5
CD9
330
6B
100
AcDbEntity
  8
0
 62
     7
100
AcDbLine
 10
48.65484201457218
 20
183.4067738440097
 30
0.0
 11
49.18650868123882
 21
183.6004405106764
 31
0.0
  0
LINE
  5
CDA
330
6B
100
AcDbEntity
  8
0
 62
     7
100
AcDbLine
 10
48.64517534790547
 20
183.4334405106764
 30
0.0
 11
49.17684201457217
 21
183.6267738440097
 31
0.0
  0
LINE
  5
CDB
330
6B
100
AcDbEntity
  8
0
 62
     7
100
AcDbLine
 10
48.63550868123883
 20
183.4601071773429
 30
0.0
 11
49.16717534790553
 21
183.6534405106764
 31
0.0
  0
LINE
  5
CDC
330
6B
100
AcDbEntity
  8
0
 62
     7
100
AcDbLine
 10
48.62584201457218
 20
183.4864405106763
 30
0.0
 11
49.15750868123883
 21
183.680107177343
 31
0.0
  0
LINE
  5
CDD
330
6B
100
AcDbEntity
  8
0
 62
     7
100
AcDbLine
 10
48.61617534790546
 20
183.5131071773431
 30
0.0
 11
49.1478420145721
 21
183.7067738440097
 31
0.0
  0
LINE
  5
CDE
330
6B
100
AcDbEntity
  8
0
 62
     7
100
AcDbLine
 10
48.60650868123883
 20
183.5397738440097
 30
0.0
 11
49.13817534790546
 21
183.733107177343
 31
0.0
  0
LINE
  5
CDF
330
6B
100
AcDbEntity
  8
0
 62
     7
100
AcDbLine
 10
48.59684201457219
 20
183.5664405106764
 30
0.0
 11
49.12850868123882
 21
183.7597738440097
 31
0.0
  0
LINE
  5
CE0
330
6B
100
AcDbEntity
  8
0
 62
     7
100
AcDbLine
 10
48.5871753479055
 20
183.5927738440098
 30
0.0
 11
49.11884201457212
 21
183.7864405106763
 31
0.0
  0
LINE
  5
CE1
330
6B
100
AcDbEntity
  8
0
 62
     7
100
AcDbLine
 10
48.57750868123884
 20
183.6194405106763
 30
0.0
 11
49.10917534790546
 21
183.813107177343
 31
0.0
  0
LINE
  5
CE2
330
6B
100
AcDbEntity
  8
0
 62
     7
100
AcDbLine
 10
48.5678420145722
 20
183.646107177343
 30
0.0
 11
49.09950868123883
 21
183.8394405106764
 31
0.0
  0
LINE
  5
CE3
330
6B
100
AcDbEntity
  8
0
 62
     7
100
AcDbLine
 10
48.55817534790549
 20
183.6727738440097
 30
0.0
 11
49.08984201457212
 21
183.866107177343
 31
0.0
  0
LINE
  5
CE4
330
6B
100
AcDbEntity
  8
0
 62
     7
100
AcDbLine
 10
48.54850868123879
 20
183.699107177343
 30
0.0
 11
49.07984201457214
 21
183.8927738440097
 31
0.0
  0
LINE
  5
CE5
330
6B
100
AcDbEntity
  8
0
 62
     7
100
AcDbLine
 10
48.01884201457211
 20
184.7407738440097
 30
0.0
 11
51.5865086812388
 21
174.938107177343
 31
0.0
  0
LINE
  5
CE6
330
6B
100
AcDbEntity
  8
0
 62
     7
100
AcDbLine
 10
48.81617534790546
 20
185.031107177343
 30
0.0
 11
52.38417534790551
 21
175.2284405106763
 31
0.0
  0
LINE
  5
CE7
330
6B
100
AcDbEntity
  8
0
 62
     3
100
AcDbLine
 10
62.78371744656482
 20
214.9554728104182
 30
0.0
 11
32.11705077989814
 21
214.9554728104182
 31
0.0
  0
LINE
  5
CE8
330
6B
100
AcDbEntity
  8
0
 62
     3
100
AcDbLine
 10
32.11705077989814
 20
214.9554728104182
 30
0.0
 11
32.11705077989814
 21
201.4554728104182
 31
0.0
  0
LINE
  5
CE9
330
6B
100
AcDbEntity
  8
0
 62
     3
100
AcDbLine
 10
32.11705077989814
 20
201.4554728104182
 30
0.0
 11
62.78371744656482
 21
201.4554728104182
 31
0.0
  0
LINE
  5
CEA
330
6B
100
AcDbEntity
  8
0
 62
     3
100
AcDbLine
 10
62.78371744656482
 20
201.4554728104182
 30
0.0
 11
62.78371744656482
 21
214.8888061437515
 31
0.0
  0
CIRCLE
  5
CFC
330
6B
100
AcDbEntity
  8
0
 62
     7
100
AcDbCircle
 10
95.45038411323151
 20
208.2054728104183
 30
0.0
 40
0.8666666666666667
  0
CIRCLE
  5
CFD
330
6B
100
AcDbEntity
  8
0
 62
     7
100
AcDbCircle
 10
80.45038411323153
 20
208.2054728104183
 30
0.0
 40
0.8666666666666667
  0
CIRCLE
  5
CFE
330
6B
100
AcDbEntity
  8
0
 62
     7
100
AcDbCircle
 10
87.95038411323151
 20
208.2054728104183
 30
0.0
 40
0.8666666666666667
  0
CIRCLE
  5
CFF
330
6B
100
AcDbEntity
  8
0
 62
     7
100
AcDbCircle
 10
70.45038411323152
 20
208.2054728104183
 30
0.0
 40
1.0
  0
CIRCLE
  5
D00
330
6B
100
AcDbEntity
  8
0
 62
     7
100
AcDbCircle
 10
87.95038411323151
 20
208.2054728104183
 30
0.0
 40
0.8666666666666667
  0
CIRCLE
  5
D01
330
6B
100
AcDbEntity
  8
0
 62
     7
100
AcDbCircle
 10
87.95038411323151
 20
208.2054728104183
 30
0.0
 40
1.0
  0
CIRCLE
  5
D02
330
6B
100
AcDbEntity
  8
0
 62
     7
100
AcDbCircle
 10
80.45038411323153
 20
208.2054728104183
 30
0.0
 40
0.8666666666666667
  0
CIRCLE
  5
D03
330
6B
100
AcDbEntity
  8
0
 62
     7
100
AcDbCircle
 10
80.45038411323153
 20
208.2054728104183
 30
0.0
 40
1.0
  0
CIRCLE
  5
D04
330
6B
100
AcDbEntity
  8
0
 62
     7
100
AcDbCircle
 10
70.45038411323152
 20
208.2054728104183
 30
0.0
 40
1.0
  0
CIRCLE
  5
D05
330
6B
100
AcDbEntity
  8
0
 62
     3
100
AcDbCircle
 10
70.45038411323152
 20
208.2054728104183
 30
0.0
 40
1.333333333333333
  0
TEXT
  5
D1B
330
6B
100
AcDbEntity
  8
0
 62
     4
100
AcDbText
 10
43.65193450082836
 20
187.4798914150693
 30
0.0
 40
3.333333333333333
  1
弱 中 強
100
AcDbText
  0
TEXT
  5
D1D
330
6B
100
AcDbEntity
  8
0
 62
     3
100
AcDbText
 10
147.8139768091244
 20
75.63730374820173
 30
0.0
 40
3.2
  1
ランプの点灯
  7
高3.2
100
AcDbText
  0
TEXT
  5
D1E
330
6B
100
AcDbEntity
  8
0
 62
     3
100
AcDbText
 10
186.8032543541768
 20
75.63730374820173
 30
0.0
 40
3.2
  1
ほぼ充電済み
  7
高3.2
100
AcDbText
  0
TEXT
  5
D1F
330
6B
100
AcDbEntity
  8
0
 62
     3
100
AcDbText
 10
211.2978948390526
 20
75.63730374820173
 30
0.0
 40
3.2
  1
満充電
  7
高3.2
100
AcDbText
  0
TEXT
  5
D20
330
6B
100
AcDbEntity
  8
0
 62
     3
100
AcDbText
 10
172.8139768091244
 20
75.63730374820173
 30
0.0
 40
3.2
  1
充電中
  7
高3.2
100
AcDbText
  0
LINE
  5
D21
330
6B
100
AcDbEntity
  8
0
 62
     3
100
AcDbLine
 10
146.3139768091243
 20
60.13730374820172
 30
0.0
 11
146.3139768091244
 21
80.13730374820173
 31
0.0
  0
LINE
  5
D22
330
6B
100
AcDbEntity
  8
0
 62
     3
100
AcDbLine
 10
250.1501207516034
 20
80.13730374820173
 30
0.0
 11
250.1501207516032
 21
60.13730374820172
 31
0.0
  0
LINE
  5
D23
330
6B
100
AcDbEntity
  8
0
 62
     7
100
AcDbLine
 10
209.7978948390526
 20
80.13730374820173
 30
0.0
 11
209.7978948390526
 21
60.13730374820172
 31
0.0
  0
LINE
  5
D24
330
6B
100
AcDbEntity
  8
0
 62
     7
100
AcDbLine
 10
185.3032543541768
 20
80.13730374820173
 30
0.0
 11
185.3032543541768
 21
60.13730374820172
 31
0.0
  0
LINE
  5
D25
330
6B
100
AcDbEntity
  8
0
 62
     7
100
AcDbLine
 10
171.3139768091244
 20
80.13730374820173
 30
0.0
 11
171.3139768091243
 21
60.13730374820172
 31
0.0
  0
TEXT
  5
D26
330
6B
100
AcDbEntity
  8
0
 62
     3
100
AcDbText
 10
172.8139768091244
 20
60.63730374820172
 30
0.0
 40
3.2
  1
点灯
  7
高3.2
100
AcDbText
  0
TEXT
  5
D27
330
6B
100
AcDbEntity
  8
0
 62
     3
100
AcDbText
 10
172.8139768091244
 20
65.63730374820171
 30
0.0
 40
3.2
  1
消灯
  7
高3.2
100
AcDbText
  0
TEXT
  5
D28
330
6B
100
AcDbEntity
  8
0
 62
     3
100
AcDbText
 10
211.2978948390526
 20
60.63730374820172
 30
0.0
 40
3.2
  1
消灯
  7
高3.2
100
AcDbText
  0
TEXT
  5
D29
330
6B
100
AcDbEntity
  8
0
 62
     3
100
AcDbText
 10
186.8032543541768
 20
60.63730374820172
 30
0.0
 40
3.2
  1
消灯
  7
高3.2
100
AcDbText
  0
LINE
  5
D2A
330
6B
100
AcDbEntity
  8
0
 62
     3
100
AcDbLine
 10
250.1501207516032
 20
60.13730374820172
 30
0.0
 11
146.3139768091243
 21
60.13730374820172
 31
0.0
  0
TEXT
  5
D30
330
6B
100
AcDbEntity
  8
0
 62
     3
100
AcDbText
 10
147.8139768091244
 20
70.63730374820173
 30
0.0
 40
3.2
  1
充電完了
  7
高3.2
100
AcDbText
  0
TEXT
  5
D31
330
6B
100
AcDbEntity
  8
0
 62
     3
100
AcDbText
 10
186.8032543541768
 20
70.63730374820173
 30
0.0
 40
3.2
  1
消灯
  7
高3.2
100
AcDbText
  0
TEXT
  5
D32
330
6B
100
AcDbEntity
  8
0
 62
     3
100
AcDbText
 10
172.8139768091244
 20
70.63730374820173
 30
0.0
 40
3.2
  1
消灯
  7
高3.2
100
AcDbText
  0
TEXT
  5
D33
330
6B
100
AcDbEntity
  8
0
 62
     3
100
AcDbText
 10
211.2978948390526
 20
70.63730374820173
 30
0.0
 40
3.2
  1
点灯
  7
高3.2
100
AcDbText
  0
TEXT
  5
D34
330
6B
100
AcDbEntity
  8
0
 62
     3
100
AcDbText
 10
147.8139768091244
 20
60.63730374820172
 30
0.0
 40
3.2
  1
急速充電
  7
高3.2
100
AcDbText
  0
TEXT
  5
D35
330
6B
100
AcDbEntity
  8
0
 62
     3
100
AcDbText
 10
147.8139768091244
 20
65.63730374820171
 30
0.0
 40
3.2
  1
微弱充電
  7
高3.2
100
AcDbText
  0
TEXT
  5
D36
330
6B
100
AcDbEntity
  8
0
 62
     3
100
AcDbText
 10
211.2978948390526
 20
65.63730374820171
 30
0.0
 40
3.2
  1
消灯
  7
高3.2
100
AcDbText
  0
TEXT
  5
D37
330
6B
100
AcDbEntity
  8
0
 62
     3
100
AcDbText
 10
186.8032543541768
 20
65.63730374820171
 30
0.0
 40
3.2
  1
点灯
  7
高3.2
100
AcDbText
  0
TEXT
  5
D3A
330
6B
100
AcDbEntity
  8
0
 62
     3
100
AcDbText
 10
167.9758741130423
 20
82.36517725635192
 30
0.0
 40
4.5
  1
定電流定電圧充電
  7
高4.5
100
AcDbText
  0
CIRCLE
  5
E21
330
6B
100
AcDbEntity
  8
0
100
AcDbCircle
 10
31.33356551473208
 20
149.2847767379709
 30
0.0
 40
5.0
  0
TEXT
  5
E22
330
6B
100
AcDbEntity
  8
0
 62
     4
100
AcDbText
 10
159.8928960019111
 20
244.116123787548
 30
0.0
 40
6.299999999999998
  1
7
  7
高6.3
100
AcDbText
  0
CIRCLE
  5
E24
330
6B
100
AcDbEntity
  8
0
100
AcDbCircle
 10
50.13644285116924
 20
149.2847767379709
 30
0.0
 40
5.0
  0
TEXT
  5
E25
330
6B
100
AcDbEntity
  8
0
 62
     4
100
AcDbText
 10
47.5168188082416
 20
147.1782367574632
 30
0.0
 40
4.5
  1
10
  7
高4.5
100
AcDbText
  0
CIRCLE
  5
E26
330
6B
100
AcDbEntity
  8
0
100
AcDbCircle
 10
67.24463880086659
 20
149.2847767379709
 30
0.0
 40
5.0
  0
TEXT
  5
E27
330
6B
100
AcDbEntity
  8
0
 62
     4
100
AcDbText
 10
29.2293723423868
 20
146.0238319164943
 30
0.0
 40
6.299999999999998
  1
9
  7
高6.3
100
AcDbText
  0
CIRCLE
  5
E2A
330
6B
100
AcDbEntity
  8
0
100
AcDbCircle
 10
85.30541472619551
 20
149.2847767379709
 30
0.0
 40
5.0
  0
TEXT
  5
E2B
330
6B
100
AcDbEntity
  8
0
 62
     4
100
AcDbText
 10
64.94245694057872
 20
147.2721519683218
 30
0.0
 40
4.5
  1
11
  7
高4.5
100
AcDbText
  0
LINE
  5
E50
330
6B
100
AcDbEntity
  8
0
100
AcDbLine
 10
207.8142648035427
 20
220.7061928772405
 30
0.0
 11
197.8148216552185
 21
220.7061928772405
 31
0.0
  0
LINE
  5
E51
330
6B
100
AcDbEntity
  8
0
100
AcDbLine
 10
204.5376823366898
 20
221.708852324037
 30
0.0
 11
197.8148216552185
 21
221.708852324037
 31
0.0
  0
LINE
  5
E53
330
6B
100
AcDbEntity
  8
0
100
AcDbLine
 10
154.1477421502405
 20
220.7061928772405
 30
0.0
 11
164.1481549885519
 21
220.7061928772405
 31
0.0
  0
LINE
  5
E54
330
6B
100
AcDbEntity
  8
0
100
AcDbLine
 10
157.48153632634
 20
221.708852324037
 30
0.0
 11
164.1481549885519
 21
221.708852324037
 31
0.0
  0
ARC
  5
E5A
330
6B
100
AcDbEntity
  8
0
 62
     3
100
AcDbCircle
 10
168.1297020761216
 20
228.2503809778962
 30
0.0
 40
1.800714306287621
100
AcDbArc
 50
95.56099999999991
 51
165.2389999999996
  0
LINE
  5
E5B
330
6B
100
AcDbEntity
  8
0
 62
     3
100
AcDbLine
 10
164.1481549885519
 20
221.708852324037
 30
0.0
 11
166.3881388590551
 21
228.7090443418564
 31
0.0
  0
LINE
  5
E5D
330
6B
100
AcDbEntity
  8
0
 62
     3
100
AcDbLine
 10
197.8148216552185
 20
221.708852324037
 30
0.0
 11
195.5748377847154
 21
228.7090443418564
 31
0.0
  0
LINE
  5
E5F
330
6B
100
AcDbEntity
  8
0
 62
     3
100
AcDbLine
 10
157.48153632634
 20
221.708852324037
 30
0.0
 11
157.48153632634
 21
220.7091019472021
 31
0.0
  0
LINE
  5
E60
330
6B
100
AcDbEntity
  8
0
 62
     3
100
AcDbLine
 10
149.1480205760784
 20
238.0394013989913
 30
0.0
 11
149.1480205760784
 21
236.7060776665489
 31
0.0
  0
ARC
  5
E61
330
6B
100
AcDbEntity
  8
0
 62
     3
100
AcDbCircle
 10
179.2035617302975
 20
222.4283622945625
 30
0.0
 40
21.78990370306364
100
AcDbArc
 50
152.8469999999995
 51
184.5329999999996
  0
LINE
  5
E62
330
6B
100
AcDbEntity
  8
0
 62
     3
100
AcDbLine
 10
149.1480205760784
 20
236.7060776665489
 30
0.0
 11
154.4813155058479
 21
236.7060776665489
 31
0.0
  0
ARC
  5
E63
330
6B
100
AcDbEntity
  8
0
 62
     3
100
AcDbCircle
 10
152.4372090127654
 20
232.0932623972919
 30
0.0
 40
5.045297003561922
100
AcDbArc
 50
3.004000000000706
 51
66.09999999999989
  0
ARC
  5
E64
330
6B
100
AcDbEntity
  8
0
 62
     3
100
AcDbCircle
 10
226.527342177123
 20
206.3353872664798
 30
0.0
 40
73.79146864829053
100
AcDbArc
 50
159.3509999999999
 51
168.7699999999994
  0
LINE
  5
E65
330
6B
100
AcDbEntity
  8
0
 62
     3
100
AcDbLine
 10
154.1477421502405
 20
220.7061928772405
 30
0.0
 11
154.1477421502405
 21
219.7093515703672
 31
0.0
  0
LINE
  5
E66
330
6B
100
AcDbEntity
  8
0
 62
     3
100
AcDbLine
 10
149.1480205760784
 20
238.0394013989913
 30
0.0
 11
154.8148888614553
 21
238.0394013989913
 31
0.0
  0
ARC
  5
E67
330
6B
100
AcDbEntity
  8
0
 62
     3
100
AcDbCircle
 10
153.6890787862803
 20
232.0069599884284
 30
0.0
 40
6.136198239196595
100
AcDbArc
 50
3.418000000000541
 51
79.42999999999994
  0
LINE
  5
E68
330
6B
100
AcDbEntity
  8
0
 62
     3
100
AcDbLine
 10
164.1481549885519
 20
221.708852324037
 30
0.0
 11
164.1481549885519
 21
219.7054728104182
 31
0.0
  0
ARC
  5
E69
330
6B
100
AcDbEntity
  8
0
 62
     3
100
AcDbCircle
 10
193.8332745676488
 20
228.2503809778962
 30
0.0
 40
1.800714306287621
100
AcDbArc
 50
14.76100000000035
 51
84.43900000000004
  0
LINE
  5
E6A
330
6B
100
AcDbEntity
  8
0
 62
     3
100
AcDbLine
 10
167.9551578784201
 20
230.0423680742988
 30
0.0
 11
194.0078187653504
 21
230.0423680742988
 31
0.0
  0
LINE
  5
E6B
330
6B
100
AcDbEntity
  8
0
 62
     3
100
AcDbLine
 10
212.8139863777049
 20
238.0394013989913
 30
0.0
 11
212.8139863777049
 21
236.7060776665489
 31
0.0
  0
LINE
  5
E6C
330
6B
100
AcDbEntity
  8
0
 62
     3
100
AcDbLine
 10
212.8139863777049
 20
236.7060776665489
 30
0.0
 11
207.4806914479354
 21
236.7060776665489
 31
0.0
  0
ARC
  5
E6D
330
6B
100
AcDbEntity
  8
0
 62
     3
100
AcDbCircle
 10
209.5247979410179
 20
232.0932623972919
 30
0.0
 40
5.045297003561922
100
AcDbArc
 50
113.9
 51
176.9959999999992
  0
LINE
  5
E6E
330
6B
100
AcDbEntity
  8
0
 62
     3
100
AcDbLine
 10
212.8139863777049
 20
238.0394013989913
 30
0.0
 11
207.1480877823151
 21
238.0394013989913
 31
0.0
  0
ARC
  5
E6F
330
6B
100
AcDbEntity
  8
0
 62
     3
100
AcDbCircle
 10
208.2738978574901
 20
232.0069599884284
 30
0.0
 40
6.136198239196595
100
AcDbArc
 50
100.5699999999999
 51
176.5819999999995
  0
ARC
  5
E70
330
6B
100
AcDbEntity
  8
0
 62
     3
100
AcDbCircle
 10
182.7594149134729
 20
222.4283622945625
 30
0.0
 40
21.78990370306364
100
AcDbArc
 50
355.4670000000003
 51
27.15300000000044
  0
ARC
  5
E71
330
6B
100
AcDbEntity
  8
0
 62
     3
100
AcDbCircle
 10
135.4356344666475
 20
206.3353872664798
 30
0.0
 40
73.79146864829053
100
AcDbArc
 50
11.23000000000059
 51
20.64900000000012
  0
LINE
  5
E72
330
6B
100
AcDbEntity
  8
0
 62
     3
100
AcDbLine
 10
207.8142648035427
 20
220.7061928772405
 30
0.0
 11
207.8142648035427
 21
219.7093515703672
 31
0.0
  0
LINE
  5
E73
330
6B
100
AcDbEntity
  8
0
 62
     3
100
AcDbLine
 10
197.8148216552185
 20
221.708852324037
 30
0.0
 11
197.8148216552185
 21
219.7054728104182
 31
0.0
  0
ARC
  5
E74
330
6B
100
AcDbEntity
  8
0
 62
     3
100
AcDbCircle
 10
173.668571283184
 20
219.3757782147598
 30
0.0
 40
18.66653225419318
100
AcDbArc
 50
88.88976528406441
 51
140.3539999999996
  0
ARC
  5
E75
330
6B
100
AcDbEntity
  8
0
 62
     3
100
AcDbCircle
 10
188.2944053605864
 20
219.3757782147598
 30
0.0
 40
18.66653225419318
100
AcDbArc
 50
39.64600000000036
 51
91.11023471594398
  0
LINE
  5
E84
330
6B
100
AcDbEntity
  8
0
 62
     3
100
AcDbLine
 10
174.0302547338695
 20
238.0388061437515
 30
0.0
 11
187.9327219098982
 21
238.0388061437515
 31
0.0
  0
TEXT
  5
ECE
330
6B
100
AcDbEntity
  8
0
 62
     4
100
AcDbText
 10
192.5118576868399
 20
244.6345911265871
 30
0.0
 40
6.299999999999998
  1
8
  7
高6.3
100
AcDbText
  0
CIRCLE
  5
ECF
330
6B
100
AcDbEntity
  8
0
100
AcDbCircle
 10
194.6160508591852
 20
247.6106160012112
 30
0.0
 40
5.0
  0
TEXT
  5
ED2
330
6B
100
AcDbEntity
  8
0
 62
     3
100
AcDbText
 10
96.82186515556448
 20
51.03062794612792
 30
0.0
 40
3.2
  1
1
 41
0.8
  7
高3.2
100
AcDbText
  0
TEXT
  5
ED3
330
6B
100
AcDbEntity
  8
0
 62
     3
100
AcDbText
 10
-2.989363636363632
 20
51.03062794612792
 30
0.0
 40
3.2
  1
ブースト充電切替スイッチ
 41
0.8
  7
高3.2
100
AcDbText
  0
TEXT
  5
ED5
330
6B
100
AcDbEntity
  8
0
 62
     4
100
AcDbText
 10
81.79937130373867
 20
245.3649957676273
 30
0.0
 40
4.5
  1
15
  7
高4.5
100
AcDbText
  0
LINE
  5
EF8
330
6B
100
AcDbEntity
  8
0
100
AcDbLine
 10
69.72181160894883
 20
237.4256682133662
 30
0.0
 11
61.17999198958924
 21
237.4256682133662
 31
0.0
  0
LINE
  5
EF9
330
6B
100
AcDbEntity
  8
0
 62
     3
100
AcDbLine
 10
61.17999198958924
 20
237.4256682133662
 30
0.0
 11
61.17999198958924
 21
239.2054728104183
 31
0.0
  0
LINE
  5
EFA
330
6B
100
AcDbEntity
  8
0
 62
     3
100
AcDbLine
 10
69.72181160894883
 20
239.2054728104183
 30
0.0
 11
61.17999198958924
 21
239.2054728104183
 31
0.0
  0
LINE
  5
EFB
330
6B
100
AcDbEntity
  8
0
 62
     3
100
AcDbLine
 10
69.72181160894883
 20
237.4256682133662
 30
0.0
 11
69.72181160894883
 21
239.2054728104183
 31
0.0
  0
LINE
  5
EFC
330
6B
100
AcDbEntity
  8
0
 62
     3
100
AcDbLine
 10
54.773109589032
 20
220.8721394770849
 30
0.0
 11
54.773109589032
 21
223.1861960648751
 31
0.0
  0
ARC
  5
EFD
330
6B
100
AcDbEntity
  8
0
 62
     3
100
AcDbCircle
 10
42.90981635283539
 20
237.0839954285919
 30
0.0
 40
18.27328175297909
100
AcDbArc
 50
310.4840000000001
 51
1.060000000000385
  0
ARC
  5
EFE
330
6B
100
AcDbEntity
  8
0
 62
     3
100
AcDbCircle
 10
87.99198724570274
 20
237.0839954285919
 30
0.0
 40
18.27328175297909
100
AcDbArc
 50
178.9399999999995
 51
229.5159999999997
  0
LINE
  5
EFF
330
6B
100
AcDbEntity
  8
0
 62
     3
100
AcDbLine
 10
76.12765863743097
 20
220.8721394770849
 30
0.0
 11
76.12765863743097
 21
223.1861960648751
 31
0.0
  0
LINE
  5
F00
330
6B
100
AcDbEntity
  8
0
100
AcDbLine
 10
292.1884696342788
 20
237.4256682133662
 30
0.0
 11
283.6466500149191
 21
237.4256682133662
 31
0.0
  0
LINE
  5
F01
330
6B
100
AcDbEntity
  8
0
 62
     3
100
AcDbLine
 10
283.6466500149191
 20
237.4256682133662
 30
0.0
 11
283.6466500149191
 21
239.2054728104183
 31
0.0
  0
LINE
  5
F02
330
6B
100
AcDbEntity
  8
0
 62
     3
100
AcDbLine
 10
292.1884696342788
 20
239.2054728104183
 30
0.0
 11
283.6466500149191
 21
239.2054728104183
 31
0.0
  0
LINE
  5
F03
330
6B
100
AcDbEntity
  8
0
 62
     3
100
AcDbLine
 10
292.1884696342788
 20
237.4256682133662
 30
0.0
 11
292.1884696342788
 21
239.2054728104183
 31
0.0
  0
LINE
  5
F04
330
6B
100
AcDbEntity
  8
0
 62
     3
100
AcDbLine
 10
277.2397676143619
 20
220.8721394770849
 30
0.0
 11
277.2397676143619
 21
223.1861960648751
 31
0.0
  0
ARC
  5
F05
330
6B
100
AcDbEntity
  8
0
 62
     3
100
AcDbCircle
 10
265.3764743781653
 20
237.0839954285919
 30
0.0
 40
18.27328175297909
100
AcDbArc
 50
310.4840000000001
 51
1.060000000000385
  0
ARC
  5
F06
330
6B
100
AcDbEntity
  8
0
 62
     3
100
AcDbCircle
 10
310.4586452710326
 20
237.0839954285919
 30
0.0
 40
18.27328175297909
100
AcDbArc
 50
178.9399999999995
 51
229.5159999999999
  0
LINE
  5
F07
330
6B
100
AcDbEntity
  8
0
 62
     3
100
AcDbLine
 10
298.5943166627609
 20
220.8721394770849
 30
0.0
 11
298.5943166627609
 21
223.1861960648751
 31
0.0
  0
CIRCLE
  5
F20
330
6B
100
AcDbEntity
  8
0
100
AcDbCircle
 10
101.7817434702697
 20
149.2847767379709
 30
0.0
 40
5.0
  0
TEXT
  5
F35
330
6B
100
AcDbEntity
  8
0
 62
     3
100
AcDbText
 10
-11.353
 20
71.01463468013469
 30
0.0
 40
3.2
  1
17
 41
0.8
  7
高3.2
100
AcDbText
  0
LINE
  5
F36
330
6B
100
AcDbEntity
  8
0
 62
     3
100
AcDbLine
 10
-12.853
 20
75.51126767676769
 30
0.0
 11
102.7238849919441
 21
75.51126767676769
 31
0.0
  0
TEXT
  5
F3B
330
6B
100
AcDbEntity
  8
0
 62
     3
100
AcDbText
 10
286.0072518758995
 20
93.00350478063272
 30
0.0
 40
3.2
  1
入力容量
 41
0.8
  7
高3.2
100
AcDbText
  0
TEXT
  5
F3C
330
6B
100
AcDbEntity
  8
0
 62
     3
100
AcDbText
 10
310.6245468758995
 20
93.00350478063272
 30
0.0
 40
3.2
  1
1.5KVA　max
 41
0.8
  7
高3.2
100
AcDbText
  0
TEXT
  5
F3D
330
6B
100
AcDbEntity
  8
0
 62
     3
100
AcDbText
 10
286.0072518758995
 20
71.00350478063274
 30
0.0
 40
3.2
  1
フロート電圧
 41
0.8
  7
高3.2
100
AcDbText
  0
TEXT
  5
F3E
330
6B
100
AcDbEntity
  8
0
 62
     3
100
AcDbText
 10
310.6245468758995
 20
71.00350478063274
 30
0.0
 40
3.2
  1
DC13.6V
 41
0.8
  7
高3.2
100
AcDbText
  0
LINE
  5
F4C
330
6B
100
AcDbEntity
  8
0
 62
     7
100
AcDbLine
 10
361.0249393058615
 20
103.5035047806327
 30
0.0
 11
284.5072518758994
 21
103.5035047806327
 31
0.0
  0
LINE
  5
F4D
330
6B
100
AcDbEntity
  8
0
 62
     7
100
AcDbLine
 10
361.0249393058615
 20
98.00350478063272
 30
0.0
 11
284.5072518758994
 21
98.00350478063272
 31
0.0
  0
LINE
  5
F4E
330
6B
100
AcDbEntity
  8
0
 62
     7
100
AcDbLine
 10
361.0249393058615
 20
92.50350478063273
 30
0.0
 11
284.5072518758994
 21
92.50350478063273
 31
0.0
  0
LINE
  5
F4F
330
6B
100
AcDbEntity
  8
0
 62
     7
100
AcDbLine
 10
361.0249393058615
 20
87.00350478063274
 30
0.0
 11
284.5072518758994
 21
87.00350478063274
 31
0.0
  0
LINE
  5
F50
330
6B
100
AcDbEntity
  8
0
 62
     7
100
AcDbLine
 10
361.0249393058615
 20
81.50350478063273
 30
0.0
 11
284.5072518758994
 21
81.50350478063273
 31
0.0
  0
LINE
  5
F51
330
6B
100
AcDbEntity
  8
0
 62
     7
100
AcDbLine
 10
361.0249393058615
 20
76.00350478063274
 30
0.0
 11
284.5072518758994
 21
76.00350478063274
 31
0.0
  0
LINE
  5
F52
330
6B
100
AcDbEntity
  8
0
 62
     7
100
AcDbLine
 10
361.0249393058615
 20
70.50350478063274
 30
0.0
 11
284.5072518758994
 21
70.50350478063274
 31
0.0
  0
LINE
  5
F53
330
6B
100
AcDbEntity
  8
0
 62
     7
100
AcDbLine
 10
361.0249393058615
 20
65.00350478063274
 30
0.0
 11
284.5072518758994
 21
65.00350478063274
 31
0.0
  0
LINE
  5
F54
330
6B
100
AcDbEntity
  8
0
 62
     7
100
AcDbLine
 10
361.0249393058615
 20
54.00350478063272
 30
0.0
 11
284.5072518758994
 21
54.00350478063272
 31
0.0
  0
LINE
  5
F55
330
6B
100
AcDbEntity
  8
0
 62
     7
100
AcDbLine
 10
361.0249393058615
 20
48.50350478063274
 30
0.0
 11
284.5072518758994
 21
48.50350478063274
 31
0.0
  0
LINE
  5
F56
330
6B
100
AcDbEntity
  8
0
 62
     7
100
AcDbLine
 10
361.0249393058615
 20
43.00350478063275
 30
0.0
 11
284.5072518758994
 21
43.00350478063275
 31
0.0
  0
LINE
  5
F57
330
6B
100
AcDbEntity
  8
0
 62
     3
100
AcDbLine
 10
361.0249393058615
 20
37.50350478063275
 30
0.0
 11
284.5072518758994
 21
37.50350478063275
 31
0.0
  0
LINE
  5
FB7
330
6B
100
AcDbEntity
  8
0
 62
     7
100
AcDbLine
 10
250.1501207516032
 20
65.13730374820172
 30
0.0
 11
146.3139768091243
 21
65.13730374820172
 31
0.0
  0
LINE
  5
FB8
330
6B
100
AcDbEntity
  8
0
 62
     7
100
AcDbLine
 10
250.1501207516032
 20
70.13730374820172
 30
0.0
 11
146.3139768091243
 21
70.13730374820172
 31
0.0
  0
LINE
  5
FB9
330
6B
100
AcDbEntity
  8
0
 62
     3
100
AcDbLine
 10
250.1501207516032
 20
75.13730374820173
 30
0.0
 11
146.3139768091243
 21
75.13730374820173
 31
0.0
  0
LINE
  5
FBA
330
6B
100
AcDbEntity
  8
0
 62
     3
100
AcDbLine
 10
250.1501207516032
 20
80.13730374820173
 30
0.0
 11
146.3139768091243
 21
80.13730374820173
 31
0.0
  0
TEXT
  5
FC0
330
6B
100
AcDbEntity
  8
0
100
AcDbText
 10
146.3098521337419
 20
54.11300843180264
 30
0.0
 40
3.2
  1
急速充電ランプが、消灯すれば、定電流での充電が終了して
 41
0.8
  7
高3.2
100
AcDbText
  0
TEXT
  5
FC1
330
6B
100
AcDbEntity
  8
0
100
AcDbText
 10
146.3098521337419
 20
50.27300843180264
 30
0.0
 40
3.2
  1
微弱充電ランプが点灯して定電圧充電に切り替わり、タイマーで終了します。
 41
0.8
  7
高3.2
100
AcDbText
  0
TEXT
  5
FC2
330
6B
100
AcDbEntity
  8
0
100
AcDbText
 10
146.3098521337419
 20
46.43300843180266
 30
0.0
 40
3.2
  1
充電完了してからは、保持充電の状態です。
 41
0.8
  7
高3.2
100
AcDbText
  0
TEXT
  5
FC3
330
6B
100
AcDbEntity
  8
0
100
AcDbText
 10
146.3098521337419
 20
42.59300843180265
 30
0.0
 40
3.2
  1
急速充電ランプは、バッテリーの状態により、点灯しないことが
 41
0.8
  7
高3.2
100
AcDbText
  0
TEXT
  5
FC4
330
6B
100
AcDbEntity
  8
0
100
AcDbText
 10
146.3098521337419
 20
38.75300843180266
 30
0.0
 40
3.2
  1
あります。（不良およびほぼ満充電に近い状態）
 41
0.8
  7
高3.2
100
AcDbText
  0
TEXT
  5
1077
330
6B
100
AcDbEntity
  8
0
 62
     7
100
AcDbText
 10
370.4686671771365
 20
6.335543506821292
 30
0.0
 40
3.2
  1
I
  7
高3.2
100
AcDbText
  0
TEXT
  5
111C
330
6B
100
AcDbEntity
  8
0
 62
     3
100
AcDbText
 10
226.0444971741556
 20
75.63730374820173
 30
0.0
 40
3.2
  1
フロート充電
  7
高3.2
100
AcDbText
  0
LINE
  5
111D
330
6B
100
AcDbEntity
  8
0
 62
     7
100
AcDbLine
 10
224.5444971741556
 20
80.13730374820173
 30
0.0
 11
224.5444971741556
 21
60.13730374820172
 31
0.0
  0
TEXT
  5
111E
330
6B
100
AcDbEntity
  8
0
 62
     3
100
AcDbText
 10
226.0444971741556
 20
60.63730374820172
 30
0.0
 40
3.2
  1
消灯
  7
高3.2
100
AcDbText
  0
TEXT
  5
111F
330
6B
100
AcDbEntity
  8
0
 62
     3
100
AcDbText
 10
226.0444971741556
 20
70.63730374820173
 30
0.0
 40
3.2
  1
消灯
  7
高3.2
100
AcDbText
  0
TEXT
  5
1120
330
6B
100
AcDbEntity
  8
0
 62
     3
100
AcDbText
 10
226.0444971741556
 20
65.63730374820171
 30
0.0
 40
3.2
  1
点灯
  7
高3.2
100
AcDbText
  0
LINE
  5
1121
330
6B
100
AcDbEntity
  8
0
 62
     7
100
AcDbLine
 10
224.0444971741556
 20
80.13730374820173
 30
0.0
 11
224.0444971741556
 21
60.13730374820172
 31
0.0
  0
TEXT
  5
138A
330
6B
100
AcDbEntity
  8
0
 62
     3
100
AcDbText
 10
286.0072518758995
 20
60.00350478063275
 30
0.0
 40
3.2
  1
充　電　時　間
 41
0.8
  7
高3.2
100
AcDbText
  0
TEXT
  5
138B
330
6B
100
AcDbEntity
  8
0
 62
     3
100
AcDbText
 10
310.6245468758995
 20
60.00350478063275
 30
0.0
 40
3.2
  1
6～20時間
 41
0.8
  7
高3.2
100
AcDbText
  0
LINE
  5
138C
330
6B
100
AcDbEntity
  8
0
 62
     7
100
AcDbLine
 10
361.0249393058615
 20
59.50350478063274
 30
0.0
 11
284.5072518758994
 21
59.50350478063274
 31
0.0
  0
TEXT
  5
138E
330
6B
100
AcDbEntity
  8
0
100
AcDbText
 10
302.647
 20
248.0845
 30
0.0
 40
2.5
  1
'15.02.09
  7
高2.5
100
AcDbText
  0
TEXT
  5
1534
330
6B
100
AcDbEntity
  8
0
100
AcDbText
 10
320.647
 20
248.0845
 30
0.0
 40
2.5
  1
充電時間追記
  7
高2.5
100
AcDbText
  0
TEXT
  5
1535
330
6B
100
AcDbEntity
  8
0
100
AcDbText
 10
364.6469999999998
 20
248.0844999999993
 30
0.0
 40
2.5
  1
今村
  7
高2.5
100
AcDbText
  0
TEXT
  5
1763
330
6B
100
AcDbEntity
  8
0
 62
     4
100
AcDbText
 10
103.2946932143463
 20
225.5203755012141
 30
0.0
 40
3.0
  1
急速充電
100
AcDbText
1001
ACAD
1000
MTEXTBEGIN
1070
    73
1070
     1
1070
    44
1040
1.0
1070
    74
1070
     0
1000
MTEXTEND
  0
TEXT
  5
1766
330
6B
100
AcDbEntity
  8
0
 62
     4
100
AcDbText
 10
99.10198856553371
 20
233.0622690052878
 30
0.0
 40
3.0
  1
微弱充電
100
AcDbText
1001
ACAD
1000
MTEXTBEGIN
1070
    73
1070
     1
1070
    44
1040
1.0
1070
    74
1070
     0
1000
MTEXTEND
  0
TEXT
  5
1769
330
6B
100
AcDbEntity
  8
0
 62
     4
100
AcDbText
 10
95.14414565231708
 20
240.4702000641393
 30
0.0
 40
3.0
  1
充電完了
100
AcDbText
1001
ACAD
1000
MTEXTBEGIN
1070
    73
1070
     1
1070
    44
1040
1.0
1070
    74
1070
     0
1000
MTEXTEND
  0
TEXT
  5
176C
330
6B
100
AcDbEntity
  8
0
 62
     4
100
AcDbText
 10
-0.8067885506304401
 20
199.0447810004831
 30
0.0
 40
3.0
  1
ゼロ点調整
100
AcDbText
1001
ACAD
1000
MTEXTBEGIN
1070
    73
1070
     1
1070
    44
1040
1.0
1070
    74
1070
     0
1000
MTEXTEND
  0
TEXT
  5
176F
330
6B
100
AcDbEntity
  8
0
 62
     4
100
AcDbText
 10
329.1179735268283
 20
157.2173632344644
 30
0.0
 40
3.0
  1
赤コード、クリップ(+)
100
AcDbText
1001
ACAD
1000
MTEXTBEGIN
1070
    73
1070
     1
1070
    44
1040
1.0
1070
    74
1070
     0
1000
MTEXTEND
  0
TEXT
  5
1772
330
6B
100
AcDbEntity
  8
0
 62
     4
100
AcDbText
 10
266.8179388584059
 20
156.7274228676892
 30
0.0
 40
3.0
  1
黒コード、クリップ(-)
100
AcDbText
1001
ACAD
1000
MTEXTBEGIN
1070
    73
1070
     1
1070
    44
1040
1.0
1070
    74
1070
     0
1000
MTEXTEND
  0
LINE
  5
1797
330
6B
100
AcDbEntity
  8
0
100
AcDbLine
 10
217.7114883218853
 20
219.7054728104183
 30
0.0
 11
229.2616588921779
 21
219.7054728104183
 31
0.0
  0
LINE
  5
1798
330
6B
100
AcDbEntity
  8
0
100
AcDbLine
 10
213.0639863777049
 20
238.0394013989913
 30
0.0
 11
229.2616588921779
 21
238.0394013989913
 31
0.0
  0
LINE
  5
1799
330
6B
100
AcDbEntity
  8
0
100
AcDbLine
 10
228.0116588921779
 20
222.2054728104183
 30
0.0
 11
228.0116588921779
 21
235.5394013989913
 31
0.0
  0
LINE
  5
179D
330
6B
100
AcDbEntity
  8
0
100
AcDbLine
 10
211.878154988552
 20
161.0388061437514
 30
0.0
 11
235.690006927985
 21
161.0388061437514
 31
0.0
  0
LINE
  5
179E
330
6B
100
AcDbEntity
  8
0
100
AcDbLine
 10
213.0639863777049
 20
238.0394013989913
 30
0.0
 11
235.6900069279851
 21
238.0394013989913
 31
0.0
  0
LINE
  5
179F
330
6B
100
AcDbEntity
  8
0
100
AcDbLine
 10
234.440006927985
 20
163.5388061437514
 30
0.0
 11
234.4400069279851
 21
235.5394013989913
 31
0.0
  0
LINE
  5
17A3
330
6B
100
AcDbEntity
  8
0
100
AcDbLine
 10
211.878154988552
 20
161.0388061437514
 30
0.0
 11
225.3406561486205
 21
161.0388061437514
 31
0.0
  0
LINE
  5
17A4
330
6B
100
AcDbEntity
  8
0
100
AcDbLine
 10
217.7114883218853
 20
166.7054728104181
 30
0.0
 11
225.3406561486205
 21
166.7054728104181
 31
0.0
  0
LINE
  5
17A5
330
6B
100
AcDbEntity
  8
0
100
AcDbLine
 10
224.0906561486204
 20
169.2054728104181
 30
0.0
 11
224.0906561486204
 21
171.7054728104181
 31
0.0
  0
LINE
  5
17A6
330
6B
100
AcDbEntity
  8
0
100
AcDbLine
 10
224.0906561486204
 20
158.5388061437514
 30
0.0
 11
224.0906561486204
 21
150.7888061437513
 31
0.0
  0
LINE
  5
17A7
330
6B
100
AcDbEntity
  8
0
100
AcDbLine
 10
224.0906561486204
 20
166.7054728104181
 30
0.0
 11
224.0906561486204
 21
161.0388061437514
 31
0.0
  0
LINE
  5
17AB
330
6B
100
AcDbEntity
  8
0
100
AcDbLine
 10
132.4614883218853
 20
166.4554728104181
 30
0.0
 11
132.4614883218853
 21
132.9366822140991
 31
0.0
  0
LINE
  5
17AC
330
6B
100
AcDbEntity
  8
0
100
AcDbLine
 10
217.4614883218853
 20
166.4554728104181
 30
0.0
 11
217.4614883218853
 21
132.9366822140991
 31
0.0
  0
LINE
  5
17AD
330
6B
100
AcDbEntity
  8
0
100
AcDbLine
 10
134.9614883218853
 20
134.1866822140991
 30
0.0
 11
214.9614883218853
 21
134.1866822140991
 31
0.0
  0
LINE
  5
17B1
330
6B
100
AcDbEntity
  8
0
100
AcDbLine
 10
22.11756846593571
 20
171.1221394770847
 30
0.0
 11
22.1175684659357
 21
132.9366822140991
 31
0.0
  0
LINE
  5
17B2
330
6B
100
AcDbEntity
  8
0
100
AcDbLine
 10
108.7842351326024
 20
171.1221394770848
 30
0.0
 11
108.7842351326024
 21
132.9366822140991
 31
0.0
  0
LINE
  5
17B3
330
6B
100
AcDbEntity
  8
0
100
AcDbLine
 10
24.6175684659357
 20
134.1866822140991
 30
0.0
 11
106.2842351326023
 21
134.1866822140991
 31
0.0
  0
LINE
  5
17B7
330
6B
100
AcDbEntity
  8
0
100
AcDbLine
 10
96.27279886923801
 20
211.6069894235127
 30
0.0
 11
100.1696932143463
 21
227.0203755012141
 31
0.0
1001
ACAD
1000
DSTYLE
1002
{
1070
   147
1040
0.625
1070
    77
1070
     0
1002
}
  0
LINE
  5
17B8
330
6B
100
AcDbEntity
  8
0
100
AcDbLine
 10
100.1696932143463
 20
227.0203755012141
 30
0.0
 11
102.6696932143463
 21
227.0203755012141
 31
0.0
1001
ACAD
1000
DSTYLE
1002
{
1070
   147
1040
0.625
1070
    77
1070
     0
1002
}
  0
LINE
  5
17B9
330
6B
100
AcDbEntity
  8
0
  6
ByBlock
 62
     0
370
    -2
100
AcDbLine
 10
96.92223662185496
 20
211.4427951126121
 30
0.0
 11
95.66001691856612
 21
209.1832529937558
 31
0.0
  0
LINE
  5
17BA
330
6B
100
AcDbEntity
  8
0
  6
ByBlock
 62
     0
370
    -2
100
AcDbLine
 10
95.66001691856612
 20
209.1832529937558
 30
0.0
 11
95.62336111662107
 21
211.7711837344133
 31
0.0
  0
LINE
  5
17BB
330
6B
100
AcDbEntity
  8
0
  6
ByBlock
 62
     0
370
    -2
100
AcDbLine
 10
95.66001691856612
 20
209.1832529937558
 30
0.0
 11
96.27279886923801
 21
211.6069894235127
 31
0.0
  0
LINE
  5
17BC
330
6B
100
AcDbEntity
  8
0
100
AcDbLine
 10
88.89928589128167
 20
211.5717910555339
 30
0.0
 11
95.97698856553371
 21
234.5622690052878
 31
0.0
1001
ACAD
1000
DSTYLE
1002
{
1070
   147
1040
0.625
1070
    77
1070
     0
1002
}
  0
LINE
  5
17BD
330
6B
100
AcDbEntity
  8
0
100
AcDbLine
 10
95.97698856553371
 20
234.5622690052878
 30
0.0
 11
98.47698856553371
 21
234.5622690052878
 31
0.0
1001
ACAD
1000
DSTYLE
1002
{
1070
   147
1040
0.625
1070
    77
1070
     0
1002
}
  0
LINE
  5
17BE
330
6B
100
AcDbEntity
  8
0
  6
ByBlock
 62
     0
370
    -2
100
AcDbLine
 10
89.53950692319462
 20
211.3746966706505
 30
0.0
 11
88.16371910475355
 21
209.1824519204263
 31
0.0
  0
LINE
  5
17BF
330
6B
100
AcDbEntity
  8
0
  6
ByBlock
 62
     0
370
    -2
100
AcDbLine
 10
88.16371910475355
 20
209.1824519204263
 30
0.0
 11
88.25906485936874
 21
211.7688854404173
 31
0.0
  0
LINE
  5
17C0
330
6B
100
AcDbEntity
  8
0
  6
ByBlock
 62
     0
370
    -2
100
AcDbLine
 10
88.16371910475355
 20
209.1824519204263
 30
0.0
 11
88.89928589128167
 21
211.5717910555339
 31
0.0
  0
LINE
  5
17C1
330
6B
100
AcDbEntity
  8
0
100
AcDbLine
 10
81.58484213274304
 20
211.5165156977826
 30
0.0
 11
92.01914565231708
 21
241.9702000641393
 31
0.0
1001
ACAD
1000
DSTYLE
1002
{
1070
   147
1040
0.625
1070
    77
1070
     0
1002
}
  0
LINE
  5
17C2
330
6B
100
AcDbEntity
  8
0
100
AcDbLine
 10
92.01914565231708
 20
241.9702000641393
 30
0.0
 11
94.51914565231708
 21
241.9702000641393
 31
0.0
1001
ACAD
1000
DSTYLE
1002
{
1070
   147
1040
0.625
1070
    77
1070
     0
1002
}
  0
LINE
  5
17C3
330
6B
100
AcDbEntity
  8
0
  6
ByBlock
 62
     0
370
    -2
100
AcDbLine
 10
82.21854972604761
 20
211.2993893464468
 30
0.0
 11
80.7745149759491
 21
209.1514850639509
 31
0.0
  0
LINE
  5
17C4
330
6B
100
AcDbEntity
  8
0
  6
ByBlock
 62
     0
370
    -2
100
AcDbLine
 10
80.7745149759491
 20
209.1514850639509
 30
0.0
 11
80.95113453943849
 21
211.7336420491184
 31
0.0
  0
LINE
  5
17C5
330
6B
100
AcDbEntity
  8
0
  6
ByBlock
 62
     0
370
    -2
100
AcDbLine
 10
80.7745149759491
 20
209.1514850639509
 30
0.0
 11
81.58484213274304
 21
211.5165156977826
 31
0.0
  0
LINE
  5
17C6
330
6B
100
AcDbEntity
  8
0
100
AcDbLine
 10
44.02356206900495
 20
194.9341020303155
 30
0.0
 11
17.01821144936957
 21
200.5447810004831
 31
0.0
1001
ACAD
1000
DSTYLE
1002
{
1070
   147
1040
0.625
1070
    77
1070
     0
1002
}
  0
LINE
  5
17C7
330
6B
100
AcDbEntity
  8
0
  6
ByBlock
 62
     0
370
    -2
100
AcDbLine
 10
44.15982610770182
 20
195.5899688445502
 30
0.0
 11
46.47129210059534
 21
194.4255573494364
 31
0.0
  0
LINE
  5
17C8
330
6B
100
AcDbEntity
  8
0
  6
ByBlock
 62
     0
370
    -2
100
AcDbLine
 10
46.47129210059534
 20
194.4255573494364
 30
0.0
 11
43.88729803030805
 21
194.2782352160809
 31
0.0
  0
LINE
  5
17C9
330
6B
100
AcDbEntity
  8
0
  6
ByBlock
 62
     0
370
    -2
100
AcDbLine
 10
46.47129210059534
 20
194.4255573494364
 30
0.0
 11
44.02356206900495
 21
194.9341020303155
 31
0.0
  0
LINE
  5
17CA
330
6B
100
AcDbEntity
  8
0
100
AcDbLine
 10
322.2821267110711
 20
158.6297400127934
 30
0.0
 11
328.4929735268283
 21
158.7173632344644
 31
0.0
1001
ACAD
1000
DSTYLE
1002
{
1070
   147
1040
0.625
1070
    77
1070
     0
1002
}
  0
LINE
  5
17CB
330
6B
100
AcDbEntity
  8
0
  6
ByBlock
 62
     0
370
    -2
100
AcDbLine
 10
322.2915763960746
 20
157.9599341680073
 30
0.0
 11
319.7823754718947
 21
158.5944732829174
 31
0.0
  0
LINE
  5
17CC
330
6B
100
AcDbEntity
  8
0
  6
ByBlock
 62
     0
370
    -2
100
AcDbLine
 10
319.7823754718947
 20
158.5944732829174
 30
0.0
 11
322.2726770260675
 21
159.2995458575795
 31
0.0
  0
LINE
  5
17CD
330
6B
100
AcDbEntity
  8
0
  6
ByBlock
 62
     0
370
    -2
100
AcDbLine
 10
319.7823754718947
 20
158.5944732829174
 30
0.0
 11
322.2821267110711
 21
158.6297400127934
 31
0.0
  0
LINE
  5
17CE
330
6B
100
AcDbEntity
  8
0
100
AcDbLine
 10
313.5340914560564
 20
158.5125356718112
 30
0.0
 11
305.8429388584059
 21
158.2274228676892
 31
0.0
1001
ACAD
1000
DSTYLE
1002
{
1070
   147
1040
0.625
1070
    77
1070
     0
1002
}
  0
LINE
  5
17CF
330
6B
100
AcDbEntity
  8
0
  6
ByBlock
 62
     0
370
    -2
100
AcDbLine
 10
313.5092761724354
 20
159.1819483755711
 30
0.0
 11
316.0323754718947
 21
158.6051476375999
 31
0.0
  0
LINE
  5
17D0
330
6B
100
AcDbEntity
  8
0
  6
ByBlock
 62
     0
370
    -2
100
AcDbLine
 10
316.0323754718947
 20
158.6051476375999
 30
0.0
 11
313.5589067396776
 21
157.8431229680514
 31
0.0
  0
LINE
  5
17D1
330
6B
100
AcDbEntity
  8
0
  6
ByBlock
 62
     0
370
    -2
100
AcDbLine
 10
316.0323754718947
 20
158.6051476375999
 30
0.0
 11
313.5340914560564
 21
158.5125356718112
 31
0.0
  0
LINE
  5
17D2
330
6B
100
AcDbEntity
  8
0
100
AcDbLine
 10
96.49983925063665
 20
174.746511616752
 30
0.0
 11
100.7661417243937
 21
154.1805456350672
 31
0.0
1001
ACAD
1000
DSTYLE
1002
{
1070
   147
1040
0.625
1070
    77
1070
     0
1002
}
  0
LINE
  5
17D3
330
6B
100
AcDbEntity
  8
0
  6
ByBlock
 62
     0
370
    -2
100
AcDbLine
 10
95.84393106053266
 20
174.6104468806492
 30
0.0
 11
95.99203837769868
 21
177.1943960653001
 31
0.0
  0
LINE
  5
17D4
330
6B
100
AcDbEntity
  8
0
  6
ByBlock
 62
     0
370
    -2
100
AcDbLine
 10
95.99203837769868
 20
177.1943960653001
 30
0.0
 11
97.15574744074066
 21
174.8825763528549
 31
0.0
  0
LINE
  5
17D5
330
6B
100
AcDbEntity
  8
0
  6
ByBlock
 62
     0
370
    -2
100
AcDbLine
 10
95.99203837769868
 20
177.1943960653001
 30
0.0
 11
96.49983925063665
 21
174.746511616752
 31
0.0
  0
LINE
  5
17D6
330
6B
100
AcDbEntity
  8
0
100
AcDbLine
 10
202.1296262218942
 20
238.0337330396908
 30
0.0
 11
197.7023340610061
 21
243.6768066517181
 31
0.0
1001
ACAD
1000
DSTYLE
1002
{
1070
   147
1040
0.625
1070
    77
1070
     0
1002
}
  0
LINE
  5
17D7
330
6B
100
AcDbEntity
  8
0
  6
ByBlock
 62
     0
370
    -2
100
AcDbLine
 10
202.6566563625879
 20
238.4472162885131
 30
0.0
 11
203.6727678228047
 21
236.0668283649443
 31
0.0
  0
LINE
  5
17D8
330
6B
100
AcDbEntity
  8
0
  6
ByBlock
 62
     0
370
    -2
100
AcDbLine
 10
203.6727678228047
 20
236.0668283649443
 30
0.0
 11
201.6025960812006
 21
237.6202497908684
 31
0.0
  0
LINE
  5
17D9
330
6B
100
AcDbEntity
  8
0
  6
ByBlock
 62
     0
370
    -2
100
AcDbLine
 10
203.6727678228047
 20
236.0668283649443
 30
0.0
 11
202.1296262218942
 21
238.0337330396908
 31
0.0
  0
LINE
  5
17DA
330
6B
100
AcDbEntity
  8
0
100
AcDbLine
 10
252.8081291023503
 20
152.0585220458358
 30
0.0
 11
246.6222376039267
 21
150.5036504219799
 31
0.0
1001
ACAD
1000
DSTYLE
1002
{
1070
   147
1040
0.625
1070
    77
1070
     0
1002
}
  0
LINE
  5
17DB
330
6B
100
AcDbEntity
  8
0
  6
ByBlock
 62
     0
370
    -2
100
AcDbLine
 10
252.644831109972
 20
152.7081857526423
 30
0.0
 11
255.2327088052282
 21
152.6679588878404
 31
0.0
  0
LINE
  5
17DC
330
6B
100
AcDbEntity
  8
0
  6
ByBlock
 62
     0
370
    -2
100
AcDbLine
 10
255.2327088052282
 20
152.6679588878404
 30
0.0
 11
252.9714270947285
 21
151.4088583390294
 31
0.0
  0
LINE
  5
17DD
330
6B
100
AcDbEntity
  8
0
  6
ByBlock
 62
     0
370
    -2
100
AcDbLine
 10
255.2327088052282
 20
152.6679588878404
 30
0.0
 11
252.8081291023503
 21
152.0585220458358
 31
0.0
  0
LINE
  5
17DE
330
6B
100
AcDbEntity
  8
0
100
AcDbLine
 10
322.2591739333795
 20
147.4131140029695
 30
0.0
 11
330.9477905634967
 21
148.6051610195348
 31
0.0
1001
ACAD
1000
DSTYLE
1002
{
1070
   147
1040
0.625
1070
    77
1070
     0
1002
}
  0
LINE
  5
17DF
330
6B
100
AcDbEntity
  8
0
  6
ByBlock
 62
     0
370
    -2
100
AcDbLine
 10
322.3502251094491
 20
146.749458332013
 30
0.0
 11
319.7823754718947
 21
147.0733061437514
 31
0.0
  0
LINE
  5
17E0
330
6B
100
AcDbEntity
  8
0
  6
ByBlock
 62
     0
370
    -2
100
AcDbLine
 10
319.7823754718947
 20
147.0733061437514
 30
0.0
 11
322.1681227573099
 21
148.0767696739258
 31
0.0
  0
LINE
  5
17E1
330
6B
100
AcDbEntity
  8
0
  6
ByBlock
 62
     0
370
    -2
100
AcDbLine
 10
319.7823754718947
 20
147.0733061437514
 30
0.0
 11
322.2591739333795
 21
147.4131140029695
 31
0.0
  0
LINE
  5
17E2
330
6B
100
AcDbEntity
  8
0
100
AcDbLine
 10
71.77358957362414
 20
211.803190386053
 30
0.0
 11
83.21729156430301
 21
242.917940902557
 31
0.0
1001
ACAD
1000
DSTYLE
1002
{
1070
   147
1040
0.625
1070
    77
1070
     0
1002
}
  0
LINE
  5
17E3
330
6B
100
AcDbEntity
  8
0
  6
ByBlock
 62
     0
370
    -2
100
AcDbLine
 10
72.40228837362876
 20
211.5719610948094
 30
0.0
 11
70.91062949075937
 21
209.4568528367259
 31
0.0
  0
LINE
  5
17E4
330
6B
100
AcDbEntity
  8
0
  6
ByBlock
 62
     0
370
    -2
100
AcDbLine
 10
70.91062949075937
 20
209.4568528367259
 30
0.0
 11
71.14489077361949
 21
212.0344196772965
 31
0.0
  0
LINE
  5
17E5
330
6B
100
AcDbEntity
  8
0
  6
ByBlock
 62
     0
370
    -2
100
AcDbLine
 10
70.91062949075937
 20
209.4568528367259
 30
0.0
 11
71.77358957362414
 21
211.803190386053
 31
0.0
  0
LINE
  5
17E6
330
6B
100
AcDbEntity
  8
0
100
AcDbLine
 10
259.7442194813925
 20
213.6905627259662
 30
0.0
 11
258.650322582287
 21
242.6288222750754
 31
0.0
1001
ACAD
1000
DSTYLE
1002
{
1070
   341
1005
F21
1070
   147
1040
0.625
1070
    77
1070
     0
1002
}
  0
LINE
  5
17E8
330
6B
100
AcDbEntity
  8
0
100
AcDbLine
 10
207.4989285954754
 20
158.6192867397672
 30
0.0
 11
206.3298248801618
 21
154.1238155459393
 31
0.0
1001
ACAD
1000
DSTYLE
1002
{
1070
   147
1040
0.625
1070
    77
1070
     0
1002
}
  0
LINE
  5
17E9
330
6B
100
AcDbEntity
  8
0
  6
ByBlock
 62
     0
370
    -2
100
AcDbLine
 10
206.8506207906973
 20
158.7878873225656
 30
0.0
 11
208.1281549885519
 21
161.0388061437514
 31
0.0
  0
LINE
  5
17EA
330
6B
100
AcDbEntity
  8
0
  6
ByBlock
 62
     0
370
    -2
100
AcDbLine
 10
208.1281549885519
 20
161.0388061437514
 30
0.0
 11
208.1472364002536
 21
158.4506861569687
 31
0.0
  0
LINE
  5
17EB
330
6B
100
AcDbEntity
  8
0
  6
ByBlock
 62
     0
370
    -2
100
AcDbLine
 10
208.1281549885519
 20
161.0388061437514
 30
0.0
 11
207.4989285954754
 21
158.6192867397672
 31
0.0
  0
LINE
  5
17EC
330
6B
100
AcDbEntity
  8
0
100
AcDbLine
 10
165.6370632157485
 20
238.9555042367026
 30
0.0
 11
163.6952019006645
 21
243.0857666002418
 31
0.0
1001
ACAD
1000
DSTYLE
1002
{
1070
   147
1040
0.625
1070
    77
1070
     0
1002
}
  0
LINE
  5
17ED
330
6B
100
AcDbEntity
  8
0
  6
ByBlock
 62
     0
370
    -2
100
AcDbLine
 10
166.2432776518187
 20
239.2405186639802
 30
0.0
 11
166.7007523031404
 21
236.6930795362179
 31
0.0
  0
LINE
  5
17EE
330
6B
100
AcDbEntity
  8
0
  6
ByBlock
 62
     0
370
    -2
100
AcDbLine
 10
166.7007523031404
 20
236.6930795362179
 30
0.0
 11
165.0308487796784
 21
238.6704898094251
 31
0.0
  0
LINE
  5
17EF
330
6B
100
AcDbEntity
  8
0
  6
ByBlock
 62
     0
370
    -2
100
AcDbLine
 10
166.7007523031404
 20
236.6930795362179
 30
0.0
 11
165.6370632157485
 21
238.9555042367026
 31
0.0
  0
LINE
  5
17F0
330
6B
100
AcDbEntity
  8
0
100
AcDbLine
 10
137.1020802836876
 20
223.8646985563646
 30
0.0
 11
135.6513695601125
 21
242.6254978426515
 31
0.0
1001
ACAD
1000
DSTYLE
1002
{
1070
   147
1040
0.625
1070
    77
1070
     0
1002
}
  0
LINE
  5
17F1
330
6B
100
AcDbEntity
  8
0
  6
ByBlock
 62
     0
370
    -2
100
AcDbLine
 10
137.7699589964216
 20
223.916343414125
 30
0.0
 11
137.2948216552186
 21
221.3721394770848
 31
0.0
  0
LINE
  5
17F2
330
6B
100
AcDbEntity
  8
0
  6
ByBlock
 62
     0
370
    -2
100
AcDbLine
 10
137.2948216552186
 20
221.3721394770848
 30
0.0
 11
136.4342015709537
 21
223.8130536986043
 31
0.0
  0
LINE
  5
17F3
330
6B
100
AcDbEntity
  8
0
  6
ByBlock
 62
     0
370
    -2
100
AcDbLine
 10
137.2948216552186
 20
221.3721394770848
 30
0.0
 11
137.1020802836876
 21
223.8646985563646
 31
0.0
  0
LINE
  5
17F4
330
6B
100
AcDbEntity
  8
0
100
AcDbLine
 10
46.83459714749091
 20
217.3784475137166
 30
0.0
 11
40.38281587294004
 21
242.7646665946143
 31
0.0
1001
ACAD
1000
DSTYLE
1002
{
1070
   147
1040
0.625
1070
    77
1070
     0
1002
}
  0
LINE
  5
17F5
330
6B
100
AcDbEntity
  8
0
  6
ByBlock
 62
     0
370
    -2
100
AcDbLine
 10
47.48383079626502
 20
217.5434470153998
 30
0.0
 11
47.45038411323148
 21
214.9554728104182
 31
0.0
  0
LINE
  5
17F6
330
6B
100
AcDbEntity
  8
0
  6
ByBlock
 62
     0
370
    -2
100
AcDbLine
 10
47.45038411323148
 20
214.9554728104182
 30
0.0
 11
46.18536349871681
 21
217.2134480120334
 31
0.0
  0
LINE
  5
17F7
330
6B
100
AcDbEntity
  8
0
  6
ByBlock
 62
     0
370
    -2
100
AcDbLine
 10
47.45038411323148
 20
214.9554728104182
 30
0.0
 11
46.83459714749091
 21
217.3784475137166
 31
0.0
  0
LINE
  5
17F8
330
6B
100
AcDbEntity
  8
0
100
AcDbLine
 10
27.85280095455573
 20
206.0094340437519
 30
0.0
 11
23.74515778037184
 21
242.6417564224933
 31
0.0
1001
ACAD
1000
DSTYLE
1002
{
1070
   341
1005
F21
1070
   147
1040
0.625
1070
    77
1070
     0
1002
}
  0
LINE
  5
17FA
330
6B
100
AcDbEntity
  8
0
100
AcDbLine
 10
215.1080767838781
 20
222.1956068636783
 30
0.0
 11
216.9289172664019
 21
242.6303478946913
 31
0.0
1001
ACAD
1000
DSTYLE
1002
{
1070
   147
1040
0.625
1070
    77
1070
     0
1002
}
  0
LINE
  5
17FB
330
6B
100
AcDbEntity
  8
0
  6
ByBlock
 62
     0
370
    -2
100
AcDbLine
 10
215.7753057133151
 20
222.1361533357874
 30
0.0
 11
214.8861930377516
 21
219.7054728104183
 31
0.0
  0
LINE
  5
17FC
330
6B
100
AcDbEntity
  8
0
  6
ByBlock
 62
     0
370
    -2
100
AcDbLine
 10
214.8861930377516
 20
219.7054728104183
 30
0.0
 11
214.4408478544411
 21
222.2550603915691
 31
0.0
  0
LINE
  5
17FD
330
6B
100
AcDbEntity
  8
0
  6
ByBlock
 62
     0
370
    -2
100
AcDbLine
 10
214.8861930377516
 20
219.7054728104183
 30
0.0
 11
215.1080767838781
 21
222.1956068636783
 31
0.0
  0
LINE
  5
17FE
330
6B
100
AcDbEntity
  8
0
100
AcDbLine
 10
188.6438076363733
 20
164.2054728104181
 30
0.0
 11
188.6438076363733
 21
154.2847767379709
 31
0.0
1001
ACAD
1000
DSTYLE
1002
{
1070
   147
1040
0.625
1070
    77
1070
     0
1002
}
  0
LINE
  5
17FF
330
6B
100
AcDbEntity
  8
0
  6
ByBlock
 62
     0
370
    -2
100
AcDbLine
 10
187.9739351363733
 20
164.2054728104181
 30
0.0
 11
188.6438076363733
 21
166.7054728104181
 31
0.0
  0
LINE
  5
1800
330
6B
100
AcDbEntity
  8
0
  6
ByBlock
 62
     0
370
    -2
100
AcDbLine
 10
188.6438076363733
 20
166.7054728104181
 30
0.0
 11
189.3136801363733
 21
164.2054728104181
 31
0.0
  0
LINE
  5
1801
330
6B
100
AcDbEntity
  8
0
  6
ByBlock
 62
     0
370
    -2
100
AcDbLine
 10
188.6438076363733
 20
166.7054728104181
 30
0.0
 11
188.6438076363733
 21
164.2054728104181
 31
0.0
  0
LINE
  5
1802
330
6B
100
AcDbEntity
  8
0
100
AcDbLine
 10
81.23420508969438
 20
174.933959176928
 30
0.0
 11
84.52159374973263
 21
154.2229570381277
 31
0.0
1001
ACAD
1000
DSTYLE
1002
{
1070
   147
1040
0.625
1070
    77
1070
     0
1002
}
  0
LINE
  5
1803
330
6B
100
AcDbEntity
  8
0
  6
ByBlock
 62
     0
370
    -2
100
AcDbLine
 10
80.57261485307103
 20
174.8289471535169
 30
0.0
 11
80.84229460146294
 21
177.4030493270064
 31
0.0
  0
LINE
  5
1804
330
6B
100
AcDbEntity
  8
0
  6
ByBlock
 62
     0
370
    -2
100
AcDbLine
 10
80.84229460146294
 20
177.4030493270064
 30
0.0
 11
81.89579532631775
 21
175.0389712003391
 31
0.0
  0
LINE
  5
1805
330
6B
100
AcDbEntity
  8
0
  6
ByBlock
 62
     0
370
    -2
100
AcDbLine
 10
80.84229460146294
 20
177.4030493270064
 30
0.0
 11
81.23420508969438
 21
174.933959176928
 31
0.0
  0
LINE
  5
1806
330
6B
100
AcDbEntity
  8
0
100
AcDbLine
 10
65.79261288013643
 20
172.1684290040655
 30
0.0
 11
66.92801285115239
 21
154.2747414681035
 31
0.0
1001
ACAD
1000
DSTYLE
1002
{
1070
   147
1040
0.625
1070
    77
1070
     0
1002
}
  0
LINE
  5
1807
330
6B
100
AcDbEntity
  8
0
  6
ByBlock
 62
     0
370
    -2
100
AcDbLine
 10
65.12408485039928
 20
172.1260092007655
 30
0.0
 11
65.63429990527933
 21
174.6634113691318
 31
0.0
  0
LINE
  5
1808
330
6B
100
AcDbEntity
  8
0
  6
ByBlock
 62
     0
370
    -2
100
AcDbLine
 10
65.63429990527933
 20
174.6634113691318
 30
0.0
 11
66.46114090987359
 21
172.2108488073655
 31
0.0
  0
LINE
  5
1809
330
6B
100
AcDbEntity
  8
0
  6
ByBlock
 62
     0
370
    -2
100
AcDbLine
 10
65.63429990527933
 20
174.6634113691318
 30
0.0
 11
65.79261288013643
 21
172.1684290040655
 31
0.0
  0
LINE
  5
180A
330
6B
100
AcDbEntity
  8
0
100
AcDbLine
 10
50.29044059660769
 20
171.4269711351628
 30
0.0
 11
50.1712167354281
 21
154.284655814206
 31
0.0
1001
ACAD
1000
DSTYLE
1002
{
1070
   147
1040
0.625
1070
    77
1070
     0
1002
}
  0
LINE
  5
180B
330
6B
100
AcDbEntity
  8
0
  6
ByBlock
 62
     0
370
    -2
100
AcDbLine
 10
49.62058429730863
 20
171.4316299489195
 30
0.0
 11
50.30782753873712
 21
173.9269106732804
 31
0.0
  0
LINE
  5
180C
330
6B
100
AcDbEntity
  8
0
  6
ByBlock
 62
     0
370
    -2
100
AcDbLine
 10
50.30782753873712
 20
173.9269106732804
 30
0.0
 11
50.96029689590674
 21
171.4223123214062
 31
0.0
  0
LINE
  5
180D
330
6B
100
AcDbEntity
  8
0
  6
ByBlock
 62
     0
370
    -2
100
AcDbLine
 10
50.30782753873712
 20
173.9269106732804
 30
0.0
 11
50.29044059660769
 21
171.4269711351628
 31
0.0
  0
LINE
  5
180E
330
6B
100
AcDbEntity
  8
0
100
AcDbLine
 10
34.76120562438744
 20
174.7516436558817
 30
0.0
 11
32.00051243941988
 21
154.2400952746191
 31
0.0
1001
ACAD
1000
DSTYLE
1002
{
1070
   147
1040
0.625
1070
    77
1070
     0
1002
}
  0
LINE
  5
180F
330
6B
100
AcDbEntity
  8
0
  6
ByBlock
 62
     0
370
    -2
100
AcDbLine
 10
34.09731930109926
 20
174.8409975366433
 30
0.0
 11
35.09467908673134
 21
177.2293029242058
 31
0.0
  0
LINE
  5
1810
330
6B
100
AcDbEntity
  8
0
  6
ByBlock
 62
     0
370
    -2
100
AcDbLine
 10
35.09467908673134
 20
177.2293029242058
 30
0.0
 11
35.42509194767562
 21
174.6622897751201
 31
0.0
  0
LINE
  5
1811
330
6B
100
AcDbEntity
  8
0
  6
ByBlock
 62
     0
370
    -2
100
AcDbLine
 10
35.09467908673134
 20
177.2293029242058
 30
0.0
 11
34.76120562438744
 21
174.7516436558817
 31
0.0
  0
TEXT
  5
1812
330
6B
100
AcDbEntity
  8
0
 62
     4
100
AcDbText
 10
227.3866588921778
 20
226.5945499167861
 30
0.0
 40
3.0
  1
55
 50
90.0
100
AcDbText
  0
LINE
  5
1813
330
6B
100
AcDbEntity
  8
0
  6
ByBlock
 62
     0
370
    -2
100
AcDbLine
 10
227.3417863921779
 20
235.5394013989913
 30
0.0
 11
228.0116588921779
 21
238.0394013989913
 31
0.0
  0
LINE
  5
1814
330
6B
100
AcDbEntity
  8
0
  6
ByBlock
 62
     0
370
    -2
100
AcDbLine
 10
228.0116588921779
 20
238.0394013989913
 30
0.0
 11
228.6815313921779
 21
235.5394013989913
 31
0.0
  0
LINE
  5
1815
330
6B
100
AcDbEntity
  8
0
  6
ByBlock
 62
     0
370
    -2
100
AcDbLine
 10
228.0116588921779
 20
238.0394013989913
 30
0.0
 11
228.0116588921779
 21
235.5394013989913
 31
0.0
  0
LINE
  5
1816
330
6B
100
AcDbEntity
  8
0
  6
ByBlock
 62
     0
370
    -2
100
AcDbLine
 10
228.6815313921779
 20
222.2054728104183
 30
0.0
 11
228.0116588921779
 21
219.7054728104183
 31
0.0
  0
LINE
  5
1817
330
6B
100
AcDbEntity
  8
0
  6
ByBlock
 62
     0
370
    -2
100
AcDbLine
 10
228.0116588921779
 20
219.7054728104183
 30
0.0
 11
227.3417863921779
 21
222.2054728104183
 31
0.0
  0
LINE
  5
1818
330
6B
100
AcDbEntity
  8
0
  6
ByBlock
 62
     0
370
    -2
100
AcDbLine
 10
228.0116588921779
 20
219.7054728104183
 30
0.0
 11
228.0116588921779
 21
222.2054728104183
 31
0.0
  0
TEXT
  5
1819
330
6B
100
AcDbEntity
  8
0
 62
     4
100
AcDbText
 10
233.815006927985
 20
197.1895869803751
 30
0.0
 40
3.0
  1
230
 50
90.0
100
AcDbText
  0
LINE
  5
181A
330
6B
100
AcDbEntity
  8
0
  6
ByBlock
 62
     0
370
    -2
100
AcDbLine
 10
233.770134427985
 20
235.5394013989913
 30
0.0
 11
234.4400069279851
 21
238.0394013989913
 31
0.0
  0
LINE
  5
181B
330
6B
100
AcDbEntity
  8
0
  6
ByBlock
 62
     0
370
    -2
100
AcDbLine
 10
234.4400069279851
 20
238.0394013989913
 30
0.0
 11
235.1098794279851
 21
235.5394013989913
 31
0.0
  0
LINE
  5
181C
330
6B
100
AcDbEntity
  8
0
  6
ByBlock
 62
     0
370
    -2
100
AcDbLine
 10
234.4400069279851
 20
238.0394013989913
 30
0.0
 11
234.4400069279851
 21
235.5394013989913
 31
0.0
  0
LINE
  5
181D
330
6B
100
AcDbEntity
  8
0
  6
ByBlock
 62
     0
370
    -2
100
AcDbLine
 10
235.109879427985
 20
163.5388061437514
 30
0.0
 11
234.440006927985
 21
161.0388061437514
 31
0.0
  0
LINE
  5
181E
330
6B
100
AcDbEntity
  8
0
  6
ByBlock
 62
     0
370
    -2
100
AcDbLine
 10
234.440006927985
 20
161.0388061437514
 30
0.0
 11
233.770134427985
 21
163.5388061437514
 31
0.0
  0
LINE
  5
181F
330
6B
100
AcDbEntity
  8
0
  6
ByBlock
 62
     0
370
    -2
100
AcDbLine
 10
234.440006927985
 20
161.0388061437514
 30
0.0
 11
234.440006927985
 21
163.5388061437514
 31
0.0
  0
TEXT
  5
1820
330
6B
100
AcDbEntity
  8
0
 62
     4
100
AcDbText
 10
223.4656561486204
 20
151.4138061437514
 30
0.0
 40
3.0
  1
17
 50
90.0
100
AcDbText
  0
LINE
  5
1821
330
6B
100
AcDbEntity
  8
0
  6
ByBlock
 62
     0
370
    -2
100
AcDbLine
 10
223.4207836486204
 20
158.5388061437514
 30
0.0
 11
224.0906561486204
 21
161.0388061437514
 31
0.0
  0
LINE
  5
1822
330
6B
100
AcDbEntity
  8
0
  6
ByBlock
 62
     0
370
    -2
100
AcDbLine
 10
224.0906561486204
 20
161.0388061437514
 30
0.0
 11
224.7605286486205
 21
158.5388061437514
 31
0.0
  0
LINE
  5
1823
330
6B
100
AcDbEntity
  8
0
  6
ByBlock
 62
     0
370
    -2
100
AcDbLine
 10
224.0906561486204
 20
161.0388061437514
 30
0.0
 11
224.0906561486204
 21
158.5388061437514
 31
0.0
  0
LINE
  5
1824
330
6B
100
AcDbEntity
  8
0
  6
ByBlock
 62
     0
370
    -2
100
AcDbLine
 10
224.7605286486205
 20
169.2054728104181
 30
0.0
 11
224.0906561486204
 21
166.7054728104181
 31
0.0
  0
LINE
  5
1825
330
6B
100
AcDbEntity
  8
0
  6
ByBlock
 62
     0
370
    -2
100
AcDbLine
 10
224.0906561486204
 20
166.7054728104181
 30
0.0
 11
223.4207836486204
 21
169.2054728104181
 31
0.0
  0
LINE
  5
1826
330
6B
100
AcDbEntity
  8
0
  6
ByBlock
 62
     0
370
    -2
100
AcDbLine
 10
224.0906561486204
 20
166.7054728104181
 30
0.0
 11
224.0906561486204
 21
169.2054728104181
 31
0.0
  0
TEXT
  5
1827
330
6B
100
AcDbEntity
  8
0
 62
     4
100
AcDbText
 10
174.91719039089
 20
134.8116822140991
 30
0.0
 40
3.0
  1
255
100
AcDbText
  0
LINE
  5
1828
330
6B
100
AcDbEntity
  8
0
  6
ByBlock
 62
     0
370
    -2
100
AcDbLine
 10
214.9614883218853
 20
134.8565547140991
 30
0.0
 11
217.4614883218853
 21
134.1866822140991
 31
0.0
  0
LINE
  5
1829
330
6B
100
AcDbEntity
  8
0
  6
ByBlock
 62
     0
370
    -2
100
AcDbLine
 10
217.4614883218853
 20
134.1866822140991
 30
0.0
 11
214.9614883218853
 21
133.5168097140991
 31
0.0
  0
LINE
  5
182A
330
6B
100
AcDbEntity
  8
0
  6
ByBlock
 62
     0
370
    -2
100
AcDbLine
 10
217.4614883218853
 20
134.1866822140991
 30
0.0
 11
214.9614883218853
 21
134.1866822140991
 31
0.0
  0
LINE
  5
182B
330
6B
100
AcDbEntity
  8
0
  6
ByBlock
 62
     0
370
    -2
100
AcDbLine
 10
134.9614883218853
 20
133.5168097140991
 30
0.0
 11
132.4614883218853
 21
134.1866822140991
 31
0.0
  0
LINE
  5
182C
330
6B
100
AcDbEntity
  8
0
  6
ByBlock
 62
     0
370
    -2
100
AcDbLine
 10
132.4614883218853
 20
134.1866822140991
 30
0.0
 11
134.9614883218853
 21
134.8565547140991
 31
0.0
  0
LINE
  5
182D
330
6B
100
AcDbEntity
  8
0
  6
ByBlock
 62
     0
370
    -2
100
AcDbLine
 10
132.4614883218853
 20
134.1866822140991
 30
0.0
 11
134.9614883218853
 21
134.1866822140991
 31
0.0
  0
TEXT
  5
182E
330
6B
100
AcDbEntity
  8
0
 62
     4
100
AcDbText
 10
63.25521810664941
 20
134.8116822140991
 30
0.0
 40
3.0
  1
260
100
AcDbText
  0
LINE
  5
182F
330
6B
100
AcDbEntity
  8
0
  6
ByBlock
 62
     0
370
    -2
100
AcDbLine
 10
106.2842351326023
 20
134.8565547140991
 30
0.0
 11
108.7842351326024
 21
134.1866822140991
 31
0.0
  0
LINE
  5
1830
330
6B
100
AcDbEntity
  8
0
  6
ByBlock
 62
     0
370
    -2
100
AcDbLine
 10
108.7842351326024
 20
134.1866822140991
 30
0.0
 11
106.2842351326023
 21
133.5168097140991
 31
0.0
  0
LINE
  5
1831
330
6B
100
AcDbEntity
  8
0
  6
ByBlock
 62
     0
370
    -2
100
AcDbLine
 10
108.7842351326024
 20
134.1866822140991
 30
0.0
 11
106.2842351326023
 21
134.1866822140991
 31
0.0
  0
LINE
  5
1832
330
6B
100
AcDbEntity
  8
0
  6
ByBlock
 62
     0
370
    -2
100
AcDbLine
 10
24.6175684659357
 20
133.5168097140991
 30
0.0
 11
22.1175684659357
 21
134.1866822140991
 31
0.0
  0
LINE
  5
1833
330
6B
100
AcDbEntity
  8
0
  6
ByBlock
 62
     0
370
    -2
100
AcDbLine
 10
22.1175684659357
 20
134.1866822140991
 30
0.0
 11
24.6175684659357
 21
134.8565547140991
 31
0.0
  0
LINE
  5
1834
330
6B
100
AcDbEntity
  8
0
  6
ByBlock
 62
     0
370
    -2
100
AcDbLine
 10
22.1175684659357
 20
134.1866822140991
 30
0.0
 11
24.6175684659357
 21
134.1866822140991
 31
0.0
  0
ARC
  5
1835
330
6B
100
AcDbEntity
  8
0
  6
ByBlock
 62
     0
100
AcDbCircle
 10
259.7442194813925
 20
213.6905627259662
 30
0.0
 40
0.1562500000000061
100
AcDbArc
 50
92.16481050483993
 51
272.1648105048399
  0
ARC
  5
1836
330
6B
100
AcDbEntity
  8
0
  6
ByBlock
 62
     0
100
AcDbCircle
 10
259.7442194813925
 20
213.6905627259662
 30
0.0
 40
0.1562500000000061
100
AcDbArc
 50
272.1648105048399
 51
92.16481050483993
  0
ARC
  5
1837
330
6B
100
AcDbEntity
  8
0
  6
ByBlock
 62
     0
100
AcDbCircle
 10
27.85280095455573
 20
206.0094340437519
 30
0.0
 40
0.1562499999999865
100
AcDbArc
 50
96.39794540109384
 51
276.3979454010939
  0
ARC
  5
1838
330
6B
100
AcDbEntity
  8
0
  6
ByBlock
 62
     0
100
AcDbCircle
 10
27.85280095455573
 20
206.0094340437519
 30
0.0
 40
0.1562499999999865
100
AcDbArc
 50
276.3979454010939
 51
96.39794540109384
  0
ENDSEC
  0
SECTION
  2
OBJECTS
  0
DICTIONARY
  5
C
330
0
100
AcDbDictionary
281
     1
  3
ACAD_2007HEADERVARS_RT
350
183D
  3
ACAD_COLOR
350
62
  3
ACAD_GROUP
350
D
  3
ACAD_LAYOUT
350
61
  3
ACAD_MATERIAL
350
10
  3
ACAD_MLEADERSTYLE
350
65
  3
ACAD_MLINESTYLE
350
5E
  3
ACAD_PLOTSETTINGS
350
60
  3
ACAD_PLOTSTYLENAME
350
E
  3
ACAD_SCALELIST
350
42
  3
ACAD_TABLESTYLE
350
63
  3
ACAD_VISUALSTYLE
350
29
  3
ACDB_RECOMPOSE_DATA
350
183B
  3
AcDbVariableDictionary
350
7A2
  3
DWGPROPS
350
183C
  0
DICTIONARY
  5
5D4
330
2
100
AcDbDictionary
280
     1
281
     1
  3
ACAD_LAYERSTATES
360
5D5
  0
DICTIONARY
  5
7A0
330
54
100
AcDbDictionary
280
     1
281
     1
  3
ADSK_XREC_LAYER_RECONCILED
360
7A1
  0
DICTIONARY
  5
E46
330
6B
100
AcDbDictionary
280
     1
281
     1
  3
ACAD_SORTENTS
360
E47
  0
DICTIONARY
  5
183D
102
{ACAD_REACTORS
330
C
102
}
330
C
100
AcDbDictionary
281
     1
  3
DIMARCSYM
350
183F
  3
DIMFXL
350
183E
  3
DIMJOGANG
350
1840
  3
INTERFEREVPVS
350
1841
  0
DICTIONARY
  5
62
102
{ACAD_REACTORS
330
C
102
}
330
C
100
AcDbDictionary
281
     1
  0
DICTIONARY
  5
D
102
{ACAD_REACTORS
330
C
102
}
330
C
100
AcDbDictionary
281
     1
  0
DICTIONARY
  5
61
102
{ACAD_REACTORS
330
C
102
}
330
C
100
AcDbDictionary
281
     1
  3
Model
350
6E
  3
レイアウト1
350
6A
  0
DICTIONARY
  5
10
102
{ACAD_REACTORS
330
C
102
}
330
C
100
AcDbDictionary
281
     1
  3
ByBlock
350
19
  3
ByLayer
350
11
  3
Global
350
21
  0
DICTIONARY
  5
65
102
{ACAD_REACTORS
330
C
102
}
330
C
100
AcDbDictionary
281
     1
  3
Standard
350
66
  0
DICTIONARY
  5
5E
102
{ACAD_REACTORS
330
C
102
}
330
C
100
AcDbDictionary
281
     1
  3
Standard
350
5F
  0
DICTIONARY
  5
60
102
{ACAD_REACTORS
330
C
102
}
330
C
100
AcDbDictionary
281
     1
  0
ACDBDICTIONARYWDFLT
  5
E
102
{ACAD_REACTORS
330
C
102
}
330
C
100
AcDbDictionary
281
     1
  3
Normal
350
F
100
AcDbDictionaryWithDefault
340
F
  0
DICTIONARY
  5
42
102
{ACAD_REACTORS
330
C
102
}
330
C
100
AcDbDictionary
281
     1
  3
A0
350
43
  3
A1
350
44
  3
A2
350
45
  3
A3
350
46
  3
A4
350
47
  3
A5
350
48
  3
A6
350
49
  3
A7
350
4A
  3
A8
350
4B
  3
A9
350
4C
  3
B0
350
4D
  3
B1
350
4E
  3
B2
350
4F
  3
B3
350
50
  3
B4
350
51
  3
B5
350
52
  3
B6
350
53
  0
DICTIONARY
  5
63
102
{ACAD_REACTORS
330
C
102
}
330
C
100
AcDbDictionary
281
     1
  3
Standard
350
64
  3
部品表
350
1422
  0
DICTIONARY
  5
29
102
{ACAD_REACTORS
330
C
102
}
330
C
100
AcDbDictionary
281
     1
  3
2dWireframe
350
2F
  3
3D Hidden
350
7F3
  3
3dWireframe
350
5D3
  3
Basic
350
2E
  3
Brighten
350
35
  3
ColorChange
350
39
  3
Conceptual
350
32
  3
Dim
350
34
  3
EdgeColorOff
350
41
  3
Facepattern
350
38
  3
Flat
350
2A
  3
FlatWithEdges
350
2B
  3
Gouraud
350
2C
  3
GouraudWithEdges
350
2D
  3
Hidden
350
31
  3
JitterOff
350
3F
  3
Linepattern
350
37
  3
OverhangOff
350
40
  3
Realistic
350
33
  3
Shaded
350
3E
  3
Shaded with edges
350
3D
  3
Shades of Gray
350
3A
  3
Sketchy
350
3B
  3
Thicken
350
36
  3
Wireframe
350
30
  3
X-Ray
350
3C
  0
XRECORD
  5
183B
102
{ACAD_REACTORS
330
C
102
}
330
C
100
AcDbXrecord
280
     1
 90
        1
330
64
330
1422
  0
DICTIONARY
  5
7A2
102
{ACAD_REACTORS
330
C
102
}
330
C
100
AcDbDictionary
281
     1
  3
CANNOSCALE
350
7A5
  3
CMLEADERSTYLE
350
7A4
  3
CTABLESTYLE
350
7A3
  3
DIMASSOC
350
7A8
  3
INDEXCTL
350
7A7
  3
LOFTANG1
350
16DA
  3
LOFTANG2
350
16DB
  3
SORTENTS
350
7A6
  3
XCLIPFRAME
350
16DC
  0
XRECORD
  5
183C
102
{ACAD_REACTORS
330
C
102
}
330
C
100
AcDbXrecord
280
     1
  1
DWGPROPS COOKIE
  2

  3

  4

  6

  7

  8
imamura
  9

300
=
301
=
302
=
303
=
304
=
305
=
306
=
307
=
308
=
309
=
 40
0.1990759722222222
 41
2456311.423459062
 42
2459893.544051517
  1

 90
        0
  0
DICTIONARY
  5
5D5
102
{ACAD_REACTORS
330
5D4
102
}
330
5D4
100
AcDbDictionary
281
     1
  0
XRECORD
  5
7A1
102
{ACAD_REACTORS
330
7A0
102
}
330
7A0
100
AcDbXrecord
280
     1
290
     1
  0
SORTENTSTABLE
  5
E47
102
{ACAD_REACTORS
330
E46
102
}
330
E46
100
AcDbSortentsTable
330
6B
331
ED3
  5
17DD
331
E54
  5
17BA
331
CD6
  5
CD7
331
D25
  5
D26
331
C97
  5
C98
331
F56
  5
1825
331
ECF
  5
17D7
331
E50
  5
17B7
331
C93
  5
C94
331
CD2
  5
CD3
331
BED
  5
BEE
331
C5C
  5
C5D
331
D21
  5
D22
331
F52
  5
1821
331
CCE
  5
CCF
331
BB6
  5
BB7
331
BE9
  5
BEA
331
D1D
  5
D1E
331
B6F
  5
B70
331
C54
  5
C55
331
C8B
  5
C8C
331
CCA
  5
CCB
331
B6B
  5
B6C
331
BB2
  5
BB3
331
17D7
  5
17D8
331
180E
  5
1768
331
51D
  5
51E
331
B04
  5
B05
331
BE5
  5
BE6
331
BE1
  5
BE2
331
C50
  5
C51
331
B00
  5
B01
331
B67
  5
B68
331
321
  5
323
331
BAE
  5
BAF
331
17D3
  5
17DE
331
180A
  5
1774
331
3FF
  5
400
331
4E6
  5
4E7
331
519
  5
51A
331
AFC
  5
AFD
331
B63
  5
B64
331
515
  5
516
331
17CF
  5
17F4
331
1806
  5
1778
331
3C4
  5
3C5
331
4E2
  5
4E3
331
1B6
  5
1B6
331
31D
  5
31E
331
BAA
  5
BAB
331
319
  5
31B
331
17CB
  5
17F9
331
1802
  5
177E
331
511
  5
512
331
AF8
  5
AF9
331
F20
  5
17F3
331
3C0
  5
3C1
331
4DE
  5
4DF
331
4DA
  5
4DB
331
3F3
  5
3F4
331
3B8
  5
3BA
331
F4E
  5
181D
331
CC6
  5
CC7
331
F3E
  5
181A
331
CC2
  5
CC3
331
1121
  5
182F
331
BA6
  5
BA7
331
C87
  5
C88
331
CBE
  5
CBF
331
D05
  5
D0A
331
D01
  5
D02
331
C14
  5
C15
331
BA2
  5
BA3
331
C83
  5
C84
331
CBA
  5
CBB
331
17C7
  5
17FE
331
AF4
  5
AF5
331
C10
  5
C11
331
17C3
  5
1803
331
4D6
  5
4D7
331
B3F
  5
B40
331
B9E
  5
B9F
331
BDD
  5
BDE
331
BD9
  5
BDA
331
1835
  5
17A8
331
354
  5
355
331
17BF
  5
180A
331
17FE
  5
1786
331
4D2
  5
4D3
331
B5E
  5
B5F
331
B3B
  5
B3C
331
B9A
  5
B9B
331
3B4
  5
3B5
331
1831
  5
E63
331
17BB
  5
1811
331
17FA
  5
1792
331
50D
  5
50E
331
3B0
  5
3B1
331
3EF
  5
3F0
331
4CE
  5
4CF
331
B5A
  5
B5B
331
4CA
  5
4CB
331
509
  5
50A
331
3EB
  5
3EC
331
111D
  5
182E
331
F36
  5
1816
331
E73
  5
17D3
331
E24
  5
176B
331
CB6
  5
CB7
331
CFD
  5
CFE
331
C7F
  5
C80
331
E6F
  5
17CF
331
CB2
  5
CB3
331
C0C
  5
C0D
331
C7B
  5
C7C
331
E6B
  5
17CB
331
C77
  5
C78
331
CAE
  5
CAF
331
52B
  5
52C
331
B96
  5
B97
331
BD5
  5
BD6
331
C08
  5
C09
331
CE9
  5
CEA
331
C04
  5
C05
331
C73
  5
C74
331
B23
  5
B24
331
B92
  5
B93
331
34C
  5
34D
331
BD1
  5
BD2
331
CAA
  5
CAB
331
182D
  5
E70
331
17B7
  5
1812
331
17F6
  5
1798
331
B56
  5
B57
331
61C
  5
61D
331
C00
  5
C01
331
1829
  5
E75
331
618
  5
619
331
17F2
  5
179C
331
17B3
  5
E2A
331
B52
  5
B53
331
B1F
  5
B20
331
505
  5
506
331
B8E
  5
B8F
331
BCD
  5
BCE
331
3E7
  5
3E8
331
BC9
  5
BCA
331
33C
  5
33D
331
614
  5
615
331
B1B
  5
B1C
331
1825
  5
F55
331
17EE
  5
17A0
331
B4E
  5
B4F
331
3E3
  5
3E4
331
501
  5
502
331
2FD
  5
2FE
331
3A4
  5
3A5
331
17EA
  5
17A4
331
1821
  5
F57
331
17AB
  5
E65
331
4FD
  5
4FE
331
3DF
  5
3E0
331
610
  5
611
331
4F9
  5
4FA
331
39C
  5
39D
331
3DB
  5
3DC
331
F06
  5
17F1
331
E67
  5
17C7
331
FC1
  5
1828
331
F02
  5
17ED
331
176C
  5
1802
331
E63
  5
17C3
331
CE5
  5
CE6
331
D34
  5
D3A
331
C6F
  5
C70
331
CA6
  5
CA7
331
EFE
  5
17E9
331
E5F
  5
17BF
331
CE1
  5
CE2
331
D30
  5
D36
331
BFC
  5
BFD
331
C6B
  5
C6C
331
EFA
  5
17E5
331
E5B
  5
17BD
331
C67
  5
C68
331
C9E
  5
C9F
331
CDD
  5
CDE
331
B86
  5
B87
331
BC5
  5
BC6
331
B17
  5
B18
331
BF8
  5
BF9
331
FB9
  5
D31
331
D28
  5
D29
331
BF4
  5
BF5
331
C63
  5
C64
331
B13
  5
B14
331
334
  5
335
331
BC1
  5
BC2
331
C9A
  5
C9B
331
181D
  5
FC1
331
60C
  5
60D
331
17E6
  5
17AA
331
17A7
  5
EFE
331
B46
  5
B47
331
CD9
  5
CDA
331
BF0
  5
BF1
331
1819
  5
111D
331
17E2
  5
17AE
331
17A3
  5
ED2
331
B42
  5
B43
331
B0F
  5
B10
331
416
  5
417
331
4F5
  5
4F6
331
BBD
  5
BBE
331
BB9
  5
BBA
331
32C
  5
32D
331
17DE
  5
17B2
331
1815
  5
1534
331
179F
  5
FC0
331
524
  5
525
331
3D3
  5
3D4
331
412
  5
413
331
B0B
  5
B0C
331
B72
  5
B73
331
38C
  5
38D
331
17DA
  5
17B6
331
1811
  5
1767
331
520
  5
521
331
4ED
  5
4EE
331
4E9
  5
4EA
331
138B
  5
1834
331
384
  5
385
331
3CB
  5
3CC
331
402
  5
403
331
ED2
  5
17DC
331
E53
  5
17B9
331
CD5
  5
CD6
331
C5F
  5
C60
331
D24
  5
D25
331
F55
  5
1824
331
ECE
  5
17D6
331
CD1
  5
CD2
331
D20
  5
D21
331
BEC
  5
BED
331
C5B
  5
C5C
331
F51
  5
1820
331
C8E
  5
C90
331
CCD
  5
CCE
331
B6E
  5
B6F
331
BB5
  5
BB6
331
B07
  5
B08
331
BE8
  5
BE9
331
BE4
  5
BE5
331
C53
  5
C54
331
B6A
  5
B6B
331
BB1
  5
BB2
331
C8A
  5
C8B
331
CC9
  5
CCA
331
324
  5
325
331
17D6
  5
17DB
331
180D
  5
1773
331
1797
  5
111E
331
51C
  5
51D
331
B03
  5
B04
331
BE0
  5
BE1
331
AFF
  5
B00
331
B66
  5
B67
331
320
  5
321
331
BAD
  5
BAE
331
17D2
  5
17E1
331
1809
  5
1777
331
3FE
  5
3FF
331
4E5
  5
4E6
331
209
  5
209
331
3C7
  5
3C8
331
518
  5
519
331
BA9
  5
BAA
331
AFB
  5
AFC
331
B62
  5
B63
331
17CE
  5
17F7
331
1805
  5
177D
331
514
  5
515
331
3C3
  5
3C4
331
4E1
  5
4E2
331
364
  5
365
331
31C
  5
31D
331
17CA
  5
17FC
331
1801
  5
1783
331
510
  5
511
331
3BF
  5
3C0
331
3F6
  5
3F7
331
4DD
  5
4DE
331
4D9
  5
4DA
331
35C
  5
35D
331
3F2
  5
3F3
331
F4D
  5
181C
331
CC5
  5
CC6
331
C4F
  5
C50
331
F3D
  5
1819
331
CC1
  5
CC2
331
1120
  5
1832
331
E2B
  5
177A
331
C17
  5
C28
331
BA5
  5
BA6
331
C86
  5
C87
331
CBD
  5
CBE
331
AF7
  5
AF8
331
D04
  5
D05
331
D00
  5
D01
331
C13
  5
C14
331
BA1
  5
BA2
331
C82
  5
C83
331
CB9
  5
CBA
331
17C6
  5
1801
331
314
  5
319
331
AF3
  5
AF4
331
BDC
  5
BDD
331
17C2
  5
1807
331
1838
  5
1795
331
B3E
  5
B3F
331
B9D
  5
B9E
331
3B7
  5
3B8
331
BD8
  5
BD9
331
1834
  5
E5B
331
353
  5
354
331
17BE
  5
1809
331
17FD
  5
178F
331
3B3
  5
3B4
331
4D1
  5
4D2
331
B5D
  5
B5E
331
B3A
  5
B3B
331
B99
  5
B9A
331
1830
  5
E62
331
17BA
  5
1810
331
50C
  5
50D
331
3AF
  5
3B0
331
3EE
  5
3EF
331
4CD
  5
4CE
331
B59
  5
B5A
331
4C9
  5
4CA
331
508
  5
509
331
3AB
  5
3AC
331
3EA
  5
3EB
331
111C
  5
182D
331
F35
  5
1815
331
E27
  5
1770
331
E72
  5
17D2
331
CB5
  5
CB6
331
CFC
  5
CFD
331
C0F
  5
C10
331
C7E
  5
C7F
331
E6E
  5
17CE
331
C7A
  5
C7B
331
CB1
  5
CB2
331
C0B
  5
C0C
331
E6A
  5
17CA
331
C76
  5
C77
331
CAD
  5
CAE
331
52A
  5
52B
331
B95
  5
B96
331
BD4
  5
BD5
331
B26
  5
B2B
331
C07
  5
C08
331
CE8
  5
CE9
331
C03
  5
C04
331
C72
  5
C73
331
B22
  5
B23
331
B91
  5
B92
331
34B
  5
34C
331
BD0
  5
BD1
331
CA9
  5
CAA
331
182C
  5
E6F
331
17F5
  5
1797
331
B55
  5
B56
331
61B
  5
61C
331
1828
  5
E71
331
617
  5
618
331
17F1
  5
179B
331
17B2
  5
E28
331
B51
  5
B52
331
B1E
  5
B1F
331
3E6
  5
3E7
331
504
  5
505
331
B8D
  5
B8E
331
BCC
  5
BCD
331
BC8
  5
BC9
331
33B
  5
33C
331
1824
  5
F54
331
613
  5
614
331
17ED
  5
179F
331
B4D
  5
B4E
331
B1A
  5
B1B
331
3E2
  5
3E3
331
500
  5
501
331
B89
  5
B8A
331
3A3
  5
3A4
331
1820
  5
FB9
331
17E9
  5
17A3
331
4FC
  5
4FD
331
3DE
  5
3DF
331
B49
  5
B4A
331
419
  5
41A
331
4F8
  5
4F9
331
39B
  5
39C
331
3DA
  5
3DB
331
FC4
  5
182B
331
F05
  5
17F0
331
176F
  5
17FD
331
E66
  5
17C6
331
D37
  5
D9D
331
FC0
  5
1827
331
F01
  5
17EC
331
E62
  5
17C2
331
CA5
  5
CA6
331
CE4
  5
CE5
331
BFF
  5
C00
331
C6E
  5
C6F
331
D33
  5
D39
331
EFD
  5
17E8
331
CE0
  5
CE1
331
BFB
  5
BFC
331
C6A
  5
C6B
331
EF9
  5
17E4
331
1763
  5
1814
331
E5A
  5
17BC
331
C66
  5
C67
331
C9D
  5
C9E
331
CDC
  5
CDD
331
B85
  5
B86
331
BC4
  5
BC5
331
60F
  5
610
331
B16
  5
B17
331
BF7
  5
BF8
331
FB8
  5
D2F
331
CD8
  5
CD9
331
BF3
  5
BF4
331
C62
  5
C63
331
B12
  5
B13
331
333
  5
334
331
BC0
  5
BC1
331
C99
  5
C9A
331
181C
  5
111C
331
17E5
  5
17AD
331
17A6
  5
EFD
331
B45
  5
B46
331
60B
  5
60C
331
1818
  5
138B
331
527
  5
528
331
17E1
  5
17B1
331
B41
  5
B42
331
B0E
  5
B0F
331
415
  5
416
331
4F4
  5
4F5
331
BBC
  5
BBD
331
BB8
  5
BB9
331
32B
  5
32C
331
1535
  5
1838
331
17DD
  5
17B5
331
1814
  5
138E
331
179E
  5
FBB
331
523
  5
524
331
B0A
  5
B0B
331
411
  5
412
331
4F0
  5
4F2
331
B71
  5
B72
331
38B
  5
38C
331
17D9
  5
17DA
331
1810
  5
1766
331
138E
  5
1836
331
4EC
  5
4ED
331
2E8
  5
2E9
331
4E8
  5
4E9
331
138A
  5
1833
331
383
  5
384
331
401
  5
402
331
ED5
  5
17E2
331
D27
  5
D28
331
CD4
  5
CD5
331
D23
  5
D24
331
BEF
  5
BF0
331
C5E
  5
C5F
331
C95
  5
C97
331
F54
  5
1823
331
CD0
  5
CD1
331
D1F
  5
D20
331
BEB
  5
BEC
331
C5A
  5
C5B
331
F50
  5
181F
331
D1B
  5
D1C
331
C56
  5
C5A
331
C8D
  5
C8E
331
CCC
  5
CCD
331
B6D
  5
B6E
331
BB4
  5
BB5
331
51F
  5
520
331
B06
  5
B07
331
BE7
  5
BE8
331
BE3
  5
BE4
331
C52
  5
C53
331
B02
  5
B03
331
B69
  5
B6A
331
323
  5
324
331
BB0
  5
BB1
331
C89
  5
C8A
331
17D5
  5
17E0
331
180C
  5
1772
331
51B
  5
51C
331
CC8
  5
CC9
331
AFE
  5
AFF
331
B65
  5
B66
331
31F
  5
320
331
BAC
  5
BAD
331
17D1
  5
17F6
331
1808
  5
1776
331
4E4
  5
4E5
331
3C6
  5
3C7
331
517
  5
518
331
BA8
  5
BA9
331
31B
  5
31C
331
17CD
  5
17FB
331
1804
  5
177C
331
513
  5
514
331
AFA
  5
AFB
331
3C2
  5
3C3
331
4E0
  5
4E1
331
B61
  5
B62
331
363
  5
364
331
17C9
  5
1800
331
1800
  5
1780
331
3BE
  5
3BF
331
3F5
  5
3F6
331
4DC
  5
4DD
331
4D8
  5
4D9
331
35B
  5
35C
331
3F1
  5
3F2
331
F4C
  5
181B
331
CC4
  5
CC5
331
F3C
  5
1818
331
CC0
  5
CC1
331
E2A
  5
1779
331
C16
  5
C17
331
BA4
  5
BA5
331
C85
  5
C86
331
CBC
  5
CBD
331
AF6
  5
AF7
331
D03
  5
D04
331
C12
  5
C13
331
C81
  5
C82
331
BA0
  5
BA1
331
BDF
  5
BE0
331
CB8
  5
CB9
331
17C5
  5
1805
331
AF2
  5
AF3
331
BDB
  5
BDC
331
B3D
  5
B3E
331
17C1
  5
1806
331
1837
  5
1794
331
4D4
  5
4D6
331
30F
  5
314
331
B9C
  5
B9D
331
3B6
  5
3B7
331
B98
  5
B99
331
1833
  5
E31
331
AE2
  5
AE3
331
17BD
  5
180D
331
17FC
  5
178C
331
B5C
  5
B5D
331
3B2
  5
3B3
331
4D0
  5
4D1
331
50F
  5
510
331
17B9
  5
180F
331
17F8
  5
1796
331
50B
  5
50C
331
3AE
  5
3AF
331
3ED
  5
3EE
331
4CC
  5
4CD
331
B58
  5
B59
331
4C8
  5
4C9
331
3E9
  5
3EA
331
111F
  5
1831
331
E75
  5
17D5
331
E26
  5
176F
331
CFF
  5
D00
331
1077
  5
182C
331
E71
  5
17D1
331
E22
  5
1764
331
CB4
  5
CB5
331
C0E
  5
C0F
331
C7D
  5
C7E
331
E6D
  5
17CD
331
C79
  5
C7A
331
CB0
  5
CB1
331
52D
  5
609
331
BD7
  5
BD8
331
C0A
  5
C0B
331
1772
  5
17F8
331
E69
  5
17C9
331
D3A
  5
DDE
331
C06
  5
C07
331
C75
  5
C76
331
B94
  5
B95
331
BD3
  5
BD4
331
CAC
  5
CAD
331
529
  5
52A
331
182F
  5
E61
331
307
  5
30B
331
B25
  5
B26
331
C02
  5
C03
331
C71
  5
C72
331
B21
  5
B22
331
B90
  5
B91
331
BCF
  5
BD0
331
CA8
  5
CA9
331
182B
  5
E6B
331
17F4
  5
179A
331
B54
  5
B55
331
507
  5
508
331
61A
  5
61B
331
BCB
  5
BCC
331
1827
  5
ED0
331
616
  5
617
331
17F0
  5
179E
331
17B1
  5
E27
331
B50
  5
B51
331
B1D
  5
B1E
331
3E5
  5
3E6
331
503
  5
504
331
17EC
  5
17A2
331
1823
  5
FB8
331
17AD
  5
E6A
331
612
  5
613
331
B19
  5
B1A
331
3E1
  5
3E2
331
4FF
  5
500
331
B88
  5
B89
331
17E8
  5
17A7
331
4FB
  5
4FC
331
3DD
  5
3DE
331
B48
  5
B49
331
3D9
  5
3DA
331
FC3
  5
182A
331
F04
  5
17EF
331
E65
  5
17C5
331
CE7
  5
CE8
331
D36
  5
D3C
331
F00
  5
17EB
331
E61
  5
17C1
331
CA4
  5
CA5
331
CE3
  5
CE4
331
BFE
  5
BFF
331
C6D
  5
C6E
331
D32
  5
D38
331
EFC
  5
17E7
331
1766
  5
180E
331
E5D
  5
17BE
331
C69
  5
C6A
331
CDF
  5
CE0
331
BC7
  5
BC8
331
BFA
  5
BFB
331
EF8
  5
17E3
331
D2A
  5
D2B
331
C65
  5
C66
331
C9C
  5
C9D
331
CDB
  5
CDC
331
B84
  5
B85
331
BC3
  5
BC4
331
181F
  5
FC3
331
60E
  5
60F
331
B15
  5
B16
331
BF6
  5
BF7
331
BF2
  5
BF3
331
C61
  5
C62
331
B11
  5
B12
331
BBF
  5
BC0
331
C98
  5
C99
331
181B
  5
1077
331
17E4
  5
17AC
331
17A5
  5
ED4
331
B44
  5
B45
331
4F7
  5
4F8
331
60A
  5
60B
331
1817
  5
138A
331
526
  5
527
331
17E0
  5
17B0
331
B40
  5
B41
331
B0D
  5
B0E
331
414
  5
415
331
4F3
  5
4F4
331
BBB
  5
BBC
331
1534
  5
1837
331
17DC
  5
17B4
331
1813
  5
138C
331
179D
  5
FBA
331
522
  5
523
331
B09
  5
B0A
331
410
  5
411
331
4EF
  5
4F0
331
B70
  5
B71
331
17D8
  5
17D9
331
1799
  5
1120
331
4EB
  5
4EC
331
3CD
  5
3CE
331
404
  5
405
331
400
  5
401
331
3C9
  5
3CA
331
FB7
  5
D2E
331
CD7
  5
CD8
331
D26
  5
D27
331
F57
  5
1826
331
E51
  5
17B8
331
C94
  5
C95
331
CD3
  5
CD4
331
BEE
  5
BEF
331
C5D
  5
C5E
331
D22
  5
D23
331
F53
  5
1822
331
C90
  5
C93
331
CCF
  5
CD0
331
BB7
  5
BB8
331
BEA
  5
BEB
331
D1E
  5
D1F
331
C55
  5
C56
331
C8C
  5
C8D
331
CCB
  5
CCC
331
B6C
  5
B6D
331
BB3
  5
BB4
331
180F
  5
1765
331
51E
  5
51F
331
B05
  5
B06
331
BE6
  5
BE7
331
BE2
  5
BE3
331
C51
  5
C52
331
B01
  5
B02
331
B68
  5
B69
331
BAF
  5
BB0
331
C88
  5
C89
331
17D4
  5
17DF
331
180B
  5
1771
331
4E7
  5
4E8
331
51A
  5
51B
331
17D0
  5
17F5
331
1807
  5
1775
331
516
  5
517
331
AFD
  5
AFE
331
4E3
  5
4E4
331
B64
  5
B65
331
BAB
  5
BAC
331
3C5
  5
3C6
331
17CC
  5
17FA
331
1803
  5
177B
331
512
  5
513
331
AF9
  5
AFA
331
3C1
  5
3C2
331
4DF
  5
4E0
331
B60
  5
B61
331
17C8
  5
17FF
331
4DB
  5
4DC
331
3BD
  5
3BE
331
3F4
  5
3F5
331
3F0
  5
3F1
331
F4F
  5
181E
331
CC7
  5
CC8
331
CC3
  5
CC4
331
F3B
  5
1817
331
E84
  5
17BB
331
BA7
  5
BA8
331
CBF
  5
CC0
331
D02
  5
D03
331
C15
  5
C16
331
BA3
  5
BA4
331
C84
  5
C85
331
CBB
  5
CBC
331
AF5
  5
AF6
331
C11
  5
C12
331
C80
  5
C81
331
17C4
  5
1804
331
4D7
  5
4D8
331
B9F
  5
BA0
331
BDE
  5
BDF
331
BDA
  5
BDB
331
1836
  5
17A9
331
17C0
  5
180B
331
17FF
  5
177F
331
4D3
  5
4D4
331
B5F
  5
B60
331
B3C
  5
B3D
331
B9B
  5
B9C
331
3B5
  5
3B6
331
1832
  5
E30
331
17BC
  5
180C
331
17FB
  5
1789
331
50E
  5
50F
331
3B1
  5
3B2
331
4CF
  5
4D0
331
B5B
  5
B5C
331
17B8
  5
1813
331
50A
  5
50B
331
3AD
  5
3AE
331
3EC
  5
3ED
331
4CB
  5
4CC
331
3A9
  5
3AA
331
3E8
  5
3E9
331
111E
  5
1830
331
E74
  5
17D4
331
E25
  5
176C
331
CFE
  5
CFF
331
CB7
  5
CB8
331
E70
  5
17D0
331
E21
  5
1763
331
CB3
  5
CB4
331
C0D
  5
C0E
331
C7C
  5
C7D
331
E6C
  5
17CC
331
52C
  5
52D
331
C78
  5
C79
331
CAF
  5
CB0
331
B97
  5
B98
331
BD6
  5
BD7
331
C09
  5
C0A
331
E68
  5
17C8
331
528
  5
529
331
C05
  5
C06
331
C74
  5
C75
331
B24
  5
B25
331
B93
  5
B94
331
BD2
  5
BD3
331
CAB
  5
CAC
331
182E
  5
E64
331
306
  5
307
331
61D
  5
AE2
331
17F7
  5
1799
331
B57
  5
B58
331
CEA
  5
CEB
331
C01
  5
C02
331
C70
  5
C71
331
B20
  5
B21
331
B8F
  5
B90
331
BCE
  5
BCF
331
182A
  5
E76
331
17F3
  5
179D
331
B53
  5
B54
331
4C7
  5
4C8
331
506
  5
507
331
302
  5
306
331
619
  5
61A
331
BCA
  5
BCB
331
615
  5
616
331
B1C
  5
B1D
331
1826
  5
F56
331
17EF
  5
17A1
331
B4F
  5
B50
331
3E4
  5
3E5
331
502
  5
503
331
2FE
  5
302
331
3A5
  5
3A7
331
17EB
  5
17A6
331
1822
  5
FB7
331
17AC
  5
E69
331
611
  5
612
331
B18
  5
B19
331
3E0
  5
3E1
331
4FE
  5
4FF
331
4FA
  5
4FB
331
3DC
  5
3DD
331
F07
  5
17F2
331
FC2
  5
1829
331
F03
  5
17EE
331
E64
  5
17C4
331
CE6
  5
CE7
331
D35
  5
D3B
331
CA7
  5
CA8
331
EFF
  5
17EA
331
1769
  5
1808
331
E60
  5
17C0
331
CE2
  5
CE3
331
D31
  5
D37
331
BFD
  5
BFE
331
C6C
  5
C6D
331
EFB
  5
17E6
331
C68
  5
C69
331
C9F
  5
CA3
331
CDE
  5
CDF
331
B87
  5
B88
331
BC6
  5
BC7
331
BF9
  5
BFA
331
FBA
  5
D32
331
D29
  5
D2A
331
BF5
  5
BF6
331
C64
  5
C65
331
B83
  5
B84
331
BC2
  5
BC3
331
C9B
  5
C9C
331
CDA
  5
CDB
331
181E
  5
FC2
331
60D
  5
60E
331
B47
  5
B48
331
B14
  5
B15
331
BF1
  5
BF2
331
C60
  5
C61
331
B10
  5
B11
331
BBE
  5
BBF
331
181A
  5
FC4
331
17E3
  5
17AB
331
17A4
  5
ED3
331
B43
  5
B44
331
417
  5
418
331
4F6
  5
4F7
331
609
  5
60A
331
BBA
  5
BBB
331
17DF
  5
17AF
331
1816
  5
1121
331
525
  5
526
331
B0C
  5
B0D
331
413
  5
414
331
4F2
  5
4F3
331
17DB
  5
17B3
331
1812
  5
1535
331
521
  5
522
331
B08
  5
B09
331
4EE
  5
4EF
331
1798
  5
111F
331
4EA
  5
4EB
331
138C
  5
1835
331
403
  5
404
331
3C8
  5
3C9
  0
XRECORD
  5
183F
102
{ACAD_REACTORS
330
183D
102
}
330
183D
100
AcDbXrecord
280
     1
 70
     2
  0
XRECORD
  5
183E
102
{ACAD_REACTORS
330
183D
102
}
330
183D
100
AcDbXrecord
280
     1
 40
1.25
  0
XRECORD
  5
1840
102
{ACAD_REACTORS
330
183D
102
}
330
183D
100
AcDbXrecord
280
     1
 40
1.570796326794896
  0
XRECORD
  5
1841
102
{ACAD_REACTORS
330
183D
102
}
330
183D
100
AcDbXrecord
280
     1
340
5D3
  0
LAYOUT
  5
6E
102
{ACAD_XDICTIONARY
360
1875
102
}
102
{ACAD_REACTORS
330
61
102
}
330
61
100
AcDbPlotSettings
  1

  2
none_device
  4
Letter_(8.50_x_11.00_Inches)
  6

 40
6.349999904632567
 41
6.349999904632567
 42
6.350006103515625
 43
6.350006103515625
 44
215.8999938964844
 45
279.3999938964844
 46
0.0
 47
0.0
 48
0.0
 49
0.0
140
0.0
141
0.0
142
1.0
143
120.0173807215813
 70
 11952
 72
     0
 73
     1
 74
     0
  7

 75
     0
147
0.0083321265135741
148
7823.902270942176
149
4525.854822372479
100
AcDbLayout
  1
Model
 70
     1
 71
     0
 10
0.0
 20
0.0
 11
12.0
 21
9.0
 12
0.0
 22
0.0
 32
0.0
 14
0.0
 24
0.0
 34
0.0
 15
0.0
 25
0.0
 35
0.0
146
0.0
 13
0.0
 23
0.0
 33
0.0
 16
1.0
 26
0.0
 36
0.0
 17
0.0
 27
1.0
 37
0.0
 76
     0
330
6B
331
8B
1001
ACAD_PSEXT
1000
なし
1000
なし
1000
適切ではありません
1000
新しいプロッタ環境設定名を選択しない限り、レイアウトは印刷されません。
1070
     0
  0
LAYOUT
  5
6A
102
{ACAD_XDICTIONARY
360
1873
102
}
102
{ACAD_REACTORS
330
61
102
}
330
61
100
AcDbPlotSettings
  1

  2
FX DP 205
  4

  6

 40
0.0
 41
0.0
 42
0.0
 43
0.0
 44
0.0
 45
0.0
 46
0.0
 47
0.0
 48
0.0
 49
0.0
140
0.0
141
0.0
142
1.0
143
1.0
 70
   688
 72
     0
 73
     0
 74
     5
  7

 75
    16
147
1.0
148
0.0
149
0.0
100
AcDbLayout
  1
レイアウト1
 70
     1
 71
     1
 10
0.0
 20
0.0
 11
12.0
 21
9.0
 12
0.0
 22
0.0
 32
0.0
 14
1.000000000000000E+20
 24
1.000000000000000E+20
 34
1.000000000000000E+20
 15
-1.000000000000000E+20
 25
-1.000000000000000E+20
 35
-1.000000000000000E+20
146
0.0
 13
0.0
 23
0.0
 33
0.0
 16
1.0
 26
0.0
 36
0.0
 17
0.0
 27
1.0
 37
0.0
 76
     0
330
67
  0
MATERIAL
  5
19
102
{ACAD_XDICTIONARY
360
1A
102
}
102
{ACAD_REACTORS
330
10
102
}
330
10
100
AcDbMaterial
  1
ByBlock
 72
     0
 43
0.0208333333333333
 43
0.0
 43
0.0
 43
0.0
 43
0.0
 43
0.0208333333333333
 43
0.0
 43
0.0
 43
0.0
 43
0.0
 43
1.0
 43
0.0
 43
0.0
 43
0.0
 43
0.0
 43
1.0
 77
     0
 47
0.0208333333333333
 47
0.0
 47
0.0
 47
0.0
 47
0.0
 47
0.0208333333333333
 47
0.0
 47
0.0
 47
0.0
 47
0.0
 47
1.0
 47
0.0
 47
0.0
 47
0.0
 47
0.0
 47
1.0
171
     0
 49
0.0208333333333333
 49
0.0
 49
0.0
 49
0.0
 49
0.0
 49
0.0208333333333333
 49
0.0
 49
0.0
 49
0.0
 49
0.0
 49
1.0
 49
0.0
 49
0.0
 49
0.0
 49
0.0
 49
1.0
175
     0
142
0.0208333333333333
142
0.0
142
0.0
142
0.0
142
0.0
142
0.0208333333333333
142
0.0
142
0.0
142
0.0
142
0.0
142
1.0
142
0.0
142
0.0
142
0.0
142
0.0
142
1.0
179
     0
144
0.0208333333333333
144
0.0
144
0.0
144
0.0
144
0.0
144
0.0208333333333333
144
0.0
144
0.0
144
0.0
144
0.0
144
1.0
144
0.0
144
0.0
144
0.0
144
0.0
144
1.0
147
0.0208333333333333
147
0.0
147
0.0
147
0.0
147
0.0
147
0.0208333333333333
147
0.0
147
0.0
147
0.0
147
0.0
147
1.0
147
0.0
147
0.0
147
0.0
147
0.0
147
1.0
  0
MATERIAL
  5
11
102
{ACAD_XDICTIONARY
360
12
102
}
102
{ACAD_REACTORS
330
10
102
}
330
10
100
AcDbMaterial
  1
ByLayer
 72
     0
 43
0.0208333333333333
 43
0.0
 43
0.0
 43
0.0
 43
0.0
 43
0.0208333333333333
 43
0.0
 43
0.0
 43
0.0
 43
0.0
 43
1.0
 43
0.0
 43
0.0
 43
0.0
 43
0.0
 43
1.0
 77
     0
 47
0.0208333333333333
 47
0.0
 47
0.0
 47
0.0
 47
0.0
 47
0.0208333333333333
 47
0.0
 47
0.0
 47
0.0
 47
0.0
 47
1.0
 47
0.0
 47
0.0
 47
0.0
 47
0.0
 47
1.0
171
     0
 49
0.0208333333333333
 49
0.0
 49
0.0
 49
0.0
 49
0.0
 49
0.0208333333333333
 49
0.0
 49
0.0
 49
0.0
 49
0.0
 49
1.0
 49
0.0
 49
0.0
 49
0.0
 49
0.0
 49
1.0
175
     0
142
0.0208333333333333
142
0.0
142
0.0
142
0.0
142
0.0
142
0.0208333333333333
142
0.0
142
0.0
142
0.0
142
0.0
142
1.0
142
0.0
142
0.0
142
0.0
142
0.0
142
1.0
179
     0
144
0.0208333333333333
144
0.0
144
0.0
144
0.0
144
0.0
144
0.0208333333333333
144
0.0
144
0.0
144
0.0
144
0.0
144
1.0
144
0.0
144
0.0
144
0.0
144
0.0
144
1.0
147
0.0208333333333333
147
0.0
147
0.0
147
0.0
147
0.0
147
0.0208333333333333
147
0.0
147
0.0
147
0.0
147
0.0
147
1.0
147
0.0
147
0.0
147
0.0
147
0.0
147
1.0
  0
MATERIAL
  5
21
102
{ACAD_XDICTIONARY
360
22
102
}
102
{ACAD_REACTORS
330
10
102
}
330
10
100
AcDbMaterial
  1
Global
 72
     0
 43
0.0208333333333333
 43
0.0
 43
0.0
 43
0.0
 43
0.0
 43
0.0208333333333333
 43
0.0
 43
0.0
 43
0.0
 43
0.0
 43
1.0
 43
0.0
 43
0.0
 43
0.0
 43
0.0
 43
1.0
 77
     0
 47
0.0208333333333333
 47
0.0
 47
0.0
 47
0.0
 47
0.0
 47
0.0208333333333333
 47
0.0
 47
0.0
 47
0.0
 47
0.0
 47
1.0
 47
0.0
 47
0.0
 47
0.0
 47
0.0
 47
1.0
171
     0
 49
0.0208333333333333
 49
0.0
 49
0.0
 49
0.0
 49
0.0
 49
0.0208333333333333
 49
0.0
 49
0.0
 49
0.0
 49
0.0
 49
1.0
 49
0.0
 49
0.0
 49
0.0
 49
0.0
 49
1.0
175
     0
142
0.0208333333333333
142
0.0
142
0.0
142
0.0
142
0.0
142
0.0208333333333333
142
0.0
142
0.0
142
0.0
142
0.0
142
1.0
142
0.0
142
0.0
142
0.0
142
0.0
142
1.0
179
     0
144
0.0208333333333333
144
0.0
144
0.0
144
0.0
144
0.0
144
0.0208333333333333
144
0.0
144
0.0
144
0.0
144
0.0
144
1.0
144
0.0
144
0.0
144
0.0
144
0.0
144
1.0
147
0.0208333333333333
147
0.0
147
0.0
147
0.0
147
0.0
147
0.0208333333333333
147
0.0
147
0.0
147
0.0
147
0.0
147
1.0
147
0.0
147
0.0
147
0.0
147
0.0
147
1.0
  0
MLEADERSTYLE
  5
66
102
{ACAD_REACTORS
330
65
102
}
330
65
100
AcDbMLeaderStyle
170
     2
171
     1
172
     0
 90
        2
 40
0.0
 41
0.0
173
     1
 91
-1056964608
340
5A
 92
       -2
290
     1
 42
0.09
291
     1
 43
0.36
  3
Standard
 44
0.18
300

342
55
174
     1
178
     6
175
     1
176
     0
 93
-1056964608
 45
0.18
292
     0
297
     0
 46
0.18
 94
-1056964608
 47
1.0
 49
1.0
140
1.0
293
     1
141
0.0
294
     1
177
     0
142
1.0
295
     0
296
     0
143
0.125
1001
ACAD_MLEADERVER
1070
     2
  0
MLINESTYLE
  5
5F
102
{ACAD_REACTORS
330
5E
102
}
330
5E
100
AcDbMlineStyle
  2
STANDARD
 70
     0
  3

 62
   256
 51
90.0
 52
90.0
 71
     2
 49
0.5
 62
   256
  6
BYLAYER
 49
-0.5
 62
   256
  6
BYLAYER
  0
ACDBPLACEHOLDER
  5
F
102
{ACAD_REACTORS
330
E
102
}
330
E
  0
SCALE
  5
43
102
{ACAD_REACTORS
330
42
102
}
330
42
100
AcDbScale
 70
     0
300
1:1
140
1.0
141
1.0
290
     1
  0
SCALE
  5
44
102
{ACAD_REACTORS
330
42
102
}
330
42
100
AcDbScale
 70
     0
300
1/128" = 1'-0"
140
0.0078125
141
12.0
290
     0
  0
SCALE
  5
45
102
{ACAD_REACTORS
330
42
102
}
330
42
100
AcDbScale
 70
     0
300
1/64" = 1'-0"
140
0.015625
141
12.0
290
     0
  0
SCALE
  5
46
102
{ACAD_REACTORS
330
42
102
}
330
42
100
AcDbScale
 70
     0
300
1/32" = 1'-0"
140
0.03125
141
12.0
290
     0
  0
SCALE
  5
47
102
{ACAD_REACTORS
330
42
102
}
330
42
100
AcDbScale
 70
     0
300
1/16" = 1'-0"
140
0.0625
141
12.0
290
     0
  0
SCALE
  5
48
102
{ACAD_REACTORS
330
42
102
}
330
42
100
AcDbScale
 70
     0
300
3/32" = 1'-0"
140
0.09375
141
12.0
290
     0
  0
SCALE
  5
49
102
{ACAD_REACTORS
330
42
102
}
330
42
100
AcDbScale
 70
     0
300
1/8" = 1'-0"
140
0.125
141
12.0
290
     0
  0
SCALE
  5
4A
102
{ACAD_REACTORS
330
42
102
}
330
42
100
AcDbScale
 70
     0
300
3/16" = 1'-0"
140
0.1875
141
12.0
290
     0
  0
SCALE
  5
4B
102
{ACAD_REACTORS
330
42
102
}
330
42
100
AcDbScale
 70
     0
300
1/4" = 1'-0"
140
0.25
141
12.0
290
     0
  0
SCALE
  5
4C
102
{ACAD_REACTORS
330
42
102
}
330
42
100
AcDbScale
 70
     0
300
3/8" = 1'-0"
140
0.375
141
12.0
290
     0
  0
SCALE
  5
4D
102
{ACAD_REACTORS
330
42
102
}
330
42
100
AcDbScale
 70
     0
300
1/2" = 1'-0"
140
0.5
141
12.0
290
     0
  0
SCALE
  5
4E
102
{ACAD_REACTORS
330
42
102
}
330
42
100
AcDbScale
 70
     0
300
3/4" = 1'-0"
140
0.75
141
12.0
290
     0
  0
SCALE
  5
4F
102
{ACAD_REACTORS
330
42
102
}
330
42
100
AcDbScale
 70
     0
300
1" = 1'-0"
140
1.0
141
12.0
290
     0
  0
SCALE
  5
50
102
{ACAD_REACTORS
330
42
102
}
330
42
100
AcDbScale
 70
     0
300
1-1/2" = 1'-0"
140
1.5
141
12.0
290
     0
  0
SCALE
  5
51
102
{ACAD_REACTORS
330
42
102
}
330
42
100
AcDbScale
 70
     0
300
3" = 1'-0"
140
3.0
141
12.0
290
     0
  0
SCALE
  5
52
102
{ACAD_REACTORS
330
42
102
}
330
42
100
AcDbScale
 70
     0
300
6" = 1'-0"
140
6.0
141
12.0
290
     0
  0
SCALE
  5
53
102
{ACAD_REACTORS
330
42
102
}
330
42
100
AcDbScale
 70
     0
300
1'-0" = 1'-0"
140
12.0
141
12.0
290
     0
  0
TABLESTYLE
  5
64
102
{ACAD_XDICTIONARY
360
7AA
102
}
102
{ACAD_REACTORS
330
63
102
}
330
63
100
AcDbTableStyle
  3
Standard
 70
     0
 71
     0
 40
0.06
 41
0.06
280
     0
281
     0
  7
STANDARD
140
0.18
170
     2
 62
     0
 63
     7
283
     0
274
    -2
284
     1
 64
     0
275
    -2
285
     1
 65
     0
276
    -2
286
     1
 66
     0
277
    -2
287
     1
 67
     0
278
    -2
288
     1
 68
     0
279
    -2
289
     1
 69
     0
  7
STANDARD
140
0.25
170
     5
 62
     0
 63
     7
283
     0
274
    -2
284
     1
 64
     0
275
    -2
285
     1
 65
     0
276
    -2
286
     1
 66
     0
277
    -2
287
     1
 67
     0
278
    -2
288
     1
 68
     0
279
    -2
289
     1
 69
     0
  7
STANDARD
140
0.18
170
     5
 62
     0
 63
     7
283
     0
274
    -2
284
     1
 64
     0
275
    -2
285
     1
 65
     0
276
    -2
286
     1
 66
     0
277
    -2
287
     1
 67
     0
278
    -2
288
     1
 68
     0
279
    -2
289
     1
 69
     0
  0
TABLESTYLE
  5
1422
102
{ACAD_XDICTIONARY
360
1423
102
}
102
{ACAD_REACTORS
330
63
102
}
330
63
100
AcDbTableStyle
  3
Standard
 70
     1
 71
     0
 40
1.5
 41
0.5
280
     0
281
     0
  7
高3.2
140
0.18
170
     7
 62
     3
 63
     7
283
     0
274
    -2
284
     1
 64
     3
275
    -2
285
     1
 65
     7
276
    -2
286
     1
 66
     3
277
    -2
287
     1
 67
     3
278
    -2
288
     1
 68
     7
279
    -2
289
     1
 69
     3
  7
高3.2
140
0.25
170
     8
 62
     3
 63
     7
283
     0
274
    -2
284
     1
 64
     0
275
    -2
285
     1
 65
     0
276
    -2
286
     1
 66
     0
277
    -2
287
     1
 67
     0
278
    -2
288
     1
 68
     0
279
    -2
289
     1
 69
     0
  7
高3.2
140
0.18
170
     7
 62
     3
 63
     7
283
     0
274
    -2
284
     1
 64
     3
275
    -2
285
     1
 65
     7
276
    -2
286
     1
 66
     3
277
    -2
287
     1
 67
     3
278
    -2
288
     1
 68
     7
279
    -2
289
     1
 69
     3
  0
VISUALSTYLE
  5
2F
102
{ACAD_XDICTIONARY
360
184C
102
}
102
{ACAD_REACTORS
330
29
102
}
330
29
100
AcDbVisualStyle
  2

 70
     4
 71
     0
 72
     2
 73
     0
 90
        0
 40
-0.6
 41
-30.0
 62
     5
 63
     7
 74
     1
 91
        4
 64
     7
 65
   257
 75
     1
175
     1
 42
1.0
 92
        0
 66
   257
 43
1.0
 76
     1
 77
     6
 78
     2
 67
     7
 79
     5
170
     0
171
     0
290
     0
174
     0
 93
        1
 44
0.0
173
     0
291
     0
 45
0.0
1001
ACAD
1000
AcDbSavedByObjectVersion
1070
     0
  0
VISUALSTYLE
  5
7F3
102
{ACAD_XDICTIONARY
360
1879
102
}
102
{ACAD_REACTORS
330
29
102
}
330
29
100
AcDbVisualStyle
  2

 70
     6
 71
     1
 72
     2
 73
     2
 90
        0
 40
-0.6
 41
-30.0
 62
     5
 63
     7
 74
     2
 91
        2
 64
     7
 65
   257
 75
     2
175
     1
 42
40.0
 92
        0
 66
   257
 43
1.0
 76
     1
 77
     6
 78
     2
 67
     7
 79
     3
170
     0
171
     0
290
     0
174
     0
 93
        1
 44
0.0
173
     0
291
     0
 45
0.0
1001
ACAD
1000
AcDbSavedByObjectVersion
1070
     0
  0
VISUALSTYLE
  5
5D3
102
{ACAD_XDICTIONARY
360
1877
102
}
102
{ACAD_REACTORS
330
29
102
}
330
29
100
AcDbVisualStyle
  2

 70
     5
 71
     0
 72
     2
 73
     1
 90
        0
 40
-0.6
 41
-30.0
 62
     5
 63
     7
 74
     1
 91
        4
 64
     7
 65
   257
 75
     1
175
     1
 42
1.0
 92
        0
 66
   257
 43
1.0
 76
     1
 77
     6
 78
     2
 67
     7
 79
     5
170
     0
171
     0
290
     0
174
     0
 93
        1
 44
0.0
173
     0
291
     0
 45
0.0
1001
ACAD
1000
AcDbSavedByObjectVersion
1070
     0
  0
VISUALSTYLE
  5
2E
102
{ACAD_XDICTIONARY
360
184A
102
}
102
{ACAD_REACTORS
330
29
102
}
330
29
100
AcDbVisualStyle
  2

 70
     7
 71
     1
 72
     0
 73
     1
 90
        0
 40
-0.6
 41
-30.0
 62
     5
 63
     7
 74
     0
 91
        4
 64
     7
 65
   257
 75
     1
175
     1
 42
1.0
 92
        8
 66
     7
 43
1.0
 76
     1
 77
     6
 78
     2
 67
     7
 79
     5
170
     0
171
     0
290
     0
174
     0
 93
        1
 44
0.0
173
     0
291
     1
 45
0.0
1001
ACAD
1000
AcDbSavedByObjectVersion
1070
     0
  0
VISUALSTYLE
  5
35
102
{ACAD_XDICTIONARY
360
1858
102
}
102
{ACAD_REACTORS
330
29
102
}
330
29
100
AcDbVisualStyle
  2

 70
    12
 71
     2
 72
     2
 73
     0
 90
        0
 40
-0.6
 41
-30.0
 62
     5
 63
     7
 74
     1
 91
        4
 64
     7
 65
   257
 75
     1
175
     1
 42
1.0
 92
        8
 66
     7
 43
1.0
 76
     1
 77
     6
 78
     2
 67
     7
 79
     5
170
     0
171
     0
290
     0
174
     0
 93
        1
 44
50.0
173
     0
291
     1
 45
0.0
1001
ACAD
1000
AcDbSavedByObjectVersion
1070
     0
  0
VISUALSTYLE
  5
39
102
{ACAD_XDICTIONARY
360
1860
102
}
102
{ACAD_REACTORS
330
29
102
}
330
29
100
AcDbVisualStyle
  2

 70
    16
 71
     2
 72
     2
 73
     3
 90
        0
 40
-0.6
 41
-30.0
 62
     5
 63
     8
 74
     1
 91
        4
 64
     7
 65
   257
 75
     1
175
     1
 42
1.0
 92
        8
 66
     8
 43
1.0
 76
     1
 77
     6
 78
     2
 67
     7
 79
     5
170
     0
171
     0
290
     0
174
     0
 93
        1
 44
0.0
173
     0
291
     1
 45
0.0
1001
ACAD
1000
AcDbSavedByObjectVersion
1070
     0
  0
VISUALSTYLE
  5
32
102
{ACAD_XDICTIONARY
360
1852
102
}
102
{ACAD_REACTORS
330
29
102
}
330
29
100
AcDbVisualStyle
  2

 70
     9
 71
     3
 72
     2
 73
     0
 90
        0
 40
-0.6
 41
-30.0
 62
     5
 63
     7
 74
     2
 91
        2
 64
     7
 65
   257
 75
     1
175
     1
 42
179.0
 92
        8
 66
     7
 43
1.0
 76
     1
 77
     6
 78
     2
 67
     7
 79
     3
170
     0
171
     0
290
     0
174
     0
 93
        1
 44
0.0
173
     0
291
     0
 45
0.0
1001
ACAD
1000
AcDbSavedByObjectVersion
1070
     0
  0
VISUALSTYLE
  5
34
102
{ACAD_XDICTIONARY
360
1856
102
}
102
{ACAD_REACTORS
330
29
102
}
330
29
100
AcDbVisualStyle
  2

 70
    11
 71
     2
 72
     2
 73
     0
 90
        0
 40
-0.6
 41
-30.0
 62
     5
 63
     7
 74
     1
 91
        4
 64
     7
 65
   257
 75
     1
175
     1
 42
1.0
 92
        8
 66
     7
 43
1.0
 76
     1
 77
     6
 78
     2
 67
     7
 79
     5
170
     0
171
     0
290
     0
174
     0
 93
        1
 44
-50.0
173
     0
291
     1
 45
0.0
1001
ACAD
1000
AcDbSavedByObjectVersion
1070
     0
  0
VISUALSTYLE
  5
41
102
{ACAD_XDICTIONARY
360
1870
102
}
102
{ACAD_REACTORS
330
29
102
}
330
29
100
AcDbVisualStyle
  2

 70
    22
 71
     2
 72
     2
 73
     0
 90
        0
 40
-0.6
 41
-30.0
 62
     5
 63
     7
 74
     1
 91
        4
 64
     7
 65
   257
 75
     1
175
     1
 42
1.0
 92
        8
 66
     7
 43
1.0
 76
     1
 77
     6
 78
     2
 67
     7
 79
     5
170
     0
171
     0
290
     0
174
     0
 93
        1
 44
0.0
173
     0
291
     1
 45
0.0
1001
ACAD
1000
AcDbSavedByObjectVersion
1070
     0
  0
VISUALSTYLE
  5
38
102
{ACAD_XDICTIONARY
360
185E
102
}
102
{ACAD_REACTORS
330
29
102
}
330
29
100
AcDbVisualStyle
  2

 70
    15
 71
     2
 72
     2
 73
     0
 90
        0
 40
-0.6
 41
-30.0
 62
     5
 63
     7
 74
     1
 91
        4
 64
     7
 65
   257
 75
     1
175
     1
 42
1.0
 92
        8
 66
     7
 43
1.0
 76
     1
 77
     6
 78
     2
 67
     7
 79
     5
170
     0
171
     0
290
     0
174
     0
 93
        1
 44
0.0
173
     0
291
     1
 45
0.0
1001
ACAD
1000
AcDbSavedByObjectVersion
1070
     0
  0
VISUALSTYLE
  5
2A
102
{ACAD_XDICTIONARY
360
1842
102
}
102
{ACAD_REACTORS
330
29
102
}
330
29
100
AcDbVisualStyle
  2

 70
     0
 71
     2
 72
     1
 73
     1
 90
        2
 40
-0.6
 41
30.0
 62
     5
 63
     7
 74
     0
 91
        0
 64
     7
 65
   257
 75
     1
175
     1
 42
1.0
 92
        8
 66
     7
 43
1.0
 76
     1
 77
     6
 78
     2
 67
     7
 79
     5
170
     0
171
     0
290
     0
174
     0
 93
       13
 44
0.0
173
     0
291
     1
 45
0.0
1001
ACAD
1000
AcDbSavedByObjectVersion
1070
     0
  0
VISUALSTYLE
  5
2B
102
{ACAD_XDICTIONARY
360
1844
102
}
102
{ACAD_REACTORS
330
29
102
}
330
29
100
AcDbVisualStyle
  2

 70
     1
 71
     2
 72
     1
 73
     1
 90
        2
 40
-0.6
 41
30.0
 62
     5
 63
     7
 74
     1
 91
        0
 64
     7
 65
   257
 75
     1
175
     1
 42
1.0
 92
        0
 66
   257
 43
1.0
 76
     1
 77
     6
 78
     2
 67
     7
 79
     5
170
     0
171
     0
290
     0
174
     0
 93
       13
 44
0.0
173
     0
291
     1
 45
0.0
1001
ACAD
1000
AcDbSavedByObjectVersion
1070
     0
  0
VISUALSTYLE
  5
2C
102
{ACAD_XDICTIONARY
360
1846
102
}
102
{ACAD_REACTORS
330
29
102
}
330
29
100
AcDbVisualStyle
  2

 70
     2
 71
     2
 72
     2
 73
     1
 90
        2
 40
-0.6
 41
30.0
 62
     5
 63
     7
 74
     0
 91
        0
 64
     7
 65
   257
 75
     1
175
     1
 42
1.0
 92
        0
 66
     7
 43
1.0
 76
     1
 77
     6
 78
     2
 67
     7
 79
     5
170
     0
171
     0
290
     0
174
     0
 93
       13
 44
0.0
173
     0
291
     1
 45
0.0
1001
ACAD
1000
AcDbSavedByObjectVersion
1070
     0
  0
VISUALSTYLE
  5
2D
102
{ACAD_XDICTIONARY
360
1848
102
}
102
{ACAD_REACTORS
330
29
102
}
330
29
100
AcDbVisualStyle
  2

 70
     3
 71
     2
 72
     2
 73
     1
 90
        2
 40
-0.6
 41
30.0
 62
     5
 63
     7
 74
     1
 91
        0
 64
     7
 65
   257
 75
     1
175
     1
 42
1.0
 92
        0
 66
   257
 43
1.0
 76
     1
 77
     6
 78
     2
 67
     7
 79
     5
170
     0
171
     0
290
     0
174
     0
 93
       13
 44
0.0
173
     0
291
     1
 45
0.0
1001
ACAD
1000
AcDbSavedByObjectVersion
1070
     0
  0
VISUALSTYLE
  5
31
102
{ACAD_XDICTIONARY
360
1850
102
}
102
{ACAD_REACTORS
330
29
102
}
330
29
100
AcDbVisualStyle
  2

 70
     6
 71
     1
 72
     2
 73
     2
 90
        0
 40
-0.6
 41
-30.0
 62
     5
 63
     7
 74
     2
 91
        2
 64
     7
 65
   257
 75
     2
175
     1
 42
40.0
 92
        0
 66
   257
 43
1.0
 76
     1
 77
     6
 78
     2
 67
     7
 79
     3
170
     0
171
     0
290
     0
174
     0
 93
        1
 44
0.0
173
     0
291
     0
 45
0.0
1001
ACAD
1000
AcDbSavedByObjectVersion
1070
     0
  0
VISUALSTYLE
  5
3F
102
{ACAD_XDICTIONARY
360
186C
102
}
102
{ACAD_REACTORS
330
29
102
}
330
29
100
AcDbVisualStyle
  2

 70
    20
 71
     2
 72
     2
 73
     0
 90
        0
 40
-0.6
 41
-30.0
 62
     5
 63
     7
 74
     1
 91
        4
 64
     7
 65
   257
 75
     1
175
     1
 42
1.0
 92
       10
 66
     7
 43
1.0
 76
     1
 77
     6
 78
     2
 67
     7
 79
     5
170
     0
171
     0
290
     0
174
     0
 93
        1
 44
0.0
173
     0
291
     1
 45
0.0
1001
ACAD
1000
AcDbSavedByObjectVersion
1070
     0
  0
VISUALSTYLE
  5
37
102
{ACAD_XDICTIONARY
360
185C
102
}
102
{ACAD_REACTORS
330
29
102
}
330
29
100
AcDbVisualStyle
  2

 70
    14
 71
     2
 72
     2
 73
     0
 90
        0
 40
-0.6
 41
-30.0
 62
     5
 63
     7
 74
     1
 91
        4
 64
     7
 65
   257
 75
     7
175
     7
 42
1.0
 92
        8
 66
     7
 43
1.0
 76
     1
 77
     6
 78
     2
 67
     7
 79
     5
170
     0
171
     0
290
     0
174
     0
 93
        1
 44
0.0
173
     0
291
     1
 45
0.0
1001
ACAD
1000
AcDbSavedByObjectVersion
1070
     0
  0
VISUALSTYLE
  5
40
102
{ACAD_XDICTIONARY
360
186E
102
}
102
{ACAD_REACTORS
330
29
102
}
330
29
100
AcDbVisualStyle
  2

 70
    21
 71
     2
 72
     2
 73
     0
 90
        0
 40
-0.6
 41
-30.0
 62
     5
 63
     7
 74
     1
 91
        4
 64
     7
 65
   257
 75
     1
175
     1
 42
1.0
 92
        9
 66
     7
 43
1.0
 76
     1
 77
     6
 78
     2
 67
     7
 79
     5
170
     0
171
     0
290
     0
174
     0
 93
        1
 44
0.0
173
     0
291
     1
 45
0.0
1001
ACAD
1000
AcDbSavedByObjectVersion
1070
     0
  0
VISUALSTYLE
  5
33
102
{ACAD_XDICTIONARY
360
1854
102
}
102
{ACAD_REACTORS
330
29
102
}
330
29
100
AcDbVisualStyle
  2

 70
     8
 71
     2
 72
     3
 73
     0
 90
        2
 40
-0.6
 41
30.0
 62
     5
 63
     7
 74
     0
 91
        0
 64
     7
 65
   257
 75
     1
175
     1
 42
1.0
 92
        8
 66
   257
 43
1.0
 76
     1
 77
     6
 78
     2
 67
     7
 79
     3
170
     0
171
     0
290
     0
174
     0
 93
       13
 44
0.0
173
     0
291
     0
 45
0.0
1001
ACAD
1000
AcDbSavedByObjectVersion
1070
     0
  0
VISUALSTYLE
  5
3E
102
{ACAD_XDICTIONARY
360
186A
102
}
102
{ACAD_REACTORS
330
29
102
}
330
29
100
AcDbVisualStyle
  2

 70
    27
 71
     2
 72
     2
 73
     1
 90
        2
 40
-0.6
 41
30.0
 62
     5
 63
     7
 74
     0
 91
        4
 64
     7
 65
   257
 75
     1
175
     1
 42
1.0
 92
        8
 66
   257
 43
1.0
 76
     1
 77
     6
 78
     2
 67
     8
 79
     3
170
     0
171
     0
290
     0
174
     0
 93
        5
 44
0.0
173
     0
291
     0
 45
0.0
1001
ACAD
1000
AcDbSavedByObjectVersion
1070
     0
  0
VISUALSTYLE
  5
3D
102
{ACAD_XDICTIONARY
360
1868
102
}
102
{ACAD_REACTORS
330
29
102
}
330
29
100
AcDbVisualStyle
  2

 70
    26
 71
     2
 72
     2
 73
     1
 90
        2
 40
-0.6
 41
30.0
 62
     5
 63
     7
 74
     1
 91
       10
 64
     7
 65
   257
 75
     2
175
     1
 42
1.0
 92
        8
 66
   257
 43
1.0
 76
     1
 77
     6
 78
     2
 67
     7
 79
     3
170
     0
171
     0
290
     0
174
     0
 93
        5
 44
0.0
173
     0
291
     0
 45
0.0
1001
ACAD
1000
AcDbSavedByObjectVersion
1070
     0
  0
VISUALSTYLE
  5
3A
102
{ACAD_XDICTIONARY
360
1862
102
}
102
{ACAD_REACTORS
330
29
102
}
330
29
100
AcDbVisualStyle
  2

 70
    23
 71
     2
 72
     2
 73
     3
 90
        0
 40
-0.6
 41
-30.0
 62
     5
 63
     7
 74
     2
 91
        2
 64
     7
 65
     7
 75
     1
175
     1
 42
40.0
 92
        8
 66
     7
 43
1.0
 76
     1
 77
     6
 78
     2
 67
     7
 79
     3
170
     0
171
     0
290
     0
174
     0
 93
        1
 44
0.0
173
     0
291
     0
 45
0.0
1001
ACAD
1000
AcDbSavedByObjectVersion
1070
     0
  0
VISUALSTYLE
  5
3B
102
{ACAD_XDICTIONARY
360
1864
102
}
102
{ACAD_REACTORS
330
29
102
}
330
29
100
AcDbVisualStyle
  2

 70
    24
 71
     1
 72
     2
 73
     2
 90
        0
 40
-0.6
 41
-30.0
 62
     5
 63
     7
 74
     2
 91
        2
 64
     7
 65
     7
 75
     1
175
     1
 42
40.0
 92
       11
 66
     7
 43
1.0
 76
     1
 77
     6
 78
     2
 67
     7
 79
     6
170
     0
171
     0
290
     0
174
     0
 93
        1
 44
0.0
173
     0
291
     0
 45
0.0
1001
ACAD
1000
AcDbSavedByObjectVersion
1070
     0
  0
VISUALSTYLE
  5
36
102
{ACAD_XDICTIONARY
360
185A
102
}
102
{ACAD_REACTORS
330
29
102
}
330
29
100
AcDbVisualStyle
  2

 70
    13
 71
     2
 72
     2
 73
     0
 90
        0
 40
-0.6
 41
-30.0
 62
     5
 63
     7
 74
     1
 91
        4
 64
     7
 65
   257
 75
     1
175
     1
 42
1.0
 92
       12
 66
     7
 43
1.0
 76
     1
 77
     6
 78
     2
 67
     7
 79
     5
170
     0
171
     0
290
     0
174
     0
 93
        1
 44
0.0
173
     0
291
     1
 45
0.0
1001
ACAD
1000
AcDbSavedByObjectVersion
1070
     0
  0
VISUALSTYLE
  5
30
102
{ACAD_XDICTIONARY
360
184E
102
}
102
{ACAD_REACTORS
330
29
102
}
330
29
100
AcDbVisualStyle
  2

 70
     5
 71
     0
 72
     2
 73
     0
 90
        0
 40
-0.6
 41
-30.0
 62
     5
 63
     7
 74
     1
 91
        4
 64
     7
 65
   257
 75
     1
175
     1
 42
1.0
 92
        0
 66
   257
 43
1.0
 76
     1
 77
     6
 78
     2
 67
     7
 79
     3
170
     0
171
     0
290
     0
174
     0
 93
        1
 44
0.0
173
     0
291
     0
 45
0.0
1001
ACAD
1000
AcDbSavedByObjectVersion
1070
     0
  0
VISUALSTYLE
  5
3C
102
{ACAD_XDICTIONARY
360
1866
102
}
102
{ACAD_REACTORS
330
29
102
}
330
29
100
AcDbVisualStyle
  2

 70
    25
 71
     2
 72
     2
 73
     1
 90
        1
 40
0.5
 41
-30.0
 62
     5
 63
     7
 74
     1
 91
        0
 64
     7
 65
   257
 75
     1
175
     1
 42
1.0
 92
        8
 66
     7
 43
1.0
 76
     1
 77
     6
 78
     2
 67
     7
 79
     3
170
     0
171
     0
290
     0
174
     0
 93
       13
 44
0.0
173
     0
291
     0
 45
0.0
1001
ACAD
1000
AcDbSavedByObjectVersion
1070
     0
  0
DICTIONARYVAR
  5
7A5
102
{ACAD_REACTORS
330
7A2
102
}
330
7A2
100
DictionaryVariables
280
     0
  1
1:1
  0
DICTIONARYVAR
  5
7A4
102
{ACAD_REACTORS
330
7A2
102
}
330
7A2
100
DictionaryVariables
280
     0
  1
STANDARD
  0
DICTIONARYVAR
  5
7A3
102
{ACAD_REACTORS
330
7A2
102
}
330
7A2
100
DictionaryVariables
280
     0
  1
STANDARD
  0
DICTIONARYVAR
  5
7A8
102
{ACAD_REACTORS
330
7A2
102
}
330
7A2
100
DictionaryVariables
280
     0
  1
1
  0
DICTIONARYVAR
  5
7A7
102
{ACAD_REACTORS
330
7A2
102
}
330
7A2
100
DictionaryVariables
280
     0
  1
0
  0
DICTIONARYVAR
  5
16DA
102
{ACAD_REACTORS
330
7A2
102
}
330
7A2
100
DictionaryVariables
280
     0
  1
1.570796
  0
DICTIONARYVAR
  5
16DB
102
{ACAD_REACTORS
330
7A2
102
}
330
7A2
100
DictionaryVariables
280
     0
  1
1.570796
  0
DICTIONARYVAR
  5
7A6
102
{ACAD_REACTORS
330
7A2
102
}
330
7A2
100
DictionaryVariables
280
     0
  1
127
  0
DICTIONARYVAR
  5
16DC
102
{ACAD_REACTORS
330
7A2
102
}
330
7A2
100
DictionaryVariables
280
     0
  1
2
  0
DICTIONARY
  5
1875
330
6E
100
AcDbDictionary
280
     1
281
     1
  3
ACAD_XREC_ROUNDTRIP
360
1876
  0
DICTIONARY
  5
1873
330
6A
100
AcDbDictionary
280
     1
281
     1
  3
ACAD_XREC_ROUNDTRIP
360
1874
  0
DICTIONARY
  5
1A
330
19
100
AcDbDictionary
280
     1
281
     1
  3
ACAD_XREC_ROUNDTRIP
360
7B3
  3
BUMPTILE
360
1C
  3
DIFFUSETILE
360
1B
  3
OPACITYTILE
360
1F
  3
REFLECTIONTILE
360
1E
  3
REFRACTIONTILE
360
20
  3
SPECULARTILE
360
1D
  0
DICTIONARY
  5
12
330
11
100
AcDbDictionary
280
     1
281
     1
  3
ACAD_XREC_ROUNDTRIP
360
7B2
  3
BUMPTILE
360
14
  3
DIFFUSETILE
360
13
  3
OPACITYTILE
360
17
  3
REFLECTIONTILE
360
16
  3
REFRACTIONTILE
360
18
  3
SPECULARTILE
360
15
  0
DICTIONARY
  5
22
330
21
100
AcDbDictionary
280
     1
281
     1
  3
ACAD_XREC_ROUNDTRIP
360
7B4
  3
BUMPTILE
360
24
  3
DIFFUSETILE
360
23
  3
OPACITYTILE
360
27
  3
REFLECTIONTILE
360
26
  3
REFRACTIONTILE
360
28
  3
SPECULARTILE
360
25
  0
DICTIONARY
  5
7AA
330
64
100
AcDbDictionary
280
     1
281
     1
  3
ACAD_ROUNDTRIP_2008_TABLESTYLE_CELLSTYLEMAP
360
1839
  3
ACAD_XREC_ROUNDTRIP
360
1872
  0
DICTIONARY
  5
1423
330
1422
100
AcDbDictionary
280
     1
281
     1
  3
ACAD_ROUNDTRIP_2008_TABLESTYLE_CELLSTYLEMAP
360
183A
  3
ACAD_XREC_ROUNDTRIP
360
187B
  0
DICTIONARY
  5
184C
330
2F
100
AcDbDictionary
280
     1
281
     1
  3
ACAD_XREC_ROUNDTRIP
360
184D
  0
DICTIONARY
  5
1879
330
7F3
100
AcDbDictionary
280
     1
281
     1
  3
ACAD_XREC_ROUNDTRIP
360
187A
  0
DICTIONARY
  5
1877
330
5D3
100
AcDbDictionary
280
     1
281
     1
  3
ACAD_XREC_ROUNDTRIP
360
1878
  0
DICTIONARY
  5
184A
330
2E
100
AcDbDictionary
280
     1
281
     1
  3
ACAD_XREC_ROUNDTRIP
360
184B
  0
DICTIONARY
  5
1858
330
35
100
AcDbDictionary
280
     1
281
     1
  3
ACAD_XREC_ROUNDTRIP
360
1859
  0
DICTIONARY
  5
1860
330
39
100
AcDbDictionary
280
     1
281
     1
  3
ACAD_XREC_ROUNDTRIP
360
1861
  0
DICTIONARY
  5
1852
330
32
100
AcDbDictionary
280
     1
281
     1
  3
ACAD_XREC_ROUNDTRIP
360
1853
  0
DICTIONARY
  5
1856
330
34
100
AcDbDictionary
280
     1
281
     1
  3
ACAD_XREC_ROUNDTRIP
360
1857
  0
DICTIONARY
  5
1870
330
41
100
AcDbDictionary
280
     1
281
     1
  3
ACAD_XREC_ROUNDTRIP
360
1871
  0
DICTIONARY
  5
185E
330
38
100
AcDbDictionary
280
     1
281
     1
  3
ACAD_XREC_ROUNDTRIP
360
185F
  0
DICTIONARY
  5
1842
330
2A
100
AcDbDictionary
280
     1
281
     1
  3
ACAD_XREC_ROUNDTRIP
360
1843
  0
DICTIONARY
  5
1844
330
2B
100
AcDbDictionary
280
     1
281
     1
  3
ACAD_XREC_ROUNDTRIP
360
1845
  0
DICTIONARY
  5
1846
330
2C
100
AcDbDictionary
280
     1
281
     1
  3
ACAD_XREC_ROUNDTRIP
360
1847
  0
DICTIONARY
  5
1848
330
2D
100
AcDbDictionary
280
     1
281
     1
  3
ACAD_XREC_ROUNDTRIP
360
1849
  0
DICTIONARY
  5
1850
330
31
100
AcDbDictionary
280
     1
281
     1
  3
ACAD_XREC_ROUNDTRIP
360
1851
  0
DICTIONARY
  5
186C
330
3F
100
AcDbDictionary
280
     1
281
     1
  3
ACAD_XREC_ROUNDTRIP
360
186D
  0
DICTIONARY
  5
185C
330
37
100
AcDbDictionary
280
     1
281
     1
  3
ACAD_XREC_ROUNDTRIP
360
185D
  0
DICTIONARY
  5
186E
330
40
100
AcDbDictionary
280
     1
281
     1
  3
ACAD_XREC_ROUNDTRIP
360
186F
  0
DICTIONARY
  5
1854
330
33
100
AcDbDictionary
280
     1
281
     1
  3
ACAD_XREC_ROUNDTRIP
360
1855
  0
DICTIONARY
  5
186A
330
3E
100
AcDbDictionary
280
     1
281
     1
  3
ACAD_XREC_ROUNDTRIP
360
186B
  0
DICTIONARY
  5
1868
330
3D
100
AcDbDictionary
280
     1
281
     1
  3
ACAD_XREC_ROUNDTRIP
360
1869
  0
DICTIONARY
  5
1862
330
3A
100
AcDbDictionary
280
     1
281
     1
  3
ACAD_XREC_ROUNDTRIP
360
1863
  0
DICTIONARY
  5
1864
330
3B
100
AcDbDictionary
280
     1
281
     1
  3
ACAD_XREC_ROUNDTRIP
360
1865
  0
DICTIONARY
  5
185A
330
36
100
AcDbDictionary
280
     1
281
     1
  3
ACAD_XREC_ROUNDTRIP
360
185B
  0
DICTIONARY
  5
184E
330
30
100
AcDbDictionary
280
     1
281
     1
  3
ACAD_XREC_ROUNDTRIP
360
184F
  0
DICTIONARY
  5
1866
330
3C
100
AcDbDictionary
280
     1
281
     1
  3
ACAD_XREC_ROUNDTRIP
360
1867
  0
XRECORD
  5
1876
102
{ACAD_REACTORS
330
1875
102
}
330
1875
100
AcDbXrecord
280
     1
102
SHADEPLOT
 70
     0
102
SHADEPLOTRESLEVEL
 70
     2
102
SHADEPLOTCUSTOMDPI
 70
   300
  0
XRECORD
  5
1874
102
{ACAD_REACTORS
330
1873
102
}
330
1873
100
AcDbXrecord
280
     1
102
SHADEPLOT
 70
     0
102
SHADEPLOTRESLEVEL
 70
     2
102
SHADEPLOTCUSTOMDPI
 70
   300
  0
XRECORD
  5
7B3
102
{ACAD_REACTORS
330
1A
102
}
330
1A
100
AcDbXrecord
280
     1
102
MATERIAL
148
0.0
149
0.0
149
0.0
 93
        0
 94
      127
282
     0
 72
     0
 77
     0
171
     0
175
     0
179
     0
273
     0
  0
XRECORD
  5
1C
102
{ACAD_REACTORS
330
1A
102
}
330
1A
100
AcDbXrecord
280
     1
270
     1
271
     1
  0
XRECORD
  5
1B
102
{ACAD_REACTORS
330
1A
102
}
330
1A
100
AcDbXrecord
280
     1
270
     1
271
     1
  0
XRECORD
  5
1F
102
{ACAD_REACTORS
330
1A
102
}
330
1A
100
AcDbXrecord
280
     1
270
     1
271
     1
  0
XRECORD
  5
1E
102
{ACAD_REACTORS
330
1A
102
}
330
1A
100
AcDbXrecord
280
     1
270
     1
271
     1
  0
XRECORD
  5
20
102
{ACAD_REACTORS
330
1A
102
}
330
1A
100
AcDbXrecord
280
     1
270
     1
271
     1
  0
XRECORD
  5
1D
102
{ACAD_REACTORS
330
1A
102
}
330
1A
100
AcDbXrecord
280
     1
270
     1
271
     1
  0
XRECORD
  5
7B2
102
{ACAD_REACTORS
330
12
102
}
330
12
100
AcDbXrecord
280
     1
102
MATERIAL
148
0.0
149
0.0
149
0.0
 93
        0
 94
      127
282
     0
 72
     0
 77
     0
171
     0
175
     0
179
     0
273
     0
  0
XRECORD
  5
14
102
{ACAD_REACTORS
330
12
102
}
330
12
100
AcDbXrecord
280
     1
270
     1
271
     1
  0
XRECORD
  5
13
102
{ACAD_REACTORS
330
12
102
}
330
12
100
AcDbXrecord
280
     1
270
     1
271
     1
  0
XRECORD
  5
17
102
{ACAD_REACTORS
330
12
102
}
330
12
100
AcDbXrecord
280
     1
270
     1
271
     1
  0
XRECORD
  5
16
102
{ACAD_REACTORS
330
12
102
}
330
12
100
AcDbXrecord
280
     1
270
     1
271
     1
  0
XRECORD
  5
18
102
{ACAD_REACTORS
330
12
102
}
330
12
100
AcDbXrecord
280
     1
270
     1
271
     1
  0
XRECORD
  5
15
102
{ACAD_REACTORS
330
12
102
}
330
12
100
AcDbXrecord
280
     1
270
     1
271
     1
  0
XRECORD
  5
7B4
102
{ACAD_REACTORS
330
22
102
}
330
22
100
AcDbXrecord
280
     1
102
MATERIAL
148
0.0
149
0.0
149
0.0
 93
        0
 94
      127
282
     0
 72
     0
 77
     0
171
     0
175
     0
179
     0
273
     0
  0
XRECORD
  5
24
102
{ACAD_REACTORS
330
22
102
}
330
22
100
AcDbXrecord
280
     1
270
     1
271
     1
  0
XRECORD
  5
23
102
{ACAD_REACTORS
330
22
102
}
330
22
100
AcDbXrecord
280
     1
270
     1
271
     1
  0
XRECORD
  5
27
102
{ACAD_REACTORS
330
22
102
}
330
22
100
AcDbXrecord
280
     1
270
     1
271
     1
  0
XRECORD
  5
26
102
{ACAD_REACTORS
330
22
102
}
330
22
100
AcDbXrecord
280
     1
270
     1
271
     1
  0
XRECORD
  5
28
102
{ACAD_REACTORS
330
22
102
}
330
22
100
AcDbXrecord
280
     1
270
     1
271
     1
  0
XRECORD
  5
25
102
{ACAD_REACTORS
330
22
102
}
330
22
100
AcDbXrecord
280
     1
270
     1
271
     1
  0
CELLSTYLEMAP
  5
1839
102
{ACAD_REACTORS
330
7AA
102
}
330
7AA
100
AcDbCellStyleMap
 90
        3
300
CELLSTYLE
  1
TABLEFORMAT_BEGIN
 90
        5
170
     1
 91
        0
 92
    32768
 62
   257
 93
        1
300
CONTENTFORMAT
  1
CONTENTFORMAT_BEGIN
 90
        0
 91
        0
 92
      512
 93
        0
300

 40
0.0
140
1.0
 94
        5
 62
     0
340
55
144
0.25
309
CONTENTFORMAT_END
171
     1
301
MARGIN
  1
CELLMARGIN_BEGIN
 40
0.06
 40
0.06
 40
0.06
 40
0.06
 40
0.18
 40
0.18
309
CELLMARGIN_END
 94
        6
 95
        1
302
GRIDFORMAT
  1
GRIDFORMAT_BEGIN
 90
        0
 91
        1
 62
     0
 92
       -2
340
0
 93
        0
 40
0.045
309
GRIDFORMAT_END
 95
        2
302
GRIDFORMAT
  1
GRIDFORMAT_BEGIN
 90
        0
 91
        1
 62
     0
 92
       -2
340
0
 93
        0
 40
0.045
309
GRIDFORMAT_END
 95
        4
302
GRIDFORMAT
  1
GRIDFORMAT_BEGIN
 90
        0
 91
        1
 62
     0
 92
       -2
340
0
 93
        0
 40
0.045
309
GRIDFORMAT_END
 95
        8
302
GRIDFORMAT
  1
GRIDFORMAT_BEGIN
 90
        0
 91
        1
 62
     0
 92
       -2
340
0
 93
        0
 40
0.045
309
GRIDFORMAT_END
 95
       16
302
GRIDFORMAT
  1
GRIDFORMAT_BEGIN
 90
        0
 91
        1
 62
     0
 92
       -2
340
0
 93
        0
 40
0.045
309
GRIDFORMAT_END
 95
       32
302
GRIDFORMAT
  1
GRIDFORMAT_BEGIN
 90
        0
 91
        1
 62
     0
 92
       -2
340
0
 93
        0
 40
0.045
309
GRIDFORMAT_END
309
TABLEFORMAT_END
  1
CELLSTYLE_BEGIN
 90
        1
 91
        1
300
_TITLE
309
CELLSTYLE_END
300
CELLSTYLE
  1
TABLEFORMAT_BEGIN
 90
        5
170
     1
 91
        0
 92
        0
 62
   257
 93
        1
300
CONTENTFORMAT
  1
CONTENTFORMAT_BEGIN
 90
        0
 91
        0
 92
      512
 93
        0
300

 40
0.0
140
1.0
 94
        5
 62
     0
340
55
144
0.18
309
CONTENTFORMAT_END
171
     1
301
MARGIN
  1
CELLMARGIN_BEGIN
 40
0.06
 40
0.06
 40
0.06
 40
0.06
 40
0.18
 40
0.18
309
CELLMARGIN_END
 94
        6
 95
        1
302
GRIDFORMAT
  1
GRIDFORMAT_BEGIN
 90
        0
 91
        1
 62
     0
 92
       -2
340
0
 93
        0
 40
0.045
309
GRIDFORMAT_END
 95
        2
302
GRIDFORMAT
  1
GRIDFORMAT_BEGIN
 90
        0
 91
        1
 62
     0
 92
       -2
340
0
 93
        0
 40
0.045
309
GRIDFORMAT_END
 95
        4
302
GRIDFORMAT
  1
GRIDFORMAT_BEGIN
 90
        0
 91
        1
 62
     0
 92
       -2
340
0
 93
        0
 40
0.045
309
GRIDFORMAT_END
 95
        8
302
GRIDFORMAT
  1
GRIDFORMAT_BEGIN
 90
        0
 91
        1
 62
     0
 92
       -2
340
0
 93
        0
 40
0.045
309
GRIDFORMAT_END
 95
       16
302
GRIDFORMAT
  1
GRIDFORMAT_BEGIN
 90
        0
 91
        1
 62
     0
 92
       -2
340
0
 93
        0
 40
0.045
309
GRIDFORMAT_END
 95
       32
302
GRIDFORMAT
  1
GRIDFORMAT_BEGIN
 90
        0
 91
        1
 62
     0
 92
       -2
340
0
 93
        0
 40
0.045
309
GRIDFORMAT_END
309
TABLEFORMAT_END
  1
CELLSTYLE_BEGIN
 90
        2
 91
        1
300
_HEADER
309
CELLSTYLE_END
300
CELLSTYLE
  1
TABLEFORMAT_BEGIN
 90
        5
170
     1
 91
        0
 92
        0
 62
   257
 93
        1
300
CONTENTFORMAT
  1
CONTENTFORMAT_BEGIN
 90
        0
 91
        0
 92
      512
 93
        0
300

 40
0.0
140
1.0
 94
        2
 62
     0
340
55
144
0.18
309
CONTENTFORMAT_END
171
     1
301
MARGIN
  1
CELLMARGIN_BEGIN
 40
0.06
 40
0.06
 40
0.06
 40
0.06
 40
0.18
 40
0.18
309
CELLMARGIN_END
 94
        6
 95
        1
302
GRIDFORMAT
  1
GRIDFORMAT_BEGIN
 90
        0
 91
        1
 62
     0
 92
       -2
340
0
 93
        0
 40
0.045
309
GRIDFORMAT_END
 95
        2
302
GRIDFORMAT
  1
GRIDFORMAT_BEGIN
 90
        0
 91
        1
 62
     0
 92
       -2
340
0
 93
        0
 40
0.045
309
GRIDFORMAT_END
 95
        4
302
GRIDFORMAT
  1
GRIDFORMAT_BEGIN
 90
        0
 91
        1
 62
     0
 92
       -2
340
0
 93
        0
 40
0.045
309
GRIDFORMAT_END
 95
        8
302
GRIDFORMAT
  1
GRIDFORMAT_BEGIN
 90
        0
 91
        1
 62
     0
 92
       -2
340
0
 93
        0
 40
0.045
309
GRIDFORMAT_END
 95
       16
302
GRIDFORMAT
  1
GRIDFORMAT_BEGIN
 90
        0
 91
        1
 62
     0
 92
       -2
340
0
 93
        0
 40
0.045
309
GRIDFORMAT_END
 95
       32
302
GRIDFORMAT
  1
GRIDFORMAT_BEGIN
 90
        0
 91
        1
 62
     0
 92
       -2
340
0
 93
        0
 40
0.045
309
GRIDFORMAT_END
309
TABLEFORMAT_END
  1
CELLSTYLE_BEGIN
 90
        3
 91
        2
300
_DATA
309
CELLSTYLE_END
  0
XRECORD
  5
1872
102
{ACAD_REACTORS
330
7AA
102
}
330
7AA
100
AcDbXrecord
280
     1
102
ACAD_ROUNDTRIP_PRE2007_TABLESTYLE
 90
      512
 91
        0
  1

 92
      512
 93
        0
  2

 94
      512
 95
        0
  3

  0
CELLSTYLEMAP
  5
183A
102
{ACAD_REACTORS
330
1423
102
}
330
1423
100
AcDbCellStyleMap
 90
        3
300
CELLSTYLE
  1
TABLEFORMAT_BEGIN
 90
        5
170
     1
 91
        0
 92
    32768
 62
   257
 93
        1
300
CONTENTFORMAT
  1
CONTENTFORMAT_BEGIN
 90
        0
 91
        0
 92
      512
 93
        0
300

 40
0.0
140
1.0
 94
        8
 62
     3
340
5C0
144
0.25
309
CONTENTFORMAT_END
171
     1
301
MARGIN
  1
CELLMARGIN_BEGIN
 40
0.5
 40
10.0
 40
0.06
 40
0.06
 40
0.18
 40
0.18
309
CELLMARGIN_END
 94
        6
 95
        1
302
GRIDFORMAT
  1
GRIDFORMAT_BEGIN
 90
        0
 91
        1
 62
     0
 92
       -2
340
0
 93
        0
 40
0.045
309
GRIDFORMAT_END
 95
        2
302
GRIDFORMAT
  1
GRIDFORMAT_BEGIN
 90
        0
 91
        1
 62
     0
 92
       -2
340
0
 93
        0
 40
0.045
309
GRIDFORMAT_END
 95
        4
302
GRIDFORMAT
  1
GRIDFORMAT_BEGIN
 90
        0
 91
        1
 62
     0
 92
       -2
340
0
 93
        0
 40
0.045
309
GRIDFORMAT_END
 95
        8
302
GRIDFORMAT
  1
GRIDFORMAT_BEGIN
 90
        0
 91
        1
 62
     0
 92
       -2
340
0
 93
        0
 40
0.045
309
GRIDFORMAT_END
 95
       16
302
GRIDFORMAT
  1
GRIDFORMAT_BEGIN
 90
        0
 91
        1
 62
     0
 92
       -2
340
0
 93
        0
 40
0.045
309
GRIDFORMAT_END
 95
       32
302
GRIDFORMAT
  1
GRIDFORMAT_BEGIN
 90
        0
 91
        1
 62
     0
 92
       -2
340
0
 93
        0
 40
0.045
309
GRIDFORMAT_END
309
TABLEFORMAT_END
  1
CELLSTYLE_BEGIN
 90
        1
 91
        1
300
_TITLE
309
CELLSTYLE_END
300
CELLSTYLE
  1
TABLEFORMAT_BEGIN
 90
        5
170
     1
 91
        0
 92
        0
 62
   257
 93
        1
300
CONTENTFORMAT
  1
CONTENTFORMAT_BEGIN
 90
        0
 91
        0
 92
      512
 93
        0
300

 40
0.0
140
1.0
 94
        7
 62
     3
340
5C0
144
0.18
309
CONTENTFORMAT_END
171
     1
301
MARGIN
  1
CELLMARGIN_BEGIN
 40
0.5
 40
1.5
 40
0.06
 40
0.06
 40
0.18
 40
0.18
309
CELLMARGIN_END
 94
        6
 95
        1
302
GRIDFORMAT
  1
GRIDFORMAT_BEGIN
 90
        0
 91
        1
 62
     3
 92
       -2
340
5A
 93
        0
 40
0.045
309
GRIDFORMAT_END
 95
        2
302
GRIDFORMAT
  1
GRIDFORMAT_BEGIN
 90
        0
 91
        1
 62
     7
 92
       -2
340
5A
 93
        0
 40
0.045
309
GRIDFORMAT_END
 95
        4
302
GRIDFORMAT
  1
GRIDFORMAT_BEGIN
 90
        0
 91
        1
 62
     3
 92
       -2
340
5A
 93
        0
 40
0.045
309
GRIDFORMAT_END
 95
        8
302
GRIDFORMAT
  1
GRIDFORMAT_BEGIN
 90
        0
 91
        1
 62
     3
 92
       -2
340
5A
 93
        0
 40
0.045
309
GRIDFORMAT_END
 95
       16
302
GRIDFORMAT
  1
GRIDFORMAT_BEGIN
 90
        0
 91
        1
 62
     7
 92
       -2
340
5A
 93
        0
 40
0.045
309
GRIDFORMAT_END
 95
       32
302
GRIDFORMAT
  1
GRIDFORMAT_BEGIN
 90
        0
 91
        1
 62
     3
 92
       -2
340
5A
 93
        0
 40
0.045
309
GRIDFORMAT_END
309
TABLEFORMAT_END
  1
CELLSTYLE_BEGIN
 90
        2
 91
        1
300
_HEADER
309
CELLSTYLE_END
300
CELLSTYLE
  1
TABLEFORMAT_BEGIN
 90
        5
170
     1
 91
        0
 92
        0
 62
   257
 93
        1
300
CONTENTFORMAT
  1
CONTENTFORMAT_BEGIN
 90
        0
 91
        0
 92
      512
 93
        0
300

 40
0.0
140
1.0
 94
        7
 62
     3
340
5C0
144
0.18
309
CONTENTFORMAT_END
171
     1
301
MARGIN
  1
CELLMARGIN_BEGIN
 40
0.5
 40
1.5
 40
0.06
 40
0.06
 40
0.18
 40
0.18
309
CELLMARGIN_END
 94
        6
 95
        1
302
GRIDFORMAT
  1
GRIDFORMAT_BEGIN
 90
        0
 91
        1
 62
     3
 92
       -2
340
5A
 93
        0
 40
0.045
309
GRIDFORMAT_END
 95
        2
302
GRIDFORMAT
  1
GRIDFORMAT_BEGIN
 90
        0
 91
        1
 62
     7
 92
       -2
340
5A
 93
        0
 40
0.045
309
GRIDFORMAT_END
 95
        4
302
GRIDFORMAT
  1
GRIDFORMAT_BEGIN
 90
        0
 91
        1
 62
     3
 92
       -2
340
5A
 93
        0
 40
0.045
309
GRIDFORMAT_END
 95
        8
302
GRIDFORMAT
  1
GRIDFORMAT_BEGIN
 90
        0
 91
        1
 62
     3
 92
       -2
340
5A
 93
        0
 40
0.045
309
GRIDFORMAT_END
 95
       16
302
GRIDFORMAT
  1
GRIDFORMAT_BEGIN
 90
        0
 91
        1
 62
     7
 92
       -2
340
5A
 93
        0
 40
0.045
309
GRIDFORMAT_END
 95
       32
302
GRIDFORMAT
  1
GRIDFORMAT_BEGIN
 90
        0
 91
        1
 62
     3
 92
       -2
340
5A
 93
        0
 40
0.045
309
GRIDFORMAT_END
309
TABLEFORMAT_END
  1
CELLSTYLE_BEGIN
 90
        3
 91
        2
300
_DATA
309
CELLSTYLE_END
  0
XRECORD
  5
187B
102
{ACAD_REACTORS
330
1423
102
}
330
1423
100
AcDbXrecord
280
     1
102
ACAD_ROUNDTRIP_PRE2007_TABLESTYLE
 90
      512
 91
        0
  1

 92
      512
 93
        0
  2

 94
      512
 95
        0
  3

  0
XRECORD
  5
184D
102
{ACAD_REACTORS
330
184C
102
}
330
184C
100
AcDbXrecord
280
     1
102
RTVSPropertyOp0
 70
     1
102
RTVSPropertyOp1
 70
     1
102
RTVSPropertyOp2
 70
     1
102
RTVSPropertyOp3
 70
     1
102
RTVSPropertyOp4
 70
     1
102
RTVSPropertyOp5
 70
     1
102
RTVSPropertyOp6
 70
     1
102
RTVSPropertyOp7
 70
     1
102
RTVSPropertyOp8
 70
     1
102
RTVSPropertyOp9
 70
     1
102
RTVSPropertyOp10
 70
     1
102
RTVSPropertyOp11
 70
     1
102
RTVSPropertyOp12
 70
     1
102
RTVSPropertyOp13
 70
     1
102
RTVSPropertyOp14
 70
     1
102
RTVSPropertyOp15
 70
     1
102
RTVSPropertyOp16
 70
     1
102
RTVSPropertyOp17
 70
     1
102
RTVSPropertyOp18
 70
     1
102
RTVSPropertyOp19
 70
     1
102
RTVSPropertyOp20
 70
     1
102
RTVSPropertyOp21
 70
     1
102
RTVSPropertyOp22
 70
     1
102
RTVSPropertyOp23
 70
     1
102
RTVSPropertyOp24
 70
     1
102
RTVSPropertyOp25
 70
     1
102
RTVSPropertyOp26
 70
     1
102
RTVSPropertyOp27
 70
     1
102
RTVSPropertyOp28
 70
     1
102
RTVSPropertyOp29
 70
     1
102
RTVSPropertyOp30
 70
     1
102
RTVSPropertyOp31
 70
     1
102
RTVSPropertyOp32
 70
     1
  0
XRECORD
  5
187A
102
{ACAD_REACTORS
330
1879
102
}
330
1879
100
AcDbXrecord
280
     1
102
RTVSPropertyOp0
 70
     1
102
RTVSPropertyOp1
 70
     1
102
RTVSPropertyOp2
 70
     1
102
RTVSPropertyOp3
 70
     1
102
RTVSPropertyOp4
 70
     1
102
RTVSPropertyOp5
 70
     1
102
RTVSPropertyOp6
 70
     1
102
RTVSPropertyOp7
 70
     1
102
RTVSPropertyOp8
 70
     1
102
RTVSPropertyOp9
 70
     1
102
RTVSPropertyOp10
 70
     1
102
RTVSPropertyOp11
 70
     1
102
RTVSPropertyOp12
 70
     1
102
RTVSPropertyOp13
 70
     1
102
RTVSPropertyOp14
 70
     1
102
RTVSPropertyOp15
 70
     1
102
RTVSPropertyOp16
 70
     1
102
RTVSPropertyOp17
 70
     1
102
RTVSPropertyOp18
 70
     1
102
RTVSPropertyOp19
 70
     1
102
RTVSPropertyOp20
 70
     1
102
RTVSPropertyOp21
 70
     1
102
RTVSPropertyOp22
 70
     1
102
RTVSPropertyOp23
 70
     1
102
RTVSPropertyOp24
 70
     1
102
RTVSPropertyOp25
 70
     1
102
RTVSPropertyOp26
 70
     1
102
RTVSPropertyOp27
 70
     1
102
RTVSPropertyOp28
 70
     1
102
RTVSPropertyOp29
 70
     1
102
RTVSPropertyOp30
 70
     1
102
RTVSPropertyOp31
 70
     1
102
RTVSPropertyOp32
 70
     1
  0
XRECORD
  5
1878
102
{ACAD_REACTORS
330
1877
102
}
330
1877
100
AcDbXrecord
280
     1
102
RTVSPropertyOp0
 70
     1
102
RTVSPropertyOp1
 70
     1
102
RTVSPropertyOp2
 70
     1
102
RTVSPropertyOp3
 70
     1
102
RTVSPropertyOp4
 70
     1
102
RTVSPropertyOp5
 70
     1
102
RTVSPropertyOp6
 70
     1
102
RTVSPropertyOp7
 70
     1
102
RTVSPropertyOp8
 70
     1
102
RTVSPropertyOp9
 70
     1
102
RTVSPropertyOp10
 70
     1
102
RTVSPropertyOp11
 70
     1
102
RTVSPropertyOp12
 70
     1
102
RTVSPropertyOp13
 70
     1
102
RTVSPropertyOp14
 70
     1
102
RTVSPropertyOp15
 70
     1
102
RTVSPropertyOp16
 70
     1
102
RTVSPropertyOp17
 70
     1
102
RTVSPropertyOp18
 70
     1
102
RTVSPropertyOp19
 70
     1
102
RTVSPropertyOp20
 70
     1
102
RTVSPropertyOp21
 70
     1
102
RTVSPropertyOp22
 70
     1
102
RTVSPropertyOp23
 70
     1
102
RTVSPropertyOp24
 70
     1
102
RTVSPropertyOp25
 70
     1
102
RTVSPropertyOp26
 70
     1
102
RTVSPropertyOp27
 70
     1
102
RTVSPropertyOp28
 70
     1
102
RTVSPropertyOp29
 70
     1
102
RTVSPropertyOp30
 70
     1
102
RTVSPropertyOp31
 70
     1
102
RTVSPropertyOp32
 70
     1
  0
XRECORD
  5
184B
102
{ACAD_REACTORS
330
184A
102
}
330
184A
100
AcDbXrecord
280
     1
102
RTVSPropertyOp0
 70
     1
102
RTVSPropertyOp1
 70
     1
102
RTVSPropertyOp2
 70
     1
102
RTVSPropertyOp3
 70
     1
102
RTVSPropertyOp4
 70
     1
102
RTVSPropertyOp5
 70
     1
102
RTVSPropertyOp6
 70
     1
102
RTVSPropertyOp7
 70
     1
102
RTVSPropertyOp8
 70
     1
102
RTVSPropertyOp9
 70
     1
102
RTVSPropertyOp10
 70
     1
102
RTVSPropertyOp11
 70
     1
102
RTVSPropertyOp12
 70
     1
102
RTVSPropertyOp13
 70
     1
102
RTVSPropertyOp14
 70
     1
102
RTVSPropertyOp15
 70
     1
102
RTVSPropertyOp16
 70
     1
102
RTVSPropertyOp17
 70
     1
102
RTVSPropertyOp18
 70
     1
102
RTVSPropertyOp19
 70
     1
102
RTVSPropertyOp20
 70
     1
102
RTVSPropertyOp21
 70
     1
102
RTVSPropertyOp22
 70
     1
102
RTVSPropertyOp23
 70
     1
102
RTVSPropertyOp24
 70
     1
102
RTVSPropertyOp25
 70
     1
102
RTVSPropertyOp26
 70
     1
102
RTVSPropertyOp27
 70
     1
102
RTVSPropertyOp28
 70
     1
102
RTVSPropertyOp29
 70
     1
102
RTVSPropertyOp30
 70
     1
102
RTVSPropertyOp31
 70
     1
102
RTVSPropertyOp32
 70
     1
  0
XRECORD
  5
1859
102
{ACAD_REACTORS
330
1858
102
}
330
1858
100
AcDbXrecord
280
     1
102
RTVSPropertyOp0
 70
     1
102
RTVSPropertyOp1
 70
     1
102
RTVSPropertyOp2
 70
     1
102
RTVSPropertyOp3
 70
     1
102
RTVSPropertyOp4
 70
     1
102
RTVSPropertyOp5
 70
     1
102
RTVSPropertyOp6
 70
     1
102
RTVSPropertyOp7
 70
     1
102
RTVSPropertyOp8
 70
     1
102
RTVSPropertyOp9
 70
     1
102
RTVSPropertyOp10
 70
     1
102
RTVSPropertyOp11
 70
     1
102
RTVSPropertyOp12
 70
     1
102
RTVSPropertyOp13
 70
     1
102
RTVSPropertyOp14
 70
     1
102
RTVSPropertyOp15
 70
     1
102
RTVSPropertyOp16
 70
     1
102
RTVSPropertyOp17
 70
     1
102
RTVSPropertyOp18
 70
     1
102
RTVSPropertyOp19
 70
     1
102
RTVSPropertyOp20
 70
     1
102
RTVSPropertyOp21
 70
     1
102
RTVSPropertyOp22
 70
     1
102
RTVSPropertyOp23
 70
     1
102
RTVSPropertyOp24
 70
     1
102
RTVSPropertyOp25
 70
     1
102
RTVSPropertyOp26
 70
     1
102
RTVSPropertyOp27
 70
     1
102
RTVSPropertyOp28
 70
     1
102
RTVSPropertyOp29
 70
     1
102
RTVSPropertyOp30
 70
     1
102
RTVSPropertyOp31
 70
     1
102
RTVSPropertyOp32
 70
     1
  0
XRECORD
  5
1861
102
{ACAD_REACTORS
330
1860
102
}
330
1860
100
AcDbXrecord
280
     1
102
RTVSPropertyOp0
 70
     1
102
RTVSPropertyOp1
 70
     1
102
RTVSPropertyOp2
 70
     1
102
RTVSPropertyOp3
 70
     1
102
RTVSPropertyOp4
 70
     1
102
RTVSPropertyOp5
 70
     1
102
RTVSPropertyOp6
 70
     1
102
RTVSPropertyOp7
 70
     1
102
RTVSPropertyOp8
 70
     1
102
RTVSPropertyOp9
 70
     1
102
RTVSPropertyOp10
 70
     1
102
RTVSPropertyOp11
 70
     1
102
RTVSPropertyOp12
 70
     1
102
RTVSPropertyOp13
 70
     1
102
RTVSPropertyOp14
 70
     1
102
RTVSPropertyOp15
 70
     1
102
RTVSPropertyOp16
 70
     1
102
RTVSPropertyOp17
 70
     1
102
RTVSPropertyOp18
 70
     1
102
RTVSPropertyOp19
 70
     1
102
RTVSPropertyOp20
 70
     1
102
RTVSPropertyOp21
 70
     1
102
RTVSPropertyOp22
 70
     1
102
RTVSPropertyOp23
 70
     1
102
RTVSPropertyOp24
 70
     1
102
RTVSPropertyOp25
 70
     1
102
RTVSPropertyOp26
 70
     1
102
RTVSPropertyOp27
 70
     1
102
RTVSPropertyOp28
 70
     1
102
RTVSPropertyOp29
 70
     1
102
RTVSPropertyOp30
 70
     1
102
RTVSPropertyOp31
 70
     1
102
RTVSPropertyOp32
 70
     1
  0
XRECORD
  5
1853
102
{ACAD_REACTORS
330
1852
102
}
330
1852
100
AcDbXrecord
280
     1
102
RTVSPropertyOp0
 70
     1
102
RTVSPropertyOp1
 70
     1
102
RTVSPropertyOp2
 70
     1
102
RTVSPropertyOp3
 70
     1
102
RTVSPropertyOp4
 70
     1
102
RTVSPropertyOp5
 70
     1
102
RTVSPropertyOp6
 70
     1
102
RTVSPropertyOp7
 70
     1
102
RTVSPropertyOp8
 70
     1
102
RTVSPropertyOp9
 70
     1
102
RTVSPropertyOp10
 70
     1
102
RTVSPropertyOp11
 70
     1
102
RTVSPropertyOp12
 70
     1
102
RTVSPropertyOp13
 70
     1
102
RTVSPropertyOp14
 70
     1
102
RTVSPropertyOp15
 70
     1
102
RTVSPropertyOp16
 70
     1
102
RTVSPropertyOp17
 70
     1
102
RTVSPropertyOp18
 70
     1
102
RTVSPropertyOp19
 70
     1
102
RTVSPropertyOp20
 70
     1
102
RTVSPropertyOp21
 70
     1
102
RTVSPropertyOp22
 70
     1
102
RTVSPropertyOp23
 70
     1
102
RTVSPropertyOp24
 70
     1
102
RTVSPropertyOp25
 70
     1
102
RTVSPropertyOp26
 70
     1
102
RTVSPropertyOp27
 70
     1
102
RTVSPropertyOp28
 70
     1
102
RTVSPropertyOp29
 70
     1
102
RTVSPropertyOp30
 70
     1
102
RTVSPropertyOp31
 70
     1
102
RTVSPropertyOp32
 70
     1
  0
XRECORD
  5
1857
102
{ACAD_REACTORS
330
1856
102
}
330
1856
100
AcDbXrecord
280
     1
102
RTVSPropertyOp0
 70
     1
102
RTVSPropertyOp1
 70
     1
102
RTVSPropertyOp2
 70
     1
102
RTVSPropertyOp3
 70
     1
102
RTVSPropertyOp4
 70
     1
102
RTVSPropertyOp5
 70
     1
102
RTVSPropertyOp6
 70
     1
102
RTVSPropertyOp7
 70
     1
102
RTVSPropertyOp8
 70
     1
102
RTVSPropertyOp9
 70
     1
102
RTVSPropertyOp10
 70
     1
102
RTVSPropertyOp11
 70
     1
102
RTVSPropertyOp12
 70
     1
102
RTVSPropertyOp13
 70
     1
102
RTVSPropertyOp14
 70
     1
102
RTVSPropertyOp15
 70
     1
102
RTVSPropertyOp16
 70
     1
102
RTVSPropertyOp17
 70
     1
102
RTVSPropertyOp18
 70
     1
102
RTVSPropertyOp19
 70
     1
102
RTVSPropertyOp20
 70
     1
102
RTVSPropertyOp21
 70
     1
102
RTVSPropertyOp22
 70
     1
102
RTVSPropertyOp23
 70
     1
102
RTVSPropertyOp24
 70
     1
102
RTVSPropertyOp25
 70
     1
102
RTVSPropertyOp26
 70
     1
102
RTVSPropertyOp27
 70
     1
102
RTVSPropertyOp28
 70
     1
102
RTVSPropertyOp29
 70
     1
102
RTVSPropertyOp30
 70
     1
102
RTVSPropertyOp31
 70
     1
102
RTVSPropertyOp32
 70
     1
  0
XRECORD
  5
1871
102
{ACAD_REACTORS
330
1870
102
}
330
1870
100
AcDbXrecord
280
     1
102
RTVSPropertyOp0
 70
     0
102
RTVSPropertyOp1
 70
     0
102
RTVSPropertyOp2
 70
     0
102
RTVSPropertyOp3
 70
     0
102
RTVSPropertyOp4
 70
     0
102
RTVSPropertyOp5
 70
     0
102
RTVSPropertyOp6
 70
     0
102
RTVSPropertyOp7
 70
     0
102
RTVSPropertyOp8
 70
     0
102
RTVSPropertyOp9
 70
     0
102
RTVSPropertyOp10
 70
     0
102
RTVSPropertyOp11
 70
     0
102
RTVSPropertyOp12
 70
     0
102
RTVSPropertyOp13
 70
     0
102
RTVSPropertyOp14
 70
     2
102
RTVSPropertyOp15
 70
     0
102
RTVSPropertyOp16
 70
     0
102
RTVSPropertyOp17
 70
     0
102
RTVSPropertyOp18
 70
     0
102
RTVSPropertyOp19
 70
     0
102
RTVSPropertyOp20
 70
     0
102
RTVSPropertyOp21
 70
     0
102
RTVSPropertyOp22
 70
     0
102
RTVSPropertyOp23
 70
     0
102
RTVSPropertyOp24
 70
     0
102
RTVSPropertyOp25
 70
     0
102
RTVSPropertyOp26
 70
     0
102
RTVSPropertyOp27
 70
     0
102
RTVSPropertyOp28
 70
     0
102
RTVSPropertyOp29
 70
     0
102
RTVSPropertyOp30
 70
     0
102
RTVSPropertyOp31
 70
     0
102
RTVSPropertyOp32
 70
     0
  0
XRECORD
  5
185F
102
{ACAD_REACTORS
330
185E
102
}
330
185E
100
AcDbXrecord
280
     1
102
RTVSPropertyOp0
 70
     1
102
RTVSPropertyOp1
 70
     1
102
RTVSPropertyOp2
 70
     1
102
RTVSPropertyOp3
 70
     1
102
RTVSPropertyOp4
 70
     1
102
RTVSPropertyOp5
 70
     1
102
RTVSPropertyOp6
 70
     1
102
RTVSPropertyOp7
 70
     1
102
RTVSPropertyOp8
 70
     1
102
RTVSPropertyOp9
 70
     1
102
RTVSPropertyOp10
 70
     1
102
RTVSPropertyOp11
 70
     1
102
RTVSPropertyOp12
 70
     1
102
RTVSPropertyOp13
 70
     1
102
RTVSPropertyOp14
 70
     1
102
RTVSPropertyOp15
 70
     1
102
RTVSPropertyOp16
 70
     1
102
RTVSPropertyOp17
 70
     1
102
RTVSPropertyOp18
 70
     1
102
RTVSPropertyOp19
 70
     1
102
RTVSPropertyOp20
 70
     1
102
RTVSPropertyOp21
 70
     1
102
RTVSPropertyOp22
 70
     1
102
RTVSPropertyOp23
 70
     1
102
RTVSPropertyOp24
 70
     1
102
RTVSPropertyOp25
 70
     1
102
RTVSPropertyOp26
 70
     1
102
RTVSPropertyOp27
 70
     1
102
RTVSPropertyOp28
 70
     1
102
RTVSPropertyOp29
 70
     1
102
RTVSPropertyOp30
 70
     1
102
RTVSPropertyOp31
 70
     1
102
RTVSPropertyOp32
 70
     1
  0
XRECORD
  5
1843
102
{ACAD_REACTORS
330
1842
102
}
330
1842
100
AcDbXrecord
280
     1
102
RTVSPropertyOp0
 70
     1
102
RTVSPropertyOp1
 70
     1
102
RTVSPropertyOp2
 70
     1
102
RTVSPropertyOp3
 70
     1
102
RTVSPropertyOp4
 70
     1
102
RTVSPropertyOp5
 70
     1
102
RTVSPropertyOp6
 70
     1
102
RTVSPropertyOp7
 70
     1
102
RTVSPropertyOp8
 70
     1
102
RTVSPropertyOp9
 70
     1
102
RTVSPropertyOp10
 70
     1
102
RTVSPropertyOp11
 70
     1
102
RTVSPropertyOp12
 70
     1
102
RTVSPropertyOp13
 70
     1
102
RTVSPropertyOp14
 70
     1
102
RTVSPropertyOp15
 70
     1
102
RTVSPropertyOp16
 70
     1
102
RTVSPropertyOp17
 70
     1
102
RTVSPropertyOp18
 70
     1
102
RTVSPropertyOp19
 70
     1
102
RTVSPropertyOp20
 70
     1
102
RTVSPropertyOp21
 70
     1
102
RTVSPropertyOp22
 70
     1
102
RTVSPropertyOp23
 70
     1
102
RTVSPropertyOp24
 70
     1
102
RTVSPropertyOp25
 70
     1
102
RTVSPropertyOp26
 70
     1
102
RTVSPropertyOp27
 70
     1
102
RTVSPropertyOp28
 70
     1
102
RTVSPropertyOp29
 70
     1
102
RTVSPropertyOp30
 70
     1
102
RTVSPropertyOp31
 70
     1
102
RTVSPropertyOp32
 70
     1
  0
XRECORD
  5
1845
102
{ACAD_REACTORS
330
1844
102
}
330
1844
100
AcDbXrecord
280
     1
102
RTVSPropertyOp0
 70
     1
102
RTVSPropertyOp1
 70
     1
102
RTVSPropertyOp2
 70
     1
102
RTVSPropertyOp3
 70
     1
102
RTVSPropertyOp4
 70
     1
102
RTVSPropertyOp5
 70
     1
102
RTVSPropertyOp6
 70
     1
102
RTVSPropertyOp7
 70
     1
102
RTVSPropertyOp8
 70
     1
102
RTVSPropertyOp9
 70
     1
102
RTVSPropertyOp10
 70
     1
102
RTVSPropertyOp11
 70
     1
102
RTVSPropertyOp12
 70
     1
102
RTVSPropertyOp13
 70
     1
102
RTVSPropertyOp14
 70
     1
102
RTVSPropertyOp15
 70
     1
102
RTVSPropertyOp16
 70
     1
102
RTVSPropertyOp17
 70
     1
102
RTVSPropertyOp18
 70
     1
102
RTVSPropertyOp19
 70
     1
102
RTVSPropertyOp20
 70
     1
102
RTVSPropertyOp21
 70
     1
102
RTVSPropertyOp22
 70
     1
102
RTVSPropertyOp23
 70
     1
102
RTVSPropertyOp24
 70
     1
102
RTVSPropertyOp25
 70
     1
102
RTVSPropertyOp26
 70
     1
102
RTVSPropertyOp27
 70
     1
102
RTVSPropertyOp28
 70
     1
102
RTVSPropertyOp29
 70
     1
102
RTVSPropertyOp30
 70
     1
102
RTVSPropertyOp31
 70
     1
102
RTVSPropertyOp32
 70
     1
  0
XRECORD
  5
1847
102
{ACAD_REACTORS
330
1846
102
}
330
1846
100
AcDbXrecord
280
     1
102
RTVSPropertyOp0
 70
     1
102
RTVSPropertyOp1
 70
     1
102
RTVSPropertyOp2
 70
     1
102
RTVSPropertyOp3
 70
     1
102
RTVSPropertyOp4
 70
     1
102
RTVSPropertyOp5
 70
     1
102
RTVSPropertyOp6
 70
     1
102
RTVSPropertyOp7
 70
     1
102
RTVSPropertyOp8
 70
     1
102
RTVSPropertyOp9
 70
     1
102
RTVSPropertyOp10
 70
     1
102
RTVSPropertyOp11
 70
     1
102
RTVSPropertyOp12
 70
     1
102
RTVSPropertyOp13
 70
     1
102
RTVSPropertyOp14
 70
     1
102
RTVSPropertyOp15
 70
     1
102
RTVSPropertyOp16
 70
     1
102
RTVSPropertyOp17
 70
     1
102
RTVSPropertyOp18
 70
     1
102
RTVSPropertyOp19
 70
     1
102
RTVSPropertyOp20
 70
     1
102
RTVSPropertyOp21
 70
     1
102
RTVSPropertyOp22
 70
     1
102
RTVSPropertyOp23
 70
     1
102
RTVSPropertyOp24
 70
     1
102
RTVSPropertyOp25
 70
     1
102
RTVSPropertyOp26
 70
     1
102
RTVSPropertyOp27
 70
     1
102
RTVSPropertyOp28
 70
     1
102
RTVSPropertyOp29
 70
     1
102
RTVSPropertyOp30
 70
     1
102
RTVSPropertyOp31
 70
     1
102
RTVSPropertyOp32
 70
     1
  0
XRECORD
  5
1849
102
{ACAD_REACTORS
330
1848
102
}
330
1848
100
AcDbXrecord
280
     1
102
RTVSPropertyOp0
 70
     1
102
RTVSPropertyOp1
 70
     1
102
RTVSPropertyOp2
 70
     1
102
RTVSPropertyOp3
 70
     1
102
RTVSPropertyOp4
 70
     1
102
RTVSPropertyOp5
 70
     1
102
RTVSPropertyOp6
 70
     1
102
RTVSPropertyOp7
 70
     1
102
RTVSPropertyOp8
 70
     1
102
RTVSPropertyOp9
 70
     1
102
RTVSPropertyOp10
 70
     1
102
RTVSPropertyOp11
 70
     1
102
RTVSPropertyOp12
 70
     1
102
RTVSPropertyOp13
 70
     1
102
RTVSPropertyOp14
 70
     1
102
RTVSPropertyOp15
 70
     1
102
RTVSPropertyOp16
 70
     1
102
RTVSPropertyOp17
 70
     1
102
RTVSPropertyOp18
 70
     1
102
RTVSPropertyOp19
 70
     1
102
RTVSPropertyOp20
 70
     1
102
RTVSPropertyOp21
 70
     1
102
RTVSPropertyOp22
 70
     1
102
RTVSPropertyOp23
 70
     1
102
RTVSPropertyOp24
 70
     1
102
RTVSPropertyOp25
 70
     1
102
RTVSPropertyOp26
 70
     1
102
RTVSPropertyOp27
 70
     1
102
RTVSPropertyOp28
 70
     1
102
RTVSPropertyOp29
 70
     1
102
RTVSPropertyOp30
 70
     1
102
RTVSPropertyOp31
 70
     1
102
RTVSPropertyOp32
 70
     1
  0
XRECORD
  5
1851
102
{ACAD_REACTORS
330
1850
102
}
330
1850
100
AcDbXrecord
280
     1
102
RTVSPropertyOp0
 70
     1
102
RTVSPropertyOp1
 70
     1
102
RTVSPropertyOp2
 70
     1
102
RTVSPropertyOp3
 70
     1
102
RTVSPropertyOp4
 70
     1
102
RTVSPropertyOp5
 70
     1
102
RTVSPropertyOp6
 70
     1
102
RTVSPropertyOp7
 70
     1
102
RTVSPropertyOp8
 70
     1
102
RTVSPropertyOp9
 70
     1
102
RTVSPropertyOp10
 70
     1
102
RTVSPropertyOp11
 70
     1
102
RTVSPropertyOp12
 70
     1
102
RTVSPropertyOp13
 70
     1
102
RTVSPropertyOp14
 70
     1
102
RTVSPropertyOp15
 70
     1
102
RTVSPropertyOp16
 70
     1
102
RTVSPropertyOp17
 70
     1
102
RTVSPropertyOp18
 70
     1
102
RTVSPropertyOp19
 70
     1
102
RTVSPropertyOp20
 70
     1
102
RTVSPropertyOp21
 70
     1
102
RTVSPropertyOp22
 70
     1
102
RTVSPropertyOp23
 70
     1
102
RTVSPropertyOp24
 70
     1
102
RTVSPropertyOp25
 70
     1
102
RTVSPropertyOp26
 70
     1
102
RTVSPropertyOp27
 70
     1
102
RTVSPropertyOp28
 70
     1
102
RTVSPropertyOp29
 70
     1
102
RTVSPropertyOp30
 70
     1
102
RTVSPropertyOp31
 70
     1
102
RTVSPropertyOp32
 70
     1
  0
XRECORD
  5
186D
102
{ACAD_REACTORS
330
186C
102
}
330
186C
100
AcDbXrecord
280
     1
102
RTVSPropertyOp0
 70
     0
102
RTVSPropertyOp1
 70
     0
102
RTVSPropertyOp2
 70
     0
102
RTVSPropertyOp3
 70
     0
102
RTVSPropertyOp4
 70
     0
102
RTVSPropertyOp5
 70
     0
102
RTVSPropertyOp6
 70
     0
102
RTVSPropertyOp7
 70
     0
102
RTVSPropertyOp8
 70
     0
102
RTVSPropertyOp9
 70
     0
102
RTVSPropertyOp10
 70
     0
102
RTVSPropertyOp11
 70
     0
102
RTVSPropertyOp12
 70
     0
102
RTVSPropertyOp13
 70
     0
102
RTVSPropertyOp14
 70
     2
102
RTVSPropertyOp15
 70
     0
102
RTVSPropertyOp16
 70
     0
102
RTVSPropertyOp17
 70
     0
102
RTVSPropertyOp18
 70
     0
102
RTVSPropertyOp19
 70
     0
102
RTVSPropertyOp20
 70
     0
102
RTVSPropertyOp21
 70
     0
102
RTVSPropertyOp22
 70
     0
102
RTVSPropertyOp23
 70
     0
102
RTVSPropertyOp24
 70
     0
102
RTVSPropertyOp25
 70
     0
102
RTVSPropertyOp26
 70
     0
102
RTVSPropertyOp27
 70
     0
102
RTVSPropertyOp28
 70
     0
102
RTVSPropertyOp29
 70
     0
102
RTVSPropertyOp30
 70
     0
102
RTVSPropertyOp31
 70
     0
102
RTVSPropertyOp32
 70
     0
  0
XRECORD
  5
185D
102
{ACAD_REACTORS
330
185C
102
}
330
185C
100
AcDbXrecord
280
     1
102
RTVSPropertyOp0
 70
     1
102
RTVSPropertyOp1
 70
     1
102
RTVSPropertyOp2
 70
     1
102
RTVSPropertyOp3
 70
     1
102
RTVSPropertyOp4
 70
     1
102
RTVSPropertyOp5
 70
     1
102
RTVSPropertyOp6
 70
     1
102
RTVSPropertyOp7
 70
     1
102
RTVSPropertyOp8
 70
     1
102
RTVSPropertyOp9
 70
     1
102
RTVSPropertyOp10
 70
     1
102
RTVSPropertyOp11
 70
     1
102
RTVSPropertyOp12
 70
     1
102
RTVSPropertyOp13
 70
     1
102
RTVSPropertyOp14
 70
     1
102
RTVSPropertyOp15
 70
     1
102
RTVSPropertyOp16
 70
     1
102
RTVSPropertyOp17
 70
     1
102
RTVSPropertyOp18
 70
     1
102
RTVSPropertyOp19
 70
     1
102
RTVSPropertyOp20
 70
     1
102
RTVSPropertyOp21
 70
     1
102
RTVSPropertyOp22
 70
     1
102
RTVSPropertyOp23
 70
     1
102
RTVSPropertyOp24
 70
     1
102
RTVSPropertyOp25
 70
     1
102
RTVSPropertyOp26
 70
     1
102
RTVSPropertyOp27
 70
     1
102
RTVSPropertyOp28
 70
     1
102
RTVSPropertyOp29
 70
     1
102
RTVSPropertyOp30
 70
     1
102
RTVSPropertyOp31
 70
     1
102
RTVSPropertyOp32
 70
     1
  0
XRECORD
  5
186F
102
{ACAD_REACTORS
330
186E
102
}
330
186E
100
AcDbXrecord
280
     1
102
RTVSPropertyOp0
 70
     0
102
RTVSPropertyOp1
 70
     0
102
RTVSPropertyOp2
 70
     0
102
RTVSPropertyOp3
 70
     0
102
RTVSPropertyOp4
 70
     0
102
RTVSPropertyOp5
 70
     0
102
RTVSPropertyOp6
 70
     0
102
RTVSPropertyOp7
 70
     0
102
RTVSPropertyOp8
 70
     0
102
RTVSPropertyOp9
 70
     0
102
RTVSPropertyOp10
 70
     0
102
RTVSPropertyOp11
 70
     0
102
RTVSPropertyOp12
 70
     0
102
RTVSPropertyOp13
 70
     0
102
RTVSPropertyOp14
 70
     2
102
RTVSPropertyOp15
 70
     0
102
RTVSPropertyOp16
 70
     0
102
RTVSPropertyOp17
 70
     0
102
RTVSPropertyOp18
 70
     0
102
RTVSPropertyOp19
 70
     0
102
RTVSPropertyOp20
 70
     0
102
RTVSPropertyOp21
 70
     0
102
RTVSPropertyOp22
 70
     0
102
RTVSPropertyOp23
 70
     0
102
RTVSPropertyOp24
 70
     0
102
RTVSPropertyOp25
 70
     0
102
RTVSPropertyOp26
 70
     0
102
RTVSPropertyOp27
 70
     0
102
RTVSPropertyOp28
 70
     0
102
RTVSPropertyOp29
 70
     0
102
RTVSPropertyOp30
 70
     0
102
RTVSPropertyOp31
 70
     0
102
RTVSPropertyOp32
 70
     0
  0
XRECORD
  5
1855
102
{ACAD_REACTORS
330
1854
102
}
330
1854
100
AcDbXrecord
280
     1
102
RTVSPropertyOp0
 70
     1
102
RTVSPropertyOp1
 70
     1
102
RTVSPropertyOp2
 70
     1
102
RTVSPropertyOp3
 70
     1
102
RTVSPropertyOp4
 70
     1
102
RTVSPropertyOp5
 70
     1
102
RTVSPropertyOp6
 70
     1
102
RTVSPropertyOp7
 70
     1
102
RTVSPropertyOp8
 70
     1
102
RTVSPropertyOp9
 70
     1
102
RTVSPropertyOp10
 70
     1
102
RTVSPropertyOp11
 70
     1
102
RTVSPropertyOp12
 70
     1
102
RTVSPropertyOp13
 70
     1
102
RTVSPropertyOp14
 70
     1
102
RTVSPropertyOp15
 70
     1
102
RTVSPropertyOp16
 70
     1
102
RTVSPropertyOp17
 70
     1
102
RTVSPropertyOp18
 70
     1
102
RTVSPropertyOp19
 70
     1
102
RTVSPropertyOp20
 70
     1
102
RTVSPropertyOp21
 70
     1
102
RTVSPropertyOp22
 70
     1
102
RTVSPropertyOp23
 70
     1
102
RTVSPropertyOp24
 70
     1
102
RTVSPropertyOp25
 70
     1
102
RTVSPropertyOp26
 70
     1
102
RTVSPropertyOp27
 70
     1
102
RTVSPropertyOp28
 70
     1
102
RTVSPropertyOp29
 70
     1
102
RTVSPropertyOp30
 70
     1
102
RTVSPropertyOp31
 70
     1
102
RTVSPropertyOp32
 70
     1
  0
XRECORD
  5
186B
102
{ACAD_REACTORS
330
186A
102
}
330
186A
100
AcDbXrecord
280
     1
102
RTVSPropertyOp0
 70
     1
102
RTVSPropertyOp1
 70
     1
102
RTVSPropertyOp2
 70
     1
102
RTVSPropertyOp3
 70
     1
102
RTVSPropertyOp4
 70
     1
102
RTVSPropertyOp5
 70
     1
102
RTVSPropertyOp6
 70
     1
102
RTVSPropertyOp7
 70
     1
102
RTVSPropertyOp8
 70
     1
102
RTVSPropertyOp9
 70
     1
102
RTVSPropertyOp10
 70
     1
102
RTVSPropertyOp11
 70
     1
102
RTVSPropertyOp12
 70
     1
102
RTVSPropertyOp13
 70
     1
102
RTVSPropertyOp14
 70
     1
102
RTVSPropertyOp15
 70
     1
102
RTVSPropertyOp16
 70
     1
102
RTVSPropertyOp17
 70
     1
102
RTVSPropertyOp18
 70
     1
102
RTVSPropertyOp19
 70
     1
102
RTVSPropertyOp20
 70
     1
102
RTVSPropertyOp21
 70
     1
102
RTVSPropertyOp22
 70
     1
102
RTVSPropertyOp23
 70
     1
102
RTVSPropertyOp24
 70
     1
102
RTVSPropertyOp25
 70
     1
102
RTVSPropertyOp26
 70
     1
102
RTVSPropertyOp27
 70
     1
102
RTVSPropertyOp28
 70
     1
102
RTVSPropertyOp29
 70
     1
102
RTVSPropertyOp30
 70
     1
102
RTVSPropertyOp31
 70
     1
102
RTVSPropertyOp32
 70
     1
  0
XRECORD
  5
1869
102
{ACAD_REACTORS
330
1868
102
}
330
1868
100
AcDbXrecord
280
     1
102
RTVSPropertyOp0
 70
     1
102
RTVSPropertyOp1
 70
     1
102
RTVSPropertyOp2
 70
     1
102
RTVSPropertyOp3
 70
     1
102
RTVSPropertyOp4
 70
     1
102
RTVSPropertyOp5
 70
     1
102
RTVSPropertyOp6
 70
     1
102
RTVSPropertyOp7
 70
     1
102
RTVSPropertyOp8
 70
     1
102
RTVSPropertyOp9
 70
     1
102
RTVSPropertyOp10
 70
     1
102
RTVSPropertyOp11
 70
     1
102
RTVSPropertyOp12
 70
     1
102
RTVSPropertyOp13
 70
     1
102
RTVSPropertyOp14
 70
     1
102
RTVSPropertyOp15
 70
     1
102
RTVSPropertyOp16
 70
     1
102
RTVSPropertyOp17
 70
     1
102
RTVSPropertyOp18
 70
     1
102
RTVSPropertyOp19
 70
     1
102
RTVSPropertyOp20
 70
     1
102
RTVSPropertyOp21
 70
     1
102
RTVSPropertyOp22
 70
     1
102
RTVSPropertyOp23
 70
     1
102
RTVSPropertyOp24
 70
     1
102
RTVSPropertyOp25
 70
     1
102
RTVSPropertyOp26
 70
     1
102
RTVSPropertyOp27
 70
     1
102
RTVSPropertyOp28
 70
     1
102
RTVSPropertyOp29
 70
     1
102
RTVSPropertyOp30
 70
     1
102
RTVSPropertyOp31
 70
     1
102
RTVSPropertyOp32
 70
     1
  0
XRECORD
  5
1863
102
{ACAD_REACTORS
330
1862
102
}
330
1862
100
AcDbXrecord
280
     1
102
RTVSPropertyOp0
 70
     1
102
RTVSPropertyOp1
 70
     1
102
RTVSPropertyOp2
 70
     1
102
RTVSPropertyOp3
 70
     1
102
RTVSPropertyOp4
 70
     1
102
RTVSPropertyOp5
 70
     1
102
RTVSPropertyOp6
 70
     1
102
RTVSPropertyOp7
 70
     1
102
RTVSPropertyOp8
 70
     1
102
RTVSPropertyOp9
 70
     1
102
RTVSPropertyOp10
 70
     1
102
RTVSPropertyOp11
 70
     1
102
RTVSPropertyOp12
 70
     1
102
RTVSPropertyOp13
 70
     1
102
RTVSPropertyOp14
 70
     1
102
RTVSPropertyOp15
 70
     1
102
RTVSPropertyOp16
 70
     1
102
RTVSPropertyOp17
 70
     1
102
RTVSPropertyOp18
 70
     1
102
RTVSPropertyOp19
 70
     1
102
RTVSPropertyOp20
 70
     1
102
RTVSPropertyOp21
 70
     1
102
RTVSPropertyOp22
 70
     1
102
RTVSPropertyOp23
 70
     1
102
RTVSPropertyOp24
 70
     1
102
RTVSPropertyOp25
 70
     1
102
RTVSPropertyOp26
 70
     1
102
RTVSPropertyOp27
 70
     1
102
RTVSPropertyOp28
 70
     1
102
RTVSPropertyOp29
 70
     1
102
RTVSPropertyOp30
 70
     1
102
RTVSPropertyOp31
 70
     1
102
RTVSPropertyOp32
 70
     1
  0
XRECORD
  5
1865
102
{ACAD_REACTORS
330
1864
102
}
330
1864
100
AcDbXrecord
280
     1
102
RTVSPropertyOp0
 70
     1
102
RTVSPropertyOp1
 70
     1
102
RTVSPropertyOp2
 70
     1
102
RTVSPropertyOp3
 70
     1
102
RTVSPropertyOp4
 70
     1
102
RTVSPropertyOp5
 70
     1
102
RTVSPropertyOp6
 70
     1
102
RTVSPropertyOp7
 70
     1
102
RTVSPropertyOp8
 70
     1
102
RTVSPropertyOp9
 70
     1
102
RTVSPropertyOp10
 70
     1
102
RTVSPropertyOp11
 70
     1
102
RTVSPropertyOp12
 70
     1
102
RTVSPropertyOp13
 70
     1
102
RTVSPropertyOp14
 70
     1
102
RTVSPropertyOp15
 70
     1
102
RTVSPropertyOp16
 70
     1
102
RTVSPropertyOp17
 70
     1
102
RTVSPropertyOp18
 70
     1
102
RTVSPropertyOp19
 70
     1
102
RTVSPropertyOp20
 70
     1
102
RTVSPropertyOp21
 70
     1
102
RTVSPropertyOp22
 70
     1
102
RTVSPropertyOp23
 70
     1
102
RTVSPropertyOp24
 70
     1
102
RTVSPropertyOp25
 70
     1
102
RTVSPropertyOp26
 70
     1
102
RTVSPropertyOp27
 70
     1
102
RTVSPropertyOp28
 70
     1
102
RTVSPropertyOp29
 70
     1
102
RTVSPropertyOp30
 70
     1
102
RTVSPropertyOp31
 70
     1
102
RTVSPropertyOp32
 70
     1
  0
XRECORD
  5
185B
102
{ACAD_REACTORS
330
185A
102
}
330
185A
100
AcDbXrecord
280
     1
102
RTVSPropertyOp0
 70
     1
102
RTVSPropertyOp1
 70
     1
102
RTVSPropertyOp2
 70
     1
102
RTVSPropertyOp3
 70
     1
102
RTVSPropertyOp4
 70
     1
102
RTVSPropertyOp5
 70
     1
102
RTVSPropertyOp6
 70
     1
102
RTVSPropertyOp7
 70
     1
102
RTVSPropertyOp8
 70
     1
102
RTVSPropertyOp9
 70
     1
102
RTVSPropertyOp10
 70
     1
102
RTVSPropertyOp11
 70
     1
102
RTVSPropertyOp12
 70
     1
102
RTVSPropertyOp13
 70
     1
102
RTVSPropertyOp14
 70
     1
102
RTVSPropertyOp15
 70
     1
102
RTVSPropertyOp16
 70
     1
102
RTVSPropertyOp17
 70
     1
102
RTVSPropertyOp18
 70
     1
102
RTVSPropertyOp19
 70
     1
102
RTVSPropertyOp20
 70
     1
102
RTVSPropertyOp21
 70
     1
102
RTVSPropertyOp22
 70
     1
102
RTVSPropertyOp23
 70
     1
102
RTVSPropertyOp24
 70
     1
102
RTVSPropertyOp25
 70
     1
102
RTVSPropertyOp26
 70
     1
102
RTVSPropertyOp27
 70
     1
102
RTVSPropertyOp28
 70
     1
102
RTVSPropertyOp29
 70
     1
102
RTVSPropertyOp30
 70
     1
102
RTVSPropertyOp31
 70
     1
102
RTVSPropertyOp32
 70
     1
  0
XRECORD
  5
184F
102
{ACAD_REACTORS
330
184E
102
}
330
184E
100
AcDbXrecord
280
     1
102
RTVSPropertyOp0
 70
     1
102
RTVSPropertyOp1
 70
     1
102
RTVSPropertyOp2
 70
     1
102
RTVSPropertyOp3
 70
     1
102
RTVSPropertyOp4
 70
     1
102
RTVSPropertyOp5
 70
     1
102
RTVSPropertyOp6
 70
     1
102
RTVSPropertyOp7
 70
     1
102
RTVSPropertyOp8
 70
     1
102
RTVSPropertyOp9
 70
     1
102
RTVSPropertyOp10
 70
     1
102
RTVSPropertyOp11
 70
     1
102
RTVSPropertyOp12
 70
     1
102
RTVSPropertyOp13
 70
     1
102
RTVSPropertyOp14
 70
     1
102
RTVSPropertyOp15
 70
     1
102
RTVSPropertyOp16
 70
     1
102
RTVSPropertyOp17
 70
     1
102
RTVSPropertyOp18
 70
     1
102
RTVSPropertyOp19
 70
     1
102
RTVSPropertyOp20
 70
     1
102
RTVSPropertyOp21
 70
     1
102
RTVSPropertyOp22
 70
     1
102
RTVSPropertyOp23
 70
     1
102
RTVSPropertyOp24
 70
     1
102
RTVSPropertyOp25
 70
     1
102
RTVSPropertyOp26
 70
     1
102
RTVSPropertyOp27
 70
     1
102
RTVSPropertyOp28
 70
     1
102
RTVSPropertyOp29
 70
     1
102
RTVSPropertyOp30
 70
     1
102
RTVSPropertyOp31
 70
     1
102
RTVSPropertyOp32
 70
     1
  0
XRECORD
  5
1867
102
{ACAD_REACTORS
330
1866
102
}
330
1866
100
AcDbXrecord
280
     1
102
RTVSPropertyOp0
 70
     1
102
RTVSPropertyOp1
 70
     1
102
RTVSPropertyOp2
 70
     1
102
RTVSPropertyOp3
 70
     1
102
RTVSPropertyOp4
 70
     1
102
RTVSPropertyOp5
 70
     1
102
RTVSPropertyOp6
 70
     1
102
RTVSPropertyOp7
 70
     1
102
RTVSPropertyOp8
 70
     1
102
RTVSPropertyOp9
 70
     1
102
RTVSPropertyOp10
 70
     1
102
RTVSPropertyOp11
 70
     1
102
RTVSPropertyOp12
 70
     1
102
RTVSPropertyOp13
 70
     1
102
RTVSPropertyOp14
 70
     1
102
RTVSPropertyOp15
 70
     1
102
RTVSPropertyOp16
 70
     1
102
RTVSPropertyOp17
 70
     1
102
RTVSPropertyOp18
 70
     1
102
RTVSPropertyOp19
 70
     1
102
RTVSPropertyOp20
 70
     1
102
RTVSPropertyOp21
 70
     1
102
RTVSPropertyOp22
 70
     1
102
RTVSPropertyOp23
 70
     1
102
RTVSPropertyOp24
 70
     1
102
RTVSPropertyOp25
 70
     1
102
RTVSPropertyOp26
 70
     1
102
RTVSPropertyOp27
 70
     1
102
RTVSPropertyOp28
 70
     1
102
RTVSPropertyOp29
 70
     1
102
RTVSPropertyOp30
 70
     1
102
RTVSPropertyOp31
 70
     1
102
RTVSPropertyOp32
 70
     1
  0
ENDSEC
  0
EOF
