  0
SECTION
  2
HEADER
  9
$ACADVER
  1
AC1015
  9
$ACADMAINTVER
 70
    20
  9
$DWGCODEPAGE
  3
ANSI_932
  9
$INSBASE
 10
0.0
 20
0.0
 30
0.0
  9
$EXTMIN
 10
1141.878385455605
 20
6.740120359848786
 30
0.0
  9
$EXTMAX
 10
1333.878385455605
 20
287.0864725062528
 30
0.0
  9
$LIMMIN
 10
0.0
 20
0.0
  9
$LIMMAX
 10
12.0
 20
9.0
  9
$ORTHOMODE
 70
     1
  9
$REGENMODE
 70
     1
  9
$FILLMODE
 70
     1
  9
$QTEXTMODE
 70
     0
  9
$MIRRTEXT
 70
     0
  9
$LTSCALE
 40
0.2
  9
$ATTMODE
 70
     1
  9
$TEXTSIZE
 40
3.2
  9
$TRACEWID
 40
0.05
  9
$TEXTSTYLE
  7
高3.2
  9
$CLAYER
  8
0
  9
$CELTYPE
  6
ByLayer
  9
$CECOLOR
 62
   256
  9
$CELTSCALE
 40
1.0
  9
$DISPSILH
 70
     0
  9
$DIMSCALE
 40
1.0
  9
$DIMASZ
 40
2.5
  9
$DIMEXO
 40
0.25
  9
$DIMDLI
 40
0.2
  9
$DIMRND
 40
0.0
  9
$DIMDLE
 40
0.0
  9
$DIMEXE
 40
1.25
  9
$DIMTP
 40
0.0
  9
$DIMTM
 40
0.0
  9
$DIMTXT
 40
3.0
  9
$DIMCEN
 40
0.0
  9
$DIMTSZ
 40
0.0
  9
$DIMTOL
 70
     0
  9
$DIMLIM
 70
     0
  9
$DIMTIH
 70
     0
  9
$DIMTOH
 70
     0
  9
$DIMSE1
 70
     0
  9
$DIMSE2
 70
     0
  9
$DIMTAD
 70
     3
  9
$DIMZIN
 70
     8
  9
$DIMBLK
  1
Open30
  9
$DIMASO
 70
     1
  9
$DIMSHO
 70
     1
  9
$DIMPOST
  1

  9
$DIMAPOST
  1

  9
$DIMALT
 70
     0
  9
$DIMALTD
 70
     3
  9
$DIMALTF
 40
0.03937007874016
  9
$DIMLFAC
 40
1.0
  9
$DIMTOFL
 70
     1
  9
$DIMTVP
 40
0.0
  9
$DIMTIX
 70
     0
  9
$DIMSOXD
 70
     0
  9
$DIMSAH
 70
     0
  9
$DIMBLK1
  1

  9
$DIMBLK2
  1

  9
$DIMSTYLE
  2
1：1
  9
$DIMCLRD
 70
     0
  9
$DIMCLRE
 70
     0
  9
$DIMCLRT
 70
     4
  9
$DIMTFAC
 40
1.0
  9
$DIMGAP
 40
0.625
  9
$DIMJUST
 70
     0
  9
$DIMSD1
 70
     0
  9
$DIMSD2
 70
     0
  9
$DIMTOLJ
 70
     0
  9
$DIMTZIN
 70
     8
  9
$DIMALTZ
 70
     0
  9
$DIMALTTZ
 70
     0
  9
$DIMUPT
 70
     1
  9
$DIMDEC
 70
     2
  9
$DIMTDEC
 70
     2
  9
$DIMALTU
 70
     2
  9
$DIMALTTD
 70
     3
  9
$DIMTXSTY
  7
Standard
  9
$DIMAUNIT
 70
     0
  9
$DIMADEC
 70
     1
  9
$DIMALTRND
 40
0.0
  9
$DIMAZIN
 70
     2
  9
$DIMDSEP
 70
    46
  9
$DIMATFIT
 70
     0
  9
$DIMFRAC
 70
     0
  9
$DIMLDRBLK
  1
Open30
  9
$DIMLUNIT
 70
     2
  9
$DIMLWD
 70
    -2
  9
$DIMLWE
 70
    -2
  9
$DIMTMOVE
 70
     0
  9
$LUNITS
 70
     2
  9
$LUPREC
 70
     4
  9
$SKETCHINC
 40
0.1
  9
$FILLETRAD
 40
0.0
  9
$AUNITS
 70
     0
  9
$AUPREC
 70
     0
  9
$MENU
  1
.
  9
$ELEVATION
 40
0.0
  9
$PELEVATION
 40
0.0
  9
$THICKNESS
 40
0.0
  9
$LIMCHECK
 70
     0
  9
$CHAMFERA
 40
0.0
  9
$CHAMFERB
 40
0.0
  9
$CHAMFERC
 40
0.0
  9
$CHAMFERD
 40
0.0
  9
$SKPOLY
 70
     0
  9
$TDCREATE
 40
2458926.476418160
  9
$TDUCREATE
 40
2458926.101418160
  9
$TDUPDATE
 40
2459051.452406829
  9
$TDUUPDATE
 40
2459051.077406829
  9
$TDINDWG
 40
0.1780103935
  9
$TDUSRTIMER
 40
0.1780102083
  9
$USRTIMER
 70
     1
  9
$ANGBASE
 50
0.0
  9
$ANGDIR
 70
     0
  9
$PDMODE
 70
     0
  9
$PDSIZE
 40
0.0
  9
$PLINEWID
 40
0.0
  9
$SPLFRAME
 70
     0
  9
$SPLINETYPE
 70
     6
  9
$SPLINESEGS
 70
     8
  9
$HANDSEED
  5
1301
  9
$SURFTAB1
 70
     6
  9
$SURFTAB2
 70
     6
  9
$SURFTYPE
 70
     6
  9
$SURFU
 70
     6
  9
$SURFV
 70
     6
  9
$UCSBASE
  2

  9
$UCSNAME
  2

  9
$UCSORG
 10
0.0
 20
0.0
 30
0.0
  9
$UCSXDIR
 10
1.0
 20
0.0
 30
0.0
  9
$UCSYDIR
 10
0.0
 20
1.0
 30
0.0
  9
$UCSORTHOREF
  2

  9
$UCSORTHOVIEW
 70
     0
  9
$UCSORGTOP
 10
0.0
 20
0.0
 30
0.0
  9
$UCSORGBOTTOM
 10
0.0
 20
0.0
 30
0.0
  9
$UCSORGLEFT
 10
0.0
 20
0.0
 30
0.0
  9
$UCSORGRIGHT
 10
0.0
 20
0.0
 30
0.0
  9
$UCSORGFRONT
 10
0.0
 20
0.0
 30
0.0
  9
$UCSORGBACK
 10
0.0
 20
0.0
 30
0.0
  9
$PUCSBASE
  2

  9
$PUCSNAME
  2

  9
$PUCSORG
 10
0.0
 20
0.0
 30
0.0
  9
$PUCSXDIR
 10
1.0
 20
0.0
 30
0.0
  9
$PUCSYDIR
 10
0.0
 20
1.0
 30
0.0
  9
$PUCSORTHOREF
  2

  9
$PUCSORTHOVIEW
 70
     0
  9
$PUCSORGTOP
 10
0.0
 20
0.0
 30
0.0
  9
$PUCSORGBOTTOM
 10
0.0
 20
0.0
 30
0.0
  9
$PUCSORGLEFT
 10
0.0
 20
0.0
 30
0.0
  9
$PUCSORGRIGHT
 10
0.0
 20
0.0
 30
0.0
  9
$PUCSORGFRONT
 10
0.0
 20
0.0
 30
0.0
  9
$PUCSORGBACK
 10
0.0
 20
0.0
 30
0.0
  9
$USERI1
 70
     0
  9
$USERI2
 70
     0
  9
$USERI3
 70
     0
  9
$USERI4
 70
     0
  9
$USERI5
 70
     0
  9
$USERR1
 40
0.0
  9
$USERR2
 40
0.0
  9
$USERR3
 40
0.0
  9
$USERR4
 40
0.0
  9
$USERR5
 40
0.0
  9
$WORLDVIEW
 70
     1
  9
$SHADEDGE
 70
     3
  9
$SHADEDIF
 70
    70
  9
$TILEMODE
 70
     1
  9
$MAXACTVP
 70
    64
  9
$PINSBASE
 10
0.0
 20
0.0
 30
0.0
  9
$PLIMCHECK
 70
     0
  9
$PEXTMIN
 10
0.0
 20
0.0
 30
0.0
  9
$PEXTMAX
 10
0.0
 20
0.0
 30
0.0
  9
$PLIMMIN
 10
0.0
 20
0.0
  9
$PLIMMAX
 10
12.0
 20
9.0
  9
$UNITMODE
 70
     0
  9
$VISRETAIN
 70
     1
  9
$PLINEGEN
 70
     0
  9
$PSLTSCALE
 70
     1
  9
$TREEDEPTH
 70
  3020
  9
$CMLSTYLE
  2
Standard
  9
$CMLJUST
 70
     0
  9
$CMLSCALE
 40
1.0
  9
$PROXYGRAPHICS
 70
     1
  9
$MEASUREMENT
 70
     1
  9
$CELWEIGHT
370
    -1
  9
$ENDCAPS
280
     0
  9
$JOINSTYLE
280
     0
  9
$LWDISPLAY
290
     0
  9
$INSUNITS
 70
     1
  9
$HYPERLINKBASE
  1

  9
$STYLESHEET
  1

  9
$XEDIT
290
     1
  9
$CEPSNTYPE
380
     0
  9
$PSTYLEMODE
290
     1
  9
$FINGERPRINTGUID
  2
{B928CA06-E167-4E76-B8F0-B11FE75D23B4}
  9
$VERSIONGUID
  2
{9F35CDA8-EF22-4BFE-9CA3-B3E355226F96}
  9
$EXTNAMES
290
     1
  9
$PSVPSCALE
 40
0.0
  9
$OLESTARTUP
290
     0
  0
ENDSEC
  0
SECTION
  2
CLASSES
  0
CLASS
  1
ACDBDICTIONARYWDFLT
  2
AcDbDictionaryWithDefault
  3
ObjectDBX Classes
 90
        0
280
     0
281
     0
  0
CLASS
  1
ACDBPLACEHOLDER
  2
AcDbPlaceHolder
  3
ObjectDBX Classes
 90
        0
280
     0
281
     0
  0
CLASS
  1
LAYOUT
  2
AcDbLayout
  3
ObjectDBX Classes
 90
        0
280
     0
281
     0
  0
CLASS
  1
DICTIONARYVAR
  2
AcDbDictionaryVar
  3
ObjectDBX Classes
 90
        0
280
     0
281
     0
  0
CLASS
  1
TABLESTYLE
  2
AcDbTableStyle
  3
ObjectDBX Classes
 90
     4095
280
     0
281
     0
  0
CLASS
  1
MATERIAL
  2
AcDbMaterial
  3
ObjectDBX Classes
 90
     1153
280
     0
281
     0
  0
CLASS
  1
VISUALSTYLE
  2
AcDbVisualStyle
  3
ObjectDBX Classes
 90
     4095
280
     0
281
     0
  0
CLASS
  1
SORTENTSTABLE
  2
AcDbSortentsTable
  3
ObjectDBX Classes
 90
        0
280
     0
281
     0
  0
CLASS
  1
DIMASSOC
  2
AcDbDimAssoc
  3
"AcDbDimAssoc|Product Desc:     AcDim ARX App For Dimension|Company:          Autodesk, Inc.|WEB Address:      www.autodesk.com"
 90
        0
280
     0
281
     0
  0
CLASS
  1
SCALE
  2
AcDbScale
  3
ObjectDBX Classes
 90
     1153
280
     0
281
     0
  0
CLASS
  1
MLEADERSTYLE
  2
AcDbMLeaderStyle
  3
ACDB_MLEADERSTYLE_CLASS
 90
     4095
280
     0
281
     0
  0
CLASS
  1
CELLSTYLEMAP
  2
AcDbCellStyleMap
  3
ObjectDBX Classes
 90
     1152
280
     0
281
     0
  0
CLASS
  1
AEC_REFEDIT_STATUS_TRACKER
  2
AecDbRefEditStatusTracker
  3
AecArchBase60|Product Desc: Autodesk Architectural Desktop 2007 |Company: Autodesk,Inc. |WEB Address: www.autodesk.com
 90
      129
280
     0
281
     0
  0
CLASS
  1
NPOCOLLECTION
  2
AcDbImpNonPersistentObjectsCollection
  3
ObjectDBX Classes
 90
     1153
280
     0
281
     0
  0
ENDSEC
  0
SECTION
  2
TABLES
  0
TABLE
  2
VPORT
  5
8
102
{ACAD_XDICTIONARY
360
829
102
}
330
0
100
AcDbSymbolTable
 70
     1
  0
VPORT
  5
94
330
8
100
AcDbSymbolTableRecord
100
AcDbViewportTableRecord
  2
*Active
 70
     0
 10
0.0
 20
0.0
 11
1.0
 21
1.0
 12
1302.466467298881
 22
148.2020609634888
 13
0.0
 23
0.0
 14
0.5
 24
0.5
 15
0.5
 25
0.5
 16
0.0
 26
0.0
 36
1.0
 17
0.0
 27
0.0
 37
0.0
 40
465.1257183572395
 41
1.257022471910112
 42
50.0
 43
0.0
 44
0.0
 50
0.0
 51
0.0
 71
     0
 72
  1000
 73
     1
 74
     2
 75
     0
 76
     0
 77
     0
 78
     0
281
     0
 65
     1
110
0.0
120
0.0
130
0.0
111
1.0
121
0.0
131
0.0
112
0.0
122
1.0
132
0.0
 79
     0
146
0.0
  0
ENDTAB
  0
TABLE
  2
LTYPE
  5
5
330
0
100
AcDbSymbolTable
 70
     5
  0
LTYPE
  5
14
330
5
100
AcDbSymbolTableRecord
100
AcDbLinetypeTableRecord
  2
ByBlock
 70
     0
  3

 72
    65
 73
     0
 40
0.0
  0
LTYPE
  5
15
330
5
100
AcDbSymbolTableRecord
100
AcDbLinetypeTableRecord
  2
ByLayer
 70
     0
  3

 72
    65
 73
     0
 40
0.0
  0
LTYPE
  5
16
330
5
100
AcDbSymbolTableRecord
100
AcDbLinetypeTableRecord
  2
Continuous
 70
     0
  3
Solid line
 72
    65
 73
     0
 40
0.0
  0
LTYPE
  5
148
330
5
100
AcDbSymbolTableRecord
100
AcDbLinetypeTableRecord
  2
CENTER
 70
     0
  3
Center ____ _ ____ _ ____ _ ____ _ ____ _ ____
 72
    65
 73
     4
 40
50.8
 49
31.75
 74
     0
 49
-6.349999999999998
 74
     0
 49
6.349999999999998
 74
     0
 49
-6.349999999999998
 74
     0
  0
LTYPE
  5
149
330
5
100
AcDbSymbolTableRecord
100
AcDbLinetypeTableRecord
  2
HIDDEN
 70
     0
  3
Hidden __ __ __ __ __ __ __ __ __ __ __ __ __ __
 72
    65
 73
     2
 40
9.524999999999996
 49
6.349999999999998
 74
     0
 49
-3.174999999999998
 74
     0
  0
LTYPE
  5
14A
330
5
100
AcDbSymbolTableRecord
100
AcDbLinetypeTableRecord
  2
PHANTOM
 70
     0
  3
Phantom ______  __  __  ______  __  __  ______
 72
    65
 73
     6
 40
63.5
 49
31.75
 74
     0
 49
-6.349999999999998
 74
     0
 49
6.349999999999998
 74
     0
 49
-6.349999999999998
 74
     0
 49
6.349999999999998
 74
     0
 49
-6.349999999999998
 74
     0
  0
ENDTAB
  0
TABLE
  2
LAYER
  5
2
102
{ACAD_XDICTIONARY
360
DD
102
}
330
0
100
AcDbSymbolTable
 70
     2
  0
LAYER
  5
10
102
{ACAD_XDICTIONARY
360
81D
102
}
330
2
100
AcDbSymbolTableRecord
100
AcDbLayerTableRecord
  2
0
 70
     0
 62
     7
  6
Continuous
370
    -3
390
F
  0
LAYER
  5
D8
330
2
100
AcDbSymbolTableRecord
100
AcDbLayerTableRecord
  2
Defpoints
 70
     0
 62
     7
  6
Continuous
290
     0
370
    -3
390
F
  0
ENDTAB
  0
TABLE
  2
STYLE
  5
3
330
0
100
AcDbSymbolTable
 70
     6
  0
STYLE
  5
11
330
3
100
AcDbSymbolTableRecord
100
AcDbTextStyleTableRecord
  2
Standard
 70
     0
 40
0.0
 41
1.0
 50
0.0
 71
     0
 42
0.2
  3
txt.shx
  4
bigfont.shx
  0
STYLE
  5
11D
330
3
100
AcDbSymbolTableRecord
100
AcDbTextStyleTableRecord
  2
高3.2
 70
     0
 40
3.2
 41
1.0
 50
0.0
 71
     0
 42
3.2
  3
txt.shx
  4
bigfont.shx
  0
STYLE
  5
11E
330
3
100
AcDbSymbolTableRecord
100
AcDbTextStyleTableRecord
  2
高6.3
 70
     0
 40
6.299999999999998
 41
1.0
 50
0.0
 71
     0
 42
6.299999999999998
  3
txt.shx
  4
bigfont.shx
  0
STYLE
  5
11F
330
3
100
AcDbSymbolTableRecord
100
AcDbTextStyleTableRecord
  2
高2.5
 70
     0
 40
2.5
 41
1.0
 50
0.0
 71
     0
 42
0.2
  3
txt.shx
  4
bigfont.shx
  0
STYLE
  5
146
330
3
100
AcDbSymbolTableRecord
100
AcDbTextStyleTableRecord
  2
高4.5
 70
     0
 40
4.5
 41
1.0
 50
0.0
 71
     0
 42
6.299999999999998
  3
txt.shx
  4
bigfont.shx
  0
STYLE
  5
171
330
3
100
AcDbSymbolTableRecord
100
AcDbTextStyleTableRecord
  2
高2
 70
     0
 40
2.0
 41
1.0
 50
0.0
 71
     0
 42
6.299999999999998
  3
txt.shx
  4
bigfont.shx
  0
ENDTAB
  0
TABLE
  2
VIEW
  5
6
330
0
100
AcDbSymbolTable
 70
     0
  0
ENDTAB
  0
TABLE
  2
UCS
  5
7
330
0
100
AcDbSymbolTable
 70
     0
  0
ENDTAB
  0
TABLE
  2
APPID
  5
9
330
0
100
AcDbSymbolTable
 70
     9
  0
APPID
  5
12
330
9
100
AcDbSymbolTableRecord
100
AcDbRegAppTableRecord
  2
ACAD
 70
     0
  0
APPID
  5
DC
330
9
100
AcDbSymbolTableRecord
100
AcDbRegAppTableRecord
  2
ACAD_DSTYLE_DIMJOGGED_JOGANGLE_SYMBOL
 70
     0
  0
APPID
  5
566
330
9
100
AcDbSymbolTableRecord
100
AcDbRegAppTableRecord
  2
ACAD_EXEMPT_FROM_CAD_STANDARDS
 70
     0
  0
APPID
  5
647
330
9
100
AcDbSymbolTableRecord
100
AcDbRegAppTableRecord
  2
ACAD_DSTYLE_DIMJAG
 70
     0
  0
APPID
  5
648
330
9
100
AcDbSymbolTableRecord
100
AcDbRegAppTableRecord
  2
ACAD_DSTYLE_DIMBREAK
 70
     0
  0
APPID
  5
649
330
9
100
AcDbSymbolTableRecord
100
AcDbRegAppTableRecord
  2
ACAD_DSTYLE_DIMTALN
 70
     0
  0
APPID
  5
858
330
9
100
AcDbSymbolTableRecord
100
AcDbRegAppTableRecord
  2
ACAD_DSTYLE_DIMARC_LENGTH_SYMBOL
 70
     0
  0
APPID
  5
859
330
9
100
AcDbSymbolTableRecord
100
AcDbRegAppTableRecord
  2
ACAD_DSTYLE_DIMEXT_LENGTH
 70
     0
  0
APPID
  5
86E
330
9
100
AcDbSymbolTableRecord
100
AcDbRegAppTableRecord
  2
ACAD_MLEADERVER
 70
     0
  0
ENDTAB
  0
TABLE
  2
DIMSTYLE
  5
A
330
0
100
AcDbSymbolTable
 70
    10
100
AcDbDimStyleTable
 71
     5
340
D9
340
DB
340
DA
340
127
340
129
  0
DIMSTYLE
105
D9
330
A
100
AcDbSymbolTableRecord
100
AcDbDimStyleTableRecord
  2
1：1
 70
     0
 41
2.5
 42
0.25
 43
0.2
 44
1.25
 73
     0
 74
     0
 77
     3
 78
     8
 79
     2
140
3.0
141
0.0
143
0.03937007874016
147
0.625
171
     3
172
     1
178
     4
179
     1
271
     2
272
     2
274
     3
283
     0
284
     8
288
     1
289
     0
340
11
341
C6
342
C6
1001
ACAD_DSTYLE_DIMARC_LENGTH_SYMBOL
1070
   379
1070
     2
1001
ACAD_DSTYLE_DIMEXT_LENGTH
1070
   378
1040
1.25
1001
ACAD_DSTYLE_DIMJOGGED_JOGANGLE_SYMBOL
1070
   384
1040
1.570796326794896
  0
DIMSTYLE
105
DA
330
A
100
AcDbSymbolTableRecord
100
AcDbDimStyleTableRecord
  2
2：1
 70
     0
 41
2.5
 42
0.25
 43
0.2
 44
1.25
 73
     0
 74
     0
 77
     3
 78
     8
 79
     2
140
3.0
141
0.0
143
0.03937007874016
144
0.5
147
0.625
171
     3
172
     1
178
     4
179
     1
271
     2
272
     2
274
     3
283
     0
284
     8
288
     1
289
     0
340
11
341
C6
342
C6
1001
ACAD_DSTYLE_DIMARC_LENGTH_SYMBOL
1070
   379
1070
     2
1001
ACAD_DSTYLE_DIMEXT_LENGTH
1070
   378
1040
1.25
1001
ACAD_DSTYLE_DIMJOGGED_JOGANGLE_SYMBOL
1070
   384
1040
1.570796326794896
  0
DIMSTYLE
105
DB
330
A
100
AcDbSymbolTableRecord
100
AcDbDimStyleTableRecord
  2
5：1
 70
     0
 41
2.5
 42
0.25
 43
0.2
 44
1.25
 73
     0
 74
     0
 77
     3
 78
     8
 79
     2
140
3.0
141
0.0
143
0.03937007874016
144
0.2
147
0.625
171
     3
172
     1
178
     4
179
     1
271
     2
272
     2
274
     3
283
     0
284
     8
288
     1
289
     0
340
11
341
C6
342
C6
1001
ACAD_DSTYLE_DIMARC_LENGTH_SYMBOL
1070
   379
1070
     2
1001
ACAD_DSTYLE_DIMEXT_LENGTH
1070
   378
1040
1.25
1001
ACAD_DSTYLE_DIMJOGGED_JOGANGLE_SYMBOL
1070
   384
1040
1.570796326794896
  0
DIMSTYLE
105
127
330
A
100
AcDbSymbolTableRecord
100
AcDbDimStyleTableRecord
  2
10：1
 70
     0
 41
2.5
 42
0.25
 43
0.2
 44
1.25
 73
     0
 74
     0
 77
     3
 78
     8
 79
     2
140
3.0
141
0.0
143
0.03937007874016
144
0.1
147
0.625
171
     3
172
     1
178
     4
179
     1
271
     2
272
     2
274
     3
283
     0
284
     8
288
     1
289
     0
340
11
341
C6
342
C6
1001
ACAD_DSTYLE_DIMARC_LENGTH_SYMBOL
1070
   379
1070
     2
1001
ACAD_DSTYLE_DIMEXT_LENGTH
1070
   378
1040
1.25
1001
ACAD_DSTYLE_DIMJOGGED_JOGANGLE_SYMBOL
1070
   384
1040
1.570796326794896
  0
DIMSTYLE
105
128
330
A
100
AcDbSymbolTableRecord
100
AcDbDimStyleTableRecord
  2
1／2
 70
     0
 41
2.5
 42
0.25
 43
0.2
 44
1.25
 73
     0
 74
     0
 77
     3
 78
     8
 79
     2
140
3.0
141
0.0
143
0.03937007874016
144
2.0
147
0.625
171
     3
172
     1
178
     4
179
     1
271
     2
272
     2
274
     3
283
     0
284
     8
288
     1
289
     0
340
11
341
C6
342
C6
1001
ACAD_DSTYLE_DIMARC_LENGTH_SYMBOL
1070
   379
1070
     2
1001
ACAD_DSTYLE_DIMEXT_LENGTH
1070
   378
1040
1.25
1001
ACAD_DSTYLE_DIMJOGGED_JOGANGLE_SYMBOL
1070
   384
1040
1.570796326794896
  0
DIMSTYLE
105
129
330
A
100
AcDbSymbolTableRecord
100
AcDbDimStyleTableRecord
  2
1／5
 70
     0
 41
2.5
 42
0.25
 43
0.2
 44
1.25
 73
     0
 74
     0
 77
     3
 78
     8
 79
     2
140
3.0
141
0.0
143
0.03937007874016
144
5.0
147
0.625
171
     3
172
     1
178
     4
179
     1
271
     2
272
     2
274
     3
283
     0
284
     8
288
     1
289
     0
340
11
341
C6
342
C6
1001
ACAD_DSTYLE_DIMARC_LENGTH_SYMBOL
1070
   379
1070
     2
1001
ACAD_DSTYLE_DIMEXT_LENGTH
1070
   378
1040
1.25
1001
ACAD_DSTYLE_DIMJOGGED_JOGANGLE_SYMBOL
1070
   384
1040
1.570796326794896
  0
DIMSTYLE
105
12A
330
A
100
AcDbSymbolTableRecord
100
AcDbDimStyleTableRecord
  2
1／10
 70
     0
 41
2.5
 42
0.25
 43
0.2
 44
1.25
 73
     0
 74
     0
 77
     3
 78
     8
 79
     2
140
3.0
141
0.0
143
0.03937007874016
144
10.0
147
0.625
171
     3
172
     1
178
     4
179
     1
271
     2
272
     2
274
     3
283
     0
284
     8
288
     1
289
     0
340
11
341
C6
342
C6
1001
ACAD_DSTYLE_DIMARC_LENGTH_SYMBOL
1070
   379
1070
     2
1001
ACAD_DSTYLE_DIMEXT_LENGTH
1070
   378
1040
1.25
1001
ACAD_DSTYLE_DIMJOGGED_JOGANGLE_SYMBOL
1070
   384
1040
1.570796326794896
  0
DIMSTYLE
105
644
330
A
100
AcDbSymbolTableRecord
100
AcDbDimStyleTableRecord
  2
1／4
 70
     0
 41
2.5
 42
0.25
 43
0.2
 44
1.25
 73
     0
 74
     0
 77
     3
 78
     8
 79
     2
140
3.0
141
0.0
143
0.03937007874016
144
4.0
147
0.625
171
     3
172
     1
178
     4
179
     1
271
     2
272
     2
274
     3
283
     0
284
     8
288
     1
289
     0
340
11
341
C6
342
C6
1001
ACAD_DSTYLE_DIMARC_LENGTH_SYMBOL
1070
   379
1070
     2
1001
ACAD_DSTYLE_DIMEXT_LENGTH
1070
   378
1040
1.25
1001
ACAD_DSTYLE_DIMJOGGED_JOGANGLE_SYMBOL
1070
   384
1040
1.570796326794896
  0
DIMSTYLE
105
645
330
A
100
AcDbSymbolTableRecord
100
AcDbDimStyleTableRecord
  2
1／3
 70
     0
 41
2.5
 42
0.25
 43
0.2
 44
1.25
 73
     0
 74
     0
 77
     3
 78
     8
 79
     2
140
3.0
141
0.0
143
0.03937007874016
144
3.0
147
0.625
171
     3
172
     1
178
     4
179
     1
271
     2
272
     2
274
     3
283
     0
284
     8
288
     1
289
     0
340
11
341
C6
342
C6
1001
ACAD_DSTYLE_DIMARC_LENGTH_SYMBOL
1070
   379
1070
     2
1001
ACAD_DSTYLE_DIMEXT_LENGTH
1070
   378
1040
1.25
1001
ACAD_DSTYLE_DIMJOGGED_JOGANGLE_SYMBOL
1070
   384
1040
1.570796326794896
  0
DIMSTYLE
105
646
330
A
100
AcDbSymbolTableRecord
100
AcDbDimStyleTableRecord
  2
FREE
 70
     0
 41
2.5
 42
0.25
 43
0.2
 44
1.25
 73
     0
 74
     0
 77
     3
 78
     8
 79
     2
140
3.0
141
0.0
143
0.03937007874016
147
0.625
171
     3
172
     1
178
     4
179
     1
271
     2
272
     2
274
     3
283
     0
284
     8
288
     1
289
     0
340
11
341
C6
342
C6
1001
ACAD_DSTYLE_DIMBREAK
1070
   391
1040
3.75
1001
ACAD_DSTYLE_DIMJAG
1070
   388
1040
1.5
1001
ACAD_DSTYLE_DIMTALN
1070
   392
1070
     0
1001
ACAD_DSTYLE_DIMARC_LENGTH_SYMBOL
1070
   379
1070
     2
1001
ACAD_DSTYLE_DIMEXT_LENGTH
1070
   378
1040
1.25
1001
ACAD_DSTYLE_DIMJOGGED_JOGANGLE_SYMBOL
1070
   384
1040
1.570796326794896
  0
ENDTAB
  0
TABLE
  2
BLOCK_RECORD
  5
1
330
0
100
AcDbSymbolTable
 70
    12
  0
BLOCK_RECORD
  5
1F
102
{ACAD_XDICTIONARY
360
31A
102
}
330
1
100
AcDbSymbolTableRecord
100
AcDbBlockTableRecord
  2
*Model_Space
340
22
  0
BLOCK_RECORD
  5
58
330
1
100
AcDbSymbolTableRecord
100
AcDbBlockTableRecord
  2
*Paper_Space
340
59
  0
BLOCK_RECORD
  5
5D
330
1
100
AcDbSymbolTableRecord
100
AcDbBlockTableRecord
  2
*Paper_Space0
340
5E
  0
BLOCK_RECORD
  5
C6
330
1
100
AcDbSymbolTableRecord
100
AcDbBlockTableRecord
  2
_Open30
340
0
102
{BLKREFS
331
114E
331
114F
331
1157
331
1158
331
1160
331
1161
331
1169
331
116A
331
1172
331
1173
331
117B
331
117C
331
1184
331
1185
331
118D
331
118E
331
1196
331
1197
102
}
  0
BLOCK_RECORD
  5
ACA
102
{ACAD_XDICTIONARY
360
B94
102
}
330
1
100
AcDbSymbolTableRecord
100
AcDbBlockTableRecord
  2
A$C3C162290
340
0
1001
ACAD
1000
DesignCenter Data
1002
{
1070
     1
1070
     1
1002
}
  0
BLOCK_RECORD
  5
D63
330
1
100
AcDbSymbolTableRecord
100
AcDbBlockTableRecord
  2
*D3
340
0
  0
BLOCK_RECORD
  5
D7B
330
1
100
AcDbSymbolTableRecord
100
AcDbBlockTableRecord
  2
*D4
340
0
  0
BLOCK_RECORD
  5
D9C
330
1
100
AcDbSymbolTableRecord
100
AcDbBlockTableRecord
  2
*D5
340
0
  0
BLOCK_RECORD
  5
DCF
330
1
100
AcDbSymbolTableRecord
100
AcDbBlockTableRecord
  2
*D6
340
0
  0
BLOCK_RECORD
  5
DF9
330
1
100
AcDbSymbolTableRecord
100
AcDbBlockTableRecord
  2
*D7
340
0
  0
BLOCK_RECORD
  5
E11
330
1
100
AcDbSymbolTableRecord
100
AcDbBlockTableRecord
  2
*D8
340
0
  0
BLOCK_RECORD
  5
E29
330
1
100
AcDbSymbolTableRecord
100
AcDbBlockTableRecord
  2
*D9
340
0
  0
BLOCK_RECORD
  5
E41
330
1
100
AcDbSymbolTableRecord
100
AcDbBlockTableRecord
  2
*D10
340
0
  0
BLOCK_RECORD
  5
E6C
330
1
100
AcDbSymbolTableRecord
100
AcDbBlockTableRecord
  2
*D11
340
0
  0
ENDTAB
  0
ENDSEC
  0
SECTION
  2
BLOCKS
  0
BLOCK
  5
20
330
1F
100
AcDbEntity
  8
0
100
AcDbBlockBegin
  2
*Model_Space
 70
     0
 10
0.0
 20
0.0
 30
0.0
  3
*Model_Space
  1

  0
ENDBLK
  5
21
330
1F
100
AcDbEntity
  8
0
100
AcDbBlockEnd
  0
BLOCK
  5
5A
330
58
100
AcDbEntity
 67
     1
  8
0
100
AcDbBlockBegin
  2
*Paper_Space
 70
     0
 10
0.0
 20
0.0
 30
0.0
  3
*Paper_Space
  1

  0
ENDBLK
  5
5B
330
58
100
AcDbEntity
 67
     1
  8
0
100
AcDbBlockEnd
  0
BLOCK
  5
5F
330
5D
100
AcDbEntity
 67
     1
  8
0
100
AcDbBlockBegin
  2
*Paper_Space0
 70
     0
 10
0.0
 20
0.0
 30
0.0
  3
*Paper_Space0
  1

  0
ENDBLK
  5
60
330
5D
100
AcDbEntity
 67
     1
  8
0
100
AcDbBlockEnd
  0
BLOCK
  5
C7
330
C6
100
AcDbEntity
  8
0
100
AcDbBlockBegin
  2
_Open30
 70
     0
 10
0.0
 20
0.0
 30
0.0
  3
_Open30
  1

  0
LINE
  5
C8
330
C6
100
AcDbEntity
  8
0
  6
ByBlock
 62
     0
370
    -2
100
AcDbLine
 10
-1.0
 20
0.267949
 30
0.0
 11
0.0
 21
0.0
 31
0.0
  0
LINE
  5
C9
330
C6
100
AcDbEntity
  8
0
  6
ByBlock
 62
     0
370
    -2
100
AcDbLine
 10
0.0
 20
0.0
 30
0.0
 11
-1.0
 21
-0.267949
 31
0.0
  0
LINE
  5
CA
330
C6
100
AcDbEntity
  8
0
  6
ByBlock
 62
     0
370
    -2
100
AcDbLine
 10
0.0
 20
0.0
 30
0.0
 11
-1.0
 21
0.0
 31
0.0
  0
ENDBLK
  5
CB
330
C6
100
AcDbEntity
  8
0
100
AcDbBlockEnd
  0
BLOCK
  5
B96
330
ACA
100
AcDbEntity
  8
0
100
AcDbBlockBegin
  2
A$C3C162290
 70
     0
 10
0.0
 20
0.0
 30
0.0
  3
A$C3C162290
  1

  0
LINE
  5
ACB
330
ACA
100
AcDbEntity
  8
0
 62
     3
100
AcDbLine
 10
8.487926473143486
 20
138.4999995915839
 30
0.0
 11
7.999999643143496
 21
138.4999995915839
 31
0.0
  0
LINE
  5
ACC
330
ACA
100
AcDbEntity
  8
0
 62
     3
100
AcDbLine
 10
19.9999996431435
 20
276.9999995915839
 30
0.0
 11
19.9999996431435
 21
-0.0000004084160992
 31
0.0
  0
LINE
  5
ACD
330
ACA
100
AcDbEntity
  8
0
 62
   254
100
AcDbLine
 10
-0.0000003568565035
 20
286.9999995915839
 30
0.0
 11
-0.0000003568565035
 21
-0.0000004084160992
 31
0.0
  0
LINE
  5
ACE
330
ACA
100
AcDbEntity
  8
0
 62
     3
100
AcDbLine
 10
199.9999996431435
 20
-0.0000004084160992
 30
0.0
 11
199.9999996431435
 21
276.9999995915839
 31
0.0
  0
LINE
  5
ACF
330
ACA
100
AcDbEntity
  8
0
 62
     3
100
AcDbLine
 10
19.9999996431435
 20
-0.0000004084160992
 30
0.0
 11
199.9999996431435
 21
-0.0000004084160992
 31
0.0
  0
LINE
  5
AD0
330
ACA
100
AcDbEntity
  8
0
 62
     3
100
AcDbLine
 10
85.32766227314345
 20
276.9999995915839
 30
0.0
 11
199.9999996431435
 21
276.9999995915839
 31
0.0
  0
LINE
  5
AD1
330
ACA
100
AcDbEntity
  8
0
 62
   254
100
AcDbLine
 10
-0.0000003568565035
 20
286.9999995915839
 30
0.0
 11
199.9999996431435
 21
286.9999995915839
 31
0.0
  0
LINE
  5
AD2
330
ACA
100
AcDbEntity
  8
0
 62
     3
100
AcDbLine
 10
51.91491575314353
 20
276.9999995915839
 30
0.0
 11
19.9999996431435
 21
276.9999995915839
 31
0.0
  0
LINE
  5
AD3
330
ACA
100
AcDbEntity
  8
0
 62
     3
100
AcDbLine
 10
147.9999996431435
 20
-0.0000004084160992
 30
0.0
 11
147.9999996431435
 21
39.99999959158391
 31
0.0
  0
LINE
  5
AD4
330
ACA
100
AcDbEntity
  8
0
 62
     3
100
AcDbLine
 10
160.9999996431435
 20
9.9999995915839
 30
0.0
 11
160.9999996431435
 21
37.9999995915839
 31
0.0
  0
LINE
  5
AD5
330
ACA
100
AcDbEntity
  8
0
 62
     3
100
AcDbLine
 10
120.9999996431435
 20
9.9999995915839
 30
0.0
 11
120.9999996431435
 21
23.99999959158389
 31
0.0
  0
LINE
  5
AD6
330
ACA
100
AcDbEntity
  8
0
 62
     3
100
AcDbLine
 10
130.9999996431435
 20
23.99999959158389
 30
0.0
 11
130.9999996431435
 21
-0.0000004084160992
 31
0.0
  0
LINE
  5
AD7
330
ACA
100
AcDbEntity
  8
0
 62
     3
100
AcDbLine
 10
101.9999996431435
 20
39.99999959158389
 30
0.0
 11
101.9999996431435
 21
16.99999959158391
 31
0.0
  0
LINE
  5
AD8
330
ACA
100
AcDbEntity
  8
0
 62
     3
100
AcDbLine
 10
160.9999996431435
 20
37.9999995915839
 30
0.0
 11
160.9999996431435
 21
39.99999959158391
 31
0.0
  0
LINE
  5
AD9
330
ACA
100
AcDbEntity
  8
0
 62
     3
100
AcDbLine
 10
173.9999996431435
 20
16.99999959158391
 30
0.0
 11
173.9999996431435
 21
39.99999959158391
 31
0.0
  0
LINE
  5
ADA
330
ACA
100
AcDbEntity
  8
0
 62
     3
100
AcDbLine
 10
199.9999996431435
 20
39.99999959158391
 30
0.0
 11
88.75456500314362
 21
39.99999959158392
 31
0.0
  0
LINE
  5
ADB
330
ACA
100
AcDbEntity
  8
0
 62
     3
100
AcDbLine
 10
199.9999996431435
 20
30.9999995915839
 30
0.0
 11
88.75456500314353
 21
30.99999959158391
 31
0.0
  0
LINE
  5
ADC
330
ACA
100
AcDbEntity
  8
0
 62
     3
100
AcDbLine
 10
199.9999996431435
 20
16.99999959158391
 30
0.0
 11
88.75456500314353
 21
16.99999959158391
 31
0.0
  0
LINE
  5
ADD
330
ACA
100
AcDbEntity
  8
0
 62
     3
100
AcDbLine
 10
199.9999996431435
 20
9.9999995915839
 30
0.0
 11
88.69655714314342
 21
9.9999995915839
 31
0.0
  0
LINE
  5
ADE
330
ACA
100
AcDbEntity
  8
0
 62
     3
100
AcDbLine
 10
186.9999996431435
 20
16.99999959158391
 30
0.0
 11
186.9999996431435
 21
39.99999959158391
 31
0.0
  0
LINE
  5
ADF
330
ACA
100
AcDbEntity
  8
0
 62
     3
100
AcDbLine
 10
88.75456500314353
 20
39.99999959158392
 30
0.0
 11
88.75456500314353
 21
-0.0000004084160992
 31
0.0
  0
LINE
  5
AE0
330
ACA
100
AcDbEntity
  8
0
 62
     3
100
AcDbLine
 10
147.9999996431435
 20
23.99999959158389
 30
0.0
 11
88.75456500314353
 21
23.99999959158389
 31
0.0
  0
LINE
  5
AE1
330
ACA
100
AcDbEntity
  8
0
 62
     3
100
AcDbLine
 10
131.2783245731434
 20
4.832860851583888
 30
0.0
 11
147.9999996431435
 21
4.832860851583888
 31
0.0
  0
TEXT
  5
AE2
330
ACA
100
AcDbEntity
  8
0
 62
     3
100
AcDbText
 10
132.1643250564592
 20
19.07309644494925
 30
0.0
 40
2.5
  1
******
  7
高2.5
100
AcDbText
  0
TEXT
  5
AE3
330
ACA
100
AcDbEntity
  8
0
 62
     3
100
AcDbText
 10
103.1963683383957
 20
19.2978139965678
 30
0.0
 40
2.5
  1
*****
  7
高2.5
100
AcDbText
  0
TEXT
  5
AE4
330
ACA
100
AcDbEntity
  8
0
 62
     3
100
AcDbText
 10
103.4612760930931
 20
32.31224911534179
 30
0.0
 40
4.5
  1
**********
  7
高4.5
100
AcDbText
1001
ACAD
1000
ACAD_MTEXT_DEFINED_HEIGHT_BEGIN
1070
    46
1040
0.0
1000
ACAD_MTEXT_DEFINED_HEIGHT_END
  0
TEXT
  5
AE5
330
ACA
100
AcDbEntity
  8
0
 62
     3
100
AcDbText
 10
190.0655887366175
 20
36.51369169028749
 30
0.0
 40
2.0
  1
DEF
  7
高2
100
AcDbText
  0
TEXT
  5
AE6
330
ACA
100
AcDbEntity
  8
0
 62
     3
100
AcDbText
 10
176.1264903829093
 20
36.5136916902874
 30
0.0
 40
2.0
  1
DESN
  7
高2
100
AcDbText
  0
TEXT
  5
AE7
330
ACA
100
AcDbEntity
  8
0
 62
     3
100
AcDbText
 10
149.8721234429091
 20
36.51369169028749
 30
0.0
 40
2.0
  1
APPD
  7
高2
100
AcDbText
  0
TEXT
  5
AE8
330
ACA
100
AcDbEntity
  8
0
 62
     3
100
AcDbText
 10
162.9848595431434
 20
36.51369169028751
 30
0.0
 40
2.0
  1
CHCK
  7
高2
100
AcDbText
  0
TEXT
  5
AE9
330
ACA
100
AcDbEntity
  8
0
 62
     3
100
AcDbText
 10
121.9271652822962
 20
14.16839841481461
 30
0.0
 40
2.0
  1
SCALE
 41
0.8
  7
高2
100
AcDbText
  0
TEXT
  5
AEA
330
ACA
100
AcDbEntity
  8
0
 62
     3
100
AcDbText
 10
90.43914370618962
 20
14.16839841481463
 30
0.0
 40
2.0
  1
3AD　ANGLE
 41
1.5
  7
高2
100
AcDbText
  0
TEXT
  5
AEB
330
ACA
100
AcDbEntity
  8
0
 62
     3
100
AcDbText
 10
121.1965709731449
 20
20.91993648377173
 30
0.0
 40
2.0
  1
REMARKS
 41
0.7
  7
高2
100
AcDbText
  0
TEXT
  5
AEC
330
ACA
100
AcDbEntity
  8
0
 62
     3
100
AcDbText
 10
90.22223535314344
 20
20.99999959158391
 30
0.0
 40
2.0
  1
MATERIAL
 41
0.7
  7
高2
100
AcDbText
  0
TEXT
  5
AED
330
ACA
100
AcDbEntity
  8
0
 62
     3
100
AcDbText
 10
90.7987225558976
 20
27.99999959158389
 30
0.0
 40
2.0
  1
MODEL
  7
高2
100
AcDbText
  0
TEXT
  5
AEE
330
ACA
100
AcDbEntity
  8
0
 62
     3
100
AcDbText
 10
90.43564343722879
 20
36.70702094218292
 30
0.0
 40
2.0
  1
CONPONENTS
 41
0.5
  7
高2
100
AcDbText
  0
TEXT
  5
AEF
330
ACA
100
AcDbEntity
  8
0
 62
     3
100
AcDbText
 10
103.1427589083956
 20
25.08748071939586
 30
0.0
 40
4.5
  1
********
  7
高4.5
100
AcDbText
  0
TEXT
  5
AF0
330
ACA
100
AcDbEntity
  8
0
 62
     3
100
AcDbText
 10
151.065045373762
 20
1.231861447008212
 30
0.0
 40
6.299999999999998
  1
*-********
 41
0.6
  7
高6.3
100
AcDbText
1001
ACAD
1000
ACAD_MTEXT_DEFINED_HEIGHT_BEGIN
1070
    46
1040
0.0
1000
ACAD_MTEXT_DEFINED_HEIGHT_END
  0
TEXT
  5
AF1
330
ACA
100
AcDbEntity
  8
0
 62
     3
100
AcDbText
 10
164.563509393473
 20
11.1008887498169
 30
0.0
 40
3.2
  1
******
  7
高3.2
100
AcDbText
1001
ACAD
1000
ACAD_MTEXT_DEFINED_HEIGHT_BEGIN
1070
    46
1040
0.0
1000
ACAD_MTEXT_DEFINED_HEIGHT_END
  0
TEXT
  5
AF2
330
ACA
100
AcDbEntity
  8
0
 62
     3
100
AcDbText
 10
134.7875975377898
 20
11.10091659415177
 30
0.0
 40
3.2
  1
1/1
  7
高3.2
100
AcDbText
  0
TEXT
  5
AF3
330
ACA
100
AcDbEntity
  8
0
 62
     3
100
AcDbText
 10
131.8649265131434
 20
0.8168777647198622
 30
0.0
 40
3.2
  1
ZK-A4Y
 41
0.8
  7
高3.2
100
AcDbText
  0
TEXT
  5
AF4
330
ACA
100
AcDbEntity
  8
0
 62
     3
100
AcDbText
 10
89.58526604314341
 20
6.524620013771727
 30
0.0
 40
2.0
  1
NICHIDO IND.CO.LTD
 41
1.3
  7
高2
100
AcDbText
  0
TEXT
  5
AF5
330
ACA
100
AcDbEntity
  8
0
 62
     3
100
AcDbText
 10
90.76678930810066
 20
32.14052779946884
 30
0.0
 40
3.2
  1
品 名
  7
高3.2
100
AcDbText
1001
ACAD
1000
ACAD_MTEXT_DEFINED_HEIGHT_BEGIN
1070
    46
1040
0.0
1000
ACAD_MTEXT_DEFINED_HEIGHT_END
  0
TEXT
  5
AF6
330
ACA
100
AcDbEntity
  8
0
 62
     3
100
AcDbText
 10
90.76678930810066
 20
24.49999959158389
 30
0.0
 40
3.2
  1
型 式
  7
高3.2
100
AcDbText
1001
ACAD
1000
ACAD_MTEXT_DEFINED_HEIGHT_BEGIN
1070
    46
1040
3.064735913775954
1000
ACAD_MTEXT_DEFINED_HEIGHT_END
  0
TEXT
  5
AF7
330
ACA
100
AcDbEntity
  8
0
 62
     3
100
AcDbText
 10
90.76678930810066
 20
17.4999995915839
 30
0.0
 40
3.2
  1
材 質
  7
高3.2
100
AcDbText
1001
ACAD
1000
ACAD_MTEXT_DEFINED_HEIGHT_BEGIN
1070
    46
1040
0.0
1000
ACAD_MTEXT_DEFINED_HEIGHT_END
  0
TEXT
  5
AF8
330
ACA
100
AcDbEntity
  8
0
 62
     3
100
AcDbText
 10
90.46175435810059
 20
10.46743958383014
 30
0.0
 40
3.2
  1
第 三 角 法
  7
高3.2
100
AcDbText
1001
ACAD
1000
ACAD_MTEXT_DEFINED_HEIGHT_BEGIN
1070
    46
1040
0.0
1000
ACAD_MTEXT_DEFINED_HEIGHT_END
  0
TEXT
  5
AF9
330
ACA
100
AcDbEntity
  8
0
 62
     3
100
AcDbText
 10
88.86828696562952
 20
1.140527799468833
 30
0.0
 40
3.2
  1
日動工業株式会社
 41
1.199999999999999
  7
高3.2
100
AcDbText
1001
ACAD
1000
ACAD_MTEXT_DEFINED_HEIGHT_BEGIN
1070
    46
1040
0.0
1000
ACAD_MTEXT_DEFINED_HEIGHT_END
  0
TEXT
  5
AFA
330
ACA
100
AcDbEntity
  8
0
 62
     3
100
AcDbText
 10
122.503911165108
 20
17.38457812475146
 30
0.0
 40
3.2
  1
備考
  7
高3.2
100
AcDbText
1001
ACAD
1000
ACAD_MTEXT_DEFINED_HEIGHT_BEGIN
1070
    46
1040
0.0
1000
ACAD_MTEXT_DEFINED_HEIGHT_END
  0
TEXT
  5
AFB
330
ACA
100
AcDbEntity
  8
0
 62
     3
100
AcDbText
 10
132.1529686121434
 20
6.146229617154192
 30
0.0
 40
2.5
  1
出図コード
  7
高2.5
100
AcDbText
1001
ACAD
1000
ACAD_MTEXT_DEFINED_HEIGHT_BEGIN
1070
    46
1040
0.0
1000
ACAD_MTEXT_DEFINED_HEIGHT_END
  0
TEXT
  5
AFC
330
ACA
100
AcDbEntity
  8
0
 62
     3
100
AcDbText
 10
122.3451450470205
 20
10.45323450199681
 30
0.0
 40
3.2
  1
尺度
  7
高3.2
100
AcDbText
1001
ACAD
1000
ACAD_MTEXT_DEFINED_HEIGHT_BEGIN
1070
    46
1040
0.0
1000
ACAD_MTEXT_DEFINED_HEIGHT_END
  0
TEXT
  5
AFD
330
ACA
100
AcDbEntity
  8
0
 62
     3
100
AcDbText
 10
149.4914065287993
 20
11.58471295011431
 30
0.0
 40
3.2
  1
作成日
  7
高3.2
100
AcDbText
1001
ACAD
1000
ACAD_MTEXT_DEFINED_HEIGHT_BEGIN
1070
    46
1040
0.0
1000
ACAD_MTEXT_DEFINED_HEIGHT_END
  0
TEXT
  5
AFE
330
ACA
100
AcDbEntity
  8
0
 62
     3
100
AcDbText
 10
149.3858805356633
 20
32.14052779946884
 30
0.0
 40
3.2
  1
承 認
  7
高3.2
100
AcDbText
1001
ACAD
1000
ACAD_MTEXT_DEFINED_HEIGHT_BEGIN
1070
    46
1040
0.0
1000
ACAD_MTEXT_DEFINED_HEIGHT_END
  0
TEXT
  5
AFF
330
ACA
100
AcDbEntity
  8
0
 62
     3
100
AcDbText
 10
162.3858805356632
 20
32.14052779946884
 30
0.0
 40
3.2
  1
検 図
  7
高3.2
100
AcDbText
1001
ACAD
1000
ACAD_MTEXT_DEFINED_HEIGHT_BEGIN
1070
    46
1040
0.0
1000
ACAD_MTEXT_DEFINED_HEIGHT_END
  0
TEXT
  5
B00
330
ACA
100
AcDbEntity
  8
0
 62
     3
100
AcDbText
 10
175.3858805356632
 20
32.14052779946884
 30
0.0
 40
3.2
  1
設 計
  7
高3.2
100
AcDbText
1001
ACAD
1000
ACAD_MTEXT_DEFINED_HEIGHT_BEGIN
1070
    46
1040
0.0
1000
ACAD_MTEXT_DEFINED_HEIGHT_END
  0
TEXT
  5
B01
330
ACA
100
AcDbEntity
  8
0
 62
     3
100
AcDbText
 10
188.6865170556632
 20
32.14052779946884
 30
0.0
 40
3.2
  1
製 図
  7
高3.2
100
AcDbText
1001
ACAD
1000
ACAD_MTEXT_DEFINED_HEIGHT_BEGIN
1070
    46
1040
0.0
1000
ACAD_MTEXT_DEFINED_HEIGHT_END
  0
LINE
  5
B02
330
ACA
100
AcDbEntity
  8
0
 62
     3
100
AcDbLine
 10
59.25293360287718
 20
278.4481801852499
 30
0.0
 11
59.25293360287718
 21
275.2948313915841
 31
0.0
  0
LINE
  5
B03
330
ACA
100
AcDbEntity
  8
0
 62
     3
100
AcDbLine
 10
59.89576267797656
 20
277.2171083655226
 30
0.0
 11
59.89576267797656
 21
275.2948313915841
 31
0.0
  0
LINE
  5
B04
330
ACA
100
AcDbEntity
  8
0
 62
     3
100
AcDbLine
 10
61.6998595658506
 20
278.4481801852499
 30
0.0
 11
61.6998595658506
 21
277.0597132644989
 31
0.0
  0
LINE
  5
B05
330
ACA
100
AcDbEntity
  8
0
 62
     3
100
AcDbLine
 10
62.34268796709443
 20
278.4481801852499
 30
0.0
 11
62.34268796709443
 21
274.8721993930075
 31
0.0
  0
LINE
  5
B06
330
ACA
100
AcDbEntity
  8
0
 62
     3
100
AcDbLine
 10
63.36663412467465
 20
278.4265210809052
 30
0.0
 11
63.36663412467465
 21
275.2732106969974
 31
0.0
  0
LINE
  5
B07
330
ACA
100
AcDbEntity
  8
0
 62
     3
100
AcDbLine
 10
64.38515577894964
 20
278.4265069299419
 30
0.0
 11
64.38515577894964
 21
275.2731965460339
 31
0.0
  0
LINE
  5
B08
330
ACA
100
AcDbEntity
  8
0
 62
     3
100
AcDbLine
 10
68.15597884937665
 20
278.4264597600639
 30
0.0
 11
68.15592359323386
 21
275.2731500500114
 31
0.0
  0
LINE
  5
B09
330
ACA
100
AcDbEntity
  8
0
 62
     3
100
AcDbLine
 10
71.27184308874848
 20
278.4264597600639
 30
0.0
 11
71.27189834489104
 21
275.2731500500114
 31
0.0
  0
LINE
  5
B0A
330
ACA
100
AcDbEntity
  8
0
 62
     3
100
AcDbLine
 10
70.23141843857614
 20
277.05262965244
 30
0.0
 11
69.19640349954898
 21
277.05262965244
 31
0.0
  0
LINE
  5
B0B
330
ACA
100
AcDbEntity
  8
0
 62
     3
100
AcDbLine
 10
70.23141170002213
 20
276.6470738235357
 30
0.0
 11
69.19641091195831
 21
276.6470738235357
 31
0.0
  0
LINE
  5
B0C
330
ACA
100
AcDbEntity
  8
0
 62
     3
100
AcDbLine
 10
70.23144269737054
 20
278.4264597600639
 30
0.0
 11
70.23141843857614
 21
277.05262965244
 31
0.0
  0
LINE
  5
B0D
330
ACA
100
AcDbEntity
  8
0
 62
     3
100
AcDbLine
 10
70.23141170002213
 20
276.6470738235357
 30
0.0
 11
70.23138744122753
 21
275.2731500500114
 31
0.0
  0
LINE
  5
B0E
330
ACA
100
AcDbEntity
  8
0
 62
     3
100
AcDbLine
 10
69.19637924075459
 20
278.4264597600639
 30
0.0
 11
69.19640349954898
 21
277.05262965244
 31
0.0
  0
LINE
  5
B0F
330
ACA
100
AcDbEntity
  8
0
 62
     3
100
AcDbLine
 10
69.19641091195831
 20
276.6470738235357
 30
0.0
 11
69.19643449689714
 21
275.2731500500114
 31
0.0
  0
LINE
  5
B10
330
ACA
100
AcDbEntity
  8
0
 62
     3
100
AcDbLine
 10
72.29826422648716
 20
278.4264597600639
 30
0.0
 11
72.29820897034461
 21
275.2731500500114
 31
0.0
  0
LINE
  5
B11
330
ACA
100
AcDbEntity
  8
0
 62
     3
100
AcDbLine
 10
73.31676431738968
 20
278.4264597600639
 30
0.0
 11
73.31681889967693
 21
275.2731500500114
 31
0.0
  0
LINE
  5
B12
330
ACA
100
AcDbEntity
  8
0
 62
     3
100
AcDbLine
 10
74.35500991471371
 20
278.4264597600639
 30
0.0
 11
74.35495533242647
 21
275.2731500500114
 31
0.0
  0
ARC
  5
B13
330
ACA
100
AcDbEntity
  8
0
 62
     3
100
AcDbCircle
 10
66.62693773325168
 20
276.8588908343133
 30
0.0
 40
2.008364022758428
100
AcDbArc
 50
97.70152399999972
 51
266.0248408089554
  0
ARC
  5
B14
330
ACA
100
AcDbEntity
  8
0
 62
     3
100
AcDbCircle
 10
78.74673843866117
 20
276.8387169513708
 30
0.0
 40
2.030175374321248
100
AcDbArc
 50
0.3142499999973636
 51
69.00558199999754
  0
ARC
  5
B15
330
ACA
100
AcDbEntity
  8
0
 62
     3
100
AcDbCircle
 10
79.19020739389337
 20
276.8387169513708
 30
0.0
 40
2.030175374321248
100
AcDbArc
 50
110.9944180000024
 51
148.1166110000007
  0
ARC
  5
B16
330
ACA
100
AcDbEntity
  8
0
 62
     3
100
AcDbCircle
 10
78.74673843866117
 20
276.8609865246051
 30
0.0
 40
2.030175374321248
100
AcDbArc
 50
290.9944180000024
 51
359.685749999999
  0
ARC
  5
B17
330
ACA
100
AcDbEntity
  8
0
 62
     3
100
AcDbCircle
 10
79.19020739389337
 20
276.8609865246051
 30
0.0
 40
2.030175374321248
100
AcDbArc
 50
211.8833889999977
 51
249.0055819999976
  0
ARC
  5
B18
330
ACA
100
AcDbEntity
  8
0
 62
     3
100
AcDbCircle
 10
78.96847325320504
 20
277.6804317521362
 30
0.0
 40
1.168726044333501
100
AcDbArc
 50
64.3651719999999
 51
115.6348280000001
  0
ARC
  5
B19
330
ACA
100
AcDbEntity
  8
0
 62
     3
100
AcDbCircle
 10
78.96847325320504
 20
276.0192717238397
 30
0.0
 40
1.168726044333501
100
AcDbArc
 50
244.3651719999999
 51
295.6348280000002
  0
ARC
  5
B1A
330
ACA
100
AcDbEntity
  8
0
 62
     3
100
AcDbCircle
 10
78.96847325320504
 20
277.7026325921198
 30
0.0
 40
0.5736005406576802
100
AcDbArc
 50
19.48660599999859
 51
160.5133940000014
  0
ARC
  5
B1B
330
ACA
100
AcDbEntity
  8
0
 62
     3
100
AcDbCircle
 10
78.96847325320504
 20
275.9970715577115
 30
0.0
 40
0.5736005406576802
100
AcDbArc
 50
199.4866059999986
 51
340.5133940000014
  0
LINE
  5
B1C
330
ACA
100
AcDbEntity
  8
0
 62
     3
100
AcDbLine
 10
73.65396743405449
 20
274.8505456795062
 30
0.0
 11
71.96106110982238
 21
274.8505456795062
 31
0.0
  0
LINE
  5
B1D
330
ACA
100
AcDbEntity
  8
0
 62
     3
100
AcDbLine
 10
73.65396743405449
 20
275.0542049968205
 30
0.0
 11
73.65396743405449
 21
274.8505456795062
 31
0.0
  0
LINE
  5
B1E
330
ACA
100
AcDbEntity
  8
0
 62
     3
100
AcDbLine
 10
71.6090468792688
 20
278.8490627828584
 30
0.0
 11
69.89423958070552
 21
278.8490627828584
 31
0.0
  0
LINE
  5
B1F
330
ACA
100
AcDbEntity
  8
0
 62
     3
100
AcDbLine
 10
71.6090468792688
 20
278.8490627828584
 30
0.0
 11
71.6090468792688
 21
278.6454984791553
 31
0.0
  0
LINE
  5
B20
330
ACA
100
AcDbEntity
  8
0
 62
     3
100
AcDbLine
 10
71.6090468792688
 20
275.0542049968205
 30
0.0
 11
71.6090468792688
 21
274.8504506658949
 31
0.0
  0
LINE
  5
B21
330
ACA
100
AcDbEntity
  8
0
 62
     3
100
AcDbLine
 10
71.6090468792688
 20
274.8504506658949
 30
0.0
 11
69.89423958070552
 21
274.8504506658949
 31
0.0
  0
LINE
  5
B22
330
ACA
100
AcDbEntity
  8
0
 62
     3
100
AcDbLine
 10
73.65396743405449
 20
278.8491577964696
 30
0.0
 11
73.65396743405449
 21
278.6454984791553
 31
0.0
  0
LINE
  5
B23
330
ACA
100
AcDbEntity
  8
0
 62
     3
100
AcDbLine
 10
73.65396743405449
 20
278.8491577964696
 30
0.0
 11
71.96106110982238
 21
278.8491577964696
 31
0.0
  0
LINE
  5
B24
330
ACA
100
AcDbEntity
  8
0
 62
     3
100
AcDbLine
 10
71.96106110982238
 20
278.8491577964696
 30
0.0
 11
71.96106110982238
 21
278.6454984791553
 31
0.0
  0
LINE
  5
B25
330
ACA
100
AcDbEntity
  8
0
 62
     3
100
AcDbLine
 10
74.01780679804892
 20
275.0542049968205
 30
0.0
 11
74.01780679804892
 21
274.8505456795062
 31
0.0
  0
LINE
  5
B26
330
ACA
100
AcDbEntity
  8
0
 62
     3
100
AcDbLine
 10
75.84572495832481
 20
274.8505456795062
 30
0.0
 11
74.01780679804892
 21
274.8505456795062
 31
0.0
  0
LINE
  5
B27
330
ACA
100
AcDbEntity
  8
0
 62
     3
100
AcDbLine
 10
75.37351000561624
 20
278.2063293952258
 30
0.0
 11
75.37351000561624
 21
275.4933740807501
 31
0.0
  0
LINE
  5
B28
330
ACA
100
AcDbEntity
  8
0
 62
     3
100
AcDbLine
 10
75.37351000561624
 20
275.4933740807501
 30
0.0
 11
75.55646039880094
 21
275.4933740807501
 31
0.0
  0
ARC
  5
B29
330
ACA
100
AcDbEntity
  8
0
 62
     3
100
AcDbCircle
 10
74.62097053296566
 20
276.8498517379879
 30
0.0
 40
1.647777933922859
100
AcDbArc
 50
304.5919550000009
 51
55.40804499999918
  0
LINE
  5
B2A
330
ACA
100
AcDbEntity
  8
0
 62
     3
100
AcDbLine
 10
75.84572495832481
 20
278.8491577964696
 30
0.0
 11
74.01780679804892
 21
278.8491577964696
 31
0.0
  0
LINE
  5
B2B
330
ACA
100
AcDbEntity
  8
0
 62
     3
100
AcDbLine
 10
74.01780679804892
 20
278.8491577964696
 30
0.0
 11
74.01780679804892
 21
278.6454984791553
 31
0.0
  0
LINE
  5
B2C
330
ACA
100
AcDbEntity
  8
0
 62
     3
100
AcDbLine
 10
71.96106110982238
 20
275.0542049968205
 30
0.0
 11
71.96106110982238
 21
274.8505456795062
 31
0.0
  0
LINE
  5
B2D
330
ACA
100
AcDbEntity
  8
0
 62
     3
100
AcDbLine
 10
75.37351000561624
 20
278.2063293952258
 30
0.0
 11
75.55646039880094
 21
278.2063293952258
 31
0.0
  0
LINE
  5
B2E
330
ACA
100
AcDbEntity
  8
0
 62
     3
100
AcDbLine
 10
64.72230027005207
 20
275.0541986224044
 30
0.0
 11
64.72229622691975
 21
274.8505204371389
 31
0.0
  0
LINE
  5
B2F
330
ACA
100
AcDbEntity
  8
0
 62
     3
100
AcDbLine
 10
58.91573048621217
 20
274.8721993930075
 30
0.0
 11
60.23296579464136
 21
274.8721993930075
 31
0.0
  0
ARC
  5
B30
330
ACA
100
AcDbEntity
  8
0
 62
     3
100
AcDbCircle
 10
53.62514174043872
 20
276.8969319931671
 30
0.0
 40
14.16402202796531
100
AcDbArc
 50
353.8660059999992
 51
357.694034000001
  0
LINE
  5
B31
330
ACA
100
AcDbEntity
  8
0
 62
     3
100
AcDbLine
 10
66.82941578205123
 20
276.3305396837151
 30
0.0
 11
67.77769474950878
 21
276.3270309186513
 31
0.0
  0
LWPOLYLINE
  5
B32
330
ACA
100
AcDbEntity
  8
0
 62
     3
100
AcDbPolyline
 90
       64
 70
     0
 43
0.0
 10
66.83324530228515
 20
277.3655957279217
 10
66.81531333625571
 20
277.4804085585561
 10
66.79377759155113
 20
277.5903480669433
 10
66.76880518431062
 20
277.6945638475691
 10
66.7405874894671
 20
277.7922499693764
 10
66.70934418388106
 20
277.8826523881731
 10
66.67531583392997
 20
277.965071642055
 10
66.63876524321927
 20
278.0388702638143
 10
66.59997610487244
 20
278.1034788456387
 10
66.5592476106865
 20
278.1583980606774
 10
66.51689445113311
 20
278.2032020323179
 10
66.47324411993621
 20
278.2375457465958
 10
66.42863354479527
 20
278.2611630306287
 10
66.3834084135301
 20
278.2738719434584
 10
66.3379177832378
 20
278.275574102197
 10
66.29251340643645
 20
278.2662553558807
 10
66.24754568793401
 20
278.2459891547484
 10
66.20336301097154
 20
278.2149318332525
 10
66.1603070202366
 20
278.1733226100598
 10
66.11870925258563
 20
278.1214835880512
 10
66.07889248475498
 20
278.059815711189
 10
66.04116399480678
 20
277.9887953952409
 10
66.00581556212842
 20
277.9089711585015
 10
65.97312009815687
 20
277.8209609263721
 10
65.94333029866698
 20
277.7254446189504
 10
65.91667729606047
 20
277.6231607817542
 10
65.89336594237898
 20
277.5148991733112
 10
65.8735768308693
 20
277.4014967220273
 10
65.85746360056259
 20
277.2838307876325
 10
65.84514956699672
 20
277.1628104010602
 10
65.8367310914939
 20
277.0393708736045
 10
65.8322728641724
 20
276.9144670583663
 10
65.83180857780234
 20
276.7890632424218
 10
65.83534294937158
 20
276.6641291036907
 10
65.84284767695293
 20
276.5406309508153
 10
65.85426548283772
 20
276.4195222891857
 10
65.86950809196878
 20
276.3017404516621
 10
65.88845690579546
 20
276.1881951430336
 10
65.91096637155192
 20
276.0797643968855
 10
65.93686196068961
 20
275.9772851416234
 10
65.9659442120103
 20
275.8815511789078
 10
65.9979873839552
 20
275.7933010542562
 10
66.03274417159309
 20
275.7132180570435
 10
66.06994638047467
 20
275.6419207865263
 10
66.10930560048927
 20
275.5799597825655
 10
66.1505179228518
 20
275.5278141563501
 10
66.1932652878138
 20
275.4858875472644
 10
66.23721683237431
 20
275.4545040797554
 10
66.28203293341198
 20
275.4339056679111
 10
66.32736722925165
 20
275.4242513416061
 10
66.37286931508583
 20
275.425616572645
 10
66.41818743839599
 20
275.437989905486
 10
66.46297119437463
 20
275.4612770003731
 10
66.50687489520167
 20
275.4952965902041
 10
66.54955824390071
 20
275.5397865452286
 10
66.59069239903693
 20
275.5944018514821
 10
66.62995862700654
 20
275.6587220231956
 10
66.66705369287956
 20
275.7322484073737
 10
66.70169120811171
 20
275.81441361777
 10
66.73360297825388
 20
275.9045822087433
 10
66.76254237222997
 20
276.0020574138105
 10
66.78828567004734
 20
276.1060851887801
 10
66.81063475821884
 20
276.2158622980159
 10
66.82941578205123
 20
276.3305396837151
  0
LINE
  5
B33
330
ACA
100
AcDbEntity
  8
0
 62
     3
100
AcDbLine
 10
66.83324530228515
 20
277.3655957279217
 30
0.0
 11
67.7815242697427
 21
277.3620869628577
 31
0.0
  0
ARC
  5
B34
330
ACA
100
AcDbEntity
  8
0
 62
     3
100
AcDbCircle
 10
53.62514174043872
 20
276.8969319931671
 30
0.0
 40
14.16402202796531
100
AcDbArc
 50
1.881965999999206
 51
5.709993999999093
  0
LINE
  5
B35
330
ACA
100
AcDbEntity
  8
0
 62
     3
100
AcDbLine
 10
64.72236630803535
 20
278.8491402896916
 30
0.0
 11
64.72236293875835
 21
278.6454998403284
 31
0.0
  0
LINE
  5
B36
330
ACA
100
AcDbEntity
  8
0
 62
     3
100
AcDbLine
 10
63.02939394595137
 20
275.0542036356474
 30
0.0
 11
63.02939057667436
 21
274.8505631862842
 31
0.0
  0
LINE
  5
B37
330
ACA
100
AcDbEntity
  8
0
 62
     3
100
AcDbLine
 10
63.02945998378049
 20
278.8491759773598
 30
0.0
 11
63.02945661450348
 21
278.6454971182388
 31
0.0
  0
LINE
  5
B38
330
ACA
100
AcDbEntity
  8
0
 62
     3
100
AcDbLine
 10
60.23296579464136
 20
275.075858710322
 30
0.0
 11
60.23296579464136
 21
274.8721993930075
 31
0.0
  0
LINE
  5
B39
330
ACA
100
AcDbEntity
  8
0
 62
     3
100
AcDbLine
 10
59.89576267797656
 20
277.2171083655226
 30
0.0
 11
61.3613307857986
 21
274.8721993930075
 31
0.0
  0
LINE
  5
B3A
330
ACA
100
AcDbEntity
  8
0
 62
     3
100
AcDbLine
 10
61.3613307857986
 20
274.8721993930075
 30
0.0
 11
62.34268796709443
 21
274.8721993930075
 31
0.0
  0
LINE
  5
B3B
330
ACA
100
AcDbEntity
  8
0
 62
     3
100
AcDbLine
 10
62.67989108375922
 20
278.870811509971
 30
0.0
 11
62.67989108375922
 21
278.6671521926566
 31
0.0
  0
LINE
  5
B3C
330
ACA
100
AcDbEntity
  8
0
 62
     3
100
AcDbLine
 10
61.36265644918558
 20
278.870811509971
 30
0.0
 11
62.67989108375922
 21
278.870811509971
 31
0.0
  0
LINE
  5
B3D
330
ACA
100
AcDbEntity
  8
0
 62
     3
100
AcDbLine
 10
61.36265644918558
 20
278.870811509971
 30
0.0
 11
61.36265644918558
 21
278.6671521926566
 31
0.0
  0
LINE
  5
B3E
330
ACA
100
AcDbEntity
  8
0
 62
     3
100
AcDbLine
 10
61.6998595658506
 20
277.0597132644989
 30
0.0
 11
60.51132621591159
 21
278.870811509971
 31
0.0
  0
LINE
  5
B3F
330
ACA
100
AcDbEntity
  8
0
 62
     3
100
AcDbLine
 10
58.91573048621217
 20
278.870811509971
 30
0.0
 11
60.51132621591159
 21
278.870811509971
 31
0.0
  0
LINE
  5
B40
330
ACA
100
AcDbEntity
  8
0
 62
     3
100
AcDbLine
 10
67.81877573271163
 20
278.8490627828584
 30
0.0
 11
69.53358235741939
 21
278.8490627828583
 31
0.0
  0
LINE
  5
B41
330
ACA
100
AcDbEntity
  8
0
 62
     3
100
AcDbLine
 10
67.81877573271163
 20
278.6454984791553
 30
0.0
 11
67.81877573271163
 21
278.8490627828584
 31
0.0
  0
LINE
  5
B42
330
ACA
100
AcDbEntity
  8
0
 62
     3
100
AcDbLine
 10
67.81877573271163
 20
274.8504506658949
 30
0.0
 11
67.81877573271163
 21
275.0542049968205
 31
0.0
  0
LINE
  5
B43
330
ACA
100
AcDbEntity
  8
0
 62
     3
100
AcDbLine
 10
67.81877573271163
 20
274.8504506658948
 30
0.0
 11
69.53358235741939
 21
274.8504506658949
 31
0.0
  0
LINE
  5
B44
330
ACA
100
AcDbEntity
  8
0
 62
     3
100
AcDbLine
 10
69.89423958070552
 20
275.0542049968205
 30
0.0
 11
69.89423958070552
 21
274.8504506658949
 31
0.0
  0
LINE
  5
B45
330
ACA
100
AcDbEntity
  8
0
 62
     3
100
AcDbLine
 10
69.53358235741939
 20
275.0542049968205
 30
0.0
 11
69.53358235741939
 21
274.8504506658949
 31
0.0
  0
LINE
  5
B46
330
ACA
100
AcDbEntity
  8
0
 62
     3
100
AcDbLine
 10
69.53358235741939
 20
278.6454984791553
 30
0.0
 11
69.53358235741939
 21
278.8490627828584
 31
0.0
  0
LINE
  5
B47
330
ACA
100
AcDbEntity
  8
0
 62
     3
100
AcDbLine
 10
69.89423958070552
 20
278.6454984791553
 30
0.0
 11
69.89423958070552
 21
278.8490627828584
 31
0.0
  0
LINE
  5
B48
330
ACA
100
AcDbEntity
  8
0
 62
     3
100
AcDbLine
 10
58.91573048621217
 20
275.075858710322
 30
0.0
 11
58.91573048621217
 21
274.8721993930075
 31
0.0
  0
LINE
  5
B49
330
ACA
100
AcDbEntity
  8
0
 62
     3
100
AcDbLine
 10
58.91573048621217
 20
278.870811509971
 30
0.0
 11
58.91573048621217
 21
278.6671521926566
 31
0.0
  0
ARC
  5
B4A
330
ACA
100
AcDbEntity
  8
0
 62
     3
100
AcDbCircle
 10
76.0173242060589
 20
277.2693247024529
 30
0.0
 40
1.579833094016801
100
AcDbArc
 50
17.30874900000322
 51
23.76507099999849
  0
ARC
  5
B4B
330
ACA
100
AcDbEntity
  8
0
 62
     3
100
AcDbCircle
 10
74.67127580883515
 20
276.8498517379879
 30
0.0
 40
2.989728616463745
100
AcDbArc
 50
342.6912509999968
 51
17.30856599999721
  0
ARC
  5
B4C
330
ACA
100
AcDbEntity
  8
0
 62
     3
100
AcDbCircle
 10
76.0173242060589
 20
276.430378773523
 30
0.0
 40
1.579833094016801
100
AcDbArc
 50
336.2349290000015
 51
342.6912509999968
  0
ARC
  5
B4D
330
ACA
100
AcDbEntity
  8
0
 62
     3
100
AcDbCircle
 10
75.84572495832481
 20
277.2693247024529
 30
0.0
 40
1.579833094016801
100
AcDbArc
 50
17.30874900000322
 51
90.0
  0
ARC
  5
B4E
330
ACA
100
AcDbEntity
  8
0
 62
     3
100
AcDbCircle
 10
74.49967317843402
 20
276.8498607706099
 30
0.0
 40
2.989728616463745
100
AcDbArc
 50
342.6912509999968
 51
17.30856599999721
  0
ARC
  5
B4F
330
ACA
100
AcDbEntity
  8
0
 62
     3
100
AcDbCircle
 10
75.84572495832481
 20
276.430378773523
 30
0.0
 40
1.579833094016801
100
AcDbArc
 50
270.0
 51
342.6912509999968
  0
ARC
  5
B50
330
ACA
100
AcDbEntity
  8
0
 62
     3
100
AcDbCircle
 10
66.34906806852905
 20
276.8498517379879
 30
0.0
 40
1.999306058481751
100
AcDbArc
 50
46.7528800000023
 51
89.74999799999961
  0
ARC
  5
B51
330
ACA
100
AcDbEntity
  8
0
 62
     3
100
AcDbCircle
 10
66.34906806852905
 20
276.8498517379879
 30
0.0
 40
1.999306058481751
100
AcDbArc
 50
273.9763330000016
 51
312.8231199999934
  0
ARC
  5
B52
330
ACA
100
AcDbEntity
  8
0
 62
     3
100
AcDbCircle
 10
77.08381358307406
 20
276.8189878129916
 30
0.0
 40
2.652957925148358
100
AcDbArc
 50
0.666583999999372
 51
23.90392800000306
  0
ARC
  5
B53
330
ACA
100
AcDbEntity
  8
0
 62
     3
100
AcDbCircle
 10
80.8531322494805
 20
276.8189878129916
 30
0.0
 40
2.652957925148358
100
AcDbArc
 50
156.0960719999969
 51
179.3334160000006
  0
ARC
  5
B54
330
ACA
100
AcDbEntity
  8
0
 62
     3
100
AcDbCircle
 10
77.08381358307406
 20
276.8807156629842
 30
0.0
 40
2.652957925148358
100
AcDbArc
 50
336.0960719999969
 51
359.3334159999979
  0
ARC
  5
B55
330
ACA
100
AcDbEntity
  8
0
 62
     3
100
AcDbCircle
 10
80.8531322494805
 20
276.8807156629842
 30
0.0
 40
2.652957925148358
100
AcDbArc
 50
180.6665839999993
 51
203.903928000003
  0
LINE
  5
B56
330
ACA
100
AcDbEntity
  8
0
  6
Continuous
 62
     3
100
AcDbLine
 10
58.91573048621217
 20
278.6671521926566
 30
0.0
 11
59.25293360287718
 21
278.4481801852499
 31
0.0
  0
LINE
  5
B57
330
ACA
100
AcDbEntity
  8
0
  6
Continuous
 62
     3
100
AcDbLine
 10
61.36265644918558
 20
278.6671521926566
 30
0.0
 11
61.6998595658506
 21
278.4481801852499
 31
0.0
  0
LINE
  5
B58
330
ACA
100
AcDbEntity
  8
0
  6
Continuous
 62
     3
100
AcDbLine
 10
62.67989108375922
 20
278.6671521926566
 30
0.0
 11
62.34268796709443
 21
278.4481801852499
 31
0.0
  0
LINE
  5
B59
330
ACA
100
AcDbEntity
  8
0
  6
Continuous
 62
     3
100
AcDbLine
 10
63.02945661450348
 20
278.6454971182388
 30
0.0
 11
63.36663412467465
 21
278.4265210809052
 31
0.0
  0
LINE
  5
B5A
330
ACA
100
AcDbEntity
  8
0
  6
Continuous
 62
     3
100
AcDbLine
 10
64.72236293875835
 20
278.6454998403284
 30
0.0
 11
64.38515577894964
 21
278.4265069299419
 31
0.0
  0
LINE
  5
B5B
330
ACA
100
AcDbEntity
  8
0
  6
Continuous
 62
     3
100
AcDbLine
 10
67.81877573271163
 20
278.6454984791553
 30
0.0
 11
68.15597884937665
 21
278.4264597600639
 31
0.0
  0
LINE
  5
B5C
330
ACA
100
AcDbEntity
  8
0
  6
Continuous
 62
     3
100
AcDbLine
 10
69.53358235741939
 20
278.6454984791553
 30
0.0
 11
69.19637924075459
 21
278.4264597600639
 31
0.0
  0
LINE
  5
B5D
330
ACA
100
AcDbEntity
  8
0
  6
Continuous
 62
     3
100
AcDbLine
 10
69.89423958070552
 20
278.6454984791553
 30
0.0
 11
70.23144269737054
 21
278.4264597600639
 31
0.0
  0
LINE
  5
B5E
330
ACA
100
AcDbEntity
  8
0
  6
Continuous
 62
     3
100
AcDbLine
 10
71.6090468792688
 20
278.6454984791553
 30
0.0
 11
71.27184308874848
 21
278.4264597600639
 31
0.0
  0
LINE
  5
B5F
330
ACA
100
AcDbEntity
  8
0
  6
Continuous
 62
     3
100
AcDbLine
 10
71.96106110982238
 20
278.6454984791553
 30
0.0
 11
72.29826422648716
 21
278.4264597600639
 31
0.0
  0
LINE
  5
B60
330
ACA
100
AcDbEntity
  8
0
  6
Continuous
 62
     3
100
AcDbLine
 10
73.65396743405449
 20
278.6454984791553
 30
0.0
 11
73.31676431738968
 21
278.4264597600639
 31
0.0
  0
LINE
  5
B61
330
ACA
100
AcDbEntity
  8
0
  6
Continuous
 62
     3
100
AcDbLine
 10
74.01780679804892
 20
278.6454984791553
 30
0.0
 11
74.35500991471371
 21
278.4264597600639
 31
0.0
  0
LINE
  5
B62
330
ACA
100
AcDbEntity
  8
0
  6
Continuous
 62
     3
100
AcDbLine
 10
74.35495533242647
 20
275.2731500500114
 30
0.0
 11
74.01780679804892
 21
275.0542049968205
 31
0.0
  0
LINE
  5
B63
330
ACA
100
AcDbEntity
  8
0
  6
Continuous
 62
     3
100
AcDbLine
 10
73.31681889967693
 20
275.2731500500114
 30
0.0
 11
73.65396743405449
 21
275.0542049968205
 31
0.0
  0
LINE
  5
B64
330
ACA
100
AcDbEntity
  8
0
  6
Continuous
 62
     3
100
AcDbLine
 10
72.29820897034461
 20
275.2731500500114
 30
0.0
 11
71.96106110982238
 21
275.0542049968205
 31
0.0
  0
LINE
  5
B65
330
ACA
100
AcDbEntity
  8
0
  6
Continuous
 62
     3
100
AcDbLine
 10
71.6090468792688
 20
275.0542049968205
 30
0.0
 11
71.27189834489104
 21
275.2731500500114
 31
0.0
  0
LINE
  5
B66
330
ACA
100
AcDbEntity
  8
0
  6
Continuous
 62
     3
100
AcDbLine
 10
69.89423958070552
 20
275.0542049968205
 30
0.0
 11
70.23138744122753
 21
275.2731500500114
 31
0.0
  0
LINE
  5
B67
330
ACA
100
AcDbEntity
  8
0
  6
Continuous
 62
     3
100
AcDbLine
 10
69.53358235741939
 20
275.0542049968205
 30
0.0
 11
69.19643449689714
 21
275.2731500500114
 31
0.0
  0
LINE
  5
B68
330
ACA
100
AcDbEntity
  8
0
  6
Continuous
 62
     3
100
AcDbLine
 10
68.15592359323386
 20
275.2731500500114
 30
0.0
 11
67.81877573271163
 21
275.0542049968205
 31
0.0
  0
LINE
  5
B69
330
ACA
100
AcDbEntity
  8
0
  6
Continuous
 62
     3
100
AcDbLine
 10
64.72230027021101
 20
275.0542066299256
 30
0.0
 11
64.38515577894964
 21
275.2731965460339
 31
0.0
  0
LINE
  5
B6A
330
ACA
100
AcDbEntity
  8
0
  6
Continuous
 62
     3
100
AcDbLine
 10
63.02939394595137
 20
275.0542036356474
 30
0.0
 11
63.36656808684529
 21
275.2732106969974
 31
0.0
  0
LINE
  5
B6B
330
ACA
100
AcDbEntity
  8
0
  6
Continuous
 62
     3
100
AcDbLine
 10
60.23296579464136
 20
275.075858710322
 30
0.0
 11
59.89576267797656
 21
275.2948313915841
 31
0.0
  0
LINE
  5
B6C
330
ACA
100
AcDbEntity
  8
0
  6
Continuous
 62
     3
100
AcDbLine
 10
58.91573048621217
 20
275.075858710322
 30
0.0
 11
59.25293360287718
 21
275.2948313915841
 31
0.0
  0
LINE
  5
B6D
330
ACA
100
AcDbEntity
  8
0
  6
Continuous
 62
     3
100
AcDbLine
 10
64.72229622707867
 20
274.8505284446602
 30
0.0
 11
63.02939057667436
 21
274.8505631862842
 31
0.0
  0
LINE
  5
B6E
330
ACA
100
AcDbEntity
  8
0
  6
Continuous
 62
     3
100
AcDbLine
 10
63.02945998378049
 20
278.8491759773598
 30
0.0
 11
64.72236630803535
 21
278.8491402896916
 31
0.0
  0
ARC
  5
B6F
330
ACA
100
AcDbEntity
  8
0
  6
Continuous
 62
     3
100
AcDbCircle
 10
82.24372228088146
 20
276.8377054007734
 30
0.0
 40
0.9989999999999998
100
AcDbArc
 50
293.7485430905184
 51
66.25145690948149
  0
ARC
  5
B70
330
ACA
100
AcDbEntity
  8
0
  6
Continuous
 62
     3
100
AcDbCircle
 10
82.24372228088146
 20
276.8377054007734
 30
0.0
 40
1.498499999999999
100
AcDbArc
 50
293.7485430905184
 51
66.25145690948149
  0
ARC
  5
B71
330
ACA
100
AcDbEntity
  8
0
  6
Continuous
 62
     3
100
AcDbCircle
 10
74.59962913488856
 20
259.463983837004
 30
0.0
 40
19.98
100
AcDbArc
 50
66.25145690948149
 51
81.41597019517911
  0
ARC
  5
B72
330
ACA
100
AcDbEntity
  8
0
  6
Continuous
 62
     3
100
AcDbCircle
 10
74.59962913488856
 20
259.463983837004
 30
0.0
 40
20.4795
100
AcDbArc
 50
66.25145690948149
 51
81.41597019517911
  0
ARC
  5
B73
330
ACA
100
AcDbEntity
  8
0
  6
Continuous
 62
     3
100
AcDbCircle
 10
56.21958147402825
 20
276.8377054007734
 30
0.0
 40
0.9989999999999998
100
AcDbArc
 50
113.7485430905185
 51
246.2514569094815
  0
ARC
  5
B74
330
ACA
100
AcDbEntity
  8
0
  6
Continuous
 62
     3
100
AcDbCircle
 10
56.21958147402825
 20
276.8377054007734
 30
0.0
 40
1.498499999999999
100
AcDbArc
 50
113.7485430905185
 51
246.2514569094815
  0
ARC
  5
B75
330
ACA
100
AcDbEntity
  8
0
  6
Continuous
 62
     3
100
AcDbCircle
 10
63.86367462002089
 20
259.463983837004
 30
0.0
 40
19.98
100
AcDbArc
 50
98.5840298048209
 51
113.7485430905185
  0
ARC
  5
B76
330
ACA
100
AcDbEntity
  8
0
  6
Continuous
 62
     3
100
AcDbCircle
 10
63.86367462002089
 20
259.463983837004
 30
0.0
 40
20.4795
100
AcDbArc
 50
98.5840298048209
 51
113.7485430905185
  0
ARC
  5
B77
330
ACA
100
AcDbEntity
  8
0
  6
Continuous
 62
     3
100
AcDbCircle
 10
74.59962913488856
 20
294.2114269645427
 30
0.0
 40
19.98
100
AcDbArc
 50
278.5840298048209
 51
293.7485430905184
  0
ARC
  5
B78
330
ACA
100
AcDbEntity
  8
0
  6
Continuous
 62
     3
100
AcDbCircle
 10
74.59962913488856
 20
294.2114269645427
 30
0.0
 40
20.4795
100
AcDbArc
 50
278.5840298048209
 51
293.7485430905184
  0
ARC
  5
B79
330
ACA
100
AcDbEntity
  8
0
  6
Continuous
 62
     3
100
AcDbCircle
 10
63.86367462002089
 20
294.2114269645427
 30
0.0
 40
19.98
100
AcDbArc
 50
246.2514569094815
 51
261.4159701951791
  0
ARC
  5
B7A
330
ACA
100
AcDbEntity
  8
0
  6
Continuous
 62
     3
100
AcDbCircle
 10
63.86367462002089
 20
294.2114269645427
 30
0.0
 40
20.4795
100
AcDbArc
 50
246.2514569094815
 51
261.4159701951791
  0
ARC
  5
B7B
330
ACA
100
AcDbEntity
  8
0
  6
Continuous
 62
     3
100
AcDbCircle
 10
69.23165187745485
 20
223.9028517379889
 30
0.0
 40
56.44349999999903
100
AcDbArc
 50
81.41597019517911
 51
98.5840298048209
  0
ARC
  5
B7C
330
ACA
100
AcDbEntity
  8
0
  6
Continuous
 62
     3
100
AcDbCircle
 10
69.23165187745485
 20
223.9028517379897
 30
0.0
 40
55.94399999999822
100
AcDbArc
 50
81.41597019517911
 51
98.5840298048209
  0
ARC
  5
B7D
330
ACA
100
AcDbEntity
  8
0
  6
Continuous
 62
     3
100
AcDbCircle
 10
69.23165187745485
 20
329.7725590635579
 30
0.0
 40
56.44349999999903
100
AcDbArc
 50
261.4159701951791
 51
278.5840298048209
  0
ARC
  5
B7E
330
ACA
100
AcDbEntity
  8
0
  6
Continuous
 62
     3
100
AcDbCircle
 10
69.23165187745485
 20
329.7725590635571
 30
0.0
 40
55.94399999999822
100
AcDbArc
 50
261.4159701951791
 51
278.5840298048209
  0
TEXT
  5
B7F
330
ACA
100
AcDbEntity
  8
0
 62
     3
100
AcDbText
 10
187.4999996431435
 20
267.4999995915839
 30
0.0
 40
3.2
  1
担　当
  7
高3.2
100
AcDbText
  0
TEXT
  5
B80
330
ACA
100
AcDbEntity
  8
0
 62
     3
100
AcDbText
 10
143.4999996431435
 20
267.4999995915839
 30
0.0
 40
3.2
  1
変更・追記内容
  7
高3.2
100
AcDbText
  0
TEXT
  5
B81
330
ACA
100
AcDbEntity
  8
0
 62
     3
100
AcDbText
 10
118.6135146434827
 20
262.8294610816756
 30
0.0
 40
2.0
  1
1
  7
高2
100
AcDbText
  0
TEXT
  5
B82
330
ACA
100
AcDbEntity
  8
0
 62
     3
100
AcDbText
 10
118.3050031667254
 20
257.6596443694027
 30
0.0
 40
2.0
  1
2
  7
高2
100
AcDbText
  0
TEXT
  5
B83
330
ACA
100
AcDbEntity
  8
0
 62
     3
100
AcDbText
 10
125.4999996431435
 20
267.4999995915839
 30
0.0
 40
3.2
  1
日　付
  7
高3.2
100
AcDbText
  0
TEXT
  5
B84
330
ACA
100
AcDbEntity
  8
0
 62
     3
100
AcDbText
 10
125.4999996431435
 20
272.4999995915839
 30
0.0
 40
3.2
  1
図　　　　面　　　　略　　　　歴
  7
高3.2
100
AcDbText
  0
TEXT
  5
B85
330
ACA
100
AcDbEntity
  8
0
 62
     3
100
AcDbText
 10
115.4999996431435
 20
267.4999995915839
 30
0.0
 40
3.2
  1
記号
  7
高3.2
100
AcDbText
  0
LINE
  5
B86
330
ACA
100
AcDbEntity
  8
0
100
AcDbLine
 10
118.9999996431435
 20
260.790895591584
 30
0.0
 11
117.0999996431435
 21
257.4999995915839
 31
0.0
  0
LINE
  5
B87
330
ACA
100
AcDbEntity
  8
0
100
AcDbLine
 10
118.9999996431435
 20
260.790895591584
 30
0.0
 11
120.8999996431435
 21
257.4999995915839
 31
0.0
  0
LINE
  5
B88
330
ACA
100
AcDbEntity
  8
0
100
AcDbLine
 10
117.0999996431435
 20
257.4999995915839
 30
0.0
 11
120.8999996431435
 21
257.4999995915839
 31
0.0
  0
LINE
  5
B89
330
ACA
100
AcDbEntity
  8
0
100
AcDbLine
 10
118.9999996431435
 20
265.790896591584
 30
0.0
 11
117.0999996431435
 21
262.4999995915839
 31
0.0
  0
LINE
  5
B8A
330
ACA
100
AcDbEntity
  8
0
100
AcDbLine
 10
118.9999996431435
 20
265.790896591584
 30
0.0
 11
120.8999996431435
 21
262.4999995915839
 31
0.0
  0
LINE
  5
B8B
330
ACA
100
AcDbEntity
  8
0
100
AcDbLine
 10
117.0999996431435
 20
262.4999995915839
 30
0.0
 11
120.8999996431435
 21
262.4999995915839
 31
0.0
  0
LINE
  5
B8C
330
ACA
100
AcDbEntity
  8
0
 62
     3
100
AcDbLine
 10
113.9999996431435
 20
271.9999995915839
 30
0.0
 11
199.9999996431435
 21
271.9999995915839
 31
0.0
  0
LINE
  5
B8D
330
ACA
100
AcDbEntity
  8
0
 62
     3
100
AcDbLine
 10
113.9999996431435
 20
266.9999995915839
 30
0.0
 11
199.9999996431435
 21
266.9999995915839
 31
0.0
  0
LINE
  5
B8E
330
ACA
100
AcDbEntity
  8
0
 62
     7
100
AcDbLine
 10
113.9999996431435
 20
261.9999995915839
 30
0.0
 11
199.9999996431435
 21
261.9999995915839
 31
0.0
  0
LINE
  5
B8F
330
ACA
100
AcDbEntity
  8
0
 62
     3
100
AcDbLine
 10
113.9999996431435
 20
256.9999995915839
 30
0.0
 11
199.9999996431435
 21
256.9999995915839
 31
0.0
  0
LINE
  5
B90
330
ACA
100
AcDbEntity
  8
0
 62
     7
100
AcDbLine
 10
185.9999996431435
 20
256.9999995915839
 30
0.0
 11
185.9999996431435
 21
271.9999995915839
 31
0.0
  0
LINE
  5
B91
330
ACA
100
AcDbEntity
  8
0
 62
     7
100
AcDbLine
 10
141.9999996431435
 20
256.9999995915839
 30
0.0
 11
141.9999996431435
 21
271.9999995915839
 31
0.0
  0
LINE
  5
B92
330
ACA
100
AcDbEntity
  8
0
 62
     7
100
AcDbLine
 10
123.9999996431435
 20
256.9999995915839
 30
0.0
 11
123.9999996431435
 21
271.9999995915839
 31
0.0
  0
LINE
  5
B93
330
ACA
100
AcDbEntity
  8
0
 62
     3
100
AcDbLine
 10
113.9999996431435
 20
256.9999995915839
 30
0.0
 11
113.9999996431435
 21
276.9999995915839
 31
0.0
  0
ENDBLK
  5
B97
330
ACA
100
AcDbEntity
  8
0
100
AcDbBlockEnd
  0
BLOCK
  5
D64
330
D63
100
AcDbEntity
  8
0
100
AcDbBlockBegin
  2
*D3
 70
     1
 10
0.0
 20
0.0
 30
0.0
  3
*D3
  1

  0
LINE
  5
114B
330
D63
100
AcDbEntity
  8
0
 62
     0
370
    -2
100
AcDbLine
 10
1267.08943495732
 20
226.4269918028581
 30
0.0
 11
1267.08943495732
 21
238.3515183998791
 31
0.0
  0
LINE
  5
114C
330
D63
100
AcDbEntity
  8
0
 62
     0
370
    -2
100
AcDbLine
 10
1226.58943495732
 20
228.9269918028581
 30
0.0
 11
1226.58943495732
 21
238.3515183998791
 31
0.0
  0
LINE
  5
114D
330
D63
100
AcDbEntity
  8
0
 62
     0
370
    -2
100
AcDbLine
 10
1264.58943495732
 20
237.1015183998791
 30
0.0
 11
1229.08943495732
 21
237.1015183998791
 31
0.0
  0
INSERT
  5
114E
330
D63
100
AcDbEntity
  8
0
 62
     0
370
    -2
100
AcDbBlockReference
  2
_Open30
 10
1267.08943495732
 20
237.1015183998791
 30
0.0
 41
2.5
 42
2.5
 43
2.5
  0
INSERT
  5
114F
330
D63
100
AcDbEntity
  8
0
 62
     0
370
    -2
100
AcDbBlockReference
  2
_Open30
 10
1226.58943495732
 20
237.1015183998791
 30
0.0
 41
2.5
 42
2.5
 43
2.5
 50
180.0
  0
MTEXT
  5
1150
330
D63
100
AcDbEntity
  8
0
 62
     4
100
AcDbMText
 10
1247.13275987592
 20
239.2265183998791
 30
0.0
 40
3.0
 41
0.0
 71
     5
 72
     1
  1
40.5
 73
     1
 44
1.0
1001
ACAD
1000
MTEXTBEGIN
1070
    73
1070
     1
1070
    44
1040
1.0
1070
    74
1070
     0
1000
MTEXTEND
  0
POINT
  5
1151
330
D63
100
AcDbEntity
  8
Defpoints
 62
     0
100
AcDbPoint
 10
1267.08943495732
 20
226.1769918028581
 30
0.0
  0
POINT
  5
1152
330
D63
100
AcDbEntity
  8
Defpoints
 62
     0
100
AcDbPoint
 10
1226.58943495732
 20
228.6769918028581
 30
0.0
  0
POINT
  5
1153
330
D63
100
AcDbEntity
  8
Defpoints
 62
     0
100
AcDbPoint
 10
1226.58943495732
 20
237.1015183998791
 30
0.0
  0
ENDBLK
  5
D65
330
D63
100
AcDbEntity
  8
0
100
AcDbBlockEnd
  0
BLOCK
  5
D7C
330
D7B
100
AcDbEntity
  8
0
100
AcDbBlockBegin
  2
*D4
 70
     1
 10
0.0
 20
0.0
 30
0.0
  3
*D4
  1

  0
LINE
  5
1154
330
D7B
100
AcDbEntity
  8
0
 62
     0
370
    -2
100
AcDbLine
 10
1226.58943495732
 20
228.9269918028581
 30
0.0
 11
1226.58943495732
 21
238.3515183998791
 31
0.0
  0
LINE
  5
1155
330
D7B
100
AcDbEntity
  8
0
 62
     0
370
    -2
100
AcDbLine
 10
1187.08943495732
 20
228.9269918028581
 30
0.0
 11
1187.08943495732
 21
238.3515183998791
 31
0.0
  0
LINE
  5
1156
330
D7B
100
AcDbEntity
  8
0
 62
     0
370
    -2
100
AcDbLine
 10
1224.08943495732
 20
237.1015183998791
 30
0.0
 11
1189.58943495732
 21
237.1015183998791
 31
0.0
  0
INSERT
  5
1157
330
D7B
100
AcDbEntity
  8
0
 62
     0
370
    -2
100
AcDbBlockReference
  2
_Open30
 10
1226.58943495732
 20
237.1015183998791
 30
0.0
 41
2.5
 42
2.5
 43
2.5
  0
INSERT
  5
1158
330
D7B
100
AcDbEntity
  8
0
 62
     0
370
    -2
100
AcDbBlockReference
  2
_Open30
 10
1187.08943495732
 20
237.1015183998791
 30
0.0
 41
2.5
 42
2.5
 43
2.5
 50
180.0
  0
MTEXT
  5
1159
330
D7B
100
AcDbEntity
  8
0
 62
     4
100
AcDbMText
 10
1207.19444423372
 20
239.2265183998791
 30
0.0
 40
3.0
 41
0.0
 71
     5
 72
     1
  1
39.5
 73
     1
 44
1.0
1001
ACAD
1000
MTEXTBEGIN
1070
    73
1070
     1
1070
    44
1040
1.0
1070
    74
1070
     0
1000
MTEXTEND
  0
POINT
  5
115A
330
D7B
100
AcDbEntity
  8
Defpoints
 62
     0
100
AcDbPoint
 10
1226.58943495732
 20
228.6769918028581
 30
0.0
  0
POINT
  5
115B
330
D7B
100
AcDbEntity
  8
Defpoints
 62
     0
100
AcDbPoint
 10
1187.08943495732
 20
228.6769918028581
 30
0.0
  0
POINT
  5
115C
330
D7B
100
AcDbEntity
  8
Defpoints
 62
     0
100
AcDbPoint
 10
1187.08943495732
 20
237.1015183998791
 30
0.0
  0
ENDBLK
  5
D7D
330
D7B
100
AcDbEntity
  8
0
100
AcDbBlockEnd
  0
BLOCK
  5
D9D
330
D9C
100
AcDbEntity
  8
0
100
AcDbBlockBegin
  2
*D5
 70
     1
 10
0.0
 20
0.0
 30
0.0
  3
*D5
  1

  0
LINE
  5
115D
330
D9C
100
AcDbEntity
  8
0
 62
     0
370
    -2
100
AcDbLine
 10
1294.58943495732
 20
224.4269918028581
 30
0.0
 11
1294.58943495732
 21
243.2741351400262
 31
0.0
  0
LINE
  5
115E
330
D9C
100
AcDbEntity
  8
0
 62
     0
370
    -2
100
AcDbLine
 10
1187.08943495732
 20
228.9269918028581
 30
0.0
 11
1187.08943495732
 21
243.2741351400262
 31
0.0
  0
LINE
  5
115F
330
D9C
100
AcDbEntity
  8
0
 62
     0
370
    -2
100
AcDbLine
 10
1292.08943495732
 20
242.0241351400262
 30
0.0
 11
1189.58943495732
 21
242.0241351400262
 31
0.0
  0
INSERT
  5
1160
330
D9C
100
AcDbEntity
  8
0
 62
     0
370
    -2
100
AcDbBlockReference
  2
_Open30
 10
1294.58943495732
 20
242.0241351400262
 30
0.0
 41
2.5
 42
2.5
 43
2.5
  0
INSERT
  5
1161
330
D9C
100
AcDbEntity
  8
0
 62
     0
370
    -2
100
AcDbBlockReference
  2
_Open30
 10
1187.08943495732
 20
242.0241351400262
 30
0.0
 41
2.5
 42
2.5
 43
2.5
 50
180.0
  0
MTEXT
  5
1162
330
D9C
100
AcDbEntity
  8
0
 62
     4
100
AcDbMText
 10
1245.27623850167
 20
244.1491351400262
 30
0.0
 40
3.0
 41
0.0
 71
     5
 72
     1
  1
107.5
 73
     1
 44
1.0
1001
ACAD
1000
MTEXTBEGIN
1070
    73
1070
     1
1070
    44
1040
1.0
1070
    74
1070
     0
1000
MTEXTEND
  0
POINT
  5
1163
330
D9C
100
AcDbEntity
  8
Defpoints
 62
     0
100
AcDbPoint
 10
1294.58943495732
 20
224.1769918028581
 30
0.0
  0
POINT
  5
1164
330
D9C
100
AcDbEntity
  8
Defpoints
 62
     0
100
AcDbPoint
 10
1187.08943495732
 20
228.6769918028581
 30
0.0
  0
POINT
  5
1165
330
D9C
100
AcDbEntity
  8
Defpoints
 62
     0
100
AcDbPoint
 10
1187.08943495732
 20
242.0241351400262
 30
0.0
  0
ENDBLK
  5
D9E
330
D9C
100
AcDbEntity
  8
0
100
AcDbBlockEnd
  0
BLOCK
  5
DD0
330
DCF
100
AcDbEntity
  8
0
100
AcDbBlockBegin
  2
*D6
 70
     1
 10
0.0
 20
0.0
 30
0.0
  3
*D6
  1

  0
LINE
  5
1166
330
DCF
100
AcDbEntity
  8
0
 62
     0
370
    -2
100
AcDbLine
 10
1204.83943495732
 20
207.1769918028581
 30
0.0
 11
1174.352482494268
 21
207.1769918028581
 31
0.0
  0
LINE
  5
1167
330
DCF
100
AcDbEntity
  8
0
 62
     0
370
    -2
100
AcDbLine
 10
1204.83943495732
 20
230.1769918028581
 30
0.0
 11
1174.352482494268
 21
230.1769918028581
 31
0.0
  0
LINE
  5
1168
330
DCF
100
AcDbEntity
  8
0
 62
     0
370
    -2
100
AcDbLine
 10
1175.602482494268
 20
209.6769918028581
 30
0.0
 11
1175.602482494268
 21
227.6769918028581
 31
0.0
  0
INSERT
  5
1169
330
DCF
100
AcDbEntity
  8
0
 62
     0
370
    -2
100
AcDbBlockReference
  2
_Open30
 10
1175.602482494268
 20
207.1769918028581
 30
0.0
 41
2.5
 42
2.5
 43
2.5
 50
270.0
  0
INSERT
  5
116A
330
DCF
100
AcDbEntity
  8
0
 62
     0
370
    -2
100
AcDbBlockReference
  2
_Open30
 10
1175.602482494268
 20
230.1769918028581
 30
0.0
 41
2.5
 42
2.5
 43
2.5
 50
90.0
  0
MTEXT
  5
116B
330
DCF
100
AcDbEntity
  8
0
 62
     4
100
AcDbMText
 10
1173.477482494268
 20
218.6769918028581
 30
0.0
 40
3.0
 41
0.0
 71
     5
 72
     1
  1
%%C23
 11
0.0000000000000001
 21
1.0
 31
0.0
 73
     1
 44
1.0
1001
ACAD
1000
MTEXTBEGIN
1070
    73
1070
     1
1070
    44
1040
1.0
1070
    74
1070
     0
1000
MTEXTEND
  0
POINT
  5
116C
330
DCF
100
AcDbEntity
  8
Defpoints
 62
     0
100
AcDbPoint
 10
1205.08943495732
 20
207.1769918028581
 30
0.0
  0
POINT
  5
116D
330
DCF
100
AcDbEntity
  8
Defpoints
 62
     0
100
AcDbPoint
 10
1205.08943495732
 20
230.1769918028581
 30
0.0
  0
POINT
  5
116E
330
DCF
100
AcDbEntity
  8
Defpoints
 62
     0
100
AcDbPoint
 10
1175.602482494268
 20
230.1769918028581
 30
0.0
  0
ENDBLK
  5
DD1
330
DCF
100
AcDbEntity
  8
0
100
AcDbBlockEnd
  0
BLOCK
  5
DFA
330
DF9
100
AcDbEntity
  8
0
100
AcDbBlockBegin
  2
*D7
 70
     1
 10
0.0
 20
0.0
 30
0.0
  3
*D7
  1

  0
LINE
  5
116F
330
DF9
100
AcDbEntity
  8
0
 62
     0
370
    -2
100
AcDbLine
 10
1294.83943495732
 20
224.1769918028581
 30
0.0
 11
1305.937309609928
 21
224.1769918028581
 31
0.0
  0
LINE
  5
1170
330
DF9
100
AcDbEntity
  8
0
 62
     0
370
    -2
100
AcDbLine
 10
1294.83943495732
 20
213.1769918028581
 30
0.0
 11
1305.937309609928
 21
213.1769918028581
 31
0.0
  0
LINE
  5
1171
330
DF9
100
AcDbEntity
  8
0
 62
     0
370
    -2
100
AcDbLine
 10
1304.687309609928
 20
221.6769918028581
 30
0.0
 11
1304.687309609928
 21
215.6769918028581
 31
0.0
  0
INSERT
  5
1172
330
DF9
100
AcDbEntity
  8
0
 62
     0
370
    -2
100
AcDbBlockReference
  2
_Open30
 10
1304.687309609928
 20
224.1769918028581
 30
0.0
 41
2.5
 42
2.5
 43
2.5
 50
90.0
  0
INSERT
  5
1173
330
DF9
100
AcDbEntity
  8
0
 62
     0
370
    -2
100
AcDbBlockReference
  2
_Open30
 10
1304.687309609928
 20
213.1769918028581
 30
0.0
 41
2.5
 42
2.5
 43
2.5
 50
270.0
  0
MTEXT
  5
1174
330
DF9
100
AcDbEntity
  8
0
 62
     4
100
AcDbMText
 10
1302.562309609928
 20
219.2149825695115
 30
0.0
 40
3.0
 41
0.0
 71
     5
 72
     1
  1
%%C11
 11
0.0000000000000001
 21
1.0
 31
0.0
 73
     1
 44
1.0
1001
ACAD
1000
MTEXTBEGIN
1070
    73
1070
     1
1070
    44
1040
1.0
1070
    74
1070
     0
1000
MTEXTEND
  0
POINT
  5
1175
330
DF9
100
AcDbEntity
  8
Defpoints
 62
     0
100
AcDbPoint
 10
1294.58943495732
 20
224.1769918028581
 30
0.0
  0
POINT
  5
1176
330
DF9
100
AcDbEntity
  8
Defpoints
 62
     0
100
AcDbPoint
 10
1294.58943495732
 20
213.1769918028581
 30
0.0
  0
POINT
  5
1177
330
DF9
100
AcDbEntity
  8
Defpoints
 62
     0
100
AcDbPoint
 10
1304.687309609928
 20
213.1769918028581
 30
0.0
  0
ENDBLK
  5
DFB
330
DF9
100
AcDbEntity
  8
0
100
AcDbBlockEnd
  0
BLOCK
  5
E12
330
E11
100
AcDbEntity
  8
0
100
AcDbBlockBegin
  2
*D8
 70
     1
 10
0.0
 20
0.0
 30
0.0
  3
*D8
  1

  0
LINE
  5
1178
330
E11
100
AcDbEntity
  8
0
 62
     0
370
    -2
100
AcDbLine
 10
1283.83943495732
 20
225.1769918028581
 30
0.0
 11
1314.009207397715
 21
225.1769918028581
 31
0.0
  0
LINE
  5
1179
330
E11
100
AcDbEntity
  8
0
 62
     0
370
    -2
100
AcDbLine
 10
1283.83943495732
 20
212.1769918028581
 30
0.0
 11
1314.009207397715
 21
212.1769918028581
 31
0.0
  0
LINE
  5
117A
330
E11
100
AcDbEntity
  8
0
 62
     0
370
    -2
100
AcDbLine
 10
1312.759207397715
 20
222.6769918028581
 30
0.0
 11
1312.759207397715
 21
214.6769918028581
 31
0.0
  0
INSERT
  5
117B
330
E11
100
AcDbEntity
  8
0
 62
     0
370
    -2
100
AcDbBlockReference
  2
_Open30
 10
1312.759207397715
 20
225.1769918028581
 30
0.0
 41
2.5
 42
2.5
 43
2.5
 50
90.0
  0
INSERT
  5
117C
330
E11
100
AcDbEntity
  8
0
 62
     0
370
    -2
100
AcDbBlockReference
  2
_Open30
 10
1312.759207397715
 20
212.1769918028581
 30
0.0
 41
2.5
 42
2.5
 43
2.5
 50
270.0
  0
MTEXT
  5
117D
330
E11
100
AcDbEntity
  8
0
 62
     4
100
AcDbMText
 10
1310.634207397715
 20
218.9434673929287
 30
0.0
 40
3.0
 41
0.0
 71
     5
 72
     1
  1
%%C13
 11
0.0000000000000001
 21
1.0
 31
0.0
 73
     1
 44
1.0
1001
ACAD
1000
MTEXTBEGIN
1070
    73
1070
     1
1070
    44
1040
1.0
1070
    74
1070
     0
1000
MTEXTEND
  0
POINT
  5
117E
330
E11
100
AcDbEntity
  8
Defpoints
 62
     0
100
AcDbPoint
 10
1283.58943495732
 20
225.1769918028581
 30
0.0
  0
POINT
  5
117F
330
E11
100
AcDbEntity
  8
Defpoints
 62
     0
100
AcDbPoint
 10
1283.58943495732
 20
212.1769918028581
 30
0.0
  0
POINT
  5
1180
330
E11
100
AcDbEntity
  8
Defpoints
 62
     0
100
AcDbPoint
 10
1312.759207397715
 20
212.1769918028581
 30
0.0
  0
ENDBLK
  5
E13
330
E11
100
AcDbEntity
  8
0
100
AcDbBlockEnd
  0
BLOCK
  5
E2A
330
E29
100
AcDbEntity
  8
0
100
AcDbBlockBegin
  2
*D9
 70
     1
 10
0.0
 20
0.0
 30
0.0
  3
*D9
  1

  0
LINE
  5
1181
330
E29
100
AcDbEntity
  8
0
 62
     0
370
    -2
100
AcDbLine
 10
1294.58943495732
 20
224.4269918028581
 30
0.0
 11
1294.58943495732
 21
237.9859444948479
 31
0.0
  0
LINE
  5
1182
330
E29
100
AcDbEntity
  8
0
 62
     0
370
    -2
100
AcDbLine
 10
1274.08943495732
 20
225.7769918028581
 30
0.0
 11
1274.08943495732
 21
237.9859444948479
 31
0.0
  0
LINE
  5
1183
330
E29
100
AcDbEntity
  8
0
 62
     0
370
    -2
100
AcDbLine
 10
1292.08943495732
 20
236.7359444948479
 30
0.0
 11
1276.58943495732
 21
236.7359444948479
 31
0.0
  0
INSERT
  5
1184
330
E29
100
AcDbEntity
  8
0
 62
     0
370
    -2
100
AcDbBlockReference
  2
_Open30
 10
1294.58943495732
 20
236.7359444948479
 30
0.0
 41
2.5
 42
2.5
 43
2.5
  0
INSERT
  5
1185
330
E29
100
AcDbEntity
  8
0
 62
     0
370
    -2
100
AcDbBlockReference
  2
_Open30
 10
1274.08943495732
 20
236.7359444948479
 30
0.0
 41
2.5
 42
2.5
 43
2.5
 50
180.0
  0
MTEXT
  5
1186
330
E29
100
AcDbEntity
  8
0
 62
     4
100
AcDbMText
 10
1283.186076393157
 20
238.8609444948479
 30
0.0
 40
3.0
 41
0.0
 71
     5
 72
     1
  1
20.5
 73
     1
 44
1.0
1001
ACAD
1000
MTEXTBEGIN
1070
    73
1070
     1
1070
    44
1040
1.0
1070
    74
1070
     0
1000
MTEXTEND
  0
POINT
  5
1187
330
E29
100
AcDbEntity
  8
Defpoints
 62
     0
100
AcDbPoint
 10
1294.58943495732
 20
224.1769918028581
 30
0.0
  0
POINT
  5
1188
330
E29
100
AcDbEntity
  8
Defpoints
 62
     0
100
AcDbPoint
 10
1274.08943495732
 20
225.5269918028581
 30
0.0
  0
POINT
  5
1189
330
E29
100
AcDbEntity
  8
Defpoints
 62
     0
100
AcDbPoint
 10
1274.08943495732
 20
236.7359444948479
 30
0.0
  0
ENDBLK
  5
E2B
330
E29
100
AcDbEntity
  8
0
100
AcDbBlockEnd
  0
BLOCK
  5
E42
330
E41
100
AcDbEntity
  8
0
100
AcDbBlockBegin
  2
*D10
 70
     1
 10
0.0
 20
0.0
 30
0.0
  3
*D10
  1

  0
LINE
  5
118A
330
E41
100
AcDbEntity
  8
0
 62
     0
370
    -2
100
AcDbLine
 10
1281.58943495732
 20
224.4269918028581
 30
0.0
 11
1281.58943495732
 21
231.628695260833
 31
0.0
  0
LINE
  5
118B
330
E41
100
AcDbEntity
  8
0
 62
     0
370
    -2
100
AcDbLine
 10
1294.58943495732
 20
224.4269918028581
 30
0.0
 11
1294.58943495732
 21
231.628695260833
 31
0.0
  0
LINE
  5
118C
330
E41
100
AcDbEntity
  8
0
 62
     0
370
    -2
100
AcDbLine
 10
1284.08943495732
 20
230.378695260833
 30
0.0
 11
1292.08943495732
 21
230.378695260833
 31
0.0
  0
INSERT
  5
118D
330
E41
100
AcDbEntity
  8
0
 62
     0
370
    -2
100
AcDbBlockReference
  2
_Open30
 10
1281.58943495732
 20
230.378695260833
 30
0.0
 41
2.5
 42
2.5
 43
2.5
 50
180.0
  0
INSERT
  5
118E
330
E41
100
AcDbEntity
  8
0
 62
     0
370
    -2
100
AcDbBlockReference
  2
_Open30
 10
1294.58943495732
 20
230.378695260833
 30
0.0
 41
2.5
 42
2.5
 43
2.5
  0
MTEXT
  5
118F
330
E41
100
AcDbEntity
  8
0
 62
     4
100
AcDbMText
 10
1287.61781165891
 20
232.503695260833
 30
0.0
 40
3.0
 41
0.0
 71
     5
 72
     1
  1
13
 73
     1
 44
1.0
1001
ACAD
1000
MTEXTBEGIN
1070
    73
1070
     1
1070
    44
1040
1.0
1070
    74
1070
     0
1000
MTEXTEND
  0
POINT
  5
1190
330
E41
100
AcDbEntity
  8
Defpoints
 62
     0
100
AcDbPoint
 10
1281.58943495732
 20
224.1769918028581
 30
0.0
  0
POINT
  5
1191
330
E41
100
AcDbEntity
  8
Defpoints
 62
     0
100
AcDbPoint
 10
1294.58943495732
 20
224.1769918028581
 30
0.0
  0
POINT
  5
1192
330
E41
100
AcDbEntity
  8
Defpoints
 62
     0
100
AcDbPoint
 10
1294.58943495732
 20
230.378695260833
 30
0.0
  0
ENDBLK
  5
E43
330
E41
100
AcDbEntity
  8
0
100
AcDbBlockEnd
  0
BLOCK
  5
E6D
330
E6C
100
AcDbEntity
  8
0
100
AcDbBlockBegin
  2
*D11
 70
     1
 10
0.0
 20
0.0
 30
0.0
  3
*D11
  1

  0
LINE
  5
1193
330
E6C
100
AcDbEntity
  8
0
 62
     0
370
    -2
100
AcDbLine
 10
1245.33943495732
 20
186.966227058199
 30
0.0
 11
1177.051000286729
 21
186.9662270581991
 31
0.0
  0
LINE
  5
1194
330
E6C
100
AcDbEntity
  8
0
 62
     0
370
    -2
100
AcDbLine
 10
1243.212674393939
 20
156.9344018182711
 30
0.0
 11
1177.051000286729
 21
156.9344018182712
 31
0.0
  0
LINE
  5
1195
330
E6C
100
AcDbEntity
  8
0
 62
     0
370
    -2
100
AcDbLine
 10
1178.301000286729
 20
184.4662270581991
 30
0.0
 11
1178.301000286729
 21
159.4344018182712
 31
0.0
  0
INSERT
  5
1196
330
E6C
100
AcDbEntity
  8
0
 62
     0
370
    -2
100
AcDbBlockReference
  2
_Open30
 10
1178.301000286729
 20
186.9662270581991
 30
0.0
 41
2.5
 42
2.5
 43
2.5
 50
90.0
  0
INSERT
  5
1197
330
E6C
100
AcDbEntity
  8
0
 62
     0
370
    -2
100
AcDbBlockReference
  2
_Open30
 10
1178.301000286729
 20
156.9344018182712
 30
0.0
 41
2.5
 42
2.5
 43
2.5
 50
270.0
  0
MTEXT
  5
1198
330
E6C
100
AcDbEntity
  8
0
 62
     4
100
AcDbMText
 10
1176.176000286729
 20
171.9503144382352
 30
0.0
 40
3.0
 41
0.0
 71
     5
 72
     1
  1
30
 11
0.0000000000000001
 21
1.0
 31
0.0
 73
     1
 44
1.0
1001
ACAD
1000
MTEXTBEGIN
1070
    73
1070
     1
1070
    44
1040
1.0
1070
    74
1070
     0
1000
MTEXTEND
  0
POINT
  5
1199
330
E6C
100
AcDbEntity
  8
Defpoints
 62
     0
100
AcDbPoint
 10
1245.58943495732
 20
186.966227058199
 30
0.0
  0
POINT
  5
119A
330
E6C
100
AcDbEntity
  8
Defpoints
 62
     0
100
AcDbPoint
 10
1243.462674393939
 20
156.9344018182711
 30
0.0
  0
POINT
  5
119B
330
E6C
100
AcDbEntity
  8
Defpoints
 62
     0
100
AcDbPoint
 10
1178.301000286729
 20
156.9344018182712
 30
0.0
  0
ENDBLK
  5
E6E
330
E6C
100
AcDbEntity
  8
0
100
AcDbBlockEnd
  0
ENDSEC
  0
SECTION
  2
ENTITIES
  0
LINE
  5
BA4
330
1F
100
AcDbEntity
  8
0
 62
     3
100
AcDbLine
 10
1294.58943495732
 20
163.4662270581991
 30
0.0
 11
1294.58943495732
 21
174.466227058199
 31
0.0
  0
LINE
  5
BA6
330
1F
100
AcDbEntity
  8
0
 62
     3
100
AcDbLine
 10
1281.58943495732
 20
174.466227058199
 30
0.0
 11
1279.08943495732
 21
174.466227058199
 31
0.0
  0
LINE
  5
BA7
330
1F
100
AcDbEntity
  8
0
 62
     3
100
AcDbLine
 10
1281.58943495732
 20
163.4662270581991
 30
0.0
 11
1279.08943495732
 21
163.4662270581991
 31
0.0
  0
LINE
  5
BAA
330
1F
100
AcDbEntity
  8
0
 62
     3
100
AcDbLine
 10
1283.58943495732
 20
175.4662270581991
 30
0.0
 11
1282.58943495732
 21
175.4662270581991
 31
0.0
  0
LINE
  5
BAB
330
1F
100
AcDbEntity
  8
0
 62
     3
100
AcDbLine
 10
1283.58943495732
 20
162.4662270581991
 30
0.0
 11
1282.58943495732
 21
162.4662270581991
 31
0.0
  0
LINE
  5
BAD
330
1F
100
AcDbEntity
  8
0
 62
     3
100
AcDbLine
 10
1289.58943495732
 20
174.466227058199
 30
0.0
 11
1283.58943495732
 21
175.4662270581991
 31
0.0
  0
LINE
  5
BAE
330
1F
100
AcDbEntity
  8
0
 62
     3
100
AcDbLine
 10
1283.58943495732
 20
175.4662270581991
 30
0.0
 11
1283.58943495732
 21
162.4662270581991
 31
0.0
  0
LINE
  5
BAF
330
1F
100
AcDbEntity
  8
0
 62
     3
100
AcDbLine
 10
1283.58943495732
 20
162.4662270581991
 30
0.0
 11
1289.58943495732
 21
163.4662270581991
 31
0.0
  0
LINE
  5
BB0
330
1F
100
AcDbEntity
  8
0
 62
     3
100
AcDbLine
 10
1289.58943495732
 20
163.4662270581991
 30
0.0
 11
1289.58943495732
 21
174.466227058199
 31
0.0
  0
LINE
  5
BB2
330
1F
100
AcDbEntity
  8
0
 62
     3
100
AcDbLine
 10
1282.58943495732
 20
175.4662270581991
 30
0.0
 11
1281.58943495732
 21
174.466227058199
 31
0.0
  0
LINE
  5
BB3
330
1F
100
AcDbEntity
  8
0
 62
     3
100
AcDbLine
 10
1281.58943495732
 20
174.466227058199
 30
0.0
 11
1281.58943495732
 21
163.4662270581991
 31
0.0
  0
LINE
  5
BB4
330
1F
100
AcDbEntity
  8
0
 62
     3
100
AcDbLine
 10
1281.58943495732
 20
163.4662270581991
 30
0.0
 11
1282.58943495732
 21
162.4662270581991
 31
0.0
  0
LINE
  5
BB5
330
1F
100
AcDbEntity
  8
0
 62
     3
100
AcDbLine
 10
1282.58943495732
 20
162.4662270581991
 30
0.0
 11
1282.58943495732
 21
175.4662270581991
 31
0.0
  0
LINE
  5
BB7
330
1F
100
AcDbEntity
  8
0
 62
     3
100
AcDbLine
 10
1289.58943495732
 20
174.466227058199
 30
0.0
 11
1294.58943495732
 21
174.466227058199
 31
0.0
  0
LINE
  5
BB8
330
1F
100
AcDbEntity
  8
0
 62
     3
100
AcDbLine
 10
1289.58943495732
 20
163.4662270581991
 30
0.0
 11
1294.58943495732
 21
163.4662270581991
 31
0.0
  0
LINE
  5
BBB
330
1F
100
AcDbEntity
  8
0
 62
     3
100
AcDbLine
 10
1279.08943495732
 20
174.466227058199
 30
0.0
 11
1278.08943495732
 21
175.4662270581991
 31
0.0
  0
LINE
  5
BBC
330
1F
100
AcDbEntity
  8
0
 62
     3
100
AcDbLine
 10
1278.08943495732
 20
175.4662270581991
 30
0.0
 11
1278.08943495732
 21
162.4662270581991
 31
0.0
  0
LINE
  5
BBD
330
1F
100
AcDbEntity
  8
0
 62
     3
100
AcDbLine
 10
1278.08943495732
 20
162.4662270581991
 30
0.0
 11
1279.08943495732
 21
163.4662270581991
 31
0.0
  0
LINE
  5
BBE
330
1F
100
AcDbEntity
  8
0
 62
     3
100
AcDbLine
 10
1279.08943495732
 20
163.4662270581991
 30
0.0
 11
1279.08943495732
 21
174.466227058199
 31
0.0
  0
LINE
  5
BBF
330
1F
100
AcDbEntity
  8
0
 62
     3
100
AcDbLine
 10
1278.08943495732
 20
162.4662270581991
 30
0.0
 11
1274.08943495732
 21
162.4662270581991
 31
0.0
  0
LINE
  5
BC0
330
1F
100
AcDbEntity
  8
0
 62
     3
100
AcDbLine
 10
1278.08943495732
 20
175.4662270581991
 30
0.0
 11
1274.08943495732
 21
175.4662270581991
 31
0.0
  0
LINE
  5
BC1
330
1F
100
AcDbEntity
  8
0
 62
     3
100
AcDbLine
 10
1274.08943495732
 20
175.8162270581991
 30
0.0
 11
1268.128253297218
 21
175.8162270581991
 31
0.0
  0
LINE
  5
BC2
330
1F
100
AcDbEntity
  8
0
 62
     3
100
AcDbLine
 10
1274.08943495732
 20
162.1162270581991
 30
0.0
 11
1268.55109280339
 21
162.1162270581991
 31
0.0
  0
LINE
  5
BC3
330
1F
100
AcDbEntity
  8
0
 62
     3
100
AcDbLine
 10
1274.08943495732
 20
175.8162270581991
 30
0.0
 11
1274.08943495732
 21
162.1162270581991
 31
0.0
  0
LINE
  5
BC5
330
1F
100
AcDbEntity
  8
0
 62
     3
100
AcDbLine
 10
1268.58943495732
 20
162.1162270581991
 30
0.0
 11
1268.58943495732
 21
175.8162270581991
 31
0.0
  0
ARC
  5
BC6
330
1F
100
AcDbEntity
  8
0
 62
     3
100
AcDbCircle
 10
1267.72412245732
 20
172.3912270581991
 30
0.0
 40
6.365312500000058
100
AcDbArc
 50
327.4474741158798
 51
32.55252588412013
  0
ARC
  5
BCD
330
1F
100
AcDbEntity
  8
0
 62
     3
100
AcDbCircle
 10
1267.72412245732
 20
165.5412270581991
 30
0.0
 40
6.365312500000058
100
AcDbArc
 50
327.4474741158798
 51
32.55252588412013
  0
LINE
  5
BCE
330
1F
100
AcDbEntity
  8
0
 62
     3
100
AcDbLine
 10
1265.58943495732
 20
160.4662270581991
 30
0.0
 11
1265.58943495732
 21
177.466227058199
 31
0.0
  0
LINE
  5
BD0
330
1F
100
AcDbEntity
  8
0
 62
     3
100
AcDbLine
 10
1266.107715382855
 20
176.466227058199
 30
0.0
 11
1265.58943495732
 21
176.466227058199
 31
0.0
  0
LINE
  5
BD1
330
1F
100
AcDbEntity
  8
0
 62
     3
100
AcDbLine
 10
1266.436416790837
 20
161.4662270581991
 30
0.0
 11
1265.58943495732
 21
161.4662270581991
 31
0.0
  0
LINE
  5
BD6
330
1F
100
AcDbEntity
  8
0
 62
     3
100
AcDbLine
 10
1226.58943495732
 20
158.966227058199
 30
0.0
 11
1226.58943495732
 21
178.9662270581991
 31
0.0
  0
ARC
  5
BDE
330
1F
100
AcDbEntity
  8
0
 62
     3
100
AcDbCircle
 10
1243.462674393939
 20
109.9204524103126
 30
0.0
 40
71.07759988781445
100
AcDbArc
 50
74.80753196093023
 51
79.76723462180419
  0
ARC
  5
BDF
330
1F
100
AcDbEntity
  8
0
 62
     3
100
AcDbCircle
 10
1243.462674393939
 20
228.0120017060857
 30
0.0
 40
71.07759988781445
100
AcDbArc
 50
256.2673466976201
 51
258.7445034588064
  0
LINE
  5
BE0
330
1F
100
AcDbEntity
  8
0
 62
     3
100
AcDbLine
 10
1242.08943495732
 20
177.9662270581991
 30
0.0
 11
1253.08943495732
 21
177.9662270581991
 31
0.0
  0
LINE
  5
BE7
330
1F
100
AcDbEntity
  8
0
 62
     3
100
AcDbLine
 10
1256.08943495732
 20
179.8675046962188
 30
0.0
 11
1253.08943495732
 21
177.9662270581991
 31
0.0
  0
LINE
  5
BE8
330
1F
100
AcDbEntity
  8
0
 62
     3
100
AcDbLine
 10
1239.239805986843
 20
179.5309682228184
 30
0.0
 11
1242.08943495732
 21
177.9662270581991
 31
0.0
  0
LINE
  5
BEA
330
1F
100
AcDbEntity
  8
0
 62
     3
100
AcDbLine
 10
1251.053536572458
 20
212.6769918028581
 30
0.0
 11
1244.125333342182
 21
212.6769918028581
 31
0.0
  0
LINE
  5
BEB
330
1F
100
AcDbEntity
  8
0
 62
     3
100
AcDbLine
 10
1251.053536572458
 20
212.6769918028582
 30
0.0
 11
1254.517638187595
 21
218.6769918028577
 31
0.0
  0
LINE
  5
BEC
330
1F
100
AcDbEntity
  8
0
 62
     3
100
AcDbLine
 10
1254.517638187595
 20
218.6769918028578
 30
0.0
 11
1251.053536572457
 21
224.6769918028581
 31
0.0
  0
LINE
  5
BED
330
1F
100
AcDbEntity
  8
0
 62
     3
100
AcDbLine
 10
1251.053536572457
 20
224.6769918028581
 30
0.0
 11
1244.125333342182
 21
224.6769918028581
 31
0.0
  0
LINE
  5
BEE
330
1F
100
AcDbEntity
  8
0
 62
     3
100
AcDbLine
 10
1244.125333342182
 20
224.6769918028581
 30
0.0
 11
1240.661231727044
 21
218.6769918028579
 31
0.0
  0
LINE
  5
BEF
330
1F
100
AcDbEntity
  8
0
 62
     3
100
AcDbLine
 10
1240.661231727044
 20
218.6769918028581
 30
0.0
 11
1244.125333342182
 21
212.6769918028581
 31
0.0
  0
LINE
  5
BF0
330
1F
100
AcDbEntity
  8
0
 62
     3
100
AcDbLine
 10
1240.661231727044
 20
180.4662270581991
 30
0.0
 11
1254.517638187595
 21
180.4662270581991
 31
0.0
  0
LINE
  5
BF1
330
1F
100
AcDbEntity
  8
0
 62
     3
100
AcDbLine
 10
1254.517638187595
 20
180.4662270581991
 30
0.0
 11
1254.517638187595
 21
178.8713640129558
 31
0.0
  0
LINE
  5
BF2
330
1F
100
AcDbEntity
  8
0
 62
     3
100
AcDbLine
 10
1251.053536572458
 20
180.4662270581991
 30
0.0
 11
1251.053536572458
 21
177.9662270581991
 31
0.0
  0
LINE
  5
BF3
330
1F
100
AcDbEntity
  8
0
 62
     3
100
AcDbLine
 10
1244.125333342182
 20
180.4662270581991
 30
0.0
 11
1244.125333342182
 21
177.9662270581991
 31
0.0
  0
LINE
  5
BF4
330
1F
100
AcDbEntity
  8
0
 62
     3
100
AcDbLine
 10
1240.661231727044
 20
180.4662270581991
 30
0.0
 11
1240.661231727044
 21
178.7504584121778
 31
0.0
  0
LINE
  5
BF5
330
1F
100
AcDbEntity
  8
0
 62
     3
100
AcDbLine
 10
1249.08943495732
 20
180.4662270581991
 30
0.0
 11
1249.08943495732
 21
182.9662270581991
 31
0.0
  0
LINE
  5
BF6
330
1F
100
AcDbEntity
  8
0
 62
     3
100
AcDbLine
 10
1246.08943495732
 20
180.4662270581991
 30
0.0
 11
1246.08943495732
 21
182.9662270581991
 31
0.0
  0
LINE
  5
BF7
330
1F
100
AcDbEntity
  8
0
 62
     3
100
AcDbLine
 10
1241.58943495732
 20
182.9662270581991
 30
0.0
 11
1253.58943495732
 21
182.9662270581991
 31
0.0
  0
LINE
  5
BF8
330
1F
100
AcDbEntity
  8
0
 62
     3
100
AcDbLine
 10
1241.58943495732
 20
184.9662270581991
 30
0.0
 11
1241.58943495732
 21
182.9662270581991
 31
0.0
  0
LINE
  5
BF9
330
1F
100
AcDbEntity
  8
0
 62
     3
100
AcDbLine
 10
1253.58943495732
 20
182.9662270581991
 30
0.0
 11
1253.58943495732
 21
184.9662270581991
 31
0.0
  0
LINE
  5
BFB
330
1F
100
AcDbEntity
  8
0
 62
     3
100
AcDbLine
 10
1241.58943495732
 20
184.9662270581991
 30
0.0
 11
1253.58943495732
 21
184.9662270581991
 31
0.0
  0
LINE
  5
BFF
330
1F
100
AcDbEntity
  8
0
 62
     3
100
AcDbLine
 10
1253.58943495732
 20
184.9662270581991
 30
0.0
 11
1249.58943495732
 21
186.966227058199
 31
0.0
  0
LINE
  5
C00
330
1F
100
AcDbEntity
  8
0
 62
     3
100
AcDbLine
 10
1249.58943495732
 20
186.966227058199
 30
0.0
 11
1245.58943495732
 21
186.966227058199
 31
0.0
  0
LINE
  5
C01
330
1F
100
AcDbEntity
  8
0
 62
     3
100
AcDbLine
 10
1245.58943495732
 20
186.966227058199
 30
0.0
 11
1241.58943495732
 21
184.9662270581991
 31
0.0
  0
ARC
  5
C06
330
1F
100
AcDbEntity
  8
0
 62
     3
100
AcDbCircle
 10
1243.462674393939
 20
228.0120017060857
 30
0.0
 40
70.57759988781445
100
AcDbArc
 50
258.670007021084
 51
261.5482568005951
  0
ELLIPSE
  5
C09
330
1F
100
AcDbEntity
  8
0
 62
     3
100
AcDbEllipse
 10
1247.58943495732
 20
177.9957151482479
 30
0.0
 11
14.5
 21
0.0
 31
0.0
210
0.0
220
0.0
230
1.0
 40
0.1744474544861212
 41
4.712388980384688
 42
6.283185307179585
  0
ELLIPSE
  5
C0B
330
1F
100
AcDbEntity
  8
0
 62
     3
100
AcDbEllipse
 10
1247.58943495732
 20
158.3014685468387
 30
0.0
 11
-18.0
 21
0.0
 31
0.0
210
0.0
220
0.0
230
1.0
 40
0.9535976950755772
 41
4.712388980384688
 42
6.283185307179585
  0
ELLIPSE
  5
C10
330
1F
100
AcDbEntity
  8
0
 62
     3
100
AcDbEllipse
 10
1250.58943495732
 20
168.9662270581991
 30
0.0
 11
-11.0
 21
0.0
 31
0.0
210
0.0
220
0.0
230
1.0
 40
0.4090909090909091
 41
0.0
 42
6.283185307179585
  0
LINE
  5
C11
330
1F
100
AcDbEntity
  8
0
 62
     3
100
AcDbLine
 10
1233.08943495732
 20
158.2008743013876
 30
0.0
 11
1233.08943495732
 21
157.6954239352441
 31
0.0
  0
ARC
  5
C14
330
1F
100
AcDbEntity
  8
0
 62
     3
100
AcDbCircle
 10
1275.449904943773
 20
45.03395361079319
 30
0.0
 40
120.8352653659704
100
AcDbArc
 50
94.68068830972384
 51
110.5218036056305
  0
ARC
  5
C15
330
1F
100
AcDbEntity
  8
0
 62
     3
100
AcDbCircle
 10
1279.973695045677
 20
23.53489240396681
 30
0.0
 40
142.1167902282751
100
AcDbArc
 50
97.27181331958286
 51
109.2626765419402
  0
LINE
  5
C16
330
1F
100
AcDbEntity
  8
0
 62
     3
100
AcDbLine
 10
1261.985030615489
 20
164.5086134189335
 30
0.0
 11
1265.58943495732
 21
165.4662270581991
 31
0.0
  0
LINE
  5
C17
330
1F
100
AcDbEntity
  8
0
 62
     3
100
AcDbLine
 10
1262.08943495732
 20
177.9957151482479
 30
0.0
 11
1262.08943495732
 21
178.513957909935
 31
0.0
  0
ELLIPSE
  5
C1A
330
1F
100
AcDbEntity
  8
0
 62
     3
100
AcDbEllipse
 10
1247.58943495732
 20
178.513957909935
 30
0.0
 11
14.5
 21
0.0
 31
0.0
210
0.0
220
0.0
230
1.0
 40
0.1876401764273196
 41
4.712388980384688
 42
6.283185307179585
  0
ELLIPSE
  5
C1B
330
1F
100
AcDbEntity
  8
0
 62
     3
100
AcDbEllipse
 10
1247.58943495732
 20
158.3014685468387
 30
0.0
 11
-18.0
 21
0.0
 31
0.0
210
0.0
220
0.0
230
1.0
 40
0.9717614891611191
 41
4.712388980384688
 42
6.283185307179585
  0
ARC
  5
C1C
330
1F
100
AcDbEntity
  8
0
 62
     3
100
AcDbCircle
 10
1243.462674393939
 20
228.0120017060857
 30
0.0
 40
71.07759988781445
100
AcDbArc
 50
261.6081415159679
 51
288.1378496259113
  0
ARC
  5
C20
330
1F
100
AcDbEntity
  8
0
 62
     3
100
AcDbCircle
 10
1240.013286249684
 20
20.23636065968076
 30
0.0
 40
159.2964854301909
100
AcDbArc
 50
80.76077827153653
 51
82.03400898907686
  0
LINE
  5
C22
330
1F
100
AcDbEntity
  8
0
 62
     3
100
AcDbLine
 10
1233.58943495732
 20
179.4032680399041
 30
0.0
 11
1235.58943495732
 21
180.4662270581991
 31
0.0
  0
LINE
  5
C23
330
1F
100
AcDbEntity
  8
0
 62
     3
100
AcDbLine
 10
1235.58943495732
 20
180.4662270581991
 30
0.0
 11
1243.58943495732
 21
175.3558134676947
 31
0.0
  0
LINE
  5
C27
330
1F
100
AcDbEntity
  8
0
 62
     3
100
AcDbLine
 10
1239.58943495732
 20
173.9706517378135
 30
0.0
 11
1233.58943495732
 21
179.4032680399041
 31
0.0
  0
ARC
  5
C28
330
1F
100
AcDbEntity
  8
0
 62
     3
100
AcDbCircle
 10
1240.013286249684
 20
20.23636065968076
 30
0.0
 40
159.2964854301909
100
AcDbArc
 50
92.31115832105052
 51
94.83402540493202
  0
ARC
  5
C29
330
1F
100
AcDbEntity
  8
0
 62
     3
100
AcDbCircle
 10
1240.013286249684
 20
20.23636065968076
 30
0.0
 40
159.2964854301909
100
AcDbArc
 50
90.2782065694847
 51
91.05060773797173
  0
LINE
  5
C2B
330
1F
100
AcDbEntity
  8
0
 62
     3
100
AcDbLine
 10
1226.58943495732
 20
175.166227058199
 30
0.0
 11
1221.58943495732
 21
175.166227058199
 31
0.0
  0
LINE
  5
C2C
330
1F
100
AcDbEntity
  8
0
 62
     3
100
AcDbLine
 10
1226.58943495732
 20
162.7662270581991
 30
0.0
 11
1221.58943495732
 21
162.7662270581991
 31
0.0
  0
LINE
  5
C2D
330
1F
100
AcDbEntity
  8
0
 62
     3
100
AcDbLine
 10
1221.58943495732
 20
160.7850352005943
 30
0.0
 11
1221.58943495732
 21
177.147418915804
 31
0.0
  0
LINE
  5
C41
330
1F
100
AcDbEntity
  8
0
 62
     3
100
AcDbLine
 10
1205.08943495732
 20
157.4662270581991
 30
0.0
 11
1205.08943495732
 21
180.4662270581991
 31
0.0
  0
LINE
  5
C42
330
1F
100
AcDbEntity
  8
0
 62
     3
100
AcDbLine
 10
1205.08943495732
 20
180.4662270581991
 30
0.0
 11
1187.08943495732
 21
178.9662270581991
 31
0.0
  0
LINE
  5
C43
330
1F
100
AcDbEntity
  8
0
 62
     3
100
AcDbLine
 10
1187.08943495732
 20
178.9662270581991
 30
0.0
 11
1187.08943495732
 21
158.9662270581991
 31
0.0
  0
LINE
  5
C44
330
1F
100
AcDbEntity
  8
0
 62
     3
100
AcDbLine
 10
1187.08943495732
 20
158.9662270581991
 30
0.0
 11
1205.08943495732
 21
157.4662270581991
 31
0.0
  0
LINE
  5
C49
330
1F
100
AcDbEntity
  8
0
 62
     3
100
AcDbLine
 10
1221.58943495732
 20
174.1775704348206
 30
0.0
 11
1205.08943495732
 21
175.47630125423
 31
0.0
  0
LINE
  5
C4A
330
1F
100
AcDbEntity
  8
0
 62
     3
100
AcDbLine
 10
1221.58943495732
 20
177.1474189158039
 30
0.0
 11
1205.08943495732
 21
178.4461497352133
 31
0.0
  0
LINE
  5
C4B
330
1F
100
AcDbEntity
  8
0
 62
     3
100
AcDbLine
 10
1215.88943495732
 20
172.0545948486192
 30
0.0
 11
1221.58943495732
 21
172.0545948486192
 31
0.0
  0
LINE
  5
C4D
330
1F
100
AcDbEntity
  8
0
 62
     3
100
AcDbLine
 10
1215.88943495732
 20
165.877859267779
 30
0.0
 11
1215.88943495732
 21
172.0545948486192
 31
0.0
  0
LINE
  5
C50
330
1F
100
AcDbEntity
  8
0
 62
     3
100
AcDbLine
 10
1215.88943495732
 20
172.0545948486192
 30
0.0
 11
1205.08943495732
 21
172.4987722994282
 31
0.0
  0
LINE
  5
C51
330
1F
100
AcDbEntity
  8
0
 62
     3
100
AcDbLine
 10
1221.58943495732
 20
163.7548836815776
 30
0.0
 11
1205.08943495732
 21
162.4561528621681
 31
0.0
  0
LINE
  5
C52
330
1F
100
AcDbEntity
  8
0
 62
     3
100
AcDbLine
 10
1221.58943495732
 20
160.7850352005943
 30
0.0
 11
1205.08943495732
 21
159.4863043811849
 31
0.0
  0
LINE
  5
C53
330
1F
100
AcDbEntity
  8
0
 62
     3
100
AcDbLine
 10
1215.88943495732
 20
165.877859267779
 30
0.0
 11
1221.58943495732
 21
165.877859267779
 31
0.0
  0
LINE
  5
C54
330
1F
100
AcDbEntity
  8
0
 62
     3
100
AcDbLine
 10
1215.88943495732
 20
165.877859267779
 30
0.0
 11
1205.08943495732
 21
165.4336818169701
 31
0.0
  0
CIRCLE
  5
C57
330
1F
100
AcDbEntity
  8
0
 62
     3
100
AcDbCircle
 10
1247.58943495732
 20
218.6769918028581
 30
0.0
 40
6.0
  0
CIRCLE
  5
C58
330
1F
100
AcDbEntity
  8
0
 62
     3
100
AcDbCircle
 10
1247.58943495732
 20
218.6769918028581
 30
0.0
 40
2.0
  0
LINE
  5
C75
330
1F
100
AcDbEntity
  8
0
 62
     3
100
AcDbLine
 10
1226.58943495732
 20
208.676991802858
 30
0.0
 11
1226.58943495732
 21
228.6769918028581
 31
0.0
  0
LINE
  5
C76
330
1F
100
AcDbEntity
  8
0
 62
     3
100
AcDbLine
 10
1267.08943495732
 20
211.1769918028581
 30
0.0
 11
1265.58943495732
 21
211.1769918028581
 31
0.0
  0
LINE
  5
C77
330
1F
100
AcDbEntity
  8
0
 62
     3
100
AcDbLine
 10
1267.08943495732
 20
226.1769918028581
 30
0.0
 11
1265.58943495732
 21
226.1769918028581
 31
0.0
  0
LINE
  5
C78
330
1F
100
AcDbEntity
  8
0
 62
     3
100
AcDbLine
 10
1268.58943495732
 20
211.8269918028581
 30
0.0
 11
1267.08943495732
 21
211.8269918028581
 31
0.0
  0
LINE
  5
C79
330
1F
100
AcDbEntity
  8
0
 62
     3
100
AcDbLine
 10
1268.58943495732
 20
225.5269918028581
 30
0.0
 11
1267.08943495732
 21
225.5269918028581
 31
0.0
  0
LINE
  5
C7A
330
1F
100
AcDbEntity
  8
0
 62
     3
100
AcDbLine
 10
1283.58943495732
 20
212.1769918028581
 30
0.0
 11
1282.58943495732
 21
212.1769918028581
 31
0.0
  0
LINE
  5
C7B
330
1F
100
AcDbEntity
  8
0
 62
     3
100
AcDbLine
 10
1278.08943495732
 20
212.1769918028581
 30
0.0
 11
1274.08943495732
 21
212.1769918028581
 31
0.0
  0
LINE
  5
C7C
330
1F
100
AcDbEntity
  8
0
 62
     3
100
AcDbLine
 10
1283.58943495732
 20
225.1769918028581
 30
0.0
 11
1282.58943495732
 21
225.1769918028581
 31
0.0
  0
LINE
  5
C7D
330
1F
100
AcDbEntity
  8
0
 62
     3
100
AcDbLine
 10
1278.08943495732
 20
225.1769918028581
 30
0.0
 11
1274.08943495732
 21
225.1769918028581
 31
0.0
  0
LINE
  5
C7E
330
1F
100
AcDbEntity
  8
0
 62
     3
100
AcDbLine
 10
1281.58943495732
 20
213.1769918028581
 30
0.0
 11
1279.08943495732
 21
213.1769918028581
 31
0.0
  0
LINE
  5
C7F
330
1F
100
AcDbEntity
  8
0
 62
     3
100
AcDbLine
 10
1289.58943495732
 20
213.1769918028581
 30
0.0
 11
1294.58943495732
 21
213.1769918028581
 31
0.0
  0
LINE
  5
C80
330
1F
100
AcDbEntity
  8
0
 62
     3
100
AcDbLine
 10
1281.58943495732
 20
224.1769918028581
 30
0.0
 11
1279.08943495732
 21
224.1769918028581
 31
0.0
  0
LINE
  5
C81
330
1F
100
AcDbEntity
  8
0
 62
     3
100
AcDbLine
 10
1289.58943495732
 20
224.1769918028581
 30
0.0
 11
1294.58943495732
 21
224.1769918028581
 31
0.0
  0
LINE
  5
C82
330
1F
100
AcDbEntity
  8
0
 62
     3
100
AcDbLine
 10
1294.58943495732
 20
213.1769918028581
 30
0.0
 11
1294.58943495732
 21
224.1769918028581
 31
0.0
  0
LINE
  5
C83
330
1F
100
AcDbEntity
  8
0
 62
     3
100
AcDbLine
 10
1265.58943495732
 20
210.1769918028581
 30
0.0
 11
1265.58943495732
 21
227.1769918028581
 31
0.0
  0
LINE
  5
C84
330
1F
100
AcDbEntity
  8
0
 62
     3
100
AcDbLine
 10
1267.08943495732
 20
226.1769918028581
 30
0.0
 11
1267.08943495732
 21
211.1769918028581
 31
0.0
  0
LINE
  5
C85
330
1F
100
AcDbEntity
  8
0
 62
     3
100
AcDbLine
 10
1268.58943495732
 20
210.7672931149602
 30
0.0
 11
1268.58943495732
 21
226.5866904907559
 31
0.0
  0
LINE
  5
C86
330
1F
100
AcDbEntity
  8
0
 62
     3
100
AcDbLine
 10
1274.08943495732
 20
225.5269918028581
 30
0.0
 11
1274.08943495732
 21
211.8269918028581
 31
0.0
  0
LINE
  5
C87
330
1F
100
AcDbEntity
  8
0
 62
     3
100
AcDbLine
 10
1289.58943495732
 20
224.1769918028581
 30
0.0
 11
1283.58943495732
 21
225.1769918028581
 31
0.0
  0
LINE
  5
C88
330
1F
100
AcDbEntity
  8
0
 62
     3
100
AcDbLine
 10
1283.58943495732
 20
225.1769918028581
 30
0.0
 11
1283.58943495732
 21
212.1769918028581
 31
0.0
  0
LINE
  5
C89
330
1F
100
AcDbEntity
  8
0
 62
     3
100
AcDbLine
 10
1283.58943495732
 20
212.1769918028581
 30
0.0
 11
1289.58943495732
 21
213.1769918028581
 31
0.0
  0
LINE
  5
C8A
330
1F
100
AcDbEntity
  8
0
 62
     3
100
AcDbLine
 10
1289.58943495732
 20
213.1769918028581
 30
0.0
 11
1289.58943495732
 21
224.1769918028581
 31
0.0
  0
LINE
  5
C8B
330
1F
100
AcDbEntity
  8
0
 62
     3
100
AcDbLine
 10
1282.58943495732
 20
225.1769918028581
 30
0.0
 11
1281.58943495732
 21
224.1769918028581
 31
0.0
  0
LINE
  5
C8C
330
1F
100
AcDbEntity
  8
0
 62
     3
100
AcDbLine
 10
1281.58943495732
 20
224.1769918028581
 30
0.0
 11
1281.58943495732
 21
213.1769918028581
 31
0.0
  0
LINE
  5
C8D
330
1F
100
AcDbEntity
  8
0
 62
     3
100
AcDbLine
 10
1281.58943495732
 20
213.1769918028581
 30
0.0
 11
1282.58943495732
 21
212.1769918028581
 31
0.0
  0
LINE
  5
C8E
330
1F
100
AcDbEntity
  8
0
 62
     3
100
AcDbLine
 10
1282.58943495732
 20
212.1769918028581
 30
0.0
 11
1282.58943495732
 21
225.1769918028581
 31
0.0
  0
LINE
  5
C8F
330
1F
100
AcDbEntity
  8
0
 62
     3
100
AcDbLine
 10
1279.08943495732
 20
224.1769918028581
 30
0.0
 11
1278.08943495732
 21
225.1769918028581
 31
0.0
  0
LINE
  5
C90
330
1F
100
AcDbEntity
  8
0
 62
     3
100
AcDbLine
 10
1278.08943495732
 20
225.1769918028581
 30
0.0
 11
1278.08943495732
 21
212.1769918028581
 31
0.0
  0
LINE
  5
C91
330
1F
100
AcDbEntity
  8
0
 62
     3
100
AcDbLine
 10
1278.08943495732
 20
212.1769918028581
 30
0.0
 11
1279.08943495732
 21
213.1769918028581
 31
0.0
  0
LINE
  5
C92
330
1F
100
AcDbEntity
  8
0
 62
     3
100
AcDbLine
 10
1279.08943495732
 20
213.1769918028581
 30
0.0
 11
1279.08943495732
 21
224.1769918028581
 31
0.0
  0
ARC
  5
C93
330
1F
100
AcDbEntity
  8
0
 62
     3
100
AcDbCircle
 10
1271.634330790653
 20
224.6092658187815
 30
0.0
 40
2.455104166666878
100
AcDbArc
 50
306.3477981926011
 51
53.65220180739894
  0
ARC
  5
C94
330
1F
100
AcDbEntity
  8
0
 62
     3
100
AcDbCircle
 10
1265.769018290652
 20
218.6769918028578
 30
0.0
 40
8.32041666666733
100
AcDbArc
 50
331.6198996863119
 51
28.3801003136896
  0
LINE
  5
C9C
330
1F
100
AcDbEntity
  8
0
 62
     3
100
AcDbLine
 10
1273.08943495732
 20
226.5866904907559
 30
0.0
 11
1268.58943495732
 21
226.5866904907559
 31
0.0
  0
LINE
  5
C9D
330
1F
100
AcDbEntity
  8
0
 62
     3
100
AcDbLine
 10
1268.58943495732
 20
222.6318411468069
 30
0.0
 11
1273.08943495732
 21
222.6318411468069
 31
0.0
  0
LINE
  5
C9E
330
1F
100
AcDbEntity
  8
0
 62
     3
100
AcDbLine
 10
1268.58943495732
 20
214.7221424589087
 30
0.0
 11
1273.08943495732
 21
214.7221424589087
 31
0.0
  0
LINE
  5
C9F
330
1F
100
AcDbEntity
  8
0
 62
     3
100
AcDbLine
 10
1273.089434957321
 20
210.7672931149602
 30
0.0
 11
1268.58943495732
 21
210.7672931149602
 31
0.0
  0
ARC
  5
CA1
330
1F
100
AcDbEntity
  8
0
 62
     3
100
AcDbCircle
 10
1271.634330790653
 20
212.7447177869342
 30
0.0
 40
2.455104166666878
100
AcDbArc
 50
306.3477981926011
 51
53.65220180739894
  0
LINE
  5
CA2
330
1F
100
AcDbEntity
  8
0
 62
     3
100
AcDbLine
 10
1274.08943495732
 20
225.5269918028581
 30
0.0
 11
1273.08943495732
 21
226.5866904907559
 31
0.0
  0
LINE
  5
CA3
330
1F
100
AcDbEntity
  8
0
 62
     3
100
AcDbLine
 10
1274.08943495732
 20
211.8269918028581
 30
0.0
 11
1273.08943495732
 21
210.7672931149596
 31
0.0
  0
LINE
  5
CB5
330
1F
100
AcDbEntity
  8
0
 62
     3
100
AcDbLine
 10
1226.58943495732
 20
228.6769918028581
 30
0.0
 11
1233.322105509914
 21
229.2769918028581
 31
0.0
  0
LINE
  5
CB6
330
1F
100
AcDbEntity
  8
0
 62
     3
100
AcDbLine
 10
1233.322105509914
 20
229.2769918028581
 30
0.0
 11
1233.485369323895
 21
228.9769918028581
 31
0.0
  0
LINE
  5
CB7
330
1F
100
AcDbEntity
  8
0
 62
     3
100
AcDbLine
 10
1226.58943495732
 20
208.676991802858
 30
0.0
 11
1233.322105509914
 21
208.0769918028581
 31
0.0
  0
LINE
  5
CB8
330
1F
100
AcDbEntity
  8
0
 62
     3
100
AcDbLine
 10
1233.322105509914
 20
208.0769918028581
 30
0.0
 11
1233.485369323895
 21
208.3769918028581
 31
0.0
  0
ARC
  5
CBA
330
1F
100
AcDbEntity
  8
0
 62
     3
100
AcDbCircle
 10
1233.485369323895
 20
-58.22051658470925
 30
0.0
 40
287.1975083875673
100
AcDbArc
 50
83.58183855894369
 51
90.0
  0
ARC
  5
CBB
330
1F
100
AcDbEntity
  8
0
 62
     3
100
AcDbCircle
 10
1233.485369323895
 20
495.5745001904229
 30
0.0
 40
287.1975083875648
100
AcDbArc
 50
270.0
 51
276.4181614410563
  0
ELLIPSE
  5
CBD
330
1F
100
AcDbEntity
  8
0
 62
     3
100
AcDbEllipse
 10
1247.58943495732
 20
218.6769918028581
 30
0.0
 11
-14.5
 21
0.0
 31
0.0
210
0.0
220
0.0
230
1.0
 40
0.5862068965517241
 41
1.570796326794896
 42
4.712388980384688
  0
ELLIPSE
  5
CBF
330
1F
100
AcDbEntity
  8
0
 62
     3
100
AcDbEllipse
 10
1247.58943495732
 20
228.9769918028581
 30
0.0
 11
14.10406563342461
 21
0.0
 31
0.0
210
0.0
220
0.0
230
0.9999999999999998
 40
0.127622775360194
 41
3.141592653589792
 42
4.712388980384688
  0
ELLIPSE
  5
CC0
330
1F
100
AcDbEntity
  8
0
 62
     3
100
AcDbEllipse
 10
1247.58943495732
 20
208.3769918028581
 30
0.0
 11
14.10406563342461
 21
0.0000000000000764
 31
0.0
210
0.0
220
0.0
230
-0.9999999999999998
 40
0.127622775360194
 41
3.141592653589792
 42
4.712388980384688
  0
LINE
  5
CC1
330
1F
100
AcDbEntity
  8
0
 62
     3
100
AcDbLine
 10
1253.08943495732
 20
212.6769918028581
 30
0.0
 11
1253.08943495732
 21
216.203271244487
 31
0.0
  0
LINE
  5
CC7
330
1F
100
AcDbEntity
  8
0
 62
     3
100
AcDbLine
 10
1242.08943495732
 20
212.1769918028581
 30
0.0
 11
1242.08943495732
 21
216.2032712444864
 31
0.0
  0
LINE
  5
CC9
330
1F
100
AcDbEntity
  8
0
 62
     3
100
AcDbLine
 10
1253.08943495732
 20
224.6769918028581
 30
0.0
 11
1242.08943495732
 21
225.1769918028581
 31
0.0
  0
LINE
  5
CCA
330
1F
100
AcDbEntity
  8
0
 62
     3
100
AcDbLine
 10
1253.08943495732
 20
212.6769918028581
 30
0.0
 11
1242.08943495732
 21
212.1769918028581
 31
0.0
  0
ARC
  5
CCC
330
1F
100
AcDbEntity
  8
0
 62
     3
100
AcDbCircle
 10
1248.58943495732
 20
218.6769918028581
 30
0.0
 40
7.5
100
AcDbArc
 50
306.8698976458438
 51
53.1301023541561
  0
ARC
  5
CCD
330
1F
100
AcDbEntity
  8
0
 62
     3
100
AcDbCircle
 10
1244.680535449667
 20
218.6769918028581
 30
0.0
 40
10.33003344282087
100
AcDbArc
 50
324.4910129016828
 51
35.50898709831719
  0
ARC
  5
CCE
330
1F
100
AcDbEntity
  8
0
 62
     3
100
AcDbCircle
 10
1248.077866273152
 20
218.6769918028581
 30
0.0
 40
8.83806028630946
100
AcDbArc
 50
132.6542811657792
 51
227.3457188342208
  0
ARC
  5
CCF
330
1F
100
AcDbEntity
  8
0
 62
     3
100
AcDbCircle
 10
1252.754241244842
 20
218.6769918028581
 30
0.0
 40
12.48951933223868
100
AcDbArc
 50
148.6384736738066
 51
211.3615263261927
  0
LINE
  5
CD0
330
1F
100
AcDbEntity
  8
0
 62
     3
100
AcDbLine
 10
1242.08943495732
 20
221.1507123612295
 30
0.0
 11
1242.08943495732
 21
225.1769918028581
 31
0.0
  0
LINE
  5
CD1
330
1F
100
AcDbEntity
  8
0
 62
     3
100
AcDbLine
 10
1253.08943495732
 20
221.1507123612286
 30
0.0
 11
1253.08943495732
 21
224.6769918028581
 31
0.0
  0
ELLIPSE
  5
CD4
330
1F
100
AcDbEntity
  8
0
 62
     3
100
AcDbEllipse
 10
1243.58943495732
 20
218.6769918028581
 30
0.0
 11
0.0
 21
-8.573906481285035
 31
0.0
210
0.0
220
0.0
230
1.0
 40
0.9330635944609671
 41
3.141592653589792
 42
6.283185307179585
  0
ELLIPSE
  5
CD5
330
1F
100
AcDbEntity
  8
0
 62
     3
100
AcDbEllipse
 10
1239.58943495732
 20
218.6769918028581
 30
0.0
 11
0.0
 21
-8.817571134455649
 31
0.0
210
0.0
220
0.0
230
1.0
 40
0.6804594948550063
 41
3.141592653589792
 42
6.283185307179585
  0
ARC
  5
CDC
330
1F
100
AcDbEntity
  8
0
 62
     3
100
AcDbCircle
 10
1267.58943495732
 20
177.0662270581991
 30
0.0
 40
0.5
100
AcDbArc
 50
1.767827055855801
 51
181.767827055855
  0
ARC
  5
CDD
330
1F
100
AcDbEntity
  8
0
 62
     3
100
AcDbCircle
 10
1267.08943495732
 20
160.8662270581991
 30
0.0
 40
0.5
100
AcDbArc
 50
180.0
 51
0.0
  0
ARC
  5
CE0
330
1F
100
AcDbEntity
  8
0
 62
     3
100
AcDbCircle
 10
1266.58943495732
 20
177.0662270581991
 30
0.0
 40
0.5
100
AcDbArc
 50
0.0
 51
180.0
  0
ARC
  5
CE1
330
1F
100
AcDbEntity
  8
0
 62
     3
100
AcDbCircle
 10
1266.08943495732
 20
160.8662270581991
 30
0.0
 40
0.5
100
AcDbArc
 50
57.28977769021605
 51
302.7102223097839
  0
ARC
  5
CE2
330
1F
100
AcDbEntity
  8
0
 62
     3
100
AcDbCircle
 10
1268.08943495732
 20
160.8662270581991
 30
0.0
 40
0.5
100
AcDbArc
 50
181.7678270558558
 51
1.767827055854985
  0
LINE
  5
CE6
330
1F
100
AcDbEntity
  8
0
 62
     3
100
AcDbLine
 10
1268.589196977658
 20
160.8816518119133
 30
0.0
 11
1268.089196977658
 21
177.0816518119133
 31
0.0
  0
LINE
  5
CE7
330
1F
100
AcDbEntity
  8
0
 62
     3
100
AcDbLine
 10
1267.589672936981
 20
160.850802304485
 30
0.0
 11
1267.089672936981
 21
177.050802304485
 31
0.0
  0
LINE
  5
CE8
330
1F
100
AcDbEntity
  8
0
 62
     3
100
AcDbLine
 10
1266.589672936981
 20
160.850802304485
 30
0.0
 11
1266.089672936981
 21
177.050802304485
 31
0.0
  0
LINE
  5
CE9
330
1F
100
AcDbEntity
  8
0
 62
     3
100
AcDbLine
 10
1265.607715382854
 20
161.4662270581991
 30
0.0
 11
1265.589672936981
 21
160.8816518119133
 31
0.0
  0
LINE
  5
CEA
330
1F
100
AcDbEntity
  8
0
 62
     3
100
AcDbLine
 10
1267.88943495732
 20
153.5662270581991
 30
0.0
 11
1267.28943495732
 21
153.5662270581991
 31
0.0
  0
LINE
  5
CEF
330
1F
100
AcDbEntity
  8
0
 62
     3
100
AcDbLine
 10
1267.58943495732
 20
159.4520976969567
 30
0.0
 11
1267.58943495732
 21
153.5662270581991
 31
0.0
  0
LINE
  5
CF0
330
1F
100
AcDbEntity
  8
0
 62
     3
100
AcDbLine
 10
1267.88943495732
 20
159.4520976969568
 30
0.0
 11
1267.88943495732
 21
153.5662270581991
 31
0.0
  0
LINE
  5
CF1
330
1F
100
AcDbEntity
  8
0
 62
     3
100
AcDbLine
 10
1267.28943495732
 20
159.4520976969565
 30
0.0
 11
1267.28943495732
 21
153.5662270581991
 31
0.0
  0
ARC
  5
CF2
330
1F
100
AcDbEntity
  8
0
 62
     3
100
AcDbCircle
 10
1267.589196864336
 20
160.8662270581991
 30
0.0
 40
0.9999999999999108
100
AcDbArc
 50
289.480867076573
 51
1.767827055855801
  0
ARC
  5
CF3
330
1F
100
AcDbEntity
  8
0
 62
     3
100
AcDbCircle
 10
1267.589196864336
 20
160.8662270581991
 30
0.0
 40
1.29999999999991
100
AcDbArc
 50
289.4808670765612
 51
41.48296428767562
  0
ARC
  5
CF5
330
1F
100
AcDbEntity
  8
0
 62
     3
100
AcDbCircle
 10
1268.08943495732
 20
159.4520976969567
 30
0.0
 40
0.2
100
AcDbArc
 50
109.4808670766335
 51
179.9999999999878
  0
ARC
  5
CF6
330
1F
100
AcDbEntity
  8
0
 62
     3
100
AcDbCircle
 10
1268.08943495732
 20
159.4520976969567
 30
0.0
 40
0.5
100
AcDbArc
 50
109.4808670766335
 51
179.9999999999878
  0
ARC
  5
CF7
330
1F
100
AcDbEntity
  8
0
 62
     3
100
AcDbCircle
 10
1267.589673050304
 20
160.8662270581991
 30
0.0
 40
0.9999999999999108
100
AcDbArc
 50
178.2321729441727
 51
250.5191329234545
  0
ARC
  5
CF8
330
1F
100
AcDbEntity
  8
0
 62
     3
100
AcDbCircle
 10
1267.589673050304
 20
160.8662270581991
 30
0.0
 40
1.29999999999991
100
AcDbArc
 50
142.0526898240066
 51
250.5191329234563
  0
ARC
  5
CF9
330
1F
100
AcDbEntity
  8
0
 62
     3
100
AcDbCircle
 10
1267.08943495732
 20
159.4520976969565
 30
0.0
 40
0.2
100
AcDbArc
 50
0.0000000000407111
 51
70.51913292339915
  0
ARC
  5
CFA
330
1F
100
AcDbEntity
  8
0
 62
     3
100
AcDbCircle
 10
1267.08943495732
 20
159.4520976969565
 30
0.0
 40
0.5
100
AcDbArc
 50
0.0000000000407111
 51
70.51913292339915
  0
ELLIPSE
  5
CFF
330
1F
100
AcDbEntity
  8
0
 62
     3
100
AcDbEllipse
 10
1267.58943495732
 20
146.5662270581991
 30
0.0
 11
0.0
 21
8.400000000000002
 31
0.0
210
0.0
220
0.0
230
0.9999999999999998
 40
0.7249900510497092
 41
2.43943935934899
 42
8.169764390399134
  0
ELLIPSE
  5
D00
330
1F
100
AcDbEntity
  8
0
 62
     3
100
AcDbEllipse
 10
1267.58943495732
 20
146.5662270581991
 30
0.0
 11
0.0
 21
10.0
 31
0.0
210
0.0
220
0.0
230
1.0
 40
0.7758712391295376
 41
2.48402619242349
 42
8.264229830418017
  0
LINE
  5
D01
330
1F
100
AcDbEntity
  8
0
 62
     3
100
AcDbLine
 10
1258.58943495732
 20
99.56622705819917
 30
0.0
 11
1258.58943495732
 21
137.0662270581991
 31
0.0
  0
LINE
  5
D03
330
1F
100
AcDbEntity
  8
0
 62
     3
100
AcDbLine
 10
1262.58943495732
 20
99.56622705819917
 30
0.0
 11
1262.58943495732
 21
137.0662270581991
 31
0.0
  0
ARC
  5
D04
330
1F
100
AcDbEntity
  8
0
 62
     3
100
AcDbCircle
 10
1267.58943495732
 20
137.0662270581991
 30
0.0
 40
9.0
100
AcDbArc
 50
17.22929145380097
 51
37.76348790262632
  0
ARC
  5
D05
330
1F
100
AcDbEntity
  8
0
 62
     3
100
AcDbCircle
 10
1267.58943495732
 20
137.0662270581991
 30
0.0
 40
5.0
100
AcDbArc
 50
17.22929145380097
 51
18.48377701334896
  0
ARC
  5
D07
330
1F
100
AcDbEntity
  8
0
 62
     3
100
AcDbCircle
 10
1267.58943495732
 20
99.56622705819917
 30
0.0
 40
9.0
100
AcDbArc
 50
180.0
 51
270.0
  0
ARC
  5
D08
330
1F
100
AcDbEntity
  8
0
 62
     3
100
AcDbCircle
 10
1267.58943495732
 20
99.56622705819917
 30
0.0
 40
5.0
100
AcDbArc
 50
180.0
 51
270.0
  0
ARC
  5
D0A
330
1F
100
AcDbEntity
  8
0
 62
     3
100
AcDbCircle
 10
1267.58943495732
 20
110.5662270581991
 30
0.0
 40
20.0
100
AcDbArc
 50
270.0
 51
330.4586394998576
  0
ARC
  5
D0B
330
1F
100
AcDbEntity
  8
0
 62
     3
100
AcDbCircle
 10
1267.58943495732
 20
110.5662270581991
 30
0.0
 40
16.0
100
AcDbArc
 50
270.0
 51
330.4586394998576
  0
ARC
  5
D11
330
1F
100
AcDbEntity
  8
0
 62
     3
100
AcDbCircle
 10
1276.28943495732
 20
105.6357098439508
 30
0.0
 40
10.0
100
AcDbArc
 50
330.4586394998576
 51
17.22929145380097
  0
ARC
  5
D12
330
1F
100
AcDbEntity
  8
0
 62
     3
100
AcDbCircle
 10
1276.28943495732
 20
105.6357098439508
 30
0.0
 40
6.0
100
AcDbArc
 50
330.4586394998576
 51
17.22929145380097
  0
LINE
  5
D13
330
1F
100
AcDbEntity
  8
0
 62
     3
100
AcDbLine
 10
1276.185578513375
 20
139.7319944831048
 30
0.0
 11
1285.840705575159
 21
108.5976736494016
 31
0.0
  0
LINE
  5
D14
330
1F
100
AcDbEntity
  8
0
 62
     3
100
AcDbLine
 10
1272.365070266239
 20
138.5472089609244
 30
0.0
 11
1273.643009171338
 21
134.4263144742349
 31
0.0
  0
LINE
  5
D17
330
1F
100
AcDbEntity
  8
0
 62
     3
100
AcDbLine
 10
1277.463517418474
 20
135.6110999964152
 30
0.0
 11
1272.210318578662
 21
133.9820199034172
 31
0.0
  0
CIRCLE
  5
D19
330
1F
100
AcDbEntity
  8
0
 62
     3
100
AcDbCircle
 10
1275.725507140203
 20
131.9311787645645
 30
0.0
 40
1.25
  0
LINE
  5
D1A
330
1F
100
AcDbEntity
  8
0
 62
     3
100
AcDbLine
 10
1272.210318578662
 20
133.9820199034172
 30
0.0
 11
1280.503817233924
 21
107.2384621734673
 31
0.0
  0
LINE
  5
D1C
330
1F
100
AcDbEntity
  8
0
 62
     3
100
AcDbLine
 10
1285.757016073736
 20
108.8675422664655
 30
0.0
 11
1280.503817233924
 21
107.2384621734673
 31
0.0
  0
LINE
  5
D1D
330
1F
100
AcDbEntity
  8
0
 62
     3
100
AcDbLine
 10
1272.97939656165
 20
136.5662270581991
 30
0.0
 11
1277.167321037928
 21
136.5662270581991
 31
0.0
  0
LINE
  5
D1E
330
1F
100
AcDbEntity
  8
0
 62
     3
100
AcDbLine
 10
1281.9365078266
 20
107.682756744285
 30
0.0
 11
1282.020197328023
 21
107.4128881272213
 31
0.0
  0
ARC
  5
D1F
330
1F
100
AcDbEntity
  8
0
 62
     3
100
AcDbCircle
 10
1267.58943495732
 20
137.0662270581991
 30
0.0
 40
9.0
100
AcDbArc
 50
49.96921638342704
 51
180.0
  0
ARC
  5
D20
330
1F
100
AcDbEntity
  8
0
 62
     3
100
AcDbCircle
 10
1267.58943495732
 20
137.0662270581991
 30
0.0
 40
5.0
100
AcDbArc
 50
38.12641302394555
 51
180.0
  0
LINE
  5
D34
330
1F
100
AcDbEntity
  8
0
 62
     3
100
AcDbLine
 10
1213.188475295233
 20
172.165678679864
 30
0.0
 11
1211.08943495732
 21
170.9662270581992
 31
0.0
  0
LINE
  5
D35
330
1F
100
AcDbEntity
  8
0
 62
     3
100
AcDbLine
 10
1211.08943495732
 20
170.9662270581992
 30
0.0
 11
1211.08943495732
 21
166.9662270581992
 31
0.0
  0
LINE
  5
D36
330
1F
100
AcDbEntity
  8
0
 62
     3
100
AcDbLine
 10
1211.08943495732
 20
166.9662270581992
 30
0.0
 11
1213.188475295234
 21
165.7667754365342
 31
0.0
  0
LINE
  5
D37
330
1F
100
AcDbEntity
  8
0
 62
     3
100
AcDbLine
 10
1226.58943495732
 20
212.4769918028581
 30
0.0
 11
1221.58943495732
 21
212.4769918028581
 31
0.0
  0
LINE
  5
D38
330
1F
100
AcDbEntity
  8
0
 62
     3
100
AcDbLine
 10
1226.58943495732
 20
224.8769918028581
 30
0.0
 11
1221.58943495732
 21
224.8769918028581
 31
0.0
  0
LINE
  5
D39
330
1F
100
AcDbEntity
  8
0
 62
     3
100
AcDbLine
 10
1221.58943495732
 20
210.4957999452532
 30
0.0
 11
1221.58943495732
 21
226.8581836604629
 31
0.0
  0
LINE
  5
D3A
330
1F
100
AcDbEntity
  8
0
 62
     3
100
AcDbLine
 10
1215.88943495732
 20
215.588624012438
 30
0.0
 11
1215.88943495732
 21
221.7653595932782
 31
0.0
  0
LINE
  5
D3B
330
1F
100
AcDbEntity
  8
0
 62
     3
100
AcDbLine
 10
1205.08943495732
 20
207.1769918028581
 30
0.0
 11
1205.08943495732
 21
230.1769918028581
 31
0.0
  0
LINE
  5
D3C
330
1F
100
AcDbEntity
  8
0
 62
     3
100
AcDbLine
 10
1205.08943495732
 20
230.1769918028581
 30
0.0
 11
1187.08943495732
 21
228.6769918028581
 31
0.0
  0
LINE
  5
D3D
330
1F
100
AcDbEntity
  8
0
 62
     3
100
AcDbLine
 10
1187.08943495732
 20
228.6769918028581
 30
0.0
 11
1187.08943495732
 21
208.6769918028581
 31
0.0
  0
LINE
  5
D3E
330
1F
100
AcDbEntity
  8
0
 62
     3
100
AcDbLine
 10
1187.08943495732
 20
208.6769918028581
 30
0.0
 11
1205.08943495732
 21
207.1769918028581
 31
0.0
  0
LINE
  5
D3F
330
1F
100
AcDbEntity
  8
0
 62
     3
100
AcDbLine
 10
1221.58943495732
 20
223.8883351794795
 30
0.0
 11
1205.08943495732
 21
225.1870659988891
 31
0.0
  0
LINE
  5
D40
330
1F
100
AcDbEntity
  8
0
 62
     3
100
AcDbLine
 10
1221.58943495732
 20
226.8581836604629
 30
0.0
 11
1205.08943495732
 21
228.1569144798722
 31
0.0
  0
LINE
  5
D41
330
1F
100
AcDbEntity
  8
0
 62
     3
100
AcDbLine
 10
1215.88943495732
 20
221.7653595932782
 30
0.0
 11
1221.58943495732
 21
221.7653595932782
 31
0.0
  0
LINE
  5
D42
330
1F
100
AcDbEntity
  8
0
 62
     3
100
AcDbLine
 10
1215.88943495732
 20
221.7653595932782
 30
0.0
 11
1205.08943495732
 21
222.2095370440872
 31
0.0
  0
LINE
  5
D43
330
1F
100
AcDbEntity
  8
0
 62
     3
100
AcDbLine
 10
1221.58943495732
 20
213.4656484262366
 30
0.0
 11
1205.08943495732
 21
212.1669176068271
 31
0.0
  0
LINE
  5
D44
330
1F
100
AcDbEntity
  8
0
 62
     3
100
AcDbLine
 10
1221.58943495732
 20
210.4957999452532
 30
0.0
 11
1205.08943495732
 21
209.1970691258439
 31
0.0
  0
LINE
  5
D45
330
1F
100
AcDbEntity
  8
0
 62
     3
100
AcDbLine
 10
1215.88943495732
 20
215.588624012438
 30
0.0
 11
1221.58943495732
 21
215.588624012438
 31
0.0
  0
LINE
  5
D46
330
1F
100
AcDbEntity
  8
0
 62
     3
100
AcDbLine
 10
1215.88943495732
 20
215.588624012438
 30
0.0
 11
1205.08943495732
 21
215.144446561629
 31
0.0
  0
LINE
  5
D47
330
1F
100
AcDbEntity
  8
0
 62
     3
100
AcDbLine
 10
1213.188475295233
 20
221.876443424523
 30
0.0
 11
1211.08943495732
 21
220.6769918028582
 31
0.0
  0
LINE
  5
D48
330
1F
100
AcDbEntity
  8
0
 62
     3
100
AcDbLine
 10
1211.08943495732
 20
220.6769918028582
 30
0.0
 11
1211.08943495732
 21
216.6769918028581
 31
0.0
  0
LINE
  5
D49
330
1F
100
AcDbEntity
  8
0
 62
     3
100
AcDbLine
 10
1211.08943495732
 20
216.6769918028581
 30
0.0
 11
1213.188475295234
 21
215.4775401811932
 31
0.0
  0
LINE
  5
D4A
330
1F
100
AcDbEntity
  8
0
  6
HIDDEN
100
AcDbLine
 10
1228.58943495732
 20
213.8269918028581
 30
0.0
 11
1228.58943495732
 21
223.5269918028581
 31
0.0
  0
LINE
  5
D4B
330
1F
100
AcDbEntity
  8
0
  6
HIDDEN
100
AcDbLine
 10
1235.58943495732
 20
214.3769918028581
 30
0.0
 11
1235.58943495732
 21
222.9769918028582
 31
0.0
  0
LINE
  5
D4D
330
1F
100
AcDbEntity
  8
0
  6
HIDDEN
100
AcDbLine
 10
1228.58943495732
 20
223.5269918028581
 30
0.0
 11
1235.271892309266
 21
223.5269918028581
 31
0.0
  0
LINE
  5
D4E
330
1F
100
AcDbEntity
  8
0
  6
HIDDEN
100
AcDbLine
 10
1235.271892309266
 20
213.826991802858
 30
0.0
 11
1228.58943495732
 21
213.8269918028581
 31
0.0
  0
LINE
  5
D4F
330
1F
100
AcDbEntity
  8
0
  6
HIDDEN
100
AcDbLine
 10
1226.58943495732
 20
222.5269918028581
 30
0.0
 11
1228.58943495732
 21
222.5269918028581
 31
0.0
  0
LINE
  5
D50
330
1F
100
AcDbEntity
  8
0
  6
HIDDEN
100
AcDbLine
 10
1226.58943495732
 20
214.8269918028581
 30
0.0
 11
1228.58943495732
 21
214.8269918028581
 31
0.0
  0
LINE
  5
D51
330
1F
100
AcDbEntity
  8
0
  6
HIDDEN
100
AcDbLine
 10
1235.58943495732
 20
222.9769918028581
 30
0.0
 11
1228.58943495732
 21
222.9769918028581
 31
0.0
  0
LINE
  5
D52
330
1F
100
AcDbEntity
  8
0
  6
HIDDEN
100
AcDbLine
 10
1235.58943495732
 20
214.3769918028581
 30
0.0
 11
1228.58943495732
 21
214.3769918028581
 31
0.0
  0
LINE
  5
D53
330
1F
100
AcDbEntity
  8
0
100
AcDbLine
 10
1235.58943495732
 20
222.9769918028581
 30
0.0
 11
1235.271892309266
 21
223.5269918028581
 31
0.0
  0
LINE
  5
D54
330
1F
100
AcDbEntity
  8
0
  6
HIDDEN
100
AcDbLine
 10
1235.58943495732
 20
214.3769918028581
 30
0.0
 11
1235.271892309266
 21
213.826991802858
 31
0.0
  0
LINE
  5
D55
330
1F
100
AcDbEntity
  8
0
  6
HIDDEN
100
AcDbLine
 10
1235.271892309266
 20
223.5269918028581
 30
0.0
 11
1235.271892309266
 21
213.826991802858
 31
0.0
  0
LINE
  5
D56
330
1F
100
AcDbEntity
  8
0
  6
HIDDEN
 62
     7
100
AcDbLine
 10
1257.580182686131
 20
225.2269918028582
 30
0.0
 11
1264.58943495732
 21
225.2269918028582
 31
0.0
  0
LINE
  5
D57
330
1F
100
AcDbEntity
  8
0
  6
HIDDEN
 62
     7
100
AcDbLine
 10
1257.580182686131
 20
212.1269918028581
 30
0.0
 11
1264.58943495732
 21
212.1269918028581
 31
0.0
  0
LINE
  5
D58
330
1F
100
AcDbEntity
  8
0
  6
HIDDEN
 62
     7
100
AcDbLine
 10
1257.08943495732
 20
224.3769918028586
 30
0.0
 11
1257.08943495732
 21
212.976991802858
 31
0.0
  0
LINE
  5
D59
330
1F
100
AcDbEntity
  8
0
  6
HIDDEN
 62
     7
100
AcDbLine
 10
1264.58943495732
 20
225.2269918028582
 30
0.0
 11
1264.58943495732
 21
212.1269918028581
 31
0.0
  0
LINE
  5
D5A
330
1F
100
AcDbEntity
  8
0
  6
HIDDEN
 62
     7
100
AcDbLine
 10
1257.08943495732
 20
224.3769918028581
 30
0.0
 11
1264.58943495732
 21
224.3769918028581
 31
0.0
  0
LINE
  5
D5B
330
1F
100
AcDbEntity
  8
0
  6
HIDDEN
 62
     7
100
AcDbLine
 10
1257.08943495732
 20
212.9769918028582
 30
0.0
 11
1264.58943495732
 21
212.9769918028582
 31
0.0
  0
LINE
  5
D5C
330
1F
100
AcDbEntity
  8
0
  6
HIDDEN
 62
     7
100
AcDbLine
 10
1257.580182686131
 20
225.226991802858
 30
0.0
 11
1257.08943495732
 21
224.3769918028581
 31
0.0
  0
LINE
  5
D5D
330
1F
100
AcDbEntity
  8
0
  6
HIDDEN
 62
     7
100
AcDbLine
 10
1257.580182686131
 20
212.1269918028582
 30
0.0
 11
1257.08943495732
 21
212.9769918028582
 31
0.0
  0
LINE
  5
D5E
330
1F
100
AcDbEntity
  8
0
  6
HIDDEN
 62
     7
100
AcDbLine
 10
1257.580182686131
 20
225.2269918028582
 30
0.0
 11
1257.580182686131
 21
212.1269918028581
 31
0.0
  0
LINE
  5
D5F
330
1F
100
AcDbEntity
  8
0
  6
HIDDEN
 62
     7
100
AcDbLine
 10
1267.08943495732
 20
213.0769918028581
 30
0.0
 11
1264.58943495732
 21
213.0769918028581
 31
0.0
  0
LINE
  5
D60
330
1F
100
AcDbEntity
  8
0
  6
HIDDEN
 62
     7
100
AcDbLine
 10
1267.08943495732
 20
224.2769918028582
 30
0.0
 11
1264.58943495732
 21
224.2769918028582
 31
0.0
  0
LINE
  5
E6A
330
1F
100
AcDbEntity
  8
0
 62
     3
100
AcDbLine
 10
1273.08943495732
 20
168.9662270581991
 30
0.0
 11
1268.58943495732
 21
168.9662270581991
 31
0.0
  0
LINE
  5
EBC
330
1F
100
AcDbEntity
  8
0
  6
CENTER
 62
     7
100
AcDbLine
 10
1297.874021442266
 20
218.6769918028581
 30
0.0
 11
1182.107990055601
 21
218.6769918028581
 31
0.0
  0
LINE
  5
EBD
330
1F
100
AcDbEntity
  8
0
  6
CENTER
 62
     7
100
AcDbLine
 10
1297.874021442266
 20
168.9662270581991
 30
0.0
 11
1182.107990055601
 21
168.9662270581991
 31
0.0
  0
TEXT
  5
F07
330
1F
100
AcDbEntity
  8
0
 62
     3
100
AcDbText
 10
1177.745455254661
 20
125.7939026726347
 30
0.0
 40
3.2
  1
型　　　式
 41
0.8
  7
高3.2
100
AcDbText
  0
TEXT
  5
F08
330
1F
100
AcDbEntity
  8
0
 62
     3
100
AcDbText
 10
1177.745455254661
 20
98.29390267263466
 30
0.0
 40
3.2
  1
エアー取付口ネジ 
 41
0.6
  7
高3.2
100
AcDbText
  0
TEXT
  5
F0D
330
1F
100
AcDbEntity
  8
0
 62
     3
100
AcDbText
 10
1177.745455254661
 20
92.79390267263464
 30
0.0
 40
3.2
  1
質　　　量
 41
0.8
  7
高3.2
100
AcDbText
  0
LINE
  5
F0E
330
1F
100
AcDbEntity
  8
0
 62
     3
100
AcDbLine
 10
1176.245455254661
 20
130.2939026726347
 30
0.0
 11
1176.245455254661
 21
91.79390267263466
 31
0.0
  0
TEXT
  5
F0F
330
1F
100
AcDbEntity
  8
0
 62
     3
100
AcDbText
 10
1177.745455254661
 20
114.7939026726347
 30
0.0
 40
3.2
  1
最大使用圧力
 41
0.8
  7
高3.2
100
AcDbText
  0
LINE
  5
F10
330
1F
100
AcDbEntity
  8
0
 62
     3
100
AcDbLine
 10
1225.697811683549
 20
130.2939026726347
 30
0.0
 11
1225.697811683549
 21
91.79390267263466
 31
0.0
  0
LINE
  5
F11
330
1F
100
AcDbEntity
  8
0
 62
     3
100
AcDbLine
 10
1176.245455254661
 20
130.2939026726347
 30
0.0
 11
1225.697811683549
 21
130.2939026726347
 31
0.0
  0
LINE
  5
F12
330
1F
100
AcDbEntity
  8
0
100
AcDbLine
 10
1176.245455254661
 20
124.7939026726347
 30
0.0
 11
1225.697811683549
 21
124.7939026726347
 31
0.0
  0
LINE
  5
F13
330
1F
100
AcDbEntity
  8
0
100
AcDbLine
 10
1176.245455254661
 20
113.7939026726347
 30
0.0
 11
1225.697811683549
 21
113.7939026726347
 31
0.0
  0
LINE
  5
F14
330
1F
100
AcDbEntity
  8
0
100
AcDbLine
 10
1176.245455254661
 20
102.7939026726346
 30
0.0
 11
1225.697811683549
 21
102.7939026726346
 31
0.0
  0
LINE
  5
F15
330
1F
100
AcDbEntity
  8
0
100
AcDbLine
 10
1176.245455254661
 20
97.29390267263466
 30
0.0
 11
1225.697811683549
 21
97.29390267263466
 31
0.0
  0
LINE
  5
F16
330
1F
100
AcDbEntity
  8
0
 62
     3
100
AcDbLine
 10
1176.245455254661
 20
91.79390267263466
 30
0.0
 11
1225.697811683549
 21
91.79390267263466
 31
0.0
  0
TEXT
  5
F1B
330
1F
100
AcDbEntity
  8
0
 62
     3
100
AcDbText
 10
1187.961383275174
 20
135.0451793972156
 30
0.0
 40
3.2
  1
主　　仕　　様
  7
高3.2
100
AcDbText
  0
TEXT
  5
F1C
330
1F
100
AcDbEntity
  8
0
 62
     3
100
AcDbText
 10
1198.864691641684
 20
114.7939026726347
 30
0.0
 40
3.2
  1
0.8MPa
 41
0.8
  7
高3.2
100
AcDbText
  0
LINE
  5
F1F
330
1F
100
AcDbEntity
  8
0
100
AcDbLine
 10
1197.364691641684
 20
130.2939026726347
 30
0.0
 11
1197.364691641684
 21
91.79390267263466
 31
0.0
  0
LINE
  5
F21
330
1F
100
AcDbEntity
  8
0
100
AcDbLine
 10
1176.245455254661
 20
108.2939026726347
 30
0.0
 11
1225.697811683549
 21
108.2939026726347
 31
0.0
  0
TEXT
  5
F22
330
1F
100
AcDbEntity
  8
0
 62
     3
100
AcDbText
 10
1177.745455254661
 20
109.2939026726347
 30
0.0
 40
3.2
  1
ノズル穴径
 41
0.8
  7
高3.2
100
AcDbText
  0
TEXT
  5
F23
330
1F
100
AcDbEntity
  8
0
 62
     3
100
AcDbText
 10
1198.864691641684
 20
109.2939026726347
 30
0.0
 40
3.2
  1
%%C2.3
 41
0.8
  7
高3.2
100
AcDbText
  0
TEXT
  5
F24
330
1F
100
AcDbEntity
  8
0
 62
     3
100
AcDbText
 10
1198.864691641684
 20
125.7939026726347
 30
0.0
 40
3.2
  1
AD-01B
 41
0.8
  7
高3.2
100
AcDbText
  0
TEXT
  5
F25
330
1F
100
AcDbEntity
  8
0
 62
     3
100
AcDbText
 10
1198.864691641684
 20
98.29390267263466
 30
0.0
 40
3.2
  1
G1/4
 41
0.8
  7
高3.2
100
AcDbText
  0
TEXT
  5
F26
330
1F
100
AcDbEntity
  8
0
 62
     3
100
AcDbText
 10
1198.864691641684
 20
92.79390267263464
 30
0.0
 40
3.2
  1
66g(カラビナ含)
 41
0.8
  7
高3.2
100
AcDbText
  0
LINE
  5
F2A
330
1F
100
AcDbEntity
  8
0
100
AcDbLine
 10
1187.419993891156
 20
134.0818427039603
 30
0.0
 11
1214.523273047053
 21
134.0818427039603
 31
0.0
  0
TEXT
  5
F2C
330
1F
100
AcDbEntity
  8
0
 62
     3
100
AcDbText
 10
1177.745455254661
 20
103.7939026726346
 30
0.0
 40
3.2
  1
ノズル取付口ネジ 
 41
0.6
  7
高3.2
100
AcDbText
  0
TEXT
  5
F2D
330
1F
100
AcDbEntity
  8
0
 62
     3
100
AcDbText
 10
1198.864691641684
 20
103.7939026726346
 30
0.0
 40
3.2
  1
G1/8
 41
0.8
  7
高3.2
100
AcDbText
  0
TEXT
  5
F34
330
1F
100
AcDbEntity
  8
0
 62
     7
100
AcDbText
 10
1176.184601161079
 20
88.50729939547234
 30
0.0
 40
2.0
  1
注１）安全にご使用いただくため、取扱説明書をご参照ください。
 41
0.7
  7
高2
100
AcDbText
  0
TEXT
  5
F35
330
1F
100
AcDbEntity
  8
0
 62
     7
100
AcDbText
 10
1176.184601161079
 20
85.50729939547233
 30
0.0
 40
2.0
  1
注２）仕様変更は予告なく行う場合があります。予めご了承ください。
 41
0.7
  7
高2
100
AcDbText
  0
TEXT
  5
F37
330
1F
100
AcDbEntity
  8
0
 62
     3
100
AcDbText
 10
1177.745455254661
 20
120.2939026726347
 30
0.0
 40
3.2
  1
適用　流体
 41
0.8
  7
高3.2
100
AcDbText
  0
LINE
  5
F38
330
1F
100
AcDbEntity
  8
0
100
AcDbLine
 10
1176.245455254661
 20
119.2939026726347
 30
0.0
 11
1225.697811683549
 21
119.2939026726347
 31
0.0
  0
TEXT
  5
F39
330
1F
100
AcDbEntity
  8
0
 62
     3
100
AcDbText
 10
1198.864691641684
 20
120.2939026726347
 30
0.0
 40
3.2
  1
空気
 41
0.8
  7
高3.2
100
AcDbText
  0
LINE
  5
F43
330
1F
100
AcDbEntity
  8
0
 62
     3
100
AcDbLine
 10
1142.366312285605
 20
145.2401203598488
 30
0.0
 11
1141.878385455605
 21
145.2401203598488
 31
0.0
  0
LINE
  5
F44
330
1F
100
AcDbEntity
  8
0
 62
     3
100
AcDbLine
 10
1153.878385455605
 20
283.7401203598489
 30
0.0
 11
1153.878385455605
 21
6.740120359848786
 31
0.0
  0
LINE
  5
F46
330
1F
100
AcDbEntity
  8
0
 62
     3
100
AcDbLine
 10
1333.878385455605
 20
6.740120359848786
 30
0.0
 11
1333.878385455605
 21
283.7401203598489
 31
0.0
  0
LINE
  5
F47
330
1F
100
AcDbEntity
  8
0
 62
     3
100
AcDbLine
 10
1153.878385455605
 20
6.740120359848786
 30
0.0
 11
1333.878385455605
 21
6.740120359848786
 31
0.0
  0
LINE
  5
F48
330
1F
100
AcDbEntity
  8
0
 62
     3
100
AcDbLine
 10
1219.206048085605
 20
283.7401203598489
 30
0.0
 11
1333.878385455605
 21
283.7401203598489
 31
0.0
  0
LINE
  5
F4A
330
1F
100
AcDbEntity
  8
0
 62
     3
100
AcDbLine
 10
1185.793301565605
 20
283.7401203598489
 30
0.0
 11
1153.878385455605
 21
283.7401203598489
 31
0.0
  0
LINE
  5
F4B
330
1F
100
AcDbEntity
  8
0
 62
     3
100
AcDbLine
 10
1281.878385455605
 20
6.740120359848786
 30
0.0
 11
1281.878385455605
 21
46.74012035984879
 31
0.0
  0
LINE
  5
F4C
330
1F
100
AcDbEntity
  8
0
 62
     3
100
AcDbLine
 10
1294.878385455605
 20
16.74012035984879
 30
0.0
 11
1294.878385455605
 21
44.74012035984879
 31
0.0
  0
LINE
  5
F4D
330
1F
100
AcDbEntity
  8
0
 62
     3
100
AcDbLine
 10
1254.878385455605
 20
16.74012035984879
 30
0.0
 11
1254.878385455605
 21
30.74012035984878
 31
0.0
  0
LINE
  5
F4E
330
1F
100
AcDbEntity
  8
0
 62
     3
100
AcDbLine
 10
1264.878385455605
 20
30.74012035984878
 30
0.0
 11
1264.878385455605
 21
6.740120359848786
 31
0.0
  0
LINE
  5
F4F
330
1F
100
AcDbEntity
  8
0
 62
     3
100
AcDbLine
 10
1235.878385455605
 20
46.74012035984879
 30
0.0
 11
1235.878385455605
 21
23.74012035984879
 31
0.0
  0
LINE
  5
F50
330
1F
100
AcDbEntity
  8
0
 62
     3
100
AcDbLine
 10
1294.878385455605
 20
44.74012035984879
 30
0.0
 11
1294.878385455605
 21
46.74012035984879
 31
0.0
  0
LINE
  5
F51
330
1F
100
AcDbEntity
  8
0
 62
     3
100
AcDbLine
 10
1307.878385455605
 20
23.74012035984879
 30
0.0
 11
1307.878385455605
 21
46.74012035984879
 31
0.0
  0
LINE
  5
F52
330
1F
100
AcDbEntity
  8
0
 62
     3
100
AcDbLine
 10
1333.878385455605
 20
46.74012035984879
 30
0.0
 11
1222.632950815605
 21
46.74012035984879
 31
0.0
  0
LINE
  5
F53
330
1F
100
AcDbEntity
  8
0
 62
     3
100
AcDbLine
 10
1333.878385455605
 20
37.74012035984879
 30
0.0
 11
1222.632950815605
 21
37.7401203598488
 31
0.0
  0
LINE
  5
F54
330
1F
100
AcDbEntity
  8
0
 62
     3
100
AcDbLine
 10
1333.878385455605
 20
23.74012035984879
 30
0.0
 11
1222.632950815605
 21
23.74012035984879
 31
0.0
  0
LINE
  5
F55
330
1F
100
AcDbEntity
  8
0
 62
     3
100
AcDbLine
 10
1333.878385455605
 20
16.74012035984879
 30
0.0
 11
1222.574942955605
 21
16.74012035984879
 31
0.0
  0
LINE
  5
F56
330
1F
100
AcDbEntity
  8
0
 62
     3
100
AcDbLine
 10
1320.878385455605
 20
23.74012035984879
 30
0.0
 11
1320.878385455605
 21
46.74012035984879
 31
0.0
  0
LINE
  5
F57
330
1F
100
AcDbEntity
  8
0
 62
     3
100
AcDbLine
 10
1222.632950815605
 20
46.74012035984879
 30
0.0
 11
1222.632950815605
 21
6.740120359848786
 31
0.0
  0
LINE
  5
F58
330
1F
100
AcDbEntity
  8
0
 62
     3
100
AcDbLine
 10
1281.878385455605
 20
30.74012035984878
 30
0.0
 11
1222.632950815605
 21
30.74012035984877
 31
0.0
  0
LINE
  5
F59
330
1F
100
AcDbEntity
  8
0
 62
     3
100
AcDbLine
 10
1265.156710385605
 20
11.57298161984877
 30
0.0
 11
1281.878385455605
 21
11.57298161984877
 31
0.0
  0
TEXT
  5
F5A
330
1F
100
AcDbEntity
  8
0
 62
     3
100
AcDbText
 10
1266.042710868921
 20
25.81321721321414
 30
0.0
 40
2.5
  1
-
  7
高2.5
100
AcDbText
  0
TEXT
  5
F5B
330
1F
100
AcDbEntity
  8
0
 62
     3
100
AcDbText
 10
1237.074754150857
 20
26.03793476483269
 30
0.0
 40
2.5
  1
-
  7
高2.5
100
AcDbText
  0
TEXT
  5
F5C
330
1F
100
AcDbEntity
  8
0
 62
     3
100
AcDbText
 10
1237.339661905555
 20
39.05236988360668
 30
0.0
 40
4.5
  1
常圧用パワーダスター(エアーガン)
 41
0.5
  7
高4.5
100
AcDbText
1001
ACAD
1000
ACAD_MTEXT_DEFINED_HEIGHT_BEGIN
1070
    46
1040
0.0
1000
ACAD_MTEXT_DEFINED_HEIGHT_END
  0
TEXT
  5
F5D
330
1F
100
AcDbEntity
  8
0
 62
     3
100
AcDbText
 10
1323.943974549079
 20
43.25381245855238
 30
0.0
 40
2.0
  1
DEF
  7
高2
100
AcDbText
  0
TEXT
  5
F5E
330
1F
100
AcDbEntity
  8
0
 62
     3
100
AcDbText
 10
1310.004876195371
 20
43.25381245855229
 30
0.0
 40
2.0
  1
DESN
  7
高2
100
AcDbText
  0
TEXT
  5
F5F
330
1F
100
AcDbEntity
  8
0
 62
     3
100
AcDbText
 10
1283.750509255371
 20
43.25381245855238
 30
0.0
 40
2.0
  1
APPD
  7
高2
100
AcDbText
  0
TEXT
  5
F60
330
1F
100
AcDbEntity
  8
0
 62
     3
100
AcDbText
 10
1296.863245355605
 20
43.25381245855239
 30
0.0
 40
2.0
  1
CHCK
  7
高2
100
AcDbText
  0
TEXT
  5
F61
330
1F
100
AcDbEntity
  8
0
 62
     3
100
AcDbText
 10
1255.805551094758
 20
20.90851918307951
 30
0.0
 40
2.0
  1
SCALE
 41
0.8
  7
高2
100
AcDbText
  0
TEXT
  5
F62
330
1F
100
AcDbEntity
  8
0
 62
     3
100
AcDbText
 10
1224.317529518651
 20
20.90851918307952
 30
0.0
 40
2.0
  1
3AD　ANGLE
 41
1.5
  7
高2
100
AcDbText
  0
TEXT
  5
F63
330
1F
100
AcDbEntity
  8
0
 62
     3
100
AcDbText
 10
1255.074956785607
 20
27.66005725203662
 30
0.0
 40
2.0
  1
REMARKS
 41
0.7
  7
高2
100
AcDbText
  0
TEXT
  5
F64
330
1F
100
AcDbEntity
  8
0
 62
     3
100
AcDbText
 10
1224.100621165605
 20
27.7401203598488
 30
0.0
 40
2.0
  1
MATERIAL
 41
0.7
  7
高2
100
AcDbText
  0
TEXT
  5
F65
330
1F
100
AcDbEntity
  8
0
 62
     3
100
AcDbText
 10
1224.677108368359
 20
34.74012035984877
 30
0.0
 40
2.0
  1
MODEL
  7
高2
100
AcDbText
  0
TEXT
  5
F66
330
1F
100
AcDbEntity
  8
0
 62
     3
100
AcDbText
 10
1224.31402924969
 20
43.44714171044779
 30
0.0
 40
2.0
  1
CONPONENTS
 41
0.5
  7
高2
100
AcDbText
  0
TEXT
  5
F67
330
1F
100
AcDbEntity
  8
0
 62
     3
100
AcDbText
 10
1237.021144720857
 20
31.82760148766074
 30
0.0
 40
4.5
  1
AD-01B
  7
高4.5
100
AcDbText
  0
TEXT
  5
F68
330
1F
100
AcDbEntity
  8
0
 62
     3
100
AcDbText
 10
1284.943431186223
 20
7.971982215273101
 30
0.0
 40
6.299999999999998
  1
AD-01B
  7
高6.3
100
AcDbText
1001
ACAD
1000
ACAD_MTEXT_DEFINED_HEIGHT_BEGIN
1070
    46
1040
0.0
1000
ACAD_MTEXT_DEFINED_HEIGHT_END
  0
TEXT
  5
F69
330
1F
100
AcDbEntity
  8
0
 62
     3
100
AcDbText
 10
1298.441895205935
 20
17.84100951808179
 30
0.0
 40
3.2
  1
2020.03.17
  7
高3.2
100
AcDbText
1001
ACAD
1000
ACAD_MTEXT_DEFINED_HEIGHT_BEGIN
1070
    46
1040
0.0
1000
ACAD_MTEXT_DEFINED_HEIGHT_END
  0
TEXT
  5
F6A
330
1F
100
AcDbEntity
  8
0
 62
     3
100
AcDbText
 10
1268.665983350252
 20
17.84103736241666
 30
0.0
 40
3.2
  1
1/1
  7
高3.2
100
AcDbText
  0
TEXT
  5
F6B
330
1F
100
AcDbEntity
  8
0
 62
     3
100
AcDbText
 10
1265.743312325605
 20
7.556998532984748
 30
0.0
 40
3.2
  1
ZK-A4Y
 41
0.8
  7
高3.2
100
AcDbText
  0
TEXT
  5
F6C
330
1F
100
AcDbEntity
  8
0
 62
     3
100
AcDbText
 10
1223.463651855605
 20
13.26474078203661
 30
0.0
 40
2.0
  1
NICHIDO IND.CO.LTD
 41
1.3
  7
高2
100
AcDbText
  0
TEXT
  5
F6D
330
1F
100
AcDbEntity
  8
0
 62
     3
100
AcDbText
 10
1224.645175120562
 20
38.88064856773372
 30
0.0
 40
3.2
  1
品 名
  7
高3.2
100
AcDbText
1001
ACAD
1000
ACAD_MTEXT_DEFINED_HEIGHT_BEGIN
1070
    46
1040
0.0
1000
ACAD_MTEXT_DEFINED_HEIGHT_END
  0
TEXT
  5
F6E
330
1F
100
AcDbEntity
  8
0
 62
     3
100
AcDbText
 10
1224.645175120562
 20
31.24012035984878
 30
0.0
 40
3.2
  1
型 式
  7
高3.2
100
AcDbText
1001
ACAD
1000
ACAD_MTEXT_DEFINED_HEIGHT_BEGIN
1070
    46
1040
3.064735913775954
1000
ACAD_MTEXT_DEFINED_HEIGHT_END
  0
TEXT
  5
F6F
330
1F
100
AcDbEntity
  8
0
 62
     3
100
AcDbText
 10
1224.645175120562
 20
24.2401203598488
 30
0.0
 40
3.2
  1
材 質
  7
高3.2
100
AcDbText
1001
ACAD
1000
ACAD_MTEXT_DEFINED_HEIGHT_BEGIN
1070
    46
1040
0.0
1000
ACAD_MTEXT_DEFINED_HEIGHT_END
  0
TEXT
  5
F70
330
1F
100
AcDbEntity
  8
0
 62
     3
100
AcDbText
 10
1224.340140170562
 20
17.20756035209503
 30
0.0
 40
3.2
  1
第 三 角 法
  7
高3.2
100
AcDbText
1001
ACAD
1000
ACAD_MTEXT_DEFINED_HEIGHT_BEGIN
1070
    46
1040
0.0
1000
ACAD_MTEXT_DEFINED_HEIGHT_END
  0
TEXT
  5
F71
330
1F
100
AcDbEntity
  8
0
 62
     3
100
AcDbText
 10
1222.746672778091
 20
7.880648567733723
 30
0.0
 40
3.2
  1
日動工業株式会社
 41
1.199999999999999
  7
高3.2
100
AcDbText
1001
ACAD
1000
ACAD_MTEXT_DEFINED_HEIGHT_BEGIN
1070
    46
1040
0.0
1000
ACAD_MTEXT_DEFINED_HEIGHT_END
  0
TEXT
  5
F72
330
1F
100
AcDbEntity
  8
0
 62
     3
100
AcDbText
 10
1256.38229697757
 20
24.12469889301635
 30
0.0
 40
3.2
  1
備考
  7
高3.2
100
AcDbText
1001
ACAD
1000
ACAD_MTEXT_DEFINED_HEIGHT_BEGIN
1070
    46
1040
0.0
1000
ACAD_MTEXT_DEFINED_HEIGHT_END
  0
TEXT
  5
F73
330
1F
100
AcDbEntity
  8
0
 62
     3
100
AcDbText
 10
1266.031354424605
 20
12.88635038541908
 30
0.0
 40
2.5
  1
出図コード
  7
高2.5
100
AcDbText
1001
ACAD
1000
ACAD_MTEXT_DEFINED_HEIGHT_BEGIN
1070
    46
1040
0.0
1000
ACAD_MTEXT_DEFINED_HEIGHT_END
  0
TEXT
  5
F74
330
1F
100
AcDbEntity
  8
0
 62
     3
100
AcDbText
 10
1256.223530859482
 20
17.1933552702617
 30
0.0
 40
3.2
  1
尺度
  7
高3.2
100
AcDbText
1001
ACAD
1000
ACAD_MTEXT_DEFINED_HEIGHT_BEGIN
1070
    46
1040
0.0
1000
ACAD_MTEXT_DEFINED_HEIGHT_END
  0
TEXT
  5
F75
330
1F
100
AcDbEntity
  8
0
 62
     3
100
AcDbText
 10
1283.369792341261
 20
18.32483371837919
 30
0.0
 40
3.2
  1
作成日
  7
高3.2
100
AcDbText
1001
ACAD
1000
ACAD_MTEXT_DEFINED_HEIGHT_BEGIN
1070
    46
1040
0.0
1000
ACAD_MTEXT_DEFINED_HEIGHT_END
  0
TEXT
  5
F76
330
1F
100
AcDbEntity
  8
0
 62
     3
100
AcDbText
 10
1283.264266348125
 20
38.88064856773372
 30
0.0
 40
3.2
  1
承 認
  7
高3.2
100
AcDbText
1001
ACAD
1000
ACAD_MTEXT_DEFINED_HEIGHT_BEGIN
1070
    46
1040
0.0
1000
ACAD_MTEXT_DEFINED_HEIGHT_END
  0
TEXT
  5
F77
330
1F
100
AcDbEntity
  8
0
 62
     3
100
AcDbText
 10
1296.264266348125
 20
38.88064856773372
 30
0.0
 40
3.2
  1
検 図
  7
高3.2
100
AcDbText
1001
ACAD
1000
ACAD_MTEXT_DEFINED_HEIGHT_BEGIN
1070
    46
1040
0.0
1000
ACAD_MTEXT_DEFINED_HEIGHT_END
  0
TEXT
  5
F78
330
1F
100
AcDbEntity
  8
0
 62
     3
100
AcDbText
 10
1309.264266348125
 20
38.88064856773372
 30
0.0
 40
3.2
  1
設 計
  7
高3.2
100
AcDbText
1001
ACAD
1000
ACAD_MTEXT_DEFINED_HEIGHT_BEGIN
1070
    46
1040
0.0
1000
ACAD_MTEXT_DEFINED_HEIGHT_END
  0
TEXT
  5
F79
330
1F
100
AcDbEntity
  8
0
 62
     3
100
AcDbText
 10
1322.564902868125
 20
38.88064856773372
 30
0.0
 40
3.2
  1
製 図
  7
高3.2
100
AcDbText
1001
ACAD
1000
ACAD_MTEXT_DEFINED_HEIGHT_BEGIN
1070
    46
1040
0.0
1000
ACAD_MTEXT_DEFINED_HEIGHT_END
  0
LINE
  5
F7A
330
1F
100
AcDbEntity
  8
0
 62
     3
100
AcDbLine
 10
1193.131319415339
 20
285.1883009535147
 30
0.0
 11
1193.131319415339
 21
282.034952159849
 31
0.0
  0
LINE
  5
F7B
330
1F
100
AcDbEntity
  8
0
 62
     3
100
AcDbLine
 10
1193.774148490438
 20
283.9572291337875
 30
0.0
 11
1193.774148490438
 21
282.034952159849
 31
0.0
  0
LINE
  5
F7C
330
1F
100
AcDbEntity
  8
0
 62
     3
100
AcDbLine
 10
1195.578245378312
 20
285.1883009535147
 30
0.0
 11
1195.578245378312
 21
283.7998340327638
 31
0.0
  0
LINE
  5
F7D
330
1F
100
AcDbEntity
  8
0
 62
     3
100
AcDbLine
 10
1196.221073779556
 20
285.1883009535147
 30
0.0
 11
1196.221073779556
 21
281.6123201612724
 31
0.0
  0
LINE
  5
F7E
330
1F
100
AcDbEntity
  8
0
 62
     3
100
AcDbLine
 10
1197.245019937136
 20
285.1666418491701
 30
0.0
 11
1197.245019937136
 21
282.0133314652622
 31
0.0
  0
LINE
  5
F7F
330
1F
100
AcDbEntity
  8
0
 62
     3
100
AcDbLine
 10
1198.263541591411
 20
285.1666276982068
 30
0.0
 11
1198.263541591411
 21
282.0133173142988
 31
0.0
  0
LINE
  5
F80
330
1F
100
AcDbEntity
  8
0
 62
     3
100
AcDbLine
 10
1202.034364661838
 20
285.1665805283287
 30
0.0
 11
1202.034309405695
 21
282.0132708182764
 31
0.0
  0
LINE
  5
F81
330
1F
100
AcDbEntity
  8
0
 62
     3
100
AcDbLine
 10
1205.15022890121
 20
285.1665805283287
 30
0.0
 11
1205.150284157353
 21
282.0132708182764
 31
0.0
  0
LINE
  5
F82
330
1F
100
AcDbEntity
  8
0
 62
     3
100
AcDbLine
 10
1204.109804251038
 20
283.7927504207049
 30
0.0
 11
1203.074789312011
 21
283.7927504207049
 31
0.0
  0
LINE
  5
F83
330
1F
100
AcDbEntity
  8
0
 62
     3
100
AcDbLine
 10
1204.109797512484
 20
283.3871945918006
 30
0.0
 11
1203.07479672442
 21
283.3871945918006
 31
0.0
  0
LINE
  5
F84
330
1F
100
AcDbEntity
  8
0
 62
     3
100
AcDbLine
 10
1204.109828509832
 20
285.1665805283287
 30
0.0
 11
1204.109804251038
 21
283.7927504207049
 31
0.0
  0
LINE
  5
F85
330
1F
100
AcDbEntity
  8
0
 62
     3
100
AcDbLine
 10
1204.109797512484
 20
283.3871945918006
 30
0.0
 11
1204.109773253689
 21
282.0132708182764
 31
0.0
  0
LINE
  5
F86
330
1F
100
AcDbEntity
  8
0
 62
     3
100
AcDbLine
 10
1203.074765053216
 20
285.1665805283287
 30
0.0
 11
1203.074789312011
 21
283.7927504207049
 31
0.0
  0
LINE
  5
F87
330
1F
100
AcDbEntity
  8
0
 62
     3
100
AcDbLine
 10
1203.07479672442
 20
283.3871945918006
 30
0.0
 11
1203.074820309359
 21
282.0132708182764
 31
0.0
  0
LINE
  5
F88
330
1F
100
AcDbEntity
  8
0
 62
     3
100
AcDbLine
 10
1206.176650038949
 20
285.1665805283287
 30
0.0
 11
1206.176594782806
 21
282.0132708182764
 31
0.0
  0
LINE
  5
F89
330
1F
100
AcDbEntity
  8
0
 62
     3
100
AcDbLine
 10
1207.195150129851
 20
285.1665805283287
 30
0.0
 11
1207.195204712139
 21
282.0132708182764
 31
0.0
  0
LINE
  5
F8A
330
1F
100
AcDbEntity
  8
0
 62
     3
100
AcDbLine
 10
1208.233395727175
 20
285.1665805283287
 30
0.0
 11
1208.233341144888
 21
282.0132708182764
 31
0.0
  0
ARC
  5
F8B
330
1F
100
AcDbEntity
  8
0
 62
     3
100
AcDbCircle
 10
1200.505323545713
 20
283.5990116025783
 30
0.0
 40
2.008364022758428
100
AcDbArc
 50
97.70152400000611
 51
266.0248408089619
  0
ARC
  5
F8C
330
1F
100
AcDbEntity
  8
0
 62
     3
100
AcDbCircle
 10
1212.625124251123
 20
283.5788377196357
 30
0.0
 40
2.030175374321248
100
AcDbArc
 50
0.3142499999973993
 51
69.00558199999152
  0
ARC
  5
F8D
330
1F
100
AcDbEntity
  8
0
 62
     3
100
AcDbCircle
 10
1213.068593206355
 20
283.5788377196357
 30
0.0
 40
2.030175374321248
100
AcDbArc
 50
110.9944180000084
 51
148.1166110000013
  0
ARC
  5
F8E
330
1F
100
AcDbEntity
  8
0
 62
     3
100
AcDbCircle
 10
1212.625124251123
 20
283.60110729287
 30
0.0
 40
2.030175374321248
100
AcDbArc
 50
290.9944180000085
 51
359.6857499999988
  0
ARC
  5
F8F
330
1F
100
AcDbEntity
  8
0
 62
     3
100
AcDbCircle
 10
1213.068593206355
 20
283.60110729287
 30
0.0
 40
2.030175374321248
100
AcDbArc
 50
211.8833889999975
 51
249.0055819999915
  0
ARC
  5
F90
330
1F
100
AcDbEntity
  8
0
 62
     3
100
AcDbCircle
 10
1212.846859065667
 20
284.4205525204011
 30
0.0
 40
1.168726044333501
100
AcDbArc
 50
64.36517200000574
 51
115.6348279999942
  0
ARC
  5
F91
330
1F
100
AcDbEntity
  8
0
 62
     3
100
AcDbCircle
 10
1212.846859065667
 20
282.7593924921046
 30
0.0
 40
1.168726044333501
100
AcDbArc
 50
244.3651720000058
 51
295.6348279999943
  0
ARC
  5
F92
330
1F
100
AcDbEntity
  8
0
 62
     3
100
AcDbCircle
 10
1212.846859065667
 20
284.4427533603846
 30
0.0
 40
0.5736005406576802
100
AcDbArc
 50
19.48660600000038
 51
160.5133939999995
  0
ARC
  5
F93
330
1F
100
AcDbEntity
  8
0
 62
     3
100
AcDbCircle
 10
1212.846859065667
 20
282.7371923259764
 30
0.0
 40
0.5736005406576802
100
AcDbArc
 50
199.4866060000004
 51
340.5133939999995
  0
LINE
  5
F94
330
1F
100
AcDbEntity
  8
0
 62
     3
100
AcDbLine
 10
1207.532353246516
 20
281.5906664477711
 30
0.0
 11
1205.839446922284
 21
281.5906664477711
 31
0.0
  0
LINE
  5
F95
330
1F
100
AcDbEntity
  8
0
 62
     3
100
AcDbLine
 10
1207.532353246516
 20
281.7943257650854
 30
0.0
 11
1207.532353246516
 21
281.5906664477711
 31
0.0
  0
LINE
  5
F96
330
1F
100
AcDbEntity
  8
0
 62
     3
100
AcDbLine
 10
1205.487432691731
 20
285.5891835511233
 30
0.0
 11
1203.772625393167
 21
285.5891835511233
 31
0.0
  0
LINE
  5
F97
330
1F
100
AcDbEntity
  8
0
 62
     3
100
AcDbLine
 10
1205.487432691731
 20
285.5891835511233
 30
0.0
 11
1205.487432691731
 21
285.3856192474202
 31
0.0
  0
LINE
  5
F98
330
1F
100
AcDbEntity
  8
0
 62
     3
100
AcDbLine
 10
1205.487432691731
 20
281.7943257650854
 30
0.0
 11
1205.487432691731
 21
281.5905714341598
 31
0.0
  0
LINE
  5
F99
330
1F
100
AcDbEntity
  8
0
 62
     3
100
AcDbLine
 10
1205.487432691731
 20
281.5905714341598
 30
0.0
 11
1203.772625393167
 21
281.5905714341598
 31
0.0
  0
LINE
  5
F9A
330
1F
100
AcDbEntity
  8
0
 62
     3
100
AcDbLine
 10
1207.532353246516
 20
285.5892785647345
 30
0.0
 11
1207.532353246516
 21
285.3856192474202
 31
0.0
  0
LINE
  5
F9B
330
1F
100
AcDbEntity
  8
0
 62
     3
100
AcDbLine
 10
1207.532353246516
 20
285.5892785647345
 30
0.0
 11
1205.839446922284
 21
285.5892785647345
 31
0.0
  0
LINE
  5
F9C
330
1F
100
AcDbEntity
  8
0
 62
     3
100
AcDbLine
 10
1205.839446922284
 20
285.5892785647345
 30
0.0
 11
1205.839446922284
 21
285.3856192474202
 31
0.0
  0
LINE
  5
F9D
330
1F
100
AcDbEntity
  8
0
 62
     3
100
AcDbLine
 10
1207.896192610511
 20
281.7943257650854
 30
0.0
 11
1207.896192610511
 21
281.5906664477711
 31
0.0
  0
LINE
  5
F9E
330
1F
100
AcDbEntity
  8
0
 62
     3
100
AcDbLine
 10
1209.724110770787
 20
281.5906664477711
 30
0.0
 11
1207.896192610511
 21
281.5906664477711
 31
0.0
  0
LINE
  5
F9F
330
1F
100
AcDbEntity
  8
0
 62
     3
100
AcDbLine
 10
1209.251895818078
 20
284.9464501634906
 30
0.0
 11
1209.251895818078
 21
282.233494849015
 31
0.0
  0
LINE
  5
FA0
330
1F
100
AcDbEntity
  8
0
 62
     3
100
AcDbLine
 10
1209.251895818078
 20
282.233494849015
 30
0.0
 11
1209.434846211262
 21
282.233494849015
 31
0.0
  0
ARC
  5
FA1
330
1F
100
AcDbEntity
  8
0
 62
     3
100
AcDbCircle
 10
1208.499356345427
 20
283.5899725062528
 30
0.0
 40
1.647777933922859
100
AcDbArc
 50
304.5919549999955
 51
55.40804500000445
  0
LINE
  5
FA2
330
1F
100
AcDbEntity
  8
0
 62
     3
100
AcDbLine
 10
1209.724110770787
 20
285.5892785647345
 30
0.0
 11
1207.896192610511
 21
285.5892785647345
 31
0.0
  0
LINE
  5
FA3
330
1F
100
AcDbEntity
  8
0
 62
     3
100
AcDbLine
 10
1207.896192610511
 20
285.5892785647345
 30
0.0
 11
1207.896192610511
 21
285.3856192474202
 31
0.0
  0
LINE
  5
FA4
330
1F
100
AcDbEntity
  8
0
 62
     3
100
AcDbLine
 10
1205.839446922284
 20
281.7943257650854
 30
0.0
 11
1205.839446922284
 21
281.5906664477711
 31
0.0
  0
LINE
  5
FA5
330
1F
100
AcDbEntity
  8
0
 62
     3
100
AcDbLine
 10
1209.251895818078
 20
284.9464501634906
 30
0.0
 11
1209.434846211262
 21
284.9464501634906
 31
0.0
  0
LINE
  5
FA6
330
1F
100
AcDbEntity
  8
0
 62
     3
100
AcDbLine
 10
1198.600686082514
 20
281.7943193906693
 30
0.0
 11
1198.600682039381
 21
281.5906412054038
 31
0.0
  0
LINE
  5
FA7
330
1F
100
AcDbEntity
  8
0
 62
     3
100
AcDbLine
 10
1192.794116298674
 20
281.6123201612724
 30
0.0
 11
1194.111351607103
 21
281.6123201612724
 31
0.0
  0
ARC
  5
FA8
330
1F
100
AcDbEntity
  8
0
 62
     3
100
AcDbCircle
 10
1187.5035275529
 20
283.637052761432
 30
0.0
 40
14.16402202796531
100
AcDbArc
 50
353.8660059999994
 51
357.6940340000011
  0
LINE
  5
FA9
330
1F
100
AcDbEntity
  8
0
 62
     3
100
AcDbLine
 10
1200.707801594513
 20
283.07066045198
 30
0.0
 11
1201.65608056197
 21
283.0671516869162
 31
0.0
  0
LINE
  5
FAB
330
1F
100
AcDbEntity
  8
0
 62
     3
100
AcDbLine
 10
1200.711631114747
 20
284.1057164961867
 30
0.0
 11
1201.659910082204
 21
284.1022077311226
 31
0.0
  0
ARC
  5
FAC
330
1F
100
AcDbEntity
  8
0
 62
     3
100
AcDbCircle
 10
1187.5035275529
 20
283.637052761432
 30
0.0
 40
14.16402202796531
100
AcDbArc
 50
1.881965999999369
 51
5.709993999999739
  0
LINE
  5
FAD
330
1F
100
AcDbEntity
  8
0
 62
     3
100
AcDbLine
 10
1198.600752120497
 20
285.5892610579565
 30
0.0
 11
1198.60074875122
 21
285.3856206085934
 31
0.0
  0
LINE
  5
FAE
330
1F
100
AcDbEntity
  8
0
 62
     3
100
AcDbLine
 10
1196.907779758413
 20
281.7943244039122
 30
0.0
 11
1196.907776389136
 21
281.5906839545491
 31
0.0
  0
LINE
  5
FAF
330
1F
100
AcDbEntity
  8
0
 62
     3
100
AcDbLine
 10
1196.907845796242
 20
285.5892967456247
 30
0.0
 11
1196.907842426965
 21
285.3856178865036
 31
0.0
  0
LINE
  5
FB0
330
1F
100
AcDbEntity
  8
0
 62
     3
100
AcDbLine
 10
1194.111351607103
 20
281.8159794785868
 30
0.0
 11
1194.111351607103
 21
281.6123201612724
 31
0.0
  0
LINE
  5
FB1
330
1F
100
AcDbEntity
  8
0
 62
     3
100
AcDbLine
 10
1193.774148490438
 20
283.9572291337875
 30
0.0
 11
1195.23971659826
 21
281.6123201612724
 31
0.0
  0
LINE
  5
FB2
330
1F
100
AcDbEntity
  8
0
 62
     3
100
AcDbLine
 10
1195.23971659826
 20
281.6123201612724
 30
0.0
 11
1196.221073779556
 21
281.6123201612724
 31
0.0
  0
LINE
  5
FB3
330
1F
100
AcDbEntity
  8
0
 62
     3
100
AcDbLine
 10
1196.558276896221
 20
285.6109322782359
 30
0.0
 11
1196.558276896221
 21
285.4072729609216
 31
0.0
  0
LINE
  5
FB4
330
1F
100
AcDbEntity
  8
0
 62
     3
100
AcDbLine
 10
1195.241042261647
 20
285.6109322782359
 30
0.0
 11
1196.558276896221
 21
285.6109322782359
 31
0.0
  0
LINE
  5
FB5
330
1F
100
AcDbEntity
  8
0
 62
     3
100
AcDbLine
 10
1195.241042261647
 20
285.6109322782359
 30
0.0
 11
1195.241042261647
 21
285.4072729609216
 31
0.0
  0
LINE
  5
FB6
330
1F
100
AcDbEntity
  8
0
 62
     3
100
AcDbLine
 10
1195.578245378312
 20
283.7998340327638
 30
0.0
 11
1194.389712028373
 21
285.6109322782359
 31
0.0
  0
LINE
  5
FB7
330
1F
100
AcDbEntity
  8
0
 62
     3
100
AcDbLine
 10
1192.794116298674
 20
285.6109322782359
 30
0.0
 11
1194.389712028373
 21
285.6109322782359
 31
0.0
  0
LINE
  5
FB8
330
1F
100
AcDbEntity
  8
0
 62
     3
100
AcDbLine
 10
1201.697161545173
 20
285.5891835511233
 30
0.0
 11
1203.411968169881
 21
285.5891835511232
 31
0.0
  0
LINE
  5
FB9
330
1F
100
AcDbEntity
  8
0
 62
     3
100
AcDbLine
 10
1201.697161545173
 20
285.3856192474202
 30
0.0
 11
1201.697161545173
 21
285.5891835511233
 31
0.0
  0
LINE
  5
FBA
330
1F
100
AcDbEntity
  8
0
 62
     3
100
AcDbLine
 10
1201.697161545173
 20
281.5905714341598
 30
0.0
 11
1201.697161545173
 21
281.7943257650854
 31
0.0
  0
LINE
  5
FBB
330
1F
100
AcDbEntity
  8
0
 62
     3
100
AcDbLine
 10
1201.697161545173
 20
281.5905714341597
 30
0.0
 11
1203.411968169881
 21
281.5905714341598
 31
0.0
  0
LINE
  5
FBC
330
1F
100
AcDbEntity
  8
0
 62
     3
100
AcDbLine
 10
1203.772625393167
 20
281.7943257650854
 30
0.0
 11
1203.772625393167
 21
281.5905714341598
 31
0.0
  0
LINE
  5
FBD
330
1F
100
AcDbEntity
  8
0
 62
     3
100
AcDbLine
 10
1203.411968169881
 20
281.7943257650854
 30
0.0
 11
1203.411968169881
 21
281.5905714341598
 31
0.0
  0
LINE
  5
FBE
330
1F
100
AcDbEntity
  8
0
 62
     3
100
AcDbLine
 10
1203.411968169881
 20
285.3856192474202
 30
0.0
 11
1203.411968169881
 21
285.5891835511233
 31
0.0
  0
LINE
  5
FBF
330
1F
100
AcDbEntity
  8
0
 62
     3
100
AcDbLine
 10
1203.772625393167
 20
285.3856192474202
 30
0.0
 11
1203.772625393167
 21
285.5891835511233
 31
0.0
  0
LINE
  5
FC0
330
1F
100
AcDbEntity
  8
0
 62
     3
100
AcDbLine
 10
1192.794116298674
 20
281.8159794785868
 30
0.0
 11
1192.794116298674
 21
281.6123201612724
 31
0.0
  0
LINE
  5
FC1
330
1F
100
AcDbEntity
  8
0
 62
     3
100
AcDbLine
 10
1192.794116298674
 20
285.6109322782359
 30
0.0
 11
1192.794116298674
 21
285.4072729609216
 31
0.0
  0
ARC
  5
FC2
330
1F
100
AcDbEntity
  8
0
 62
     3
100
AcDbCircle
 10
1209.895710018521
 20
284.0094454707178
 30
0.0
 40
1.579833094016801
100
AcDbArc
 50
17.30874900000207
 51
23.76507100000099
  0
ARC
  5
FC3
330
1F
100
AcDbEntity
  8
0
 62
     3
100
AcDbCircle
 10
1208.549661621297
 20
283.5899725062528
 30
0.0
 40
2.989728616463745
100
AcDbArc
 50
342.691250999998
 51
17.30856599999842
  0
ARC
  5
FC4
330
1F
100
AcDbEntity
  8
0
 62
     3
100
AcDbCircle
 10
1209.895710018521
 20
283.1704995417879
 30
0.0
 40
1.579833094016801
100
AcDbArc
 50
336.234928999999
 51
342.691250999998
  0
ARC
  5
FC5
330
1F
100
AcDbEntity
  8
0
 62
     3
100
AcDbCircle
 10
1209.724110770787
 20
284.0094454707178
 30
0.0
 40
1.579833094016801
100
AcDbArc
 50
17.30874900000207
 51
90.0
  0
ARC
  5
FC6
330
1F
100
AcDbEntity
  8
0
 62
     3
100
AcDbCircle
 10
1208.378058990896
 20
283.5899815388748
 30
0.0
 40
2.989728616463745
100
AcDbArc
 50
342.691250999998
 51
17.30856599999842
  0
ARC
  5
FC7
330
1F
100
AcDbEntity
  8
0
 62
     3
100
AcDbCircle
 10
1209.724110770787
 20
283.1704995417879
 30
0.0
 40
1.579833094016801
100
AcDbArc
 50
270.0
 51
342.691250999998
  0
ARC
  5
FC8
330
1F
100
AcDbEntity
  8
0
 62
     3
100
AcDbCircle
 10
1200.227453880991
 20
283.5899725062528
 30
0.0
 40
1.999306058481751
100
AcDbArc
 50
46.75287999999759
 51
89.74999799999961
  0
ARC
  5
FC9
330
1F
100
AcDbEntity
  8
0
 62
     3
100
AcDbCircle
 10
1200.227453880991
 20
283.5899725062528
 30
0.0
 40
1.999306058481751
100
AcDbArc
 50
273.9763330000016
 51
312.8231199999973
  0
ARC
  5
FCA
330
1F
100
AcDbEntity
  8
0
 62
     3
100
AcDbCircle
 10
1210.962199395536
 20
283.5591085812565
 30
0.0
 40
2.652957925148358
100
AcDbArc
 50
0.666583999999448
 51
23.90392800000278
  0
ARC
  5
FCB
330
1F
100
AcDbEntity
  8
0
 62
     3
100
AcDbCircle
 10
1214.731518061942
 20
283.5591085812565
 30
0.0
 40
2.652957925148358
100
AcDbArc
 50
156.0960719999972
 51
179.3334160000005
  0
ARC
  5
FCC
330
1F
100
AcDbEntity
  8
0
 62
     3
100
AcDbCircle
 10
1210.962199395536
 20
283.6208364312491
 30
0.0
 40
2.652957925148358
100
AcDbArc
 50
336.0960719999972
 51
359.3334159999979
  0
ARC
  5
FCD
330
1F
100
AcDbEntity
  8
0
 62
     3
100
AcDbCircle
 10
1214.731518061942
 20
283.6208364312491
 30
0.0
 40
2.652957925148358
100
AcDbArc
 50
180.6665839999994
 51
203.9039280000027
  0
LINE
  5
FCE
330
1F
100
AcDbEntity
  8
0
  6
Continuous
 62
     3
100
AcDbLine
 10
1192.794116298674
 20
285.4072729609216
 30
0.0
 11
1193.131319415339
 21
285.1883009535147
 31
0.0
  0
LINE
  5
FCF
330
1F
100
AcDbEntity
  8
0
  6
Continuous
 62
     3
100
AcDbLine
 10
1195.241042261647
 20
285.4072729609216
 30
0.0
 11
1195.578245378312
 21
285.1883009535147
 31
0.0
  0
LINE
  5
FD0
330
1F
100
AcDbEntity
  8
0
  6
Continuous
 62
     3
100
AcDbLine
 10
1196.558276896221
 20
285.4072729609216
 30
0.0
 11
1196.221073779556
 21
285.1883009535147
 31
0.0
  0
LINE
  5
FD1
330
1F
100
AcDbEntity
  8
0
  6
Continuous
 62
     3
100
AcDbLine
 10
1196.907842426965
 20
285.3856178865036
 30
0.0
 11
1197.245019937136
 21
285.1666418491701
 31
0.0
  0
LINE
  5
FD2
330
1F
100
AcDbEntity
  8
0
  6
Continuous
 62
     3
100
AcDbLine
 10
1198.60074875122
 20
285.3856206085934
 30
0.0
 11
1198.263541591411
 21
285.1666276982068
 31
0.0
  0
LINE
  5
FD3
330
1F
100
AcDbEntity
  8
0
  6
Continuous
 62
     3
100
AcDbLine
 10
1201.697161545173
 20
285.3856192474202
 30
0.0
 11
1202.034364661838
 21
285.1665805283287
 31
0.0
  0
LINE
  5
FD4
330
1F
100
AcDbEntity
  8
0
  6
Continuous
 62
     3
100
AcDbLine
 10
1203.411968169881
 20
285.3856192474202
 30
0.0
 11
1203.074765053216
 21
285.1665805283287
 31
0.0
  0
LINE
  5
FD5
330
1F
100
AcDbEntity
  8
0
  6
Continuous
 62
     3
100
AcDbLine
 10
1203.772625393167
 20
285.3856192474202
 30
0.0
 11
1204.109828509832
 21
285.1665805283287
 31
0.0
  0
LINE
  5
FD6
330
1F
100
AcDbEntity
  8
0
  6
Continuous
 62
     3
100
AcDbLine
 10
1205.487432691731
 20
285.3856192474202
 30
0.0
 11
1205.15022890121
 21
285.1665805283287
 31
0.0
  0
LINE
  5
FD7
330
1F
100
AcDbEntity
  8
0
  6
Continuous
 62
     3
100
AcDbLine
 10
1205.839446922284
 20
285.3856192474202
 30
0.0
 11
1206.176650038949
 21
285.1665805283287
 31
0.0
  0
LINE
  5
FD8
330
1F
100
AcDbEntity
  8
0
  6
Continuous
 62
     3
100
AcDbLine
 10
1207.532353246516
 20
285.3856192474202
 30
0.0
 11
1207.195150129851
 21
285.1665805283287
 31
0.0
  0
LINE
  5
FD9
330
1F
100
AcDbEntity
  8
0
  6
Continuous
 62
     3
100
AcDbLine
 10
1207.896192610511
 20
285.3856192474202
 30
0.0
 11
1208.233395727175
 21
285.1665805283287
 31
0.0
  0
LINE
  5
FDA
330
1F
100
AcDbEntity
  8
0
  6
Continuous
 62
     3
100
AcDbLine
 10
1208.233341144888
 20
282.0132708182764
 30
0.0
 11
1207.896192610511
 21
281.7943257650854
 31
0.0
  0
LINE
  5
FDB
330
1F
100
AcDbEntity
  8
0
  6
Continuous
 62
     3
100
AcDbLine
 10
1207.195204712139
 20
282.0132708182764
 30
0.0
 11
1207.532353246516
 21
281.7943257650854
 31
0.0
  0
LINE
  5
FDC
330
1F
100
AcDbEntity
  8
0
  6
Continuous
 62
     3
100
AcDbLine
 10
1206.176594782806
 20
282.0132708182764
 30
0.0
 11
1205.839446922284
 21
281.7943257650854
 31
0.0
  0
LINE
  5
FDD
330
1F
100
AcDbEntity
  8
0
  6
Continuous
 62
     3
100
AcDbLine
 10
1205.487432691731
 20
281.7943257650854
 30
0.0
 11
1205.150284157353
 21
282.0132708182764
 31
0.0
  0
LINE
  5
FDE
330
1F
100
AcDbEntity
  8
0
  6
Continuous
 62
     3
100
AcDbLine
 10
1203.772625393167
 20
281.7943257650854
 30
0.0
 11
1204.109773253689
 21
282.0132708182764
 31
0.0
  0
LINE
  5
FDF
330
1F
100
AcDbEntity
  8
0
  6
Continuous
 62
     3
100
AcDbLine
 10
1203.411968169881
 20
281.7943257650854
 30
0.0
 11
1203.074820309359
 21
282.0132708182764
 31
0.0
  0
LINE
  5
FE0
330
1F
100
AcDbEntity
  8
0
  6
Continuous
 62
     3
100
AcDbLine
 10
1202.034309405695
 20
282.0132708182764
 30
0.0
 11
1201.697161545173
 21
281.7943257650854
 31
0.0
  0
LINE
  5
FE1
330
1F
100
AcDbEntity
  8
0
  6
Continuous
 62
     3
100
AcDbLine
 10
1198.600686082673
 20
281.7943273981905
 30
0.0
 11
1198.263541591411
 21
282.0133173142988
 31
0.0
  0
LINE
  5
FE2
330
1F
100
AcDbEntity
  8
0
  6
Continuous
 62
     3
100
AcDbLine
 10
1196.907779758413
 20
281.7943244039122
 30
0.0
 11
1197.244953899307
 21
282.0133314652622
 31
0.0
  0
LINE
  5
FE3
330
1F
100
AcDbEntity
  8
0
  6
Continuous
 62
     3
100
AcDbLine
 10
1194.111351607103
 20
281.8159794785868
 30
0.0
 11
1193.774148490438
 21
282.034952159849
 31
0.0
  0
LINE
  5
FE4
330
1F
100
AcDbEntity
  8
0
  6
Continuous
 62
     3
100
AcDbLine
 10
1192.794116298674
 20
281.8159794785868
 30
0.0
 11
1193.131319415339
 21
282.034952159849
 31
0.0
  0
LINE
  5
FE5
330
1F
100
AcDbEntity
  8
0
  6
Continuous
 62
     3
100
AcDbLine
 10
1198.60068203954
 20
281.590649212925
 30
0.0
 11
1196.907776389136
 21
281.5906839545491
 31
0.0
  0
LINE
  5
FE6
330
1F
100
AcDbEntity
  8
0
  6
Continuous
 62
     3
100
AcDbLine
 10
1196.907845796242
 20
285.5892967456247
 30
0.0
 11
1198.600752120497
 21
285.5892610579565
 31
0.0
  0
ARC
  5
FE7
330
1F
100
AcDbEntity
  8
0
  6
Continuous
 62
     3
100
AcDbCircle
 10
1216.122108093343
 20
283.5778261690383
 30
0.0
 40
0.9989999999999998
100
AcDbArc
 50
293.7485430905243
 51
66.25145690947578
  0
ARC
  5
FE8
330
1F
100
AcDbEntity
  8
0
  6
Continuous
 62
     3
100
AcDbCircle
 10
1216.122108093343
 20
283.5778261690383
 30
0.0
 40
1.498499999999999
100
AcDbArc
 50
293.7485430905243
 51
66.25145690947578
  0
ARC
  5
FE9
330
1F
100
AcDbEntity
  8
0
  6
Continuous
 62
     3
100
AcDbCircle
 10
1208.47801494735
 20
266.2041046052689
 30
0.0
 40
19.98
100
AcDbArc
 50
66.25145690947578
 51
81.41597019517911
  0
ARC
  5
FEA
330
1F
100
AcDbEntity
  8
0
  6
Continuous
 62
     3
100
AcDbCircle
 10
1208.47801494735
 20
266.2041046052689
 30
0.0
 40
20.4795
100
AcDbArc
 50
66.25145690947578
 51
81.41597019517911
  0
ARC
  5
FEB
330
1F
100
AcDbEntity
  8
0
  6
Continuous
 62
     3
100
AcDbCircle
 10
1190.09796728649
 20
283.5778261690383
 30
0.0
 40
0.9989999999999998
100
AcDbArc
 50
113.7485430905242
 51
246.2514569094758
  0
ARC
  5
FEC
330
1F
100
AcDbEntity
  8
0
  6
Continuous
 62
     3
100
AcDbCircle
 10
1190.09796728649
 20
283.5778261690383
 30
0.0
 40
1.498499999999999
100
AcDbArc
 50
113.7485430905242
 51
246.2514569094758
  0
ARC
  5
FED
330
1F
100
AcDbEntity
  8
0
  6
Continuous
 62
     3
100
AcDbCircle
 10
1197.742060432482
 20
266.2041046052689
 30
0.0
 40
19.98
100
AcDbArc
 50
98.5840298048209
 51
113.7485430905242
  0
ARC
  5
FEE
330
1F
100
AcDbEntity
  8
0
  6
Continuous
 62
     3
100
AcDbCircle
 10
1197.742060432482
 20
266.2041046052689
 30
0.0
 40
20.4795
100
AcDbArc
 50
98.5840298048209
 51
113.7485430905242
  0
ARC
  5
FEF
330
1F
100
AcDbEntity
  8
0
  6
Continuous
 62
     3
100
AcDbCircle
 10
1208.47801494735
 20
300.9515477328076
 30
0.0
 40
19.98
100
AcDbArc
 50
278.5840298048209
 51
293.7485430905243
  0
ARC
  5
FF0
330
1F
100
AcDbEntity
  8
0
  6
Continuous
 62
     3
100
AcDbCircle
 10
1208.47801494735
 20
300.9515477328076
 30
0.0
 40
20.4795
100
AcDbArc
 50
278.5840298048209
 51
293.7485430905243
  0
ARC
  5
FF1
330
1F
100
AcDbEntity
  8
0
  6
Continuous
 62
     3
100
AcDbCircle
 10
1197.742060432482
 20
300.9515477328076
 30
0.0
 40
19.98
100
AcDbArc
 50
246.2514569094758
 51
261.4159701951791
  0
ARC
  5
FF2
330
1F
100
AcDbEntity
  8
0
  6
Continuous
 62
     3
100
AcDbCircle
 10
1197.742060432482
 20
300.9515477328076
 30
0.0
 40
20.4795
100
AcDbArc
 50
246.2514569094758
 51
261.4159701951791
  0
ARC
  5
FF3
330
1F
100
AcDbEntity
  8
0
  6
Continuous
 62
     3
100
AcDbCircle
 10
1203.110037689916
 20
230.6429725062538
 30
0.0
 40
56.44349999999903
100
AcDbArc
 50
81.41597019517911
 51
98.5840298048209
  0
ARC
  5
FF4
330
1F
100
AcDbEntity
  8
0
  6
Continuous
 62
     3
100
AcDbCircle
 10
1203.110037689916
 20
230.6429725062546
 30
0.0
 40
55.94399999999822
100
AcDbArc
 50
81.41597019517911
 51
98.5840298048209
  0
ARC
  5
FF5
330
1F
100
AcDbEntity
  8
0
  6
Continuous
 62
     3
100
AcDbCircle
 10
1203.110037689916
 20
336.5126798318228
 30
0.0
 40
56.44349999999903
100
AcDbArc
 50
261.4159701951791
 51
278.5840298048209
  0
ARC
  5
FF6
330
1F
100
AcDbEntity
  8
0
  6
Continuous
 62
     3
100
AcDbCircle
 10
1203.110037689916
 20
336.512679831822
 30
0.0
 40
55.94399999999822
100
AcDbArc
 50
261.4159701951791
 51
278.5840298048209
  0
TEXT
  5
FF7
330
1F
100
AcDbEntity
  8
0
 62
     3
100
AcDbText
 10
1321.378385455605
 20
274.2401203598488
 30
0.0
 40
3.2
  1
担　当
  7
高3.2
100
AcDbText
  0
TEXT
  5
FF8
330
1F
100
AcDbEntity
  8
0
 62
     3
100
AcDbText
 10
1277.378385455605
 20
274.2401203598488
 30
0.0
 40
3.2
  1
変更・追記内容
  7
高3.2
100
AcDbText
  0
TEXT
  5
FF9
330
1F
100
AcDbEntity
  8
0
 62
     3
100
AcDbText
 10
1252.491900455944
 20
269.5695818499405
 30
0.0
 40
2.0
  1
1
  7
高2
100
AcDbText
  0
TEXT
  5
FFA
330
1F
100
AcDbEntity
  8
0
 62
     3
100
AcDbText
 10
1252.183388979187
 20
264.3997651376676
 30
0.0
 40
2.0
  1
2
  7
高2
100
AcDbText
  0
TEXT
  5
FFB
330
1F
100
AcDbEntity
  8
0
 62
     3
100
AcDbText
 10
1259.378385455605
 20
274.2401203598488
 30
0.0
 40
3.2
  1
日　付
  7
高3.2
100
AcDbText
  0
TEXT
  5
FFC
330
1F
100
AcDbEntity
  8
0
 62
     3
100
AcDbText
 10
1259.378385455605
 20
279.2401203598489
 30
0.0
 40
3.2
  1
図　　　　面　　　　略　　　　歴
  7
高3.2
100
AcDbText
  0
TEXT
  5
FFD
330
1F
100
AcDbEntity
  8
0
 62
     3
100
AcDbText
 10
1249.378385455605
 20
274.2401203598488
 30
0.0
 40
3.2
  1
記号
  7
高3.2
100
AcDbText
  0
LINE
  5
FFE
330
1F
100
AcDbEntity
  8
0
100
AcDbLine
 10
1252.878385455605
 20
267.5310163598489
 30
0.0
 11
1250.978385455605
 21
264.2401203598488
 31
0.0
  0
LINE
  5
FFF
330
1F
100
AcDbEntity
  8
0
100
AcDbLine
 10
1252.878385455605
 20
267.5310163598489
 30
0.0
 11
1254.778385455605
 21
264.2401203598488
 31
0.0
  0
LINE
  5
1000
330
1F
100
AcDbEntity
  8
0
100
AcDbLine
 10
1250.978385455605
 20
264.2401203598488
 30
0.0
 11
1254.778385455605
 21
264.2401203598488
 31
0.0
  0
LINE
  5
1001
330
1F
100
AcDbEntity
  8
0
100
AcDbLine
 10
1252.878385455605
 20
272.5310173598489
 30
0.0
 11
1250.978385455605
 21
269.2401203598489
 31
0.0
  0
LINE
  5
1002
330
1F
100
AcDbEntity
  8
0
100
AcDbLine
 10
1252.878385455605
 20
272.5310173598489
 30
0.0
 11
1254.778385455605
 21
269.2401203598489
 31
0.0
  0
LINE
  5
1003
330
1F
100
AcDbEntity
  8
0
100
AcDbLine
 10
1250.978385455605
 20
269.2401203598489
 30
0.0
 11
1254.778385455605
 21
269.2401203598489
 31
0.0
  0
LINE
  5
1004
330
1F
100
AcDbEntity
  8
0
 62
     3
100
AcDbLine
 10
1247.878385455605
 20
278.7401203598488
 30
0.0
 11
1333.878385455605
 21
278.7401203598488
 31
0.0
  0
LINE
  5
1005
330
1F
100
AcDbEntity
  8
0
 62
     3
100
AcDbLine
 10
1247.878385455605
 20
273.7401203598488
 30
0.0
 11
1333.878385455605
 21
273.7401203598488
 31
0.0
  0
LINE
  5
1006
330
1F
100
AcDbEntity
  8
0
 62
     7
100
AcDbLine
 10
1247.878385455605
 20
268.7401203598489
 30
0.0
 11
1333.878385455605
 21
268.7401203598489
 31
0.0
  0
LINE
  5
1007
330
1F
100
AcDbEntity
  8
0
 62
     3
100
AcDbLine
 10
1247.878385455605
 20
263.7401203598488
 30
0.0
 11
1333.878385455605
 21
263.7401203598488
 31
0.0
  0
LINE
  5
1008
330
1F
100
AcDbEntity
  8
0
 62
     7
100
AcDbLine
 10
1319.878385455605
 20
263.7401203598488
 30
0.0
 11
1319.878385455605
 21
278.7401203598488
 31
0.0
  0
LINE
  5
1009
330
1F
100
AcDbEntity
  8
0
 62
     7
100
AcDbLine
 10
1275.878385455605
 20
263.7401203598488
 30
0.0
 11
1275.878385455605
 21
278.7401203598488
 31
0.0
  0
LINE
  5
100A
330
1F
100
AcDbEntity
  8
0
 62
     7
100
AcDbLine
 10
1257.878385455605
 20
263.7401203598488
 30
0.0
 11
1257.878385455605
 21
278.7401203598488
 31
0.0
  0
LINE
  5
100B
330
1F
100
AcDbEntity
  8
0
 62
     3
100
AcDbLine
 10
1247.878385455605
 20
263.7401203598488
 30
0.0
 11
1247.878385455605
 21
283.7401203598489
 31
0.0
  0
LINE
  5
100C
330
1F
100
AcDbEntity
  8
0
 62
     3
100
AcDbLine
 10
1333.878385455605
 20
52.74012035984878
 30
0.0
 11
1281.878385455605
 21
52.74012035984878
 31
0.0
  0
LINE
  5
100D
330
1F
100
AcDbEntity
  8
0
 62
     3
100
AcDbLine
 10
1307.878385455605
 20
46.74012035984879
 30
0.0
 11
1307.878385455605
 21
52.74012035984878
 31
0.0
  0
LINE
  5
100F
330
1F
100
AcDbEntity
  8
0
 62
     3
100
AcDbLine
 10
1281.878385455605
 20
46.74012035984879
 30
0.0
 11
1281.878385455605
 21
52.74012035984878
 31
0.0
  0
TEXT
  5
1010
330
1F
100
AcDbEntity
  8
0
 62
     3
100
AcDbText
 10
1287.478631061687
 20
47.18242362972985
 30
0.0
 40
4.5
  1
コード
  7
高4.5
100
AcDbText
  0
TEXT
  5
1011
330
1F
100
AcDbEntity
  8
0
 62
     3
100
AcDbText
 10
1312.792560028168
 20
47.18242362972985
 30
0.0
 40
4.5
  1
10027
  7
高4.5
100
AcDbText
  0
TEXT
  5
1012
330
1F
100
AcDbEntity
  8
0
100
AcDbText
 10
1326.898710764912
 20
29.0433698512469
 30
0.0
 40
3.2
  1
I
  7
高3.2
100
AcDbText
  0
TEXT
  5
11E1
330
1F
100
AcDbEntity
  8
0
 62
     4
100
AcDbText
 10
1264.143093628329
 20
199.6535956321779
 30
0.0
 40
3.0
  1
エアー取付口ネジ
100
AcDbText
1001
ACAD
1000
MTEXTBEGIN
1070
    73
1070
     1
1070
    44
1040
1.0
1070
    74
1070
     0
1000
MTEXTEND
  0
TEXT
  5
11E6
330
1F
100
AcDbEntity
  8
0
 62
     4
100
AcDbText
 10
1197.4392682458
 20
200.1725969355724
 30
0.0
 40
3.0
  1
ノズル取付口ネジ
100
AcDbText
1001
ACAD
1000
MTEXTBEGIN
1070
    73
1070
     1
1070
    44
1040
1.0
1070
    74
1070
     0
1000
MTEXTEND
  0
TEXT
  5
11E9
330
1F
100
AcDbEntity
  8
0
 62
     4
100
AcDbText
 10
1237.912564675034
 20
110.9924577206006
 30
0.0
 40
3.0
  1
カラビナ
100
AcDbText
1001
ACAD
1000
MTEXTBEGIN
1070
    73
1070
     1
1070
    44
1040
1.0
1070
    74
1070
     0
1000
MTEXTEND
  0
TEXT
  5
11EC
330
1F
100
AcDbEntity
  8
0
 62
     4
100
AcDbText
 10
1291.467614831344
 20
191.4937214858892
 30
0.0
 40
3.0
  1
エアーカップリング
100
AcDbText
1001
ACAD
1000
MTEXTBEGIN
1070
    73
1070
     1
1070
    44
1040
1.0
1070
    74
1070
     0
1000
MTEXTEND
  0
TEXT
  5
11EF
330
1F
100
AcDbEntity
  8
0
 62
     4
100
AcDbText
 10
1193.560208427261
 20
193.0527095545358
 30
0.0
 40
3.0
  1
ノズル
100
AcDbText
1001
ACAD
1000
MTEXTBEGIN
1070
    73
1070
     1
1070
    44
1040
1.0
1070
    74
1070
     0
1000
MTEXTEND
  0
LINE
  5
11F2
330
1F
100
AcDbEntity
  8
0
100
AcDbLine
 10
1245.33943495732
 20
186.966227058199
 30
0.0
 11
1177.051000286729
 21
186.9662270581991
 31
0.0
  0
LINE
  5
11F3
330
1F
100
AcDbEntity
  8
0
100
AcDbLine
 10
1243.212674393939
 20
156.9344018182711
 30
0.0
 11
1177.051000286729
 21
156.9344018182712
 31
0.0
  0
LINE
  5
11F4
330
1F
100
AcDbEntity
  8
0
100
AcDbLine
 10
1178.301000286729
 20
184.4662270581991
 30
0.0
 11
1178.301000286729
 21
159.4344018182712
 31
0.0
  0
LINE
  5
11F8
330
1F
100
AcDbEntity
  8
0
100
AcDbLine
 10
1281.58943495732
 20
224.4269918028581
 30
0.0
 11
1281.58943495732
 21
231.628695260833
 31
0.0
  0
LINE
  5
11F9
330
1F
100
AcDbEntity
  8
0
100
AcDbLine
 10
1294.58943495732
 20
224.4269918028581
 30
0.0
 11
1294.58943495732
 21
231.628695260833
 31
0.0
  0
LINE
  5
11FA
330
1F
100
AcDbEntity
  8
0
100
AcDbLine
 10
1284.08943495732
 20
230.378695260833
 30
0.0
 11
1292.08943495732
 21
230.378695260833
 31
0.0
  0
LINE
  5
11FE
330
1F
100
AcDbEntity
  8
0
100
AcDbLine
 10
1294.58943495732
 20
224.4269918028581
 30
0.0
 11
1294.58943495732
 21
237.9859444948479
 31
0.0
  0
LINE
  5
11FF
330
1F
100
AcDbEntity
  8
0
100
AcDbLine
 10
1274.08943495732
 20
225.7769918028581
 30
0.0
 11
1274.08943495732
 21
237.9859444948479
 31
0.0
  0
LINE
  5
1200
330
1F
100
AcDbEntity
  8
0
100
AcDbLine
 10
1292.08943495732
 20
236.7359444948479
 30
0.0
 11
1276.58943495732
 21
236.7359444948479
 31
0.0
  0
LINE
  5
1204
330
1F
100
AcDbEntity
  8
0
100
AcDbLine
 10
1283.83943495732
 20
225.1769918028581
 30
0.0
 11
1314.009207397715
 21
225.1769918028581
 31
0.0
  0
LINE
  5
1205
330
1F
100
AcDbEntity
  8
0
100
AcDbLine
 10
1283.83943495732
 20
212.1769918028581
 30
0.0
 11
1314.009207397715
 21
212.1769918028581
 31
0.0
  0
LINE
  5
1206
330
1F
100
AcDbEntity
  8
0
100
AcDbLine
 10
1312.759207397715
 20
222.6769918028581
 30
0.0
 11
1312.759207397715
 21
214.6769918028581
 31
0.0
  0
LINE
  5
120A
330
1F
100
AcDbEntity
  8
0
100
AcDbLine
 10
1294.83943495732
 20
224.1769918028581
 30
0.0
 11
1305.937309609928
 21
224.1769918028581
 31
0.0
  0
LINE
  5
120B
330
1F
100
AcDbEntity
  8
0
100
AcDbLine
 10
1294.83943495732
 20
213.1769918028581
 30
0.0
 11
1305.937309609928
 21
213.1769918028581
 31
0.0
  0
LINE
  5
120C
330
1F
100
AcDbEntity
  8
0
100
AcDbLine
 10
1304.687309609928
 20
221.6769918028581
 30
0.0
 11
1304.687309609928
 21
215.6769918028581
 31
0.0
  0
LINE
  5
1210
330
1F
100
AcDbEntity
  8
0
100
AcDbLine
 10
1204.83943495732
 20
207.1769918028581
 30
0.0
 11
1174.352482494268
 21
207.1769918028581
 31
0.0
  0
LINE
  5
1211
330
1F
100
AcDbEntity
  8
0
100
AcDbLine
 10
1204.83943495732
 20
230.1769918028581
 30
0.0
 11
1174.352482494268
 21
230.1769918028581
 31
0.0
  0
LINE
  5
1212
330
1F
100
AcDbEntity
  8
0
100
AcDbLine
 10
1175.602482494268
 20
209.6769918028581
 30
0.0
 11
1175.602482494268
 21
227.6769918028581
 31
0.0
  0
LINE
  5
1216
330
1F
100
AcDbEntity
  8
0
100
AcDbLine
 10
1294.58943495732
 20
224.4269918028581
 30
0.0
 11
1294.58943495732
 21
243.2741351400262
 31
0.0
  0
LINE
  5
1217
330
1F
100
AcDbEntity
  8
0
100
AcDbLine
 10
1187.08943495732
 20
228.9269918028581
 30
0.0
 11
1187.08943495732
 21
243.2741351400262
 31
0.0
  0
LINE
  5
1218
330
1F
100
AcDbEntity
  8
0
100
AcDbLine
 10
1292.08943495732
 20
242.0241351400262
 30
0.0
 11
1189.58943495732
 21
242.0241351400262
 31
0.0
  0
LINE
  5
121C
330
1F
100
AcDbEntity
  8
0
100
AcDbLine
 10
1226.58943495732
 20
228.9269918028581
 30
0.0
 11
1226.58943495732
 21
238.3515183998791
 31
0.0
  0
LINE
  5
121D
330
1F
100
AcDbEntity
  8
0
100
AcDbLine
 10
1187.08943495732
 20
228.9269918028581
 30
0.0
 11
1187.08943495732
 21
238.3515183998791
 31
0.0
  0
LINE
  5
121E
330
1F
100
AcDbEntity
  8
0
100
AcDbLine
 10
1224.08943495732
 20
237.1015183998791
 30
0.0
 11
1189.58943495732
 21
237.1015183998791
 31
0.0
  0
LINE
  5
1222
330
1F
100
AcDbEntity
  8
0
100
AcDbLine
 10
1267.08943495732
 20
226.4269918028581
 30
0.0
 11
1267.08943495732
 21
238.3515183998791
 31
0.0
  0
LINE
  5
1223
330
1F
100
AcDbEntity
  8
0
100
AcDbLine
 10
1226.58943495732
 20
228.9269918028581
 30
0.0
 11
1226.58943495732
 21
238.3515183998791
 31
0.0
  0
LINE
  5
1224
330
1F
100
AcDbEntity
  8
0
100
AcDbLine
 10
1264.58943495732
 20
237.1015183998791
 30
0.0
 11
1229.08943495732
 21
237.1015183998791
 31
0.0
  0
LINE
  5
1228
330
1F
100
AcDbEntity
  8
0
 62
     3
100
AcDbLine
 10
1200.711631114747
 20
284.1057164961867
 30
0.0
 11
1200.693699148718
 21
284.220529326821
 31
0.0
  0
LINE
  5
1229
330
1F
100
AcDbEntity
  8
0
 62
     3
100
AcDbLine
 10
1200.693699148718
 20
284.220529326821
 30
0.0
 11
1200.672163404013
 21
284.3304688352081
 31
0.0
  0
LINE
  5
122A
330
1F
100
AcDbEntity
  8
0
 62
     3
100
AcDbLine
 10
1200.672163404013
 20
284.3304688352081
 30
0.0
 11
1200.647190996772
 21
284.4346846158341
 31
0.0
  0
LINE
  5
122B
330
1F
100
AcDbEntity
  8
0
 62
     3
100
AcDbLine
 10
1200.647190996772
 20
284.4346846158341
 30
0.0
 11
1200.618973301929
 21
284.5323707376413
 31
0.0
  0
LINE
  5
122C
330
1F
100
AcDbEntity
  8
0
 62
     3
100
AcDbLine
 10
1200.618973301929
 20
284.5323707376413
 30
0.0
 11
1200.587729996343
 21
284.6227731564381
 31
0.0
  0
LINE
  5
122D
330
1F
100
AcDbEntity
  8
0
 62
     3
100
AcDbLine
 10
1200.587729996343
 20
284.6227731564381
 30
0.0
 11
1200.553701646392
 21
284.7051924103198
 31
0.0
  0
LINE
  5
122E
330
1F
100
AcDbEntity
  8
0
 62
     3
100
AcDbLine
 10
1200.553701646392
 20
284.7051924103198
 30
0.0
 11
1200.517151055681
 21
284.7789910320792
 31
0.0
  0
LINE
  5
122F
330
1F
100
AcDbEntity
  8
0
 62
     3
100
AcDbLine
 10
1200.517151055681
 20
284.7789910320792
 30
0.0
 11
1200.478361917334
 21
284.8435996139036
 31
0.0
  0
LINE
  5
1230
330
1F
100
AcDbEntity
  8
0
 62
     3
100
AcDbLine
 10
1200.478361917334
 20
284.8435996139036
 30
0.0
 11
1200.437633423148
 21
284.8985188289423
 31
0.0
  0
LINE
  5
1231
330
1F
100
AcDbEntity
  8
0
 62
     3
100
AcDbLine
 10
1200.437633423148
 20
284.8985188289423
 30
0.0
 11
1200.395280263595
 21
284.9433228005828
 31
0.0
  0
LINE
  5
1232
330
1F
100
AcDbEntity
  8
0
 62
     3
100
AcDbLine
 10
1200.395280263595
 20
284.9433228005828
 30
0.0
 11
1200.351629932398
 21
284.9776665148608
 31
0.0
  0
LINE
  5
1233
330
1F
100
AcDbEntity
  8
0
 62
     3
100
AcDbLine
 10
1200.351629932398
 20
284.9776665148608
 30
0.0
 11
1200.307019357257
 21
285.0012837988936
 31
0.0
  0
LINE
  5
1234
330
1F
100
AcDbEntity
  8
0
 62
     3
100
AcDbLine
 10
1200.307019357257
 20
285.0012837988936
 30
0.0
 11
1200.261794225992
 21
285.0139927117234
 31
0.0
  0
LINE
  5
1235
330
1F
100
AcDbEntity
  8
0
 62
     3
100
AcDbLine
 10
1200.261794225992
 20
285.0139927117234
 30
0.0
 11
1200.2163035957
 21
285.0156948704618
 31
0.0
  0
LINE
  5
1236
330
1F
100
AcDbEntity
  8
0
 62
     3
100
AcDbLine
 10
1200.2163035957
 20
285.0156948704618
 30
0.0
 11
1200.170899218898
 21
285.0063761241456
 31
0.0
  0
LINE
  5
1237
330
1F
100
AcDbEntity
  8
0
 62
     3
100
AcDbLine
 10
1200.170899218898
 20
285.0063761241456
 30
0.0
 11
1200.125931500396
 21
284.9861099230133
 31
0.0
  0
LINE
  5
1238
330
1F
100
AcDbEntity
  8
0
 62
     3
100
AcDbLine
 10
1200.125931500396
 20
284.9861099230133
 30
0.0
 11
1200.081748823433
 21
284.9550526015174
 31
0.0
  0
LINE
  5
1239
330
1F
100
AcDbEntity
  8
0
 62
     3
100
AcDbLine
 10
1200.081748823433
 20
284.9550526015174
 30
0.0
 11
1200.038692832698
 21
284.9134433783247
 31
0.0
  0
LINE
  5
123A
330
1F
100
AcDbEntity
  8
0
 62
     3
100
AcDbLine
 10
1200.038692832698
 20
284.9134433783247
 30
0.0
 11
1199.997095065047
 21
284.8616043563161
 31
0.0
  0
LINE
  5
123B
330
1F
100
AcDbEntity
  8
0
 62
     3
100
AcDbLine
 10
1199.997095065047
 20
284.8616043563161
 30
0.0
 11
1199.957278297216
 21
284.799936479454
 31
0.0
  0
LINE
  5
123C
330
1F
100
AcDbEntity
  8
0
 62
     3
100
AcDbLine
 10
1199.957278297216
 20
284.799936479454
 30
0.0
 11
1199.919549807268
 21
284.7289161635058
 31
0.0
  0
LINE
  5
123D
330
1F
100
AcDbEntity
  8
0
 62
     3
100
AcDbLine
 10
1199.919549807268
 20
284.7289161635058
 30
0.0
 11
1199.88420137459
 21
284.6490919267663
 31
0.0
  0
LINE
  5
123E
330
1F
100
AcDbEntity
  8
0
 62
     3
100
AcDbLine
 10
1199.88420137459
 20
284.6490919267663
 30
0.0
 11
1199.851505910618
 21
284.561081694637
 31
0.0
  0
LINE
  5
123F
330
1F
100
AcDbEntity
  8
0
 62
     3
100
AcDbLine
 10
1199.851505910618
 20
284.561081694637
 30
0.0
 11
1199.821716111129
 21
284.4655653872153
 31
0.0
  0
LINE
  5
1240
330
1F
100
AcDbEntity
  8
0
 62
     3
100
AcDbLine
 10
1199.821716111129
 20
284.4655653872153
 30
0.0
 11
1199.795063108522
 21
284.3632815500191
 31
0.0
  0
LINE
  5
1241
330
1F
100
AcDbEntity
  8
0
 62
     3
100
AcDbLine
 10
1199.795063108522
 20
284.3632815500191
 30
0.0
 11
1199.771751754841
 21
284.2550199415761
 31
0.0
  0
LINE
  5
1242
330
1F
100
AcDbEntity
  8
0
 62
     3
100
AcDbLine
 10
1199.771751754841
 20
284.2550199415761
 30
0.0
 11
1199.751962643331
 21
284.1416174902922
 31
0.0
  0
LINE
  5
1243
330
1F
100
AcDbEntity
  8
0
 62
     3
100
AcDbLine
 10
1199.751962643331
 20
284.1416174902922
 30
0.0
 11
1199.735849413024
 21
284.0239515558974
 31
0.0
  0
LINE
  5
1244
330
1F
100
AcDbEntity
  8
0
 62
     3
100
AcDbLine
 10
1199.735849413024
 20
284.0239515558974
 30
0.0
 11
1199.723535379458
 21
283.902931169325
 31
0.0
  0
LINE
  5
1245
330
1F
100
AcDbEntity
  8
0
 62
     3
100
AcDbLine
 10
1199.723535379458
 20
283.902931169325
 30
0.0
 11
1199.715116903956
 21
283.7794916418694
 31
0.0
  0
LINE
  5
1246
330
1F
100
AcDbEntity
  8
0
 62
     3
100
AcDbLine
 10
1199.715116903956
 20
283.7794916418694
 30
0.0
 11
1199.710658676634
 21
283.6545878266312
 31
0.0
  0
LINE
  5
1247
330
1F
100
AcDbEntity
  8
0
 62
     3
100
AcDbLine
 10
1199.710658676634
 20
283.6545878266312
 30
0.0
 11
1199.710194390264
 21
283.5291840106867
 31
0.0
  0
LINE
  5
1248
330
1F
100
AcDbEntity
  8
0
 62
     3
100
AcDbLine
 10
1199.710194390264
 20
283.5291840106867
 30
0.0
 11
1199.713728761833
 21
283.4042498719556
 31
0.0
  0
LINE
  5
1249
330
1F
100
AcDbEntity
  8
0
 62
     3
100
AcDbLine
 10
1199.713728761833
 20
283.4042498719556
 30
0.0
 11
1199.721233489414
 21
283.2807517190802
 31
0.0
  0
LINE
  5
124A
330
1F
100
AcDbEntity
  8
0
 62
     3
100
AcDbLine
 10
1199.721233489414
 20
283.2807517190802
 30
0.0
 11
1199.732651295299
 21
283.1596430574506
 31
0.0
  0
LINE
  5
124B
330
1F
100
AcDbEntity
  8
0
 62
     3
100
AcDbLine
 10
1199.732651295299
 20
283.1596430574506
 30
0.0
 11
1199.74789390443
 21
283.041861219927
 31
0.0
  0
LINE
  5
124C
330
1F
100
AcDbEntity
  8
0
 62
     3
100
AcDbLine
 10
1199.74789390443
 20
283.041861219927
 30
0.0
 11
1199.766842718257
 21
282.9283159112985
 31
0.0
  0
LINE
  5
124D
330
1F
100
AcDbEntity
  8
0
 62
     3
100
AcDbLine
 10
1199.766842718257
 20
282.9283159112985
 30
0.0
 11
1199.789352184014
 21
282.8198851651503
 31
0.0
  0
LINE
  5
124E
330
1F
100
AcDbEntity
  8
0
 62
     3
100
AcDbLine
 10
1199.789352184014
 20
282.8198851651503
 30
0.0
 11
1199.815247773151
 21
282.7174059098883
 31
0.0
  0
LINE
  5
124F
330
1F
100
AcDbEntity
  8
0
 62
     3
100
AcDbLine
 10
1199.815247773151
 20
282.7174059098883
 30
0.0
 11
1199.844330024472
 21
282.6216719471727
 31
0.0
  0
LINE
  5
1250
330
1F
100
AcDbEntity
  8
0
 62
     3
100
AcDbLine
 10
1199.844330024472
 20
282.6216719471727
 30
0.0
 11
1199.876373196417
 21
282.5334218225211
 31
0.0
  0
LINE
  5
1251
330
1F
100
AcDbEntity
  8
0
 62
     3
100
AcDbLine
 10
1199.876373196417
 20
282.5334218225211
 30
0.0
 11
1199.911129984055
 21
282.4533388253085
 31
0.0
  0
LINE
  5
1252
330
1F
100
AcDbEntity
  8
0
 62
     3
100
AcDbLine
 10
1199.911129984055
 20
282.4533388253085
 30
0.0
 11
1199.948332192936
 21
282.3820415547912
 31
0.0
  0
LINE
  5
1253
330
1F
100
AcDbEntity
  8
0
 62
     3
100
AcDbLine
 10
1199.948332192936
 20
282.3820415547912
 30
0.0
 11
1199.987691412951
 21
282.3200805508303
 31
0.0
  0
LINE
  5
1254
330
1F
100
AcDbEntity
  8
0
 62
     3
100
AcDbLine
 10
1199.987691412951
 20
282.3200805508303
 30
0.0
 11
1200.028903735314
 21
282.267934924615
 31
0.0
  0
LINE
  5
1255
330
1F
100
AcDbEntity
  8
0
 62
     3
100
AcDbLine
 10
1200.028903735314
 20
282.267934924615
 30
0.0
 11
1200.071651100276
 21
282.2260083155293
 31
0.0
  0
LINE
  5
1256
330
1F
100
AcDbEntity
  8
0
 62
     3
100
AcDbLine
 10
1200.071651100276
 20
282.2260083155293
 30
0.0
 11
1200.115602644836
 21
282.1946248480202
 31
0.0
  0
LINE
  5
1257
330
1F
100
AcDbEntity
  8
0
 62
     3
100
AcDbLine
 10
1200.115602644836
 20
282.1946248480202
 30
0.0
 11
1200.160418745874
 21
282.174026436176
 31
0.0
  0
LINE
  5
1258
330
1F
100
AcDbEntity
  8
0
 62
     3
100
AcDbLine
 10
1200.160418745874
 20
282.174026436176
 30
0.0
 11
1200.205753041713
 21
282.164372109871
 31
0.0
  0
LINE
  5
1259
330
1F
100
AcDbEntity
  8
0
 62
     3
100
AcDbLine
 10
1200.205753041713
 20
282.164372109871
 30
0.0
 11
1200.251255127547
 21
282.1657373409099
 31
0.0
  0
LINE
  5
125A
330
1F
100
AcDbEntity
  8
0
 62
     3
100
AcDbLine
 10
1200.251255127547
 20
282.1657373409099
 30
0.0
 11
1200.296573250858
 21
282.1781106737508
 31
0.0
  0
LINE
  5
125B
330
1F
100
AcDbEntity
  8
0
 62
     3
100
AcDbLine
 10
1200.296573250858
 20
282.1781106737508
 30
0.0
 11
1200.341357006836
 21
282.201397768638
 31
0.0
  0
LINE
  5
125C
330
1F
100
AcDbEntity
  8
0
 62
     3
100
AcDbLine
 10
1200.341357006836
 20
282.201397768638
 30
0.0
 11
1200.385260707663
 21
282.235417358469
 31
0.0
  0
LINE
  5
125D
330
1F
100
AcDbEntity
  8
0
 62
     3
100
AcDbLine
 10
1200.385260707663
 20
282.235417358469
 30
0.0
 11
1200.427944056362
 21
282.2799073134935
 31
0.0
  0
LINE
  5
125E
330
1F
100
AcDbEntity
  8
0
 62
     3
100
AcDbLine
 10
1200.427944056362
 20
282.2799073134935
 30
0.0
 11
1200.469078211499
 21
282.334522619747
 31
0.0
  0
LINE
  5
125F
330
1F
100
AcDbEntity
  8
0
 62
     3
100
AcDbLine
 10
1200.469078211499
 20
282.334522619747
 30
0.0
 11
1200.508344439468
 21
282.3988427914605
 31
0.0
  0
LINE
  5
1260
330
1F
100
AcDbEntity
  8
0
 62
     3
100
AcDbLine
 10
1200.508344439468
 20
282.3988427914605
 30
0.0
 11
1200.545439505341
 21
282.4723691756386
 31
0.0
  0
LINE
  5
1261
330
1F
100
AcDbEntity
  8
0
 62
     3
100
AcDbLine
 10
1200.545439505341
 20
282.4723691756386
 30
0.0
 11
1200.580077020573
 21
282.5545343860349
 31
0.0
  0
LINE
  5
1262
330
1F
100
AcDbEntity
  8
0
 62
     3
100
AcDbLine
 10
1200.580077020573
 20
282.5545343860349
 30
0.0
 11
1200.611988790716
 21
282.6447029770081
 31
0.0
  0
LINE
  5
1263
330
1F
100
AcDbEntity
  8
0
 62
     3
100
AcDbLine
 10
1200.611988790716
 20
282.6447029770081
 30
0.0
 11
1200.640928184692
 21
282.7421781820754
 31
0.0
  0
LINE
  5
1264
330
1F
100
AcDbEntity
  8
0
 62
     3
100
AcDbLine
 10
1200.640928184692
 20
282.7421781820754
 30
0.0
 11
1200.666671482509
 21
282.8462059570449
 31
0.0
  0
LINE
  5
1265
330
1F
100
AcDbEntity
  8
0
 62
     3
100
AcDbLine
 10
1200.666671482509
 20
282.8462059570449
 30
0.0
 11
1200.689020570681
 21
282.9559830662809
 31
0.0
  0
LINE
  5
1266
330
1F
100
AcDbEntity
  8
0
 62
     3
100
AcDbLine
 10
1200.689020570681
 20
282.9559830662809
 30
0.0
 11
1200.707801594513
 21
283.07066045198
 31
0.0
  0
LINE
  5
1267
330
1F
100
AcDbEntity
  8
0
100
AcDbLine
 10
1261.115172023302
 20
209.6271761944601
 30
0.0
 11
1261.218093628329
 21
201.1535956321779
 31
0.0
1001
ACAD
1000
DSTYLE
1002
{
1070
   147
1040
0.625
1070
    77
1070
     0
1002
}
  0
LINE
  5
1268
330
1F
100
AcDbEntity
  8
0
100
AcDbLine
 10
1261.218093628329
 20
201.1535956321779
 30
0.0
 11
1263.718093628329
 21
201.1535956321779
 31
0.0
1001
ACAD
1000
DSTYLE
1002
{
1070
   147
1040
0.625
1070
    77
1070
     0
1002
}
  0
LINE
  5
1269
330
1F
100
AcDbEntity
  8
0
  6
ByBlock
 62
     0
370
    -2
100
AcDbLine
 10
1260.445348930847
 20
209.6190404049608
 30
0.0
 11
1261.084808821725
 21
212.1269918028581
 31
0.0
  0
LINE
  5
126A
330
1F
100
AcDbEntity
  8
0
  6
ByBlock
 62
     0
370
    -2
100
AcDbLine
 10
1261.084808821725
 20
212.1269918028581
 30
0.0
 11
1261.784995115756
 21
209.6353119839594
 31
0.0
  0
LINE
  5
126B
330
1F
100
AcDbEntity
  8
0
  6
ByBlock
 62
     0
370
    -2
100
AcDbLine
 10
1261.084808821725
 20
212.1269918028581
 30
0.0
 11
1261.115172023302
 21
209.6271761944601
 31
0.0
  0
LINE
  5
126C
330
1F
100
AcDbEntity
  8
0
100
AcDbLine
 10
1231.263362281713
 20
211.4176954520162
 30
0.0
 11
1228.5642682458
 21
201.6725969355724
 31
0.0
1001
ACAD
1000
DSTYLE
1002
{
1070
   147
1040
0.625
1070
    77
1070
     0
1002
}
  0
LINE
  5
126D
330
1F
100
AcDbEntity
  8
0
100
AcDbLine
 10
1228.5642682458
 20
201.6725969355724
 30
0.0
 11
1226.0642682458
 21
201.6725969355724
 31
0.0
1001
ACAD
1000
DSTYLE
1002
{
1070
   147
1040
0.625
1070
    77
1070
     0
1002
}
  0
LINE
  5
126E
330
1F
100
AcDbEntity
  8
0
  6
ByBlock
 62
     0
370
    -2
100
AcDbLine
 10
1230.617793733801
 20
211.5964981818708
 30
0.0
 11
1231.930663633293
 21
213.826991802858
 31
0.0
  0
LINE
  5
126F
330
1F
100
AcDbEntity
  8
0
  6
ByBlock
 62
     0
370
    -2
100
AcDbLine
 10
1231.930663633293
 20
213.826991802858
 30
0.0
 11
1231.908930829624
 21
211.2388927221617
 31
0.0
  0
LINE
  5
1270
330
1F
100
AcDbEntity
  8
0
  6
ByBlock
 62
     0
370
    -2
100
AcDbLine
 10
1231.930663633293
 20
213.826991802858
 30
0.0
 11
1231.263362281713
 21
211.4176954520162
 31
0.0
  0
LINE
  5
1271
330
1F
100
AcDbEntity
  8
0
100
AcDbLine
 10
1257.138183585039
 20
116.2805774187834
 30
0.0
 11
1254.437564675034
 21
112.4924577206007
 31
0.0
1001
ACAD
1000
DSTYLE
1002
{
1070
   147
1040
0.625
1070
    77
1070
     0
1002
}
  0
LINE
  5
1272
330
1F
100
AcDbEntity
  8
0
100
AcDbLine
 10
1254.437564675034
 20
112.4924577206007
 30
0.0
 11
1251.937564675034
 21
112.4924577206007
 31
0.0
1001
ACAD
1000
DSTYLE
1002
{
1070
   147
1040
0.625
1070
    77
1070
     0
1002
}
  0
LINE
  5
1273
330
1F
100
AcDbEntity
  8
0
  6
ByBlock
 62
     0
370
    -2
100
AcDbLine
 10
1256.592733299807
 20
116.6694387727346
 30
0.0
 11
1258.58943495732
 21
118.3162270581991
 31
0.0
  0
LINE
  5
1274
330
1F
100
AcDbEntity
  8
0
  6
ByBlock
 62
     0
370
    -2
100
AcDbLine
 10
1258.58943495732
 20
118.3162270581991
 30
0.0
 11
1257.683633870271
 21
115.8917160648321
 31
0.0
  0
LINE
  5
1275
330
1F
100
AcDbEntity
  8
0
  6
ByBlock
 62
     0
370
    -2
100
AcDbLine
 10
1258.58943495732
 20
118.3162270581991
 30
0.0
 11
1257.138183585039
 21
116.2805774187834
 31
0.0
  0
LINE
  5
1276
330
1F
100
AcDbEntity
  8
0
100
AcDbLine
 10
1286.858720311854
 20
177.451681825004
 30
0.0
 11
1288.542614831344
 21
192.9937214858892
 31
0.0
1001
ACAD
1000
DSTYLE
1002
{
1070
   147
1040
0.625
1070
    77
1070
     0
1002
}
  0
LINE
  5
1277
330
1F
100
AcDbEntity
  8
0
100
AcDbLine
 10
1288.542614831344
 20
192.9937214858892
 30
0.0
 11
1291.042614831344
 21
192.9937214858892
 31
0.0
1001
ACAD
1000
DSTYLE
1002
{
1070
   147
1040
0.625
1070
    77
1070
     0
1002
}
  0
LINE
  5
1278
330
1F
100
AcDbEntity
  8
0
  6
ByBlock
 62
     0
370
    -2
100
AcDbLine
 10
1287.524695431164
 20
177.379527083542
 30
0.0
 11
1286.58943495732
 21
174.9662270581991
 31
0.0
  0
LINE
  5
1279
330
1F
100
AcDbEntity
  8
0
  6
ByBlock
 62
     0
370
    -2
100
AcDbLine
 10
1286.58943495732
 20
174.9662270581991
 30
0.0
 11
1286.192745192543
 21
177.5238365664661
 31
0.0
  0
LINE
  5
127A
330
1F
100
AcDbEntity
  8
0
  6
ByBlock
 62
     0
370
    -2
100
AcDbLine
 10
1286.58943495732
 20
174.9662270581991
 30
0.0
 11
1286.858720311854
 21
177.451681825004
 31
0.0
  0
LINE
  5
127B
330
1F
100
AcDbEntity
  8
0
100
AcDbLine
 10
1210.630549560376
 20
173.4237510545158
 30
0.0
 11
1206.685208427261
 21
194.5527095545358
 31
0.0
1001
ACAD
1000
DSTYLE
1002
{
1070
   147
1040
0.625
1070
    77
1070
     0
1002
}
  0
LINE
  5
127C
330
1F
100
AcDbEntity
  8
0
100
AcDbLine
 10
1206.685208427261
 20
194.5527095545358
 30
0.0
 11
1204.185208427261
 21
194.5527095545358
 31
0.0
1001
ACAD
1000
DSTYLE
1002
{
1070
   147
1040
0.625
1070
    77
1070
     0
1002
}
  0
LINE
  5
127D
330
1F
100
AcDbEntity
  8
0
  6
ByBlock
 62
     0
370
    -2
100
AcDbLine
 10
1211.289040657665
 20
173.5467089377414
 30
0.0
 11
1211.08943495732
 21
170.9662270581992
 31
0.0
  0
LINE
  5
127E
330
1F
100
AcDbEntity
  8
0
  6
ByBlock
 62
     0
370
    -2
100
AcDbLine
 10
1211.08943495732
 20
170.9662270581992
 30
0.0
 11
1209.972058463087
 21
173.3007931712901
 31
0.0
  0
LINE
  5
127F
330
1F
100
AcDbEntity
  8
0
  6
ByBlock
 62
     0
370
    -2
100
AcDbLine
 10
1211.08943495732
 20
170.9662270581992
 30
0.0
 11
1210.630549560376
 21
173.4237510545158
 31
0.0
  0
TEXT
  5
1280
330
1F
100
AcDbEntity
  8
0
 62
     4
100
AcDbText
 10
1177.676000286729
 20
169.7003144382352
 30
0.0
 40
3.0
  1
30
 50
90.0
100
AcDbText
  0
LINE
  5
1281
330
1F
100
AcDbEntity
  8
0
  6
ByBlock
 62
     0
370
    -2
100
AcDbLine
 10
1178.970872786729
 20
159.4344018182712
 30
0.0
 11
1178.301000286729
 21
156.9344018182712
 31
0.0
  0
LINE
  5
1282
330
1F
100
AcDbEntity
  8
0
  6
ByBlock
 62
     0
370
    -2
100
AcDbLine
 10
1178.301000286729
 20
156.9344018182712
 30
0.0
 11
1177.631127786729
 21
159.4344018182712
 31
0.0
  0
LINE
  5
1283
330
1F
100
AcDbEntity
  8
0
  6
ByBlock
 62
     0
370
    -2
100
AcDbLine
 10
1178.301000286729
 20
156.9344018182712
 30
0.0
 11
1178.301000286729
 21
159.4344018182712
 31
0.0
  0
LINE
  5
1284
330
1F
100
AcDbEntity
  8
0
  6
ByBlock
 62
     0
370
    -2
100
AcDbLine
 10
1177.631127786729
 20
184.4662270581991
 30
0.0
 11
1178.301000286729
 21
186.9662270581991
 31
0.0
  0
LINE
  5
1285
330
1F
100
AcDbEntity
  8
0
  6
ByBlock
 62
     0
370
    -2
100
AcDbLine
 10
1178.301000286729
 20
186.9662270581991
 30
0.0
 11
1178.970872786729
 21
184.4662270581991
 31
0.0
  0
LINE
  5
1286
330
1F
100
AcDbEntity
  8
0
  6
ByBlock
 62
     0
370
    -2
100
AcDbLine
 10
1178.301000286729
 20
186.9662270581991
 30
0.0
 11
1178.301000286729
 21
184.4662270581991
 31
0.0
  0
TEXT
  5
1287
330
1F
100
AcDbEntity
  8
0
 62
     4
100
AcDbText
 10
1285.61781165891
 20
231.003695260833
 30
0.0
 40
3.0
  1
13
100
AcDbText
  0
LINE
  5
1288
330
1F
100
AcDbEntity
  8
0
  6
ByBlock
 62
     0
370
    -2
100
AcDbLine
 10
1292.08943495732
 20
231.048567760833
 30
0.0
 11
1294.58943495732
 21
230.378695260833
 31
0.0
  0
LINE
  5
1289
330
1F
100
AcDbEntity
  8
0
  6
ByBlock
 62
     0
370
    -2
100
AcDbLine
 10
1294.58943495732
 20
230.378695260833
 30
0.0
 11
1292.08943495732
 21
229.708822760833
 31
0.0
  0
LINE
  5
128A
330
1F
100
AcDbEntity
  8
0
  6
ByBlock
 62
     0
370
    -2
100
AcDbLine
 10
1294.58943495732
 20
230.378695260833
 30
0.0
 11
1292.08943495732
 21
230.378695260833
 31
0.0
  0
LINE
  5
128B
330
1F
100
AcDbEntity
  8
0
  6
ByBlock
 62
     0
370
    -2
100
AcDbLine
 10
1284.08943495732
 20
229.708822760833
 30
0.0
 11
1281.58943495732
 21
230.378695260833
 31
0.0
  0
LINE
  5
128C
330
1F
100
AcDbEntity
  8
0
  6
ByBlock
 62
     0
370
    -2
100
AcDbLine
 10
1281.58943495732
 20
230.378695260833
 30
0.0
 11
1284.08943495732
 21
231.048567760833
 31
0.0
  0
LINE
  5
128D
330
1F
100
AcDbEntity
  8
0
  6
ByBlock
 62
     0
370
    -2
100
AcDbLine
 10
1281.58943495732
 20
230.378695260833
 30
0.0
 11
1284.08943495732
 21
230.378695260833
 31
0.0
  0
TEXT
  5
128E
330
1F
100
AcDbEntity
  8
0
 62
     4
100
AcDbText
 10
1278.936076393157
 20
237.3609444948479
 30
0.0
 40
3.0
  1
20.5
100
AcDbText
  0
LINE
  5
128F
330
1F
100
AcDbEntity
  8
0
  6
ByBlock
 62
     0
370
    -2
100
AcDbLine
 10
1276.58943495732
 20
236.0660719948479
 30
0.0
 11
1274.08943495732
 21
236.7359444948479
 31
0.0
  0
LINE
  5
1290
330
1F
100
AcDbEntity
  8
0
  6
ByBlock
 62
     0
370
    -2
100
AcDbLine
 10
1274.08943495732
 20
236.7359444948479
 30
0.0
 11
1276.58943495732
 21
237.4058169948479
 31
0.0
  0
LINE
  5
1291
330
1F
100
AcDbEntity
  8
0
  6
ByBlock
 62
     0
370
    -2
100
AcDbLine
 10
1274.08943495732
 20
236.7359444948479
 30
0.0
 11
1276.58943495732
 21
236.7359444948479
 31
0.0
  0
LINE
  5
1292
330
1F
100
AcDbEntity
  8
0
  6
ByBlock
 62
     0
370
    -2
100
AcDbLine
 10
1292.08943495732
 20
237.4058169948479
 30
0.0
 11
1294.58943495732
 21
236.7359444948479
 31
0.0
  0
LINE
  5
1293
330
1F
100
AcDbEntity
  8
0
  6
ByBlock
 62
     0
370
    -2
100
AcDbLine
 10
1294.58943495732
 20
236.7359444948479
 30
0.0
 11
1292.08943495732
 21
236.0660719948479
 31
0.0
  0
LINE
  5
1294
330
1F
100
AcDbEntity
  8
0
  6
ByBlock
 62
     0
370
    -2
100
AcDbLine
 10
1294.58943495732
 20
236.7359444948479
 30
0.0
 11
1292.08943495732
 21
236.7359444948479
 31
0.0
  0
TEXT
  5
1295
330
1F
100
AcDbEntity
  8
0
 62
     4
100
AcDbText
 10
1312.134207397715
 20
215.4434673929287
 30
0.0
 40
3.0
  1
\U+220513
 50
90.0
100
AcDbText
  0
LINE
  5
1296
330
1F
100
AcDbEntity
  8
0
  6
ByBlock
 62
     0
370
    -2
100
AcDbLine
 10
1313.429079897715
 20
214.6769918028581
 30
0.0
 11
1312.759207397715
 21
212.1769918028581
 31
0.0
  0
LINE
  5
1297
330
1F
100
AcDbEntity
  8
0
  6
ByBlock
 62
     0
370
    -2
100
AcDbLine
 10
1312.759207397715
 20
212.1769918028581
 30
0.0
 11
1312.089334897715
 21
214.6769918028581
 31
0.0
  0
LINE
  5
1298
330
1F
100
AcDbEntity
  8
0
  6
ByBlock
 62
     0
370
    -2
100
AcDbLine
 10
1312.759207397715
 20
212.1769918028581
 30
0.0
 11
1312.759207397715
 21
214.6769918028581
 31
0.0
  0
LINE
  5
1299
330
1F
100
AcDbEntity
  8
0
  6
ByBlock
 62
     0
370
    -2
100
AcDbLine
 10
1312.089334897715
 20
222.6769918028581
 30
0.0
 11
1312.759207397715
 21
225.1769918028581
 31
0.0
  0
LINE
  5
129A
330
1F
100
AcDbEntity
  8
0
  6
ByBlock
 62
     0
370
    -2
100
AcDbLine
 10
1312.759207397715
 20
225.1769918028581
 30
0.0
 11
1313.429079897715
 21
222.6769918028581
 31
0.0
  0
LINE
  5
129B
330
1F
100
AcDbEntity
  8
0
  6
ByBlock
 62
     0
370
    -2
100
AcDbLine
 10
1312.759207397715
 20
225.1769918028581
 30
0.0
 11
1312.759207397715
 21
222.6769918028581
 31
0.0
  0
TEXT
  5
129C
330
1F
100
AcDbEntity
  8
0
 62
     4
100
AcDbText
 10
1304.062309609928
 20
216.2149825695115
 30
0.0
 40
3.0
  1
\U+220511
 50
90.0
100
AcDbText
  0
LINE
  5
129D
330
1F
100
AcDbEntity
  8
0
  6
ByBlock
 62
     0
370
    -2
100
AcDbLine
 10
1305.357182109928
 20
215.6769918028581
 30
0.0
 11
1304.687309609928
 21
213.1769918028581
 31
0.0
  0
LINE
  5
129E
330
1F
100
AcDbEntity
  8
0
  6
ByBlock
 62
     0
370
    -2
100
AcDbLine
 10
1304.687309609928
 20
213.1769918028581
 30
0.0
 11
1304.017437109928
 21
215.6769918028581
 31
0.0
  0
LINE
  5
129F
330
1F
100
AcDbEntity
  8
0
  6
ByBlock
 62
     0
370
    -2
100
AcDbLine
 10
1304.687309609928
 20
213.1769918028581
 30
0.0
 11
1304.687309609928
 21
215.6769918028581
 31
0.0
  0
LINE
  5
12A0
330
1F
100
AcDbEntity
  8
0
  6
ByBlock
 62
     0
370
    -2
100
AcDbLine
 10
1304.017437109928
 20
221.6769918028581
 30
0.0
 11
1304.687309609928
 21
224.1769918028581
 31
0.0
  0
LINE
  5
12A1
330
1F
100
AcDbEntity
  8
0
  6
ByBlock
 62
     0
370
    -2
100
AcDbLine
 10
1304.687309609928
 20
224.1769918028581
 30
0.0
 11
1305.357182109928
 21
221.6769918028581
 31
0.0
  0
LINE
  5
12A2
330
1F
100
AcDbEntity
  8
0
  6
ByBlock
 62
     0
370
    -2
100
AcDbLine
 10
1304.687309609928
 20
224.1769918028581
 30
0.0
 11
1304.687309609928
 21
221.6769918028581
 31
0.0
  0
TEXT
  5
12A3
330
1F
100
AcDbEntity
  8
0
 62
     4
100
AcDbText
 10
1174.977482494268
 20
214.6769918028581
 30
0.0
 40
3.0
  1
\U+220523
 50
90.0
100
AcDbText
  0
LINE
  5
12A4
330
1F
100
AcDbEntity
  8
0
  6
ByBlock
 62
     0
370
    -2
100
AcDbLine
 10
1174.932609994268
 20
227.6769918028581
 30
0.0
 11
1175.602482494268
 21
230.1769918028581
 31
0.0
  0
LINE
  5
12A5
330
1F
100
AcDbEntity
  8
0
  6
ByBlock
 62
     0
370
    -2
100
AcDbLine
 10
1175.602482494268
 20
230.1769918028581
 30
0.0
 11
1176.272354994268
 21
227.6769918028581
 31
0.0
  0
LINE
  5
12A6
330
1F
100
AcDbEntity
  8
0
  6
ByBlock
 62
     0
370
    -2
100
AcDbLine
 10
1175.602482494268
 20
230.1769918028581
 30
0.0
 11
1175.602482494268
 21
227.6769918028581
 31
0.0
  0
LINE
  5
12A7
330
1F
100
AcDbEntity
  8
0
  6
ByBlock
 62
     0
370
    -2
100
AcDbLine
 10
1176.272354994268
 20
209.6769918028581
 30
0.0
 11
1175.602482494268
 21
207.1769918028581
 31
0.0
  0
LINE
  5
12A8
330
1F
100
AcDbEntity
  8
0
  6
ByBlock
 62
     0
370
    -2
100
AcDbLine
 10
1175.602482494268
 20
207.1769918028581
 30
0.0
 11
1174.932609994268
 21
209.6769918028581
 31
0.0
  0
LINE
  5
12A9
330
1F
100
AcDbEntity
  8
0
  6
ByBlock
 62
     0
370
    -2
100
AcDbLine
 10
1175.602482494268
 20
207.1769918028581
 30
0.0
 11
1175.602482494268
 21
209.6769918028581
 31
0.0
  0
TEXT
  5
12AA
330
1F
100
AcDbEntity
  8
0
 62
     4
100
AcDbText
 10
1240.02623850167
 20
242.6491351400262
 30
0.0
 40
3.0
  1
107.5
100
AcDbText
  0
LINE
  5
12AB
330
1F
100
AcDbEntity
  8
0
  6
ByBlock
 62
     0
370
    -2
100
AcDbLine
 10
1189.58943495732
 20
241.3542626400262
 30
0.0
 11
1187.08943495732
 21
242.0241351400262
 31
0.0
  0
LINE
  5
12AC
330
1F
100
AcDbEntity
  8
0
  6
ByBlock
 62
     0
370
    -2
100
AcDbLine
 10
1187.08943495732
 20
242.0241351400262
 30
0.0
 11
1189.58943495732
 21
242.6940076400262
 31
0.0
  0
LINE
  5
12AD
330
1F
100
AcDbEntity
  8
0
  6
ByBlock
 62
     0
370
    -2
100
AcDbLine
 10
1187.08943495732
 20
242.0241351400262
 30
0.0
 11
1189.58943495732
 21
242.0241351400262
 31
0.0
  0
LINE
  5
12AE
330
1F
100
AcDbEntity
  8
0
  6
ByBlock
 62
     0
370
    -2
100
AcDbLine
 10
1292.08943495732
 20
242.6940076400262
 30
0.0
 11
1294.58943495732
 21
242.0241351400262
 31
0.0
  0
LINE
  5
12AF
330
1F
100
AcDbEntity
  8
0
  6
ByBlock
 62
     0
370
    -2
100
AcDbLine
 10
1294.58943495732
 20
242.0241351400262
 30
0.0
 11
1292.08943495732
 21
241.3542626400262
 31
0.0
  0
LINE
  5
12B0
330
1F
100
AcDbEntity
  8
0
  6
ByBlock
 62
     0
370
    -2
100
AcDbLine
 10
1294.58943495732
 20
242.0241351400262
 30
0.0
 11
1292.08943495732
 21
242.0241351400262
 31
0.0
  0
TEXT
  5
12B1
330
1F
100
AcDbEntity
  8
0
 62
     4
100
AcDbText
 10
1202.69444423372
 20
237.7265183998791
 30
0.0
 40
3.0
  1
39.5
100
AcDbText
  0
LINE
  5
12B2
330
1F
100
AcDbEntity
  8
0
  6
ByBlock
 62
     0
370
    -2
100
AcDbLine
 10
1189.58943495732
 20
236.4316458998791
 30
0.0
 11
1187.08943495732
 21
237.1015183998791
 31
0.0
  0
LINE
  5
12B3
330
1F
100
AcDbEntity
  8
0
  6
ByBlock
 62
     0
370
    -2
100
AcDbLine
 10
1187.08943495732
 20
237.1015183998791
 30
0.0
 11
1189.58943495732
 21
237.7713908998791
 31
0.0
  0
LINE
  5
12B4
330
1F
100
AcDbEntity
  8
0
  6
ByBlock
 62
     0
370
    -2
100
AcDbLine
 10
1187.08943495732
 20
237.1015183998791
 30
0.0
 11
1189.58943495732
 21
237.1015183998791
 31
0.0
  0
LINE
  5
12B5
330
1F
100
AcDbEntity
  8
0
  6
ByBlock
 62
     0
370
    -2
100
AcDbLine
 10
1224.08943495732
 20
237.7713908998791
 30
0.0
 11
1226.58943495732
 21
237.1015183998791
 31
0.0
  0
LINE
  5
12B6
330
1F
100
AcDbEntity
  8
0
  6
ByBlock
 62
     0
370
    -2
100
AcDbLine
 10
1226.58943495732
 20
237.1015183998791
 30
0.0
 11
1224.08943495732
 21
236.4316458998791
 31
0.0
  0
LINE
  5
12B7
330
1F
100
AcDbEntity
  8
0
  6
ByBlock
 62
     0
370
    -2
100
AcDbLine
 10
1226.58943495732
 20
237.1015183998791
 30
0.0
 11
1224.08943495732
 21
237.1015183998791
 31
0.0
  0
TEXT
  5
12B8
330
1F
100
AcDbEntity
  8
0
 62
     4
100
AcDbText
 10
1242.88275987592
 20
237.7265183998791
 30
0.0
 40
3.0
  1
40.5
100
AcDbText
  0
LINE
  5
12B9
330
1F
100
AcDbEntity
  8
0
  6
ByBlock
 62
     0
370
    -2
100
AcDbLine
 10
1229.08943495732
 20
236.4316458998791
 30
0.0
 11
1226.58943495732
 21
237.1015183998791
 31
0.0
  0
LINE
  5
12BA
330
1F
100
AcDbEntity
  8
0
  6
ByBlock
 62
     0
370
    -2
100
AcDbLine
 10
1226.58943495732
 20
237.1015183998791
 30
0.0
 11
1229.08943495732
 21
237.7713908998791
 31
0.0
  0
LINE
  5
12BB
330
1F
100
AcDbEntity
  8
0
  6
ByBlock
 62
     0
370
    -2
100
AcDbLine
 10
1226.58943495732
 20
237.1015183998791
 30
0.0
 11
1229.08943495732
 21
237.1015183998791
 31
0.0
  0
LINE
  5
12BC
330
1F
100
AcDbEntity
  8
0
  6
ByBlock
 62
     0
370
    -2
100
AcDbLine
 10
1264.58943495732
 20
237.7713908998791
 30
0.0
 11
1267.08943495732
 21
237.1015183998791
 31
0.0
  0
LINE
  5
12BD
330
1F
100
AcDbEntity
  8
0
  6
ByBlock
 62
     0
370
    -2
100
AcDbLine
 10
1267.08943495732
 20
237.1015183998791
 30
0.0
 11
1264.58943495732
 21
236.4316458998791
 31
0.0
  0
LINE
  5
12BE
330
1F
100
AcDbEntity
  8
0
  6
ByBlock
 62
     0
370
    -2
100
AcDbLine
 10
1267.08943495732
 20
237.1015183998791
 30
0.0
 11
1264.58943495732
 21
237.1015183998791
 31
0.0
  0
ENDSEC
  0
SECTION
  2
OBJECTS
  0
DICTIONARY
  5
C
330
0
100
AcDbDictionary
281
     1
  3
ACAD_2007HEADERVARS_RT
350
12C2
  3
ACAD_COLOR
350
73
  3
ACAD_GROUP
350
D
  3
ACAD_LAYOUT
350
1A
  3
ACAD_MATERIAL
350
72
  3
ACAD_MLEADERSTYLE
350
168
  3
ACAD_MLINESTYLE
350
17
  3
ACAD_PLOTSETTINGS
350
19
  3
ACAD_PLOTSTYLENAME
350
E
  3
ACAD_SCALELIST
350
156
  3
ACAD_TABLESTYLE
350
86
  3
ACAD_VISUALSTYLE
350
99
  3
AcadDim
350
EBE
  3
ACDB_RECOMPOSE_DATA
350
12C0
  3
AcDbVariableDictionary
350
66
  3
AEC_PROPERTY_SET_DEFS
350
F03
  3
DWGPROPS
350
12C1
  0
DICTIONARY
  5
829
330
8
100
AcDbDictionary
280
     1
281
     1
  0
DICTIONARY
  5
DD
330
2
100
AcDbDictionary
280
     1
281
     1
  3
ACAD_LAYERSTATES
360
DE
  0
DICTIONARY
  5
81D
330
10
100
AcDbDictionary
280
     1
281
     1
  3
ADSK_XREC_LAYER_RECONCILED
360
1064
  0
DICTIONARY
  5
31A
330
1F
100
AcDbDictionary
280
     1
281
     1
  3
ACAD_SORTENTS
360
31B
  0
DICTIONARY
  5
B94
330
ACA
100
AcDbDictionary
280
     1
281
     1
  3
ACAD_SORTENTS
360
B95
  0
DICTIONARY
  5
12C2
102
{ACAD_REACTORS
330
C
102
}
330
C
100
AcDbDictionary
281
     1
  3
DIMARCSYM
350
12C4
  3
DIMFXL
350
12C3
  3
DIMJOGANG
350
12C5
  0
DICTIONARY
  5
73
102
{ACAD_REACTORS
330
C
102
}
330
C
100
AcDbDictionary
281
     1
  0
DICTIONARY
  5
D
102
{ACAD_REACTORS
330
C
102
}
330
C
100
AcDbDictionary
281
     1
  0
DICTIONARY
  5
1A
102
{ACAD_REACTORS
330
C
102
}
330
C
100
AcDbDictionary
281
     1
  3
Model
350
22
  3
レイアウト1
350
59
  3
レイアウト2
350
5E
  0
DICTIONARY
  5
72
102
{ACAD_REACTORS
330
C
102
}
330
C
100
AcDbDictionary
281
     1
  3
ByBlock
350
97
  3
ByLayer
350
96
  3
Global
350
98
  0
DICTIONARY
  5
168
102
{ACAD_REACTORS
330
C
102
}
330
C
100
AcDbDictionary
281
     1
  3
Standard
350
169
  0
DICTIONARY
  5
17
102
{ACAD_REACTORS
330
C
102
}
330
C
100
AcDbDictionary
281
     1
  3
Standard
350
18
  0
DICTIONARY
  5
19
102
{ACAD_REACTORS
330
C
102
}
330
C
100
AcDbDictionary
281
     1
  0
ACDBDICTIONARYWDFLT
  5
E
102
{ACAD_REACTORS
330
C
102
}
330
C
100
AcDbDictionary
281
     1
  3
Normal
350
F
100
AcDbDictionaryWithDefault
340
F
  0
DICTIONARY
  5
156
102
{ACAD_REACTORS
330
C
102
}
330
C
100
AcDbDictionary
281
     1
  3
A0
350
157
  3
A1
350
158
  3
A2
350
159
  3
A3
350
15A
  3
A4
350
15B
  3
A5
350
15C
  3
A6
350
15D
  3
A7
350
15E
  3
A8
350
15F
  3
A9
350
160
  3
B0
350
161
  3
B1
350
162
  3
B2
350
163
  3
B3
350
164
  3
B4
350
165
  3
B5
350
166
  3
B6
350
167
  0
DICTIONARY
  5
86
102
{ACAD_REACTORS
330
C
102
}
330
C
100
AcDbDictionary
281
     1
  3
Standard
350
87
  0
DICTIONARY
  5
99
102
{ACAD_REACTORS
330
C
102
}
330
C
100
AcDbDictionary
281
     1
  3
2dWireframe
350
9F
  3
3D Hidden
350
A1
  3
3dWireframe
350
A0
  3
Basic
350
9E
  3
Brighten
350
A5
  3
ColorChange
350
A9
  3
Conceptual
350
A2
  3
Dim
350
A4
  3
EdgeColorOff
350
155
  3
Facepattern
350
A8
  3
Flat
350
9A
  3
FlatWithEdges
350
9B
  3
Gouraud
350
9C
  3
GouraudWithEdges
350
9D
  3
Hidden
350
14D
  3
JitterOff
350
153
  3
Linepattern
350
A7
  3
OverhangOff
350
154
  3
Realistic
350
A3
  3
Shaded
350
152
  3
Shaded with edges
350
151
  3
Shades of Gray
350
14E
  3
Sketchy
350
14F
  3
Thicken
350
A6
  3
Wireframe
350
14C
  3
X-Ray
350
150
  0
XRECORD
  5
EBE
102
{ACAD_REACTORS
330
C
102
}
330
C
100
AcDbXrecord
280
     1
 90
   990106
  3

 60
     0
 61
     0
 62
     1
 63
     3
 64
     0
 65
     0
 66
     0
 67
     3
 68
     1
 69
     0
 70
     0
 71
     0
 72
     0
 40
0.0
170
     0
340
F3F
  0
XRECORD
  5
12C0
102
{ACAD_REACTORS
330
C
102
}
330
C
100
AcDbXrecord
280
     1
 90
        1
330
87
  0
DICTIONARY
  5
66
102
{ACAD_REACTORS
330
C
102
}
330
C
100
AcDbDictionary
281
     1
  3
CANNOSCALE
350
245
  3
CMLEADERSTYLE
350
243
  3
CTABLESTYLE
350
89
  3
DIMASSOC
350
67
  3
HIDETEXT
350
6B
  3
INDEXCTL
350
870
  3
LAYEREVAL
350
247
  3
LAYERNOTIFY
350
248
  3
LIGHTINGUNITS
350
246
  3
MSLTSCALE
350
244
  3
SORTENTS
350
86F
  3
XCLIPFRAME
350
119E
  0
DICTIONARY
  5
F03
102
{ACAD_REACTORS
330
C
102
}
330
C
100
AcDbDictionary
281
     1
  0
XRECORD
  5
12C1
102
{ACAD_REACTORS
330
C
102
}
330
C
100
AcDbXrecord
280
     1
  1
DWGPROPS COOKIE
  2

  3

  4

  6

  7

  8
imamura
  9

300
=
301
=
302
=
303
=
304
=
305
=
306
=
307
=
308
=
309
=
 40
0.1780102546296296
 41
2458926.47641816
 42
2459051.452406829
  1

 90
        0
  0
DICTIONARY
  5
DE
102
{ACAD_REACTORS
330
DD
102
}
330
DD
100
AcDbDictionary
281
     1
  0
XRECORD
  5
1064
102
{ACAD_REACTORS
330
81D
102
}
330
81D
100
AcDbXrecord
280
     1
290
     1
  0
SORTENTSTABLE
  5
31B
102
{ACAD_REACTORS
330
31A
102
}
330
31A
100
AcDbSortentsTable
330
1F
331
D47
  5
11E8
331
D43
  5
11E2
331
CCD
  5
FC1
331
FEF
  5
D5E
331
CC9
  5
FBE
331
EBD
  5
127E
331
FEB
  5
D5A
331
D04
  5
FEF
331
FE7
  5
D56
331
D00
  5
FEE
331
CC1
  5
FBA
331
F34
  5
12A9
331
FE3
  5
D52
331
F76
  5
C2B
331
F72
  5
C15
331
FAD
  5
D05
331
BAF
  5
F4C
331
F6E
  5
C0F
331
BAB
  5
F24
331
F6A
  5
C0B
331
FA9
  5
C90
331
126F
  5
12AF
331
126B
  5
12B6
331
C77
  5
F8A
331
1267
  5
12B7
331
12A6
  5
1244
331
BED
  5
F61
331
12A2
  5
124B
331
1263
  5
CFA
331
122C
  5
C96
331
11E9
  5
1290
331
1228
  5
C92
331
C1C
  5
F5A
331
D3F
  5
1010
331
D3B
  5
1007
331
CBD
  5
FB7
331
FDF
  5
D4D
331
D5E
  5
11FC
331
D37
  5
1003
331
CF8
  5
FD9
331
F2C
  5
12A7
331
FDB
  5
D49
331
D5A
  5
11EE
331
CB5
  5
FB1
331
FD7
  5
D45
331
CF0
  5
FD3
331
F24
  5
12A3
331
FD3
  5
D41
331
BA7
  5
F2C
331
F66
  5
C07
331
FA5
  5
C8C
331
F62
  5
C03
331
FA1
  5
C88
331
F9D
  5
C6B
331
F5E
  5
BF9
331
F5A
  5
BF3
331
F99
  5
C66
331
129E
  5
124D
331
125F
  5
CF6
331
129A
  5
1254
331
1224
  5
11FF
331
125B
  5
CF1
331
1296
  5
1256
331
11E1
  5
12B9
331
1257
  5
CED
331
C14
  5
F6E
331
1292
  5
1261
331
121C
  5
1210
331
1253
  5
CD5
331
C57
  5
F86
331
C10
  5
F6D
331
1218
  5
1228
331
C53
  5
F84
331
BD1
  5
F1F
331
F46
  5
BC1
331
FCF
  5
D3D
331
D56
  5
11F0
331
D1F
  5
FF0
331
CE8
  5
FCF
331
CA1
  5
FAE
331
F1C
  5
129E
331
FCB
  5
D39
331
100A
  5
F11
331
D52
  5
11F1
331
C9D
  5
FAB
331
1006
  5
F0D
331
FC7
  5
D27
331
CE0
  5
FCA
331
1002
  5
EC7
331
F14
  5
129A
331
FC3
  5
D23
331
F10
  5
1296
331
F56
  5
BEC
331
F95
  5
C61
331
F52
  5
BE6
331
F91
  5
C5C
331
F8D
  5
C44
331
F4E
  5
BDD
331
F4A
  5
BCF
331
F89
  5
C3E
331
128E
  5
1267
331
124F
  5
CCF
331
128A
  5
1270
331
124B
  5
CC9
331
1286
  5
1278
331
1210
  5
1238
331
1247
  5
CC4
331
C4B
  5
F80
331
BCD
  5
F57
331
1282
  5
127A
331
120C
  5
1248
331
1243
  5
CBC
331
C43
  5
F7C
331
BC5
  5
F48
331
C00
  5
F69
331
BC1
  5
F23
331
E6A
  5
1272
331
12BB
  5
120B
331
D17
  5
FFD
331
D13
  5
FF9
331
CDC
  5
FC8
331
FBF
  5
D1C
331
FFE
  5
EBF
331
D4E
  5
11F3
331
C91
  5
FA6
331
FBB
  5
D17
331
FFA
  5
E6A
331
D0B
  5
FF6
331
D4A
  5
F3A
331
C8D
  5
FA2
331
CD4
  5
FC4
331
F08
  5
1292
331
FB7
  5
D13
331
FF6
  5
DF8
331
CD0
  5
FBD
331
C89
  5
F9E
331
FF2
  5
D62
331
FB3
  5
D0B
331
F85
  5
C3A
331
F81
  5
C36
331
F7D
  5
C32
331
F79
  5
C2E
331
127E
  5
1280
331
123F
  5
CB7
331
127A
  5
1287
331
1204
  5
1250
331
123B
  5
CAD
331
C86
  5
F9B
331
1276
  5
1288
331
1200
  5
125E
331
1237
  5
CA2
331
C82
  5
F95
331
BBD
  5
F54
331
C2B
  5
F14
331
1272
  5
128F
331
1233
  5
C9D
331
C7E
  5
F91
331
BF8
  5
F45
331
C27
  5
F79
331
11F8
  5
1268
331
C7A
  5
F8D
331
C23
  5
F78
331
12B7
  5
121B
331
BB5
  5
F51
331
BF4
  5
F67
331
12B3
  5
121D
331
BF0
  5
F16
331
12AF
  5
122D
331
12AB
  5
122F
331
D46
  5
11E7
331
D42
  5
11E1
331
CCC
  5
FC0
331
FEE
  5
D5D
331
D07
  5
FF3
331
EBC
  5
127D
331
FEA
  5
D59
331
D03
  5
FEC
331
F37
  5
12AB
331
FE6
  5
D55
331
CC0
  5
FB9
331
FE2
  5
D51
331
F75
  5
C2A
331
F71
  5
C14
331
FAC
  5
D04
331
BAE
  5
F4B
331
F6D
  5
C0E
331
BAA
  5
F26
331
F69
  5
C0A
331
FA8
  5
C8F
331
126E
  5
12AE
331
126A
  5
12B5
331
11F4
  5
1275
331
C76
  5
F89
331
12A5
  5
1243
331
1266
  5
CFF
331
122F
  5
C99
331
BEC
  5
F60
331
12A1
  5
124A
331
1262
  5
CF9
331
11EC
  5
128A
331
122B
  5
C95
331
BE8
  5
F5D
331
C1B
  5
F73
331
BE0
  5
F15
331
D3E
  5
100F
331
CFF
  5
FED
331
D3A
  5
1006
331
FDE
  5
D4C
331
D5D
  5
11FB
331
D36
  5
1002
331
CF7
  5
FD8
331
CB8
  5
FB4
331
FDA
  5
D48
331
CF3
  5
FD5
331
D59
  5
F98
331
FD6
  5
D44
331
F23
  5
12A2
331
FD2
  5
D40
331
BA6
  5
F34
331
F65
  5
C06
331
FA4
  5
C8B
331
F61
  5
C02
331
FA0
  5
C87
331
F9C
  5
C6A
331
F5D
  5
BF7
331
F59
  5
BF1
331
F98
  5
C65
331
129D
  5
124C
331
125E
  5
CF5
331
1299
  5
1253
331
1223
  5
11FE
331
125A
  5
CF0
331
C17
  5
F71
331
1295
  5
1259
331
1256
  5
CEC
331
1291
  5
1266
331
1252
  5
CD4
331
C52
  5
F83
331
C0B
  5
F6C
331
BD0
  5
F21
331
CEF
  5
FD1
331
100D
  5
12BA
331
F1F
  5
129F
331
FCE
  5
D3C
331
D55
  5
11F9
331
D1E
  5
FFC
331
CE7
  5
FCD
331
1009
  5
F10
331
F1B
  5
129D
331
FCA
  5
D38
331
D51
  5
11F2
331
D1A
  5
FFA
331
C9C
  5
FAA
331
1005
  5
F08
331
FC6
  5
D26
331
1001
  5
EC4
331
F13
  5
1299
331
FC2
  5
D20
331
F55
  5
BEB
331
F94
  5
C60
331
F51
  5
BE5
331
F90
  5
C5B
331
F8C
  5
C43
331
F4D
  5
BDA
331
F88
  5
C3D
331
128D
  5
126D
331
1217
  5
1227
331
124E
  5
CCE
331
1289
  5
126F
331
124A
  5
CC8
331
1285
  5
1277
331
1246
  5
CC3
331
C4A
  5
F7F
331
1281
  5
1279
331
120B
  5
1247
331
1242
  5
CBB
331
C42
  5
F7B
331
BC0
  5
F2A
331
12BE
  5
1205
331
12BA
  5
120A
331
1012
  5
12BE
331
F39
  5
12AD
331
D12
  5
FF8
331
C94
  5
FA9
331
F0F
  5
1295
331
FBE
  5
D1B
331
FFD
  5
EBD
331
D4D
  5
11F5
331
C90
  5
FA5
331
FBA
  5
D16
331
FF9
  5
E40
331
D49
  5
11EA
331
D0A
  5
FF5
331
C8C
  5
FA1
331
FF5
  5
DCE
331
F07
  5
1291
331
FB6
  5
D12
331
C88
  5
F9D
331
FF1
  5
D60
331
FB2
  5
D0A
331
F84
  5
C39
331
F80
  5
C35
331
F7C
  5
C31
331
F78
  5
C2D
331
127D
  5
127F
331
123E
  5
CB6
331
1279
  5
1286
331
123A
  5
CAC
331
C85
  5
F9A
331
BFF
  5
F68
331
1275
  5
128D
331
11FF
  5
125B
331
1236
  5
CA1
331
C81
  5
F94
331
BBC
  5
F53
331
BFB
  5
F1C
331
1271
  5
128E
331
1232
  5
C9C
331
C7D
  5
F90
331
BB8
  5
F2D
331
BF7
  5
F1B
331
C79
  5
F8C
331
C22
  5
F77
331
12B6
  5
1217
331
BB4
  5
F50
331
BF3
  5
F66
331
12B2
  5
121C
331
BB0
  5
F4D
331
12AE
  5
1229
331
12AA
  5
1235
331
D45
  5
11E6
331
CCF
  5
FC3
331
D41
  5
1012
331
FED
  5
D5C
331
CC7
  5
FBC
331
FE9
  5
D58
331
FE5
  5
D54
331
FE1
  5
D50
331
F74
  5
C29
331
FAF
  5
D07
331
F70
  5
C12
331
FAB
  5
D01
331
BAD
  5
F4A
331
F6C
  5
C0D
331
F68
  5
C09
331
126D
  5
12B2
331
1269
  5
12B4
331
11F3
  5
1274
331
C75
  5
F88
331
BEF
  5
F63
331
12A4
  5
1242
331
1265
  5
CFC
331
11EF
  5
1284
331
122E
  5
C98
331
BEB
  5
F5F
331
12A0
  5
1249
331
1261
  5
CF8
331
122A
  5
C94
331
BE7
  5
F5C
331
C1A
  5
F72
331
D3D
  5
100D
331
CBF
  5
FB8
331
D39
  5
1005
331
CFA
  5
FE4
331
CBB
  5
FB6
331
FDD
  5
D4B
331
D5C
  5
11FA
331
D35
  5
1001
331
CF6
  5
FD7
331
CB7
  5
FB3
331
F2A
  5
12A6
331
FD9
  5
D47
331
CF2
  5
FD4
331
D58
  5
F99
331
F26
  5
12A5
331
FD5
  5
D43
331
F22
  5
12A1
331
FD1
  5
D3F
331
FA7
  5
C8E
331
F64
  5
C05
331
FA3
  5
C8A
331
F9F
  5
C86
331
F60
  5
C01
331
F9B
  5
C68
331
F5C
  5
BF6
331
F58
  5
BF0
331
129C
  5
124F
331
125D
  5
CF3
331
1298
  5
1258
331
1222
  5
11FD
331
1259
  5
CEF
331
C16
  5
F70
331
BDF
  5
F59
331
1294
  5
1263
331
121E
  5
1215
331
1255
  5
CE9
331
1290
  5
1265
331
1251
  5
CD1
331
C51
  5
F82
331
F44
  5
BBF
331
CEA
  5
FC6
331
CA3
  5
FB0
331
FCD
  5
D3B
331
100C
  5
BE7
331
D54
  5
11F8
331
CE6
  5
FCE
331
D1D
  5
FC7
331
C9F
  5
FAD
331
FC9
  5
D35
331
1008
  5
F0F
331
D50
  5
11F4
331
D19
  5
FFF
331
1004
  5
F07
331
CE2
  5
FCC
331
F16
  5
129C
331
FC5
  5
D25
331
1000
  5
EC3
331
F12
  5
1298
331
FC1
  5
D1F
331
F97
  5
C64
331
F54
  5
BE9
331
F93
  5
C5F
331
F50
  5
BE4
331
F8F
  5
C4A
331
F8B
  5
C42
331
F4C
  5
BD4
331
F48
  5
BC4
331
128C
  5
126C
331
1216
  5
1223
331
124D
  5
CCD
331
1288
  5
126E
331
1212
  5
123E
331
1249
  5
CC6
331
C4D
  5
F3F
331
1284
  5
1276
331
1245
  5
CBF
331
C49
  5
F7E
331
1280
  5
127C
331
120A
  5
1246
331
1241
  5
CBA
331
C06
  5
F5B
331
C41
  5
F7A
331
BC3
  5
F49
331
12BD
  5
1204
331
12B9
  5
1209
331
1011
  5
12BD
331
F38
  5
12AC
331
D11
  5
FF7
331
C93
  5
FA8
331
F0E
  5
1294
331
FBD
  5
D1A
331
FFC
  5
EBC
331
C8F
  5
FA4
331
FF8
  5
E28
331
FB9
  5
D15
331
D48
  5
11E9
331
C8B
  5
FA0
331
FF4
  5
D9B
331
FB5
  5
D11
331
FF0
  5
D5F
331
FB1
  5
D09
331
F87
  5
C3C
331
F83
  5
C38
331
F7F
  5
C34
331
F7B
  5
C30
331
127C
  5
1283
331
1206
  5
1252
331
123D
  5
CB5
331
1278
  5
1285
331
1239
  5
CAB
331
C84
  5
F97
331
BBF
  5
F25
331
C2D
  5
F3E
331
1274
  5
128C
331
11FE
  5
125A
331
1235
  5
C9F
331
C80
  5
F93
331
BBB
  5
F52
331
C29
  5
F75
331
1270
  5
12B0
331
11FA
  5
126A
331
1231
  5
C9B
331
C7C
  5
F8F
331
BF6
  5
F46
331
BB7
  5
F35
331
C78
  5
F8B
331
BF2
  5
F65
331
12B5
  5
1216
331
BB3
  5
F4F
331
12B1
  5
1222
331
12AD
  5
1234
331
12A9
  5
1241
331
D44
  5
11E5
331
CCE
  5
FC2
331
D40
  5
1011
331
CCA
  5
FBF
331
FEC
  5
D5B
331
D05
  5
FF1
331
FE8
  5
D57
331
D01
  5
FE5
331
F35
  5
12AA
331
FE4
  5
D53
331
FE0
  5
D4F
331
F77
  5
C2C
331
F73
  5
C17
331
FAE
  5
D06
331
F6F
  5
C11
331
F6B
  5
C0C
331
126C
  5
12B1
331
1268
  5
12B8
331
12A7
  5
123F
331
11F2
  5
1273
331
BEE
  5
F62
331
12A3
  5
1245
331
1264
  5
CFB
331
122D
  5
C97
331
BEA
  5
F5E
331
1260
  5
CF7
331
1229
  5
C93
331
D3C
  5
1008
331
D5F
  5
11EC
331
D38
  5
1004
331
CF9
  5
FE2
331
CBA
  5
FB5
331
F2D
  5
12A8
331
FDC
  5
D4A
331
D5B
  5
11ED
331
D34
  5
1000
331
CF5
  5
FD6
331
CB6
  5
FB2
331
FD8
  5
D46
331
CF1
  5
FD2
331
F25
  5
12A4
331
FD4
  5
D42
331
F21
  5
12A0
331
FD0
  5
D3E
331
F67
  5
C08
331
FA6
  5
C8D
331
BA4
  5
F37
331
F63
  5
C04
331
FA2
  5
C89
331
F9E
  5
C84
331
F5F
  5
BFB
331
F5B
  5
BF5
331
F9A
  5
C67
331
129F
  5
124E
331
129B
  5
1255
331
11E6
  5
12B3
331
125C
  5
CF2
331
1297
  5
1257
331
1258
  5
CEE
331
C15
  5
F6F
331
BDE
  5
F58
331
1293
  5
1262
331
121D
  5
1211
331
1254
  5
CD8
331
C58
  5
F87
331
C11
  5
F43
331
1250
  5
CD0
331
C54
  5
F85
331
BD6
  5
F39
331
C50
  5
F81
331
C09
  5
F6B
331
F47
  5
BC3
331
100F
  5
12BB
331
F43
  5
BBE
331
D57
  5
11EF
331
D20
  5
FF2
331
CE9
  5
FD0
331
CA2
  5
FAF
331
FCC
  5
D3A
331
100B
  5
F12
331
D53
  5
11F7
331
D1C
  5
FFE
331
C9E
  5
FAC
331
FC8
  5
D34
331
1007
  5
F0E
331
CE1
  5
FCB
331
1003
  5
EC8
331
F15
  5
129B
331
FC4
  5
D24
331
F11
  5
1297
331
FC0
  5
D1E
331
F57
  5
BEE
331
F96
  5
C62
331
F53
  5
BE8
331
F92
  5
C5D
331
F8E
  5
C49
331
F4F
  5
BDE
331
F8A
  5
C41
331
F4B
  5
BD0
331
128F
  5
1264
331
128B
  5
126B
331
124C
  5
CCC
331
1287
  5
1271
331
1211
  5
123B
331
1248
  5
CC5
331
BCE
  5
F38
331
1283
  5
127B
331
1244
  5
CBD
331
1240
  5
CB8
331
C44
  5
F7D
331
BC6
  5
F56
331
C01
  5
F6A
331
BC2
  5
F22
331
12BC
  5
1203
331
12B8
  5
120F
331
D60
  5
11EB
331
1010
  5
12BC
331
D14
  5
FFB
331
CDD
  5
FC9
331
FFF
  5
EC0
331
D4F
  5
11F6
331
C92
  5
FA7
331
F0D
  5
1293
331
FBC
  5
D18
331
FFB
  5
E6B
331
CD5
  5
FC5
331
D4B
  5
F3B
331
C8E
  5
FA3
331
FB8
  5
D14
331
FF7
  5
E10
331
D08
  5
FF4
331
CD1
  5
FBB
331
C8A
  5
F9F
331
FF3
  5
D7A
331
FB4
  5
D10
331
FB0
  5
D08
331
F86
  5
C3B
331
F82
  5
C37
331
F7E
  5
C33
331
F7A
  5
C2F
331
127F
  5
1281
331
127B
  5
1282
331
1205
  5
1251
331
123C
  5
CAE
331
C87
  5
F9C
331
1277
  5
1289
331
1238
  5
CAA
331
C83
  5
F96
331
BBE
  5
F55
331
C2C
  5
F13
331
1273
  5
128B
331
1234
  5
C9E
331
C7F
  5
F92
331
BF9
  5
F44
331
C28
  5
F76
331
11F9
  5
1269
331
1230
  5
C9A
331
C7B
  5
F8E
331
BF5
  5
F47
331
C20
  5
F74
331
BF1
  5
F64
331
12B4
  5
1221
331
BB2
  5
F4E
331
12B0
  5
122E
331
12AC
  5
1230
331
12A8
  5
1240
  0
SORTENTSTABLE
  5
B95
102
{ACAD_REACTORS
330
B94
102
}
330
B94
100
AcDbSortentsTable
330
ACA
  0
XRECORD
  5
12C4
102
{ACAD_REACTORS
330
12C2
102
}
330
12C2
100
AcDbXrecord
280
     1
 70
     2
  0
XRECORD
  5
12C3
102
{ACAD_REACTORS
330
12C2
102
}
330
12C2
100
AcDbXrecord
280
     1
 40
1.25
  0
XRECORD
  5
12C5
102
{ACAD_REACTORS
330
12C2
102
}
330
12C2
100
AcDbXrecord
280
     1
 40
1.570796326794896
  0
LAYOUT
  5
22
102
{ACAD_XDICTIONARY
360
12C6
102
}
102
{ACAD_REACTORS
330
1A
102
}
330
1A
100
AcDbPlotSettings
  1

  2
none_device
  4
ANSI_A_(8.50_x_11.00_Inches)
  6

 40
6.349999904632567
 41
19.04999923706055
 42
6.350006103515625
 43
19.04998779296875
 44
215.8999938964844
 45
279.3999938964844
 46
0.0
 47
0.0
 48
0.0
 49
0.0
140
0.0
141
0.0
142
1.0
143
2.584895464708373
 70
 11952
 72
     0
 73
     1
 74
     0
  7

 75
     0
147
0.3868628397755418
148
0.0
149
0.0
100
AcDbLayout
  1
Model
 70
     1
 71
     0
 10
0.0
 20
0.0
 11
12.0
 21
9.0
 12
0.0
 22
0.0
 32
0.0
 14
0.0
 24
0.0
 34
0.0
 15
0.0
 25
0.0
 35
0.0
146
0.0
 13
0.0
 23
0.0
 33
0.0
 16
1.0
 26
0.0
 36
0.0
 17
0.0
 27
1.0
 37
0.0
 76
     0
330
1F
331
94
  0
LAYOUT
  5
59
102
{ACAD_XDICTIONARY
360
12C8
102
}
102
{ACAD_REACTORS
330
1A
102
}
330
1A
100
AcDbPlotSettings
  1

  2
None
  4

  6

 40
0.0
 41
0.0
 42
0.0
 43
0.0
 44
0.0
 45
0.0
 46
0.0
 47
0.0
 48
0.0
 49
0.0
140
0.0
141
0.0
142
1.0
143
1.0
 70
   688
 72
     0
 73
     0
 74
     5
  7

 75
    16
147
1.0
148
0.0
149
0.0
100
AcDbLayout
  1
レイアウト1
 70
     1
 71
     1
 10
0.0
 20
0.0
 11
12.0
 21
9.0
 12
0.0
 22
0.0
 32
0.0
 14
0.0
 24
0.0
 34
0.0
 15
0.0
 25
0.0
 35
0.0
146
0.0
 13
0.0
 23
0.0
 33
0.0
 16
1.0
 26
0.0
 36
0.0
 17
0.0
 27
1.0
 37
0.0
 76
     0
330
58
  0
LAYOUT
  5
5E
102
{ACAD_XDICTIONARY
360
12CA
102
}
102
{ACAD_REACTORS
330
1A
102
}
330
1A
100
AcDbPlotSettings
  1

  2
None
  4

  6

 40
0.0
 41
0.0
 42
0.0
 43
0.0
 44
0.0
 45
0.0
 46
0.0
 47
0.0
 48
0.0
 49
0.0
140
0.0
141
0.0
142
1.0
143
1.0
 70
   688
 72
     0
 73
     0
 74
     5
  7

 75
    16
147
1.0
148
0.0
149
0.0
100
AcDbLayout
  1
レイアウト2
 70
     1
 71
     2
 10
0.0
 20
0.0
 11
12.0
 21
9.0
 12
0.0
 22
0.0
 32
0.0
 14
0.0
 24
0.0
 34
0.0
 15
0.0
 25
0.0
 35
0.0
146
0.0
 13
0.0
 23
0.0
 33
0.0
 16
1.0
 26
0.0
 36
0.0
 17
0.0
 27
1.0
 37
0.0
 76
     0
330
5D
  0
MATERIAL
  5
97
102
{ACAD_XDICTIONARY
360
10BE
102
}
102
{ACAD_REACTORS
330
72
102
}
330
72
100
AcDbMaterial
  1
ByBlock
 73
     1
 78
     1
172
     1
176
     1
270
     1
274
     1
  0
MATERIAL
  5
96
102
{ACAD_XDICTIONARY
360
10BC
102
}
102
{ACAD_REACTORS
330
72
102
}
330
72
100
AcDbMaterial
  1
ByLayer
 73
     1
 78
     1
172
     1
176
     1
270
     1
274
     1
  0
MATERIAL
  5
98
102
{ACAD_XDICTIONARY
360
10C0
102
}
102
{ACAD_REACTORS
330
72
102
}
330
72
100
AcDbMaterial
  1
Global
 73
     1
 78
     1
172
     1
176
     1
270
     1
274
     1
  0
MLEADERSTYLE
  5
169
102
{ACAD_REACTORS
330
168
102
}
330
168
100
AcDbMLeaderStyle
170
     2
171
     1
172
     0
 90
        2
 40
0.0
 41
0.0
173
     1
 91
-1056964608
340
14
 92
       -2
290
     1
 42
2.0
291
     1
 43
0.36
  3
Standard
 44
4.0
300

342
11
174
     1
178
     6
175
     1
176
     0
 93
-1056964608
 45
4.0
292
     0
297
     0
 46
4.0
 94
-1056964608
 47
1.0
 49
1.0
140
1.0
293
     1
141
0.0
294
     1
177
     0
142
1.0
295
     0
296
     0
143
0.125
1001
ACAD_MLEADERVER
1070
     2
  0
MLINESTYLE
  5
18
102
{ACAD_REACTORS
330
17
102
}
330
17
100
AcDbMlineStyle
  2
STANDARD
 70
     0
  3

 62
   256
 51
90.0
 52
90.0
 71
     2
 49
0.5
 62
   256
  6
BYLAYER
 49
-0.5
 62
   256
  6
BYLAYER
  0
ACDBPLACEHOLDER
  5
F
102
{ACAD_REACTORS
330
E
102
}
330
E
  0
SCALE
  5
157
102
{ACAD_REACTORS
330
156
102
}
330
156
100
AcDbScale
 70
     0
300
1:1
140
1.0
141
1.0
290
     1
  0
SCALE
  5
158
102
{ACAD_REACTORS
330
156
102
}
330
156
100
AcDbScale
 70
     0
300
1:2
140
1.0
141
2.0
290
     0
  0
SCALE
  5
159
102
{ACAD_REACTORS
330
156
102
}
330
156
100
AcDbScale
 70
     0
300
1:4
140
1.0
141
4.0
290
     0
  0
SCALE
  5
15A
102
{ACAD_REACTORS
330
156
102
}
330
156
100
AcDbScale
 70
     0
300
1:5
140
1.0
141
5.0
290
     0
  0
SCALE
  5
15B
102
{ACAD_REACTORS
330
156
102
}
330
156
100
AcDbScale
 70
     0
300
1:8
140
1.0
141
8.0
290
     0
  0
SCALE
  5
15C
102
{ACAD_REACTORS
330
156
102
}
330
156
100
AcDbScale
 70
     0
300
1:10
140
1.0
141
10.0
290
     0
  0
SCALE
  5
15D
102
{ACAD_REACTORS
330
156
102
}
330
156
100
AcDbScale
 70
     0
300
1:16
140
1.0
141
16.0
290
     0
  0
SCALE
  5
15E
102
{ACAD_REACTORS
330
156
102
}
330
156
100
AcDbScale
 70
     0
300
1:20
140
1.0
141
20.0
290
     0
  0
SCALE
  5
15F
102
{ACAD_REACTORS
330
156
102
}
330
156
100
AcDbScale
 70
     0
300
1:30
140
1.0
141
30.0
290
     0
  0
SCALE
  5
160
102
{ACAD_REACTORS
330
156
102
}
330
156
100
AcDbScale
 70
     0
300
1:40
140
1.0
141
40.0
290
     0
  0
SCALE
  5
161
102
{ACAD_REACTORS
330
156
102
}
330
156
100
AcDbScale
 70
     0
300
1:50
140
1.0
141
50.0
290
     0
  0
SCALE
  5
162
102
{ACAD_REACTORS
330
156
102
}
330
156
100
AcDbScale
 70
     0
300
1:100
140
1.0
141
100.0
290
     0
  0
SCALE
  5
163
102
{ACAD_REACTORS
330
156
102
}
330
156
100
AcDbScale
 70
     0
300
2:1
140
2.0
141
1.0
290
     0
  0
SCALE
  5
164
102
{ACAD_REACTORS
330
156
102
}
330
156
100
AcDbScale
 70
     0
300
4:1
140
4.0
141
1.0
290
     0
  0
SCALE
  5
165
102
{ACAD_REACTORS
330
156
102
}
330
156
100
AcDbScale
 70
     0
300
8:1
140
8.0
141
1.0
290
     0
  0
SCALE
  5
166
102
{ACAD_REACTORS
330
156
102
}
330
156
100
AcDbScale
 70
     0
300
10:1
140
10.0
141
1.0
290
     0
  0
SCALE
  5
167
102
{ACAD_REACTORS
330
156
102
}
330
156
100
AcDbScale
 70
     0
300
100:1
140
100.0
141
1.0
290
     0
  0
TABLESTYLE
  5
87
102
{ACAD_XDICTIONARY
360
821
102
}
102
{ACAD_REACTORS
330
86
102
}
330
86
100
AcDbTableStyle
  3
Standard
 70
     0
 71
     0
 40
0.06
 41
0.06
280
     0
281
     0
  7
Standard
140
0.18
170
     2
 62
     0
 63
     7
283
     0
274
    -2
284
     1
 64
     0
275
    -2
285
     1
 65
     0
276
    -2
286
     1
 66
     0
277
    -2
287
     1
 67
     0
278
    -2
288
     1
 68
     0
279
    -2
289
     1
 69
     0
  7
Standard
140
0.25
170
     5
 62
     0
 63
     7
283
     0
274
    -2
284
     1
 64
     0
275
    -2
285
     1
 65
     0
276
    -2
286
     1
 66
     0
277
    -2
287
     1
 67
     0
278
    -2
288
     1
 68
     0
279
    -2
289
     1
 69
     0
  7
Standard
140
0.18
170
     5
 62
     0
 63
     7
283
     0
274
    -2
284
     1
 64
     0
275
    -2
285
     1
 65
     0
276
    -2
286
     1
 66
     0
277
    -2
287
     1
 67
     0
278
    -2
288
     1
 68
     0
279
    -2
289
     1
 69
     0
  0
VISUALSTYLE
  5
9F
102
{ACAD_XDICTIONARY
360
12D7
102
}
102
{ACAD_REACTORS
330
99
102
}
330
99
100
AcDbVisualStyle
  2

 70
     4
 71
     0
 72
     2
 73
     1
 90
        0
 40
-0.6
 41
-30.0
 62
     5
 63
     7
 74
     1
 91
        4
 64
     7
 65
   257
 75
     1
175
     1
 42
1.0
 92
        0
 66
   257
 43
1.0
 76
     1
 77
     6
 78
     2
 67
     7
 79
     5
170
     0
171
     0
290
     0
174
     0
 93
        1
 44
0.0
173
     0
291
     0
 45
0.0
1001
ACAD
1000
AcDbSavedByObjectVersion
1070
     0
  0
VISUALSTYLE
  5
A1
102
{ACAD_XDICTIONARY
360
12DB
102
}
102
{ACAD_REACTORS
330
99
102
}
330
99
100
AcDbVisualStyle
  2

 70
     6
 71
     1
 72
     2
 73
     2
 90
        0
 40
-0.6
 41
-30.0
 62
     5
 63
     7
 74
     2
 91
        2
 64
     7
 65
   257
 75
     2
175
     1
 42
40.0
 92
        0
 66
   257
 43
1.0
 76
     1
 77
     6
 78
     2
 67
     7
 79
     3
170
     0
171
     0
290
     0
174
     0
 93
        1
 44
0.0
173
     0
291
     0
 45
0.0
1001
ACAD
1000
AcDbSavedByObjectVersion
1070
     0
  0
VISUALSTYLE
  5
A0
102
{ACAD_XDICTIONARY
360
12D9
102
}
102
{ACAD_REACTORS
330
99
102
}
330
99
100
AcDbVisualStyle
  2

 70
     5
 71
     0
 72
     2
 73
     1
 90
        0
 40
-0.6
 41
-30.0
 62
     5
 63
     7
 74
     1
 91
        4
 64
     7
 65
   257
 75
     1
175
     1
 42
1.0
 92
        0
 66
   257
 43
1.0
 76
     1
 77
     6
 78
     2
 67
     7
 79
     5
170
     0
171
     0
290
     0
174
     0
 93
        1
 44
0.0
173
     0
291
     0
 45
0.0
1001
ACAD
1000
AcDbSavedByObjectVersion
1070
     0
  0
VISUALSTYLE
  5
9E
102
{ACAD_XDICTIONARY
360
12D5
102
}
102
{ACAD_REACTORS
330
99
102
}
330
99
100
AcDbVisualStyle
  2

 70
     7
 71
     1
 72
     0
 73
     1
 90
        0
 40
-0.6
 41
-30.0
 62
     5
 63
     7
 74
     0
 91
        4
 64
     7
 65
   257
 75
     1
175
     1
 42
1.0
 92
        8
 66
     7
 43
1.0
 76
     1
 77
     6
 78
     2
 67
     7
 79
     5
170
     0
171
     0
290
     0
174
     0
 93
        1
 44
0.0
173
     0
291
     1
 45
0.0
1001
ACAD
1000
AcDbSavedByObjectVersion
1070
     0
  0
VISUALSTYLE
  5
A5
102
{ACAD_XDICTIONARY
360
12E3
102
}
102
{ACAD_REACTORS
330
99
102
}
330
99
100
AcDbVisualStyle
  2

 70
    12
 71
     2
 72
     2
 73
     1
 90
        0
 40
-0.6
 41
-30.0
 62
     5
 63
     7
 74
     1
 91
        4
 64
     7
 65
   257
 75
     1
175
     1
 42
1.0
 92
        8
 66
     7
 43
1.0
 76
     1
 77
     6
 78
     2
 67
     7
 79
     5
170
     0
171
     0
290
     0
174
     0
 93
        1
 44
50.0
173
     0
291
     1
 45
0.0
1001
ACAD
1000
AcDbSavedByObjectVersion
1070
     0
  0
VISUALSTYLE
  5
A9
102
{ACAD_XDICTIONARY
360
12EB
102
}
102
{ACAD_REACTORS
330
99
102
}
330
99
100
AcDbVisualStyle
  2

 70
    16
 71
     2
 72
     2
 73
     3
 90
        0
 40
-0.6
 41
-30.0
 62
     5
 63
     8
 74
     1
 91
        4
 64
     7
 65
   257
 75
     1
175
     1
 42
1.0
 92
        8
 66
     8
 43
1.0
 76
     1
 77
     6
 78
     2
 67
     7
 79
     5
170
     0
171
     0
290
     0
174
     0
 93
        1
 44
0.0
173
     0
291
     1
 45
0.0
1001
ACAD
1000
AcDbSavedByObjectVersion
1070
     0
  0
VISUALSTYLE
  5
A2
102
{ACAD_XDICTIONARY
360
12DD
102
}
102
{ACAD_REACTORS
330
99
102
}
330
99
100
AcDbVisualStyle
  2

 70
     9
 71
     3
 72
     2
 73
     1
 90
        0
 40
-0.6
 41
-30.0
 62
     5
 63
     7
 74
     2
 91
        2
 64
     7
 65
   257
 75
     1
175
     1
 42
40.0
 92
        8
 66
     7
 43
1.0
 76
     1
 77
     6
 78
     2
 67
     7
 79
     3
170
     0
171
     0
290
     0
174
     0
 93
        1
 44
0.0
173
     0
291
     0
 45
0.0
1001
ACAD
1000
AcDbSavedByObjectVersion
1070
     0
  0
VISUALSTYLE
  5
A4
102
{ACAD_XDICTIONARY
360
12E1
102
}
102
{ACAD_REACTORS
330
99
102
}
330
99
100
AcDbVisualStyle
  2

 70
    11
 71
     2
 72
     2
 73
     1
 90
        0
 40
-0.6
 41
-30.0
 62
     5
 63
     7
 74
     1
 91
        4
 64
     7
 65
   257
 75
     1
175
     1
 42
1.0
 92
        8
 66
     7
 43
1.0
 76
     1
 77
     6
 78
     2
 67
     7
 79
     5
170
     0
171
     0
290
     0
174
     0
 93
        1
 44
-50.0
173
     0
291
     1
 45
0.0
1001
ACAD
1000
AcDbSavedByObjectVersion
1070
     0
  0
VISUALSTYLE
  5
155
102
{ACAD_XDICTIONARY
360
12FF
102
}
102
{ACAD_REACTORS
330
99
102
}
330
99
100
AcDbVisualStyle
  2

 70
    22
 71
     2
 72
     2
 73
     0
 90
        0
 40
-0.6
 41
-30.0
 62
     5
 63
     7
 74
     1
 91
        4
 64
     7
 65
   257
 75
     1
175
     1
 42
1.0
 92
        8
 66
     7
 43
1.0
 76
     1
 77
     6
 78
     2
 67
     7
 79
     5
170
     0
171
     0
290
     0
174
     0
 93
        1
 44
0.0
173
     0
291
     1
 45
0.0
1001
ACAD
1000
AcDbSavedByObjectVersion
1070
     0
  0
VISUALSTYLE
  5
A8
102
{ACAD_XDICTIONARY
360
12E9
102
}
102
{ACAD_REACTORS
330
99
102
}
330
99
100
AcDbVisualStyle
  2

 70
    15
 71
     2
 72
     2
 73
     1
 90
        0
 40
-0.6
 41
-30.0
 62
     5
 63
     7
 74
     1
 91
        4
 64
     7
 65
   257
 75
     1
175
     1
 42
1.0
 92
        8
 66
     7
 43
1.0
 76
     1
 77
     6
 78
     2
 67
     7
 79
     5
170
     0
171
     0
290
     0
174
     0
 93
        1
 44
0.0
173
     0
291
     1
 45
0.0
1001
ACAD
1000
AcDbSavedByObjectVersion
1070
     0
  0
VISUALSTYLE
  5
9A
102
{ACAD_XDICTIONARY
360
12CD
102
}
102
{ACAD_REACTORS
330
99
102
}
330
99
100
AcDbVisualStyle
  2

 70
     0
 71
     2
 72
     1
 73
     1
 90
        2
 40
-0.6
 41
30.0
 62
     5
 63
     7
 74
     0
 91
        4
 64
     7
 65
   257
 75
     1
175
     1
 42
1.0
 92
        8
 66
     7
 43
1.0
 76
     1
 77
     6
 78
     2
 67
     7
 79
     5
170
     0
171
     0
290
     0
174
     0
 93
        1
 44
0.0
173
     0
291
     1
 45
0.0
1001
ACAD
1000
AcDbSavedByObjectVersion
1070
     0
  0
VISUALSTYLE
  5
9B
102
{ACAD_XDICTIONARY
360
12CF
102
}
102
{ACAD_REACTORS
330
99
102
}
330
99
100
AcDbVisualStyle
  2

 70
     1
 71
     2
 72
     1
 73
     1
 90
        2
 40
-0.6
 41
30.0
 62
     5
 63
     7
 74
     1
 91
        4
 64
     7
 65
   257
 75
     1
175
     1
 42
1.0
 92
        0
 66
   257
 43
1.0
 76
     1
 77
     6
 78
     2
 67
     7
 79
     5
170
     0
171
     0
290
     0
174
     0
 93
        1
 44
0.0
173
     0
291
     1
 45
0.0
1001
ACAD
1000
AcDbSavedByObjectVersion
1070
     0
  0
VISUALSTYLE
  5
9C
102
{ACAD_XDICTIONARY
360
12D1
102
}
102
{ACAD_REACTORS
330
99
102
}
330
99
100
AcDbVisualStyle
  2

 70
     2
 71
     2
 72
     2
 73
     1
 90
        2
 40
-0.6
 41
30.0
 62
     5
 63
     7
 74
     0
 91
        4
 64
     7
 65
   257
 75
     1
175
     1
 42
1.0
 92
        0
 66
     7
 43
1.0
 76
     1
 77
     6
 78
     2
 67
     7
 79
     5
170
     0
171
     0
290
     0
174
     0
 93
        1
 44
0.0
173
     0
291
     1
 45
0.0
1001
ACAD
1000
AcDbSavedByObjectVersion
1070
     0
  0
VISUALSTYLE
  5
9D
102
{ACAD_XDICTIONARY
360
12D3
102
}
102
{ACAD_REACTORS
330
99
102
}
330
99
100
AcDbVisualStyle
  2

 70
     3
 71
     2
 72
     2
 73
     1
 90
        2
 40
-0.6
 41
30.0
 62
     5
 63
     7
 74
     1
 91
        4
 64
     7
 65
   257
 75
     1
175
     1
 42
1.0
 92
        0
 66
   257
 43
1.0
 76
     1
 77
     6
 78
     2
 67
     7
 79
     5
170
     0
171
     0
290
     0
174
     0
 93
        1
 44
0.0
173
     0
291
     1
 45
0.0
1001
ACAD
1000
AcDbSavedByObjectVersion
1070
     0
  0
VISUALSTYLE
  5
14D
102
{ACAD_XDICTIONARY
360
12EF
102
}
102
{ACAD_REACTORS
330
99
102
}
330
99
100
AcDbVisualStyle
  2

 70
     6
 71
     1
 72
     2
 73
     2
 90
        0
 40
-0.6
 41
-30.0
 62
     5
 63
     7
 74
     2
 91
        2
 64
     7
 65
   257
 75
     2
175
     1
 42
40.0
 92
        0
 66
   257
 43
1.0
 76
     1
 77
     6
 78
     2
 67
     7
 79
     3
170
     0
171
     0
290
     0
174
     0
 93
        1
 44
0.0
173
     0
291
     0
 45
0.0
1001
ACAD
1000
AcDbSavedByObjectVersion
1070
     0
  0
VISUALSTYLE
  5
153
102
{ACAD_XDICTIONARY
360
12FB
102
}
102
{ACAD_REACTORS
330
99
102
}
330
99
100
AcDbVisualStyle
  2

 70
    20
 71
     2
 72
     2
 73
     0
 90
        0
 40
-0.6
 41
-30.0
 62
     5
 63
     7
 74
     1
 91
        4
 64
     7
 65
   257
 75
     1
175
     1
 42
1.0
 92
       10
 66
     7
 43
1.0
 76
     1
 77
     6
 78
     2
 67
     7
 79
     5
170
     0
171
     0
290
     0
174
     0
 93
        1
 44
0.0
173
     0
291
     1
 45
0.0
1001
ACAD
1000
AcDbSavedByObjectVersion
1070
     0
  0
VISUALSTYLE
  5
A7
102
{ACAD_XDICTIONARY
360
12E7
102
}
102
{ACAD_REACTORS
330
99
102
}
330
99
100
AcDbVisualStyle
  2

 70
    14
 71
     2
 72
     2
 73
     1
 90
        0
 40
-0.6
 41
-30.0
 62
     5
 63
     7
 74
     1
 91
        4
 64
     7
 65
   257
 75
     7
175
     7
 42
1.0
 92
        8
 66
     7
 43
1.0
 76
     1
 77
     6
 78
     2
 67
     7
 79
     5
170
     0
171
     0
290
     0
174
     0
 93
        1
 44
0.0
173
     0
291
     1
 45
0.0
1001
ACAD
1000
AcDbSavedByObjectVersion
1070
     0
  0
VISUALSTYLE
  5
154
102
{ACAD_XDICTIONARY
360
12FD
102
}
102
{ACAD_REACTORS
330
99
102
}
330
99
100
AcDbVisualStyle
  2

 70
    21
 71
     2
 72
     2
 73
     0
 90
        0
 40
-0.6
 41
-30.0
 62
     5
 63
     7
 74
     1
 91
        4
 64
     7
 65
   257
 75
     1
175
     1
 42
1.0
 92
        9
 66
     7
 43
1.0
 76
     1
 77
     6
 78
     2
 67
     7
 79
     5
170
     0
171
     0
290
     0
174
     0
 93
        1
 44
0.0
173
     0
291
     1
 45
0.0
1001
ACAD
1000
AcDbSavedByObjectVersion
1070
     0
  0
VISUALSTYLE
  5
A3
102
{ACAD_XDICTIONARY
360
12DF
102
}
102
{ACAD_REACTORS
330
99
102
}
330
99
100
AcDbVisualStyle
  2

 70
     8
 71
     2
 72
     2
 73
     1
 90
        0
 40
-0.6
 41
-30.0
 62
     5
 63
     7
 74
     1
 91
        0
 64
     7
 65
   257
 75
     1
175
     1
 42
1.0
 92
        8
 66
     8
 43
1.0
 76
     1
 77
     6
 78
     2
 67
     7
 79
     5
170
     0
171
     0
290
     0
174
     0
 93
       13
 44
0.0
173
     0
291
     0
 45
0.0
1001
ACAD
1000
AcDbSavedByObjectVersion
1070
     0
  0
VISUALSTYLE
  5
152
102
{ACAD_XDICTIONARY
360
12F9
102
}
102
{ACAD_REACTORS
330
99
102
}
330
99
100
AcDbVisualStyle
  2

 70
    27
 71
     2
 72
     2
 73
     1
 90
        2
 40
-0.6
 41
30.0
 62
     5
 63
     7
 74
     0
 91
        4
 64
     7
 65
   257
 75
     1
175
     1
 42
1.0
 92
        8
 66
   257
 43
1.0
 76
     1
 77
     6
 78
     2
 67
     8
 79
     3
170
     0
171
     0
290
     0
174
     0
 93
        5
 44
0.0
173
     0
291
     0
 45
0.0
1001
ACAD
1000
AcDbSavedByObjectVersion
1070
     0
  0
VISUALSTYLE
  5
151
102
{ACAD_XDICTIONARY
360
12F7
102
}
102
{ACAD_REACTORS
330
99
102
}
330
99
100
AcDbVisualStyle
  2

 70
    26
 71
     2
 72
     2
 73
     1
 90
        2
 40
-0.6
 41
30.0
 62
     5
 63
     7
 74
     1
 91
       10
 64
     7
 65
   257
 75
     2
175
     1
 42
1.0
 92
        8
 66
   257
 43
1.0
 76
     1
 77
     6
 78
     2
 67
     7
 79
     3
170
     0
171
     0
290
     0
174
     0
 93
        5
 44
0.0
173
     0
291
     0
 45
0.0
1001
ACAD
1000
AcDbSavedByObjectVersion
1070
     0
  0
VISUALSTYLE
  5
14E
102
{ACAD_XDICTIONARY
360
12F1
102
}
102
{ACAD_REACTORS
330
99
102
}
330
99
100
AcDbVisualStyle
  2

 70
    23
 71
     2
 72
     2
 73
     3
 90
        0
 40
-0.6
 41
-30.0
 62
     5
 63
     7
 74
     2
 91
        2
 64
     7
 65
     7
 75
     1
175
     1
 42
40.0
 92
        8
 66
     7
 43
1.0
 76
     1
 77
     6
 78
     2
 67
     7
 79
     3
170
     0
171
     0
290
     0
174
     0
 93
        1
 44
0.0
173
     0
291
     0
 45
0.0
1001
ACAD
1000
AcDbSavedByObjectVersion
1070
     0
  0
VISUALSTYLE
  5
14F
102
{ACAD_XDICTIONARY
360
12F3
102
}
102
{ACAD_REACTORS
330
99
102
}
330
99
100
AcDbVisualStyle
  2

 70
    24
 71
     1
 72
     2
 73
     2
 90
        0
 40
-0.6
 41
-30.0
 62
     5
 63
     7
 74
     2
 91
        2
 64
     7
 65
     7
 75
     1
175
     1
 42
40.0
 92
       11
 66
     7
 43
1.0
 76
     1
 77
     6
 78
     2
 67
     7
 79
     6
170
     0
171
     0
290
     0
174
     0
 93
        1
 44
0.0
173
     0
291
     0
 45
0.0
1001
ACAD
1000
AcDbSavedByObjectVersion
1070
     0
  0
VISUALSTYLE
  5
A6
102
{ACAD_XDICTIONARY
360
12E5
102
}
102
{ACAD_REACTORS
330
99
102
}
330
99
100
AcDbVisualStyle
  2

 70
    13
 71
     2
 72
     2
 73
     1
 90
        0
 40
-0.6
 41
-30.0
 62
     5
 63
     7
 74
     1
 91
        4
 64
     7
 65
   257
 75
     1
175
     1
 42
1.0
 92
       12
 66
     7
 43
1.0
 76
     1
 77
     6
 78
     2
 67
     7
 79
     5
170
     0
171
     0
290
     0
174
     0
 93
        1
 44
0.0
173
     0
291
     1
 45
0.0
1001
ACAD
1000
AcDbSavedByObjectVersion
1070
     0
  0
VISUALSTYLE
  5
14C
102
{ACAD_XDICTIONARY
360
12ED
102
}
102
{ACAD_REACTORS
330
99
102
}
330
99
100
AcDbVisualStyle
  2

 70
     5
 71
     0
 72
     2
 73
     0
 90
        0
 40
-0.6
 41
-30.0
 62
     5
 63
     7
 74
     1
 91
        4
 64
     7
 65
   257
 75
     1
175
     1
 42
1.0
 92
        0
 66
   257
 43
1.0
 76
     1
 77
     6
 78
     2
 67
     7
 79
     3
170
     0
171
     0
290
     0
174
     0
 93
        1
 44
0.0
173
     0
291
     0
 45
0.0
1001
ACAD
1000
AcDbSavedByObjectVersion
1070
     0
  0
VISUALSTYLE
  5
150
102
{ACAD_XDICTIONARY
360
12F5
102
}
102
{ACAD_REACTORS
330
99
102
}
330
99
100
AcDbVisualStyle
  2

 70
    25
 71
     2
 72
     2
 73
     1
 90
        1
 40
0.5
 41
-30.0
 62
     5
 63
     7
 74
     1
 91
        0
 64
     7
 65
   257
 75
     1
175
     1
 42
1.0
 92
        8
 66
     7
 43
1.0
 76
     1
 77
     6
 78
     2
 67
     7
 79
     3
170
     0
171
     0
290
     0
174
     0
 93
       13
 44
0.0
173
     0
291
     0
 45
0.0
1001
ACAD
1000
AcDbSavedByObjectVersion
1070
     0
  0
DICTIONARYVAR
  5
245
102
{ACAD_REACTORS
330
66
102
}
330
66
100
DictionaryVariables
280
     0
  1
1:1
  0
DICTIONARYVAR
  5
243
102
{ACAD_REACTORS
330
66
102
}
330
66
100
DictionaryVariables
280
     0
  1
STANDARD
  0
DICTIONARYVAR
  5
89
102
{ACAD_REACTORS
330
66
102
}
330
66
100
DictionaryVariables
280
     0
  1
STANDARD
  0
DICTIONARYVAR
  5
67
102
{ACAD_REACTORS
330
66
102
}
330
66
100
DictionaryVariables
280
     0
  1
2
  0
DICTIONARYVAR
  5
6B
102
{ACAD_REACTORS
330
66
102
}
330
66
100
DictionaryVariables
280
     0
  1
1
  0
DICTIONARYVAR
  5
870
102
{ACAD_REACTORS
330
66
102
}
330
66
100
DictionaryVariables
280
     0
  1
0
  0
DICTIONARYVAR
  5
247
102
{ACAD_REACTORS
330
66
102
}
330
66
100
DictionaryVariables
280
     0
  1
1
  0
DICTIONARYVAR
  5
248
102
{ACAD_REACTORS
330
66
102
}
330
66
100
DictionaryVariables
280
     0
  1
15
  0
DICTIONARYVAR
  5
246
102
{ACAD_REACTORS
330
66
102
}
330
66
100
DictionaryVariables
280
     0
  1
0
  0
DICTIONARYVAR
  5
244
102
{ACAD_REACTORS
330
66
102
}
330
66
100
DictionaryVariables
280
     0
  1
0
  0
DICTIONARYVAR
  5
86F
102
{ACAD_REACTORS
330
66
102
}
330
66
100
DictionaryVariables
280
     0
  1
127
  0
DICTIONARYVAR
  5
119E
102
{ACAD_REACTORS
330
66
102
}
330
66
100
DictionaryVariables
280
     0
  1
2
  0
DICTIONARY
  5
12C6
330
22
100
AcDbDictionary
280
     1
281
     1
  3
ACAD_XREC_ROUNDTRIP
360
12C7
  0
DICTIONARY
  5
12C8
330
59
100
AcDbDictionary
280
     1
281
     1
  3
ACAD_XREC_ROUNDTRIP
360
12C9
  0
DICTIONARY
  5
12CA
330
5E
100
AcDbDictionary
280
     1
281
     1
  3
ACAD_XREC_ROUNDTRIP
360
12CB
  0
DICTIONARY
  5
10BE
330
97
100
AcDbDictionary
280
     1
281
     1
  3
ACAD_XREC_ROUNDTRIP
360
10BF
  0
DICTIONARY
  5
10BC
330
96
100
AcDbDictionary
280
     1
281
     1
  3
ACAD_XREC_ROUNDTRIP
360
10BD
  0
DICTIONARY
  5
10C0
330
98
100
AcDbDictionary
280
     1
281
     1
  3
ACAD_XREC_ROUNDTRIP
360
10C1
  0
DICTIONARY
  5
821
330
87
100
AcDbDictionary
280
     1
281
     1
  3
ACAD_ROUNDTRIP_2008_TABLESTYLE_CELLSTYLEMAP
360
12BF
  3
ACAD_XREC_ROUNDTRIP
360
12CC
  0
DICTIONARY
  5
12D7
330
9F
100
AcDbDictionary
280
     1
281
     1
  3
ACAD_XREC_ROUNDTRIP
360
12D8
  0
DICTIONARY
  5
12DB
330
A1
100
AcDbDictionary
280
     1
281
     1
  3
ACAD_XREC_ROUNDTRIP
360
12DC
  0
DICTIONARY
  5
12D9
330
A0
100
AcDbDictionary
280
     1
281
     1
  3
ACAD_XREC_ROUNDTRIP
360
12DA
  0
DICTIONARY
  5
12D5
330
9E
100
AcDbDictionary
280
     1
281
     1
  3
ACAD_XREC_ROUNDTRIP
360
12D6
  0
DICTIONARY
  5
12E3
330
A5
100
AcDbDictionary
280
     1
281
     1
  3
ACAD_XREC_ROUNDTRIP
360
12E4
  0
DICTIONARY
  5
12EB
330
A9
100
AcDbDictionary
280
     1
281
     1
  3
ACAD_XREC_ROUNDTRIP
360
12EC
  0
DICTIONARY
  5
12DD
330
A2
100
AcDbDictionary
280
     1
281
     1
  3
ACAD_XREC_ROUNDTRIP
360
12DE
  0
DICTIONARY
  5
12E1
330
A4
100
AcDbDictionary
280
     1
281
     1
  3
ACAD_XREC_ROUNDTRIP
360
12E2
  0
DICTIONARY
  5
12FF
330
155
100
AcDbDictionary
280
     1
281
     1
  3
ACAD_XREC_ROUNDTRIP
360
1300
  0
DICTIONARY
  5
12E9
330
A8
100
AcDbDictionary
280
     1
281
     1
  3
ACAD_XREC_ROUNDTRIP
360
12EA
  0
DICTIONARY
  5
12CD
330
9A
100
AcDbDictionary
280
     1
281
     1
  3
ACAD_XREC_ROUNDTRIP
360
12CE
  0
DICTIONARY
  5
12CF
330
9B
100
AcDbDictionary
280
     1
281
     1
  3
ACAD_XREC_ROUNDTRIP
360
12D0
  0
DICTIONARY
  5
12D1
330
9C
100
AcDbDictionary
280
     1
281
     1
  3
ACAD_XREC_ROUNDTRIP
360
12D2
  0
DICTIONARY
  5
12D3
330
9D
100
AcDbDictionary
280
     1
281
     1
  3
ACAD_XREC_ROUNDTRIP
360
12D4
  0
DICTIONARY
  5
12EF
330
14D
100
AcDbDictionary
280
     1
281
     1
  3
ACAD_XREC_ROUNDTRIP
360
12F0
  0
DICTIONARY
  5
12FB
330
153
100
AcDbDictionary
280
     1
281
     1
  3
ACAD_XREC_ROUNDTRIP
360
12FC
  0
DICTIONARY
  5
12E7
330
A7
100
AcDbDictionary
280
     1
281
     1
  3
ACAD_XREC_ROUNDTRIP
360
12E8
  0
DICTIONARY
  5
12FD
330
154
100
AcDbDictionary
280
     1
281
     1
  3
ACAD_XREC_ROUNDTRIP
360
12FE
  0
DICTIONARY
  5
12DF
330
A3
100
AcDbDictionary
280
     1
281
     1
  3
ACAD_XREC_ROUNDTRIP
360
12E0
  0
DICTIONARY
  5
12F9
330
152
100
AcDbDictionary
280
     1
281
     1
  3
ACAD_XREC_ROUNDTRIP
360
12FA
  0
DICTIONARY
  5
12F7
330
151
100
AcDbDictionary
280
     1
281
     1
  3
ACAD_XREC_ROUNDTRIP
360
12F8
  0
DICTIONARY
  5
12F1
330
14E
100
AcDbDictionary
280
     1
281
     1
  3
ACAD_XREC_ROUNDTRIP
360
12F2
  0
DICTIONARY
  5
12F3
330
14F
100
AcDbDictionary
280
     1
281
     1
  3
ACAD_XREC_ROUNDTRIP
360
12F4
  0
DICTIONARY
  5
12E5
330
A6
100
AcDbDictionary
280
     1
281
     1
  3
ACAD_XREC_ROUNDTRIP
360
12E6
  0
DICTIONARY
  5
12ED
330
14C
100
AcDbDictionary
280
     1
281
     1
  3
ACAD_XREC_ROUNDTRIP
360
12EE
  0
DICTIONARY
  5
12F5
330
150
100
AcDbDictionary
280
     1
281
     1
  3
ACAD_XREC_ROUNDTRIP
360
12F6
  0
XRECORD
  5
12C7
102
{ACAD_REACTORS
330
12C6
102
}
330
12C6
100
AcDbXrecord
280
     1
102
SHADEPLOT
 70
     0
102
SHADEPLOTRESLEVEL
 70
     2
102
SHADEPLOTCUSTOMDPI
 70
   300
  0
XRECORD
  5
12C9
102
{ACAD_REACTORS
330
12C8
102
}
330
12C8
100
AcDbXrecord
280
     1
102
SHADEPLOT
 70
     0
102
SHADEPLOTRESLEVEL
 70
     2
102
SHADEPLOTCUSTOMDPI
 70
   300
  0
XRECORD
  5
12CB
102
{ACAD_REACTORS
330
12CA
102
}
330
12CA
100
AcDbXrecord
280
     1
102
SHADEPLOT
 70
     0
102
SHADEPLOTRESLEVEL
 70
     2
102
SHADEPLOTCUSTOMDPI
 70
   300
  0
XRECORD
  5
10BF
102
{ACAD_REACTORS
330
10BE
102
}
330
10BE
100
AcDbXrecord
280
     1
102
MATERIAL
148
0.0
149
0.0
149
0.0
 93
        0
 94
      127
282
     0
 72
     1
 77
     1
171
     1
175
     1
179
     1
273
     0
  0
XRECORD
  5
10BD
102
{ACAD_REACTORS
330
10BC
102
}
330
10BC
100
AcDbXrecord
280
     1
102
MATERIAL
148
0.0
149
0.0
149
0.0
 93
        0
 94
      127
282
     0
 72
     1
 77
     1
171
     1
175
     1
179
     1
273
     0
  0
XRECORD
  5
10C1
102
{ACAD_REACTORS
330
10C0
102
}
330
10C0
100
AcDbXrecord
280
     1
102
MATERIAL
148
0.0
149
0.0
149
0.0
 93
        0
 94
      127
282
     0
 72
     1
 77
     1
171
     1
175
     1
179
     1
273
     0
  0
CELLSTYLEMAP
  5
12BF
102
{ACAD_REACTORS
330
821
102
}
330
821
100
AcDbCellStyleMap
 90
        3
300
CELLSTYLE
  1
TABLEFORMAT_BEGIN
 90
        5
170
     1
 91
        0
 92
    32768
 62
   257
 93
        1
300
CONTENTFORMAT
  1
CONTENTFORMAT_BEGIN
 90
        0
 91
        0
 92
      512
 93
        0
300

 40
0.0
140
1.0
 94
        5
 62
     0
340
11
144
0.25
309
CONTENTFORMAT_END
171
     1
301
MARGIN
  1
CELLMARGIN_BEGIN
 40
0.06
 40
0.06
 40
0.06
 40
0.06
 40
0.18
 40
0.18
309
CELLMARGIN_END
 94
        6
 95
        1
302
GRIDFORMAT
  1
GRIDFORMAT_BEGIN
 90
        0
 91
        1
 62
     0
 92
       -2
340
0
 93
        0
 40
0.045
309
GRIDFORMAT_END
 95
        2
302
GRIDFORMAT
  1
GRIDFORMAT_BEGIN
 90
        0
 91
        1
 62
     0
 92
       -2
340
0
 93
        0
 40
0.045
309
GRIDFORMAT_END
 95
        4
302
GRIDFORMAT
  1
GRIDFORMAT_BEGIN
 90
        0
 91
        1
 62
     0
 92
       -2
340
0
 93
        0
 40
0.045
309
GRIDFORMAT_END
 95
        8
302
GRIDFORMAT
  1
GRIDFORMAT_BEGIN
 90
        0
 91
        1
 62
     0
 92
       -2
340
0
 93
        0
 40
0.045
309
GRIDFORMAT_END
 95
       16
302
GRIDFORMAT
  1
GRIDFORMAT_BEGIN
 90
        0
 91
        1
 62
     0
 92
       -2
340
0
 93
        0
 40
0.045
309
GRIDFORMAT_END
 95
       32
302
GRIDFORMAT
  1
GRIDFORMAT_BEGIN
 90
        0
 91
        1
 62
     0
 92
       -2
340
0
 93
        0
 40
0.045
309
GRIDFORMAT_END
309
TABLEFORMAT_END
  1
CELLSTYLE_BEGIN
 90
        1
 91
        1
300
_TITLE
309
CELLSTYLE_END
300
CELLSTYLE
  1
TABLEFORMAT_BEGIN
 90
        5
170
     1
 91
        0
 92
        0
 62
   257
 93
        1
300
CONTENTFORMAT
  1
CONTENTFORMAT_BEGIN
 90
        0
 91
        0
 92
      512
 93
        0
300

 40
0.0
140
1.0
 94
        5
 62
     0
340
11
144
0.18
309
CONTENTFORMAT_END
171
     1
301
MARGIN
  1
CELLMARGIN_BEGIN
 40
0.06
 40
0.06
 40
0.06
 40
0.06
 40
0.18
 40
0.18
309
CELLMARGIN_END
 94
        6
 95
        1
302
GRIDFORMAT
  1
GRIDFORMAT_BEGIN
 90
        0
 91
        1
 62
     0
 92
       -2
340
0
 93
        0
 40
0.045
309
GRIDFORMAT_END
 95
        2
302
GRIDFORMAT
  1
GRIDFORMAT_BEGIN
 90
        0
 91
        1
 62
     0
 92
       -2
340
0
 93
        0
 40
0.045
309
GRIDFORMAT_END
 95
        4
302
GRIDFORMAT
  1
GRIDFORMAT_BEGIN
 90
        0
 91
        1
 62
     0
 92
       -2
340
0
 93
        0
 40
0.045
309
GRIDFORMAT_END
 95
        8
302
GRIDFORMAT
  1
GRIDFORMAT_BEGIN
 90
        0
 91
        1
 62
     0
 92
       -2
340
0
 93
        0
 40
0.045
309
GRIDFORMAT_END
 95
       16
302
GRIDFORMAT
  1
GRIDFORMAT_BEGIN
 90
        0
 91
        1
 62
     0
 92
       -2
340
0
 93
        0
 40
0.045
309
GRIDFORMAT_END
 95
       32
302
GRIDFORMAT
  1
GRIDFORMAT_BEGIN
 90
        0
 91
        1
 62
     0
 92
       -2
340
0
 93
        0
 40
0.045
309
GRIDFORMAT_END
309
TABLEFORMAT_END
  1
CELLSTYLE_BEGIN
 90
        2
 91
        1
300
_HEADER
309
CELLSTYLE_END
300
CELLSTYLE
  1
TABLEFORMAT_BEGIN
 90
        5
170
     1
 91
        0
 92
        0
 62
   257
 93
        1
300
CONTENTFORMAT
  1
CONTENTFORMAT_BEGIN
 90
        0
 91
        0
 92
      512
 93
        0
300

 40
0.0
140
1.0
 94
        2
 62
     0
340
11
144
0.18
309
CONTENTFORMAT_END
171
     1
301
MARGIN
  1
CELLMARGIN_BEGIN
 40
0.06
 40
0.06
 40
0.06
 40
0.06
 40
0.18
 40
0.18
309
CELLMARGIN_END
 94
        6
 95
        1
302
GRIDFORMAT
  1
GRIDFORMAT_BEGIN
 90
        0
 91
        1
 62
     0
 92
       -2
340
0
 93
        0
 40
0.045
309
GRIDFORMAT_END
 95
        2
302
GRIDFORMAT
  1
GRIDFORMAT_BEGIN
 90
        0
 91
        1
 62
     0
 92
       -2
340
0
 93
        0
 40
0.045
309
GRIDFORMAT_END
 95
        4
302
GRIDFORMAT
  1
GRIDFORMAT_BEGIN
 90
        0
 91
        1
 62
     0
 92
       -2
340
0
 93
        0
 40
0.045
309
GRIDFORMAT_END
 95
        8
302
GRIDFORMAT
  1
GRIDFORMAT_BEGIN
 90
        0
 91
        1
 62
     0
 92
       -2
340
0
 93
        0
 40
0.045
309
GRIDFORMAT_END
 95
       16
302
GRIDFORMAT
  1
GRIDFORMAT_BEGIN
 90
        0
 91
        1
 62
     0
 92
       -2
340
0
 93
        0
 40
0.045
309
GRIDFORMAT_END
 95
       32
302
GRIDFORMAT
  1
GRIDFORMAT_BEGIN
 90
        0
 91
        1
 62
     0
 92
       -2
340
0
 93
        0
 40
0.045
309
GRIDFORMAT_END
309
TABLEFORMAT_END
  1
CELLSTYLE_BEGIN
 90
        3
 91
        2
300
_DATA
309
CELLSTYLE_END
  0
XRECORD
  5
12CC
102
{ACAD_REACTORS
330
821
102
}
330
821
100
AcDbXrecord
280
     1
102
ACAD_ROUNDTRIP_PRE2007_TABLESTYLE
 90
      512
 91
        0
  1

 92
      512
 93
        0
  2

 94
      512
 95
        0
  3

  0
XRECORD
  5
12D8
102
{ACAD_REACTORS
330
12D7
102
}
330
12D7
100
AcDbXrecord
280
     1
102
RTVSPropertyOp0
 70
     1
102
RTVSPropertyOp1
 70
     1
102
RTVSPropertyOp2
 70
     1
102
RTVSPropertyOp3
 70
     1
102
RTVSPropertyOp4
 70
     1
102
RTVSPropertyOp5
 70
     1
102
RTVSPropertyOp6
 70
     1
102
RTVSPropertyOp7
 70
     1
102
RTVSPropertyOp8
 70
     1
102
RTVSPropertyOp9
 70
     1
102
RTVSPropertyOp10
 70
     1
102
RTVSPropertyOp11
 70
     1
102
RTVSPropertyOp12
 70
     1
102
RTVSPropertyOp13
 70
     1
102
RTVSPropertyOp14
 70
     1
102
RTVSPropertyOp15
 70
     1
102
RTVSPropertyOp16
 70
     1
102
RTVSPropertyOp17
 70
     1
102
RTVSPropertyOp18
 70
     1
102
RTVSPropertyOp19
 70
     1
102
RTVSPropertyOp20
 70
     1
102
RTVSPropertyOp21
 70
     1
102
RTVSPropertyOp22
 70
     1
102
RTVSPropertyOp23
 70
     1
102
RTVSPropertyOp24
 70
     1
102
RTVSPropertyOp25
 70
     1
102
RTVSPropertyOp26
 70
     1
102
RTVSPropertyOp27
 70
     1
102
RTVSPropertyOp28
 70
     1
102
RTVSPropertyOp29
 70
     1
102
RTVSPropertyOp30
 70
     1
102
RTVSPropertyOp31
 70
     1
102
RTVSPropertyOp32
 70
     1
  0
XRECORD
  5
12DC
102
{ACAD_REACTORS
330
12DB
102
}
330
12DB
100
AcDbXrecord
280
     1
102
RTVSPropertyOp0
 70
     1
102
RTVSPropertyOp1
 70
     1
102
RTVSPropertyOp2
 70
     1
102
RTVSPropertyOp3
 70
     1
102
RTVSPropertyOp4
 70
     1
102
RTVSPropertyOp5
 70
     1
102
RTVSPropertyOp6
 70
     1
102
RTVSPropertyOp7
 70
     1
102
RTVSPropertyOp8
 70
     1
102
RTVSPropertyOp9
 70
     1
102
RTVSPropertyOp10
 70
     1
102
RTVSPropertyOp11
 70
     1
102
RTVSPropertyOp12
 70
     1
102
RTVSPropertyOp13
 70
     1
102
RTVSPropertyOp14
 70
     1
102
RTVSPropertyOp15
 70
     1
102
RTVSPropertyOp16
 70
     1
102
RTVSPropertyOp17
 70
     1
102
RTVSPropertyOp18
 70
     1
102
RTVSPropertyOp19
 70
     1
102
RTVSPropertyOp20
 70
     1
102
RTVSPropertyOp21
 70
     1
102
RTVSPropertyOp22
 70
     1
102
RTVSPropertyOp23
 70
     1
102
RTVSPropertyOp24
 70
     1
102
RTVSPropertyOp25
 70
     1
102
RTVSPropertyOp26
 70
     1
102
RTVSPropertyOp27
 70
     1
102
RTVSPropertyOp28
 70
     1
102
RTVSPropertyOp29
 70
     1
102
RTVSPropertyOp30
 70
     1
102
RTVSPropertyOp31
 70
     1
102
RTVSPropertyOp32
 70
     1
  0
XRECORD
  5
12DA
102
{ACAD_REACTORS
330
12D9
102
}
330
12D9
100
AcDbXrecord
280
     1
102
RTVSPropertyOp0
 70
     1
102
RTVSPropertyOp1
 70
     1
102
RTVSPropertyOp2
 70
     1
102
RTVSPropertyOp3
 70
     1
102
RTVSPropertyOp4
 70
     1
102
RTVSPropertyOp5
 70
     1
102
RTVSPropertyOp6
 70
     1
102
RTVSPropertyOp7
 70
     1
102
RTVSPropertyOp8
 70
     1
102
RTVSPropertyOp9
 70
     1
102
RTVSPropertyOp10
 70
     1
102
RTVSPropertyOp11
 70
     1
102
RTVSPropertyOp12
 70
     1
102
RTVSPropertyOp13
 70
     1
102
RTVSPropertyOp14
 70
     1
102
RTVSPropertyOp15
 70
     1
102
RTVSPropertyOp16
 70
     1
102
RTVSPropertyOp17
 70
     1
102
RTVSPropertyOp18
 70
     1
102
RTVSPropertyOp19
 70
     1
102
RTVSPropertyOp20
 70
     1
102
RTVSPropertyOp21
 70
     1
102
RTVSPropertyOp22
 70
     1
102
RTVSPropertyOp23
 70
     1
102
RTVSPropertyOp24
 70
     1
102
RTVSPropertyOp25
 70
     1
102
RTVSPropertyOp26
 70
     1
102
RTVSPropertyOp27
 70
     1
102
RTVSPropertyOp28
 70
     1
102
RTVSPropertyOp29
 70
     1
102
RTVSPropertyOp30
 70
     1
102
RTVSPropertyOp31
 70
     1
102
RTVSPropertyOp32
 70
     1
  0
XRECORD
  5
12D6
102
{ACAD_REACTORS
330
12D5
102
}
330
12D5
100
AcDbXrecord
280
     1
102
RTVSPropertyOp0
 70
     1
102
RTVSPropertyOp1
 70
     1
102
RTVSPropertyOp2
 70
     1
102
RTVSPropertyOp3
 70
     1
102
RTVSPropertyOp4
 70
     1
102
RTVSPropertyOp5
 70
     1
102
RTVSPropertyOp6
 70
     1
102
RTVSPropertyOp7
 70
     1
102
RTVSPropertyOp8
 70
     1
102
RTVSPropertyOp9
 70
     1
102
RTVSPropertyOp10
 70
     1
102
RTVSPropertyOp11
 70
     1
102
RTVSPropertyOp12
 70
     1
102
RTVSPropertyOp13
 70
     1
102
RTVSPropertyOp14
 70
     1
102
RTVSPropertyOp15
 70
     1
102
RTVSPropertyOp16
 70
     1
102
RTVSPropertyOp17
 70
     1
102
RTVSPropertyOp18
 70
     1
102
RTVSPropertyOp19
 70
     1
102
RTVSPropertyOp20
 70
     1
102
RTVSPropertyOp21
 70
     1
102
RTVSPropertyOp22
 70
     1
102
RTVSPropertyOp23
 70
     1
102
RTVSPropertyOp24
 70
     1
102
RTVSPropertyOp25
 70
     1
102
RTVSPropertyOp26
 70
     1
102
RTVSPropertyOp27
 70
     1
102
RTVSPropertyOp28
 70
     1
102
RTVSPropertyOp29
 70
     1
102
RTVSPropertyOp30
 70
     1
102
RTVSPropertyOp31
 70
     1
102
RTVSPropertyOp32
 70
     1
  0
XRECORD
  5
12E4
102
{ACAD_REACTORS
330
12E3
102
}
330
12E3
100
AcDbXrecord
280
     1
102
RTVSPropertyOp0
 70
     1
102
RTVSPropertyOp1
 70
     1
102
RTVSPropertyOp2
 70
     1
102
RTVSPropertyOp3
 70
     1
102
RTVSPropertyOp4
 70
     1
102
RTVSPropertyOp5
 70
     1
102
RTVSPropertyOp6
 70
     1
102
RTVSPropertyOp7
 70
     1
102
RTVSPropertyOp8
 70
     1
102
RTVSPropertyOp9
 70
     1
102
RTVSPropertyOp10
 70
     1
102
RTVSPropertyOp11
 70
     1
102
RTVSPropertyOp12
 70
     1
102
RTVSPropertyOp13
 70
     1
102
RTVSPropertyOp14
 70
     1
102
RTVSPropertyOp15
 70
     1
102
RTVSPropertyOp16
 70
     1
102
RTVSPropertyOp17
 70
     1
102
RTVSPropertyOp18
 70
     1
102
RTVSPropertyOp19
 70
     1
102
RTVSPropertyOp20
 70
     1
102
RTVSPropertyOp21
 70
     1
102
RTVSPropertyOp22
 70
     1
102
RTVSPropertyOp23
 70
     1
102
RTVSPropertyOp24
 70
     1
102
RTVSPropertyOp25
 70
     1
102
RTVSPropertyOp26
 70
     1
102
RTVSPropertyOp27
 70
     1
102
RTVSPropertyOp28
 70
     1
102
RTVSPropertyOp29
 70
     1
102
RTVSPropertyOp30
 70
     1
102
RTVSPropertyOp31
 70
     1
102
RTVSPropertyOp32
 70
     1
  0
XRECORD
  5
12EC
102
{ACAD_REACTORS
330
12EB
102
}
330
12EB
100
AcDbXrecord
280
     1
102
RTVSPropertyOp0
 70
     1
102
RTVSPropertyOp1
 70
     1
102
RTVSPropertyOp2
 70
     1
102
RTVSPropertyOp3
 70
     1
102
RTVSPropertyOp4
 70
     1
102
RTVSPropertyOp5
 70
     1
102
RTVSPropertyOp6
 70
     1
102
RTVSPropertyOp7
 70
     1
102
RTVSPropertyOp8
 70
     1
102
RTVSPropertyOp9
 70
     1
102
RTVSPropertyOp10
 70
     1
102
RTVSPropertyOp11
 70
     1
102
RTVSPropertyOp12
 70
     1
102
RTVSPropertyOp13
 70
     1
102
RTVSPropertyOp14
 70
     1
102
RTVSPropertyOp15
 70
     1
102
RTVSPropertyOp16
 70
     1
102
RTVSPropertyOp17
 70
     1
102
RTVSPropertyOp18
 70
     1
102
RTVSPropertyOp19
 70
     1
102
RTVSPropertyOp20
 70
     1
102
RTVSPropertyOp21
 70
     1
102
RTVSPropertyOp22
 70
     1
102
RTVSPropertyOp23
 70
     1
102
RTVSPropertyOp24
 70
     1
102
RTVSPropertyOp25
 70
     1
102
RTVSPropertyOp26
 70
     1
102
RTVSPropertyOp27
 70
     1
102
RTVSPropertyOp28
 70
     1
102
RTVSPropertyOp29
 70
     1
102
RTVSPropertyOp30
 70
     1
102
RTVSPropertyOp31
 70
     1
102
RTVSPropertyOp32
 70
     1
  0
XRECORD
  5
12DE
102
{ACAD_REACTORS
330
12DD
102
}
330
12DD
100
AcDbXrecord
280
     1
102
RTVSPropertyOp0
 70
     1
102
RTVSPropertyOp1
 70
     1
102
RTVSPropertyOp2
 70
     1
102
RTVSPropertyOp3
 70
     1
102
RTVSPropertyOp4
 70
     1
102
RTVSPropertyOp5
 70
     1
102
RTVSPropertyOp6
 70
     1
102
RTVSPropertyOp7
 70
     1
102
RTVSPropertyOp8
 70
     1
102
RTVSPropertyOp9
 70
     1
102
RTVSPropertyOp10
 70
     1
102
RTVSPropertyOp11
 70
     1
102
RTVSPropertyOp12
 70
     1
102
RTVSPropertyOp13
 70
     1
102
RTVSPropertyOp14
 70
     1
102
RTVSPropertyOp15
 70
     1
102
RTVSPropertyOp16
 70
     1
102
RTVSPropertyOp17
 70
     1
102
RTVSPropertyOp18
 70
     1
102
RTVSPropertyOp19
 70
     1
102
RTVSPropertyOp20
 70
     1
102
RTVSPropertyOp21
 70
     1
102
RTVSPropertyOp22
 70
     1
102
RTVSPropertyOp23
 70
     1
102
RTVSPropertyOp24
 70
     1
102
RTVSPropertyOp25
 70
     1
102
RTVSPropertyOp26
 70
     1
102
RTVSPropertyOp27
 70
     1
102
RTVSPropertyOp28
 70
     1
102
RTVSPropertyOp29
 70
     1
102
RTVSPropertyOp30
 70
     1
102
RTVSPropertyOp31
 70
     1
102
RTVSPropertyOp32
 70
     1
  0
XRECORD
  5
12E2
102
{ACAD_REACTORS
330
12E1
102
}
330
12E1
100
AcDbXrecord
280
     1
102
RTVSPropertyOp0
 70
     1
102
RTVSPropertyOp1
 70
     1
102
RTVSPropertyOp2
 70
     1
102
RTVSPropertyOp3
 70
     1
102
RTVSPropertyOp4
 70
     1
102
RTVSPropertyOp5
 70
     1
102
RTVSPropertyOp6
 70
     1
102
RTVSPropertyOp7
 70
     1
102
RTVSPropertyOp8
 70
     1
102
RTVSPropertyOp9
 70
     1
102
RTVSPropertyOp10
 70
     1
102
RTVSPropertyOp11
 70
     1
102
RTVSPropertyOp12
 70
     1
102
RTVSPropertyOp13
 70
     1
102
RTVSPropertyOp14
 70
     1
102
RTVSPropertyOp15
 70
     1
102
RTVSPropertyOp16
 70
     1
102
RTVSPropertyOp17
 70
     1
102
RTVSPropertyOp18
 70
     1
102
RTVSPropertyOp19
 70
     1
102
RTVSPropertyOp20
 70
     1
102
RTVSPropertyOp21
 70
     1
102
RTVSPropertyOp22
 70
     1
102
RTVSPropertyOp23
 70
     1
102
RTVSPropertyOp24
 70
     1
102
RTVSPropertyOp25
 70
     1
102
RTVSPropertyOp26
 70
     1
102
RTVSPropertyOp27
 70
     1
102
RTVSPropertyOp28
 70
     1
102
RTVSPropertyOp29
 70
     1
102
RTVSPropertyOp30
 70
     1
102
RTVSPropertyOp31
 70
     1
102
RTVSPropertyOp32
 70
     1
  0
XRECORD
  5
1300
102
{ACAD_REACTORS
330
12FF
102
}
330
12FF
100
AcDbXrecord
280
     1
102
RTVSPropertyOp0
 70
     0
102
RTVSPropertyOp1
 70
     0
102
RTVSPropertyOp2
 70
     0
102
RTVSPropertyOp3
 70
     0
102
RTVSPropertyOp4
 70
     0
102
RTVSPropertyOp5
 70
     0
102
RTVSPropertyOp6
 70
     0
102
RTVSPropertyOp7
 70
     0
102
RTVSPropertyOp8
 70
     0
102
RTVSPropertyOp9
 70
     0
102
RTVSPropertyOp10
 70
     0
102
RTVSPropertyOp11
 70
     0
102
RTVSPropertyOp12
 70
     0
102
RTVSPropertyOp13
 70
     0
102
RTVSPropertyOp14
 70
     2
102
RTVSPropertyOp15
 70
     0
102
RTVSPropertyOp16
 70
     0
102
RTVSPropertyOp17
 70
     0
102
RTVSPropertyOp18
 70
     0
102
RTVSPropertyOp19
 70
     0
102
RTVSPropertyOp20
 70
     0
102
RTVSPropertyOp21
 70
     0
102
RTVSPropertyOp22
 70
     0
102
RTVSPropertyOp23
 70
     0
102
RTVSPropertyOp24
 70
     0
102
RTVSPropertyOp25
 70
     0
102
RTVSPropertyOp26
 70
     0
102
RTVSPropertyOp27
 70
     0
102
RTVSPropertyOp28
 70
     1
102
RTVSPropertyOp29
 70
     1
102
RTVSPropertyOp30
 70
     1
102
RTVSPropertyOp31
 70
     1
102
RTVSPropertyOp32
 70
     1
  0
XRECORD
  5
12EA
102
{ACAD_REACTORS
330
12E9
102
}
330
12E9
100
AcDbXrecord
280
     1
102
RTVSPropertyOp0
 70
     1
102
RTVSPropertyOp1
 70
     1
102
RTVSPropertyOp2
 70
     1
102
RTVSPropertyOp3
 70
     1
102
RTVSPropertyOp4
 70
     1
102
RTVSPropertyOp5
 70
     1
102
RTVSPropertyOp6
 70
     1
102
RTVSPropertyOp7
 70
     1
102
RTVSPropertyOp8
 70
     1
102
RTVSPropertyOp9
 70
     1
102
RTVSPropertyOp10
 70
     1
102
RTVSPropertyOp11
 70
     1
102
RTVSPropertyOp12
 70
     1
102
RTVSPropertyOp13
 70
     1
102
RTVSPropertyOp14
 70
     1
102
RTVSPropertyOp15
 70
     1
102
RTVSPropertyOp16
 70
     1
102
RTVSPropertyOp17
 70
     1
102
RTVSPropertyOp18
 70
     1
102
RTVSPropertyOp19
 70
     1
102
RTVSPropertyOp20
 70
     1
102
RTVSPropertyOp21
 70
     1
102
RTVSPropertyOp22
 70
     1
102
RTVSPropertyOp23
 70
     1
102
RTVSPropertyOp24
 70
     1
102
RTVSPropertyOp25
 70
     1
102
RTVSPropertyOp26
 70
     1
102
RTVSPropertyOp27
 70
     1
102
RTVSPropertyOp28
 70
     1
102
RTVSPropertyOp29
 70
     1
102
RTVSPropertyOp30
 70
     1
102
RTVSPropertyOp31
 70
     1
102
RTVSPropertyOp32
 70
     1
  0
XRECORD
  5
12CE
102
{ACAD_REACTORS
330
12CD
102
}
330
12CD
100
AcDbXrecord
280
     1
102
RTVSPropertyOp0
 70
     1
102
RTVSPropertyOp1
 70
     1
102
RTVSPropertyOp2
 70
     1
102
RTVSPropertyOp3
 70
     1
102
RTVSPropertyOp4
 70
     1
102
RTVSPropertyOp5
 70
     1
102
RTVSPropertyOp6
 70
     1
102
RTVSPropertyOp7
 70
     1
102
RTVSPropertyOp8
 70
     1
102
RTVSPropertyOp9
 70
     1
102
RTVSPropertyOp10
 70
     1
102
RTVSPropertyOp11
 70
     1
102
RTVSPropertyOp12
 70
     1
102
RTVSPropertyOp13
 70
     1
102
RTVSPropertyOp14
 70
     1
102
RTVSPropertyOp15
 70
     1
102
RTVSPropertyOp16
 70
     1
102
RTVSPropertyOp17
 70
     1
102
RTVSPropertyOp18
 70
     1
102
RTVSPropertyOp19
 70
     1
102
RTVSPropertyOp20
 70
     1
102
RTVSPropertyOp21
 70
     1
102
RTVSPropertyOp22
 70
     1
102
RTVSPropertyOp23
 70
     1
102
RTVSPropertyOp24
 70
     1
102
RTVSPropertyOp25
 70
     1
102
RTVSPropertyOp26
 70
     1
102
RTVSPropertyOp27
 70
     1
102
RTVSPropertyOp28
 70
     1
102
RTVSPropertyOp29
 70
     1
102
RTVSPropertyOp30
 70
     1
102
RTVSPropertyOp31
 70
     1
102
RTVSPropertyOp32
 70
     1
  0
XRECORD
  5
12D0
102
{ACAD_REACTORS
330
12CF
102
}
330
12CF
100
AcDbXrecord
280
     1
102
RTVSPropertyOp0
 70
     1
102
RTVSPropertyOp1
 70
     1
102
RTVSPropertyOp2
 70
     1
102
RTVSPropertyOp3
 70
     1
102
RTVSPropertyOp4
 70
     1
102
RTVSPropertyOp5
 70
     1
102
RTVSPropertyOp6
 70
     1
102
RTVSPropertyOp7
 70
     1
102
RTVSPropertyOp8
 70
     1
102
RTVSPropertyOp9
 70
     1
102
RTVSPropertyOp10
 70
     1
102
RTVSPropertyOp11
 70
     1
102
RTVSPropertyOp12
 70
     1
102
RTVSPropertyOp13
 70
     1
102
RTVSPropertyOp14
 70
     1
102
RTVSPropertyOp15
 70
     1
102
RTVSPropertyOp16
 70
     1
102
RTVSPropertyOp17
 70
     1
102
RTVSPropertyOp18
 70
     1
102
RTVSPropertyOp19
 70
     1
102
RTVSPropertyOp20
 70
     1
102
RTVSPropertyOp21
 70
     1
102
RTVSPropertyOp22
 70
     1
102
RTVSPropertyOp23
 70
     1
102
RTVSPropertyOp24
 70
     1
102
RTVSPropertyOp25
 70
     1
102
RTVSPropertyOp26
 70
     1
102
RTVSPropertyOp27
 70
     1
102
RTVSPropertyOp28
 70
     1
102
RTVSPropertyOp29
 70
     1
102
RTVSPropertyOp30
 70
     1
102
RTVSPropertyOp31
 70
     1
102
RTVSPropertyOp32
 70
     1
  0
XRECORD
  5
12D2
102
{ACAD_REACTORS
330
12D1
102
}
330
12D1
100
AcDbXrecord
280
     1
102
RTVSPropertyOp0
 70
     1
102
RTVSPropertyOp1
 70
     1
102
RTVSPropertyOp2
 70
     1
102
RTVSPropertyOp3
 70
     1
102
RTVSPropertyOp4
 70
     1
102
RTVSPropertyOp5
 70
     1
102
RTVSPropertyOp6
 70
     1
102
RTVSPropertyOp7
 70
     1
102
RTVSPropertyOp8
 70
     1
102
RTVSPropertyOp9
 70
     1
102
RTVSPropertyOp10
 70
     1
102
RTVSPropertyOp11
 70
     1
102
RTVSPropertyOp12
 70
     1
102
RTVSPropertyOp13
 70
     1
102
RTVSPropertyOp14
 70
     1
102
RTVSPropertyOp15
 70
     1
102
RTVSPropertyOp16
 70
     1
102
RTVSPropertyOp17
 70
     1
102
RTVSPropertyOp18
 70
     1
102
RTVSPropertyOp19
 70
     1
102
RTVSPropertyOp20
 70
     1
102
RTVSPropertyOp21
 70
     1
102
RTVSPropertyOp22
 70
     1
102
RTVSPropertyOp23
 70
     1
102
RTVSPropertyOp24
 70
     1
102
RTVSPropertyOp25
 70
     1
102
RTVSPropertyOp26
 70
     1
102
RTVSPropertyOp27
 70
     1
102
RTVSPropertyOp28
 70
     1
102
RTVSPropertyOp29
 70
     1
102
RTVSPropertyOp30
 70
     1
102
RTVSPropertyOp31
 70
     1
102
RTVSPropertyOp32
 70
     1
  0
XRECORD
  5
12D4
102
{ACAD_REACTORS
330
12D3
102
}
330
12D3
100
AcDbXrecord
280
     1
102
RTVSPropertyOp0
 70
     1
102
RTVSPropertyOp1
 70
     1
102
RTVSPropertyOp2
 70
     1
102
RTVSPropertyOp3
 70
     1
102
RTVSPropertyOp4
 70
     1
102
RTVSPropertyOp5
 70
     1
102
RTVSPropertyOp6
 70
     1
102
RTVSPropertyOp7
 70
     1
102
RTVSPropertyOp8
 70
     1
102
RTVSPropertyOp9
 70
     1
102
RTVSPropertyOp10
 70
     1
102
RTVSPropertyOp11
 70
     1
102
RTVSPropertyOp12
 70
     1
102
RTVSPropertyOp13
 70
     1
102
RTVSPropertyOp14
 70
     1
102
RTVSPropertyOp15
 70
     1
102
RTVSPropertyOp16
 70
     1
102
RTVSPropertyOp17
 70
     1
102
RTVSPropertyOp18
 70
     1
102
RTVSPropertyOp19
 70
     1
102
RTVSPropertyOp20
 70
     1
102
RTVSPropertyOp21
 70
     1
102
RTVSPropertyOp22
 70
     1
102
RTVSPropertyOp23
 70
     1
102
RTVSPropertyOp24
 70
     1
102
RTVSPropertyOp25
 70
     1
102
RTVSPropertyOp26
 70
     1
102
RTVSPropertyOp27
 70
     1
102
RTVSPropertyOp28
 70
     1
102
RTVSPropertyOp29
 70
     1
102
RTVSPropertyOp30
 70
     1
102
RTVSPropertyOp31
 70
     1
102
RTVSPropertyOp32
 70
     1
  0
XRECORD
  5
12F0
102
{ACAD_REACTORS
330
12EF
102
}
330
12EF
100
AcDbXrecord
280
     1
102
RTVSPropertyOp0
 70
     1
102
RTVSPropertyOp1
 70
     1
102
RTVSPropertyOp2
 70
     1
102
RTVSPropertyOp3
 70
     1
102
RTVSPropertyOp4
 70
     1
102
RTVSPropertyOp5
 70
     1
102
RTVSPropertyOp6
 70
     1
102
RTVSPropertyOp7
 70
     1
102
RTVSPropertyOp8
 70
     1
102
RTVSPropertyOp9
 70
     1
102
RTVSPropertyOp10
 70
     1
102
RTVSPropertyOp11
 70
     1
102
RTVSPropertyOp12
 70
     1
102
RTVSPropertyOp13
 70
     1
102
RTVSPropertyOp14
 70
     1
102
RTVSPropertyOp15
 70
     1
102
RTVSPropertyOp16
 70
     1
102
RTVSPropertyOp17
 70
     1
102
RTVSPropertyOp18
 70
     1
102
RTVSPropertyOp19
 70
     1
102
RTVSPropertyOp20
 70
     1
102
RTVSPropertyOp21
 70
     1
102
RTVSPropertyOp22
 70
     1
102
RTVSPropertyOp23
 70
     1
102
RTVSPropertyOp24
 70
     1
102
RTVSPropertyOp25
 70
     1
102
RTVSPropertyOp26
 70
     1
102
RTVSPropertyOp27
 70
     1
102
RTVSPropertyOp28
 70
     1
102
RTVSPropertyOp29
 70
     1
102
RTVSPropertyOp30
 70
     1
102
RTVSPropertyOp31
 70
     1
102
RTVSPropertyOp32
 70
     1
  0
XRECORD
  5
12FC
102
{ACAD_REACTORS
330
12FB
102
}
330
12FB
100
AcDbXrecord
280
     1
102
RTVSPropertyOp0
 70
     0
102
RTVSPropertyOp1
 70
     0
102
RTVSPropertyOp2
 70
     0
102
RTVSPropertyOp3
 70
     0
102
RTVSPropertyOp4
 70
     0
102
RTVSPropertyOp5
 70
     0
102
RTVSPropertyOp6
 70
     0
102
RTVSPropertyOp7
 70
     0
102
RTVSPropertyOp8
 70
     0
102
RTVSPropertyOp9
 70
     0
102
RTVSPropertyOp10
 70
     0
102
RTVSPropertyOp11
 70
     0
102
RTVSPropertyOp12
 70
     0
102
RTVSPropertyOp13
 70
     0
102
RTVSPropertyOp14
 70
     2
102
RTVSPropertyOp15
 70
     0
102
RTVSPropertyOp16
 70
     0
102
RTVSPropertyOp17
 70
     0
102
RTVSPropertyOp18
 70
     0
102
RTVSPropertyOp19
 70
     0
102
RTVSPropertyOp20
 70
     0
102
RTVSPropertyOp21
 70
     0
102
RTVSPropertyOp22
 70
     0
102
RTVSPropertyOp23
 70
     0
102
RTVSPropertyOp24
 70
     0
102
RTVSPropertyOp25
 70
     0
102
RTVSPropertyOp26
 70
     0
102
RTVSPropertyOp27
 70
     0
102
RTVSPropertyOp28
 70
     1
102
RTVSPropertyOp29
 70
     1
102
RTVSPropertyOp30
 70
     1
102
RTVSPropertyOp31
 70
     1
102
RTVSPropertyOp32
 70
     1
  0
XRECORD
  5
12E8
102
{ACAD_REACTORS
330
12E7
102
}
330
12E7
100
AcDbXrecord
280
     1
102
RTVSPropertyOp0
 70
     1
102
RTVSPropertyOp1
 70
     1
102
RTVSPropertyOp2
 70
     1
102
RTVSPropertyOp3
 70
     1
102
RTVSPropertyOp4
 70
     1
102
RTVSPropertyOp5
 70
     1
102
RTVSPropertyOp6
 70
     1
102
RTVSPropertyOp7
 70
     1
102
RTVSPropertyOp8
 70
     1
102
RTVSPropertyOp9
 70
     1
102
RTVSPropertyOp10
 70
     1
102
RTVSPropertyOp11
 70
     1
102
RTVSPropertyOp12
 70
     1
102
RTVSPropertyOp13
 70
     1
102
RTVSPropertyOp14
 70
     1
102
RTVSPropertyOp15
 70
     1
102
RTVSPropertyOp16
 70
     1
102
RTVSPropertyOp17
 70
     1
102
RTVSPropertyOp18
 70
     1
102
RTVSPropertyOp19
 70
     1
102
RTVSPropertyOp20
 70
     1
102
RTVSPropertyOp21
 70
     1
102
RTVSPropertyOp22
 70
     1
102
RTVSPropertyOp23
 70
     1
102
RTVSPropertyOp24
 70
     1
102
RTVSPropertyOp25
 70
     1
102
RTVSPropertyOp26
 70
     1
102
RTVSPropertyOp27
 70
     1
102
RTVSPropertyOp28
 70
     1
102
RTVSPropertyOp29
 70
     1
102
RTVSPropertyOp30
 70
     1
102
RTVSPropertyOp31
 70
     1
102
RTVSPropertyOp32
 70
     1
  0
XRECORD
  5
12FE
102
{ACAD_REACTORS
330
12FD
102
}
330
12FD
100
AcDbXrecord
280
     1
102
RTVSPropertyOp0
 70
     0
102
RTVSPropertyOp1
 70
     0
102
RTVSPropertyOp2
 70
     0
102
RTVSPropertyOp3
 70
     0
102
RTVSPropertyOp4
 70
     0
102
RTVSPropertyOp5
 70
     0
102
RTVSPropertyOp6
 70
     0
102
RTVSPropertyOp7
 70
     0
102
RTVSPropertyOp8
 70
     0
102
RTVSPropertyOp9
 70
     0
102
RTVSPropertyOp10
 70
     0
102
RTVSPropertyOp11
 70
     0
102
RTVSPropertyOp12
 70
     0
102
RTVSPropertyOp13
 70
     0
102
RTVSPropertyOp14
 70
     2
102
RTVSPropertyOp15
 70
     0
102
RTVSPropertyOp16
 70
     0
102
RTVSPropertyOp17
 70
     0
102
RTVSPropertyOp18
 70
     0
102
RTVSPropertyOp19
 70
     0
102
RTVSPropertyOp20
 70
     0
102
RTVSPropertyOp21
 70
     0
102
RTVSPropertyOp22
 70
     0
102
RTVSPropertyOp23
 70
     0
102
RTVSPropertyOp24
 70
     0
102
RTVSPropertyOp25
 70
     0
102
RTVSPropertyOp26
 70
     0
102
RTVSPropertyOp27
 70
     0
102
RTVSPropertyOp28
 70
     1
102
RTVSPropertyOp29
 70
     1
102
RTVSPropertyOp30
 70
     1
102
RTVSPropertyOp31
 70
     1
102
RTVSPropertyOp32
 70
     1
  0
XRECORD
  5
12E0
102
{ACAD_REACTORS
330
12DF
102
}
330
12DF
100
AcDbXrecord
280
     1
102
RTVSPropertyOp0
 70
     1
102
RTVSPropertyOp1
 70
     1
102
RTVSPropertyOp2
 70
     1
102
RTVSPropertyOp3
 70
     1
102
RTVSPropertyOp4
 70
     1
102
RTVSPropertyOp5
 70
     1
102
RTVSPropertyOp6
 70
     1
102
RTVSPropertyOp7
 70
     1
102
RTVSPropertyOp8
 70
     1
102
RTVSPropertyOp9
 70
     1
102
RTVSPropertyOp10
 70
     1
102
RTVSPropertyOp11
 70
     1
102
RTVSPropertyOp12
 70
     1
102
RTVSPropertyOp13
 70
     1
102
RTVSPropertyOp14
 70
     1
102
RTVSPropertyOp15
 70
     1
102
RTVSPropertyOp16
 70
     1
102
RTVSPropertyOp17
 70
     1
102
RTVSPropertyOp18
 70
     1
102
RTVSPropertyOp19
 70
     1
102
RTVSPropertyOp20
 70
     1
102
RTVSPropertyOp21
 70
     1
102
RTVSPropertyOp22
 70
     1
102
RTVSPropertyOp23
 70
     1
102
RTVSPropertyOp24
 70
     1
102
RTVSPropertyOp25
 70
     1
102
RTVSPropertyOp26
 70
     1
102
RTVSPropertyOp27
 70
     1
102
RTVSPropertyOp28
 70
     1
102
RTVSPropertyOp29
 70
     1
102
RTVSPropertyOp30
 70
     1
102
RTVSPropertyOp31
 70
     1
102
RTVSPropertyOp32
 70
     1
  0
XRECORD
  5
12FA
102
{ACAD_REACTORS
330
12F9
102
}
330
12F9
100
AcDbXrecord
280
     1
102
RTVSPropertyOp0
 70
     1
102
RTVSPropertyOp1
 70
     1
102
RTVSPropertyOp2
 70
     1
102
RTVSPropertyOp3
 70
     1
102
RTVSPropertyOp4
 70
     1
102
RTVSPropertyOp5
 70
     1
102
RTVSPropertyOp6
 70
     1
102
RTVSPropertyOp7
 70
     1
102
RTVSPropertyOp8
 70
     1
102
RTVSPropertyOp9
 70
     1
102
RTVSPropertyOp10
 70
     1
102
RTVSPropertyOp11
 70
     1
102
RTVSPropertyOp12
 70
     1
102
RTVSPropertyOp13
 70
     1
102
RTVSPropertyOp14
 70
     1
102
RTVSPropertyOp15
 70
     1
102
RTVSPropertyOp16
 70
     1
102
RTVSPropertyOp17
 70
     1
102
RTVSPropertyOp18
 70
     1
102
RTVSPropertyOp19
 70
     1
102
RTVSPropertyOp20
 70
     1
102
RTVSPropertyOp21
 70
     1
102
RTVSPropertyOp22
 70
     1
102
RTVSPropertyOp23
 70
     1
102
RTVSPropertyOp24
 70
     1
102
RTVSPropertyOp25
 70
     1
102
RTVSPropertyOp26
 70
     1
102
RTVSPropertyOp27
 70
     1
102
RTVSPropertyOp28
 70
     1
102
RTVSPropertyOp29
 70
     1
102
RTVSPropertyOp30
 70
     1
102
RTVSPropertyOp31
 70
     1
102
RTVSPropertyOp32
 70
     1
  0
XRECORD
  5
12F8
102
{ACAD_REACTORS
330
12F7
102
}
330
12F7
100
AcDbXrecord
280
     1
102
RTVSPropertyOp0
 70
     1
102
RTVSPropertyOp1
 70
     1
102
RTVSPropertyOp2
 70
     1
102
RTVSPropertyOp3
 70
     1
102
RTVSPropertyOp4
 70
     1
102
RTVSPropertyOp5
 70
     1
102
RTVSPropertyOp6
 70
     1
102
RTVSPropertyOp7
 70
     1
102
RTVSPropertyOp8
 70
     1
102
RTVSPropertyOp9
 70
     1
102
RTVSPropertyOp10
 70
     1
102
RTVSPropertyOp11
 70
     1
102
RTVSPropertyOp12
 70
     1
102
RTVSPropertyOp13
 70
     1
102
RTVSPropertyOp14
 70
     1
102
RTVSPropertyOp15
 70
     1
102
RTVSPropertyOp16
 70
     1
102
RTVSPropertyOp17
 70
     1
102
RTVSPropertyOp18
 70
     1
102
RTVSPropertyOp19
 70
     1
102
RTVSPropertyOp20
 70
     1
102
RTVSPropertyOp21
 70
     1
102
RTVSPropertyOp22
 70
     1
102
RTVSPropertyOp23
 70
     1
102
RTVSPropertyOp24
 70
     1
102
RTVSPropertyOp25
 70
     1
102
RTVSPropertyOp26
 70
     1
102
RTVSPropertyOp27
 70
     1
102
RTVSPropertyOp28
 70
     1
102
RTVSPropertyOp29
 70
     1
102
RTVSPropertyOp30
 70
     1
102
RTVSPropertyOp31
 70
     1
102
RTVSPropertyOp32
 70
     1
  0
XRECORD
  5
12F2
102
{ACAD_REACTORS
330
12F1
102
}
330
12F1
100
AcDbXrecord
280
     1
102
RTVSPropertyOp0
 70
     1
102
RTVSPropertyOp1
 70
     1
102
RTVSPropertyOp2
 70
     1
102
RTVSPropertyOp3
 70
     1
102
RTVSPropertyOp4
 70
     1
102
RTVSPropertyOp5
 70
     1
102
RTVSPropertyOp6
 70
     1
102
RTVSPropertyOp7
 70
     1
102
RTVSPropertyOp8
 70
     1
102
RTVSPropertyOp9
 70
     1
102
RTVSPropertyOp10
 70
     1
102
RTVSPropertyOp11
 70
     1
102
RTVSPropertyOp12
 70
     1
102
RTVSPropertyOp13
 70
     1
102
RTVSPropertyOp14
 70
     1
102
RTVSPropertyOp15
 70
     1
102
RTVSPropertyOp16
 70
     1
102
RTVSPropertyOp17
 70
     1
102
RTVSPropertyOp18
 70
     1
102
RTVSPropertyOp19
 70
     1
102
RTVSPropertyOp20
 70
     1
102
RTVSPropertyOp21
 70
     1
102
RTVSPropertyOp22
 70
     1
102
RTVSPropertyOp23
 70
     1
102
RTVSPropertyOp24
 70
     1
102
RTVSPropertyOp25
 70
     1
102
RTVSPropertyOp26
 70
     1
102
RTVSPropertyOp27
 70
     1
102
RTVSPropertyOp28
 70
     1
102
RTVSPropertyOp29
 70
     1
102
RTVSPropertyOp30
 70
     1
102
RTVSPropertyOp31
 70
     1
102
RTVSPropertyOp32
 70
     1
  0
XRECORD
  5
12F4
102
{ACAD_REACTORS
330
12F3
102
}
330
12F3
100
AcDbXrecord
280
     1
102
RTVSPropertyOp0
 70
     1
102
RTVSPropertyOp1
 70
     1
102
RTVSPropertyOp2
 70
     1
102
RTVSPropertyOp3
 70
     1
102
RTVSPropertyOp4
 70
     1
102
RTVSPropertyOp5
 70
     1
102
RTVSPropertyOp6
 70
     1
102
RTVSPropertyOp7
 70
     1
102
RTVSPropertyOp8
 70
     1
102
RTVSPropertyOp9
 70
     1
102
RTVSPropertyOp10
 70
     1
102
RTVSPropertyOp11
 70
     1
102
RTVSPropertyOp12
 70
     1
102
RTVSPropertyOp13
 70
     1
102
RTVSPropertyOp14
 70
     1
102
RTVSPropertyOp15
 70
     1
102
RTVSPropertyOp16
 70
     1
102
RTVSPropertyOp17
 70
     1
102
RTVSPropertyOp18
 70
     1
102
RTVSPropertyOp19
 70
     1
102
RTVSPropertyOp20
 70
     1
102
RTVSPropertyOp21
 70
     1
102
RTVSPropertyOp22
 70
     1
102
RTVSPropertyOp23
 70
     1
102
RTVSPropertyOp24
 70
     1
102
RTVSPropertyOp25
 70
     1
102
RTVSPropertyOp26
 70
     1
102
RTVSPropertyOp27
 70
     1
102
RTVSPropertyOp28
 70
     1
102
RTVSPropertyOp29
 70
     1
102
RTVSPropertyOp30
 70
     1
102
RTVSPropertyOp31
 70
     1
102
RTVSPropertyOp32
 70
     1
  0
XRECORD
  5
12E6
102
{ACAD_REACTORS
330
12E5
102
}
330
12E5
100
AcDbXrecord
280
     1
102
RTVSPropertyOp0
 70
     1
102
RTVSPropertyOp1
 70
     1
102
RTVSPropertyOp2
 70
     1
102
RTVSPropertyOp3
 70
     1
102
RTVSPropertyOp4
 70
     1
102
RTVSPropertyOp5
 70
     1
102
RTVSPropertyOp6
 70
     1
102
RTVSPropertyOp7
 70
     1
102
RTVSPropertyOp8
 70
     1
102
RTVSPropertyOp9
 70
     1
102
RTVSPropertyOp10
 70
     1
102
RTVSPropertyOp11
 70
     1
102
RTVSPropertyOp12
 70
     1
102
RTVSPropertyOp13
 70
     1
102
RTVSPropertyOp14
 70
     1
102
RTVSPropertyOp15
 70
     1
102
RTVSPropertyOp16
 70
     1
102
RTVSPropertyOp17
 70
     1
102
RTVSPropertyOp18
 70
     1
102
RTVSPropertyOp19
 70
     1
102
RTVSPropertyOp20
 70
     1
102
RTVSPropertyOp21
 70
     1
102
RTVSPropertyOp22
 70
     1
102
RTVSPropertyOp23
 70
     1
102
RTVSPropertyOp24
 70
     1
102
RTVSPropertyOp25
 70
     1
102
RTVSPropertyOp26
 70
     1
102
RTVSPropertyOp27
 70
     1
102
RTVSPropertyOp28
 70
     1
102
RTVSPropertyOp29
 70
     1
102
RTVSPropertyOp30
 70
     1
102
RTVSPropertyOp31
 70
     1
102
RTVSPropertyOp32
 70
     1
  0
XRECORD
  5
12EE
102
{ACAD_REACTORS
330
12ED
102
}
330
12ED
100
AcDbXrecord
280
     1
102
RTVSPropertyOp0
 70
     1
102
RTVSPropertyOp1
 70
     1
102
RTVSPropertyOp2
 70
     1
102
RTVSPropertyOp3
 70
     1
102
RTVSPropertyOp4
 70
     1
102
RTVSPropertyOp5
 70
     1
102
RTVSPropertyOp6
 70
     1
102
RTVSPropertyOp7
 70
     1
102
RTVSPropertyOp8
 70
     1
102
RTVSPropertyOp9
 70
     1
102
RTVSPropertyOp10
 70
     1
102
RTVSPropertyOp11
 70
     1
102
RTVSPropertyOp12
 70
     1
102
RTVSPropertyOp13
 70
     1
102
RTVSPropertyOp14
 70
     1
102
RTVSPropertyOp15
 70
     1
102
RTVSPropertyOp16
 70
     1
102
RTVSPropertyOp17
 70
     1
102
RTVSPropertyOp18
 70
     1
102
RTVSPropertyOp19
 70
     1
102
RTVSPropertyOp20
 70
     1
102
RTVSPropertyOp21
 70
     1
102
RTVSPropertyOp22
 70
     1
102
RTVSPropertyOp23
 70
     1
102
RTVSPropertyOp24
 70
     1
102
RTVSPropertyOp25
 70
     1
102
RTVSPropertyOp26
 70
     1
102
RTVSPropertyOp27
 70
     1
102
RTVSPropertyOp28
 70
     1
102
RTVSPropertyOp29
 70
     1
102
RTVSPropertyOp30
 70
     1
102
RTVSPropertyOp31
 70
     1
102
RTVSPropertyOp32
 70
     1
  0
XRECORD
  5
12F6
102
{ACAD_REACTORS
330
12F5
102
}
330
12F5
100
AcDbXrecord
280
     1
102
RTVSPropertyOp0
 70
     1
102
RTVSPropertyOp1
 70
     1
102
RTVSPropertyOp2
 70
     1
102
RTVSPropertyOp3
 70
     1
102
RTVSPropertyOp4
 70
     1
102
RTVSPropertyOp5
 70
     1
102
RTVSPropertyOp6
 70
     1
102
RTVSPropertyOp7
 70
     1
102
RTVSPropertyOp8
 70
     1
102
RTVSPropertyOp9
 70
     1
102
RTVSPropertyOp10
 70
     1
102
RTVSPropertyOp11
 70
     1
102
RTVSPropertyOp12
 70
     1
102
RTVSPropertyOp13
 70
     1
102
RTVSPropertyOp14
 70
     1
102
RTVSPropertyOp15
 70
     1
102
RTVSPropertyOp16
 70
     1
102
RTVSPropertyOp17
 70
     1
102
RTVSPropertyOp18
 70
     1
102
RTVSPropertyOp19
 70
     1
102
RTVSPropertyOp20
 70
     1
102
RTVSPropertyOp21
 70
     1
102
RTVSPropertyOp22
 70
     1
102
RTVSPropertyOp23
 70
     1
102
RTVSPropertyOp24
 70
     1
102
RTVSPropertyOp25
 70
     1
102
RTVSPropertyOp26
 70
     1
102
RTVSPropertyOp27
 70
     1
102
RTVSPropertyOp28
 70
     1
102
RTVSPropertyOp29
 70
     1
102
RTVSPropertyOp30
 70
     1
102
RTVSPropertyOp31
 70
     1
102
RTVSPropertyOp32
 70
     1
  0
ENDSEC
  0
EOF
