  0
SECTION
  2
HEADER
  9
$ACADVER
  1
AC1018
  9
$ACADMAINTVER
 70
   104
  9
$DWGCODEPAGE
  3
ANSI_932
  9
$LASTSAVEDBY
  1
imamura
  9
$INSBASE
 10
0.0
 20
0.0
 30
0.0
  9
$EXTMIN
 10
-138.5245909562677
 20
-90.01237298730462
 30
-0.0015258207003583
  9
$EXTMAX
 10
138.5133484350738
 20
100.4996988498044
 30
0.0000000349246037
  9
$LIMMIN
 10
-138.501
 20
-90.00100000000001
  9
$LIMMAX
 10
139.323342
 20
100.473618
  9
$ORTHOMODE
 70
     1
  9
$REGENMODE
 70
     1
  9
$FILLMODE
 70
     1
  9
$QTEXTMODE
 70
     0
  9
$MIRRTEXT
 70
     0
  9
$LTSCALE
 40
4.630372
  9
$ATTMODE
 70
     1
  9
$TEXTSIZE
 40
3.2
  9
$TRACEWID
 40
0.05
  9
$TEXTSTYLE
  7
高3.2
  9
$CLAYER
  8
0
  9
$CELTYPE
  6
CONTINUOUS
  9
$CECOLOR
 62
   256
  9
$CELTSCALE
 40
1.0
  9
$DISPSILH
 70
     0
  9
$DIMSCALE
 40
1.0
  9
$DIMASZ
 40
2.5
  9
$DIMEXO
 40
0.25
  9
$DIMDLI
 40
0.2
  9
$DIMRND
 40
0.0
  9
$DIMDLE
 40
0.0
  9
$DIMEXE
 40
1.25
  9
$DIMTP
 40
0.0
  9
$DIMTM
 40
0.0
  9
$DIMTXT
 40
3.0
  9
$DIMCEN
 40
0.0
  9
$DIMTSZ
 40
0.0
  9
$DIMTOL
 70
     0
  9
$DIMLIM
 70
     0
  9
$DIMTIH
 70
     0
  9
$DIMTOH
 70
     0
  9
$DIMSE1
 70
     0
  9
$DIMSE2
 70
     0
  9
$DIMTAD
 70
     3
  9
$DIMZIN
 70
     8
  9
$DIMBLK
  1
Open30
  9
$DIMASO
 70
     1
  9
$DIMSHO
 70
     1
  9
$DIMPOST
  1

  9
$DIMAPOST
  1

  9
$DIMALT
 70
     0
  9
$DIMALTD
 70
     3
  9
$DIMALTF
 40
0.03937007874016
  9
$DIMLFAC
 40
1.0
  9
$DIMTOFL
 70
     1
  9
$DIMTVP
 40
0.0
  9
$DIMTIX
 70
     0
  9
$DIMSOXD
 70
     0
  9
$DIMSAH
 70
     0
  9
$DIMBLK1
  1

  9
$DIMBLK2
  1

  9
$DIMSTYLE
  2
FREE
  9
$DIMCLRD
 70
     0
  9
$DIMCLRE
 70
     0
  9
$DIMCLRT
 70
     4
  9
$DIMTFAC
 40
1.0
  9
$DIMGAP
 40
0.625
  9
$DIMJUST
 70
     0
  9
$DIMSD1
 70
     0
  9
$DIMSD2
 70
     0
  9
$DIMTOLJ
 70
     0
  9
$DIMTZIN
 70
     8
  9
$DIMALTZ
 70
     0
  9
$DIMALTTZ
 70
     0
  9
$DIMUPT
 70
     1
  9
$DIMDEC
 70
     2
  9
$DIMTDEC
 70
     2
  9
$DIMALTU
 70
     2
  9
$DIMALTTD
 70
     3
  9
$DIMTXSTY
  7
STANDARD
  9
$DIMAUNIT
 70
     0
  9
$DIMADEC
 70
     1
  9
$DIMALTRND
 40
0.0
  9
$DIMAZIN
 70
     2
  9
$DIMDSEP
 70
    46
  9
$DIMATFIT
 70
     0
  9
$DIMFRAC
 70
     0
  9
$DIMLDRBLK
  1
Open30
  9
$DIMLUNIT
 70
     2
  9
$DIMLWD
 70
    -2
  9
$DIMLWE
 70
    -2
  9
$DIMTMOVE
 70
     0
  9
$LUNITS
 70
     2
  9
$LUPREC
 70
     4
  9
$SKETCHINC
 40
0.1
  9
$FILLETRAD
 40
0.0
  9
$AUNITS
 70
     0
  9
$AUPREC
 70
     0
  9
$MENU
  1
.
  9
$ELEVATION
 40
0.0
  9
$PELEVATION
 40
0.0
  9
$THICKNESS
 40
0.0
  9
$LIMCHECK
 70
     0
  9
$CHAMFERA
 40
0.0
  9
$CHAMFERB
 40
0.0
  9
$CHAMFERC
 40
0.0
  9
$CHAMFERD
 40
0.0
  9
$SKPOLY
 70
     0
  9
$TDCREATE
 40
2455548.674590023
  9
$TDUCREATE
 40
2455548.299590024
  9
$TDUPDATE
 40
2456748.414300776
  9
$TDUUPDATE
 40
2456748.039300776
  9
$TDINDWG
 40
0.0503412269
  9
$TDUSRTIMER
 40
0.0503325579
  9
$USRTIMER
 70
     1
  9
$ANGBASE
 50
0.0
  9
$ANGDIR
 70
     0
  9
$PDMODE
 70
     0
  9
$PDSIZE
 40
0.0
  9
$PLINEWID
 40
0.0
  9
$SPLFRAME
 70
     0
  9
$SPLINETYPE
 70
     6
  9
$SPLINESEGS
 70
     8
  9
$HANDSEED
  5
8E2
  9
$SURFTAB1
 70
     6
  9
$SURFTAB2
 70
     6
  9
$SURFTYPE
 70
     6
  9
$SURFU
 70
     6
  9
$SURFV
 70
     6
  9
$UCSBASE
  2

  9
$UCSNAME
  2

  9
$UCSORG
 10
0.0
 20
0.0
 30
0.0
  9
$UCSXDIR
 10
1.0
 20
0.0
 30
0.0
  9
$UCSYDIR
 10
0.0
 20
1.0
 30
0.0
  9
$UCSORTHOREF
  2

  9
$UCSORTHOVIEW
 70
     0
  9
$UCSORGTOP
 10
0.0
 20
0.0
 30
0.0
  9
$UCSORGBOTTOM
 10
0.0
 20
0.0
 30
0.0
  9
$UCSORGLEFT
 10
0.0
 20
0.0
 30
0.0
  9
$UCSORGRIGHT
 10
0.0
 20
0.0
 30
0.0
  9
$UCSORGFRONT
 10
0.0
 20
0.0
 30
0.0
  9
$UCSORGBACK
 10
0.0
 20
0.0
 30
0.0
  9
$PUCSBASE
  2

  9
$PUCSNAME
  2

  9
$PUCSORG
 10
0.0
 20
0.0
 30
0.0
  9
$PUCSXDIR
 10
1.0
 20
0.0
 30
0.0
  9
$PUCSYDIR
 10
0.0
 20
1.0
 30
0.0
  9
$PUCSORTHOREF
  2

  9
$PUCSORTHOVIEW
 70
     0
  9
$PUCSORGTOP
 10
0.0
 20
0.0
 30
0.0
  9
$PUCSORGBOTTOM
 10
0.0
 20
0.0
 30
0.0
  9
$PUCSORGLEFT
 10
0.0
 20
0.0
 30
0.0
  9
$PUCSORGRIGHT
 10
0.0
 20
0.0
 30
0.0
  9
$PUCSORGFRONT
 10
0.0
 20
0.0
 30
0.0
  9
$PUCSORGBACK
 10
0.0
 20
0.0
 30
0.0
  9
$USERI1
 70
     0
  9
$USERI2
 70
     0
  9
$USERI3
 70
     0
  9
$USERI4
 70
     0
  9
$USERI5
 70
     0
  9
$USERR1
 40
0.0
  9
$USERR2
 40
0.0
  9
$USERR3
 40
0.0
  9
$USERR4
 40
0.0
  9
$USERR5
 40
0.0
  9
$WORLDVIEW
 70
     1
  9
$SHADEDGE
 70
     3
  9
$SHADEDIF
 70
    70
  9
$TILEMODE
 70
     1
  9
$MAXACTVP
 70
    64
  9
$PINSBASE
 10
0.0
 20
0.0
 30
0.0
  9
$PLIMCHECK
 70
     0
  9
$PEXTMIN
 10
1.000000000000000E+20
 20
1.000000000000000E+20
 30
1.000000000000000E+20
  9
$PEXTMAX
 10
-1.000000000000000E+20
 20
-1.000000000000000E+20
 30
-1.000000000000000E+20
  9
$PLIMMIN
 10
0.0
 20
0.0
  9
$PLIMMAX
 10
12.0
 20
9.0
  9
$UNITMODE
 70
     0
  9
$VISRETAIN
 70
     1
  9
$PLINEGEN
 70
     0
  9
$PSLTSCALE
 70
     1
  9
$TREEDEPTH
 70
  3020
  9
$CMLSTYLE
  2
Standard
  9
$CMLJUST
 70
     0
  9
$CMLSCALE
 40
1.0
  9
$PROXYGRAPHICS
 70
     1
  9
$MEASUREMENT
 70
     0
  9
$CELWEIGHT
370
    -1
  9
$ENDCAPS
280
     0
  9
$JOINSTYLE
280
     0
  9
$LWDISPLAY
290
     0
  9
$INSUNITS
 70
     0
  9
$HYPERLINKBASE
  1

  9
$STYLESHEET
  1
n-plot.ctb
  9
$XEDIT
290
     1
  9
$CEPSNTYPE
380
     0
  9
$PSTYLEMODE
290
     1
  9
$FINGERPRINTGUID
  2
{ED751A42-FACF-4FFA-9280-C80B61563CE9}
  9
$VERSIONGUID
  2
{8EA653B4-FB1E-43D2-9A1F-5930B6A2F8EA}
  9
$EXTNAMES
290
     1
  9
$PSVPSCALE
 40
0.0
  9
$OLESTARTUP
290
     0
  9
$SORTENTS
280
   127
  9
$INDEXCTL
280
     0
  9
$HIDETEXT
280
     0
  9
$XCLIPFRAME
290
     0
  9
$HALOGAP
280
     0
  9
$OBSCOLOR
 70
   257
  9
$OBSLTYPE
280
     0
  9
$INTERSECTIONDISPLAY
280
     0
  9
$INTERSECTIONCOLOR
 70
   257
  9
$DIMASSOC
280
     1
  9
$PROJECTNAME
  1

  0
ENDSEC
  0
SECTION
  2
CLASSES
  0
CLASS
  1
ACDBDICTIONARYWDFLT
  2
AcDbDictionaryWithDefault
  3
ObjectDBX Classes
 90
        0
 91
        1
280
     0
281
     0
  0
CLASS
  1
MATERIAL
  2
AcDbMaterial
  3
ObjectDBX Classes
 90
     1153
 91
        3
280
     0
281
     0
  0
CLASS
  1
VISUALSTYLE
  2
AcDbVisualStyle
  3
ObjectDBX Classes
 90
     4095
 91
       26
280
     0
281
     0
  0
CLASS
  1
TABLESTYLE
  2
AcDbTableStyle
  3
ObjectDBX Classes
 90
     4095
 91
        2
280
     0
281
     0
  0
CLASS
  1
DICTIONARYVAR
  2
AcDbDictionaryVar
  3
ObjectDBX Classes
 90
        0
 91
       27
280
     0
281
     0
  0
CLASS
  1
SCALE
  2
AcDbScale
  3
ObjectDBX Classes
 90
     1153
 91
       17
280
     0
281
     0
  0
CLASS
  1
MLEADERSTYLE
  2
AcDbMLeaderStyle
  3
ACDB_MLEADERSTYLE_CLASS
 90
     4095
 91
        1
280
     0
281
     0
  0
CLASS
  1
SORTENTSTABLE
  2
AcDbSortentsTable
  3
ObjectDBX Classes
 90
        0
 91
        2
280
     0
281
     0
  0
CLASS
  1
CELLSTYLEMAP
  2
AcDbCellStyleMap
  3
ObjectDBX Classes
 90
     1152
 91
        4
280
     0
281
     0
  0
ENDSEC
  0
SECTION
  2
TABLES
  0
TABLE
  2
VPORT
  5
8
330
0
100
AcDbSymbolTable
 70
     1
  0
VPORT
  5
56
330
8
100
AcDbSymbolTableRecord
100
AcDbViewportTableRecord
  2
*Active
 70
     0
 10
0.0
 20
0.0
 11
1.0
 21
1.0
 12
41.8920102246858
 22
-2.494004823536641
 13
0.0
 23
0.0
 14
1.0
 24
1.0
 15
0.0
 25
0.0
 16
0.0
 26
0.0
 36
1.0
 17
0.0
 27
0.0
 37
0.0
 40
310.8430721470075
 41
1.75912408759124
 42
50.0
 43
0.0
 44
0.0
 50
0.0
 51
0.0
 71
     0
 72
   100
 73
     1
 74
     1
 75
     0
 76
     0
 77
     0
 78
     0
281
     0
 65
     1
110
0.0
120
0.0
130
0.0
111
1.0
121
0.0
131
0.0
112
0.0
122
1.0
132
0.0
 79
     0
146
0.0
  0
ENDTAB
  0
TABLE
  2
LTYPE
  5
5
330
0
100
AcDbSymbolTable
 70
    26
  0
LTYPE
  5
28
330
5
100
AcDbSymbolTableRecord
100
AcDbLinetypeTableRecord
  2
ByBlock
 70
     0
  3

 72
    65
 73
     0
 40
0.0
  0
LTYPE
  5
29
330
5
100
AcDbSymbolTableRecord
100
AcDbLinetypeTableRecord
  2
ByLayer
 70
     0
  3

 72
    65
 73
     0
 40
0.0
  0
LTYPE
  5
2A
330
5
100
AcDbSymbolTableRecord
100
AcDbLinetypeTableRecord
  2
CONTINUOUS
 70
     0
  3
Solid-line
 72
    65
 73
     0
 40
0.0
  0
ENDTAB
  0
TABLE
  2
LAYER
  5
2
102
{ACAD_XDICTIONARY
360
47C
102
}
330
0
100
AcDbSymbolTable
 70
     3
  0
LAYER
  5
25
102
{ACAD_XDICTIONARY
360
724
102
}
330
2
100
AcDbSymbolTableRecord
100
AcDbLayerTableRecord
  2
0
 70
     0
 62
     7
  6
CONTINUOUS
370
    -3
390
F
  0
LAYER
  5
466
330
2
100
AcDbSymbolTableRecord
100
AcDbLayerTableRecord
  2
Defpoints
 70
     0
 62
     7
  6
CONTINUOUS
290
     0
370
    -3
390
F
  0
ENDTAB
  0
TABLE
  2
STYLE
  5
3
330
0
100
AcDbSymbolTable
 70
     9
  0
STYLE
  5
26
330
3
100
AcDbSymbolTableRecord
100
AcDbTextStyleTableRecord
  2
STANDARD
 70
     0
 40
0.0
 41
1.0
 50
0.0
 71
     0
 42
0.2
  3
TXT
  4
BIGFONT
  0
STYLE
  5
467
330
3
100
AcDbSymbolTableRecord
100
AcDbTextStyleTableRecord
  2
高3.2
 70
     0
 40
3.2
 41
1.0
 50
0.0
 71
     0
 42
3.2
  3
txt.shx
  4
bigfont.shx
  0
STYLE
  5
468
330
3
100
AcDbSymbolTableRecord
100
AcDbTextStyleTableRecord
  2
高6.3
 70
     0
 40
6.299999999999999
 41
1.0
 50
0.0
 71
     0
 42
6.299999999999999
  3
txt.shx
  4
bigfont.shx
  0
STYLE
  5
469
330
3
100
AcDbSymbolTableRecord
100
AcDbTextStyleTableRecord
  2
高2.5
 70
     0
 40
2.5
 41
1.0
 50
0.0
 71
     0
 42
0.2
  3
txt.shx
  4
bigfont.shx
  0
STYLE
  5
46A
330
3
100
AcDbSymbolTableRecord
100
AcDbTextStyleTableRecord
  2
高4.5
 70
     0
 40
4.5
 41
1.0
 50
0.0
 71
     0
 42
6.299999999999999
  3
txt.shx
  4
bigfont.shx
  0
STYLE
  5
46B
330
3
100
AcDbSymbolTableRecord
100
AcDbTextStyleTableRecord
  2
高2
 70
     0
 40
2.0
 41
1.0
 50
0.0
 71
     0
 42
2.0
  3
txt.shx
  4
bigfont.shx
  0
ENDTAB
  0
TABLE
  2
VIEW
  5
6
330
0
100
AcDbSymbolTable
 70
     2
  0
ENDTAB
  0
TABLE
  2
UCS
  5
7
330
0
100
AcDbSymbolTable
 70
     0
  0
ENDTAB
  0
TABLE
  2
APPID
  5
9
330
0
100
AcDbSymbolTable
 70
    10
  0
APPID
  5
27
330
9
100
AcDbSymbolTableRecord
100
AcDbRegAppTableRecord
  2
ACAD
 70
     0
  0
APPID
  5
38A
330
9
100
AcDbSymbolTableRecord
100
AcDbRegAppTableRecord
  2
ACAD_PSEXT
 70
     0
  0
APPID
  5
476
330
9
100
AcDbSymbolTableRecord
100
AcDbRegAppTableRecord
  2
ACAD_DSTYLE_DIMJOGGED_JOGANGLE_SYMBOL
 70
     0
  0
APPID
  5
477
330
9
100
AcDbSymbolTableRecord
100
AcDbRegAppTableRecord
  2
ACAD_DSTYLE_DIMJAG
 70
     0
  0
APPID
  5
478
330
9
100
AcDbSymbolTableRecord
100
AcDbRegAppTableRecord
  2
ACAD_DSTYLE_DIMBREAK
 70
     0
  0
APPID
  5
479
330
9
100
AcDbSymbolTableRecord
100
AcDbRegAppTableRecord
  2
ACAD_DSTYLE_DIMTALN
 70
     0
  0
APPID
  5
6AF
330
9
100
AcDbSymbolTableRecord
100
AcDbRegAppTableRecord
  2
ACAD_EXEMPT_FROM_CAD_STANDARDS
 70
     0
  0
APPID
  5
8DF
330
9
100
AcDbSymbolTableRecord
100
AcDbRegAppTableRecord
  2
ACAD_MLEADERVER
 70
     0
  0
APPID
  5
8E0
330
9
100
AcDbSymbolTableRecord
100
AcDbRegAppTableRecord
  2
ACAD_DSTYLE_DIMARC_LENGTH_SYMBOL
 70
     0
  0
APPID
  5
8E1
330
9
100
AcDbSymbolTableRecord
100
AcDbRegAppTableRecord
  2
ACAD_DSTYLE_DIMEXT_LENGTH
 70
     0
  0
ENDTAB
  0
TABLE
  2
DIMSTYLE
  5
A
330
0
100
AcDbSymbolTable
 70
    13
100
AcDbDimStyleTable
 71
     3
340
470
340
475
340
370
  0
DIMSTYLE
105
370
330
A
100
AcDbSymbolTableRecord
100
AcDbDimStyleTableRecord
  2
Standard
 70
     0
340
26
  0
DIMSTYLE
105
46C
102
{ACAD_REACTORS
330
47F
102
}
330
A
100
AcDbSymbolTableRecord
100
AcDbDimStyleTableRecord
  2
1：1
 70
     0
 41
2.5
 42
0.25
 43
0.2
 44
1.25
 73
     0
 74
     0
 77
     3
 78
     8
 79
     2
140
3.0
141
0.0
143
0.03937007874016
147
0.625
171
     3
172
     1
178
     4
179
     1
271
     2
272
     2
274
     3
283
     0
284
     8
288
     1
289
     0
340
26
341
3D6
342
3D6
1001
ACAD_DSTYLE_DIMARC_LENGTH_SYMBOL
1070
   379
1070
     2
1001
ACAD_DSTYLE_DIMEXT_LENGTH
1070
   378
1040
1.25
1001
ACAD_DSTYLE_DIMJOGGED_JOGANGLE_SYMBOL
1070
   384
1040
1.570796326794896
  0
DIMSTYLE
105
46D
102
{ACAD_REACTORS
330
484
102
}
330
A
100
AcDbSymbolTableRecord
100
AcDbDimStyleTableRecord
  2
2：1
 70
     0
 41
2.5
 42
0.25
 43
0.2
 44
1.25
 73
     0
 74
     0
 77
     3
 78
     8
 79
     2
140
3.0
141
0.0
143
0.03937007874016
144
0.5
147
0.625
171
     3
172
     1
178
     4
179
     1
271
     2
272
     2
274
     3
283
     0
284
     8
288
     1
289
     0
340
26
341
3D6
342
3D6
1001
ACAD_DSTYLE_DIMARC_LENGTH_SYMBOL
1070
   379
1070
     2
1001
ACAD_DSTYLE_DIMEXT_LENGTH
1070
   378
1040
1.25
1001
ACAD_DSTYLE_DIMJOGGED_JOGANGLE_SYMBOL
1070
   384
1040
1.570796326794896
  0
DIMSTYLE
105
46E
102
{ACAD_REACTORS
330
485
102
}
330
A
100
AcDbSymbolTableRecord
100
AcDbDimStyleTableRecord
  2
5：1
 70
     0
 41
2.5
 42
0.25
 43
0.2
 44
1.25
 73
     0
 74
     0
 77
     3
 78
     8
 79
     2
140
3.0
141
0.0
143
0.03937007874016
144
0.2
147
0.625
171
     3
172
     1
178
     4
179
     1
271
     2
272
     2
274
     3
283
     0
284
     8
288
     1
289
     0
340
26
341
3D6
342
3D6
1001
ACAD_DSTYLE_DIMARC_LENGTH_SYMBOL
1070
   379
1070
     2
1001
ACAD_DSTYLE_DIMEXT_LENGTH
1070
   378
1040
1.25
1001
ACAD_DSTYLE_DIMJOGGED_JOGANGLE_SYMBOL
1070
   384
1040
1.570796326794896
  0
DIMSTYLE
105
46F
102
{ACAD_REACTORS
330
483
102
}
330
A
100
AcDbSymbolTableRecord
100
AcDbDimStyleTableRecord
  2
10：1
 70
     0
 41
2.5
 42
0.25
 43
0.2
 44
1.25
 73
     0
 74
     0
 77
     3
 78
     8
 79
     2
140
3.0
141
0.0
143
0.03937007874016
144
0.1
147
0.625
171
     3
172
     1
178
     4
179
     1
271
     2
272
     2
274
     3
283
     0
284
     8
288
     1
289
     0
340
26
341
3D6
342
3D6
1001
ACAD_DSTYLE_DIMARC_LENGTH_SYMBOL
1070
   379
1070
     2
1001
ACAD_DSTYLE_DIMEXT_LENGTH
1070
   378
1040
1.25
1001
ACAD_DSTYLE_DIMJOGGED_JOGANGLE_SYMBOL
1070
   384
1040
1.570796326794896
  0
DIMSTYLE
105
470
102
{ACAD_REACTORS
330
481
102
}
330
A
100
AcDbSymbolTableRecord
100
AcDbDimStyleTableRecord
  2
1／2
 70
     0
 41
2.5
 42
0.25
 43
0.2
 44
1.25
 73
     0
 74
     0
 77
     3
 78
     8
 79
     2
140
3.0
141
0.0
143
0.03937007874016
144
2.0
147
0.625
171
     3
172
     1
178
     4
179
     1
271
     2
272
     2
274
     3
283
     0
284
     8
288
     1
289
     0
340
26
341
3D6
342
3D6
1001
ACAD_DSTYLE_DIMARC_LENGTH_SYMBOL
1070
   379
1070
     2
1001
ACAD_DSTYLE_DIMEXT_LENGTH
1070
   378
1040
1.25
1001
ACAD_DSTYLE_DIMJOGGED_JOGANGLE_SYMBOL
1070
   384
1040
1.570796326794896
  0
DIMSTYLE
105
471
102
{ACAD_REACTORS
330
480
102
}
330
A
100
AcDbSymbolTableRecord
100
AcDbDimStyleTableRecord
  2
1／5
 70
     0
 41
2.5
 42
0.25
 43
0.2
 44
1.25
 73
     0
 74
     0
 77
     3
 78
     8
 79
     2
140
3.0
141
0.0
143
0.03937007874016
144
5.0
147
0.625
171
     3
172
     1
178
     4
179
     1
271
     2
272
     2
274
     3
283
     0
284
     8
288
     1
289
     0
340
26
341
3D6
342
3D6
1001
ACAD_DSTYLE_DIMARC_LENGTH_SYMBOL
1070
   379
1070
     2
1001
ACAD_DSTYLE_DIMEXT_LENGTH
1070
   378
1040
1.25
1001
ACAD_DSTYLE_DIMJOGGED_JOGANGLE_SYMBOL
1070
   384
1040
1.570796326794896
  0
DIMSTYLE
105
472
102
{ACAD_REACTORS
330
482
102
}
330
A
100
AcDbSymbolTableRecord
100
AcDbDimStyleTableRecord
  2
1／10
 70
     0
 41
2.5
 42
0.25
 43
0.2
 44
1.25
 73
     0
 74
     0
 77
     3
 78
     8
 79
     2
140
3.0
141
0.0
143
0.03937007874016
144
10.0
147
0.625
171
     3
172
     1
178
     4
179
     1
271
     2
272
     2
274
     3
283
     0
284
     8
288
     1
289
     0
340
26
341
3D6
342
3D6
1001
ACAD_DSTYLE_DIMARC_LENGTH_SYMBOL
1070
   379
1070
     2
1001
ACAD_DSTYLE_DIMEXT_LENGTH
1070
   378
1040
1.25
1001
ACAD_DSTYLE_DIMJOGGED_JOGANGLE_SYMBOL
1070
   384
1040
1.570796326794896
  0
DIMSTYLE
105
473
102
{ACAD_REACTORS
330
486
102
}
330
A
100
AcDbSymbolTableRecord
100
AcDbDimStyleTableRecord
  2
1／4
 70
     0
 41
2.5
 42
0.25
 43
0.2
 44
1.25
 73
     0
 74
     0
 77
     3
 78
     8
 79
     2
140
3.0
141
0.0
143
0.03937007874016
144
4.0
147
0.625
171
     3
172
     1
178
     4
179
     1
271
     2
272
     2
274
     3
283
     0
284
     8
288
     1
289
     0
340
26
341
3D6
342
3D6
1001
ACAD_DSTYLE_DIMARC_LENGTH_SYMBOL
1070
   379
1070
     2
1001
ACAD_DSTYLE_DIMEXT_LENGTH
1070
   378
1040
1.25
1001
ACAD_DSTYLE_DIMJOGGED_JOGANGLE_SYMBOL
1070
   384
1040
1.570796326794896
  0
DIMSTYLE
105
474
102
{ACAD_REACTORS
330
487
102
}
330
A
100
AcDbSymbolTableRecord
100
AcDbDimStyleTableRecord
  2
1／3
 70
     0
 41
2.5
 42
0.25
 43
0.2
 44
1.25
 73
     0
 74
     0
 77
     3
 78
     8
 79
     2
140
3.0
141
0.0
143
0.03937007874016
144
3.0
147
0.625
171
     3
172
     1
178
     4
179
     1
271
     2
272
     2
274
     3
283
     0
284
     8
288
     1
289
     0
340
26
341
3D6
342
3D6
1001
ACAD_DSTYLE_DIMARC_LENGTH_SYMBOL
1070
   379
1070
     2
1001
ACAD_DSTYLE_DIMEXT_LENGTH
1070
   378
1040
1.25
1001
ACAD_DSTYLE_DIMJOGGED_JOGANGLE_SYMBOL
1070
   384
1040
1.570796326794896
  0
DIMSTYLE
105
475
102
{ACAD_REACTORS
330
488
102
}
330
A
100
AcDbSymbolTableRecord
100
AcDbDimStyleTableRecord
  2
FREE
 70
     0
 41
2.5
 42
0.25
 43
0.2
 44
1.25
 73
     0
 74
     0
 77
     3
 78
     8
 79
     2
140
3.0
141
0.0
143
0.03937007874016
147
0.625
171
     3
172
     1
178
     4
179
     1
271
     2
272
     2
274
     3
283
     0
284
     8
288
     1
289
     0
340
26
341
3D6
342
3D6
1001
ACAD_DSTYLE_DIMBREAK
1070
   391
1040
3.75
1001
ACAD_DSTYLE_DIMJAG
1070
   388
1040
1.5
1001
ACAD_DSTYLE_DIMTALN
1070
   392
1070
     0
1001
ACAD_DSTYLE_DIMARC_LENGTH_SYMBOL
1070
   379
1070
     2
1001
ACAD_DSTYLE_DIMEXT_LENGTH
1070
   378
1040
1.25
1001
ACAD_DSTYLE_DIMJOGGED_JOGANGLE_SYMBOL
1070
   384
1040
1.570796326794896
  0
ENDTAB
  0
TABLE
  2
BLOCK_RECORD
  5
1
330
0
100
AcDbSymbolTable
 70
    36
  0
BLOCK_RECORD
  5
36
102
{ACAD_XDICTIONARY
360
853
102
}
330
1
100
AcDbSymbolTableRecord
100
AcDbBlockTableRecord
  2
*Model_Space
340
39
  0
BLOCK_RECORD
  5
32
330
1
100
AcDbSymbolTableRecord
100
AcDbBlockTableRecord
  2
*Paper_Space
340
35
  0
BLOCK_RECORD
  5
3D6
330
1
100
AcDbSymbolTableRecord
100
AcDbBlockTableRecord
  2
_Open30
340
0
102
{BLKREFS
331
62D
331
62E
331
638
331
639
331
643
331
644
331
64E
331
64F
331
659
331
65A
331
664
331
665
331
66F
331
670
331
67A
331
67B
331
685
331
686
331
68E
331
68F
331
6F1
331
6F2
331
6FA
331
6FB
331
703
331
704
331
70C
331
70D
331
776
331
777
102
}
  0
BLOCK_RECORD
  5
4C6
330
1
100
AcDbSymbolTableRecord
100
AcDbBlockTableRecord
  2
*D18
340
0
  0
BLOCK_RECORD
  5
4D4
330
1
100
AcDbSymbolTableRecord
100
AcDbBlockTableRecord
  2
*D19
340
0
  0
BLOCK_RECORD
  5
4E2
330
1
100
AcDbSymbolTableRecord
100
AcDbBlockTableRecord
  2
*D20
340
0
  0
BLOCK_RECORD
  5
4F0
330
1
100
AcDbSymbolTableRecord
100
AcDbBlockTableRecord
  2
*D21
340
0
  0
BLOCK_RECORD
  5
4FE
330
1
100
AcDbSymbolTableRecord
100
AcDbBlockTableRecord
  2
*D22
340
0
  0
BLOCK_RECORD
  5
50C
330
1
100
AcDbSymbolTableRecord
100
AcDbBlockTableRecord
  2
*D23
340
0
  0
BLOCK_RECORD
  5
51A
330
1
100
AcDbSymbolTableRecord
100
AcDbBlockTableRecord
  2
*D24
340
0
  0
BLOCK_RECORD
  5
528
330
1
100
AcDbSymbolTableRecord
100
AcDbBlockTableRecord
  2
*D25
340
0
  0
BLOCK_RECORD
  5
536
330
1
100
AcDbSymbolTableRecord
100
AcDbBlockTableRecord
  2
*D26
340
0
  0
BLOCK_RECORD
  5
544
330
1
100
AcDbSymbolTableRecord
100
AcDbBlockTableRecord
  2
*D27
340
0
  0
BLOCK_RECORD
  5
695
330
1
100
AcDbSymbolTableRecord
100
AcDbBlockTableRecord
  2
*D28
340
0
  0
BLOCK_RECORD
  5
6B2
330
1
100
AcDbSymbolTableRecord
100
AcDbBlockTableRecord
  2
*D30
340
0
  0
BLOCK_RECORD
  5
6BE
330
1
100
AcDbSymbolTableRecord
100
AcDbBlockTableRecord
  2
*D31
340
0
  0
BLOCK_RECORD
  5
6CA
330
1
100
AcDbSymbolTableRecord
100
AcDbBlockTableRecord
  2
*D32
340
0
  0
BLOCK_RECORD
  5
712
330
1
100
AcDbSymbolTableRecord
100
AcDbBlockTableRecord
  2
*D33
340
0
  0
ENDTAB
  0
ENDSEC
  0
SECTION
  2
BLOCKS
  0
BLOCK
  5
37
330
36
100
AcDbEntity
  8
0
100
AcDbBlockBegin
  2
*Model_Space
 70
     0
 10
0.0
 20
0.0
 30
0.0
  3
*Model_Space
  1

  0
ENDBLK
  5
38
330
36
100
AcDbEntity
  8
0
100
AcDbBlockEnd
  0
BLOCK
  5
33
330
32
100
AcDbEntity
 67
     1
  8
0
100
AcDbBlockBegin
  2
*Paper_Space
 70
     0
 10
0.0
 20
0.0
 30
0.0
  3
*Paper_Space
  1

  0
ENDBLK
  5
34
330
32
100
AcDbEntity
 67
     1
  8
0
100
AcDbBlockEnd
  0
BLOCK
  5
3D7
330
3D6
100
AcDbEntity
  8
0
100
AcDbBlockBegin
  2
_Open30
 70
     0
 10
0.0
 20
0.0
 30
0.0
  3
_Open30
  1

  0
LINE
  5
3D8
330
3D6
100
AcDbEntity
  8
0
  6
ByBlock
 62
     0
370
    -2
100
AcDbLine
 10
-1.0
 20
0.267949
 30
0.0
 11
0.0
 21
0.0
 31
0.0
  0
LINE
  5
3D9
330
3D6
100
AcDbEntity
  8
0
  6
ByBlock
 62
     0
370
    -2
100
AcDbLine
 10
0.0
 20
0.0
 30
0.0
 11
-1.0
 21
-0.267949
 31
0.0
  0
LINE
  5
3DA
330
3D6
100
AcDbEntity
  8
0
  6
ByBlock
 62
     0
370
    -2
100
AcDbLine
 10
0.0
 20
0.0
 30
0.0
 11
-1.0
 21
0.0
 31
0.0
  0
ENDBLK
  5
3DB
330
3D6
100
AcDbEntity
  8
0
100
AcDbBlockEnd
  0
BLOCK
  5
4C7
330
4C6
100
AcDbEntity
  8
0
100
AcDbBlockBegin
  2
*D18
 70
     1
 10
0.0
 20
0.0
 30
0.0
  3
*D18
  1

  0
LINE
  5
628
330
4C6
100
AcDbEntity
  8
0
 62
     0
440
 16777216
370
    -2
100
AcDbLine
 10
234.2478544301296
 20
-33.23986848438631
 30
0.0
 11
234.2478544301296
 21
-36.14949990639514
 31
0.0
  0
LINE
  5
629
330
4C6
100
AcDbEntity
  8
0
 62
     0
440
 16777216
370
    -2
100
AcDbLine
 10
231.7906673760092
 20
-33.23986848438631
 30
0.0
 11
231.7906673760092
 21
-36.14949990639514
 31
0.0
  0
LINE
  5
62A
330
4C6
100
AcDbEntity
  8
0
 62
     0
440
 16777216
370
    -2
100
AcDbLine
 10
236.7478544301296
 20
-34.89949990639514
 30
0.0
 11
239.2478544301296
 21
-34.89949990639514
 31
0.0
  0
LINE
  5
62B
330
4C6
100
AcDbEntity
  8
0
 62
     0
440
 16777216
370
    -2
100
AcDbLine
 10
229.2906673760092
 20
-34.89949990639514
 30
0.0
 11
216.5406673760092
 21
-34.89949990639514
 31
0.0
  0
LINE
  5
62C
330
4C6
100
AcDbEntity
  8
0
 62
     0
440
 16777216
370
    -2
100
AcDbLine
 10
234.2478544301296
 20
-34.89949990639514
 30
0.0
 11
231.7906673760092
 21
-34.89949990639514
 31
0.0
  0
INSERT
  5
62D
330
4C6
100
AcDbEntity
  8
0
 62
     0
440
 16777216
370
    -2
100
AcDbBlockReference
  2
_Open30
 10
234.2478544301296
 20
-34.89949990639514
 30
0.0
 41
2.5
 42
2.5
 43
2.5
 50
180.0
  0
INSERT
  5
62E
330
4C6
100
AcDbEntity
  8
0
 62
     0
440
 16777216
370
    -2
100
AcDbBlockReference
  2
_Open30
 10
231.7906673760092
 20
-34.89949990639514
 30
0.0
 41
2.5
 42
2.5
 43
2.5
  0
MTEXT
  5
62F
330
4C6
100
AcDbEntity
  8
0
 62
     4
440
 16777216
100
AcDbMText
 10
221.6656673760092
 20
-32.77449990639514
 30
0.0
 40
3.0
 41
0.0
 71
     5
 72
     1
  1
2.46
 73
     1
 44
1.0
  0
POINT
  5
630
330
4C6
100
AcDbEntity
  8
Defpoints
 62
     0
440
 16777216
100
AcDbPoint
 10
234.2478544301296
 20
-32.98986848438631
 30
0.0
  0
POINT
  5
631
330
4C6
100
AcDbEntity
  8
Defpoints
 62
     0
440
 16777216
100
AcDbPoint
 10
231.7906673760092
 20
-32.98986848438631
 30
0.0
  0
POINT
  5
632
330
4C6
100
AcDbEntity
  8
Defpoints
 62
     0
440
 16777216
100
AcDbPoint
 10
231.7906673760092
 20
-34.89949990639514
 30
0.0
  0
ENDBLK
  5
4C8
330
4C6
100
AcDbEntity
  8
0
100
AcDbBlockEnd
  0
BLOCK
  5
4D5
330
4D4
100
AcDbEntity
  8
0
100
AcDbBlockBegin
  2
*D19
 70
     1
 10
0.0
 20
0.0
 30
0.0
  3
*D19
  1

  0
LINE
  5
633
330
4D4
100
AcDbEntity
  8
0
 62
     0
440
 16777216
370
    -2
100
AcDbLine
 10
235.8859793362027
 20
-38.69595805714869
 30
0.0
 11
235.8859793362027
 21
-41.241850126612
 31
0.0
  0
LINE
  5
634
330
4D4
100
AcDbEntity
  8
0
 62
     0
440
 16777216
370
    -2
100
AcDbLine
 10
232.7917435380598
 20
-38.69595805714869
 30
0.0
 11
232.7917435380598
 21
-41.241850126612
 31
0.0
  0
LINE
  5
635
330
4D4
100
AcDbEntity
  8
0
 62
     0
440
 16777216
370
    -2
100
AcDbLine
 10
238.3859793362027
 20
-39.99185012661201
 30
0.0
 11
240.8859793362027
 21
-39.99185012661201
 31
0.0
  0
LINE
  5
636
330
4D4
100
AcDbEntity
  8
0
 62
     0
440
 16777216
370
    -2
100
AcDbLine
 10
230.2917435380598
 20
-39.99185012661201
 30
0.0
 11
216.4584102047265
 21
-39.99185012661201
 31
0.0
  0
LINE
  5
637
330
4D4
100
AcDbEntity
  8
0
 62
     0
440
 16777216
370
    -2
100
AcDbLine
 10
235.8859793362027
 20
-39.99185012661201
 30
0.0
 11
232.7917435380598
 21
-39.99185012661201
 31
0.0
  0
INSERT
  5
638
330
4D4
100
AcDbEntity
  8
0
 62
     0
440
 16777216
370
    -2
100
AcDbBlockReference
  2
_Open30
 10
235.8859793362027
 20
-39.99185012661201
 30
0.0
 41
2.5
 42
2.5
 43
2.5
 50
180.0
  0
INSERT
  5
639
330
4D4
100
AcDbEntity
  8
0
 62
     0
440
 16777216
370
    -2
100
AcDbBlockReference
  2
_Open30
 10
232.7917435380598
 20
-39.99185012661201
 30
0.0
 41
2.5
 42
2.5
 43
2.5
  0
MTEXT
  5
63A
330
4D4
100
AcDbEntity
  8
0
 62
     4
440
 16777216
100
AcDbMText
 10
221.6667435380598
 20
-38.11685012661201
 30
0.0
 40
2.5
 41
0.0
 71
     5
 72
     1
  1
15.47
  7
高2.5
 73
     1
 44
1.0
  0
POINT
  5
63B
330
4D4
100
AcDbEntity
  8
Defpoints
 62
     0
440
 16777216
100
AcDbPoint
 10
235.8859793362027
 20
-38.44595805714869
 30
0.0
  0
POINT
  5
63C
330
4D4
100
AcDbEntity
  8
Defpoints
 62
     0
440
 16777216
100
AcDbPoint
 10
232.7917435380598
 20
-38.44595805714869
 30
0.0
  0
POINT
  5
63D
330
4D4
100
AcDbEntity
  8
Defpoints
 62
     0
440
 16777216
100
AcDbPoint
 10
232.7917435380598
 20
-39.99185012661201
 30
0.0
  0
ENDBLK
  5
4D6
330
4D4
100
AcDbEntity
  8
0
100
AcDbBlockEnd
  0
BLOCK
  5
4E3
330
4E2
100
AcDbEntity
  8
0
100
AcDbBlockBegin
  2
*D20
 70
     1
 10
0.0
 20
0.0
 30
0.0
  3
*D20
  1

  0
LINE
  5
63E
330
4E2
100
AcDbEntity
  8
0
 62
     0
440
 16777216
370
    -2
100
AcDbLine
 10
237.6151109442882
 20
-44.15204777299516
 30
0.0
 11
237.6151109442882
 21
-46.42513543536245
 31
0.0
  0
LINE
  5
63F
330
4E2
100
AcDbEntity
  8
0
 62
     0
440
 16777216
370
    -2
100
AcDbLine
 10
233.6108059910964
 20
-44.15204777299516
 30
0.0
 11
233.6108059910964
 21
-46.42513543536245
 31
0.0
  0
LINE
  5
640
330
4E2
100
AcDbEntity
  8
0
 62
     0
440
 16777216
370
    -2
100
AcDbLine
 10
240.1151109442882
 20
-45.17513543536245
 30
0.0
 11
242.6151109442882
 21
-45.17513543536245
 31
0.0
  0
LINE
  5
641
330
4E2
100
AcDbEntity
  8
0
 62
     0
440
 16777216
370
    -2
100
AcDbLine
 10
231.1108059910964
 20
-45.17513543536245
 30
0.0
 11
219.3608059910964
 21
-45.17513543536245
 31
0.0
  0
LINE
  5
642
330
4E2
100
AcDbEntity
  8
0
 62
     0
440
 16777216
370
    -2
100
AcDbLine
 10
237.6151109442882
 20
-45.17513543536245
 30
0.0
 11
233.6108059910964
 21
-45.17513543536245
 31
0.0
  0
INSERT
  5
643
330
4E2
100
AcDbEntity
  8
0
 62
     0
440
 16777216
370
    -2
100
AcDbBlockReference
  2
_Open30
 10
237.6151109442882
 20
-45.17513543536245
 30
0.0
 41
2.5
 42
2.5
 43
2.5
 50
180.0
  0
INSERT
  5
644
330
4E2
100
AcDbEntity
  8
0
 62
     0
440
 16777216
370
    -2
100
AcDbBlockReference
  2
_Open30
 10
233.6108059910964
 20
-45.17513543536245
 30
0.0
 41
2.5
 42
2.5
 43
2.5
  0
MTEXT
  5
645
330
4E2
100
AcDbEntity
  8
0
 62
     4
440
 16777216
100
AcDbMText
 10
223.9858059910964
 20
-42.95013543536245
 30
0.0
 40
3.2
 41
0.0
 71
     5
 72
     1
  1
8.01
  7
高3.2
 73
     1
 44
1.0
  0
POINT
  5
646
330
4E2
100
AcDbEntity
  8
Defpoints
 62
     0
440
 16777216
100
AcDbPoint
 10
237.6151109442882
 20
-43.90204777299516
 30
0.0
  0
POINT
  5
647
330
4E2
100
AcDbEntity
  8
Defpoints
 62
     0
440
 16777216
100
AcDbPoint
 10
233.6108059910964
 20
-43.90204777299516
 30
0.0
  0
POINT
  5
648
330
4E2
100
AcDbEntity
  8
Defpoints
 62
     0
440
 16777216
100
AcDbPoint
 10
233.6108059910964
 20
-45.17513543536245
 30
0.0
  0
ENDBLK
  5
4E4
330
4E2
100
AcDbEntity
  8
0
100
AcDbBlockEnd
  0
BLOCK
  5
4F1
330
4F0
100
AcDbEntity
  8
0
100
AcDbBlockBegin
  2
*D21
 70
     1
 10
0.0
 20
0.0
 30
0.0
  3
*D21
  1

  0
LINE
  5
649
330
4F0
100
AcDbEntity
  8
0
 62
     0
440
 16777216
370
    -2
100
AcDbLine
 10
237.5241042422758
 20
-49.42626774102677
 30
0.0
 11
237.5241042422758
 21
-51.24468124848317
 31
0.0
  0
LINE
  5
64A
330
4F0
100
AcDbEntity
  8
0
 62
     0
440
 16777216
370
    -2
100
AcDbLine
 10
232.7917435380598
 20
-49.42626774102677
 30
0.0
 11
232.7917435380598
 21
-51.24468124848317
 31
0.0
  0
LINE
  5
64B
330
4F0
100
AcDbEntity
  8
0
 62
     0
440
 16777216
370
    -2
100
AcDbLine
 10
240.0241042422758
 20
-49.99468124848317
 30
0.0
 11
242.5241042422758
 21
-49.99468124848317
 31
0.0
  0
LINE
  5
64C
330
4F0
100
AcDbEntity
  8
0
 62
     0
440
 16777216
370
    -2
100
AcDbLine
 10
230.2917435380598
 20
-49.99468124848317
 30
0.0
 11
208.5417435380598
 21
-49.99468124848317
 31
0.0
  0
LINE
  5
64D
330
4F0
100
AcDbEntity
  8
0
 62
     0
440
 16777216
370
    -2
100
AcDbLine
 10
237.5241042422758
 20
-49.99468124848317
 30
0.0
 11
232.7917435380598
 21
-49.99468124848317
 31
0.0
  0
INSERT
  5
64E
330
4F0
100
AcDbEntity
  8
0
 62
     0
440
 16777216
370
    -2
100
AcDbBlockReference
  2
_Open30
 10
237.5241042422758
 20
-49.99468124848317
 30
0.0
 41
2.5
 42
2.5
 43
2.5
 50
180.0
  0
INSERT
  5
64F
330
4F0
100
AcDbEntity
  8
0
 62
     0
440
 16777216
370
    -2
100
AcDbBlockReference
  2
_Open30
 10
232.7917435380598
 20
-49.99468124848317
 30
0.0
 41
2.5
 42
2.5
 43
2.5
  0
MTEXT
  5
650
330
4F0
100
AcDbEntity
  8
0
 62
     4
440
 16777216
100
AcDbMText
 10
218.1667435380598
 20
-47.11968124848318
 30
0.0
 40
4.5
 41
0.0
 71
     5
 72
     1
  1
47.32
  7
高4.5
 73
     1
 44
1.0
  0
POINT
  5
651
330
4F0
100
AcDbEntity
  8
Defpoints
 62
     0
440
 16777216
100
AcDbPoint
 10
237.5241042422758
 20
-49.17626774102678
 30
0.0
  0
POINT
  5
652
330
4F0
100
AcDbEntity
  8
Defpoints
 62
     0
440
 16777216
100
AcDbPoint
 10
232.7917435380598
 20
-49.17626774102678
 30
0.0
  0
POINT
  5
653
330
4F0
100
AcDbEntity
  8
Defpoints
 62
     0
440
 16777216
100
AcDbPoint
 10
232.7917435380598
 20
-49.99468124848317
 30
0.0
  0
ENDBLK
  5
4F2
330
4F0
100
AcDbEntity
  8
0
100
AcDbBlockEnd
  0
BLOCK
  5
4FF
330
4FE
100
AcDbEntity
  8
0
100
AcDbBlockBegin
  2
*D22
 70
     1
 10
0.0
 20
0.0
 30
0.0
  3
*D22
  1

  0
LINE
  5
654
330
4FE
100
AcDbEntity
  8
0
 62
     0
440
 16777216
370
    -2
100
AcDbLine
 10
259.0017405102833
 20
-33.23986848438631
 30
0.0
 11
259.0017405102833
 21
-36.14949990639514
 31
0.0
  0
LINE
  5
655
330
4FE
100
AcDbEntity
  8
0
 62
     0
440
 16777216
370
    -2
100
AcDbLine
 10
256.544553456163
 20
-33.23986848438631
 30
0.0
 11
256.544553456163
 21
-36.14949990639514
 31
0.0
  0
LINE
  5
656
330
4FE
100
AcDbEntity
  8
0
 62
     0
440
 16777216
370
    -2
100
AcDbLine
 10
261.5017405102833
 20
-34.89949990639514
 30
0.0
 11
264.0017405102833
 21
-34.89949990639514
 31
0.0
  0
LINE
  5
657
330
4FE
100
AcDbEntity
  8
0
 62
     0
440
 16777216
370
    -2
100
AcDbLine
 10
254.0445534561631
 20
-34.89949990639514
 30
0.0
 11
232.444553456163
 21
-34.89949990639514
 31
0.0
  0
LINE
  5
658
330
4FE
100
AcDbEntity
  8
0
 62
     0
440
 16777216
370
    -2
100
AcDbLine
 10
259.0017405102833
 20
-34.89949990639514
 30
0.0
 11
256.544553456163
 21
-34.89949990639514
 31
0.0
  0
INSERT
  5
659
330
4FE
100
AcDbEntity
  8
0
 62
     0
440
 16777216
370
    -2
100
AcDbBlockReference
  2
_Open30
 10
259.0017405102833
 20
-34.89949990639514
 30
0.0
 41
2.5
 42
2.5
 43
2.5
 50
180.0
  0
INSERT
  5
65A
330
4FE
100
AcDbEntity
  8
0
 62
     0
440
 16777216
370
    -2
100
AcDbBlockReference
  2
_Open30
 10
256.544553456163
 20
-34.89949990639514
 30
0.0
 41
2.5
 42
2.5
 43
2.5
  0
MTEXT
  5
65B
330
4FE
100
AcDbEntity
  8
0
 62
     4
440
 16777216
100
AcDbMText
 10
241.994553456163
 20
-31.12449990639514
 30
0.0
 40
6.299999999999999
 41
0.0
 71
     5
 72
     1
  1
0.25
  7
高6.3
 73
     1
 44
1.0
  0
POINT
  5
65C
330
4FE
100
AcDbEntity
  8
Defpoints
 62
     0
440
 16777216
100
AcDbPoint
 10
259.0017405102833
 20
-32.98986848438631
 30
0.0
  0
POINT
  5
65D
330
4FE
100
AcDbEntity
  8
Defpoints
 62
     0
440
 16777216
100
AcDbPoint
 10
256.544553456163
 20
-32.98986848438631
 30
0.0
  0
POINT
  5
65E
330
4FE
100
AcDbEntity
  8
Defpoints
 62
     0
440
 16777216
100
AcDbPoint
 10
256.544553456163
 20
-34.89949990639514
 30
0.0
  0
ENDBLK
  5
500
330
4FE
100
AcDbEntity
  8
0
100
AcDbBlockEnd
  0
BLOCK
  5
50D
330
50C
100
AcDbEntity
  8
0
100
AcDbBlockBegin
  2
*D23
 70
     1
 10
0.0
 20
0.0
 30
0.0
  3
*D23
  1

  0
LINE
  5
65F
330
50C
100
AcDbEntity
  8
0
 62
     0
440
 16777216
370
    -2
100
AcDbLine
 10
260.6398654163565
 20
-38.69595805714869
 30
0.0
 11
260.6398654163565
 21
-41.241850126612
 31
0.0
  0
LINE
  5
660
330
50C
100
AcDbEntity
  8
0
 62
     0
440
 16777216
370
    -2
100
AcDbLine
 10
257.5456296182137
 20
-38.69595805714869
 30
0.0
 11
257.5456296182137
 21
-41.241850126612
 31
0.0
  0
LINE
  5
661
330
50C
100
AcDbEntity
  8
0
 62
     0
440
 16777216
370
    -2
100
AcDbLine
 10
263.1398654163565
 20
-39.99185012661201
 30
0.0
 11
265.6398654163565
 21
-39.99185012661201
 31
0.0
  0
LINE
  5
662
330
50C
100
AcDbEntity
  8
0
 62
     0
440
 16777216
370
    -2
100
AcDbLine
 10
255.0456296182137
 20
-39.99185012661201
 30
0.0
 11
243.0456296182136
 21
-39.99185012661201
 31
0.0
  0
LINE
  5
663
330
50C
100
AcDbEntity
  8
0
 62
     0
440
 16777216
370
    -2
100
AcDbLine
 10
260.6398654163565
 20
-39.99185012661201
 30
0.0
 11
257.5456296182137
 21
-39.99185012661201
 31
0.0
  0
INSERT
  5
664
330
50C
100
AcDbEntity
  8
0
 62
     0
440
 16777216
370
    -2
100
AcDbBlockReference
  2
_Open30
 10
260.6398654163565
 20
-39.99185012661201
 30
0.0
 41
2.5
 42
2.5
 43
2.5
 50
180.0
  0
INSERT
  5
665
330
50C
100
AcDbEntity
  8
0
 62
     0
440
 16777216
370
    -2
100
AcDbBlockReference
  2
_Open30
 10
257.5456296182137
 20
-39.99185012661201
 30
0.0
 41
2.5
 42
2.5
 43
2.5
  0
MTEXT
  5
666
330
50C
100
AcDbEntity
  8
0
 62
     4
440
 16777216
100
AcDbMText
 10
247.6706296182136
 20
-37.86685012661201
 30
0.0
 40
3.0
 41
0.0
 71
     5
 72
     1
  1
1.55
 73
     1
 44
1.0
  0
POINT
  5
667
330
50C
100
AcDbEntity
  8
Defpoints
 62
     0
440
 16777216
100
AcDbPoint
 10
260.6398654163565
 20
-38.44595805714869
 30
0.0
  0
POINT
  5
668
330
50C
100
AcDbEntity
  8
Defpoints
 62
     0
440
 16777216
100
AcDbPoint
 10
257.5456296182137
 20
-38.44595805714869
 30
0.0
  0
POINT
  5
669
330
50C
100
AcDbEntity
  8
Defpoints
 62
     0
440
 16777216
100
AcDbPoint
 10
257.5456296182137
 20
-39.99185012661201
 30
0.0
  0
ENDBLK
  5
50E
330
50C
100
AcDbEntity
  8
0
100
AcDbBlockEnd
  0
BLOCK
  5
51B
330
51A
100
AcDbEntity
  8
0
100
AcDbBlockBegin
  2
*D24
 70
     1
 10
0.0
 20
0.0
 30
0.0
  3
*D24
  1

  0
LINE
  5
66A
330
51A
100
AcDbEntity
  8
0
 62
     0
440
 16777216
370
    -2
100
AcDbLine
 10
262.368997024442
 20
-44.15204777299516
 30
0.0
 11
262.368997024442
 21
-46.42513543536245
 31
0.0
  0
LINE
  5
66B
330
51A
100
AcDbEntity
  8
0
 62
     0
440
 16777216
370
    -2
100
AcDbLine
 10
258.3646920712502
 20
-44.15204777299516
 30
0.0
 11
258.3646920712502
 21
-46.42513543536245
 31
0.0
  0
LINE
  5
66C
330
51A
100
AcDbEntity
  8
0
 62
     0
440
 16777216
370
    -2
100
AcDbLine
 10
264.868997024442
 20
-45.17513543536245
 30
0.0
 11
267.368997024442
 21
-45.17513543536245
 31
0.0
  0
LINE
  5
66D
330
51A
100
AcDbEntity
  8
0
 62
     0
440
 16777216
370
    -2
100
AcDbLine
 10
255.8646920712501
 20
-45.17513543536245
 30
0.0
 11
247.5313587379168
 21
-45.17513543536245
 31
0.0
  0
LINE
  5
66E
330
51A
100
AcDbEntity
  8
0
 62
     0
440
 16777216
370
    -2
100
AcDbLine
 10
262.368997024442
 20
-45.17513543536245
 30
0.0
 11
258.3646920712502
 21
-45.17513543536245
 31
0.0
  0
INSERT
  5
66F
330
51A
100
AcDbEntity
  8
0
 62
     0
440
 16777216
370
    -2
100
AcDbBlockReference
  2
_Open30
 10
262.368997024442
 20
-45.17513543536245
 30
0.0
 41
2.5
 42
2.5
 43
2.5
 50
180.0
  0
INSERT
  5
670
330
51A
100
AcDbEntity
  8
0
 62
     0
440
 16777216
370
    -2
100
AcDbBlockReference
  2
_Open30
 10
258.3646920712502
 20
-45.17513543536245
 30
0.0
 41
2.5
 42
2.5
 43
2.5
  0
MTEXT
  5
671
330
51A
100
AcDbEntity
  8
0
 62
     4
440
 16777216
100
AcDbMText
 10
249.9896920712501
 20
-43.55013543536244
 30
0.0
 40
2.0
 41
0.0
 71
     5
 72
     1
  1
0.8
  7
高2
 73
     1
 44
1.0
  0
POINT
  5
672
330
51A
100
AcDbEntity
  8
Defpoints
 62
     0
440
 16777216
100
AcDbPoint
 10
262.368997024442
 20
-43.90204777299516
 30
0.0
  0
POINT
  5
673
330
51A
100
AcDbEntity
  8
Defpoints
 62
     0
440
 16777216
100
AcDbPoint
 10
258.3646920712502
 20
-43.90204777299516
 30
0.0
  0
POINT
  5
674
330
51A
100
AcDbEntity
  8
Defpoints
 62
     0
440
 16777216
100
AcDbPoint
 10
258.3646920712502
 20
-45.17513543536245
 30
0.0
  0
ENDBLK
  5
51C
330
51A
100
AcDbEntity
  8
0
100
AcDbBlockEnd
  0
BLOCK
  5
529
330
528
100
AcDbEntity
  8
0
100
AcDbBlockBegin
  2
*D25
 70
     1
 10
0.0
 20
0.0
 30
0.0
  3
*D25
  1

  0
LINE
  5
675
330
528
100
AcDbEntity
  8
0
 62
     0
440
 16777216
370
    -2
100
AcDbLine
 10
262.2779903224298
 20
-49.42626774102677
 30
0.0
 11
262.2779903224298
 21
-51.24468124848317
 31
0.0
  0
LINE
  5
676
330
528
100
AcDbEntity
  8
0
 62
     0
440
 16777216
370
    -2
100
AcDbLine
 10
257.5456296182137
 20
-49.42626774102677
 30
0.0
 11
257.5456296182137
 21
-51.24468124848317
 31
0.0
  0
LINE
  5
677
330
528
100
AcDbEntity
  8
0
 62
     0
440
 16777216
370
    -2
100
AcDbLine
 10
264.7779903224298
 20
-49.99468124848317
 30
0.0
 11
267.2779903224298
 21
-49.99468124848317
 31
0.0
  0
LINE
  5
678
330
528
100
AcDbEntity
  8
0
 62
     0
440
 16777216
370
    -2
100
AcDbLine
 10
255.0456296182137
 20
-49.99468124848317
 30
0.0
 11
240.2956296182136
 21
-49.99468124848317
 31
0.0
  0
LINE
  5
679
330
528
100
AcDbEntity
  8
0
 62
     0
440
 16777216
370
    -2
100
AcDbLine
 10
262.2779903224298
 20
-49.99468124848317
 30
0.0
 11
257.5456296182137
 21
-49.99468124848317
 31
0.0
  0
INSERT
  5
67A
330
528
100
AcDbEntity
  8
0
 62
     0
440
 16777216
370
    -2
100
AcDbBlockReference
  2
_Open30
 10
262.2779903224298
 20
-49.99468124848317
 30
0.0
 41
2.5
 42
2.5
 43
2.5
 50
180.0
  0
INSERT
  5
67B
330
528
100
AcDbEntity
  8
0
 62
     0
440
 16777216
370
    -2
100
AcDbBlockReference
  2
_Open30
 10
257.5456296182137
 20
-49.99468124848317
 30
0.0
 41
2.5
 42
2.5
 43
2.5
  0
MTEXT
  5
67C
330
528
100
AcDbEntity
  8
0
 62
     4
440
 16777216
100
AcDbMText
 10
246.4206296182136
 20
-47.86968124848317
 30
0.0
 40
3.0
 41
0.0
 71
     5
 72
     1
  1
18.93
 73
     1
 44
1.0
  0
POINT
  5
67D
330
528
100
AcDbEntity
  8
Defpoints
 62
     0
440
 16777216
100
AcDbPoint
 10
262.2779903224298
 20
-49.17626774102678
 30
0.0
  0
POINT
  5
67E
330
528
100
AcDbEntity
  8
Defpoints
 62
     0
440
 16777216
100
AcDbPoint
 10
257.5456296182137
 20
-49.17626774102678
 30
0.0
  0
POINT
  5
67F
330
528
100
AcDbEntity
  8
Defpoints
 62
     0
440
 16777216
100
AcDbPoint
 10
257.5456296182137
 20
-49.99468124848317
 30
0.0
  0
ENDBLK
  5
52A
330
528
100
AcDbEntity
  8
0
100
AcDbBlockEnd
  0
BLOCK
  5
537
330
536
100
AcDbEntity
  8
0
100
AcDbBlockBegin
  2
*D26
 70
     1
 10
0.0
 20
0.0
 30
0.0
  3
*D26
  1

  0
LINE
  5
680
330
536
100
AcDbEntity
  8
0
 62
     0
440
 16777216
370
    -2
100
AcDbLine
 10
259.4735634712914
 20
-54.48210794761656
 30
0.0
 11
259.4735634712914
 21
-56.79202902449208
 31
0.0
  0
LINE
  5
681
330
536
100
AcDbEntity
  8
0
 62
     0
440
 16777216
370
    -2
100
AcDbLine
 10
254.8848882691435
 20
-54.48210794761656
 30
0.0
 11
254.8848882691435
 21
-56.79202902449208
 31
0.0
  0
LINE
  5
682
330
536
100
AcDbEntity
  8
0
 62
     0
440
 16777216
370
    -2
100
AcDbLine
 10
261.9735634712914
 20
-55.54202902449208
 30
0.0
 11
264.4735634712914
 21
-55.54202902449208
 31
0.0
  0
LINE
  5
683
330
536
100
AcDbEntity
  8
0
 62
     0
440
 16777216
370
    -2
100
AcDbLine
 10
252.3848882691435
 20
-55.54202902449208
 30
0.0
 11
237.6348882691435
 21
-55.54202902449208
 31
0.0
  0
LINE
  5
684
330
536
100
AcDbEntity
  8
0
 62
     0
440
 16777216
370
    -2
100
AcDbLine
 10
259.4735634712914
 20
-55.54202902449208
 30
0.0
 11
254.8848882691435
 21
-55.54202902449208
 31
0.0
  0
INSERT
  5
685
330
536
100
AcDbEntity
  8
0
 62
     0
440
 16777216
370
    -2
100
AcDbBlockReference
  2
_Open30
 10
259.4735634712914
 20
-55.54202902449208
 30
0.0
 41
2.5
 42
2.5
 43
2.5
 50
180.0
  0
INSERT
  5
686
330
536
100
AcDbEntity
  8
0
 62
     0
440
 16777216
370
    -2
100
AcDbBlockReference
  2
_Open30
 10
254.8848882691435
 20
-55.54202902449208
 30
0.0
 41
2.5
 42
2.5
 43
2.5
  0
MTEXT
  5
687
330
536
100
AcDbEntity
  8
0
 62
     4
440
 16777216
100
AcDbMText
 10
243.7598882691435
 20
-53.41702902449208
 30
0.0
 40
3.0
 41
0.0
 71
     5
 72
     1
  1
13.77
 73
     1
 44
1.0
  0
POINT
  5
688
330
536
100
AcDbEntity
  8
Defpoints
 62
     0
440
 16777216
100
AcDbPoint
 10
259.4735634712914
 20
-54.23210794761655
 30
0.0
  0
POINT
  5
689
330
536
100
AcDbEntity
  8
Defpoints
 62
     0
440
 16777216
100
AcDbPoint
 10
254.8848882691435
 20
-54.23210794761655
 30
0.0
  0
POINT
  5
68A
330
536
100
AcDbEntity
  8
Defpoints
 62
     0
440
 16777216
100
AcDbPoint
 10
254.8848882691435
 20
-55.54202902449208
 30
0.0
  0
ENDBLK
  5
538
330
536
100
AcDbEntity
  8
0
100
AcDbBlockEnd
  0
BLOCK
  5
545
330
544
100
AcDbEntity
  8
0
100
AcDbBlockBegin
  2
*D27
 70
     1
 10
0.0
 20
0.0
 30
0.0
  3
*D27
  1

  0
LINE
  5
68B
330
544
100
AcDbEntity
  8
0
 62
     0
440
 16777216
370
    -2
100
AcDbLine
 10
252.3772806381411
 20
-23.5526166293422
 30
0.0
 11
252.3772806381411
 21
-16.15608315140446
 31
0.0
  0
LINE
  5
68C
330
544
100
AcDbEntity
  8
0
 62
     0
440
 16777216
370
    -2
100
AcDbLine
 10
242.4388062686511
 20
-23.5526166293422
 30
0.0
 11
242.4388062686511
 21
-16.15608315140446
 31
0.0
  0
LINE
  5
68D
330
544
100
AcDbEntity
  8
0
 62
     0
440
 16777216
370
    -2
100
AcDbLine
 10
249.8772806381411
 20
-17.40608315140446
 30
0.0
 11
244.9388062686511
 21
-17.40608315140446
 31
0.0
  0
INSERT
  5
68E
330
544
100
AcDbEntity
  8
0
 62
     0
440
 16777216
370
    -2
100
AcDbBlockReference
  2
_Open30
 10
252.3772806381411
 20
-17.40608315140446
 30
0.0
 41
2.5
 42
2.5
 43
2.5
  0
INSERT
  5
68F
330
544
100
AcDbEntity
  8
0
 62
     0
440
 16777216
370
    -2
100
AcDbBlockReference
  2
_Open30
 10
242.4388062686511
 20
-17.40608315140446
 30
0.0
 41
2.5
 42
2.5
 43
2.5
 50
180.0
  0
MTEXT
  5
690
330
544
100
AcDbEntity
  8
0
 62
     4
440
 16777216
100
AcDbMText
 10
247.4080434533961
 20
-14.33108315140446
 30
0.0
 40
3.0
 41
0.0
 71
     5
 72
     1
  1
9.94\H0.7X;\S+0^ -0.02;
 73
     1
 44
1.0
  0
POINT
  5
691
330
544
100
AcDbEntity
  8
Defpoints
 62
     0
440
 16777216
100
AcDbPoint
 10
252.3772806381411
 20
-23.8026166293422
 30
0.0
  0
POINT
  5
692
330
544
100
AcDbEntity
  8
Defpoints
 62
     0
440
 16777216
100
AcDbPoint
 10
242.4388062686511
 20
-23.8026166293422
 30
0.0
  0
POINT
  5
693
330
544
100
AcDbEntity
  8
Defpoints
 62
     0
440
 16777216
100
AcDbPoint
 10
242.4388062686511
 20
-17.40608315140446
 30
0.0
  0
ENDBLK
  5
546
330
544
100
AcDbEntity
  8
0
100
AcDbBlockEnd
  0
BLOCK
  5
696
330
695
100
AcDbEntity
  8
0
100
AcDbBlockBegin
  2
*D28
 70
     1
 10
0.0
 20
0.0
 30
0.0
  3
*D28
  1

  0
LINE
  5
6EE
330
695
100
AcDbEntity
  8
0
 62
     0
440
 16777216
370
    -2
100
AcDbLine
 10
84.19051600000001
 20
21.264832
 30
0.0
 11
84.19051600000001
 21
-3.198996999999998
 31
0.0
  0
LINE
  5
6EF
330
695
100
AcDbEntity
  8
0
 62
     0
440
 16777216
370
    -2
100
AcDbLine
 10
114.690516
 20
21.264832
 30
0.0
 11
114.690516
 21
-3.198996999999998
 31
0.0
  0
LINE
  5
6F0
330
695
100
AcDbEntity
  8
0
 62
     0
440
 16777216
370
    -2
100
AcDbLine
 10
86.69051600000001
 20
-1.948997
 30
0.0
 11
112.190516
 21
-1.948997
 31
0.0
  0
INSERT
  5
6F1
330
695
100
AcDbEntity
  8
0
 62
     0
440
 16777216
370
    -2
100
AcDbBlockReference
  2
_Open30
 10
84.19051600000001
 20
-1.948997
 30
0.0
 41
2.5
 42
2.5
 43
2.5
 50
180.0
  0
INSERT
  5
6F2
330
695
100
AcDbEntity
  8
0
 62
     0
440
 16777216
370
    -2
100
AcDbBlockReference
  2
_Open30
 10
114.690516
 20
-1.948997
 30
0.0
 41
2.5
 42
2.5
 43
2.5
  0
MTEXT
  5
6F3
330
695
100
AcDbEntity
  8
0
 62
     4
440
 16777216
100
AcDbMText
 10
99.44051600000001
 20
0.1760029999999999
 30
0.0
 40
3.0
 41
0.0
 71
     5
 72
     1
  1
%%C61
 73
     1
 44
1.0
  0
POINT
  5
6F4
330
695
100
AcDbEntity
  8
Defpoints
 62
     0
440
 16777216
100
AcDbPoint
 10
84.19051600000001
 20
21.514832
 30
0.0
  0
POINT
  5
6F5
330
695
100
AcDbEntity
  8
Defpoints
 62
     0
440
 16777216
100
AcDbPoint
 10
114.690516
 20
21.514832
 30
0.0
  0
POINT
  5
6F6
330
695
100
AcDbEntity
  8
Defpoints
 62
     0
440
 16777216
100
AcDbPoint
 10
114.690516
 20
-1.948997
 30
0.0
  0
ENDBLK
  5
697
330
695
100
AcDbEntity
  8
0
100
AcDbBlockEnd
  0
BLOCK
  5
6B3
330
6B2
100
AcDbEntity
  8
0
100
AcDbBlockBegin
  2
*D30
 70
     1
 10
0.0
 20
0.0
 30
0.0
  3
*D30
  1

  0
LINE
  5
709
330
6B2
100
AcDbEntity
  8
0
 62
     0
440
 16777216
370
    -2
100
AcDbLine
 10
-118.707829
 20
21.269245
 30
0.0
 11
-118.707829
 21
-3.198996999999998
 31
0.0
  0
LINE
  5
70A
330
6B2
100
AcDbEntity
  8
0
 62
     0
440
 16777216
370
    -2
100
AcDbLine
 10
-85.70782900000002
 20
21.269245
 30
0.0
 11
-85.70782900000002
 21
-3.198996999999998
 31
0.0
  0
LINE
  5
70B
330
6B2
100
AcDbEntity
  8
0
 62
     0
440
 16777216
370
    -2
100
AcDbLine
 10
-116.207829
 20
-1.948997
 30
0.0
 11
-88.20782900000002
 21
-1.948997
 31
0.0
  0
INSERT
  5
70C
330
6B2
100
AcDbEntity
  8
0
 62
     0
440
 16777216
370
    -2
100
AcDbBlockReference
  2
_Open30
 10
-118.707829
 20
-1.948997
 30
0.0
 41
2.5
 42
2.5
 43
2.5
 50
180.0
  0
INSERT
  5
70D
330
6B2
100
AcDbEntity
  8
0
 62
     0
440
 16777216
370
    -2
100
AcDbBlockReference
  2
_Open30
 10
-85.70782900000002
 20
-1.948997
 30
0.0
 41
2.5
 42
2.5
 43
2.5
  0
MTEXT
  5
70E
330
6B2
100
AcDbEntity
  8
0
 62
     4
440
 16777216
100
AcDbMText
 10
-102.207829
 20
0.1760029999999999
 30
0.0
 40
3.0
 41
0.0
 71
     5
 72
     1
  1
%%C65
 73
     1
 44
1.0
  0
POINT
  5
70F
330
6B2
100
AcDbEntity
  8
Defpoints
 62
     0
440
 16777216
100
AcDbPoint
 10
-118.707829
 20
21.519245
 30
0.0
  0
POINT
  5
710
330
6B2
100
AcDbEntity
  8
Defpoints
 62
     0
440
 16777216
100
AcDbPoint
 10
-85.70782900000002
 20
21.519245
 30
0.0
  0
POINT
  5
711
330
6B2
100
AcDbEntity
  8
Defpoints
 62
     0
440
 16777216
100
AcDbPoint
 10
-85.70782900000002
 20
-1.948997
 30
0.0
  0
ENDBLK
  5
6B4
330
6B2
100
AcDbEntity
  8
0
100
AcDbBlockEnd
  0
BLOCK
  5
6BF
330
6BE
100
AcDbEntity
  8
0
100
AcDbBlockBegin
  2
*D31
 70
     1
 10
0.0
 20
0.0
 30
0.0
  3
*D31
  1

  0
LINE
  5
700
330
6BE
100
AcDbEntity
  8
0
 62
     0
440
 16777216
370
    -2
100
AcDbLine
 10
-68.81026300000001
 20
5.055438999999998
 30
0.0
 11
-68.81026300000001
 21
-3.198997
 31
0.0
  0
LINE
  5
701
330
6BE
100
AcDbEntity
  8
0
 62
     0
440
 16777216
370
    -2
100
AcDbLine
 10
-16.310263
 20
18.305439
 30
0.0
 11
-16.310263
 21
-3.198996999999998
 31
0.0
  0
LINE
  5
702
330
6BE
100
AcDbEntity
  8
0
 62
     0
440
 16777216
370
    -2
100
AcDbLine
 10
-66.31026300000001
 20
-1.948997
 30
0.0
 11
-18.810263
 21
-1.948997
 31
0.0
  0
INSERT
  5
703
330
6BE
100
AcDbEntity
  8
0
 62
     0
440
 16777216
370
    -2
100
AcDbBlockReference
  2
_Open30
 10
-68.81026300000001
 20
-1.948997
 30
0.0
 41
2.5
 42
2.5
 43
2.5
 50
180.0
  0
INSERT
  5
704
330
6BE
100
AcDbEntity
  8
0
 62
     0
440
 16777216
370
    -2
100
AcDbBlockReference
  2
_Open30
 10
-16.310263
 20
-1.948997
 30
0.0
 41
2.5
 42
2.5
 43
2.5
  0
MTEXT
  5
705
330
6BE
100
AcDbEntity
  8
0
 62
     4
440
 16777216
100
AcDbMText
 10
-42.56026300000001
 20
0.1760029999999999
 30
0.0
 40
3.0
 41
0.0
 71
     5
 72
     1
  1
105
 73
     1
 44
1.0
  0
POINT
  5
706
330
6BE
100
AcDbEntity
  8
Defpoints
 62
     0
440
 16777216
100
AcDbPoint
 10
-68.81026300000001
 20
5.305438999999998
 30
0.0
  0
POINT
  5
707
330
6BE
100
AcDbEntity
  8
Defpoints
 62
     0
440
 16777216
100
AcDbPoint
 10
-16.310263
 20
18.555439
 30
0.0
  0
POINT
  5
708
330
6BE
100
AcDbEntity
  8
Defpoints
 62
     0
440
 16777216
100
AcDbPoint
 10
-16.310263
 20
-1.948997
 30
0.0
  0
ENDBLK
  5
6C0
330
6BE
100
AcDbEntity
  8
0
100
AcDbBlockEnd
  0
BLOCK
  5
6CB
330
6CA
100
AcDbEntity
  8
0
100
AcDbBlockBegin
  2
*D32
 70
     1
 10
0.0
 20
0.0
 30
0.0
  3
*D32
  1

  0
LINE
  5
6F7
330
6CA
100
AcDbEntity
  8
0
 62
     0
440
 16777216
370
    -2
100
AcDbLine
 10
7.153296
 20
18.305439
 30
0.0
 11
7.153296
 21
-3.198996999999998
 31
0.0
  0
LINE
  5
6F8
330
6CA
100
AcDbEntity
  8
0
 62
     0
440
 16777216
370
    -2
100
AcDbLine
 10
59.403296
 20
7.293294
 30
0.0
 11
59.403296
 21
-3.198996999999999
 31
0.0
  0
LINE
  5
6F9
330
6CA
100
AcDbEntity
  8
0
 62
     0
440
 16777216
370
    -2
100
AcDbLine
 10
9.653296
 20
-1.948997
 30
0.0
 11
56.903296
 21
-1.948997
 31
0.0
  0
INSERT
  5
6FA
330
6CA
100
AcDbEntity
  8
0
 62
     0
440
 16777216
370
    -2
100
AcDbBlockReference
  2
_Open30
 10
7.153296
 20
-1.948997
 30
0.0
 41
2.5
 42
2.5
 43
2.5
 50
180.0
  0
INSERT
  5
6FB
330
6CA
100
AcDbEntity
  8
0
 62
     0
440
 16777216
370
    -2
100
AcDbBlockReference
  2
_Open30
 10
59.403296
 20
-1.948997
 30
0.0
 41
2.5
 42
2.5
 43
2.5
  0
MTEXT
  5
6FC
330
6CA
100
AcDbEntity
  8
0
 62
     4
440
 16777216
100
AcDbMText
 10
33.278296
 20
0.1760029999999999
 30
0.0
 40
3.0
 41
0.0
 71
     5
 72
     1
  1
104
 73
     1
 44
1.0
  0
POINT
  5
6FD
330
6CA
100
AcDbEntity
  8
Defpoints
 62
     0
440
 16777216
100
AcDbPoint
 10
7.153296
 20
18.555439
 30
0.0
  0
POINT
  5
6FE
330
6CA
100
AcDbEntity
  8
Defpoints
 62
     0
440
 16777216
100
AcDbPoint
 10
59.403296
 20
7.543294
 30
0.0
  0
POINT
  5
6FF
330
6CA
100
AcDbEntity
  8
Defpoints
 62
     0
440
 16777216
100
AcDbPoint
 10
59.403296
 20
-1.948997
 30
0.0
  0
ENDBLK
  5
6CC
330
6CA
100
AcDbEntity
  8
0
100
AcDbBlockEnd
  0
BLOCK
  5
713
330
712
100
AcDbEntity
  8
0
100
AcDbBlockBegin
  2
*D33
 70
     1
 10
0.0
 20
0.0
 30
0.0
  3
*D33
  1

  0
LINE
  5
773
330
712
100
AcDbEntity
  8
0
 62
     0
440
 16777216
370
    -2
100
AcDbLine
 10
-68.81026300000001
 20
5.055438999999998
 30
0.0
 11
-68.81026300000001
 21
-11.032624
 31
0.0
  0
LINE
  5
774
330
712
100
AcDbEntity
  8
0
 62
     0
440
 16777216
370
    -2
100
AcDbLine
 10
59.403296
 20
7.293294
 30
0.0
 11
59.403296
 21
-11.032624
 31
0.0
  0
LINE
  5
775
330
712
100
AcDbEntity
  8
0
 62
     0
440
 16777216
370
    -2
100
AcDbLine
 10
-66.31026300000001
 20
-9.782624
 30
0.0
 11
56.903296
 21
-9.782624
 31
0.0
  0
INSERT
  5
776
330
712
100
AcDbEntity
  8
0
 62
     0
440
 16777216
370
    -2
100
AcDbBlockReference
  2
_Open30
 10
-68.81026300000001
 20
-9.782624
 30
0.0
 41
2.5
 42
2.5
 43
2.5
 50
180.0
  0
INSERT
  5
777
330
712
100
AcDbEntity
  8
0
 62
     0
440
 16777216
370
    -2
100
AcDbBlockReference
  2
_Open30
 10
59.403296
 20
-9.782624
 30
0.0
 41
2.5
 42
2.5
 43
2.5
  0
MTEXT
  5
778
330
712
100
AcDbEntity
  8
0
 62
     4
440
 16777216
100
AcDbMText
 10
-4.703483500000004
 20
-7.657624
 30
0.0
 40
3.0
 41
0.0
 71
     5
 72
     1
  1
電線長さ
 73
     1
 44
1.0
  0
POINT
  5
779
330
712
100
AcDbEntity
  8
Defpoints
 62
     0
440
 16777216
100
AcDbPoint
 10
-68.81026300000001
 20
5.305438999999998
 30
0.0
  0
POINT
  5
77A
330
712
100
AcDbEntity
  8
Defpoints
 62
     0
440
 16777216
100
AcDbPoint
 10
59.403296
 20
7.543294
 30
0.0
  0
POINT
  5
77B
330
712
100
AcDbEntity
  8
Defpoints
 62
     0
440
 16777216
100
AcDbPoint
 10
59.403296
 20
-9.782624
 30
0.0
  0
ENDBLK
  5
714
330
712
100
AcDbEntity
  8
0
100
AcDbBlockEnd
  0
ENDSEC
  0
SECTION
  2
ENTITIES
  0
LINE
  5
B6
330
36
100
AcDbEntity
  8
0
 62
     3
100
AcDbLine
 10
0.0
 20
100.472617
 30
0.0
 11
0.0
 21
99.22405799999999
 31
0.0
  0
LINE
  5
B7
330
36
100
AcDbEntity
  8
0
 62
     3
100
AcDbLine
 10
-29.810263
 20
15.305439
 30
0.0
 11
-29.810263
 21
21.555439
 31
0.0
  0
LINE
  5
B8
330
36
100
AcDbEntity
  8
0
 62
     3
100
AcDbLine
 10
-35.117045
 20
11.914995
 30
0.0
 11
-29.810263
 21
15.305439
 31
0.0
  0
LINE
  5
B9
330
36
100
AcDbEntity
  8
0
 62
     3
100
AcDbLine
 10
-16.310263
 20
16.555439
 30
0.0
 11
-16.310263
 21
21.555439
 31
0.0
  0
LINE
  5
BA
330
36
100
AcDbEntity
  8
0
 62
     3
100
AcDbLine
 10
-18.810263
 20
16.555439
 30
0.0
 11
-18.810263
 21
21.555439
 31
0.0
  0
ARC
  5
BB
330
36
100
AcDbEntity
  8
0
 62
     3
100
AcDbCircle
 10
-17.560263
 20
16.555439
 30
0.0
 40
1.25
100
AcDbArc
 50
180.0
 51
0.0
  0
LINE
  5
BC
330
36
100
AcDbEntity
  8
0
 62
     3
100
AcDbLine
 10
-18.810263
 20
16.555439
 30
0.0
 11
-29.810263
 21
15.305439
 31
0.0
  0
LINE
  5
BD
330
36
100
AcDbEntity
  8
0
 62
     3
100
AcDbLine
 10
-29.810263
 20
27.805439
 30
0.0
 11
-29.810263
 21
21.555439
 31
0.0
  0
LINE
  5
BE
330
36
100
AcDbEntity
  8
0
 62
     3
100
AcDbLine
 10
-35.117045
 20
31.195883
 30
0.0
 11
-29.810263
 21
27.805439
 31
0.0
  0
LINE
  5
BF
330
36
100
AcDbEntity
  8
0
 62
     3
100
AcDbLine
 10
-16.310263
 20
26.555439
 30
0.0
 11
-16.310263
 21
21.555439
 31
0.0
  0
LINE
  5
C0
330
36
100
AcDbEntity
  8
0
 62
     3
100
AcDbLine
 10
-18.810263
 20
26.555439
 30
0.0
 11
-18.810263
 21
21.555439
 31
0.0
  0
ARC
  5
C1
330
36
100
AcDbEntity
  8
0
 62
     3
100
AcDbCircle
 10
-17.560263
 20
26.555439
 30
0.0
 40
1.25
100
AcDbArc
 50
0.0
 51
180.0
  0
LINE
  5
C2
330
36
100
AcDbEntity
  8
0
 62
     3
100
AcDbLine
 10
-18.810263
 20
26.555439
 30
0.0
 11
-29.810263
 21
27.805439
 31
0.0
  0
ARC
  5
CC
330
36
100
AcDbEntity
  8
0
 62
     3
100
AcDbCircle
 10
-59.490915
 20
7.055438999999998
 30
0.0
 40
1.5
100
AcDbArc
 50
270.0
 51
318.814075
  0
LINE
  5
CD
330
36
100
AcDbEntity
  8
0
 62
     3
100
AcDbLine
 10
-58.36205
 20
37.043196
 30
0.0
 11
-55.310263
 21
33.555439
 31
0.0
  0
ARC
  5
CE
330
36
100
AcDbEntity
  8
0
 62
     3
100
AcDbCircle
 10
-59.490915
 20
36.055439
 30
0.0
 40
1.5
100
AcDbArc
 50
41.185925
 51
90.0
  0
LINE
  5
CF
330
36
100
AcDbEntity
  8
0
 62
     3
100
AcDbLine
 10
-68.81026300000001
 20
37.805439
 30
0.0
 11
-68.81026300000001
 21
21.555439
 31
0.0
  0
LINE
  5
D0
330
36
100
AcDbEntity
  8
0
 62
     3
100
AcDbLine
 10
-68.560263
 20
38.055439
 30
0.0
 11
-66.000089
 21
38.055439
 31
0.0
  0
ARC
  5
D1
330
36
100
AcDbEntity
  8
0
 62
     3
100
AcDbCircle
 10
-66.000089
 20
37.805439
 30
0.0
 40
0.25
100
AcDbArc
 50
0.0
 51
90.0
  0
ARC
  5
D2
330
36
100
AcDbEntity
  8
0
 62
     3
100
AcDbCircle
 10
-68.560263
 20
37.805439
 30
0.0
 40
0.25
100
AcDbArc
 50
90.0
 51
180.0
  0
LINE
  5
D3
330
36
100
AcDbEntity
  8
0
 62
     3
100
AcDbLine
 10
-68.81026300000001
 20
5.305438999999998
 30
0.0
 11
-68.81026300000001
 21
21.555439
 31
0.0
  0
LINE
  5
D4
330
36
100
AcDbEntity
  8
0
 62
     3
100
AcDbLine
 10
-58.36205
 20
6.067681999999997
 30
0.0
 11
-55.310263
 21
9.555438999999999
 31
0.0
  0
ARC
  5
D5
330
36
100
AcDbEntity
  8
0
 62
     3
100
AcDbCircle
 10
-66.000089
 20
5.305438999999998
 30
0.0
 40
0.25
100
AcDbArc
 50
270.0
 51
0.0
  0
LINE
  5
D6
330
36
100
AcDbEntity
  8
0
 62
     3
100
AcDbLine
 10
-68.560263
 20
5.055438999999998
 30
0.0
 11
-66.000089
 21
5.055438999999998
 31
0.0
  0
ARC
  5
D7
330
36
100
AcDbEntity
  8
0
 62
     3
100
AcDbCircle
 10
-68.560263
 20
5.305438999999998
 30
0.0
 40
0.25
100
AcDbArc
 50
180.0
 51
270.0
  0
LINE
  5
D8
330
36
100
AcDbEntity
  8
0
 62
     3
100
AcDbLine
 10
-58.801825
 20
37.387788
 30
0.0
 11
-58.801825
 21
6.067681999999997
 31
0.0
  0
LINE
  5
D9
330
36
100
AcDbEntity
  8
0
 62
     3
100
AcDbLine
 10
-63.250089
 20
5.305438999999998
 30
0.0
 11
-63.250089
 21
37.805439
 31
0.0
  0
LINE
  5
DA
330
36
100
AcDbEntity
  8
0
 62
     3
100
AcDbLine
 10
-61.750089
 20
5.305438999999998
 30
0.0
 11
-61.750089
 21
37.805439
 31
0.0
  0
LINE
  5
DB
330
36
100
AcDbEntity
  8
0
 62
     3
100
AcDbLine
 10
-65.750089
 20
37.805439
 30
0.0
 11
-65.750089
 21
5.305438999999998
 31
0.0
  0
LINE
  5
DC
330
36
100
AcDbEntity
  8
0
 62
     3
100
AcDbLine
 10
-63.000089
 20
38.055439
 30
0.0
 11
-62.000089
 21
38.055439
 31
0.0
  0
LINE
  5
DD
330
36
100
AcDbEntity
  8
0
 62
     3
100
AcDbLine
 10
-62.000089
 20
5.055438999999998
 30
0.0
 11
-63.000089
 21
5.055438999999998
 31
0.0
  0
LINE
  5
DE
330
36
100
AcDbEntity
  8
0
 62
     3
100
AcDbLine
 10
-59.490915
 20
37.555439
 30
0.0
 11
-61.750089
 21
37.555439
 31
0.0
  0
LINE
  5
DF
330
36
100
AcDbEntity
  8
0
 62
     3
100
AcDbLine
 10
-63.250089
 20
37.555439
 30
0.0
 11
-65.750089
 21
37.555439
 31
0.0
  0
LINE
  5
E0
330
36
100
AcDbEntity
  8
0
 62
     3
100
AcDbLine
 10
-59.490915
 20
5.555438999999998
 30
0.0
 11
-61.750089
 21
5.555438999999998
 31
0.0
  0
LINE
  5
E1
330
36
100
AcDbEntity
  8
0
 62
     3
100
AcDbLine
 10
-63.250089
 20
5.555438999999998
 30
0.0
 11
-65.750089
 21
5.555438999999998
 31
0.0
  0
ARC
  5
E2
330
36
100
AcDbEntity
  8
0
 62
     3
100
AcDbCircle
 10
-62.000089
 20
37.805439
 30
0.0
 40
0.25
100
AcDbArc
 50
0.0
 51
90.0
  0
ARC
  5
E3
330
36
100
AcDbEntity
  8
0
 62
     3
100
AcDbCircle
 10
-63.000089
 20
37.805439
 30
0.0
 40
0.25
100
AcDbArc
 50
90.0
 51
180.0
  0
ARC
  5
E4
330
36
100
AcDbEntity
  8
0
 62
     3
100
AcDbCircle
 10
-63.000089
 20
5.305438999999998
 30
0.0
 40
0.25
100
AcDbArc
 50
180.0
 51
270.0
  0
ARC
  5
E5
330
36
100
AcDbEntity
  8
0
 62
     3
100
AcDbCircle
 10
-62.000089
 20
5.305438999999998
 30
0.0
 40
0.25
100
AcDbArc
 50
270.0
 51
0.0
  0
CIRCLE
  5
E6
330
36
100
AcDbEntity
  8
0
 62
     3
100
AcDbCircle
 10
-102.207829
 20
21.519245
 30
0.0
 40
13.5
  0
CIRCLE
  5
E7
330
36
100
AcDbEntity
  8
0
 62
     3
100
AcDbCircle
 10
-102.207829
 20
21.519245
 30
0.0
 40
16.5
  0
LINE
  5
E8
330
36
100
AcDbEntity
  8
0
 62
     3
100
AcDbLine
 10
7.153296
 20
25.059822
 30
0.0
 11
7.153296
 21
18.026767
 31
0.0
  0
LINE
  5
E9
330
36
100
AcDbEntity
  8
0
 62
     3
100
AcDbLine
 10
8.136630999999999
 20
26.059683
 30
0.0
 11
22.153296
 21
26.293294
 31
0.0
  0
LINE
  5
EA
330
36
100
AcDbEntity
  8
0
 62
     3
100
AcDbLine
 10
8.136630999999999
 20
17.026905
 30
0.0
 11
22.153296
 21
16.793294
 31
0.0
  0
LINE
  5
EB
330
36
100
AcDbEntity
  8
0
 62
     3
100
AcDbLine
 10
51.40329600000001
 20
35.543294
 30
0.0
 11
51.40329600000001
 21
7.543294
 31
0.0
  0
LINE
  5
EC
330
36
100
AcDbEntity
  8
0
 62
     3
100
AcDbLine
 10
51.40329600000001
 20
35.543294
 30
0.0
 11
53.903296
 21
35.543294
 31
0.0
  0
LINE
  5
ED
330
36
100
AcDbEntity
  8
0
 62
     3
100
AcDbLine
 10
59.403296
 20
7.543294
 30
0.0
 11
59.403296
 21
35.543294
 31
0.0
  0
LINE
  5
EE
330
36
100
AcDbEntity
  8
0
 62
     3
100
AcDbLine
 10
51.40329600000001
 20
35.543294
 30
0.0
 11
49.903296
 21
34.043294
 31
0.0
  0
LINE
  5
EF
330
36
100
AcDbEntity
  8
0
 62
     3
100
AcDbLine
 10
51.40329600000001
 20
7.543294
 30
0.0
 11
49.903296
 21
9.043293999999999
 31
0.0
  0
ARC
  5
F0
330
36
100
AcDbEntity
  8
0
 62
     3
100
AcDbCircle
 10
56.15329599999999
 20
8.943293999999998
 30
0.0
 40
2.649999999999999
100
AcDbArc
 50
211.890792
 51
328.109208
  0
ARC
  5
F1
330
36
100
AcDbEntity
  8
0
 62
     3
100
AcDbCircle
 10
56.15329599999999
 20
34.143294
 30
0.0
 40
2.649999999999999
100
AcDbArc
 50
31.890792
 51
148.109208
  0
LINE
  5
F2
330
36
100
AcDbEntity
  8
0
 62
     3
100
AcDbLine
 10
58.403296
 20
35.543294
 30
0.0
 11
59.403296
 21
35.543294
 31
0.0
  0
LINE
  5
F3
330
36
100
AcDbEntity
  8
0
 62
     3
100
AcDbLine
 10
51.40329600000001
 20
7.543294
 30
0.0
 11
53.903296
 21
7.543294
 31
0.0
  0
LINE
  5
F4
330
36
100
AcDbEntity
  8
0
 62
     3
100
AcDbLine
 10
58.403296
 20
7.543294
 30
0.0
 11
59.403296
 21
7.543294
 31
0.0
  0
ARC
  5
F5
330
36
100
AcDbEntity
  8
0
 62
     3
100
AcDbCircle
 10
8.153296
 20
18.026767
 30
0.0
 40
1.0
100
AcDbArc
 50
180.0
 51
269.045159
  0
ARC
  5
F6
330
36
100
AcDbEntity
  8
0
 62
     3
100
AcDbCircle
 10
8.153296
 20
25.059822
 30
0.0
 40
1.0
100
AcDbArc
 50
90.954841
 51
180.0
  0
LINE
  5
F7
330
36
100
AcDbEntity
  8
0
 62
     3
100
AcDbLine
 10
-16.310263
 20
24.555439
 30
0.0
 11
-10.68377
 21
24.555439
 31
0.0
  0
LINE
  5
F8
330
36
100
AcDbEntity
  8
0
 62
     3
100
AcDbLine
 10
-16.310263
 20
18.555439
 30
0.0
 11
-10.68377
 21
18.555439
 31
0.0
  0
LINE
  5
F9
330
36
100
AcDbEntity
  8
0
 62
     3
100
AcDbLine
 10
-88.77921489257014
 20
-27.87129600441938
 30
0.0
 11
-88.77921489257014
 21
-76.87129600441938
 31
0.0
  0
TEXT
  5
FA
330
36
100
AcDbEntity
  8
0
 62
     3
100
AcDbText
 10
-86.77921489257014
 20
-40.87129600441936
 30
0.0
 40
4.5
  1
型       式
 41
0.8
  7
高4.5
100
AcDbText
  0
TEXT
  5
FC
330
36
100
AcDbEntity
  8
0
 62
     3
100
AcDbText
 10
-86.77921489257014
 20
-47.87129600441935
 30
0.0
 40
4.5
  1
電 線 長 さ
 41
0.8
  7
高4.5
100
AcDbText
  0
TEXT
  5
100
330
36
100
AcDbEntity
  8
0
 62
     3
100
AcDbText
 10
-86.77921489257014
 20
-54.87129600441936
 30
0.0
 40
4.5
  1
電 線 仕 様
 41
0.8
  7
高4.5
100
AcDbText
  0
TEXT
  5
104
330
36
100
AcDbEntity
  8
0
 62
     3
100
AcDbText
 10
-86.77921489257014
 20
-61.87129600441939
 30
0.0
 40
4.5
  1
電線許容電流
 41
0.8
  7
高4.5
100
AcDbText
  0
TEXT
  5
105
330
36
100
AcDbEntity
  8
0
 62
     3
100
AcDbText
 10
-86.77921489257014
 20
-75.87129600441937
 30
0.0
 40
4.5
  1
電   線   色
 41
0.8
  7
高4.5
100
AcDbText
  0
LINE
  5
108
330
36
100
AcDbEntity
  8
0
 62
     3
100
AcDbLine
 10
-88.77921489257014
 20
-27.87129600441938
 30
0.0
 11
-10.01907090335762
 21
-27.87129600441938
 31
0.0
  0
LINE
  5
109
330
36
100
AcDbEntity
  8
0
 62
     7
100
AcDbLine
 10
-10.01907090335762
 20
-69.87129600441938
 30
0.0
 11
-88.77921489257014
 21
-69.87129600441938
 31
0.0
  0
LINE
  5
113
330
36
100
AcDbEntity
  8
0
 62
     3
100
AcDbLine
 10
-5.301251999999998
 20
24.555439
 30
0.0
 11
-10.416897
 21
24.555439
 31
0.0
  0
LINE
  5
114
330
36
100
AcDbEntity
  8
0
 62
     3
100
AcDbLine
 10
-2.882954
 20
24.555439
 30
0.0
 11
7.153296
 21
24.555439
 31
0.0
  0
LINE
  5
115
330
36
100
AcDbEntity
  8
0
 62
     3
100
AcDbLine
 10
-5.493098
 20
18.555439
 30
0.0
 11
-10.608743
 21
18.555439
 31
0.0
  0
LINE
  5
116
330
36
100
AcDbEntity
  8
0
 62
     3
100
AcDbLine
 10
-3.086759999999998
 20
18.555439
 30
0.0
 11
7.153296
 21
18.555439
 31
0.0
  0
TEXT
  5
117
330
36
100
AcDbEntity
  8
0
 62
     3
100
AcDbText
 10
41.921296
 20
-58.062013
 30
0.0
 40
4.5
  1
防雨型200V延長コード
 41
0.7
  7
高4.5
100
AcDbText
  0
TEXT
  5
118
330
36
100
AcDbEntity
  8
0
 62
     3
100
AcDbText
 10
104.333651
 20
-78.280998
 30
0.0
 40
3.2
  1
2003.2.27
  7
高3.2
100
AcDbText
  0
LINE
  5
119
330
36
100
AcDbEntity
  8
0
 62
     3
100
AcDbLine
 10
-10.01907090335762
 20
-27.87129600441938
 30
0.0
 11
-10.01907090335762
 21
-76.87129600441938
 31
0.0
  0
LINE
  5
11A
330
36
100
AcDbEntity
  8
0
 62
     7
100
AcDbLine
 10
-57.01719889257015
 20
-34.87129600441938
 30
0.0
 11
-57.01719889257014
 21
-76.87129600441936
 31
0.0
  0
LINE
  5
11B
330
36
100
AcDbEntity
  8
0
 62
     7
100
AcDbLine
 10
-10.01907090335762
 20
-48.87129600441936
 30
0.0
 11
-88.77921489257014
 21
-48.87129600441936
 31
0.0
  0
LINE
  5
11C
330
36
100
AcDbEntity
  8
0
 62
     7
100
AcDbLine
 10
-10.01907090335762
 20
-55.87129600441937
 30
0.0
 11
-88.77921489257014
 21
-55.87129600441937
 31
0.0
  0
LINE
  5
11D
330
36
100
AcDbEntity
  8
0
 62
     7
100
AcDbLine
 10
-10.01907090335762
 20
-62.87129600441939
 30
0.0
 11
-88.77921489257014
 21
-62.87129600441939
 31
0.0
  0
TEXT
  5
11E
330
36
100
AcDbEntity
  8
0
 62
     3
100
AcDbText
 10
-55.01719889257014
 20
-61.87129600441939
 30
0.0
 40
4.5
  1
19A
 41
0.8
  7
高4.5
100
AcDbText
  0
TEXT
  5
11F
330
36
100
AcDbEntity
  8
0
 62
     3
100
AcDbText
 10
-55.01719889257014
 20
-75.87129600441937
 30
0.0
 40
4.5
  1
黒
 41
0.8
  7
高4.5
100
AcDbText
  0
TEXT
  5
120
330
36
100
AcDbEntity
  8
0
 62
     3
100
AcDbText
 10
-55.01719889257015
 20
-47.87129600441935
 30
0.0
 40
4.5
  1
5m
 41
0.8
  7
高4.5
100
AcDbText
  0
TEXT
  5
121
330
36
100
AcDbEntity
  8
0
 62
     3
100
AcDbText
 10
-86.77921489257014
 20
-33.87129600441938
 30
0.0
 40
4.5
  1
主　仕　様　　(防雨.防塵型)
  7
高4.5
100
AcDbText
  0
TEXT
  5
12E
330
36
100
AcDbEntity
  8
0
 62
     3
100
AcDbText
 10
72.486793
 20
-78.326103
 30
0.0
 40
3.2
  1
FREE
  7
高3.2
100
AcDbText
  0
LINE
  5
12F
330
36
100
AcDbEntity
  8
0
 62
     3
100
AcDbLine
 10
-138.5
 20
90.0
 30
0.0
 11
-138.5
 21
-90.0
 31
0.0
  0
LINE
  5
130
330
36
100
AcDbEntity
  8
0
 62
     3
100
AcDbLine
 10
138.5
 20
-90.0
 30
0.0
 11
138.5
 21
90.0
 31
0.0
  0
LINE
  5
131
330
36
100
AcDbEntity
  8
0
 62
     3
100
AcDbLine
 10
-138.5
 20
-90.0
 30
0.0
 11
138.5
 21
-90.0
 31
0.0
  0
LINE
  5
132
330
36
100
AcDbEntity
  8
0
 62
     3
100
AcDbLine
 10
-138.5
 20
90.0
 30
0.0
 11
138.5
 21
90.0
 31
0.0
  0
LINE
  5
138
330
36
100
AcDbEntity
  8
0
 62
     3
100
AcDbLine
 10
22.153296
 20
26.543294
 30
0.0
 11
22.153296
 21
16.543294
 31
0.0
  0
LINE
  5
139
330
36
100
AcDbEntity
  8
0
 62
     3
100
AcDbLine
 10
26.653296
 20
27.293294
 30
0.0
 11
26.653296
 21
15.793294
 31
0.0
  0
ARC
  5
13A
330
36
100
AcDbEntity
  8
0
 62
     3
100
AcDbCircle
 10
24.403296
 20
26.543294
 30
0.0
 40
2.25
100
AcDbArc
 50
0.0
 51
180.0
  0
ARC
  5
13B
330
36
100
AcDbEntity
  8
0
 62
     3
100
AcDbCircle
 10
24.403296
 20
16.543294
 30
0.0
 40
2.25
100
AcDbArc
 50
180.0
 51
0.0
  0
LINE
  5
13C
330
36
100
AcDbEntity
  8
0
 62
     3
100
AcDbLine
 10
32.592116
 20
27.293294
 30
0.0
 11
26.653296
 21
27.293294
 31
0.0
  0
LINE
  5
13D
330
36
100
AcDbEntity
  8
0
 62
     3
100
AcDbLine
 10
32.592116
 20
15.793294
 30
0.0
 11
26.653296
 21
15.793294
 31
0.0
  0
ARC
  5
13E
330
36
100
AcDbEntity
  8
0
 62
     3
100
AcDbCircle
 10
32.592116
 20
31.293294
 30
0.0
 40
4.0
100
AcDbArc
 50
270.0
 51
323.7784529999999
  0
ARC
  5
13F
330
36
100
AcDbEntity
  8
0
 62
     3
100
AcDbCircle
 10
32.592116
 20
11.793294
 30
0.0
 40
4.0
100
AcDbArc
 50
36.22154699999999
 51
90.0
  0
ARC
  5
140
330
36
100
AcDbEntity
  8
0
 62
     3
100
AcDbCircle
 10
45.903296
 20
21.543294
 30
0.0
 40
12.5
100
AcDbArc
 50
90.0
 51
143.778453
  0
ARC
  5
141
330
36
100
AcDbEntity
  8
0
 62
     3
100
AcDbCircle
 10
45.903296
 20
21.543294
 30
0.0
 40
12.5
100
AcDbArc
 50
216.221547
 51
270.0
  0
LINE
  5
142
330
36
100
AcDbEntity
  8
0
 62
     3
100
AcDbLine
 10
49.903296
 20
9.043293999999999
 30
0.0
 11
45.903296
 21
9.043293999999999
 31
0.0
  0
LINE
  5
143
330
36
100
AcDbEntity
  8
0
 62
     3
100
AcDbLine
 10
49.903296
 20
34.043294
 30
0.0
 11
45.903296
 21
34.043294
 31
0.0
  0
TEXT
  5
144
330
36
100
AcDbEntity
  8
0
 62
     3
100
AcDbText
 10
-55.01719889257015
 20
-54.87129600441936
 30
0.0
 40
4.5
  1
SVCT 2.0sqx4c
 41
0.8
  7
高4.5
100
AcDbText
  0
LINE
  5
145
330
36
100
AcDbEntity
  8
0
 62
     7
100
AcDbLine
 10
-10.01907090335762
 20
-41.87129600441936
 30
0.0
 11
-88.77921489257014
 21
-41.87129600441936
 31
0.0
  0
LINE
  5
146
330
36
100
AcDbEntity
  8
0
 62
     7
100
AcDbLine
 10
-10.01907090335762
 20
-34.87129600441938
 30
0.0
 11
-88.77921489257014
 21
-34.87129600441938
 31
0.0
  0
TEXT
  5
147
330
36
100
AcDbEntity
  8
0
 62
     7
100
AcDbText
 10
98.440516
 20
28.014832
 30
0.0
 40
2.0
  1
Y
100
AcDbText
  0
TEXT
  5
148
330
36
100
AcDbEntity
  8
0
 62
     7
100
AcDbText
 10
110.470757
 20
17.50699
 30
0.0
 40
1.6
  1
防　雨　型
 50
90.00000300000001
 41
0.833333
100
AcDbText
  0
TEXT
  5
149
330
36
100
AcDbEntity
  8
0
 62
     7
100
AcDbText
 10
90.940516
 20
20.514832
 30
0.0
 40
2.0
  1
Z
100
AcDbText
  0
TEXT
  5
14A
330
36
100
AcDbEntity
  8
0
 62
     7
100
AcDbText
 10
105.590516
 20
19.939832
 30
0.0
 40
3.149999999999999
  1
x
100
AcDbText
  0
LINE
  5
14B
330
36
100
AcDbEntity
  8
0
 62
     7
100
AcDbLine
 10
101.798778
 20
16.514832
 30
0.0
 11
102.798778
 21
16.514832
 31
0.0
  0
LINE
  5
14C
330
36
100
AcDbEntity
  8
0
 62
     7
100
AcDbLine
 10
102.298778
 20
17.139832
 30
0.0
 11
102.298778
 21
16.764832
 31
0.0
  0
CIRCLE
  5
14D
330
36
100
AcDbEntity
  8
0
 62
     7
100
AcDbCircle
 10
102.298778
 20
16.764832
 30
0.0
 40
1.0
  0
LINE
  5
14E
330
36
100
AcDbEntity
  8
0
 62
     7
100
AcDbLine
 10
103.048778
 20
16.764832
 30
0.0
 11
101.548778
 21
16.764832
 31
0.0
  0
LINE
  5
14F
330
36
100
AcDbEntity
  8
0
 62
     7
100
AcDbLine
 10
102.548778
 20
16.264832
 30
0.0
 11
102.048778
 21
16.264832
 31
0.0
  0
TEXT
  5
150
330
36
100
AcDbEntity
  8
0
 62
     7
100
AcDbText
 10
99.65467199999999
 20
30.684388
 30
0.0
 40
1.404158999999999
  1
JET
100
AcDbText
  0
ARC
  5
151
330
36
100
AcDbEntity
  8
0
 62
     7
100
AcDbCircle
 10
104.739041
 20
31.343493
 30
0.0
 40
0.599625
100
AcDbArc
 50
204.102092
 51
28.326247
  0
LINE
  5
152
330
36
100
AcDbEntity
  8
0
 62
     7
100
AcDbLine
 10
105.359011
 20
31.714141
 30
0.0
 11
104.799234
 21
30.744579
 31
0.0
  0
LINE
  5
153
330
36
100
AcDbEntity
  8
0
 62
     7
100
AcDbLine
 10
104.119071
 20
30.972845
 30
0.0
 11
104.678848
 21
31.942407
 31
0.0
  0
ARC
  5
154
330
36
100
AcDbEntity
  8
0
 62
     7
100
AcDbCircle
 10
104.739041
 20
31.343493
 30
0.0
 40
0.601931
100
AcDbArc
 50
26.802291
 51
204.26083
  0
LINE
  5
155
330
36
100
AcDbEntity
  8
0
 62
     7
100
AcDbLine
 10
104.739041
 20
31.945424
 30
0.0
 11
104.739041
 21
30.741562
 31
0.0
  0
TEXT
  5
156
330
36
100
AcDbEntity
  8
0
 62
     7
100
AcDbText
 10
98.28477499999999
 20
30.684388
 30
0.0
 40
1.404158999999999
  1
E
100
AcDbText
  0
TEXT
  5
157
330
36
100
AcDbEntity
  8
0
 62
     7
100
AcDbText
 10
94.480062
 20
30.685192
 30
0.0
 40
1.404158999999999
  1
PS
100
AcDbText
  0
LINE
  5
158
330
36
100
AcDbEntity
  8
0
 62
     7
100
AcDbLine
 10
93.593595
 20
31.425431
 30
0.0
 11
94.28853700000001
 21
31.994897
 31
0.0
  0
LINE
  5
159
330
36
100
AcDbEntity
  8
0
 62
     7
100
AcDbLine
 10
93.593595
 20
31.425431
 30
0.0
 11
94.28853700000001
 21
30.855965
 31
0.0
  0
LINE
  5
15A
330
36
100
AcDbEntity
  8
0
 62
     7
100
AcDbLine
 10
97.90880900000001
 20
31.425431
 30
0.0
 11
97.21386800000001
 21
30.855965
 31
0.0
  0
LINE
  5
15B
330
36
100
AcDbEntity
  8
0
 62
     7
100
AcDbLine
 10
97.90880900000001
 20
31.425431
 30
0.0
 11
97.21386800000001
 21
31.994897
 31
0.0
  0
TEXT
  5
15C
330
36
100
AcDbEntity
  8
0
 62
     7
100
AcDbText
 10
93.66884699999999
 20
10.967562
 30
0.0
 40
1.75
  1
19A 250V
 41
0.9060489999999999
100
AcDbText
  0
LINE
  5
15D
330
36
100
AcDbEntity
  8
0
 62
     7
100
AcDbLine
 10
105.090516
 20
23.514832
 30
0.0
 11
105.090516
 21
19.514832
 31
0.0
  0
LINE
  5
15E
330
36
100
AcDbEntity
  8
0
 62
     7
100
AcDbLine
 10
104.090516
 20
23.514832
 30
0.0
 11
104.090516
 21
19.514832
 31
0.0
  0
LINE
  5
15F
330
36
100
AcDbEntity
  8
0
 62
     7
100
AcDbLine
 10
94.790516
 20
23.514832
 30
0.0
 11
94.790516
 21
19.514832
 31
0.0
  0
LINE
  5
160
330
36
100
AcDbEntity
  8
0
 62
     7
100
AcDbLine
 10
93.790516
 20
23.514832
 30
0.0
 11
93.790516
 21
19.514832
 31
0.0
  0
LINE
  5
161
330
36
100
AcDbEntity
  8
0
 62
     7
100
AcDbLine
 10
105.090516
 20
23.514832
 30
0.0
 11
104.090516
 21
23.514832
 31
0.0
  0
LINE
  5
162
330
36
100
AcDbEntity
  8
0
 62
     7
100
AcDbLine
 10
94.790516
 20
23.514832
 30
0.0
 11
93.790516
 21
23.514832
 31
0.0
  0
LINE
  5
163
330
36
100
AcDbEntity
  8
0
 62
     7
100
AcDbLine
 10
105.090516
 20
19.514832
 30
0.0
 11
104.090516
 21
19.514832
 31
0.0
  0
LINE
  5
164
330
36
100
AcDbEntity
  8
0
 62
     7
100
AcDbLine
 10
94.790516
 20
19.514832
 30
0.0
 11
93.790516
 21
19.514832
 31
0.0
  0
LINE
  5
165
330
36
100
AcDbEntity
  8
0
 62
     7
100
AcDbLine
 10
101.440516
 20
27.164832
 30
0.0
 11
97.440516
 21
27.164832
 31
0.0
  0
LINE
  5
166
330
36
100
AcDbEntity
  8
0
 62
     7
100
AcDbLine
 10
101.440516
 20
26.164832
 30
0.0
 11
97.440516
 21
26.164832
 31
0.0
  0
LINE
  5
167
330
36
100
AcDbEntity
  8
0
 62
     7
100
AcDbLine
 10
101.440516
 20
27.164832
 30
0.0
 11
101.440516
 21
26.164832
 31
0.0
  0
LINE
  5
168
330
36
100
AcDbEntity
  8
0
 62
     7
100
AcDbLine
 10
97.440516
 20
27.164832
 30
0.0
 11
97.440516
 21
26.164832
 31
0.0
  0
LINE
  5
169
330
36
100
AcDbEntity
  8
0
 62
     7
100
AcDbLine
 10
99.940516
 20
18.764832
 30
0.0
 11
98.940516
 21
18.764832
 31
0.0
  0
LINE
  5
16A
330
36
100
AcDbEntity
  8
0
 62
     7
100
AcDbLine
 10
99.940516
 20
14.764832
 30
0.0
 11
98.940516
 21
14.764832
 31
0.0
  0
LINE
  5
16B
330
36
100
AcDbEntity
  8
0
 62
     7
100
AcDbLine
 10
99.940516
 20
18.764832
 30
0.0
 11
99.940516
 21
14.764832
 31
0.0
  0
LINE
  5
16C
330
36
100
AcDbEntity
  8
0
 62
     7
100
AcDbLine
 10
98.940516
 20
18.764832
 30
0.0
 11
98.940516
 21
14.764832
 31
0.0
  0
LINE
  5
16D
330
36
100
AcDbEntity
  8
0
 62
     7
100
AcDbLine
 10
94.64051600000001
 20
22.639832
 30
0.0
 11
94.64051600000001
 21
20.389832
 31
0.0
  0
LINE
  5
16E
330
36
100
AcDbEntity
  8
0
 62
     7
100
AcDbLine
 10
93.940516
 20
22.639832
 30
0.0
 11
93.940516
 21
20.389832
 31
0.0
  0
LINE
  5
16F
330
36
100
AcDbEntity
  8
0
 62
     7
100
AcDbLine
 10
104.940516
 20
22.639832
 30
0.0
 11
104.940516
 21
20.389832
 31
0.0
  0
LINE
  5
170
330
36
100
AcDbEntity
  8
0
 62
     7
100
AcDbLine
 10
104.240516
 20
22.639832
 30
0.0
 11
104.240516
 21
20.389832
 31
0.0
  0
LINE
  5
171
330
36
100
AcDbEntity
  8
0
 62
     7
100
AcDbLine
 10
100.565516
 20
27.014832
 30
0.0
 11
98.315516
 21
27.014832
 31
0.0
  0
LINE
  5
172
330
36
100
AcDbEntity
  8
0
 62
     7
100
AcDbLine
 10
100.565516
 20
26.314832
 30
0.0
 11
98.315516
 21
26.314832
 31
0.0
  0
LINE
  5
173
330
36
100
AcDbEntity
  8
0
 62
     7
100
AcDbLine
 10
99.790516
 20
17.889832
 30
0.0
 11
99.09051599999999
 21
17.889832
 31
0.0
  0
LINE
  5
174
330
36
100
AcDbEntity
  8
0
 62
     7
100
AcDbLine
 10
99.790516
 20
15.639832
 30
0.0
 11
99.09051599999999
 21
15.639832
 31
0.0
  0
LINE
  5
175
330
36
100
AcDbEntity
  8
0
 62
     7
100
AcDbLine
 10
100.565516
 20
26.314832
 30
0.0
 11
100.565516
 21
27.014832
 31
0.0
  0
LINE
  5
176
330
36
100
AcDbEntity
  8
0
 62
     7
100
AcDbLine
 10
98.315516
 20
26.314832
 30
0.0
 11
98.315516
 21
27.014832
 31
0.0
  0
LINE
  5
177
330
36
100
AcDbEntity
  8
0
 62
     7
100
AcDbLine
 10
104.940516
 20
22.639832
 30
0.0
 11
104.240516
 21
22.639832
 31
0.0
  0
LINE
  5
178
330
36
100
AcDbEntity
  8
0
 62
     7
100
AcDbLine
 10
94.64051600000001
 20
22.639832
 30
0.0
 11
93.940516
 21
22.639832
 31
0.0
  0
LINE
  5
179
330
36
100
AcDbEntity
  8
0
 62
     7
100
AcDbLine
 10
104.940516
 20
20.389832
 30
0.0
 11
104.240516
 21
20.389832
 31
0.0
  0
LINE
  5
17A
330
36
100
AcDbEntity
  8
0
 62
     7
100
AcDbLine
 10
94.64051600000001
 20
20.389832
 30
0.0
 11
93.940516
 21
20.389832
 31
0.0
  0
LINE
  5
17B
330
36
100
AcDbEntity
  8
0
 62
     7
100
AcDbLine
 10
104.940516
 20
22.639832
 30
0.0
 11
105.090516
 21
23.514832
 31
0.0
  0
LINE
  5
17C
330
36
100
AcDbEntity
  8
0
 62
     7
100
AcDbLine
 10
104.240516
 20
22.639832
 30
0.0
 11
104.090516
 21
23.514832
 31
0.0
  0
LINE
  5
17D
330
36
100
AcDbEntity
  8
0
 62
     7
100
AcDbLine
 10
104.240516
 20
20.389832
 30
0.0
 11
104.090516
 21
19.514832
 31
0.0
  0
LINE
  5
17E
330
36
100
AcDbEntity
  8
0
 62
     7
100
AcDbLine
 10
104.940516
 20
20.389832
 30
0.0
 11
105.090516
 21
19.514832
 31
0.0
  0
LINE
  5
17F
330
36
100
AcDbEntity
  8
0
 62
     7
100
AcDbLine
 10
99.790516
 20
17.889832
 30
0.0
 11
99.790516
 21
15.639832
 31
0.0
  0
LINE
  5
180
330
36
100
AcDbEntity
  8
0
 62
     7
100
AcDbLine
 10
99.09051599999999
 20
17.889832
 30
0.0
 11
99.09051599999999
 21
15.639832
 31
0.0
  0
LINE
  5
181
330
36
100
AcDbEntity
  8
0
 62
     7
100
AcDbLine
 10
99.790516
 20
17.889832
 30
0.0
 11
99.940516
 21
18.764832
 31
0.0
  0
LINE
  5
182
330
36
100
AcDbEntity
  8
0
 62
     7
100
AcDbLine
 10
99.09051599999999
 20
17.889832
 30
0.0
 11
98.940516
 21
18.764832
 31
0.0
  0
LINE
  5
183
330
36
100
AcDbEntity
  8
0
 62
     7
100
AcDbLine
 10
99.09051599999999
 20
15.639832
 30
0.0
 11
98.940516
 21
14.764832
 31
0.0
  0
LINE
  5
184
330
36
100
AcDbEntity
  8
0
 62
     7
100
AcDbLine
 10
99.790516
 20
15.639832
 30
0.0
 11
99.940516
 21
14.764832
 31
0.0
  0
LINE
  5
185
330
36
100
AcDbEntity
  8
0
 62
     7
100
AcDbLine
 10
100.565516
 20
27.014832
 30
0.0
 11
101.440516
 21
27.164832
 31
0.0
  0
LINE
  5
186
330
36
100
AcDbEntity
  8
0
 62
     7
100
AcDbLine
 10
100.565516
 20
26.314832
 30
0.0
 11
101.440516
 21
26.164832
 31
0.0
  0
LINE
  5
187
330
36
100
AcDbEntity
  8
0
 62
     7
100
AcDbLine
 10
98.315516
 20
27.014832
 30
0.0
 11
97.440516
 21
27.164832
 31
0.0
  0
LINE
  5
188
330
36
100
AcDbEntity
  8
0
 62
     7
100
AcDbLine
 10
98.315516
 20
26.314832
 30
0.0
 11
97.440516
 21
26.164832
 31
0.0
  0
LINE
  5
189
330
36
100
AcDbEntity
  8
0
 62
     7
100
AcDbLine
 10
94.790516
 20
19.514832
 30
0.0
 11
94.64051600000001
 21
20.389832
 31
0.0
  0
LINE
  5
18A
330
36
100
AcDbEntity
  8
0
 62
     7
100
AcDbLine
 10
94.64051600000001
 20
22.639832
 30
0.0
 11
94.790516
 21
23.514832
 31
0.0
  0
LINE
  5
18B
330
36
100
AcDbEntity
  8
0
 62
     7
100
AcDbLine
 10
93.940516
 20
22.639832
 30
0.0
 11
93.790516
 21
23.514832
 31
0.0
  0
LINE
  5
18C
330
36
100
AcDbEntity
  8
0
 62
     7
100
AcDbLine
 10
93.940516
 20
20.389832
 30
0.0
 11
93.790516
 21
19.514832
 31
0.0
  0
CIRCLE
  5
18D
330
36
100
AcDbEntity
  8
0
 62
     3
100
AcDbCircle
 10
99.44051600000001
 20
21.514832
 30
0.0
 40
15.25
  0
CIRCLE
  5
18E
330
36
100
AcDbEntity
  8
0
 62
     3
100
AcDbCircle
 10
99.44051600000001
 20
21.514832
 30
0.0
 40
13.25
  0
LINE
  5
18F
330
36
100
AcDbEntity
  8
0
 62
     7
100
AcDbLine
 10
68.402839
 20
27.192123
 30
0.0
 11
59.402839
 21
27.192123
 31
0.0
  0
LINE
  5
190
330
36
100
AcDbEntity
  8
0
 62
     7
100
AcDbLine
 10
68.402839
 20
26.192123
 30
0.0
 11
59.402839
 21
26.192123
 31
0.0
  0
LINE
  5
191
330
36
100
AcDbEntity
  8
0
 62
     7
100
AcDbLine
 10
68.527839
 20
23.542123
 30
0.0
 11
59.402839
 21
23.542123
 31
0.0
  0
LINE
  5
192
330
36
100
AcDbEntity
  8
0
 62
     7
100
AcDbLine
 10
68.527839
 20
19.542123
 30
0.0
 11
59.402839
 21
19.542123
 31
0.0
  0
LINE
  5
193
330
36
100
AcDbEntity
  8
0
 62
     7
100
AcDbLine
 10
70.027839
 20
18.792123
 30
0.0
 11
59.402839
 21
18.792123
 31
0.0
  0
LINE
  5
194
330
36
100
AcDbEntity
  8
0
 62
     7
100
AcDbLine
 10
70.027839
 20
14.792123
 30
0.0
 11
59.402839
 21
14.792123
 31
0.0
  0
LINE
  5
195
330
36
100
AcDbEntity
  8
0
 62
     7
100
AcDbLine
 10
70.902839
 20
17.917123
 30
0.0
 11
70.902839
 21
15.667123
 31
0.0
  0
LINE
  5
196
330
36
100
AcDbEntity
  8
0
 62
     7
100
AcDbLine
 10
69.402839
 20
27.042123
 30
0.0
 11
69.402839
 21
26.342123
 31
0.0
  0
LINE
  5
197
330
36
100
AcDbEntity
  8
0
 62
     7
100
AcDbLine
 10
69.402839
 20
22.667123
 30
0.0
 11
69.402839
 21
20.417123
 31
0.0
  0
LINE
  5
198
330
36
100
AcDbEntity
  8
0
 62
     7
100
AcDbLine
 10
69.902839
 20
18.792123
 30
0.0
 11
69.902839
 21
14.792123
 31
0.0
  0
LINE
  5
199
330
36
100
AcDbEntity
  8
0
 62
     7
100
AcDbLine
 10
68.402839
 20
23.542123
 30
0.0
 11
68.402839
 21
19.542123
 31
0.0
  0
LINE
  5
19A
330
36
100
AcDbEntity
  8
0
 62
     7
100
AcDbLine
 10
68.402839
 20
27.192123
 30
0.0
 11
68.402839
 21
26.192123
 31
0.0
  0
LINE
  5
19B
330
36
100
AcDbEntity
  8
0
 62
     7
100
AcDbLine
 10
70.027839
 20
18.792123
 30
0.0
 11
70.902839
 21
17.917123
 31
0.0
  0
LINE
  5
19C
330
36
100
AcDbEntity
  8
0
 62
     7
100
AcDbLine
 10
70.027839
 20
14.792123
 30
0.0
 11
70.902839
 21
15.667123
 31
0.0
  0
LINE
  5
19D
330
36
100
AcDbEntity
  8
0
 62
     7
100
AcDbLine
 10
69.402839
 20
20.417123
 30
0.0
 11
68.527839
 21
19.542123
 31
0.0
  0
LINE
  5
19E
330
36
100
AcDbEntity
  8
0
 62
     7
100
AcDbLine
 10
68.527839
 20
23.542123
 30
0.0
 11
69.402839
 21
22.667123
 31
0.0
  0
LINE
  5
19F
330
36
100
AcDbEntity
  8
0
 62
     7
100
AcDbLine
 10
68.402839
 20
27.192123
 30
0.0
 11
69.402839
 21
27.042123
 31
0.0
  0
LINE
  5
1A0
330
36
100
AcDbEntity
  8
0
 62
     7
100
AcDbLine
 10
69.402839
 20
26.342123
 30
0.0
 11
68.402839
 21
26.192123
 31
0.0
  0
LINE
  5
1A1
330
36
100
AcDbEntity
  8
0
 62
     7
100
AcDbLine
 10
58.403296
 20
35.543294
 30
0.0
 11
58.403296
 21
7.543294
 31
0.0
  0
LINE
  5
1A2
330
36
100
AcDbEntity
  8
0
 62
     7
100
AcDbLine
 10
53.903296
 20
35.543294
 30
0.0
 11
53.903296
 21
7.543294
 31
0.0
  0
LINE
  5
1A3
330
36
100
AcDbEntity
  8
0
 62
     7
100
AcDbLine
 10
49.903296
 20
34.043294
 30
0.0
 11
49.903296
 21
9.043293999999999
 31
0.0
  0
LINE
  5
1A4
330
36
100
AcDbEntity
  8
0
 62
     7
100
AcDbLine
 10
45.903296
 20
26.543294
 30
0.0
 11
49.903296
 21
26.543294
 31
0.0
  0
ARC
  5
1A5
330
36
100
AcDbEntity
  8
0
 62
     7
100
AcDbCircle
 10
45.903296
 20
21.543294
 30
0.0
 40
5.0
100
AcDbArc
 50
90.0
 51
270.0
  0
LINE
  5
1A6
330
36
100
AcDbEntity
  8
0
 62
     7
100
AcDbLine
 10
45.903296
 20
16.543294
 30
0.0
 11
49.903296
 21
16.543294
 31
0.0
  0
LINE
  5
1A7
330
36
100
AcDbEntity
  8
0
 62
     7
100
AcDbLine
 10
47.509834
 20
19.30738
 30
0.0
 11
48.139364
 21
18.715088
 31
0.0
  0
LINE
  5
1A8
330
36
100
AcDbEntity
  8
0
 62
     7
100
AcDbLine
 10
48.139364
 20
18.715088
 30
0.0
 11
47.324944
 21
19.185293
 31
0.0
  0
LINE
  5
1A9
330
36
100
AcDbEntity
  8
0
 62
     7
100
AcDbLine
 10
46.81245599999999
 20
19.481178
 30
0.0
 11
43.653296
 21
21.30512
 31
0.0
  0
ARC
  5
1AA
330
36
100
AcDbEntity
  8
0
 62
     7
100
AcDbCircle
 10
45.903296
 20
21.539315
 30
0.0
 40
2.25
100
AcDbArc
 50
186.167047
 51
293.832953
  0
ARC
  5
1AB
330
36
100
AcDbEntity
  8
0
 62
     7
100
AcDbCircle
 10
45.903296
 20
21.539315
 30
0.0
 40
2.25
100
AcDbArc
 50
303.260141
 51
353.62063
  0
ARC
  5
1AC
330
36
100
AcDbEntity
  8
0
 62
     7
100
AcDbCircle
 10
45.903296
 20
21.539315
 30
0.0
 40
2.75
100
AcDbArc
 50
305.746203
 51
120.968696
  0
ARC
  5
1AD
330
36
100
AcDbEntity
  8
0
 62
     7
100
AcDbCircle
 10
45.903296
 20
21.539315
 30
0.0
 40
2.75
100
AcDbArc
 50
125.714276
 51
301.128751
  0
LINE
  5
1AE
330
36
100
AcDbEntity
  8
0
 62
     7
100
AcDbLine
 10
45.403296
 20
21.289315
 30
0.0
 11
47.137288
 21
19.657889
 31
0.0
  0
LINE
  5
1AF
330
36
100
AcDbEntity
  8
0
 62
     7
100
AcDbLine
 10
45.001768
 20
23.600806
 30
0.0
 11
48.139364
 21
21.789315
 31
0.0
  0
ARC
  5
1B0
330
36
100
AcDbEntity
  8
0
 62
     7
100
AcDbCircle
 10
45.903296
 20
21.539315
 30
0.0
 40
2.25
100
AcDbArc
 50
6.379369999999997
 51
113.62063
  0
LINE
  5
1B1
330
36
100
AcDbEntity
  8
0
 62
     7
100
AcDbLine
 10
48.139364
 20
21.289315
 30
0.0
 11
45.403296
 21
21.289315
 31
0.0
  0
LINE
  5
1B2
330
36
100
AcDbEntity
  8
0
 62
     7
100
AcDbLine
 10
46.403296
 20
21.789315
 30
0.0
 11
43.667228
 21
21.789315
 31
0.0
  0
LINE
  5
1B3
330
36
100
AcDbEntity
  8
0
 62
     7
100
AcDbLine
 10
43.653296
 20
24.379347
 30
0.0
 11
44.48822899999998
 21
23.897298
 31
0.0
  0
LINE
  5
1B4
330
36
100
AcDbEntity
  8
0
 62
     7
100
AcDbLine
 10
43.653296
 20
24.379347
 30
0.0
 11
44.298001
 21
23.772144
 31
0.0
  0
LINE
  5
1B5
330
36
100
AcDbEntity
  8
0
 62
     7
100
AcDbLine
 10
44.67036799999998
 20
23.421438
 30
0.0
 11
46.403296
 21
21.789315
 31
0.0
  0
ARC
  5
1B6
330
36
100
AcDbEntity
  8
0
 62
     7
100
AcDbCircle
 10
45.903296
 20
21.539315
 30
0.0
 40
2.25
100
AcDbArc
 50
123.227717
 51
173.62063
  0
LINE
  5
1B7
330
36
100
AcDbEntity
  8
0
 62
     7
100
AcDbLine
 10
45.903296
 20
25.293294
 30
0.0
 11
49.903296
 21
25.293294
 31
0.0
  0
ARC
  5
1B8
330
36
100
AcDbEntity
  8
0
 62
     7
100
AcDbCircle
 10
45.903296
 20
21.543294
 30
0.0
 40
3.75
100
AcDbArc
 50
90.0
 51
270.0
  0
LINE
  5
1B9
330
36
100
AcDbEntity
  8
0
 62
     7
100
AcDbLine
 10
45.903296
 20
17.793294
 30
0.0
 11
49.903296
 21
17.793294
 31
0.0
  0
LINE
  5
1BA
330
36
100
AcDbEntity
  8
0
 62
     7
100
AcDbLine
 10
20.653296
 20
24.493294
 30
0.0
 11
20.653296
 21
26.268294
 31
0.0
  0
LINE
  5
1BB
330
36
100
AcDbEntity
  8
0
 62
     7
100
AcDbLine
 10
20.653296
 20
24.493294
 30
0.0
 11
20.653296
 21
22.293294
 31
0.0
  0
LINE
  5
1BC
330
36
100
AcDbEntity
  8
0
 62
     7
100
AcDbLine
 10
19.15329599999999
 20
24.493294
 30
0.0
 11
20.653296
 21
24.493294
 31
0.0
  0
LINE
  5
1BD
330
36
100
AcDbEntity
  8
0
 62
     7
100
AcDbLine
 10
19.15329599999999
 20
24.493294
 30
0.0
 11
19.15329599999999
 21
26.243294
 31
0.0
  0
LINE
  5
1BE
330
36
100
AcDbEntity
  8
0
 62
     7
100
AcDbLine
 10
17.653296
 20
24.493294
 30
0.0
 11
17.653296
 21
26.218294
 31
0.0
  0
LINE
  5
1BF
330
36
100
AcDbEntity
  8
0
 62
     7
100
AcDbLine
 10
16.153296
 20
24.493294
 30
0.0
 11
16.153296
 21
26.193294
 31
0.0
  0
LINE
  5
1C0
330
36
100
AcDbEntity
  8
0
 62
     7
100
AcDbLine
 10
14.653296
 20
24.493294
 30
0.0
 11
14.653296
 21
26.168294
 31
0.0
  0
LINE
  5
1C1
330
36
100
AcDbEntity
  8
0
 62
     7
100
AcDbLine
 10
13.153296
 20
24.493294
 30
0.0
 11
13.153296
 21
26.143294
 31
0.0
  0
LINE
  5
1C2
330
36
100
AcDbEntity
  8
0
 62
     7
100
AcDbLine
 10
11.653296
 20
24.493294
 30
0.0
 11
11.653296
 21
26.118294
 31
0.0
  0
LINE
  5
1C3
330
36
100
AcDbEntity
  8
0
 62
     7
100
AcDbLine
 10
10.153296
 20
24.493294
 30
0.0
 11
10.153296
 21
26.093294
 31
0.0
  0
LINE
  5
1C4
330
36
100
AcDbEntity
  8
0
 62
     7
100
AcDbLine
 10
10.153296
 20
18.593294
 30
0.0
 11
10.153296
 21
16.993294
 31
0.0
  0
LINE
  5
1C5
330
36
100
AcDbEntity
  8
0
 62
     7
100
AcDbLine
 10
11.653296
 20
18.593294
 30
0.0
 11
11.653296
 21
16.968294
 31
0.0
  0
LINE
  5
1C6
330
36
100
AcDbEntity
  8
0
 62
     7
100
AcDbLine
 10
13.153296
 20
18.593294
 30
0.0
 11
13.153296
 21
16.943294
 31
0.0
  0
LINE
  5
1C7
330
36
100
AcDbEntity
  8
0
 62
     7
100
AcDbLine
 10
14.653296
 20
18.593294
 30
0.0
 11
14.653296
 21
16.918294
 31
0.0
  0
LINE
  5
1C8
330
36
100
AcDbEntity
  8
0
 62
     7
100
AcDbLine
 10
16.153296
 20
18.593294
 30
0.0
 11
16.153296
 21
16.893294
 31
0.0
  0
LINE
  5
1C9
330
36
100
AcDbEntity
  8
0
 62
     7
100
AcDbLine
 10
17.653296
 20
18.593294
 30
0.0
 11
17.653296
 21
16.868294
 31
0.0
  0
LINE
  5
1CA
330
36
100
AcDbEntity
  8
0
 62
     7
100
AcDbLine
 10
19.15329599999999
 20
18.593294
 30
0.0
 11
19.15329599999999
 21
16.843294
 31
0.0
  0
LINE
  5
1CB
330
36
100
AcDbEntity
  8
0
 62
     7
100
AcDbLine
 10
20.653296
 20
18.593294
 30
0.0
 11
20.653296
 21
16.818294
 31
0.0
  0
LINE
  5
1CC
330
36
100
AcDbEntity
  8
0
 62
     7
100
AcDbLine
 10
11.653296
 20
22.293294
 30
0.0
 11
10.153296
 21
22.293294
 31
0.0
  0
LINE
  5
1CD
330
36
100
AcDbEntity
  8
0
 62
     7
100
AcDbLine
 10
11.653296
 20
20.793294
 30
0.0
 11
10.153296
 21
20.793294
 31
0.0
  0
LINE
  5
1CE
330
36
100
AcDbEntity
  8
0
 62
     7
100
AcDbLine
 10
14.653296
 20
22.293294
 30
0.0
 11
13.153296
 21
22.293294
 31
0.0
  0
LINE
  5
1CF
330
36
100
AcDbEntity
  8
0
 62
     7
100
AcDbLine
 10
14.653296
 20
20.793294
 30
0.0
 11
13.153296
 21
20.793294
 31
0.0
  0
LINE
  5
1D0
330
36
100
AcDbEntity
  8
0
 62
     7
100
AcDbLine
 10
20.653296
 20
22.293294
 30
0.0
 11
19.15329599999999
 21
22.293294
 31
0.0
  0
LINE
  5
1D1
330
36
100
AcDbEntity
  8
0
 62
     7
100
AcDbLine
 10
17.653296
 20
22.293294
 30
0.0
 11
16.153296
 21
22.293294
 31
0.0
  0
LINE
  5
1D2
330
36
100
AcDbEntity
  8
0
 62
     7
100
AcDbLine
 10
20.653296
 20
20.793294
 30
0.0
 11
19.15329599999999
 21
20.793294
 31
0.0
  0
LINE
  5
1D3
330
36
100
AcDbEntity
  8
0
 62
     7
100
AcDbLine
 10
17.653296
 20
20.793294
 30
0.0
 11
16.153296
 21
20.793294
 31
0.0
  0
LINE
  5
1D4
330
36
100
AcDbEntity
  8
0
 62
     7
100
AcDbLine
 10
11.653296
 20
24.493294
 30
0.0
 11
11.653296
 21
22.293294
 31
0.0
  0
LINE
  5
1D5
330
36
100
AcDbEntity
  8
0
 62
     7
100
AcDbLine
 10
11.653296
 20
20.793294
 30
0.0
 11
11.653296
 21
18.593294
 31
0.0
  0
LINE
  5
1D6
330
36
100
AcDbEntity
  8
0
 62
     7
100
AcDbLine
 10
14.653296
 20
24.493294
 30
0.0
 11
14.653296
 21
22.293294
 31
0.0
  0
LINE
  5
1D7
330
36
100
AcDbEntity
  8
0
 62
     7
100
AcDbLine
 10
14.653296
 20
20.793294
 30
0.0
 11
14.653296
 21
18.593294
 31
0.0
  0
LINE
  5
1D8
330
36
100
AcDbEntity
  8
0
 62
     7
100
AcDbLine
 10
17.653296
 20
24.493294
 30
0.0
 11
17.653296
 21
22.293294
 31
0.0
  0
LINE
  5
1D9
330
36
100
AcDbEntity
  8
0
 62
     7
100
AcDbLine
 10
17.653296
 20
20.793294
 30
0.0
 11
17.653296
 21
18.593294
 31
0.0
  0
LINE
  5
1DA
330
36
100
AcDbEntity
  8
0
 62
     7
100
AcDbLine
 10
16.153296
 20
24.493294
 30
0.0
 11
16.153296
 21
22.293294
 31
0.0
  0
LINE
  5
1DB
330
36
100
AcDbEntity
  8
0
 62
     7
100
AcDbLine
 10
16.153296
 20
20.793294
 30
0.0
 11
16.153296
 21
18.593294
 31
0.0
  0
LINE
  5
1DC
330
36
100
AcDbEntity
  8
0
 62
     7
100
AcDbLine
 10
19.15329599999999
 20
24.493294
 30
0.0
 11
19.15329599999999
 21
22.293294
 31
0.0
  0
LINE
  5
1DD
330
36
100
AcDbEntity
  8
0
 62
     7
100
AcDbLine
 10
19.15329599999999
 20
20.793294
 30
0.0
 11
19.15329599999999
 21
18.593294
 31
0.0
  0
LINE
  5
1DE
330
36
100
AcDbEntity
  8
0
 62
     7
100
AcDbLine
 10
20.653296
 20
20.793294
 30
0.0
 11
20.653296
 21
18.593294
 31
0.0
  0
LINE
  5
1DF
330
36
100
AcDbEntity
  8
0
 62
     7
100
AcDbLine
 10
13.153296
 20
24.493294
 30
0.0
 11
13.153296
 21
22.293294
 31
0.0
  0
LINE
  5
1E0
330
36
100
AcDbEntity
  8
0
 62
     7
100
AcDbLine
 10
13.153296
 20
20.793294
 30
0.0
 11
13.153296
 21
18.593294
 31
0.0
  0
LINE
  5
1E1
330
36
100
AcDbEntity
  8
0
 62
     7
100
AcDbLine
 10
10.153296
 20
24.493294
 30
0.0
 11
10.153296
 21
22.293294
 31
0.0
  0
LINE
  5
1E2
330
36
100
AcDbEntity
  8
0
 62
     7
100
AcDbLine
 10
10.153296
 20
20.793294
 30
0.0
 11
10.153296
 21
18.593294
 31
0.0
  0
LINE
  5
1E3
330
36
100
AcDbEntity
  8
0
 62
     7
100
AcDbLine
 10
10.153296
 20
24.493294
 30
0.0
 11
11.653296
 21
24.493294
 31
0.0
  0
LINE
  5
1E4
330
36
100
AcDbEntity
  8
0
 62
     7
100
AcDbLine
 10
10.153296
 20
18.593294
 30
0.0
 11
11.653296
 21
18.593294
 31
0.0
  0
LINE
  5
1E5
330
36
100
AcDbEntity
  8
0
 62
     7
100
AcDbLine
 10
13.153296
 20
24.493294
 30
0.0
 11
14.653296
 21
24.493294
 31
0.0
  0
LINE
  5
1E6
330
36
100
AcDbEntity
  8
0
 62
     7
100
AcDbLine
 10
13.153296
 20
18.593294
 30
0.0
 11
14.653296
 21
18.593294
 31
0.0
  0
LINE
  5
1E7
330
36
100
AcDbEntity
  8
0
 62
     7
100
AcDbLine
 10
16.153296
 20
24.493294
 30
0.0
 11
17.653296
 21
24.493294
 31
0.0
  0
LINE
  5
1E8
330
36
100
AcDbEntity
  8
0
 62
     7
100
AcDbLine
 10
16.153296
 20
18.593294
 30
0.0
 11
17.653296
 21
18.593294
 31
0.0
  0
LINE
  5
1E9
330
36
100
AcDbEntity
  8
0
 62
     7
100
AcDbLine
 10
19.15329599999999
 20
18.593294
 30
0.0
 11
20.653296
 21
18.593294
 31
0.0
  0
LINE
  5
1EA
330
36
100
AcDbEntity
  8
0
 62
     7
100
AcDbLine
 10
-20.310263
 20
26.725893
 30
0.0
 11
-20.310263
 21
22.305439
 31
0.0
  0
LINE
  5
1EB
330
36
100
AcDbEntity
  8
0
 62
     7
100
AcDbLine
 10
-21.810263
 20
24.555439
 30
0.0
 11
-20.310263
 21
24.555439
 31
0.0
  0
LINE
  5
1EC
330
36
100
AcDbEntity
  8
0
 62
     7
100
AcDbLine
 10
-20.310263
 20
16.384984
 30
0.0
 11
-20.310263
 21
20.805439
 31
0.0
  0
LINE
  5
1ED
330
36
100
AcDbEntity
  8
0
 62
     7
100
AcDbLine
 10
-21.810263
 20
16.21453
 30
0.0
 11
-21.810263
 21
20.805439
 31
0.0
  0
LINE
  5
1EE
330
36
100
AcDbEntity
  8
0
 62
     7
100
AcDbLine
 10
-23.310263
 20
16.044075
 30
0.0
 11
-23.310263
 21
20.805439
 31
0.0
  0
LINE
  5
1EF
330
36
100
AcDbEntity
  8
0
 62
     7
100
AcDbLine
 10
-24.810263
 20
15.87362
 30
0.0
 11
-24.810263
 21
20.805439
 31
0.0
  0
LINE
  5
1F0
330
36
100
AcDbEntity
  8
0
 62
     7
100
AcDbLine
 10
-26.310263
 20
20.805439
 30
0.0
 11
-26.310263
 21
15.703166
 31
0.0
  0
LINE
  5
1F1
330
36
100
AcDbEntity
  8
0
 62
     7
100
AcDbLine
 10
-27.810263
 20
20.805439
 30
0.0
 11
-27.810263
 21
15.532711
 31
0.0
  0
LINE
  5
1F2
330
36
100
AcDbEntity
  8
0
 62
     7
100
AcDbLine
 10
-21.810263
 20
20.805439
 30
0.0
 11
-20.310263
 21
20.805439
 31
0.0
  0
LINE
  5
1F3
330
36
100
AcDbEntity
  8
0
 62
     7
100
AcDbLine
 10
-27.810263
 20
20.805439
 30
0.0
 11
-26.310263
 21
20.805439
 31
0.0
  0
LINE
  5
1F4
330
36
100
AcDbEntity
  8
0
 62
     7
100
AcDbLine
 10
-24.810263
 20
20.805439
 30
0.0
 11
-23.310263
 21
20.805439
 31
0.0
  0
LINE
  5
1F5
330
36
100
AcDbEntity
  8
0
 62
     7
100
AcDbLine
 10
-21.810263
 20
18.555439
 30
0.0
 11
-20.310263
 21
18.555439
 31
0.0
  0
LINE
  5
1F6
330
36
100
AcDbEntity
  8
0
 62
     7
100
AcDbLine
 10
-24.810263
 20
18.555439
 30
0.0
 11
-23.310263
 21
18.555439
 31
0.0
  0
LINE
  5
1F7
330
36
100
AcDbEntity
  8
0
 62
     7
100
AcDbLine
 10
-27.810263
 20
18.555439
 30
0.0
 11
-26.310263
 21
18.555439
 31
0.0
  0
LINE
  5
1F8
330
36
100
AcDbEntity
  8
0
 62
     7
100
AcDbLine
 10
-21.810263
 20
26.896348
 30
0.0
 11
-21.810263
 21
22.305439
 31
0.0
  0
LINE
  5
1F9
330
36
100
AcDbEntity
  8
0
 62
     7
100
AcDbLine
 10
-23.310263
 20
27.066802
 30
0.0
 11
-23.310263
 21
22.305439
 31
0.0
  0
LINE
  5
1FA
330
36
100
AcDbEntity
  8
0
 62
     7
100
AcDbLine
 10
-24.810263
 20
27.237257
 30
0.0
 11
-24.810263
 21
22.305439
 31
0.0
  0
LINE
  5
1FB
330
36
100
AcDbEntity
  8
0
 62
     7
100
AcDbLine
 10
-26.310263
 20
22.305439
 30
0.0
 11
-26.310263
 21
27.407711
 31
0.0
  0
LINE
  5
1FC
330
36
100
AcDbEntity
  8
0
 62
     7
100
AcDbLine
 10
-27.810263
 20
22.305439
 30
0.0
 11
-27.810263
 21
27.578166
 31
0.0
  0
LINE
  5
1FD
330
36
100
AcDbEntity
  8
0
 62
     7
100
AcDbLine
 10
-21.810263
 20
22.305439
 30
0.0
 11
-20.310263
 21
22.305439
 31
0.0
  0
LINE
  5
1FE
330
36
100
AcDbEntity
  8
0
 62
     7
100
AcDbLine
 10
-27.810263
 20
22.305439
 30
0.0
 11
-26.310263
 21
22.305439
 31
0.0
  0
LINE
  5
1FF
330
36
100
AcDbEntity
  8
0
 62
     7
100
AcDbLine
 10
-24.810263
 20
22.305439
 30
0.0
 11
-23.310263
 21
22.305439
 31
0.0
  0
LINE
  5
200
330
36
100
AcDbEntity
  8
0
 62
     7
100
AcDbLine
 10
-24.810263
 20
24.555439
 30
0.0
 11
-23.310263
 21
24.555439
 31
0.0
  0
LINE
  5
201
330
36
100
AcDbEntity
  8
0
 62
     7
100
AcDbLine
 10
-27.810263
 20
24.555439
 30
0.0
 11
-26.310263
 21
24.555439
 31
0.0
  0
LINE
  5
202
330
36
100
AcDbEntity
  8
0
 62
     7
100
AcDbLine
 10
-49.230409
 20
10.555439
 30
0.0
 11
-49.230409
 21
17.555439
 31
0.0
  0
ARC
  5
203
330
36
100
AcDbEntity
  8
0
 62
     7
100
AcDbCircle
 10
-45.889508
 20
21.438918
 30
0.0
 40
2.25
100
AcDbArc
 50
6.634483999999997
 51
114.219693
  0
LINE
  5
204
330
36
100
AcDbEntity
  8
0
 62
     7
100
AcDbLine
 10
-46.81254
 20
23.490871
 30
0.0
 11
-43.656528
 21
21.715148
 31
0.0
  0
LINE
  5
205
330
36
100
AcDbEntity
  8
0
 62
     7
100
AcDbLine
 10
-47.012208
 20
23.388801
 30
0.0
 11
-45.01562999999999
 21
21.692811
 31
0.0
  0
ARC
  5
206
330
36
100
AcDbEntity
  8
0
 62
     7
100
AcDbCircle
 10
-45.889508
 20
21.438918
 30
0.0
 40
2.5
100
AcDbArc
 50
302.304763
 51
118.581361
  0
ARC
  5
207
330
36
100
AcDbEntity
  8
0
 62
     7
100
AcDbCircle
 10
-45.889508
 20
21.438918
 30
0.0
 40
2.25
100
AcDbArc
 50
119.932389
 51
173.875744
  0
ARC
  5
208
330
36
100
AcDbEntity
  8
0
 62
     7
100
AcDbCircle
 10
-45.889508
 20
21.438918
 30
0.0
 40
2.5
100
AcDbArc
 50
122.304765
 51
298.581361
  0
LINE
  5
209
330
36
100
AcDbEntity
  8
0
 62
     7
100
AcDbLine
 10
-47.225564
 20
23.551961
 30
0.0
 11
-47.650622
 21
23.931101
 31
0.0
  0
LINE
  5
20A
330
36
100
AcDbEntity
  8
0
 62
     7
100
AcDbLine
 10
-47.650622
 20
23.931101
 30
0.0
 11
-47.10063499999999
 21
23.625964
 31
0.0
  0
LINE
  5
20B
330
36
100
AcDbEntity
  8
0
 62
     7
100
AcDbLine
 10
-48.126667
 20
21.678959
 30
0.0
 11
-45.01562999999999
 21
21.692811
 31
0.0
  0
ARC
  5
20C
330
36
100
AcDbEntity
  8
0
 62
     7
100
AcDbCircle
 10
-45.889508
 20
21.438918
 30
0.0
 40
2.25
100
AcDbArc
 50
186.634484
 51
294.219693
  0
LINE
  5
20D
330
36
100
AcDbEntity
  8
0
 62
     7
100
AcDbLine
 10
-44.966476
 20
19.386965
 30
0.0
 11
-48.12444
 21
21.178964
 31
0.0
  0
LINE
  5
20E
330
36
100
AcDbEntity
  8
0
 62
     7
100
AcDbLine
 10
-44.766808
 20
19.489035
 30
0.0
 11
-46.763386
 21
21.185024
 31
0.0
  0
LINE
  5
20F
330
36
100
AcDbEntity
  8
0
 62
     7
100
AcDbLine
 10
-46.763386
 20
21.185024
 30
0.0
 11
-43.65234899999999
 21
21.198877
 31
0.0
  0
ARC
  5
210
330
36
100
AcDbEntity
  8
0
 62
     7
100
AcDbCircle
 10
-45.889508
 20
21.438918
 30
0.0
 40
2.25
100
AcDbArc
 50
299.932389
 51
353.875744
  0
LINE
  5
211
330
36
100
AcDbEntity
  8
0
 62
     7
100
AcDbLine
 10
-44.553451
 20
19.325874
 30
0.0
 11
-44.128394
 21
18.946735
 31
0.0
  0
LINE
  5
212
330
36
100
AcDbEntity
  8
0
 62
     7
100
AcDbLine
 10
-44.128394
 20
18.946735
 30
0.0
 11
-44.676502
 21
19.252913
 31
0.0
  0
LINE
  5
213
330
36
100
AcDbEntity
  8
0
 62
     7
100
AcDbLine
 10
-45.82557199999999
 20
25.555439
 30
0.0
 11
-49.230409
 21
25.555439
 31
0.0
  0
LINE
  5
214
330
36
100
AcDbEntity
  8
0
 62
     7
100
AcDbLine
 10
-45.82557199999999
 20
17.555439
 30
0.0
 11
-49.230409
 21
17.555439
 31
0.0
  0
LINE
  5
215
330
36
100
AcDbEntity
  8
0
 62
     7
100
AcDbLine
 10
-49.230409
 20
25.555439
 30
0.0
 11
-49.230409
 21
32.555439
 31
0.0
  0
ARC
  5
216
330
36
100
AcDbEntity
  8
0
 62
     7
100
AcDbCircle
 10
-45.82557199999999
 20
21.555439
 30
0.0
 40
4.0
100
AcDbArc
 50
270.0
 51
90.0
  0
LINE
  5
217
330
36
100
AcDbEntity
  8
0
 62
     7
100
AcDbLine
 10
-52.708319
 20
23.743648
 30
0.0
 11
-52.70771899999999
 21
23.60891
 31
0.0
  0
ARC
  5
218
330
36
100
AcDbEntity
  8
0
 62
     7
100
AcDbCircle
 10
-52.531812
 20
23.744434
 30
0.0
 40
0.176509
100
AcDbArc
 50
90.25511400000002
 51
180.255114
  0
LINE
  5
219
330
36
100
AcDbEntity
  8
0
 62
     7
100
AcDbLine
 10
-52.532598
 20
23.920941
 30
0.0
 11
-50.665125
 21
23.929256
 31
0.0
  0
LINE
  5
21A
330
36
100
AcDbEntity
  8
0
 62
     7
100
AcDbLine
 10
-50.121213
 20
25.238665
 30
0.0
 11
-50.114007
 21
23.620459
 31
0.0
  0
LINE
  5
21B
330
36
100
AcDbEntity
  8
0
 62
     7
100
AcDbLine
 10
-50.494438
 20
25.237003
 30
0.0
 11
-50.121213
 21
25.238665
 31
0.0
  0
LINE
  5
21C
330
36
100
AcDbEntity
  8
0
 62
     7
100
AcDbLine
 10
-50.49383800000001
 20
25.102265
 30
0.0
 11
-50.494438
 21
25.237003
 31
0.0
  0
ARC
  5
21D
330
36
100
AcDbEntity
  8
0
 62
     7
100
AcDbCircle
 10
-50.670345
 20
25.101479
 30
0.0
 40
0.176509
100
AcDbArc
 50
270.255114
 51
0.255114
  0
LINE
  5
21E
330
36
100
AcDbEntity
  8
0
 62
     7
100
AcDbLine
 10
-53.078078
 20
22.979428
 30
0.0
 11
-53.07133499999999
 21
21.464969
 31
0.0
  0
LINE
  5
21F
330
36
100
AcDbEntity
  8
0
 62
     7
100
AcDbLine
 10
-53.078078
 20
22.979428
 30
0.0
 11
-52.702384
 21
22.9811
 31
0.0
  0
LINE
  5
220
330
36
100
AcDbEntity
  8
0
 62
     7
100
AcDbLine
 10
-52.701884
 20
22.868819
 30
0.0
 11
-52.702384
 21
22.9811
 31
0.0
  0
ARC
  5
221
330
36
100
AcDbEntity
  8
0
 62
     7
100
AcDbCircle
 10
-52.527977
 20
22.899011
 30
0.0
 40
0.176509
100
AcDbArc
 50
189.849182
 51
270.255114
  0
LINE
  5
222
330
36
100
AcDbEntity
  8
0
 62
     7
100
AcDbLine
 10
-52.527191
 20
22.722504
 30
0.0
 11
-50.659719
 21
22.730819
 31
0.0
  0
ARC
  5
223
330
36
100
AcDbEntity
  8
0
 62
     7
100
AcDbCircle
 10
-50.660505
 20
22.907326
 30
0.0
 40
0.176509
100
AcDbArc
 50
270.255114
 51
350.661046
  0
LINE
  5
224
330
36
100
AcDbEntity
  8
0
 62
     7
100
AcDbLine
 10
-50.486335
 20
22.878684
 30
0.0
 11
-50.486835
 21
22.990965
 31
0.0
  0
LINE
  5
225
330
36
100
AcDbEntity
  8
0
 62
     7
100
AcDbLine
 10
-50.486835
 20
22.990965
 30
0.0
 11
-50.111141
 21
22.992638
 31
0.0
  0
LINE
  5
226
330
36
100
AcDbEntity
  8
0
 62
     7
100
AcDbLine
 10
-50.111141
 20
22.992638
 30
0.0
 11
-50.104398
 21
21.47818
 31
0.0
  0
ARC
  5
227
330
36
100
AcDbEntity
  8
0
 62
     7
100
AcDbCircle
 10
-52.53781700000001
 20
25.093164
 30
0.0
 40
0.176509
100
AcDbArc
 50
180.255114
 51
270.255114
  0
LINE
  5
228
330
36
100
AcDbEntity
  8
0
 62
     7
100
AcDbLine
 10
-52.537031
 20
24.916657
 30
0.0
 11
-50.66955899999999
 21
24.924972
 31
0.0
  0
LINE
  5
229
330
36
100
AcDbEntity
  8
0
 62
     7
100
AcDbLine
 10
-53.088149
 20
25.225455
 30
0.0
 11
-52.71492399999999
 21
25.227116
 31
0.0
  0
LINE
  5
22A
330
36
100
AcDbEntity
  8
0
 62
     7
100
AcDbLine
 10
-52.714324
 20
25.092378
 30
0.0
 11
-52.71492399999999
 21
25.227116
 31
0.0
  0
LINE
  5
22B
330
36
100
AcDbEntity
  8
0
 62
     7
100
AcDbLine
 10
-53.088149
 20
25.225455
 30
0.0
 11
-53.08094399999998
 21
23.607248
 31
0.0
  0
LINE
  5
22C
330
36
100
AcDbEntity
  8
0
 62
     7
100
AcDbLine
 10
-53.08094399999998
 20
23.607248
 30
0.0
 11
-52.70771899999999
 21
23.60891
 31
0.0
  0
LINE
  5
22D
330
36
100
AcDbEntity
  8
0
 62
     7
100
AcDbLine
 10
-50.49712299999999
 20
25.84011
 30
0.0
 11
-50.123898
 21
25.841772
 31
0.0
  0
ARC
  5
22E
330
36
100
AcDbEntity
  8
0
 62
     7
100
AcDbCircle
 10
-50.67423
 20
25.974063
 30
0.0
 40
0.176509
100
AcDbArc
 50
0.255114
 51
90.25511400000002
  0
LINE
  5
22F
330
36
100
AcDbEntity
  8
0
 62
     7
100
AcDbLine
 10
-50.497723
 20
25.974849
 30
0.0
 11
-50.49712299999999
 21
25.84011
 31
0.0
  0
LINE
  5
230
330
36
100
AcDbEntity
  8
0
 62
     7
100
AcDbLine
 10
-50.131678
 20
27.589112
 30
0.0
 11
-50.123898
 21
25.841772
 31
0.0
  0
LINE
  5
231
330
36
100
AcDbEntity
  8
0
 62
     7
100
AcDbLine
 10
-52.542488
 20
26.142255
 30
0.0
 11
-50.67501599999999
 21
26.15057
 31
0.0
  0
LINE
  5
232
330
36
100
AcDbEntity
  8
0
 62
     7
100
AcDbLine
 10
-52.619681
 20
27.137647
 30
0.0
 11
-50.606691
 21
27.14661
 31
0.0
  0
LINE
  5
233
330
36
100
AcDbEntity
  8
0
 62
     7
100
AcDbLine
 10
-50.606691
 20
27.14661
 30
0.0
 11
-50.607295
 21
27.282358
 31
0.0
  0
ARC
  5
234
330
36
100
AcDbEntity
  8
0
 62
     7
100
AcDbCircle
 10
-51.610699
 20
26.58375
 30
0.0
 40
1.22265
100
AcDbArc
 50
34.847069
 51
145.663159
  0
ARC
  5
235
330
36
100
AcDbEntity
  8
0
 62
     7
100
AcDbCircle
 10
-51.303901
 20
27.583893
 30
0.0
 40
1.172235
100
AcDbArc
 50
0.255114
 51
72.946365
  0
ARC
  5
236
330
36
100
AcDbEntity
  8
0
 62
     7
100
AcDbCircle
 10
-51.926392
 20
27.581121
 30
0.0
 40
1.172235
100
AcDbArc
 50
107.563863
 51
180.255114
  0
LINE
  5
237
330
36
100
AcDbEntity
  8
0
 62
     7
100
AcDbLine
 10
-53.098615
 20
27.575902
 30
0.0
 11
-53.09083499999999
 21
25.828562
 31
0.0
  0
LINE
  5
238
330
36
100
AcDbEntity
  8
0
 62
     7
100
AcDbLine
 10
-53.09083499999999
 20
25.828562
 30
0.0
 11
-52.71761
 21
25.830223
 31
0.0
  0
LINE
  5
239
330
36
100
AcDbEntity
  8
0
 62
     7
100
AcDbLine
 10
-52.71821
 20
25.964962
 30
0.0
 11
-52.71761
 21
25.830223
 31
0.0
  0
ARC
  5
23A
330
36
100
AcDbEntity
  8
0
 62
     7
100
AcDbCircle
 10
-52.54170300000001
 20
25.965748
 30
0.0
 40
0.176509
100
AcDbArc
 50
90.25511400000002
 51
180.255114
  0
ARC
  5
23B
330
36
100
AcDbEntity
  8
0
 62
     7
100
AcDbCircle
 10
-50.66433899999999
 20
23.752749
 30
0.0
 40
0.176509
100
AcDbArc
 50
0.255114
 51
90.25511400000002
  0
LINE
  5
23C
330
36
100
AcDbEntity
  8
0
 62
     7
100
AcDbLine
 10
-50.48783199999999
 20
23.753535
 30
0.0
 11
-50.487232
 21
23.618797
 31
0.0
  0
LINE
  5
23D
330
36
100
AcDbEntity
  8
0
 62
     7
100
AcDbLine
 10
-50.487232
 20
23.618797
 30
0.0
 11
-50.114007
 21
23.620459
 31
0.0
  0
LINE
  5
23E
330
36
100
AcDbEntity
  8
0
 62
     7
100
AcDbLine
 10
-52.619681
 20
27.137647
 30
0.0
 11
-52.62028499999999
 21
27.273394
 31
0.0
  0
ARC
  5
23F
330
36
100
AcDbEntity
  8
0
 62
     7
100
AcDbCircle
 10
-51.610699
 20
26.58375
 30
0.0
 40
2.218374999999999
100
AcDbArc
 50
72.946365
 51
107.56368
  0
ARC
  5
240
330
36
100
AcDbEntity
  8
0
 62
     7
100
AcDbCircle
 10
-51.80228599999999
 20
27.216602
 30
0.0
 40
2.104519999999999
100
AcDbArc
 50
63.930398
 51
109.945749
  0
ARC
  5
241
330
36
100
AcDbEntity
  8
0
 62
     7
100
AcDbCircle
 10
-51.612
 20
32.018792
 30
0.0
 40
1.968491999999999
100
AcDbArc
 50
239.589527
 51
299.616581
  0
ARC
  5
242
330
36
100
AcDbEntity
  8
0
 62
     7
100
AcDbCircle
 10
-51.63287
 20
30.383736
 30
0.0
 40
1.483482999999997
100
AcDbArc
 50
300.612954
 51
233.263193
  0
ARC
  5
243
330
36
100
AcDbEntity
  8
0
 62
     7
100
AcDbCircle
 10
-51.597439
 20
28.748931
 30
0.0
 40
1.968491999999999
100
AcDbArc
 50
60.62738699999999
 51
121.0956389999999
  0
ARC
  5
244
330
36
100
AcDbEntity
  8
0
 62
     7
100
AcDbCircle
 10
-52.556463
 20
30.380582
 30
0.0
 40
0.078971
100
AcDbArc
 50
136.876885
 51
228.844383
  0
ARC
  5
245
330
36
100
AcDbEntity
  8
0
 62
     7
100
AcDbCircle
 10
-50.698785
 20
30.388853
 30
0.0
 40
0.100866
100
AcDbArc
 50
306.220237
 51
48.47692999999999
  0
LINE
  5
246
330
36
100
AcDbEntity
  8
0
 62
     7
100
AcDbLine
 10
-52.497945
 20
16.140328
 30
0.0
 11
-50.63047199999999
 21
16.148611
 31
0.0
  0
LINE
  5
247
330
36
100
AcDbEntity
  8
0
 62
     7
100
AcDbLine
 10
-50.454748
 20
16.325901
 30
0.0
 11
-50.45534599999999
 21
16.460639
 31
0.0
  0
ARC
  5
248
330
36
100
AcDbEntity
  8
0
 62
     7
100
AcDbCircle
 10
-50.63125499999999
 20
16.325118
 30
0.0
 40
0.176509
100
AcDbArc
 50
270.254114
 51
0.254114
  0
LINE
  5
249
330
36
100
AcDbEntity
  8
0
 62
     7
100
AcDbLine
 10
-50.45534599999999
 20
16.460639
 30
0.0
 11
-50.082121
 21
16.462294
 31
0.0
  0
LINE
  5
24A
330
36
100
AcDbEntity
  8
0
 62
     7
100
AcDbLine
 10
-50.074944
 20
14.844087
 30
0.0
 11
-50.082121
 21
16.462294
 31
0.0
  0
LINE
  5
24B
330
36
100
AcDbEntity
  8
0
 62
     7
100
AcDbLine
 10
-51.802941
 20
12.165749
 30
0.0
 11
-50.612771
 21
12.171049
 31
0.0
  0
ARC
  5
24C
330
36
100
AcDbEntity
  8
0
 62
     7
100
AcDbCircle
 10
-50.613557
 20
12.347556
 30
0.0
 40
0.176509
100
AcDbArc
 50
270.255114
 51
0.255114
  0
LINE
  5
24D
330
36
100
AcDbEntity
  8
0
 62
     7
100
AcDbLine
 10
-50.059529
 20
11.385277
 30
0.0
 11
-50.064424
 21
12.484742
 31
0.0
  0
ARC
  5
24E
330
36
100
AcDbEntity
  8
0
 62
     7
100
AcDbCircle
 10
-51.573464
 20
18.221214
 30
0.0
 40
1.483482999999997
100
AcDbArc
 50
137.007994
 51
43.078234
  0
ARC
  5
24F
330
36
100
AcDbEntity
  8
0
 62
     7
100
AcDbCircle
 10
-51.56635999999998
 20
8.780011999999999
 30
0.0
 40
10.50969
100
AcDbArc
 50
84.12111999999998
 51
87.94914799999999
  0
LINE
  5
250
330
36
100
AcDbEntity
  8
0
 62
     7
100
AcDbLine
 10
-51.189726
 20
18.579343
 30
0.0
 11
-51.190255
 21
19.28297
 31
0.0
  0
LINE
  5
293
330
36
100
AcDbEntity
  8
0
 62
     7
100
AcDbLine
 10
-51.957741
 20
18.578765
 30
0.0
 11
-51.958271
 21
19.282392
 31
0.0
  0
ARC
  5
294
330
36
100
AcDbEntity
  8
0
 62
     7
100
AcDbCircle
 10
-51.56635999999998
 20
8.780011999999999
 30
0.0
 40
10.50969
100
AcDbArc
 50
92.13708000000002
 51
95.96510800000002
  0
ARC
  5
295
330
36
100
AcDbEntity
  8
0
 62
     7
100
AcDbCircle
 10
-52.498728
 20
16.316835
 30
0.0
 40
0.176509
100
AcDbArc
 50
180.254142
 51
270.254114
  0
LINE
  5
296
330
36
100
AcDbEntity
  8
0
 62
     7
100
AcDbLine
 10
-53.049058
 20
16.449135
 30
0.0
 11
-52.675833
 21
16.450791
 31
0.0
  0
LINE
  5
297
330
36
100
AcDbEntity
  8
0
 62
     7
100
AcDbLine
 10
-53.04188100000001
 20
14.830928
 30
0.0
 11
-53.049058
 21
16.449135
 31
0.0
  0
LINE
  5
298
330
36
100
AcDbEntity
  8
0
 62
     7
100
AcDbLine
 10
-52.675235
 20
16.316052
 30
0.0
 11
-52.675833
 21
16.450791
 31
0.0
  0
ARC
  5
299
330
36
100
AcDbEntity
  8
0
 62
     7
100
AcDbCircle
 10
-52.49273699999999
 20
14.968092
 30
0.0
 40
0.176509
100
AcDbArc
 50
90.25491700000001
 51
180.254888
  0
LINE
  5
29A
330
36
100
AcDbEntity
  8
0
 62
     7
100
AcDbLine
 10
-52.493522
 20
15.144599
 30
0.0
 11
-50.626049
 21
15.152908
 31
0.0
  0
ARC
  5
29B
330
36
100
AcDbEntity
  8
0
 62
     7
100
AcDbCircle
 10
-50.625273
 20
14.976387
 30
0.0
 40
0.176509
100
AcDbArc
 50
0.254114
 51
90.25411400000001
  0
LINE
  5
29C
330
36
100
AcDbEntity
  8
0
 62
     7
100
AcDbLine
 10
-50.448169
 20
14.842432
 30
0.0
 11
-50.074944
 21
14.844087
 31
0.0
  0
LINE
  5
29D
330
36
100
AcDbEntity
  8
0
 62
     7
100
AcDbLine
 10
-50.448766
 20
14.97717
 30
0.0
 11
-50.448169
 21
14.842432
 31
0.0
  0
LINE
  5
29E
330
36
100
AcDbEntity
  8
0
 62
     7
100
AcDbLine
 10
-53.04188100000001
 20
14.830928
 30
0.0
 11
-52.668656
 21
14.832584
 31
0.0
  0
LINE
  5
29F
330
36
100
AcDbEntity
  8
0
 62
     7
100
AcDbLine
 10
-52.669253
 20
14.967322
 30
0.0
 11
-52.668656
 21
14.832584
 31
0.0
  0
LINE
  5
2A0
330
36
100
AcDbEntity
  8
0
 62
     7
100
AcDbLine
 10
-50.437649
 20
12.48308
 30
0.0
 11
-50.064424
 21
12.484742
 31
0.0
  0
LINE
  5
2A1
330
36
100
AcDbEntity
  8
0
 62
     7
100
AcDbLine
 10
-50.437049
 20
12.348342
 30
0.0
 11
-50.437649
 21
12.48308
 31
0.0
  0
LINE
  5
2A2
330
36
100
AcDbEntity
  8
0
 62
     7
100
AcDbLine
 10
-51.802941
 20
12.165749
 30
0.0
 11
-50.06788
 21
13.260936
 31
0.0
  0
LINE
  5
2A3
330
36
100
AcDbEntity
  8
0
 62
     7
100
AcDbLine
 10
-50.06788
 20
13.260936
 30
0.0
 11
-50.071123
 21
13.989095
 31
0.0
  0
LINE
  5
2A4
330
36
100
AcDbEntity
  8
0
 62
     7
100
AcDbLine
 10
-52.384579
 20
13.978794
 30
0.0
 11
-50.071123
 21
13.989095
 31
0.0
  0
ARC
  5
2A5
330
36
100
AcDbEntity
  8
0
 62
     7
100
AcDbCircle
 10
-52.385827
 20
14.259049
 30
0.0
 40
0.280258
100
AcDbArc
 50
173.90654
 51
270.255114
  0
LINE
  5
2A6
330
36
100
AcDbEntity
  8
0
 62
     7
100
AcDbLine
 10
-53.039445
 20
14.287129
 30
0.0
 11
-52.664502
 21
14.288799
 31
0.0
  0
LINE
  5
2A7
330
36
100
AcDbEntity
  8
0
 62
     7
100
AcDbLine
 10
-53.03455
 20
13.187665
 30
0.0
 11
-53.039445
 21
14.287129
 31
0.0
  0
LINE
  5
2A8
330
36
100
AcDbEntity
  8
0
 62
     7
100
AcDbLine
 10
-53.03455
 20
13.187665
 30
0.0
 11
-52.661325
 21
13.189327
 31
0.0
  0
LINE
  5
2A9
330
36
100
AcDbEntity
  8
0
 62
     7
100
AcDbLine
 10
-52.661325
 20
13.189327
 30
0.0
 11
-52.66192499999998
 21
13.324065
 31
0.0
  0
ARC
  5
2AA
330
36
100
AcDbEntity
  8
0
 62
     7
100
AcDbCircle
 10
-52.485418
 20
13.324851
 30
0.0
 40
0.176509
100
AcDbArc
 50
90.25511400000002
 51
180.255114
  0
LINE
  5
2AB
330
36
100
AcDbEntity
  8
0
 62
     7
100
AcDbLine
 10
-51.692116
 20
13.504894
 30
0.0
 11
-52.486203
 21
13.501358
 31
0.0
  0
LINE
  5
2AC
330
36
100
AcDbEntity
  8
0
 62
     7
100
AcDbLine
 10
-51.692116
 20
13.504894
 30
0.0
 11
-53.032009
 21
12.617029
 31
0.0
  0
LINE
  5
2AD
330
36
100
AcDbEntity
  8
0
 62
     7
100
AcDbLine
 10
-53.026466
 20
11.372067
 30
0.0
 11
-53.032009
 21
12.617029
 31
0.0
  0
LINE
  5
2AE
330
36
100
AcDbEntity
  8
0
 62
     7
100
AcDbLine
 10
-50.647894
 20
20.075128
 30
0.0
 11
-52.515366
 21
20.066813
 31
0.0
  0
LINE
  5
2AF
330
36
100
AcDbEntity
  8
0
 62
     7
100
AcDbLine
 10
-53.06394399999999
 20
19.804994
 30
0.0
 11
-53.070687
 21
21.319452
 31
0.0
  0
ARC
  5
2B0
330
36
100
AcDbEntity
  8
0
 62
     7
100
AcDbCircle
 10
-52.514811
 20
19.94218
 30
0.0
 40
0.124634
100
AcDbArc
 50
90.25511400000002
 51
180.255114
  0
LINE
  5
2B1
330
36
100
AcDbEntity
  8
0
 62
     7
100
AcDbLine
 10
-52.63944399999999
 20
19.941625
 30
0.0
 11
-52.63884399999999
 21
19.806887
 31
0.0
  0
LINE
  5
2B2
330
36
100
AcDbEntity
  8
0
 62
     7
100
AcDbLine
 10
-52.63884399999999
 20
19.806887
 30
0.0
 11
-53.06394399999999
 21
19.804994
 31
0.0
  0
ARC
  5
2B3
330
36
100
AcDbEntity
  8
0
 62
     7
100
AcDbCircle
 10
-50.647339
 20
19.950495
 30
0.0
 40
0.124634
100
AcDbArc
 50
0.255114
 51
90.25511400000002
  0
LINE
  5
2B4
330
36
100
AcDbEntity
  8
0
 62
     7
100
AcDbLine
 10
-50.52270599999999
 20
19.95105
 30
0.0
 11
-50.522106
 21
19.816312
 31
0.0
  0
LINE
  5
2B5
330
36
100
AcDbEntity
  8
0
 62
     7
100
AcDbLine
 10
-50.09700699999999
 20
19.818204
 30
0.0
 11
-50.522106
 21
19.816312
 31
0.0
  0
LINE
  5
2B6
330
36
100
AcDbEntity
  8
0
 62
     7
100
AcDbLine
 10
-50.09700699999999
 20
19.818204
 30
0.0
 11
-50.10374999999999
 21
21.332663
 31
0.0
  0
ARC
  5
2B7
330
36
100
AcDbEntity
  8
0
 62
     7
100
AcDbCircle
 10
-52.521972
 20
21.550281
 30
0.0
 40
0.176509
100
AcDbArc
 50
90.25511400000002
 51
170.661046
  0
LINE
  5
2B8
330
36
100
AcDbEntity
  8
0
 62
     7
100
AcDbLine
 10
-52.696141
 20
21.578924
 30
0.0
 11
-52.695641
 21
21.466642
 31
0.0
  0
LINE
  5
2B9
330
36
100
AcDbEntity
  8
0
 62
     7
100
AcDbLine
 10
-51.827508
 20
21.729884
 30
0.0
 11
-52.52275799999999
 21
21.726788
 31
0.0
  0
LINE
  5
2BA
330
36
100
AcDbEntity
  8
0
 62
     7
100
AcDbLine
 10
-51.827508
 20
21.729884
 30
0.0
 11
-51.82455
 21
21.065624
 31
0.0
  0
LINE
  5
2BB
330
36
100
AcDbEntity
  8
0
 62
     7
100
AcDbLine
 10
-51.350535
 20
21.732008
 30
0.0
 11
-51.347577
 21
21.067748
 31
0.0
  0
LINE
  5
2BC
330
36
100
AcDbEntity
  8
0
 62
     7
100
AcDbLine
 10
-50.655285
 20
21.735103
 30
0.0
 11
-51.350535
 21
21.732008
 31
0.0
  0
ARC
  5
2BD
330
36
100
AcDbEntity
  8
0
 62
     7
100
AcDbCircle
 10
-50.654499
 20
21.558596
 30
0.0
 40
0.176509
100
AcDbArc
 50
9.849182
 51
90.25511400000002
  0
LINE
  5
2BE
330
36
100
AcDbEntity
  8
0
 62
     7
100
AcDbLine
 10
-50.480592
 20
21.588789
 30
0.0
 11
-50.480092
 21
21.476507
 31
0.0
  0
LINE
  5
2BF
330
36
100
AcDbEntity
  8
0
 62
     7
100
AcDbLine
 10
-50.480092
 20
21.476507
 30
0.0
 11
-50.104398
 21
21.47818
 31
0.0
  0
LINE
  5
2C0
330
36
100
AcDbEntity
  8
0
 62
     7
100
AcDbLine
 10
-50.479444
 20
21.33099
 30
0.0
 11
-50.10374999999999
 21
21.332663
 31
0.0
  0
LINE
  5
2C1
330
36
100
AcDbEntity
  8
0
 62
     7
100
AcDbLine
 10
-50.478944
 20
21.218708
 30
0.0
 11
-50.479444
 21
21.33099
 31
0.0
  0
ARC
  5
2C2
330
36
100
AcDbEntity
  8
0
 62
     7
100
AcDbCircle
 10
-50.653113
 20
21.247351
 30
0.0
 40
0.176509
100
AcDbArc
 50
270.255114
 51
350.661046
  0
LINE
  5
2C3
330
36
100
AcDbEntity
  8
0
 62
     7
100
AcDbLine
 10
-50.652327
 20
21.070844
 30
0.0
 11
-51.347577
 21
21.067748
 31
0.0
  0
LINE
  5
2C4
330
36
100
AcDbEntity
  8
0
 62
     7
100
AcDbLine
 10
-51.82455
 20
21.065624
 30
0.0
 11
-52.51979999999999
 21
21.062529
 31
0.0
  0
ARC
  5
2C5
330
36
100
AcDbEntity
  8
0
 62
     7
100
AcDbCircle
 10
-52.520586
 20
21.239036
 30
0.0
 40
0.176509
100
AcDbArc
 50
189.849182
 51
270.255114
  0
LINE
  5
2C6
330
36
100
AcDbEntity
  8
0
 62
     7
100
AcDbLine
 10
-52.69449300000001
 20
21.208843
 30
0.0
 11
-52.694993
 21
21.321125
 31
0.0
  0
LINE
  5
2C7
330
36
100
AcDbEntity
  8
0
 62
     7
100
AcDbLine
 10
-52.694993
 20
21.321125
 30
0.0
 11
-53.070687
 21
21.319452
 31
0.0
  0
LINE
  5
2C8
330
36
100
AcDbEntity
  8
0
 62
     7
100
AcDbLine
 10
-52.695641
 20
21.466642
 30
0.0
 11
-53.07133499999999
 21
21.464969
 31
0.0
  0
LINE
  5
2C9
330
36
100
AcDbEntity
  8
0
 62
     7
100
AcDbLine
 10
-50.43275399999998
 20
11.383616
 30
0.0
 11
-50.059529
 21
11.385277
 31
0.0
  0
LINE
  5
2CA
330
36
100
AcDbEntity
  8
0
 62
     7
100
AcDbLine
 10
-52.47811899999999
 20
11.68576
 30
0.0
 11
-50.610647
 21
11.694075
 31
0.0
  0
ARC
  5
2CB
330
36
100
AcDbEntity
  8
0
 62
     7
100
AcDbCircle
 10
-50.609861
 20
11.517568
 30
0.0
 40
0.176509
100
AcDbArc
 50
0.255114
 51
90.25511400000002
  0
LINE
  5
2CC
330
36
100
AcDbEntity
  8
0
 62
     7
100
AcDbLine
 10
-50.433354
 20
11.518354
 30
0.0
 11
-50.43275399999998
 21
11.383616
 31
0.0
  0
ARC
  5
2CD
330
36
100
AcDbEntity
  8
0
 62
     7
100
AcDbCircle
 10
-52.477333
 20
11.509253
 30
0.0
 40
0.176509
100
AcDbArc
 50
90.25511400000002
 51
180.255114
  0
LINE
  5
2CE
330
36
100
AcDbEntity
  8
0
 62
     7
100
AcDbLine
 10
-53.026466
 20
11.372067
 30
0.0
 11
-52.653241
 21
11.373729
 31
0.0
  0
LINE
  5
2CF
330
36
100
AcDbEntity
  8
0
 62
     7
100
AcDbLine
 10
-52.653841
 20
11.508467
 30
0.0
 11
-52.653241
 21
11.373729
 31
0.0
  0
ARC
  5
2D0
330
36
100
AcDbEntity
  8
0
 62
     3
100
AcDbCircle
 10
-43.192884
 20
24.555439
 30
0.0
 40
15.0
100
AcDbArc
 50
270.0
 51
302.574057
  0
LINE
  5
2D1
330
36
100
AcDbEntity
  8
0
 62
     3
100
AcDbLine
 10
-43.192884
 20
9.555438999999999
 30
0.0
 11
-47.81026299999999
 21
9.555438999999999
 31
0.0
  0
ARC
  5
2D2
330
36
100
AcDbEntity
  8
0
 62
     3
100
AcDbCircle
 10
-51.560263
 20
4.855198999999998
 30
0.0
 40
6.012882
100
AcDbArc
 50
51.41602299999998
 51
128.583977
  0
ARC
  5
2D3
330
36
100
AcDbEntity
  8
0
 62
     3
100
AcDbCircle
 10
-51.560263
 20
38.255678
 30
0.0
 40
6.012882
100
AcDbArc
 50
231.416023
 51
308.583977
  0
LINE
  5
2D4
330
36
100
AcDbEntity
  8
0
 62
     3
100
AcDbLine
 10
-43.192884
 20
33.555439
 30
0.0
 11
-47.81026299999999
 21
33.555439
 31
0.0
  0
ARC
  5
2D5
330
36
100
AcDbEntity
  8
0
 62
     3
100
AcDbCircle
 10
-43.192884
 20
18.555439
 30
0.0
 40
15.0
100
AcDbArc
 50
57.425943
 51
90.0
  0
LINE
  5
2D6
330
36
100
AcDbEntity
  8
0
 62
     7
100
AcDbLine
 10
-53.75660100000001
 20
10.555439
 30
0.0
 11
-53.75660100000001
 21
32.555439
 31
0.0
  0
LINE
  5
2D7
330
36
100
AcDbEntity
  8
0
 62
     7
100
AcDbLine
 10
-55.310263
 20
9.555438999999999
 30
0.0
 11
-55.310263
 21
33.555439
 31
0.0
  0
TEXT
  5
2D8
330
36
100
AcDbEntity
  8
0
 62
     7
100
AcDbText
 10
-91.710072
 20
17.605244
 30
0.0
 40
1.6
  1
防　雨　型
 50
90.00000300000001
 41
0.833333
100
AcDbText
  0
LINE
  5
2D9
330
36
100
AcDbEntity
  8
0
 62
     7
100
AcDbLine
 10
-100.707829
 20
13.769245
 30
0.0
 11
-103.707829
 21
13.769245
 31
0.0
  0
LINE
  5
2DA
330
36
100
AcDbEntity
  8
0
 62
     7
100
AcDbLine
 10
-101.457829
 20
14.519245
 30
0.0
 11
-102.957829
 21
14.519245
 31
0.0
  0
LINE
  5
2DB
330
36
100
AcDbEntity
  8
0
 62
     7
100
AcDbLine
 10
-103.707829
 20
19.769245
 30
0.0
 11
-103.707829
 21
13.769245
 31
0.0
  0
LINE
  5
2DC
330
36
100
AcDbEntity
  8
0
 62
     7
100
AcDbLine
 10
-102.957829
 20
19.019245
 30
0.0
 11
-102.957829
 21
14.519245
 31
0.0
  0
LINE
  5
2DD
330
36
100
AcDbEntity
  8
0
 62
     7
100
AcDbLine
 10
-101.457829
 20
19.019245
 30
0.0
 11
-101.457829
 21
14.519245
 31
0.0
  0
LINE
  5
2DE
330
36
100
AcDbEntity
  8
0
 62
     7
100
AcDbLine
 10
-100.707829
 20
19.769245
 30
0.0
 11
-100.707829
 21
13.769245
 31
0.0
  0
LINE
  5
2DF
330
36
100
AcDbEntity
  8
0
 62
     7
100
AcDbLine
 10
-100.707829
 20
19.769245
 30
0.0
 11
-103.707829
 21
19.769245
 31
0.0
  0
LINE
  5
2E0
330
36
100
AcDbEntity
  8
0
 62
     7
100
AcDbLine
 10
-101.457829
 20
19.019245
 30
0.0
 11
-102.957829
 21
19.019245
 31
0.0
  0
LINE
  5
2E1
330
36
100
AcDbEntity
  8
0
 62
     7
100
AcDbLine
 10
-105.857829
 20
24.519245
 30
0.0
 11
-108.857829
 21
24.519245
 31
0.0
  0
LINE
  5
2E2
330
36
100
AcDbEntity
  8
0
 62
     7
100
AcDbLine
 10
-108.857829
 20
24.519245
 30
0.0
 11
-108.857829
 21
18.519245
 31
0.0
  0
LINE
  5
2E3
330
36
100
AcDbEntity
  8
0
 62
     7
100
AcDbLine
 10
-106.607829
 20
23.769245
 30
0.0
 11
-108.107829
 21
23.769245
 31
0.0
  0
LINE
  5
2E4
330
36
100
AcDbEntity
  8
0
 62
     7
100
AcDbLine
 10
-108.107829
 20
23.769245
 30
0.0
 11
-108.107829
 21
19.269245
 31
0.0
  0
LINE
  5
2E5
330
36
100
AcDbEntity
  8
0
 62
     7
100
AcDbLine
 10
-106.607829
 20
23.769245
 30
0.0
 11
-106.607829
 21
19.269245
 31
0.0
  0
LINE
  5
2E6
330
36
100
AcDbEntity
  8
0
 62
     7
100
AcDbLine
 10
-105.857829
 20
24.519245
 30
0.0
 11
-105.857829
 21
18.519245
 31
0.0
  0
LINE
  5
2E7
330
36
100
AcDbEntity
  8
0
 62
     7
100
AcDbLine
 10
-106.607829
 20
19.269245
 30
0.0
 11
-108.107829
 21
19.269245
 31
0.0
  0
LINE
  5
2E8
330
36
100
AcDbEntity
  8
0
 62
     7
100
AcDbLine
 10
-105.857829
 20
18.519245
 30
0.0
 11
-108.857829
 21
18.519245
 31
0.0
  0
LINE
  5
2E9
330
36
100
AcDbEntity
  8
0
 62
     7
100
AcDbLine
 10
-95.557829
 20
24.519245
 30
0.0
 11
-98.55782900000001
 21
24.519245
 31
0.0
  0
LINE
  5
2EA
330
36
100
AcDbEntity
  8
0
 62
     7
100
AcDbLine
 10
-98.55782900000001
 20
24.519245
 30
0.0
 11
-98.55782900000001
 21
18.519245
 31
0.0
  0
LINE
  5
2EB
330
36
100
AcDbEntity
  8
0
 62
     7
100
AcDbLine
 10
-96.30782899999999
 20
23.769245
 30
0.0
 11
-97.807829
 21
23.769245
 31
0.0
  0
LINE
  5
2EC
330
36
100
AcDbEntity
  8
0
 62
     7
100
AcDbLine
 10
-97.807829
 20
23.769245
 30
0.0
 11
-97.807829
 21
19.269245
 31
0.0
  0
LINE
  5
2ED
330
36
100
AcDbEntity
  8
0
 62
     7
100
AcDbLine
 10
-96.30782899999999
 20
23.769245
 30
0.0
 11
-96.30782899999999
 21
19.269245
 31
0.0
  0
LINE
  5
2EE
330
36
100
AcDbEntity
  8
0
 62
     7
100
AcDbLine
 10
-96.30782899999999
 20
19.269245
 30
0.0
 11
-97.807829
 21
19.269245
 31
0.0
  0
LINE
  5
2EF
330
36
100
AcDbEntity
  8
0
 62
     7
100
AcDbLine
 10
-95.557829
 20
18.519245
 30
0.0
 11
-98.55782900000001
 21
18.519245
 31
0.0
  0
LINE
  5
2F0
330
36
100
AcDbEntity
  8
0
 62
     7
100
AcDbLine
 10
-105.207829
 20
25.169245
 30
0.0
 11
-99.207829
 21
25.169245
 31
0.0
  0
LINE
  5
2F1
330
36
100
AcDbEntity
  8
0
 62
     7
100
AcDbLine
 10
-104.457829
 20
25.919245
 30
0.0
 11
-99.95782900000001
 21
25.919245
 31
0.0
  0
LINE
  5
2F2
330
36
100
AcDbEntity
  8
0
 62
     7
100
AcDbLine
 10
-105.207829
 20
28.169245
 30
0.0
 11
-105.207829
 21
25.169245
 31
0.0
  0
LINE
  5
2F3
330
36
100
AcDbEntity
  8
0
 62
     7
100
AcDbLine
 10
-104.457829
 20
27.419245
 30
0.0
 11
-104.457829
 21
25.919245
 31
0.0
  0
LINE
  5
2F4
330
36
100
AcDbEntity
  8
0
 62
     7
100
AcDbLine
 10
-99.207829
 20
28.169245
 30
0.0
 11
-99.207829
 21
25.169245
 31
0.0
  0
LINE
  5
2F5
330
36
100
AcDbEntity
  8
0
 62
     7
100
AcDbLine
 10
-99.95782900000001
 20
27.419245
 30
0.0
 11
-99.95782900000001
 21
25.919245
 31
0.0
  0
LINE
  5
2F6
330
36
100
AcDbEntity
  8
0
 62
     7
100
AcDbLine
 10
-104.457829
 20
27.419245
 30
0.0
 11
-99.95782900000001
 21
27.419245
 31
0.0
  0
LINE
  5
2F7
330
36
100
AcDbEntity
  8
0
 62
     7
100
AcDbLine
 10
-105.207829
 20
28.169245
 30
0.0
 11
-99.207829
 21
28.169245
 31
0.0
  0
LINE
  5
2F8
330
36
100
AcDbEntity
  8
0
 62
     7
100
AcDbLine
 10
-105.207829
 20
28.169245
 30
0.0
 11
-104.457829
 21
27.419245
 31
0.0
  0
LINE
  5
2F9
330
36
100
AcDbEntity
  8
0
 62
     7
100
AcDbLine
 10
-104.457829
 20
25.919245
 30
0.0
 11
-105.207829
 21
25.169245
 31
0.0
  0
LINE
  5
2FA
330
36
100
AcDbEntity
  8
0
 62
     7
100
AcDbLine
 10
-99.95782900000001
 20
25.919245
 30
0.0
 11
-99.207829
 21
25.169245
 31
0.0
  0
LINE
  5
2FB
330
36
100
AcDbEntity
  8
0
 62
     7
100
AcDbLine
 10
-99.207829
 20
28.169245
 30
0.0
 11
-99.95782900000001
 21
27.419245
 31
0.0
  0
LINE
  5
2FC
330
36
100
AcDbEntity
  8
0
 62
     7
100
AcDbLine
 10
-98.55782900000001
 20
24.519245
 30
0.0
 11
-97.807829
 21
23.769245
 31
0.0
  0
LINE
  5
2FD
330
36
100
AcDbEntity
  8
0
 62
     7
100
AcDbLine
 10
-96.30782899999999
 20
23.769245
 30
0.0
 11
-95.557829
 21
24.519245
 31
0.0
  0
LINE
  5
2FE
330
36
100
AcDbEntity
  8
0
 62
     7
100
AcDbLine
 10
-96.30782899999999
 20
19.269245
 30
0.0
 11
-95.557829
 21
18.519245
 31
0.0
  0
LINE
  5
2FF
330
36
100
AcDbEntity
  8
0
 62
     7
100
AcDbLine
 10
-97.807829
 20
19.269245
 30
0.0
 11
-98.55782900000001
 21
18.519245
 31
0.0
  0
LINE
  5
300
330
36
100
AcDbEntity
  8
0
 62
     7
100
AcDbLine
 10
-105.857829
 20
24.519245
 30
0.0
 11
-106.607829
 21
23.769245
 31
0.0
  0
LINE
  5
301
330
36
100
AcDbEntity
  8
0
 62
     7
100
AcDbLine
 10
-108.107829
 20
23.769245
 30
0.0
 11
-108.857829
 21
24.519245
 31
0.0
  0
LINE
  5
302
330
36
100
AcDbEntity
  8
0
 62
     7
100
AcDbLine
 10
-108.107829
 20
19.269245
 30
0.0
 11
-108.857829
 21
18.519245
 31
0.0
  0
LINE
  5
303
330
36
100
AcDbEntity
  8
0
 62
     7
100
AcDbLine
 10
-106.607829
 20
19.269245
 30
0.0
 11
-105.857829
 21
18.519245
 31
0.0
  0
LINE
  5
304
330
36
100
AcDbEntity
  8
0
 62
     7
100
AcDbLine
 10
-103.707829
 20
19.769245
 30
0.0
 11
-102.957829
 21
19.019245
 31
0.0
  0
LINE
  5
305
330
36
100
AcDbEntity
  8
0
 62
     7
100
AcDbLine
 10
-101.457829
 20
19.019245
 30
0.0
 11
-100.707829
 21
19.769245
 31
0.0
  0
LINE
  5
306
330
36
100
AcDbEntity
  8
0
 62
     7
100
AcDbLine
 10
-101.457829
 20
14.519245
 30
0.0
 11
-100.707829
 21
13.769245
 31
0.0
  0
LINE
  5
307
330
36
100
AcDbEntity
  8
0
 62
     7
100
AcDbLine
 10
-102.957829
 20
14.519245
 30
0.0
 11
-103.707829
 21
13.769245
 31
0.0
  0
TEXT
  5
308
330
36
100
AcDbEntity
  8
0
 62
     7
100
AcDbText
 10
-106.607828
 20
10.895201
 30
0.0
 40
1.6
  1
19A 250V
 41
0.7166990000000001
100
AcDbText
  0
TEXT
  5
309
330
36
100
AcDbEntity
  8
0
 62
     7
100
AcDbText
 10
-102.033576
 20
29.66996
 30
0.0
 40
1.404158999999999
  1
JET
100
AcDbText
  0
ARC
  5
30A
330
36
100
AcDbEntity
  8
0
 62
     7
100
AcDbCircle
 10
-96.949207
 20
30.32906500000001
 30
0.0
 40
0.599625
100
AcDbArc
 50
204.102092
 51
28.326247
  0
LINE
  5
30B
330
36
100
AcDbEntity
  8
0
 62
     7
100
AcDbLine
 10
-96.329237
 20
30.699712
 30
0.0
 11
-96.889014
 21
29.730151
 31
0.0
  0
LINE
  5
30C
330
36
100
AcDbEntity
  8
0
 62
     7
100
AcDbLine
 10
-97.569177
 20
29.958417
 30
0.0
 11
-97.009401
 21
30.927979
 31
0.0
  0
ARC
  5
30D
330
36
100
AcDbEntity
  8
0
 62
     7
100
AcDbCircle
 10
-96.949207
 20
30.32906500000001
 30
0.0
 40
0.601931
100
AcDbArc
 50
26.802291
 51
204.26083
  0
TEXT
  5
30E
330
36
100
AcDbEntity
  8
0
 62
     7
100
AcDbText
 10
-103.403473
 20
29.66996
 30
0.0
 40
1.404158999999999
  1
E
100
AcDbText
  0
TEXT
  5
30F
330
36
100
AcDbEntity
  8
0
 62
     7
100
AcDbText
 10
-107.208186
 20
29.670764
 30
0.0
 40
1.404158999999999
  1
PS
100
AcDbText
  0
LINE
  5
310
330
36
100
AcDbEntity
  8
0
 62
     7
100
AcDbLine
 10
-108.094653
 20
30.41100200000001
 30
0.0
 11
-107.399712
 21
30.980468
 31
0.0
  0
LINE
  5
311
330
36
100
AcDbEntity
  8
0
 62
     7
100
AcDbLine
 10
-108.094653
 20
30.41100200000001
 30
0.0
 11
-107.399712
 21
29.841536
 31
0.0
  0
LINE
  5
312
330
36
100
AcDbEntity
  8
0
 62
     7
100
AcDbLine
 10
-103.779439
 20
30.41100200000001
 30
0.0
 11
-104.47438
 21
29.841536
 31
0.0
  0
LINE
  5
313
330
36
100
AcDbEntity
  8
0
 62
     7
100
AcDbLine
 10
-103.779439
 20
30.41100200000001
 30
0.0
 11
-104.47438
 21
30.980468
 31
0.0
  0
CIRCLE
  5
314
330
36
100
AcDbEntity
  8
0
 62
     7
100
AcDbCircle
 10
-105.769382
 20
16.669657
 30
0.0
 40
0.9374629999999999
  0
LINE
  5
315
330
36
100
AcDbEntity
  8
0
 62
     7
100
AcDbLine
 10
-105.206905
 20
16.294672
 30
0.0
 11
-106.33186
 21
16.294672
 31
0.0
  0
LINE
  5
316
330
36
100
AcDbEntity
  8
0
 62
     7
100
AcDbLine
 10
-105.769382
 20
16.575911
 30
0.0
 11
-105.769382
 21
17.419627
 31
0.0
  0
LINE
  5
317
330
36
100
AcDbEntity
  8
0
 62
     7
100
AcDbLine
 10
-105.535016
 20
16.013434
 30
0.0
 11
-106.003748
 21
16.013434
 31
0.0
  0
LINE
  5
318
330
36
100
AcDbEntity
  8
0
 62
     7
100
AcDbLine
 10
-105.019412
 20
16.575911
 30
0.0
 11
-106.519352
 21
16.575911
 31
0.0
  0
LINE
  5
319
330
36
100
AcDbEntity
  8
0
 62
     7
100
AcDbLine
 10
-96.949207
 20
30.930996
 30
0.0
 11
-96.949207
 21
29.727133
 31
0.0
  0
LINE
  5
31A
330
36
100
AcDbEntity
  8
0
 62
     7
100
AcDbLine
 10
-95.557829
 20
24.519245
 30
0.0
 11
-95.557829
 21
18.519245
 31
0.0
  0
LINE
  5
31D
330
36
100
AcDbEntity
  8
0
 62
     3
100
AcDbLine
 10
112.7006
 20
-73.27113299999997
 30
0.0
 11
112.7006
 21
-50.27113299999999
 31
0.0
  0
LINE
  5
31F
330
36
100
AcDbEntity
  8
0
 62
     3
100
AcDbLine
 10
59.646991
 20
-80.27113299999998
 30
0.0
 11
59.646991
 21
-66.27113299999999
 31
0.0
  0
TEXT
  5
321
330
36
100
AcDbEntity
  8
0
 62
     3
100
AcDbText
 10
88.710918
 20
-54.066017
 30
0.0
 40
2.0
  1
A
 41
0.7
100
AcDbText
  0
TEXT
  5
322
330
36
100
AcDbEntity
  8
0
 62
     3
100
AcDbText
 10
91.246205
 20
-54.066017
 30
0.0
 40
2.0
  1
P
 41
0.7
100
AcDbText
  0
TEXT
  5
323
330
36
100
AcDbEntity
  8
0
 62
     3
100
AcDbText
 10
93.78149099999999
 20
-54.066017
 30
0.0
 40
2.0
  1
P
 41
0.7
100
AcDbText
  0
TEXT
  5
324
330
36
100
AcDbEntity
  8
0
 62
     3
100
AcDbText
 10
96.316777
 20
-54.066017
 30
0.0
 40
2.0
  1
D
 41
0.7
100
AcDbText
  0
TEXT
  5
325
330
36
100
AcDbEntity
  8
0
 62
     3
100
AcDbText
 10
101.68546
 20
-54.066017
 30
0.0
 40
2.0
  1
C
 41
0.7
100
AcDbText
  0
TEXT
  5
326
330
36
100
AcDbEntity
  8
0
 62
     3
100
AcDbText
 10
104.220746
 20
-54.066017
 30
0.0
 40
2.0
  1
H
 41
0.7
100
AcDbText
  0
TEXT
  5
327
330
36
100
AcDbEntity
  8
0
 62
     3
100
AcDbText
 10
106.756033
 20
-54.066017
 30
0.0
 40
2.0
  1
C
 41
0.7
100
AcDbText
  0
TEXT
  5
328
330
36
100
AcDbEntity
  8
0
 62
     3
100
AcDbText
 10
109.291319
 20
-54.066017
 30
0.0
 40
2.0
  1
K
 41
0.7
100
AcDbText
  0
TEXT
  5
329
330
36
100
AcDbEntity
  8
0
 62
     3
100
AcDbText
 10
114.965285
 20
-54.066017
 30
0.0
 40
2.0
  1
DESN
 41
1.216762999999998
100
AcDbText
  0
TEXT
  5
32A
330
36
100
AcDbEntity
  8
0
 62
     3
100
AcDbText
 10
29.958927
 20
-83.412515
 30
0.0
 40
2.0
  1
NICHIDO IND.CO.LTD
 41
1.274876
100
AcDbText
  0
LINE
  5
32B
330
36
100
AcDbEntity
  8
0
 62
     3
100
AcDbLine
 10
40.341956
 20
-50.27113299999999
 30
0.0
 11
40.341956
 21
-73.27113299999997
 31
0.0
  0
LINE
  5
32C
330
36
100
AcDbEntity
  8
0
 62
     3
100
AcDbLine
 10
86.70059999999997
 20
-50.27113299999999
 30
0.0
 11
86.70059999999997
 21
-89.936856
 31
0.0
  0
LINE
  5
331
330
36
100
AcDbEntity
  8
0
 62
     3
100
AcDbLine
 10
99.7006
 20
-50.27113299999999
 30
0.0
 11
99.7006
 21
-80.27113299999998
 31
0.0
  0
TEXT
  5
332
330
36
100
AcDbEntity
  8
0
 62
     3
100
AcDbText
 10
87.81304499999995
 20
-79.406446
 30
0.0
 40
3.2
  1
作成日
 41
1.017225999999997
100
AcDbText
  0
LINE
  5
333
330
36
100
AcDbEntity
  8
0
 62
     3
100
AcDbLine
 10
138.399964
 20
-50.27113299999999
 30
0.0
 11
27.096521
 21
-50.27113299999999
 31
0.0
  0
LINE
  5
334
330
36
100
AcDbEntity
  8
0
 62
     3
100
AcDbLine
 10
125.7006
 20
-73.27113299999997
 30
0.0
 11
125.7006
 21
-50.27113299999999
 31
0.0
  0
TEXT
  5
335
330
36
100
AcDbEntity
  8
0
 62
     3
100
AcDbText
 10
129.024404
 20
-53.980199
 30
0.0
 40
1.8
  1
D
 41
0.666667
100
AcDbText
  0
TEXT
  5
336
330
36
100
AcDbEntity
  8
0
 62
     3
100
AcDbText
 10
131.841032
 20
-53.980199
 30
0.0
 40
1.8
  1
E
 41
0.666667
100
AcDbText
  0
TEXT
  5
337
330
36
100
AcDbEntity
  8
0
 62
     3
100
AcDbText
 10
134.65766
 20
-53.980199
 30
0.0
 40
1.8
  1
F
 41
0.666667
100
AcDbText
  0
TEXT
  5
338
330
36
100
AcDbEntity
  8
0
 62
     3
100
AcDbText
 10
129.024404
 20
-57.972752
 30
0.0
 40
3.2
  1
製図
 41
1.076369
100
AcDbText
  0
LINE
  5
339
330
36
100
AcDbEntity
  8
0
 62
     3
100
AcDbLine
 10
27.096521
 20
-50.27113299999999
 30
0.0
 11
27.096521
 21
-89.936856
 31
0.0
  0
TEXT
  5
33A
330
36
100
AcDbEntity
  8
0
 62
     3
100
AcDbText
 10
28.473174
 20
-89.60439
 30
0.0
 40
5.0
  1
日動工業株式会社
 41
0.833333
100
AcDbText
  0
LINE
  5
33B
330
36
100
AcDbEntity
  8
0
 62
     3
100
AcDbLine
 10
69.97892500000002
 20
-66.27113300000001
 30
0.0
 11
69.978925
 21
-89.936856
 31
0.0
  0
LINE
  5
33C
330
36
100
AcDbEntity
  8
0
 62
     3
100
AcDbLine
 10
69.978925
 20
-85.103994
 30
0.0
 11
86.70059999999997
 21
-85.103994
 31
0.0
  0
TEXT
  5
33D
330
36
100
AcDbEntity
  8
0
 62
     3
100
AcDbText
 10
70.56552700000001
 20
-84.28756400000002
 30
0.0
 40
3.2
  1
出図コード
 41
0.8356860000000001
100
AcDbText
  0
LINE
  5
33F
330
36
100
AcDbEntity
  8
0
 62
     3
100
AcDbLine
 10
27.096521
 20
-80.27113299999998
 30
0.0
 11
138.399964
 21
-80.27113299999998
 31
0.0
  0
LINE
  5
341
330
36
100
AcDbEntity
  8
0
 62
     3
100
AcDbLine
 10
27.096521
 20
-59.271133
 30
0.0
 11
138.399964
 21
-59.271133
 31
0.0
  0
LINE
  5
347
330
36
100
AcDbEntity
  8
0
 62
     3
100
AcDbLine
 10
27.096521
 20
-66.27113299999999
 30
0.0
 11
86.70059999999997
 21
-66.27113299999999
 31
0.0
  0
LINE
  5
34D
330
36
100
AcDbEntity
  8
0
 62
     3
100
AcDbLine
 10
27.096521
 20
-73.27113299999997
 30
0.0
 11
138.399964
 21
-73.27113299999997
 31
0.0
  0
TEXT
  5
34E
330
36
100
AcDbEntity
  8
0
 62
     3
100
AcDbText
 10
70.432979
 20
-89.334661
 30
0.0
 40
3.2
  1
ZK-A4X
 41
0.8112849999999999
100
AcDbText
  0
TEXT
  5
34F
330
36
100
AcDbEntity
  8
0
 62
     3
100
AcDbText
 10
28.913918
 20
-54.10160699999998
 30
0.0
 40
2.0
  1
CONPONENTS
 41
0.5331600000000001
100
AcDbText
  0
TEXT
  5
350
330
36
100
AcDbEntity
  8
0
 62
     3
100
AcDbText
 10
28.564192
 20
-73.03378399999998
 30
0.0
 40
3.0
  1
材
 41
0.833333
100
AcDbText
  0
TEXT
  5
351
330
36
100
AcDbEntity
  8
0
 62
     3
100
AcDbText
 10
36.099834
 20
-73.03378399999998
 30
0.0
 40
3.0
  1
質
 41
0.833333
100
AcDbText
  0
TEXT
  5
352
330
36
100
AcDbEntity
  8
0
 62
     3
100
AcDbText
 10
28.652262
 20
-62.40925999999999
 30
0.0
 40
2.0
  1
MODEL
 41
1.031072999999999
100
AcDbText
  0
TEXT
  5
353
330
36
100
AcDbEntity
  8
0
 62
     3
100
AcDbText
 10
28.564192
 20
-69.351476
 30
0.0
 40
2.0
  1
MATERIAL
 41
0.659278
100
AcDbText
  0
TEXT
  5
354
330
36
100
AcDbEntity
  8
0
 62
     3
100
AcDbText
 10
59.87147199999999
 20
-73.03378399999998
 30
0.0
 40
3.0
  1
備
 41
0.833333
100
AcDbText
  0
TEXT
  5
355
330
36
100
AcDbEntity
  8
0
 62
     3
100
AcDbText
 10
66.60447399999999
 20
-73.03378399999998
 30
0.0
 40
3.0
  1
考
 41
0.833333
100
AcDbText
  0
TEXT
  5
356
330
36
100
AcDbEntity
  8
0
 62
     3
100
AcDbText
 10
60.15431298380076
 20
-69.351476
 30
0.0
 40
2.0
  1
REMARKS
 41
0.675794
100
AcDbText
  0
TEXT
  5
357
330
36
100
AcDbEntity
  8
0
 62
     3
100
AcDbText
 10
30.153921
 20
-76.27159699999999
 30
0.0
 40
2.0
  1
3AD
 41
1.42614
100
AcDbText
  0
TEXT
  5
358
330
36
100
AcDbEntity
  8
0
 62
     3
100
AcDbText
 10
39.4649
 20
-76.105863
 30
0.0
 40
2.0
  1
ANGLE
 41
1.669883999999997
100
AcDbText
  0
TEXT
  5
359
330
36
100
AcDbEntity
  8
0
 62
     3
100
AcDbText
 10
60.398787
 20
-76.482704
 30
0.0
 40
2.0
  1
SCALE
 41
0.7719630000000001
100
AcDbText
  0
TEXT
  5
35A
330
36
100
AcDbEntity
  8
0
 62
     3
100
AcDbText
 10
29.84005
 20
-80.27113299999998
 30
0.0
 40
3.0
  1
第
 41
0.833333
100
AcDbText
  0
TEXT
  5
35B
330
36
100
AcDbEntity
  8
0
 62
     3
100
AcDbText
 10
37.6269
 20
-80.27113299999998
 30
0.0
 40
3.0
  1
三
 41
0.833333
100
AcDbText
  0
TEXT
  5
35C
330
36
100
AcDbEntity
  8
0
 62
     3
100
AcDbText
 10
45.41375
 20
-80.27113299999998
 30
0.0
 40
3.0
  1
角
 41
0.833333
100
AcDbText
  0
TEXT
  5
35D
330
36
100
AcDbEntity
  8
0
 62
     3
100
AcDbText
 10
53.2006
 20
-80.27113299999998
 30
0.0
 40
3.0
  1
法
 41
0.833333
100
AcDbText
  0
TEXT
  5
35E
330
36
100
AcDbEntity
  8
0
 62
     3
100
AcDbText
 10
60.261992
 20
-79.982704
 30
0.0
 40
3.0
  1
尺
 41
0.833333
100
AcDbText
  0
TEXT
  5
35F
330
36
100
AcDbEntity
  8
0
 62
     3
100
AcDbText
 10
66.99499399999999
 20
-79.982704
 30
0.0
 40
3.0
  1
度
 41
0.833333
100
AcDbText
  0
TEXT
  5
360
330
36
100
AcDbEntity
  8
0
 62
     3
100
AcDbText
 10
89.57826500000001
 20
-57.81340400000001
 30
0.0
 40
3.0
  1
承認
 41
1.089472999999999
100
AcDbText
  0
TEXT
  5
361
330
36
100
AcDbEntity
  8
0
 62
     3
100
AcDbText
 10
102.821145
 20
-57.87113299999999
 30
0.0
 40
3.0
  1
検図
 41
0.931761
100
AcDbText
  0
TEXT
  5
362
330
36
100
AcDbEntity
  8
0
 62
     3
100
AcDbText
 10
115.821542
 20
-57.87113299999999
 30
0.0
 40
3.0
  1
設
 41
0.833333
100
AcDbText
  0
TEXT
  5
363
330
36
100
AcDbEntity
  8
0
 62
     3
100
AcDbText
 10
120.31141
 20
-57.87113299999999
 30
0.0
 40
3.0
  1
計
 41
0.833333
100
AcDbText
  0
TEXT
  5
364
330
36
100
AcDbEntity
  8
0
 62
     3
100
AcDbText
 10
28.84539
 20
-58.582377
 30
0.0
 40
3.0
  1
品
 41
0.833333
100
AcDbText
  0
TEXT
  5
365
330
36
100
AcDbEntity
  8
0
 62
     3
100
AcDbText
 10
36.381032
 20
-58.582377
 30
0.0
 40
3.0
  1
名
 41
0.833333
100
AcDbText
  0
TEXT
  5
366
330
36
100
AcDbEntity
  8
0
 62
     3
100
AcDbText
 10
28.652262
 20
-66.04151999999999
 30
0.0
 40
3.0
  1
型
 41
0.833333
100
AcDbText
  0
TEXT
  5
367
330
36
100
AcDbEntity
  8
0
 62
     3
100
AcDbText
 10
36.200353
 20
-66.04151999999999
 30
0.0
 40
3.0
  1
式
 41
0.833333
100
AcDbText
  0
TEXT
  5
368
330
36
100
AcDbEntity
  8
0
 62
     3
100
AcDbText
 10
46.03912499999998
 20
-65.062013
 30
0.0
 40
4.5
  1
4P20AW-5
  7
高4.5
100
AcDbText
  0
TEXT
  5
369
330
36
100
AcDbEntity
  8
0
 62
     3
100
AcDbText
 10
-55.01719889257015
 20
-40.87129600441936
 30
0.0
 40
4.5
  1
4P20AW-5
 41
0.8
  7
高4.5
100
AcDbText
  0
TEXT
  5
36A
330
36
100
AcDbEntity
  8
0
 62
     3
100
AcDbText
 10
88.91264541951363
 20
-88.98313599999999
 30
0.0
 40
6.299999999999998
  1
4P20AW-5
 41
0.9
  7
高6.3
100
AcDbText
  0
LINE
  5
36B
330
36
100
AcDbEntity
  8
0
 62
     3
100
AcDbLine
 10
112.7006
 20
-50.27113299999999
 30
0.0
 11
112.7006
 21
-44.271133
 31
0.0
  0
LINE
  5
36C
330
36
100
AcDbEntity
  8
0
 62
     3
100
AcDbLine
 10
86.70059999999997
 20
-50.27113299999999
 30
0.0
 11
86.70059999999997
 21
-44.271133
 31
0.0
  0
LINE
  5
36D
330
36
100
AcDbEntity
  8
0
 62
     3
100
AcDbLine
 10
138.399963
 20
-44.271133
 30
0.0
 11
86.70059999999997
 21
-44.271133
 31
0.0
  0
TEXT
  5
36E
330
36
100
AcDbEntity
  8
0
 62
     3
100
AcDbText
 10
91.3393633227074
 20
-49.474784
 30
0.0
 40
4.5
  1
コード
  7
高4.5
100
AcDbText
  0
TEXT
  5
36F
330
36
100
AcDbEntity
  8
0
 62
     3
100
AcDbText
 10
114.687746
 20
-49.626996
 30
0.0
 40
4.5
  1
5069
  7
高4.5
100
AcDbText
  0
LINE
  5
372
330
36
100
AcDbEntity
  8
0
 62
     3
100
AcDbLine
 10
-10.01907090335762
 20
-76.87129600441938
 30
0.0
 11
-88.77921489257014
 21
-76.87129600441938
 31
0.0
  0
TEXT
  5
376
330
36
100
AcDbEntity
  8
0
 62
     3
100
AcDbText
 10
-55.01719889257014
 20
-68.87129600441937
 30
0.0
 40
4.5
  1
材質 PVC樹脂
 41
0.8
  7
高4.5
100
AcDbText
  0
TEXT
  5
377
330
36
100
AcDbEntity
  8
0
 62
     3
100
AcDbText
 10
-86.77921489257014
 20
-68.87129600441937
 30
0.0
 40
4.5
  1
プラグ・コンセント
 41
0.6
  7
高4.5
100
AcDbText
  0
TEXT
  5
4B1
330
36
100
AcDbEntity
  8
0
 62
     3
100
AcDbText
 10
125.9999999999999
 20
80.5
 30
0.0
 40
3.2
  1
担　当
  7
高3.2
100
AcDbText
  0
TEXT
  5
4B2
330
36
100
AcDbEntity
  8
0
 62
     3
100
AcDbText
 10
81.99999999999988
 20
80.5
 30
0.0
 40
3.2
  1
変更・追記内容
  7
高3.2
100
AcDbText
  0
TEXT
  5
4B3
330
36
100
AcDbEntity
  8
0
 62
     3
100
AcDbText
 10
57.11351500033913
 20
75.82946149009171
 30
0.0
 40
2.0
  1
1
  7
高2
100
AcDbText
  0
TEXT
  5
4B4
330
36
100
AcDbEntity
  8
0
 62
     3
100
AcDbText
 10
56.80500352358183
 20
70.65964477781881
 30
0.0
 40
2.0
  1
2
  7
高2
100
AcDbText
  0
TEXT
  5
4B5
330
36
100
AcDbEntity
  8
0
 62
     3
100
AcDbText
 10
63.99999999999988
 20
80.5
 30
0.0
 40
3.2
  1
日　付
  7
高3.2
100
AcDbText
  0
TEXT
  5
4B6
330
36
100
AcDbEntity
  8
0
 62
     3
100
AcDbText
 10
63.99999999999988
 20
85.5
 30
0.0
 40
3.2
  1
図　　　　面　　　　略　　　　歴
  7
高3.2
100
AcDbText
  0
TEXT
  5
4B7
330
36
100
AcDbEntity
  8
0
 62
     3
100
AcDbText
 10
53.99999999999988
 20
80.5
 30
0.0
 40
3.2
  1
記号
  7
高3.2
100
AcDbText
  0
LINE
  5
4B8
330
36
100
AcDbEntity
  8
0
 62
     7
100
AcDbLine
 10
57.49999999999989
 20
73.79089600000009
 30
0.0
 11
55.59999999999991
 21
70.5
 31
0.0
  0
LINE
  5
4B9
330
36
100
AcDbEntity
  8
0
 62
     7
100
AcDbLine
 10
57.49999999999989
 20
73.79089600000009
 30
0.0
 11
59.39999999999987
 21
70.5
 31
0.0
  0
LINE
  5
4BA
330
36
100
AcDbEntity
  8
0
 62
     7
100
AcDbLine
 10
55.59999999999991
 20
70.5
 30
0.0
 11
59.39999999999987
 21
70.5
 31
0.0
  0
LINE
  5
4BB
330
36
100
AcDbEntity
  8
0
 62
     7
100
AcDbLine
 10
57.49999999999989
 20
78.79089700000008
 30
0.0
 11
55.59999999999991
 21
75.5
 31
0.0
  0
LINE
  5
4BC
330
36
100
AcDbEntity
  8
0
 62
     7
100
AcDbLine
 10
57.49999999999989
 20
78.79089700000008
 30
0.0
 11
59.39999999999987
 21
75.5
 31
0.0
  0
LINE
  5
4BD
330
36
100
AcDbEntity
  8
0
 62
     7
100
AcDbLine
 10
55.59999999999991
 20
75.5
 30
0.0
 11
59.39999999999987
 21
75.5
 31
0.0
  0
LINE
  5
4BE
330
36
100
AcDbEntity
  8
0
 62
     3
100
AcDbLine
 10
52.49999999999989
 20
85.0
 30
0.0
 11
138.4999999999999
 21
85.0
 31
0.0
  0
LINE
  5
4BF
330
36
100
AcDbEntity
  8
0
 62
     3
100
AcDbLine
 10
52.49999999999989
 20
80.0
 30
0.0
 11
138.4999999999999
 21
80.0
 31
0.0
  0
LINE
  5
4C0
330
36
100
AcDbEntity
  8
0
 62
     7
100
AcDbLine
 10
52.49999999999989
 20
75.0
 30
0.0
 11
138.4999999999999
 21
75.0
 31
0.0
  0
LINE
  5
4C1
330
36
100
AcDbEntity
  8
0
 62
     3
100
AcDbLine
 10
52.49999999999989
 20
70.0
 30
0.0
 11
138.4999999999999
 21
70.0
 31
0.0
  0
LINE
  5
4C2
330
36
100
AcDbEntity
  8
0
 62
     7
100
AcDbLine
 10
124.4999999999997
 20
70.0
 30
0.0
 11
124.4999999999999
 21
85.0
 31
0.0
  0
LINE
  5
4C3
330
36
100
AcDbEntity
  8
0
 62
     7
100
AcDbLine
 10
80.49999999999988
 20
70.0
 30
0.0
 11
80.49999999999988
 21
85.0
 31
0.0
  0
LINE
  5
4C4
330
36
100
AcDbEntity
  8
0
 62
     7
100
AcDbLine
 10
62.49999999999989
 20
70.0
 30
0.0
 11
62.49999999999989
 21
85.0
 31
0.0
  0
LINE
  5
4C5
330
36
100
AcDbEntity
  8
0
 62
     3
100
AcDbLine
 10
52.49999999999989
 20
70.0
 30
0.0
 11
52.49999999999989
 21
90.0
 31
0.0
  0
LINE
  5
814
330
36
100
AcDbEntity
  8
0
 62
     7
100
AcDbLine
 10
-51.957741
 20
18.578765
 30
0.0
 11
-52.042873
 21
18.565081
 31
0.0
  0
LINE
  5
815
330
36
100
AcDbEntity
  8
0
 62
     7
100
AcDbLine
 10
-52.042873
 20
18.565081
 30
0.0
 11
-52.124375
 21
18.548738
 31
0.0
  0
LINE
  5
816
330
36
100
AcDbEntity
  8
0
 62
     7
100
AcDbLine
 10
-52.124375
 20
18.548738
 30
0.0
 11
-52.20162
 21
18.529864
 31
0.0
  0
LINE
  5
817
330
36
100
AcDbEntity
  8
0
 62
     7
100
AcDbLine
 10
-52.20162
 20
18.529864
 30
0.0
 11
-52.274009
 21
18.508604
 31
0.0
  0
LINE
  5
818
330
36
100
AcDbEntity
  8
0
 62
     7
100
AcDbLine
 10
-52.274009
 20
18.508604
 30
0.0
 11
-52.340984
 21
18.485123
 31
0.0
  0
LINE
  5
819
330
36
100
AcDbEntity
  8
0
 62
     7
100
AcDbLine
 10
-52.340984
 20
18.485123
 30
0.0
 11
-52.40202599999999
 21
18.459602
 31
0.0
  0
LINE
  5
81A
330
36
100
AcDbEntity
  8
0
 62
     7
100
AcDbLine
 10
-52.40202599999999
 20
18.459602
 30
0.0
 11
-52.45666299999999
 21
18.432238
 31
0.0
  0
LINE
  5
81B
330
36
100
AcDbEntity
  8
0
 62
     7
100
AcDbLine
 10
-52.45666299999999
 20
18.432238
 30
0.0
 11
-52.504474
 21
18.403244
 31
0.0
  0
LINE
  5
81C
330
36
100
AcDbEntity
  8
0
 62
     7
100
AcDbLine
 10
-52.504474
 20
18.403244
 30
0.0
 11
-52.54508900000001
 21
18.372842
 31
0.0
  0
LINE
  5
81D
330
36
100
AcDbEntity
  8
0
 62
     7
100
AcDbLine
 10
-52.54508900000001
 20
18.372842
 30
0.0
 11
-52.57819300000001
 21
18.341268
 31
0.0
  0
LINE
  5
81E
330
36
100
AcDbEntity
  8
0
 62
     7
100
AcDbLine
 10
-52.57819300000001
 20
18.341268
 30
0.0
 11
-52.60353199999999
 21
18.308766
 31
0.0
  0
LINE
  5
81F
330
36
100
AcDbEntity
  8
0
 62
     7
100
AcDbLine
 10
-52.60353199999999
 20
18.308766
 30
0.0
 11
-52.620909
 21
18.275588
 31
0.0
  0
LINE
  5
820
330
36
100
AcDbEntity
  8
0
 62
     7
100
AcDbLine
 10
-52.620909
 20
18.275588
 30
0.0
 11
-52.630189
 21
18.241989
 31
0.0
  0
LINE
  5
821
330
36
100
AcDbEntity
  8
0
 62
     7
100
AcDbLine
 10
-52.630189
 20
18.241989
 30
0.0
 11
-52.631301
 21
18.20823
 31
0.0
  0
LINE
  5
822
330
36
100
AcDbEntity
  8
0
 62
     7
100
AcDbLine
 10
-52.631301
 20
18.20823
 30
0.0
 11
-52.624237
 21
18.174571
 31
0.0
  0
LINE
  5
823
330
36
100
AcDbEntity
  8
0
 62
     7
100
AcDbLine
 10
-52.624237
 20
18.174571
 30
0.0
 11
-52.609051
 21
18.141272
 31
0.0
  0
LINE
  5
824
330
36
100
AcDbEntity
  8
0
 62
     7
100
AcDbLine
 10
-52.609051
 20
18.141272
 30
0.0
 11
-52.585861
 21
18.108592
 31
0.0
  0
LINE
  5
825
330
36
100
AcDbEntity
  8
0
 62
     7
100
AcDbLine
 10
-52.585861
 20
18.108592
 30
0.0
 11
-52.55484499999999
 21
18.076782
 31
0.0
  0
LINE
  5
826
330
36
100
AcDbEntity
  8
0
 62
     7
100
AcDbLine
 10
-52.55484499999999
 20
18.076782
 30
0.0
 11
-52.516243
 21
18.046088
 31
0.0
  0
LINE
  5
827
330
36
100
AcDbEntity
  8
0
 62
     7
100
AcDbLine
 10
-52.516243
 20
18.046088
 30
0.0
 11
-52.470355
 21
18.016748
 31
0.0
  0
LINE
  5
828
330
36
100
AcDbEntity
  8
0
 62
     7
100
AcDbLine
 10
-52.470355
 20
18.016748
 30
0.0
 11
-52.417534
 21
17.988989
 31
0.0
  0
LINE
  5
829
330
36
100
AcDbEntity
  8
0
 62
     7
100
AcDbLine
 10
-52.417534
 20
17.988989
 30
0.0
 11
-52.358188
 21
17.963024
 31
0.0
  0
LINE
  5
82A
330
36
100
AcDbEntity
  8
0
 62
     7
100
AcDbLine
 10
-52.358188
 20
17.963024
 30
0.0
 11
-52.292777
 21
17.939055
 31
0.0
  0
LINE
  5
82B
330
36
100
AcDbEntity
  8
0
 62
     7
100
AcDbLine
 10
-52.292777
 20
17.939055
 30
0.0
 11
-52.221807
 21
17.917267
 31
0.0
  0
LINE
  5
82C
330
36
100
AcDbEntity
  8
0
 62
     7
100
AcDbLine
 10
-52.221807
 20
17.917267
 30
0.0
 11
-52.145824
 21
17.897828
 31
0.0
  0
LINE
  5
82D
330
36
100
AcDbEntity
  8
0
 62
     7
100
AcDbLine
 10
-52.145824
 20
17.897828
 30
0.0
 11
-52.065418
 21
17.880889
 31
0.0
  0
LINE
  5
82E
330
36
100
AcDbEntity
  8
0
 62
     7
100
AcDbLine
 10
-52.065418
 20
17.880889
 30
0.0
 11
-51.981209
 21
17.866581
 31
0.0
  0
LINE
  5
82F
330
36
100
AcDbEntity
  8
0
 62
     7
100
AcDbLine
 10
-51.981209
 20
17.866581
 30
0.0
 11
-51.893849
 21
17.855013
 31
0.0
  0
LINE
  5
830
330
36
100
AcDbEntity
  8
0
 62
     7
100
AcDbLine
 10
-51.893849
 20
17.855013
 30
0.0
 11
-51.804012
 21
17.846277
 31
0.0
  0
LINE
  5
831
330
36
100
AcDbEntity
  8
0
 62
     7
100
AcDbLine
 10
-51.804012
 20
17.846277
 30
0.0
 11
-51.71239299999999
 21
17.840438
 31
0.0
  0
LINE
  5
832
330
36
100
AcDbEntity
  8
0
 62
     7
100
AcDbLine
 10
-51.71239299999999
 20
17.840438
 30
0.0
 11
-51.619701
 21
17.837542
 31
0.0
  0
LINE
  5
833
330
36
100
AcDbEntity
  8
0
 62
     7
100
AcDbLine
 10
-51.619701
 20
17.837542
 30
0.0
 11
-51.526651
 21
17.837612
 31
0.0
  0
LINE
  5
834
330
36
100
AcDbEntity
  8
0
 62
     7
100
AcDbLine
 10
-51.526651
 20
17.837612
 30
0.0
 11
-51.433962
 21
17.840647
 31
0.0
  0
LINE
  5
835
330
36
100
AcDbEntity
  8
0
 62
     7
100
AcDbLine
 10
-51.433962
 20
17.840647
 30
0.0
 11
-51.342353
 21
17.846624
 31
0.0
  0
LINE
  5
836
330
36
100
AcDbEntity
  8
0
 62
     7
100
AcDbLine
 10
-51.342353
 20
17.846624
 30
0.0
 11
-51.25252899999999
 21
17.855496
 31
0.0
  0
LINE
  5
837
330
36
100
AcDbEntity
  8
0
 62
     7
100
AcDbLine
 10
-51.25252899999999
 20
17.855496
 30
0.0
 11
-51.165186
 21
17.867195
 31
0.0
  0
LINE
  5
838
330
36
100
AcDbEntity
  8
0
 62
     7
100
AcDbLine
 10
-51.165186
 20
17.867195
 30
0.0
 11
-51.080999
 21
17.88163
 31
0.0
  0
LINE
  5
839
330
36
100
AcDbEntity
  8
0
 62
     7
100
AcDbLine
 10
-51.080999
 20
17.88163
 30
0.0
 11
-51.00061799999998
 21
17.89869
 31
0.0
  0
LINE
  5
83A
330
36
100
AcDbEntity
  8
0
 62
     7
100
AcDbLine
 10
-51.00061799999998
 20
17.89869
 30
0.0
 11
-50.92466599999998
 21
17.918243
 31
0.0
  0
LINE
  5
83B
330
36
100
AcDbEntity
  8
0
 62
     7
100
AcDbLine
 10
-50.92466599999998
 20
17.918243
 30
0.0
 11
-50.853728
 21
17.940138
 31
0.0
  0
LINE
  5
83C
330
36
100
AcDbEntity
  8
0
 62
     7
100
AcDbLine
 10
-50.853728
 20
17.940138
 30
0.0
 11
-50.788353
 21
17.964205
 31
0.0
  0
LINE
  5
83D
330
36
100
AcDbEntity
  8
0
 62
     7
100
AcDbLine
 10
-50.788353
 20
17.964205
 30
0.0
 11
-50.72904699999998
 21
17.990259
 31
0.0
  0
LINE
  5
83E
330
36
100
AcDbEntity
  8
0
 62
     7
100
AcDbLine
 10
-50.72904699999998
 20
17.990259
 30
0.0
 11
-50.67626699999999
 21
18.018098
 31
0.0
  0
LINE
  5
83F
330
36
100
AcDbEntity
  8
0
 62
     7
100
AcDbLine
 10
-50.67626699999999
 20
18.018098
 30
0.0
 11
-50.630423
 21
18.047507
 31
0.0
  0
LINE
  5
840
330
36
100
AcDbEntity
  8
0
 62
     7
100
AcDbLine
 10
-50.630423
 20
18.047507
 30
0.0
 11
-50.59186799999999
 21
18.078259
 31
0.0
  0
LINE
  5
841
330
36
100
AcDbEntity
  8
0
 62
     7
100
AcDbLine
 10
-50.59186799999999
 20
18.078259
 30
0.0
 11
-50.5609
 21
18.110116
 31
0.0
  0
LINE
  5
842
330
36
100
AcDbEntity
  8
0
 62
     7
100
AcDbLine
 10
-50.5609
 20
18.110116
 30
0.0
 11
-50.537758
 21
18.142831
 31
0.0
  0
LINE
  5
843
330
36
100
AcDbEntity
  8
0
 62
     7
100
AcDbLine
 10
-50.537758
 20
18.142831
 30
0.0
 11
-50.52262299999998
 21
18.176152
 31
0.0
  0
LINE
  5
844
330
36
100
AcDbEntity
  8
0
 62
     7
100
AcDbLine
 10
-50.52262299999998
 20
18.176152
 30
0.0
 11
-50.51560900000001
 21
18.209822
 31
0.0
  0
LINE
  5
845
330
36
100
AcDbEntity
  8
0
 62
     7
100
AcDbLine
 10
-50.51560900000001
 20
18.209822
 30
0.0
 11
-50.516772
 21
18.243579
 31
0.0
  0
LINE
  5
846
330
36
100
AcDbEntity
  8
0
 62
     7
100
AcDbLine
 10
-50.516772
 20
18.243579
 30
0.0
 11
-50.52610300000001
 21
18.277164
 31
0.0
  0
LINE
  5
847
330
36
100
AcDbEntity
  8
0
 62
     7
100
AcDbLine
 10
-50.52610300000001
 20
18.277164
 30
0.0
 11
-50.54352999999998
 21
18.310317
 31
0.0
  0
LINE
  5
848
330
36
100
AcDbEntity
  8
0
 62
     7
100
AcDbLine
 10
-50.54352999999998
 20
18.310317
 30
0.0
 11
-50.568917
 21
18.34278
 31
0.0
  0
LINE
  5
849
330
36
100
AcDbEntity
  8
0
 62
     7
100
AcDbLine
 10
-50.568917
 20
18.34278
 30
0.0
 11
-50.602069
 21
18.374304
 31
0.0
  0
LINE
  5
84A
330
36
100
AcDbEntity
  8
0
 62
     7
100
AcDbLine
 10
-50.602069
 20
18.374304
 30
0.0
 11
-50.64272899999998
 21
18.404645
 31
0.0
  0
LINE
  5
84B
330
36
100
AcDbEntity
  8
0
 62
     7
100
AcDbLine
 10
-50.64272899999998
 20
18.404645
 30
0.0
 11
-50.690584
 21
18.433567
 31
0.0
  0
LINE
  5
84C
330
36
100
AcDbEntity
  8
0
 62
     7
100
AcDbLine
 10
-50.690584
 20
18.433567
 30
0.0
 11
-50.745263
 21
18.460849
 31
0.0
  0
LINE
  5
84D
330
36
100
AcDbEntity
  8
0
 62
     7
100
AcDbLine
 10
-50.745263
 20
18.460849
 30
0.0
 11
-50.80634299999999
 21
18.486278
 31
0.0
  0
LINE
  5
84E
330
36
100
AcDbEntity
  8
0
 62
     7
100
AcDbLine
 10
-50.80634299999999
 20
18.486278
 30
0.0
 11
-50.873353
 21
18.509658
 31
0.0
  0
LINE
  5
84F
330
36
100
AcDbEntity
  8
0
 62
     7
100
AcDbLine
 10
-50.873353
 20
18.509658
 30
0.0
 11
-50.945774
 21
18.530809
 31
0.0
  0
LINE
  5
850
330
36
100
AcDbEntity
  8
0
 62
     7
100
AcDbLine
 10
-50.945774
 20
18.530809
 30
0.0
 11
-51.023047
 21
18.549567
 31
0.0
  0
LINE
  5
851
330
36
100
AcDbEntity
  8
0
 62
     7
100
AcDbLine
 10
-51.023047
 20
18.549567
 30
0.0
 11
-51.104574
 21
18.565787
 31
0.0
  0
LINE
  5
852
330
36
100
AcDbEntity
  8
0
 62
     7
100
AcDbLine
 10
-51.104574
 20
18.565787
 30
0.0
 11
-51.189726
 21
18.579343
 31
0.0
  0
LINE
  5
855
330
36
100
AcDbEntity
  8
0
 62
     7
100
AcDbLine
 10
-2.584470999999999
 20
17.516218
 30
0.0
 11
-3.326677999999998
 21
19.172061
 31
0.0
  0
LINE
  5
856
330
36
100
AcDbEntity
  8
0
 62
     7
100
AcDbLine
 10
-3.326677999999998
 20
19.172061
 30
0.0
 11
-3.484673
 21
20.807557
 31
0.0
  0
LINE
  5
857
330
36
100
AcDbEntity
  8
0
 62
     7
100
AcDbLine
 10
-3.484673
 20
20.807557
 30
0.0
 11
-3.044775999999998
 21
21.981949
 31
0.0
  0
LINE
  5
858
330
36
100
AcDbEntity
  8
0
 62
     7
100
AcDbLine
 10
-3.044775999999998
 20
21.981949
 30
0.0
 11
-2.651849
 21
23.155604
 31
0.0
  0
LINE
  5
859
330
36
100
AcDbEntity
  8
0
 62
     7
100
AcDbLine
 10
-2.651849
 20
23.155604
 30
0.0
 11
-2.825870999999999
 21
24.399698
 31
0.0
  0
LINE
  5
85A
330
36
100
AcDbEntity
  8
0
 62
     7
100
AcDbLine
 10
-2.825870999999999
 20
24.399698
 30
0.0
 11
-3.392223999999998
 21
25.65486
 31
0.0
  0
LINE
  5
85B
330
36
100
AcDbEntity
  8
0
 62
     7
100
AcDbLine
 10
-5.057687999999997
 20
17.665752
 30
0.0
 11
-5.799894999999997
 21
19.321596
 31
0.0
  0
LINE
  5
85C
330
36
100
AcDbEntity
  8
0
 62
     7
100
AcDbLine
 10
-5.799894999999997
 20
19.321596
 30
0.0
 11
-5.957891
 21
20.957092
 31
0.0
  0
LINE
  5
85D
330
36
100
AcDbEntity
  8
0
 62
     7
100
AcDbLine
 10
-5.957891
 20
20.957092
 30
0.0
 11
-5.517992999999997
 21
22.131483
 31
0.0
  0
LINE
  5
85E
330
36
100
AcDbEntity
  8
0
 62
     7
100
AcDbLine
 10
-5.517992999999997
 20
22.131483
 30
0.0
 11
-5.125066
 21
23.305138
 31
0.0
  0
LINE
  5
85F
330
36
100
AcDbEntity
  8
0
 62
     7
100
AcDbLine
 10
-5.125066
 20
23.305138
 30
0.0
 11
-5.299087999999998
 21
24.549232
 31
0.0
  0
LINE
  5
860
330
36
100
AcDbEntity
  8
0
 62
     7
100
AcDbLine
 10
-5.299087999999998
 20
24.549232
 30
0.0
 11
-5.865441999999998
 21
25.804394
 31
0.0
  0
LINE
  5
861
330
36
100
AcDbEntity
  8
0
100
AcDbLine
 10
-118.707829
 20
21.269245
 30
0.0
 11
-118.707829
 21
-3.198996999999998
 31
0.0
  0
LINE
  5
862
330
36
100
AcDbEntity
  8
0
100
AcDbLine
 10
-85.70782900000002
 20
21.269245
 30
0.0
 11
-85.70782900000002
 21
-3.198996999999998
 31
0.0
  0
LINE
  5
863
330
36
100
AcDbEntity
  8
0
100
AcDbLine
 10
-116.207829
 20
-1.948997
 30
0.0
 11
-88.20782900000002
 21
-1.948997
 31
0.0
  0
LINE
  5
867
330
36
100
AcDbEntity
  8
0
100
AcDbLine
 10
-68.81026300000001
 20
5.055438999999998
 30
0.0
 11
-68.81026300000001
 21
-3.198997
 31
0.0
  0
LINE
  5
868
330
36
100
AcDbEntity
  8
0
100
AcDbLine
 10
-16.310263
 20
18.305439
 30
0.0
 11
-16.310263
 21
-3.198996999999998
 31
0.0
  0
LINE
  5
869
330
36
100
AcDbEntity
  8
0
100
AcDbLine
 10
-66.31026300000001
 20
-1.948997
 30
0.0
 11
-18.810263
 21
-1.948997
 31
0.0
  0
LINE
  5
86D
330
36
100
AcDbEntity
  8
0
100
AcDbLine
 10
7.153296
 20
18.305439
 30
0.0
 11
7.153296
 21
-3.198996999999998
 31
0.0
  0
LINE
  5
86E
330
36
100
AcDbEntity
  8
0
100
AcDbLine
 10
59.403296
 20
7.293294
 30
0.0
 11
59.403296
 21
-3.198996999999999
 31
0.0
  0
LINE
  5
86F
330
36
100
AcDbEntity
  8
0
100
AcDbLine
 10
9.653296
 20
-1.948997
 30
0.0
 11
56.903296
 21
-1.948997
 31
0.0
  0
LINE
  5
873
330
36
100
AcDbEntity
  8
0
100
AcDbLine
 10
84.19051600000001
 20
21.264832
 30
0.0
 11
84.19051600000001
 21
-3.198996999999998
 31
0.0
  0
LINE
  5
874
330
36
100
AcDbEntity
  8
0
100
AcDbLine
 10
114.690516
 20
21.264832
 30
0.0
 11
114.690516
 21
-3.198996999999998
 31
0.0
  0
LINE
  5
875
330
36
100
AcDbEntity
  8
0
100
AcDbLine
 10
86.69051600000001
 20
-1.948997
 30
0.0
 11
112.190516
 21
-1.948997
 31
0.0
  0
LINE
  5
879
330
36
100
AcDbEntity
  8
0
100
AcDbLine
 10
-68.81026300000001
 20
5.055438999999998
 30
0.0
 11
-68.81026300000001
 21
-11.032624
 31
0.0
  0
LINE
  5
87A
330
36
100
AcDbEntity
  8
0
100
AcDbLine
 10
59.403296
 20
7.293294
 30
0.0
 11
59.403296
 21
-11.032624
 31
0.0
  0
LINE
  5
87B
330
36
100
AcDbEntity
  8
0
100
AcDbLine
 10
-66.31026300000001
 20
-9.782624
 30
0.0
 11
56.903296
 21
-9.782624
 31
0.0
  0
TEXT
  5
87F
330
36
100
AcDbEntity
  8
0
  6
Continuous
 62
     4
100
AcDbText
 10
-106.207829
 20
-1.323997
 30
0.0
 40
3.0
  1
\U+220565
100
AcDbText
  0
LINE
  5
880
330
36
100
AcDbEntity
  8
0
  6
ByBlock
 62
     0
370
    -2
100
AcDbLine
 10
-88.20782900000002
 20
-1.279124499999999
 30
0.0
 11
-85.70782900000002
 21
-1.948997
 31
0.0
  0
LINE
  5
881
330
36
100
AcDbEntity
  8
0
  6
ByBlock
 62
     0
370
    -2
100
AcDbLine
 10
-85.70782900000002
 20
-1.948997
 30
0.0
 11
-88.20782900000002
 21
-2.6188695
 31
0.0
  0
LINE
  5
882
330
36
100
AcDbEntity
  8
0
  6
ByBlock
 62
     0
370
    -2
100
AcDbLine
 10
-85.70782900000002
 20
-1.948997
 30
0.0
 11
-88.20782900000002
 21
-1.948997
 31
0.0
  0
LINE
  5
883
330
36
100
AcDbEntity
  8
0
  6
ByBlock
 62
     0
370
    -2
100
AcDbLine
 10
-116.207829
 20
-2.6188695
 30
0.0
 11
-118.707829
 21
-1.948997
 31
0.0
  0
LINE
  5
884
330
36
100
AcDbEntity
  8
0
  6
ByBlock
 62
     0
370
    -2
100
AcDbLine
 10
-118.707829
 20
-1.948997
 30
0.0
 11
-116.207829
 21
-1.2791245
 31
0.0
  0
LINE
  5
885
330
36
100
AcDbEntity
  8
0
  6
ByBlock
 62
     0
370
    -2
100
AcDbLine
 10
-118.707829
 20
-1.948997
 30
0.0
 11
-116.207829
 21
-1.948997
 31
0.0
  0
TEXT
  5
886
330
36
100
AcDbEntity
  8
0
  6
Continuous
 62
     4
100
AcDbText
 10
-45.810263
 20
-1.323997
 30
0.0
 40
3.0
  1
105
100
AcDbText
  0
LINE
  5
887
330
36
100
AcDbEntity
  8
0
  6
ByBlock
 62
     0
370
    -2
100
AcDbLine
 10
-18.810263
 20
-1.279124499999999
 30
0.0
 11
-16.310263
 21
-1.948997
 31
0.0
  0
LINE
  5
888
330
36
100
AcDbEntity
  8
0
  6
ByBlock
 62
     0
370
    -2
100
AcDbLine
 10
-16.310263
 20
-1.948997
 30
0.0
 11
-18.810263
 21
-2.6188695
 31
0.0
  0
LINE
  5
889
330
36
100
AcDbEntity
  8
0
  6
ByBlock
 62
     0
370
    -2
100
AcDbLine
 10
-16.310263
 20
-1.948997
 30
0.0
 11
-18.810263
 21
-1.948997
 31
0.0
  0
LINE
  5
88A
330
36
100
AcDbEntity
  8
0
  6
ByBlock
 62
     0
370
    -2
100
AcDbLine
 10
-66.31026300000001
 20
-2.6188695
 30
0.0
 11
-68.81026300000001
 21
-1.948997
 31
0.0
  0
LINE
  5
88B
330
36
100
AcDbEntity
  8
0
  6
ByBlock
 62
     0
370
    -2
100
AcDbLine
 10
-68.81026300000001
 20
-1.948997
 30
0.0
 11
-66.31026300000001
 21
-1.2791245
 31
0.0
  0
LINE
  5
88C
330
36
100
AcDbEntity
  8
0
  6
ByBlock
 62
     0
370
    -2
100
AcDbLine
 10
-68.81026300000001
 20
-1.948997
 30
0.0
 11
-66.31026300000001
 21
-1.948997
 31
0.0
  0
TEXT
  5
88D
330
36
100
AcDbEntity
  8
0
  6
Continuous
 62
     4
100
AcDbText
 10
30.028296
 20
-1.323997
 30
0.0
 40
3.0
  1
104
100
AcDbText
  0
LINE
  5
88E
330
36
100
AcDbEntity
  8
0
  6
ByBlock
 62
     0
370
    -2
100
AcDbLine
 10
56.903296
 20
-1.279124499999999
 30
0.0
 11
59.403296
 21
-1.948997
 31
0.0
  0
LINE
  5
88F
330
36
100
AcDbEntity
  8
0
  6
ByBlock
 62
     0
370
    -2
100
AcDbLine
 10
59.403296
 20
-1.948997
 30
0.0
 11
56.903296
 21
-2.6188695
 31
0.0
  0
LINE
  5
890
330
36
100
AcDbEntity
  8
0
  6
ByBlock
 62
     0
370
    -2
100
AcDbLine
 10
59.403296
 20
-1.948997
 30
0.0
 11
56.903296
 21
-1.948997
 31
0.0
  0
LINE
  5
891
330
36
100
AcDbEntity
  8
0
  6
ByBlock
 62
     0
370
    -2
100
AcDbLine
 10
9.653296
 20
-2.6188695
 30
0.0
 11
7.153296
 21
-1.948997
 31
0.0
  0
LINE
  5
892
330
36
100
AcDbEntity
  8
0
  6
ByBlock
 62
     0
370
    -2
100
AcDbLine
 10
7.153296
 20
-1.948997
 30
0.0
 11
9.653296
 21
-1.2791245
 31
0.0
  0
LINE
  5
893
330
36
100
AcDbEntity
  8
0
  6
ByBlock
 62
     0
370
    -2
100
AcDbLine
 10
7.153296
 20
-1.948997
 30
0.0
 11
9.653296
 21
-1.948997
 31
0.0
  0
TEXT
  5
894
330
36
100
AcDbEntity
  8
0
  6
Continuous
 62
     4
100
AcDbText
 10
95.940516
 20
-1.323997
 30
0.0
 40
3.0
  1
\U+220561
100
AcDbText
  0
LINE
  5
895
330
36
100
AcDbEntity
  8
0
  6
ByBlock
 62
     0
370
    -2
100
AcDbLine
 10
112.190516
 20
-1.279124499999999
 30
0.0
 11
114.690516
 21
-1.948997
 31
0.0
  0
LINE
  5
896
330
36
100
AcDbEntity
  8
0
  6
ByBlock
 62
     0
370
    -2
100
AcDbLine
 10
114.690516
 20
-1.948997
 30
0.0
 11
112.190516
 21
-2.6188695
 31
0.0
  0
LINE
  5
897
330
36
100
AcDbEntity
  8
0
  6
ByBlock
 62
     0
370
    -2
100
AcDbLine
 10
114.690516
 20
-1.948997
 30
0.0
 11
112.190516
 21
-1.948997
 31
0.0
  0
LINE
  5
898
330
36
100
AcDbEntity
  8
0
  6
ByBlock
 62
     0
370
    -2
100
AcDbLine
 10
86.69051600000001
 20
-2.6188695
 30
0.0
 11
84.19051600000001
 21
-1.948997
 31
0.0
  0
LINE
  5
899
330
36
100
AcDbEntity
  8
0
  6
ByBlock
 62
     0
370
    -2
100
AcDbLine
 10
84.19051600000001
 20
-1.948997
 30
0.0
 11
86.69051600000001
 21
-1.2791245
 31
0.0
  0
LINE
  5
89A
330
36
100
AcDbEntity
  8
0
  6
ByBlock
 62
     0
370
    -2
100
AcDbLine
 10
84.19051600000001
 20
-1.948997
 30
0.0
 11
86.69051600000001
 21
-1.948997
 31
0.0
  0
TEXT
  5
89B
330
36
100
AcDbEntity
  8
0
  6
Continuous
 62
     4
100
AcDbText
 10
-11.30348350000001
 20
-9.157624
 30
0.0
 40
3.0
  1
電線長さ
100
AcDbText
  0
LINE
  5
89C
330
36
100
AcDbEntity
  8
0
  6
ByBlock
 62
     0
370
    -2
100
AcDbLine
 10
56.903296
 20
-9.112751499999999
 30
0.0
 11
59.403296
 21
-9.782624
 31
0.0
  0
LINE
  5
89D
330
36
100
AcDbEntity
  8
0
  6
ByBlock
 62
     0
370
    -2
100
AcDbLine
 10
59.403296
 20
-9.782624
 30
0.0
 11
56.903296
 21
-10.4524965
 31
0.0
  0
LINE
  5
89E
330
36
100
AcDbEntity
  8
0
  6
ByBlock
 62
     0
370
    -2
100
AcDbLine
 10
59.403296
 20
-9.782624
 30
0.0
 11
56.903296
 21
-9.782624
 31
0.0
  0
LINE
  5
89F
330
36
100
AcDbEntity
  8
0
  6
ByBlock
 62
     0
370
    -2
100
AcDbLine
 10
-66.31026300000001
 20
-10.4524965
 30
0.0
 11
-68.81026300000001
 21
-9.782624
 31
0.0
  0
LINE
  5
8A0
330
36
100
AcDbEntity
  8
0
  6
ByBlock
 62
     0
370
    -2
100
AcDbLine
 10
-68.81026300000001
 20
-9.782624
 30
0.0
 11
-66.31026300000001
 21
-9.112751499999999
 31
0.0
  0
LINE
  5
8A1
330
36
100
AcDbEntity
  8
0
  6
ByBlock
 62
     0
370
    -2
100
AcDbLine
 10
-68.81026300000001
 20
-9.782624
 30
0.0
 11
-66.31026300000001
 21
-9.782624
 31
0.0
  0
ENDSEC
  0
SECTION
  2
OBJECTS
  0
DICTIONARY
  5
C
330
0
100
AcDbDictionary
281
     1
  3
ACAD_2007HEADERVARS_RT
350
8A5
  3
ACAD_COLOR
350
2F
  3
ACAD_GROUP
350
D
  3
ACAD_LAYOUT
350
2E
  3
ACAD_MATERIAL
350
10
  3
ACAD_MLEADERSTYLE
350
3CD
  3
ACAD_MLINESTYLE
350
2B
  3
ACAD_PLOTSETTINGS
350
2D
  3
ACAD_PLOTSTYLENAME
350
E
  3
ACAD_SCALELIST
350
3BB
  3
ACAD_TABLESTYLE
350
30
  3
ACAD_VISUALSTYLE
350
14
  3
ACDB_RECOMPOSE_DATA
350
8A4
  3
AcDbVariableDictionary
350
378
  0
DICTIONARY
  5
47C
330
2
100
AcDbDictionary
280
     1
281
     1
  3
ACAD_LAYERSTATES
360
47D
  0
DICTIONARY
  5
724
330
25
100
AcDbDictionary
280
     1
281
     1
  3
ADSK_XREC_LAYER_RECONCILED
360
725
  0
DICTIONARY
  5
853
330
36
100
AcDbDictionary
280
     1
281
     1
  3
ACAD_SORTENTS
360
854
  0
DICTIONARY
  5
8A5
102
{ACAD_REACTORS
330
C
102
}
330
C
100
AcDbDictionary
281
     1
  3
DIMARCSYM
350
8A7
  3
DIMFXL
350
8A6
  3
DIMJOGANG
350
8A8
  3
INTERFEREVPVS
350
8A9
  0
DICTIONARY
  5
2F
102
{ACAD_REACTORS
330
C
102
}
330
C
100
AcDbDictionary
281
     1
  0
DICTIONARY
  5
D
102
{ACAD_REACTORS
330
C
102
}
330
C
100
AcDbDictionary
281
     1
  0
DICTIONARY
  5
2E
102
{ACAD_REACTORS
330
C
102
}
330
C
100
AcDbDictionary
281
     1
  3
Model
350
39
  3
レイアウト1
350
35
  0
DICTIONARY
  5
10
102
{ACAD_REACTORS
330
C
102
}
330
C
100
AcDbDictionary
281
     1
  3
ByBlock
350
12
  3
ByLayer
350
11
  3
Global
350
13
  0
DICTIONARY
  5
3CD
102
{ACAD_REACTORS
330
C
102
}
330
C
100
AcDbDictionary
281
     1
  3
Standard
350
3CE
  0
DICTIONARY
  5
2B
102
{ACAD_REACTORS
330
C
102
}
330
C
100
AcDbDictionary
281
     1
  3
Standard
350
2C
  0
DICTIONARY
  5
2D
102
{ACAD_REACTORS
330
C
102
}
330
C
100
AcDbDictionary
281
     1
  0
ACDBDICTIONARYWDFLT
  5
E
102
{ACAD_REACTORS
330
C
102
}
330
C
100
AcDbDictionary
281
     1
  3
Normal
350
F
100
AcDbDictionaryWithDefault
340
F
  0
DICTIONARY
  5
3BB
102
{ACAD_REACTORS
330
C
102
}
330
C
100
AcDbDictionary
281
     1
  3
A0
350
3BC
  3
A1
350
3BD
  3
A2
350
3BE
  3
A3
350
3BF
  3
A4
350
3C0
  3
A5
350
3C1
  3
A6
350
3C2
  3
A7
350
3C3
  3
A8
350
3C4
  3
A9
350
3C5
  3
B0
350
3C6
  3
B1
350
3C7
  3
B2
350
3C8
  3
B3
350
3C9
  3
B4
350
3CA
  3
B5
350
3CB
  3
B6
350
3CC
  0
DICTIONARY
  5
30
102
{ACAD_REACTORS
330
C
102
}
330
C
100
AcDbDictionary
281
     1
  3
Standard
350
31
  0
DICTIONARY
  5
14
102
{ACAD_REACTORS
330
C
102
}
330
C
100
AcDbDictionary
281
     1
  3
2dWireframe
350
1A
  3
3D Hidden
350
1C
  3
3dWireframe
350
1B
  3
Basic
350
19
  3
Brighten
350
20
  3
ColorChange
350
24
  3
Conceptual
350
1D
  3
Dim
350
1F
  3
EdgeColorOff
350
3BA
  3
Facepattern
350
23
  3
Flat
350
15
  3
FlatWithEdges
350
16
  3
Gouraud
350
17
  3
GouraudWithEdges
350
18
  3
Hidden
350
3B2
  3
JitterOff
350
3B8
  3
Linepattern
350
22
  3
OverhangOff
350
3B9
  3
Realistic
350
1E
  3
Shaded
350
3B7
  3
Shaded with edges
350
3B6
  3
Shades of Gray
350
3B3
  3
Sketchy
350
3B4
  3
Thicken
350
21
  3
Wireframe
350
3B1
  3
X-Ray
350
3B5
  0
XRECORD
  5
8A4
102
{ACAD_REACTORS
330
C
102
}
330
C
100
AcDbXrecord
280
     1
 90
        1
330
31
  0
DICTIONARY
  5
378
102
{ACAD_REACTORS
330
C
102
}
330
C
100
AcDbDictionary
281
     1
  3
CANNOSCALE
350
727
  3
CMLEADERSTYLE
350
726
  3
CTABLESTYLE
350
379
  3
DIMASSOC
350
37C
  3
INDEXCTL
350
37B
  3
LOFTANG1
350
728
  3
LOFTANG2
350
729
  3
LONGITUDE
350
72A
  3
SORTENTS
350
37A
  0
DICTIONARY
  5
47D
102
{ACAD_REACTORS
330
47C
102
}
330
47C
100
AcDbDictionary
281
     1
  0
XRECORD
  5
725
102
{ACAD_REACTORS
330
724
102
}
330
724
100
AcDbXrecord
280
     1
290
     1
  0
SORTENTSTABLE
  5
854
102
{ACAD_REACTORS
330
853
102
}
330
853
100
AcDbSortentsTable
330
36
331
838
  5
304
331
310
  5
83C
331
208
  5
297
331
4C1
  5
89D
331
321
  5
849
331
219
  5
2A8
331
151
  5
19E
331
842
  5
30E
331
332
  5
858
331
22A
  5
2B9
331
162
  5
1AF
331
23B
  5
2CA
331
173
  5
1C0
331
354
  5
86E
331
184
  5
1D1
331
D4
  5
13E
331
E5
  5
14F
331
365
  5
87F
331
245
  5
2D4
331
195
  5
1E2
331
875
  5
D7
331
1A6
  5
1F3
331
886
  5
F5
331
EF
  5
159
331
36F
  5
889
331
29F
  5
333
331
1B7
  5
204
331
2E3
  5
4C1
331
2D2
  5
377
331
2C1
  5
361
331
2B0
  5
350
331
100
  5
166
331
816
  5
2E2
331
1D5
  5
222
331
144
  5
191
331
827
  5
2F3
331
1E6
  5
233
331
2FF
  5
82B
331
1F7
  5
244
331
897
  5
E0
331
828
  5
2F4
331
300
  5
82C
331
1F8
  5
245
331
839
  5
305
331
4B1
  5
88D
331
311
  5
83D
331
209
  5
298
331
4C2
  5
89E
331
322
  5
84A
331
21A
  5
2A9
331
152
  5
19F
331
843
  5
30F
331
333
  5
859
331
22B
  5
2BA
331
163
  5
1B0
331
23C
  5
2CB
331
174
  5
1C1
331
355
  5
86F
331
185
  5
1D2
331
D5
  5
13F
331
366
  5
880
331
246
  5
2D5
331
196
  5
1E3
331
E6
  5
150
331
1A7
  5
1F4
331
887
  5
F2
331
F0
  5
15A
331
2E4
  5
4C2
331
2D3
  5
4B1
331
2C2
  5
362
331
2B1
  5
351
331
2A0
  5
334
331
1B8
  5
205
331
817
  5
2E3
331
1D6
  5
223
331
145
  5
192
331
1E7
  5
234
331
898
  5
D8
331
818
  5
2E4
331
2F0
  5
81C
331
1E8
  5
235
331
829
  5
2F5
331
301
  5
82D
331
1F9
  5
246
331
83A
  5
306
331
4B2
  5
88E
331
312
  5
83E
331
20A
  5
299
331
4C3
  5
89F
331
323
  5
84B
331
21B
  5
2AA
331
153
  5
1A0
331
844
  5
310
331
334
  5
85A
331
22C
  5
2BB
331
164
  5
1B1
331
23D
  5
2CC
331
175
  5
1C2
331
855
  5
16B
331
356
  5
870
331
186
  5
1D3
331
D6
  5
140
331
367
  5
881
331
247
  5
2D6
331
197
  5
1E4
331
E7
  5
151
331
1A8
  5
1F5
331
888
  5
F3
331
F1
  5
15B
331
2B2
  5
352
331
2A1
  5
335
331
1B9
  5
206
331
899
  5
D9
331
2E5
  5
4C3
331
2D4
  5
4B2
331
2C3
  5
363
331
1D7
  5
224
331
146
  5
193
331
113
  5
171
331
819
  5
2E5
331
1D8
  5
225
331
2F1
  5
81D
331
1E9
  5
236
331
82A
  5
2F6
331
302
  5
82E
331
1FA
  5
247
331
83B
  5
307
331
4B3
  5
88F
331
313
  5
83F
331
20B
  5
29A
331
4C4
  5
8A0
331
324
  5
84C
331
21C
  5
2AB
331
154
  5
1A1
331
845
  5
311
331
335
  5
85B
331
22D
  5
2BC
331
165
  5
1B2
331
23E
  5
2CD
331
176
  5
1C3
331
856
  5
16C
331
D7
  5
141
331
357
  5
871
331
187
  5
1D4
331
867
  5
EC
331
248
  5
2D7
331
198
  5
1E5
331
1A9
  5
1F6
331
889
  5
F4
331
F2
  5
15C
331
2B3
  5
353
331
2A2
  5
336
331
1BA
  5
207
331
89A
  5
DD
331
2E6
  5
4C4
331
2D5
  5
4B3
331
2C4
  5
364
331
114
  5
172
331
147
  5
194
331
81A
  5
2E6
331
1D9
  5
226
331
1C8
  5
215
331
148
  5
195
331
2F2
  5
81E
331
1EA
  5
237
331
82B
  5
2F7
331
303
  5
82F
331
1FB
  5
248
331
83C
  5
308
331
4B4
  5
890
331
314
  5
840
331
20C
  5
29B
331
4C5
  5
8A1
331
325
  5
84D
331
21D
  5
2AC
331
155
  5
1A2
331
846
  5
312
331
B6
  5
109
331
336
  5
85C
331
22E
  5
2BD
331
166
  5
1B3
331
347
  5
866
331
23F
  5
2CE
331
177
  5
1C4
331
857
  5
16D
331
D8
  5
142
331
358
  5
872
331
188
  5
1D5
331
868
  5
ED
331
249
  5
2D8
331
199
  5
1E6
331
1AA
  5
1F7
331
88A
  5
EF
331
F3
  5
15D
331
2A3
  5
337
331
1BB
  5
208
331
89B
  5
D1
331
2B4
  5
354
331
104
  5
167
331
2E7
  5
4C5
331
2D6
  5
4B4
331
2C5
  5
365
331
115
  5
173
331
879
  5
B6
331
2E8
  5
814
331
138
  5
185
331
81B
  5
2E7
331
1DA
  5
227
331
1C9
  5
216
331
149
  5
196
331
2F3
  5
81F
331
1EB
  5
238
331
82C
  5
2F8
331
304
  5
830
331
1FC
  5
249
331
83D
  5
309
331
4B5
  5
891
331
315
  5
841
331
20D
  5
29C
331
326
  5
84E
331
21E
  5
2AD
331
156
  5
1A3
331
847
  5
313
331
B7
  5
113
331
337
  5
85D
331
22F
  5
2BE
331
167
  5
1B4
331
178
  5
1C5
331
858
  5
16E
331
D9
  5
143
331
359
  5
873
331
189
  5
1D6
331
869
  5
EE
331
24A
  5
2D9
331
19A
  5
1E7
331
293
  5
323
331
1AB
  5
1F8
331
88B
  5
F0
331
F4
  5
15E
331
2A4
  5
338
331
1BC
  5
209
331
89C
  5
C2
331
2B5
  5
355
331
2D7
  5
4B5
331
2C6
  5
366
331
116
  5
174
331
105
  5
168
331
87A
  5
B7
331
2D8
  5
4B6
331
2E9
  5
815
331
139
  5
186
331
372
  5
88A
331
14A
  5
197
331
81C
  5
2E8
331
1DB
  5
228
331
1CA
  5
217
331
2F4
  5
820
331
1EC
  5
239
331
82D
  5
2F9
331
305
  5
831
331
1FD
  5
24A
331
83E
  5
30A
331
4B6
  5
892
331
316
  5
842
331
20E
  5
29D
331
327
  5
84F
331
21F
  5
2AE
331
157
  5
1A4
331
848
  5
314
331
B8
  5
114
331
338
  5
85E
331
230
  5
2BF
331
168
  5
1B5
331
179
  5
1C6
331
859
  5
16F
331
35A
  5
874
331
18A
  5
1D7
331
DA
  5
144
331
24B
  5
2DA
331
19B
  5
1E8
331
294
  5
324
331
1AC
  5
1F9
331
88C
  5
F1
331
F5
  5
15F
331
2B6
  5
356
331
2A5
  5
339
331
1BD
  5
20A
331
89D
  5
CC
331
2C7
  5
367
331
117
  5
175
331
87B
  5
B8
331
2D9
  5
4B7
331
2C8
  5
368
331
118
  5
176
331
2EA
  5
816
331
13A
  5
187
331
81D
  5
2E9
331
1DC
  5
229
331
1CB
  5
218
331
14B
  5
198
331
2F5
  5
821
331
1ED
  5
23A
331
82E
  5
2FA
331
306
  5
832
331
1FE
  5
24B
331
83F
  5
30B
331
4B7
  5
893
331
317
  5
843
331
20F
  5
29E
331
328
  5
850
331
220
  5
2AF
331
158
  5
1A5
331
849
  5
315
331
B9
  5
115
331
339
  5
85F
331
231
  5
2C0
331
169
  5
1B6
331
17A
  5
1C7
331
85A
  5
170
331
35B
  5
875
331
18B
  5
1D8
331
DB
  5
145
331
24C
  5
2DB
331
19C
  5
1E9
331
295
  5
325
331
1AD
  5
1FA
331
88D
  5
EB
331
F6
  5
160
331
2B7
  5
357
331
2A6
  5
33A
331
1BE
  5
20B
331
89E
  5
CD
331
2B8
  5
358
331
108
  5
169
331
2DA
  5
4B8
331
2C9
  5
369
331
119
  5
177
331
2EB
  5
817
331
13B
  5
188
331
81E
  5
2EA
331
1DD
  5
22A
331
1CC
  5
219
331
14C
  5
199
331
2F6
  5
822
331
1EE
  5
23B
331
82F
  5
2FB
331
307
  5
833
331
1FF
  5
24C
331
4B8
  5
894
331
318
  5
844
331
210
  5
29F
331
329
  5
851
331
221
  5
2B0
331
159
  5
1A6
331
84A
  5
316
331
BA
  5
116
331
33A
  5
860
331
232
  5
2C1
331
16A
  5
1B7
331
17B
  5
1C8
331
85B
  5
11F
331
35C
  5
876
331
18C
  5
1D9
331
DC
  5
146
331
24D
  5
2DC
331
19D
  5
1EA
331
296
  5
326
331
1AE
  5
1FB
331
F7
  5
161
331
2A7
  5
33B
331
1BF
  5
20C
331
89F
  5
BC
331
88E
  5
E8
331
F8
  5
162
331
2A8
  5
33C
331
1C0
  5
20D
331
8A0
  5
BD
331
2B9
  5
359
331
109
  5
16A
331
2DB
  5
4B9
331
2CA
  5
36A
331
11A
  5
178
331
2EC
  5
818
331
13C
  5
189
331
81F
  5
2EB
331
1DE
  5
22B
331
1CD
  5
21A
331
14D
  5
19A
331
2F7
  5
823
331
1EF
  5
23C
331
830
  5
2FC
331
308
  5
834
331
200
  5
24D
331
4B9
  5
895
331
319
  5
845
331
211
  5
2A0
331
32A
  5
852
331
222
  5
2B1
331
15A
  5
1A7
331
84B
  5
317
331
BB
  5
117
331
33B
  5
861
331
233
  5
2C2
331
16B
  5
1B8
331
CC
  5
131
331
17C
  5
1C9
331
85C
  5
120
331
DD
  5
147
331
35D
  5
877
331
18D
  5
1DA
331
86D
  5
E2
331
24E
  5
2DD
331
19E
  5
1EB
331
297
  5
327
331
1AF
  5
1FC
331
88F
  5
E9
331
E8
  5
152
331
368
  5
882
331
298
  5
328
331
1B0
  5
1FD
331
890
  5
EA
331
F9
  5
163
331
2BA
  5
35A
331
2A9
  5
33D
331
1C1
  5
20E
331
2DC
  5
4BA
331
2CB
  5
36B
331
11B
  5
179
331
8A1
  5
BE
331
2ED
  5
819
331
13D
  5
18A
331
376
  5
88B
331
14E
  5
19B
331
820
  5
2EC
331
1DF
  5
22C
331
1CE
  5
21B
331
2F8
  5
824
331
1F0
  5
23D
331
831
  5
2FD
331
309
  5
835
331
201
  5
24E
331
4BA
  5
896
331
31A
  5
846
331
212
  5
2A1
331
32B
  5
855
331
223
  5
2B2
331
15B
  5
1A8
331
84C
  5
318
331
BC
  5
118
331
33C
  5
862
331
234
  5
2C3
331
16C
  5
1B9
331
CD
  5
132
331
34D
  5
867
331
17D
  5
1CA
331
85D
  5
121
331
DE
  5
148
331
35E
  5
878
331
18E
  5
1DB
331
86E
  5
E3
331
24F
  5
2DE
331
19F
  5
1EC
331
87F
  5
108
331
250
  5
2DF
331
1A0
  5
1ED
331
880
  5
100
331
E9
  5
153
331
369
  5
883
331
299
  5
329
331
1B1
  5
1FE
331
891
  5
E5
331
2BB
  5
35B
331
2AA
  5
33F
331
1C2
  5
20F
331
FA
  5
164
331
2DD
  5
4BB
331
2CC
  5
36C
331
11C
  5
17A
331
2EE
  5
81A
331
13E
  5
18B
331
377
  5
88C
331
14F
  5
19C
331
821
  5
2ED
331
1E0
  5
22D
331
1CF
  5
21C
331
2F9
  5
825
331
832
  5
2FE
331
1F1
  5
23E
331
30A
  5
836
331
202
  5
24F
331
4BB
  5
897
331
213
  5
2A2
331
32C
  5
856
331
224
  5
2B3
331
15C
  5
1A9
331
84D
  5
319
331
BD
  5
119
331
33D
  5
863
331
235
  5
2C4
331
16D
  5
1BA
331
CE
  5
138
331
34E
  5
868
331
17E
  5
1CB
331
85E
  5
12E
331
DF
  5
149
331
35F
  5
879
331
18F
  5
1DC
331
86F
  5
E4
331
360
  5
87A
331
240
  5
2CF
331
190
  5
1DD
331
E0
  5
14A
331
1A1
  5
1EE
331
881
  5
104
331
EA
  5
154
331
36A
  5
884
331
29A
  5
32A
331
1B2
  5
1FF
331
892
  5
E6
331
2BC
  5
35C
331
2AB
  5
341
331
1C3
  5
210
331
2CD
  5
36D
331
11D
  5
17B
331
2DE
  5
4BC
331
2EF
  5
81B
331
13F
  5
18C
331
822
  5
2EE
331
1E1
  5
22E
331
1D0
  5
21D
331
2FA
  5
826
331
833
  5
2FF
331
1F2
  5
23F
331
30B
  5
837
331
203
  5
250
331
4BC
  5
898
331
214
  5
2A3
331
225
  5
2B4
331
15D
  5
1AA
331
84E
  5
31A
331
BE
  5
11A
331
236
  5
2C5
331
16E
  5
1BB
331
CF
  5
139
331
12E
  5
180
331
34F
  5
869
331
17F
  5
1CC
331
85F
  5
12F
331
D0
  5
13A
331
350
  5
86A
331
180
  5
1CD
331
860
  5
130
331
361
  5
87B
331
241
  5
2D0
331
191
  5
1DE
331
E1
  5
14B
331
1A2
  5
1EF
331
882
  5
105
331
EB
  5
155
331
36B
  5
885
331
29B
  5
32B
331
1B3
  5
200
331
893
  5
E7
331
2BD
  5
35D
331
2AC
  5
347
331
1C4
  5
211
331
FC
  5
165
331
2CE
  5
36E
331
11E
  5
17C
331
2DF
  5
4BD
331
12F
  5
181
331
823
  5
2EF
331
1E2
  5
22F
331
1D1
  5
21E
331
2FB
  5
827
331
1F3
  5
240
331
30C
  5
838
331
204
  5
293
331
834
  5
300
331
4BD
  5
899
331
31D
  5
847
331
215
  5
2A4
331
226
  5
2B5
331
15E
  5
1AB
331
84F
  5
31D
331
BF
  5
11B
331
33F
  5
864
331
237
  5
2C6
331
16F
  5
1BC
331
140
  5
18D
331
850
  5
31F
331
C0
  5
11C
331
238
  5
2C7
331
170
  5
1BD
331
D1
  5
13B
331
351
  5
86B
331
181
  5
1CE
331
861
  5
F6
331
362
  5
87C
331
242
  5
2D1
331
192
  5
1DF
331
E2
  5
14C
331
1A3
  5
1F0
331
883
  5
F9
331
EC
  5
156
331
36C
  5
886
331
29C
  5
32C
331
1B4
  5
201
331
894
  5
E1
331
2BE
  5
35E
331
2AD
  5
34D
331
1C5
  5
212
331
2CF
  5
36F
331
11F
  5
17D
331
2E0
  5
4BE
331
130
  5
182
331
824
  5
2F0
331
1E3
  5
230
331
1D2
  5
21F
331
141
  5
18E
331
2FC
  5
828
331
835
  5
301
331
30D
  5
839
331
205
  5
294
331
4BE
  5
89A
331
216
  5
2A5
331
227
  5
2B6
331
15F
  5
1AC
331
1F4
  5
241
331
840
  5
30C
331
228
  5
2B7
331
160
  5
1AD
331
851
  5
321
331
C1
  5
11D
331
341
  5
865
331
239
  5
2C8
331
171
  5
1BE
331
D2
  5
13C
331
352
  5
86C
331
182
  5
1CF
331
862
  5
F7
331
E3
  5
14D
331
363
  5
87D
331
243
  5
2D2
331
193
  5
1E0
331
873
  5
D2
331
1A4
  5
1F1
331
884
  5
FA
331
ED
  5
157
331
36D
  5
887
331
29D
  5
331
331
1B5
  5
202
331
2BF
  5
35F
331
2AE
  5
34E
331
1C6
  5
213
331
2D0
  5
372
331
120
  5
17E
331
2E1
  5
4BF
331
131
  5
183
331
814
  5
2E0
331
1D3
  5
220
331
825
  5
2F1
331
1E4
  5
231
331
142
  5
18F
331
2FD
  5
829
331
1F5
  5
242
331
836
  5
302
331
30E
  5
83A
331
206
  5
295
331
4BF
  5
89B
331
31F
  5
848
331
217
  5
2A6
331
895
  5
DE
331
4C0
  5
89C
331
218
  5
2A7
331
150
  5
19D
331
841
  5
30D
331
331
  5
857
331
229
  5
2B8
331
161
  5
1AE
331
852
  5
322
331
C2
  5
11E
331
23A
  5
2C9
331
172
  5
1BF
331
D3
  5
13D
331
353
  5
86D
331
183
  5
1D0
331
863
  5
F8
331
E4
  5
14E
331
364
  5
87E
331
244
  5
2D3
331
194
  5
1E1
331
874
  5
D3
331
1A5
  5
1F2
331
885
  5
FC
331
EE
  5
158
331
36E
  5
888
331
29E
  5
332
331
1B6
  5
203
331
2C0
  5
360
331
2AF
  5
34F
331
1C7
  5
214
331
2D1
  5
376
331
121
  5
17F
331
2E2
  5
4C0
331
132
  5
184
331
815
  5
2E1
331
1D4
  5
221
331
826
  5
2F2
331
1E5
  5
232
331
143
  5
190
331
2FE
  5
82A
331
1F6
  5
243
331
837
  5
303
331
30F
  5
83B
331
207
  5
296
331
896
  5
DF
  0
XRECORD
  5
8A7
102
{ACAD_REACTORS
330
8A5
102
}
330
8A5
100
AcDbXrecord
280
     1
 70
     2
  0
XRECORD
  5
8A6
102
{ACAD_REACTORS
330
8A5
102
}
330
8A5
100
AcDbXrecord
280
     1
 40
1.25
  0
XRECORD
  5
8A8
102
{ACAD_REACTORS
330
8A5
102
}
330
8A5
100
AcDbXrecord
280
     1
 40
1.570796326794896
  0
XRECORD
  5
8A9
102
{ACAD_REACTORS
330
8A5
102
}
330
8A5
100
AcDbXrecord
280
     1
340
1B
  0
LAYOUT
  5
39
102
{ACAD_XDICTIONARY
360
783
102
}
102
{ACAD_REACTORS
330
2E
102
}
330
2E
100
AcDbPlotSettings
  1

  2
PDF Complete
  4
A4
  6

 40
3.174999952316282
 41
3.174999952316282
 42
3.175003051757812
 43
3.17498779296875
 44
209.9733276367186
 45
297.0106506347656
 46
0.0
 47
0.0
 48
0.0
 49
0.0
140
0.0
141
0.0
142
1.0
143
26.24503742757898
 70
 11952
 72
     0
 73
     1
 74
     0
  7

 75
     0
147
0.0381024413761808
 76
     0
 77
     2
 78
   300
148
3813.985570005147
149
2305.372838389462
100
AcDbLayout
  1
Model
 70
     1
 71
     0
 10
0.0
 20
0.0
 11
12.0
 21
9.0
 12
0.0
 22
0.0
 32
0.0
 14
0.0
 24
0.0
 34
0.0
 15
0.0
 25
0.0
 35
0.0
146
0.0
 13
0.0
 23
0.0
 33
0.0
 16
1.0
 26
0.0
 36
0.0
 17
0.0
 27
1.0
 37
0.0
 76
     0
330
36
331
56
1001
ACAD_PSEXT
1000
PDF Complete
1000
PDF Complete Converter
1000
PDFC
1000
PDF Document Creator
1070
     0
  0
LAYOUT
  5
35
102
{ACAD_REACTORS
330
2E
102
}
330
2E
100
AcDbPlotSettings
  1

  2
PDF Complete
  4

  6

 40
0.0
 41
0.0
 42
0.0
 43
0.0
 44
0.0
 45
0.0
 46
0.0
 47
0.0
 48
0.0
 49
0.0
140
0.0
141
0.0
142
1.0
143
1.0
 70
   688
 72
     0
 73
     0
 74
     5
  7

 75
    16
147
1.0
 76
     0
 77
     2
 78
   300
148
0.0
149
0.0
100
AcDbLayout
  1
レイアウト1
 70
     1
 71
     1
 10
0.0
 20
0.0
 11
12.0
 21
9.0
 12
0.0
 22
0.0
 32
0.0
 14
1.000000000000000E+20
 24
1.000000000000000E+20
 34
1.000000000000000E+20
 15
-1.000000000000000E+20
 25
-1.000000000000000E+20
 35
-1.000000000000000E+20
146
0.0
 13
0.0
 23
0.0
 33
0.0
 16
1.0
 26
0.0
 36
0.0
 17
0.0
 27
1.0
 37
0.0
 76
     0
330
32
  0
MATERIAL
  5
12
102
{ACAD_XDICTIONARY
360
396
102
}
102
{ACAD_REACTORS
330
10
102
}
330
10
100
AcDbMaterial
  1
ByBlock
  0
MATERIAL
  5
11
102
{ACAD_XDICTIONARY
360
394
102
}
102
{ACAD_REACTORS
330
10
102
}
330
10
100
AcDbMaterial
  1
ByLayer
  0
MATERIAL
  5
13
102
{ACAD_XDICTIONARY
360
398
102
}
102
{ACAD_REACTORS
330
10
102
}
330
10
100
AcDbMaterial
  1
Global
  0
MLEADERSTYLE
  5
3CE
102
{ACAD_REACTORS
330
3CD
102
}
330
3CD
100
AcDbMLeaderStyle
170
     2
171
     1
172
     0
 90
        2
 40
0.0
 41
0.0
173
     1
 91
-1056964608
340
28
 92
       -2
290
     1
 42
0.09
291
     1
 43
0.36
  3
Standard
 44
0.18
300

342
26
174
     1
178
     6
175
     1
176
     0
 93
-1056964608
 45
0.18
292
     0
297
     0
 46
0.18
 94
-1056964608
 47
1.0
 49
1.0
140
1.0
293
     1
141
0.0
294
     1
177
     0
142
1.0
295
     0
296
     0
143
0.125
1001
ACAD_MLEADERVER
1070
     2
  0
MLINESTYLE
  5
2C
102
{ACAD_REACTORS
330
2B
102
}
330
2B
100
AcDbMlineStyle
  2
STANDARD
 70
     0
  3

 62
   256
 51
90.0
 52
90.0
 71
     2
 49
0.5
 62
   256
  6
BYLAYER
 49
-0.5
 62
   256
  6
BYLAYER
  0
ACDBPLACEHOLDER
  5
F
102
{ACAD_REACTORS
330
E
102
}
330
E
  0
SCALE
  5
3BC
102
{ACAD_REACTORS
330
3BB
102
}
330
3BB
100
AcDbScale
 70
     0
300
1:1
140
1.0
141
1.0
290
     1
  0
SCALE
  5
3BD
102
{ACAD_REACTORS
330
3BB
102
}
330
3BB
100
AcDbScale
 70
     0
300
1/128" = 1'-0"
140
0.0078125
141
12.0
290
     0
  0
SCALE
  5
3BE
102
{ACAD_REACTORS
330
3BB
102
}
330
3BB
100
AcDbScale
 70
     0
300
1/64" = 1'-0"
140
0.015625
141
12.0
290
     0
  0
SCALE
  5
3BF
102
{ACAD_REACTORS
330
3BB
102
}
330
3BB
100
AcDbScale
 70
     0
300
1/32" = 1'-0"
140
0.03125
141
12.0
290
     0
  0
SCALE
  5
3C0
102
{ACAD_REACTORS
330
3BB
102
}
330
3BB
100
AcDbScale
 70
     0
300
1/16" = 1'-0"
140
0.0625
141
12.0
290
     0
  0
SCALE
  5
3C1
102
{ACAD_REACTORS
330
3BB
102
}
330
3BB
100
AcDbScale
 70
     0
300
3/32" = 1'-0"
140
0.09375
141
12.0
290
     0
  0
SCALE
  5
3C2
102
{ACAD_REACTORS
330
3BB
102
}
330
3BB
100
AcDbScale
 70
     0
300
1/8" = 1'-0"
140
0.125
141
12.0
290
     0
  0
SCALE
  5
3C3
102
{ACAD_REACTORS
330
3BB
102
}
330
3BB
100
AcDbScale
 70
     0
300
3/16" = 1'-0"
140
0.1875
141
12.0
290
     0
  0
SCALE
  5
3C4
102
{ACAD_REACTORS
330
3BB
102
}
330
3BB
100
AcDbScale
 70
     0
300
1/4" = 1'-0"
140
0.25
141
12.0
290
     0
  0
SCALE
  5
3C5
102
{ACAD_REACTORS
330
3BB
102
}
330
3BB
100
AcDbScale
 70
     0
300
3/8" = 1'-0"
140
0.375
141
12.0
290
     0
  0
SCALE
  5
3C6
102
{ACAD_REACTORS
330
3BB
102
}
330
3BB
100
AcDbScale
 70
     0
300
1/2" = 1'-0"
140
0.5
141
12.0
290
     0
  0
SCALE
  5
3C7
102
{ACAD_REACTORS
330
3BB
102
}
330
3BB
100
AcDbScale
 70
     0
300
3/4" = 1'-0"
140
0.75
141
12.0
290
     0
  0
SCALE
  5
3C8
102
{ACAD_REACTORS
330
3BB
102
}
330
3BB
100
AcDbScale
 70
     0
300
1" = 1'-0"
140
1.0
141
12.0
290
     0
  0
SCALE
  5
3C9
102
{ACAD_REACTORS
330
3BB
102
}
330
3BB
100
AcDbScale
 70
     0
300
1-1/2" = 1'-0"
140
1.5
141
12.0
290
     0
  0
SCALE
  5
3CA
102
{ACAD_REACTORS
330
3BB
102
}
330
3BB
100
AcDbScale
 70
     0
300
3" = 1'-0"
140
3.0
141
12.0
290
     0
  0
SCALE
  5
3CB
102
{ACAD_REACTORS
330
3BB
102
}
330
3BB
100
AcDbScale
 70
     0
300
6" = 1'-0"
140
6.0
141
12.0
290
     0
  0
SCALE
  5
3CC
102
{ACAD_REACTORS
330
3BB
102
}
330
3BB
100
AcDbScale
 70
     0
300
1'-0" = 1'-0"
140
12.0
141
12.0
290
     0
  0
TABLESTYLE
  5
31
102
{ACAD_XDICTIONARY
360
8A2
102
}
102
{ACAD_REACTORS
330
30
102
}
330
30
100
AcDbTableStyle
  3
Standard
 70
     0
 71
     0
 40
0.06
 41
0.06
280
     0
281
     0
  7
STANDARD
140
0.18
170
     2
 62
     0
 63
     7
283
     0
274
    -2
284
     1
 64
     0
275
    -2
285
     1
 65
     0
276
    -2
286
     1
 66
     0
277
    -2
287
     1
 67
     0
278
    -2
288
     1
 68
     0
279
    -2
289
     1
 69
     0
  7
STANDARD
140
0.25
170
     5
 62
     0
 63
     7
283
     0
274
    -2
284
     1
 64
     0
275
    -2
285
     1
 65
     0
276
    -2
286
     1
 66
     0
277
    -2
287
     1
 67
     0
278
    -2
288
     1
 68
     0
279
    -2
289
     1
 69
     0
  7
STANDARD
140
0.18
170
     5
 62
     0
 63
     7
283
     0
274
    -2
284
     1
 64
     0
275
    -2
285
     1
 65
     0
276
    -2
286
     1
 66
     0
277
    -2
287
     1
 67
     0
278
    -2
288
     1
 68
     0
279
    -2
289
     1
 69
     0
  0
VISUALSTYLE
  5
1A
102
{ACAD_XDICTIONARY
360
8B4
102
}
102
{ACAD_REACTORS
330
14
102
}
330
14
100
AcDbVisualStyle
  2

 70
     4
 71
     0
 72
     2
 73
     0
 90
        0
 40
-0.6
 41
-30.0
 62
     5
 63
     7
 74
     1
 91
        4
 64
     7
 65
   257
 75
     1
175
     1
 42
1.0
 92
        0
 66
   257
 43
1.0
 76
     1
 77
     6
 78
     2
 67
     7
 79
     5
170
     0
171
     0
290
     0
174
     0
 93
        1
 44
0.0
173
     0
291
     0
 45
0.0
1001
ACAD
1000
AcDbSavedByObjectVersion
1070
     0
  0
VISUALSTYLE
  5
1C
102
{ACAD_XDICTIONARY
360
8B8
102
}
102
{ACAD_REACTORS
330
14
102
}
330
14
100
AcDbVisualStyle
  2

 70
     6
 71
     1
 72
     2
 73
     2
 90
        0
 40
-0.6
 41
-30.0
 62
     5
 63
     7
 74
     2
 91
        2
 64
     7
 65
   257
 75
     2
175
     1
 42
40.0
 92
        0
 66
   257
 43
1.0
 76
     1
 77
     6
 78
     2
 67
     7
 79
     3
170
     0
171
     0
290
     0
174
     0
 93
        1
 44
0.0
173
     0
291
     0
 45
0.0
1001
ACAD
1000
AcDbSavedByObjectVersion
1070
     0
  0
VISUALSTYLE
  5
1B
102
{ACAD_XDICTIONARY
360
8B6
102
}
102
{ACAD_REACTORS
330
14
102
}
330
14
100
AcDbVisualStyle
  2

 70
     5
 71
     0
 72
     2
 73
     0
 90
        0
 40
-0.6
 41
-30.0
 62
     5
 63
     7
 74
     1
 91
        4
 64
     7
 65
   257
 75
     1
175
     1
 42
1.0
 92
        0
 66
   257
 43
1.0
 76
     1
 77
     6
 78
     2
 67
     7
 79
     5
170
     0
171
     0
290
     0
174
     0
 93
        1
 44
0.0
173
     0
291
     0
 45
0.0
1001
ACAD
1000
AcDbSavedByObjectVersion
1070
     0
  0
VISUALSTYLE
  5
19
102
{ACAD_XDICTIONARY
360
8B2
102
}
102
{ACAD_REACTORS
330
14
102
}
330
14
100
AcDbVisualStyle
  2

 70
     7
 71
     1
 72
     0
 73
     1
 90
        0
 40
-0.6
 41
-30.0
 62
     5
 63
     7
 74
     0
 91
        4
 64
     7
 65
   257
 75
     1
175
     1
 42
1.0
 92
        8
 66
     7
 43
1.0
 76
     1
 77
     6
 78
     2
 67
     7
 79
     5
170
     0
171
     0
290
     0
174
     0
 93
        1
 44
0.0
173
     0
291
     1
 45
0.0
1001
ACAD
1000
AcDbSavedByObjectVersion
1070
     0
  0
VISUALSTYLE
  5
20
102
{ACAD_XDICTIONARY
360
8C0
102
}
102
{ACAD_REACTORS
330
14
102
}
330
14
100
AcDbVisualStyle
  2

 70
    12
 71
     2
 72
     2
 73
     0
 90
        0
 40
-0.6
 41
-30.0
 62
     5
 63
     7
 74
     1
 91
        4
 64
     7
 65
   257
 75
     1
175
     1
 42
1.0
 92
        8
 66
     7
 43
1.0
 76
     1
 77
     6
 78
     2
 67
     7
 79
     5
170
     0
171
     0
290
     0
174
     0
 93
        1
 44
50.0
173
     0
291
     1
 45
0.0
1001
ACAD
1000
AcDbSavedByObjectVersion
1070
     0
  0
VISUALSTYLE
  5
24
102
{ACAD_XDICTIONARY
360
8C8
102
}
102
{ACAD_REACTORS
330
14
102
}
330
14
100
AcDbVisualStyle
  2

 70
    16
 71
     2
 72
     2
 73
     3
 90
        0
 40
-0.6
 41
-30.0
 62
     5
 63
     8
 74
     1
 91
        4
 64
     7
 65
   257
 75
     1
175
     1
 42
1.0
 92
        8
 66
     8
 43
1.0
 76
     1
 77
     6
 78
     2
 67
     7
 79
     5
170
     0
171
     0
290
     0
174
     0
 93
        1
 44
0.0
173
     0
291
     1
 45
0.0
1001
ACAD
1000
AcDbSavedByObjectVersion
1070
     0
  0
VISUALSTYLE
  5
1D
102
{ACAD_XDICTIONARY
360
8BA
102
}
102
{ACAD_REACTORS
330
14
102
}
330
14
100
AcDbVisualStyle
  2

 70
     9
 71
     3
 72
     2
 73
     0
 90
        0
 40
-0.6
 41
-30.0
 62
     5
 63
     7
 74
     2
 91
        2
 64
     7
 65
   257
 75
     1
175
     1
 42
40.0
 92
        8
 66
     7
 43
1.0
 76
     1
 77
     6
 78
     2
 67
     7
 79
     3
170
     0
171
     0
290
     0
174
     0
 93
        1
 44
0.0
173
     0
291
     0
 45
0.0
1001
ACAD
1000
AcDbSavedByObjectVersion
1070
     0
  0
VISUALSTYLE
  5
1F
102
{ACAD_XDICTIONARY
360
8BE
102
}
102
{ACAD_REACTORS
330
14
102
}
330
14
100
AcDbVisualStyle
  2

 70
    11
 71
     2
 72
     2
 73
     0
 90
        0
 40
-0.6
 41
-30.0
 62
     5
 63
     7
 74
     1
 91
        4
 64
     7
 65
   257
 75
     1
175
     1
 42
1.0
 92
        8
 66
     7
 43
1.0
 76
     1
 77
     6
 78
     2
 67
     7
 79
     5
170
     0
171
     0
290
     0
174
     0
 93
        1
 44
-50.0
173
     0
291
     1
 45
0.0
1001
ACAD
1000
AcDbSavedByObjectVersion
1070
     0
  0
VISUALSTYLE
  5
3BA
102
{ACAD_XDICTIONARY
360
8DD
102
}
102
{ACAD_REACTORS
330
14
102
}
330
14
100
AcDbVisualStyle
  2
EdgeColorOff
 70
    22
 71
     2
 72
     2
 73
     0
 90
        0
 40
-0.6
 41
-30.0
 62
     5
 63
     7
421
 16777215
 74
     1
 91
        4
 64
     7
 65
   257
 75
     1
175
     1
 42
1.0
 92
        8
 66
     7
 43
1.0
 76
     1
 77
     6
 78
     2
 67
     7
 79
     5
170
     0
171
     0
290
     0
174
     0
 93
        1
 44
0.0
173
     0
291
     1
 45
0.0
1001
ACAD
1000
AcDbSavedByObjectVersion
1070
     0
  0
VISUALSTYLE
  5
23
102
{ACAD_XDICTIONARY
360
8C6
102
}
102
{ACAD_REACTORS
330
14
102
}
330
14
100
AcDbVisualStyle
  2

 70
    15
 71
     2
 72
     2
 73
     0
 90
        0
 40
-0.6
 41
-30.0
 62
     5
 63
     7
 74
     1
 91
        4
 64
     7
 65
   257
 75
     1
175
     1
 42
1.0
 92
        8
 66
     7
 43
1.0
 76
     1
 77
     6
 78
     2
 67
     7
 79
     5
170
     0
171
     0
290
     0
174
     0
 93
        1
 44
0.0
173
     0
291
     1
 45
0.0
1001
ACAD
1000
AcDbSavedByObjectVersion
1070
     0
  0
VISUALSTYLE
  5
15
102
{ACAD_XDICTIONARY
360
8AA
102
}
102
{ACAD_REACTORS
330
14
102
}
330
14
100
AcDbVisualStyle
  2

 70
     0
 71
     2
 72
     1
 73
     1
 90
        2
 40
-0.6
 41
30.0
 62
     5
 63
     7
 74
     0
 91
        4
 64
     7
 65
   257
 75
     1
175
     1
 42
1.0
 92
        8
 66
     7
 43
1.0
 76
     1
 77
     6
 78
     2
 67
     7
 79
     5
170
     0
171
     0
290
     0
174
     0
 93
       13
 44
0.0
173
     0
291
     1
 45
0.0
1001
ACAD
1000
AcDbSavedByObjectVersion
1070
     0
  0
VISUALSTYLE
  5
16
102
{ACAD_XDICTIONARY
360
8AC
102
}
102
{ACAD_REACTORS
330
14
102
}
330
14
100
AcDbVisualStyle
  2

 70
     1
 71
     2
 72
     1
 73
     1
 90
        2
 40
-0.6
 41
30.0
 62
     5
 63
     7
 74
     1
 91
        4
 64
     7
 65
   257
 75
     1
175
     1
 42
1.0
 92
        0
 66
   257
 43
1.0
 76
     1
 77
     6
 78
     2
 67
     7
 79
     5
170
     0
171
     0
290
     0
174
     0
 93
       13
 44
0.0
173
     0
291
     1
 45
0.0
1001
ACAD
1000
AcDbSavedByObjectVersion
1070
     0
  0
VISUALSTYLE
  5
17
102
{ACAD_XDICTIONARY
360
8AE
102
}
102
{ACAD_REACTORS
330
14
102
}
330
14
100
AcDbVisualStyle
  2

 70
     2
 71
     2
 72
     2
 73
     1
 90
        2
 40
-0.6
 41
30.0
 62
     5
 63
     7
 74
     0
 91
        4
 64
     7
 65
   257
 75
     1
175
     1
 42
1.0
 92
        0
 66
     7
 43
1.0
 76
     1
 77
     6
 78
     2
 67
     7
 79
     5
170
     0
171
     0
290
     0
174
     0
 93
       13
 44
0.0
173
     0
291
     1
 45
0.0
1001
ACAD
1000
AcDbSavedByObjectVersion
1070
     0
  0
VISUALSTYLE
  5
18
102
{ACAD_XDICTIONARY
360
8B0
102
}
102
{ACAD_REACTORS
330
14
102
}
330
14
100
AcDbVisualStyle
  2

 70
     3
 71
     2
 72
     2
 73
     1
 90
        2
 40
-0.6
 41
30.0
 62
     5
 63
     7
 74
     1
 91
        4
 64
     7
 65
   257
 75
     1
175
     1
 42
1.0
 92
        0
 66
   257
 43
1.0
 76
     1
 77
     6
 78
     2
 67
     7
 79
     5
170
     0
171
     0
290
     0
174
     0
 93
       13
 44
0.0
173
     0
291
     1
 45
0.0
1001
ACAD
1000
AcDbSavedByObjectVersion
1070
     0
  0
VISUALSTYLE
  5
3B2
102
{ACAD_XDICTIONARY
360
8CD
102
}
102
{ACAD_REACTORS
330
14
102
}
330
14
100
AcDbVisualStyle
  2
Hidden
 70
     6
 71
     1
 72
     2
 73
     2
 90
        0
 40
-0.6
 41
-30.0
 62
     5
 63
     7
421
 16777215
 74
     2
 91
        2
 64
     7
 65
   257
 75
     2
175
     1
 42
40.0
 92
        0
 66
   257
 43
1.0
 76
     1
 77
     6
 78
     2
 67
     7
 79
     3
170
     0
171
     0
290
     0
174
     0
 93
        1
 44
0.0
173
     0
291
     0
 45
0.0
1001
ACAD
1000
AcDbSavedByObjectVersion
1070
     0
  0
VISUALSTYLE
  5
3B8
102
{ACAD_XDICTIONARY
360
8D9
102
}
102
{ACAD_REACTORS
330
14
102
}
330
14
100
AcDbVisualStyle
  2
JitterOff
 70
    20
 71
     2
 72
     2
 73
     0
 90
        0
 40
-0.6
 41
-30.0
 62
     5
 63
     7
421
 16777215
 74
     1
 91
        4
 64
     7
 65
   257
 75
     1
175
     1
 42
1.0
 92
       10
 66
     7
 43
1.0
 76
     1
 77
     6
 78
     2
 67
     7
 79
     5
170
     0
171
     0
290
     0
174
     0
 93
        1
 44
0.0
173
     0
291
     1
 45
0.0
1001
ACAD
1000
AcDbSavedByObjectVersion
1070
     0
  0
VISUALSTYLE
  5
22
102
{ACAD_XDICTIONARY
360
8C4
102
}
102
{ACAD_REACTORS
330
14
102
}
330
14
100
AcDbVisualStyle
  2

 70
    14
 71
     2
 72
     2
 73
     0
 90
        0
 40
-0.6
 41
-30.0
 62
     5
 63
     7
 74
     1
 91
        4
 64
     7
 65
   257
 75
     7
175
     7
 42
1.0
 92
        8
 66
     7
 43
1.0
 76
     1
 77
     6
 78
     2
 67
     7
 79
     5
170
     0
171
     0
290
     0
174
     0
 93
        1
 44
0.0
173
     0
291
     1
 45
0.0
1001
ACAD
1000
AcDbSavedByObjectVersion
1070
     0
  0
VISUALSTYLE
  5
3B9
102
{ACAD_XDICTIONARY
360
8DB
102
}
102
{ACAD_REACTORS
330
14
102
}
330
14
100
AcDbVisualStyle
  2
OverhangOff
 70
    21
 71
     2
 72
     2
 73
     0
 90
        0
 40
-0.6
 41
-30.0
 62
     5
 63
     7
421
 16777215
 74
     1
 91
        4
 64
     7
 65
   257
 75
     1
175
     1
 42
1.0
 92
        9
 66
     7
 43
1.0
 76
     1
 77
     6
 78
     2
 67
     7
 79
     5
170
     0
171
     0
290
     0
174
     0
 93
        1
 44
0.0
173
     0
291
     1
 45
0.0
1001
ACAD
1000
AcDbSavedByObjectVersion
1070
     0
  0
VISUALSTYLE
  5
1E
102
{ACAD_XDICTIONARY
360
8BC
102
}
102
{ACAD_REACTORS
330
14
102
}
330
14
100
AcDbVisualStyle
  2

 70
     8
 71
     2
 72
     2
 73
     0
 90
        0
 40
-0.6
 41
-30.0
 62
     5
 63
     7
 74
     1
 91
        0
 64
     7
 65
   257
 75
     1
175
     1
 42
1.0
 92
        8
 66
     8
 43
1.0
 76
     1
 77
     6
 78
     2
 67
     7
 79
     5
170
     0
171
     0
290
     0
174
     0
 93
       13
 44
0.0
173
     0
291
     0
 45
0.0
1001
ACAD
1000
AcDbSavedByObjectVersion
1070
     0
  0
VISUALSTYLE
  5
3B7
102
{ACAD_XDICTIONARY
360
8D7
102
}
102
{ACAD_REACTORS
330
14
102
}
330
14
100
AcDbVisualStyle
  2
Shaded
 70
    27
 71
     2
 72
     2
 73
     1
 90
        2
 40
-0.6
 41
30.0
 62
     5
 63
     7
421
 16777215
 74
     0
 91
        4
 64
     7
 65
   257
 75
     1
175
     1
 42
1.0
 92
        8
 66
   257
 43
1.0
 76
     1
 77
     6
 78
     2
 67
     8
425
  7895160
 79
     3
170
     0
171
     0
290
     0
174
     0
 93
        5
 44
0.0
173
     0
291
     0
 45
0.0
1001
ACAD
1000
AcDbSavedByObjectVersion
1070
     0
  0
VISUALSTYLE
  5
3B6
102
{ACAD_XDICTIONARY
360
8D5
102
}
102
{ACAD_REACTORS
330
14
102
}
330
14
100
AcDbVisualStyle
  2
Shaded with edges
 70
    26
 71
     2
 72
     2
 73
     1
 90
        2
 40
-0.6
 41
30.0
 62
     5
 63
     7
421
 16777215
 74
     1
 91
       10
 64
     7
 65
   257
 75
     2
175
     1
 42
1.0
 92
        8
 66
   257
 43
1.0
 76
     1
 77
     6
 78
     2
 67
     7
 79
     3
170
     0
171
     0
290
     0
174
     0
 93
        5
 44
0.0
173
     0
291
     0
 45
0.0
1001
ACAD
1000
AcDbSavedByObjectVersion
1070
     0
  0
VISUALSTYLE
  5
3B3
102
{ACAD_XDICTIONARY
360
8CF
102
}
102
{ACAD_REACTORS
330
14
102
}
330
14
100
AcDbVisualStyle
  2
Shades of Gray
 70
    23
 71
     2
 72
     2
 73
     3
 90
        0
 40
-0.6
 41
-30.0
 62
     5
 63
     7
421
 16777215
 74
     2
 91
        2
 64
     7
 65
     7
 75
     1
175
     1
 42
40.0
 92
        8
 66
     7
 43
1.0
 76
     1
 77
     6
 78
     2
 67
     7
 79
     3
170
     0
171
     0
290
     0
174
     0
 93
        1
 44
0.0
173
     0
291
     0
 45
0.0
1001
ACAD
1000
AcDbSavedByObjectVersion
1070
     0
  0
VISUALSTYLE
  5
3B4
102
{ACAD_XDICTIONARY
360
8D1
102
}
102
{ACAD_REACTORS
330
14
102
}
330
14
100
AcDbVisualStyle
  2
Sketchy
 70
    24
 71
     1
 72
     2
 73
     2
 90
        0
 40
-0.6
 41
-30.0
 62
     5
 63
     7
421
 16777215
 74
     2
 91
        2
 64
     7
 65
     7
 75
     1
175
     1
 42
40.0
 92
       11
 66
     7
 43
1.0
 76
     1
 77
     6
 78
     2
 67
     7
 79
     6
170
     0
171
     0
290
     0
174
     0
 93
        1
 44
0.0
173
     0
291
     0
 45
0.0
1001
ACAD
1000
AcDbSavedByObjectVersion
1070
     0
  0
VISUALSTYLE
  5
21
102
{ACAD_XDICTIONARY
360
8C2
102
}
102
{ACAD_REACTORS
330
14
102
}
330
14
100
AcDbVisualStyle
  2

 70
    13
 71
     2
 72
     2
 73
     0
 90
        0
 40
-0.6
 41
-30.0
 62
     5
 63
     7
 74
     1
 91
        4
 64
     7
 65
   257
 75
     1
175
     1
 42
1.0
 92
       12
 66
     7
 43
1.0
 76
     1
 77
     6
 78
     2
 67
     7
 79
     5
170
     0
171
     0
290
     0
174
     0
 93
        1
 44
0.0
173
     0
291
     1
 45
0.0
1001
ACAD
1000
AcDbSavedByObjectVersion
1070
     0
  0
VISUALSTYLE
  5
3B1
102
{ACAD_XDICTIONARY
360
8CB
102
}
102
{ACAD_REACTORS
330
14
102
}
330
14
100
AcDbVisualStyle
  2
Wireframe
 70
     5
 71
     0
 72
     2
 73
     0
 90
        0
 40
-0.6
 41
-30.0
 62
     5
 63
     7
421
 16777215
 74
     1
 91
        4
 64
     7
 65
   257
 75
     1
175
     1
 42
1.0
 92
        0
 66
   257
 43
1.0
 76
     1
 77
     6
 78
     2
 67
     7
 79
     3
170
     0
171
     0
290
     0
174
     0
 93
        1
 44
0.0
173
     0
291
     0
 45
0.0
1001
ACAD
1000
AcDbSavedByObjectVersion
1070
     0
  0
VISUALSTYLE
  5
3B5
102
{ACAD_XDICTIONARY
360
8D3
102
}
102
{ACAD_REACTORS
330
14
102
}
330
14
100
AcDbVisualStyle
  2
X-Ray
 70
    25
 71
     2
 72
     2
 73
     1
 90
        1
 40
0.5
 41
-30.0
 62
     5
 63
     7
421
 16777215
 74
     1
 91
        0
 64
     7
 65
   257
 75
     1
175
     1
 42
1.0
 92
        8
 66
     7
 43
1.0
 76
     1
 77
     6
 78
     2
 67
     7
 79
     3
170
     0
171
     0
290
     0
174
     0
 93
       13
 44
0.0
173
     0
291
     0
 45
0.0
1001
ACAD
1000
AcDbSavedByObjectVersion
1070
     0
  0
DICTIONARYVAR
  5
727
102
{ACAD_REACTORS
330
378
102
}
330
378
100
DictionaryVariables
280
     0
  1
1:1
  0
DICTIONARYVAR
  5
726
102
{ACAD_REACTORS
330
378
102
}
330
378
100
DictionaryVariables
280
     0
  1
STANDARD
  0
DICTIONARYVAR
  5
379
102
{ACAD_REACTORS
330
378
102
}
330
378
100
DictionaryVariables
280
     0
  1
STANDARD
  0
DICTIONARYVAR
  5
37C
102
{ACAD_REACTORS
330
378
102
}
330
378
100
DictionaryVariables
280
     0
  1
1
  0
DICTIONARYVAR
  5
37B
102
{ACAD_REACTORS
330
378
102
}
330
378
100
DictionaryVariables
280
     0
  1
0
  0
DICTIONARYVAR
  5
728
102
{ACAD_REACTORS
330
378
102
}
330
378
100
DictionaryVariables
280
     0
  1
1.570796
  0
DICTIONARYVAR
  5
729
102
{ACAD_REACTORS
330
378
102
}
330
378
100
DictionaryVariables
280
     0
  1
1.570796
  0
DICTIONARYVAR
  5
72A
102
{ACAD_REACTORS
330
378
102
}
330
378
100
DictionaryVariables
280
     0
  1
-122.394000
  0
DICTIONARYVAR
  5
37A
102
{ACAD_REACTORS
330
378
102
}
330
378
100
DictionaryVariables
280
     0
  1
127
  0
DICTIONARY
  5
783
330
39
100
AcDbDictionary
280
     1
281
     1
  3
ADSK_XREC_LAYOUTTHUMBNAIL
360
784
  0
DICTIONARY
  5
396
330
12
100
AcDbDictionary
280
     1
281
     1
  3
ACAD_XREC_ROUNDTRIP
360
397
  0
DICTIONARY
  5
394
330
11
100
AcDbDictionary
280
     1
281
     1
  3
ACAD_XREC_ROUNDTRIP
360
395
  0
DICTIONARY
  5
398
330
13
100
AcDbDictionary
280
     1
281
     1
  3
ACAD_XREC_ROUNDTRIP
360
399
  0
DICTIONARY
  5
8A2
330
31
100
AcDbDictionary
280
     1
281
     1
  3
ACAD_ROUNDTRIP_2008_TABLESTYLE_CELLSTYLEMAP
360
8A3
  3
ACAD_XREC_ROUNDTRIP
360
8CA
  0
DICTIONARY
  5
8B4
330
1A
100
AcDbDictionary
280
     1
281
     1
  3
ACAD_XREC_ROUNDTRIP
360
8B5
  0
DICTIONARY
  5
8B8
330
1C
100
AcDbDictionary
280
     1
281
     1
  3
ACAD_XREC_ROUNDTRIP
360
8B9
  0
DICTIONARY
  5
8B6
330
1B
100
AcDbDictionary
280
     1
281
     1
  3
ACAD_XREC_ROUNDTRIP
360
8B7
  0
DICTIONARY
  5
8B2
330
19
100
AcDbDictionary
280
     1
281
     1
  3
ACAD_XREC_ROUNDTRIP
360
8B3
  0
DICTIONARY
  5
8C0
330
20
100
AcDbDictionary
280
     1
281
     1
  3
ACAD_XREC_ROUNDTRIP
360
8C1
  0
DICTIONARY
  5
8C8
330
24
100
AcDbDictionary
280
     1
281
     1
  3
ACAD_XREC_ROUNDTRIP
360
8C9
  0
DICTIONARY
  5
8BA
330
1D
100
AcDbDictionary
280
     1
281
     1
  3
ACAD_XREC_ROUNDTRIP
360
8BB
  0
DICTIONARY
  5
8BE
330
1F
100
AcDbDictionary
280
     1
281
     1
  3
ACAD_XREC_ROUNDTRIP
360
8BF
  0
DICTIONARY
  5
8DD
330
3BA
100
AcDbDictionary
280
     1
281
     1
  3
ACAD_XREC_ROUNDTRIP
360
8DE
  0
DICTIONARY
  5
8C6
330
23
100
AcDbDictionary
280
     1
281
     1
  3
ACAD_XREC_ROUNDTRIP
360
8C7
  0
DICTIONARY
  5
8AA
330
15
100
AcDbDictionary
280
     1
281
     1
  3
ACAD_XREC_ROUNDTRIP
360
8AB
  0
DICTIONARY
  5
8AC
330
16
100
AcDbDictionary
280
     1
281
     1
  3
ACAD_XREC_ROUNDTRIP
360
8AD
  0
DICTIONARY
  5
8AE
330
17
100
AcDbDictionary
280
     1
281
     1
  3
ACAD_XREC_ROUNDTRIP
360
8AF
  0
DICTIONARY
  5
8B0
330
18
100
AcDbDictionary
280
     1
281
     1
  3
ACAD_XREC_ROUNDTRIP
360
8B1
  0
DICTIONARY
  5
8CD
330
3B2
100
AcDbDictionary
280
     1
281
     1
  3
ACAD_XREC_ROUNDTRIP
360
8CE
  0
DICTIONARY
  5
8D9
330
3B8
100
AcDbDictionary
280
     1
281
     1
  3
ACAD_XREC_ROUNDTRIP
360
8DA
  0
DICTIONARY
  5
8C4
330
22
100
AcDbDictionary
280
     1
281
     1
  3
ACAD_XREC_ROUNDTRIP
360
8C5
  0
DICTIONARY
  5
8DB
330
3B9
100
AcDbDictionary
280
     1
281
     1
  3
ACAD_XREC_ROUNDTRIP
360
8DC
  0
DICTIONARY
  5
8BC
330
1E
100
AcDbDictionary
280
     1
281
     1
  3
ACAD_XREC_ROUNDTRIP
360
8BD
  0
DICTIONARY
  5
8D7
330
3B7
100
AcDbDictionary
280
     1
281
     1
  3
ACAD_XREC_ROUNDTRIP
360
8D8
  0
DICTIONARY
  5
8D5
330
3B6
100
AcDbDictionary
280
     1
281
     1
  3
ACAD_XREC_ROUNDTRIP
360
8D6
  0
DICTIONARY
  5
8CF
330
3B3
100
AcDbDictionary
280
     1
281
     1
  3
ACAD_XREC_ROUNDTRIP
360
8D0
  0
DICTIONARY
  5
8D1
330
3B4
100
AcDbDictionary
280
     1
281
     1
  3
ACAD_XREC_ROUNDTRIP
360
8D2
  0
DICTIONARY
  5
8C2
330
21
100
AcDbDictionary
280
     1
281
     1
  3
ACAD_XREC_ROUNDTRIP
360
8C3
  0
DICTIONARY
  5
8CB
330
3B1
100
AcDbDictionary
280
     1
281
     1
  3
ACAD_XREC_ROUNDTRIP
360
8CC
  0
DICTIONARY
  5
8D3
330
3B5
100
AcDbDictionary
280
     1
281
     1
  3
ACAD_XREC_ROUNDTRIP
360
8D4
  0
XRECORD
  5
784
102
{ACAD_REACTORS
330
783
102
}
330
783
100
AcDbXrecord
280
     1
310
280000000001000091000000010008000000000000910000000000000000000000010000000000000000000000000000FFFFFF000000000000000000000000000000000000000000000000000000000000000000330000006600000099000000CC000000FF00000000330000333300006633000099330000CC330000FF3300
310
0000660000336600006666000099660000CC660000FF66000000990000339900006699000099990000CC990000FF99000000CC000033CC000066CC000099CC0000CCCC0000FFCC000000FF000033FF000066FF000099FF0000CCFF0000FFFF000000003300330033006600330099003300CC003300FF003300003333003333
310
33006633330099333300CC333300FF33330000663300336633006666330099663300CC663300FF66330000993300339933006699330099993300CC993300FF99330000CC330033CC330066CC330099CC3300CCCC3300FFCC330000FF330033FF330066FF330099FF3300CCFF3300FFFF330000006600330066006600660099
310
006600CC006600FF00660000336600333366006633660099336600CC336600FF33660000666600336666006666660099666600CC666600FF66660000996600339966006699660099996600CC996600FF99660000CC660033CC660066CC660099CC6600CCCC6600FFCC660000FF660033FF660066FF660099FF6600CCFF6600
310
FFFF660000009900330099006600990099009900CC009900FF00990000339900333399006633990099339900CC339900FF33990000669900336699006666990099669900CC669900FF66990000999900339999006699990099999900CC999900FF99990000CC990033CC990066CC990099CC9900CCCC9900FFCC990000FF99
310
0033FF990066FF990099FF9900CCFF9900FFFF99000000CC003300CC006600CC009900CC00CC00CC00FF00CC000033CC003333CC006633CC009933CC00CC33CC00FF33CC000066CC003366CC006666CC009966CC00CC66CC00FF66CC000099CC003399CC006699CC009999CC00CC99CC00FF99CC0000CCCC0033CCCC0066CC
310
CC0099CCCC00CCCCCC00FFCCCC0000FFCC0033FFCC0066FFCC0099FFCC00CCFFCC00FFFFCC000000FF003300FF006600FF009900FF00CC00FF00FF00FF000033FF003333FF006633FF009933FF00CC33FF00FF33FF000066FF003366FF006666FF009966FF00CC66FF00FF66FF000099FF003399FF006699FF009999FF00CC
310
99FF00FF99FF0000CCFF0033CCFF0066CCFF0099CCFF00CCCCFF00FFCCFF0000FFFF0033FFFF0066FFFF0099FFFF00CCFFFF00FFFFFF00000000000D0D0D001A1A1A00282828003535350043434300505050005D5D5D006B6B6B00787878008686860093939300A1A1A100AEAEAE00BBBBBB00C9C9C900D6D6D600E4E4E400
310
F1F1F100FFFFFF000000000000000000000000000000000000000000000000000000000000000000000000000000000000000000000000000000000000000000000000000000000000000000000000000000000000000000000000000000000000000000000000000000000000000000000000000000000000000000000000
310
00000000000000000000000000000000000000000000000000000000000000000000000000000000000000000000000000000000000000000000000000000000000000000000000000000000000000000000000000000000000000000000000000000000000000000000000000000000000000000000000000000000000000
310
00000000000000000000000000000000000000000000000000000000000000000000000000000000000000000000000000000000000000000000000000000000000000000000000000000000000000000000000000000000000000000000000000000000000000000000000000000000000000000000000000000000000000
310
00000000000000000000000000000000000000000000000000000000000000000000000000000000000000000000000000000000000000000000000000000000000000000000000000000000000000000000000000000000000000000000000000000000000000000000000000000000000000000000000000000000000000
310
00000000000000000000000000000000000000000000000000000000000000000000000000000000000000000000000000000000000000000000000000000000000000000000000000000000000000000000000000000000000000000000000000000000000000000000000000000000000000000000000000000000000000
310
00000000000000000000000000000000000000000000000000000000000000000000000000000000000000000000000000000000000000000000000000000000000000000000000000000000000000000000000000000000000000000000000000000000000000000000000000000000000000000000000000000000000000
310
00000000000000000000000000000000000000000000000000000000000000000000000000000000000000000000000000000000000000000000000000000000000000000000000000000000000000000000000000000000000000000000000000000000000000000000000000000000000000000000000000000000000000
310
00000000000000000000000000000000000000000000000000000000000000000000000000000000000000000000000000000000000000000000000000000000000000000000000000000000000000000000000000000000000000000000000000000000000000000000000000000000000000000000000000000000000000
310
00000000000000000000000000000000000000000000000000000000000000000000000000000000000000000000000000000000000000000000000000000000000000000000000000000000000000000000000000000000000000000000000000000000000000000000000000000000000000000000000000000000000000
310
00000000000000000000000000000000000000000000000000000000000000000000000000000000000000000000000000000000000000000000000000000000000000000000000000000000000000000000000000000000000000000000000000000000000000000000000000000000000000000000000000000000000000
310
00000000000000000000000000000000000000000000000000000000000000000000000000000000000000000000000000000000000000000000000000000000000000000000000000000000000000000000000000000000000000000000000000000000000000000000000000000000000000000000000000000000000000
310
00000000000000000000000000000000000000000000000000000000000000000000000000000000000000000000000000000000000000000000000000000000000000000000000000000000000000000000000000000000000000000000000000000000000000000000000000000000000000000000000000000000000000
310
00000000000000000000000000000000000000000000000000000000000000000000000000000000000000000000000000000000000000000000000000000000000000000000000000000000000000000000000000000000000000000000000000000000000000000000000000000000000000000000000000000000000000
310
00000000000000000000000000000000000000000000000000000000000000000000000000000000000000000000000000000000000000000000000000000000000000000000000000000000000000000000000000000000000000000000000000000000000000000000000000000000000000000000000000000000000000
310
00000000000000000000000000000000000000000000000000000000000000000000000000000000000000000000000000000000000000000000000000000000000000000000000000000000000000000000000000000000000000000000000000000000000000000000000000000000000000000000000000000000000000
310
00000000000000000000000000000000000000000000000000000000000000000000000000000000000000000000000000000000000000000000000000000000000000000000000000000000000000000000000000000000000000000000000000000000000000000000000000000000000000000000000000000000000000
310
00000000000000000000000000000000000000000000000000000000000000000000000000000000000000000000000000000000000000000000000000000000000000000000000000000000000000000000000000000000000000000000000000000000000000000000000000000000000000000000000000000000000000
310
00000000000000000000000000000000000000000000000000000000000000000000000000000000000000000000000000000000000000000000000000000000000000000000000000000000000000000000000000000000000000000000000000000000000000000000000000000000000000000000000000000000000000
310
00000000000000000000000000000000000000000000000000000000000000000000000000000000000000000000000000000000000000000000000000000000000000000000000000000000000000000000000000000000000000000000000000000000000000000000000000000000000000000000000000000000000000
310
00000000000000000000000000000000000000000000000000000000000000000000000000000000000000000000000000000000000000000000000000000000000000000000000000000000000000000000000000000000000000000000000000000000000000000000000000000000000000000000000000000000000000
310
00000000000000000000000000000000000000000000000000000000000000000000000000000000000000000000000000000000000000000000000000000000000000000000000000000000000000000000000000000000000000000000000000000000000000000000000000000000000000000000000000000000000000
310
00000000000000000000000000000000000000000000000000000000000000000000000000000000000000000000000000000000000000000000000000000000000000000000000000000000000000000000000000000000000000000000000000000000000000000000000000000000000000000000000000000000000000
310
00000000000000000000000000000000000000000000000000000000000000000000000000000000000000000000000000000000000000000000000000000000000000000000000000000000000000000000000000000000000000000000000000000000000000000000000000000000000000000000000000000000000000
310
00000000000000000000000000000000000000000000000000000000000000000000000000000000000000000000000000000000000000000000000000000000000000000000000000000000000000000000000000000000000000000000000000000000000000000000000000000000000000000000000000000000000000
310
00000000000000000000000000000000000000000000000000000000000000000000000000000000000000000000000000000000000000000000000000000000000000000000000000000000000000000000000000000000000000000000000000000000000000000000000000000000000000000000000000000000000000
310
00000000000000000000000000000000000000000000000000000000000000000000000000000000000000000000000000000000000000000000000000000000000000000000000000000000000000000000000000000000000000000000000000000000000000000000000000000000000000000000000000000000000000
310
00000000000000000000000000000000000000000000000000000000000000000000000000000000000000000000000000000000000000000000000000000000000000000000000000000000000000000000000000000000000000000000000000000000000000000000000000000000000000000000000000000000000000
310
00000000000000000000000000000000000000000000000000000000000000000000000000000000000000000000000000000000000000000000000000000000000000000000000000000000000000000000000000000000000000000000000000000000000000000000000000000000000000000000000000000000000000
310
00000000000000000000000000000000000000000000000000000000000000000000000000000000000000000000000000000000000000000000000000000000000000000000000000000000000000000000000000000000000000000000000000000000000000000000000000000000000000000000000000000000000000
310
00000000000000000000000000000000000000000000000000000000000000000000000000000000000000000000000000000000000000000000000000000000000000000000000000000000000000000000000000000000000000000000000000000000000000000000000000000000000000000000000000000000000000
310
00000000000000000000000000000000000000000000000000000000000000000000000000000000000000000000000000000000000000000000000000000000000000000000000000000000000000000000000000000000000000000000000000000000000000000000000000000000000000000000000000000000000000
310
00000000000000000000000000000000000000000000000000000000000000000000000000000000000000000000000000000000000000000000000000000000000000000000000000000000000000000000000000000000000000000000000000000000000000000000000000000000000000000000000000000000000000
310
00000000000000000000000000000000000000000000000000000000000000000000000000000000000000000000000000000000000000000000000000000000000000000000000000000000000000000000000000000000000000000000000000000000000000000000000000000000000000000000000000000000000000
310
00000000000000000000000000000000000000000000000000000000000000000000000000000000000000000000000000000000000000000000000000000000000000000000000000000000000000000000000000000000000000000000000000000000000000000000000000000000000000000000000000000000000000
310
00000000000000000000000000000000000000000000000000000000000000000000000000000000000000000000000000000000000000000000000000000000000000000000000000000000000000000000000000000000000000000000000000000000000000000000000000000000000000000000000000000000000000
310
00000000000000000000000000000000000000000000000000000000000000000000000000000000000000000000000000000000000000000000000000000000000000000000000000000000000000000000000000000000000000000000000000000000000000000000000000000000000000000000000000000000000000
310
00000000000000000000000000000000000000000000000000000000000000000000000000000000000000000000000000000000000000000000000000000000000000000000000000000000000000000000000000000000000000000000000000000000000000000000000000000000000000000000000000000000000000
310
00000000000000000000000000000000000000000000000000000000000000000000000000000000000000000000000000000000000000000000000000000000000000000000000000000000000000000000000000000000000000000000000000000000000000000000000000000000000000000000000000000000000000
310
00000000000000000000000000000000000000000000000000000000000000000000000000000000000000000000000000000000000000000000000000000000000000000000000000000000000000000000000000000000000000000000000000000000000000000000000000000000000000000000000000000000000000
310
00000000000000000000000000000000000000000000000000000000000000000000000000000000000000000000000000000000000000000000000000000000000000000000000000000000000000000000000000000000000000000000000000000000000000000000000000000000000000000000000000000000000000
310
00000000000000000000000000000000000000000000000000000000000000000000000000000000000000000000000000000000000000000000000000000000000000000000000000000000000000000000000000000000000000000000000000000000000000000000000000000000000000000000000000000000000000
310
00000000000000000000000000000000000000000000000000000000000000000000000000000000000000000000000000000000000000000000000000000000000000000000000000000000000000000000000000000000000000000000000000000000000000000000000000000000000000000000000000000000000000
310
00000000000000000000000000000000000000000000000000000000000000000000000000000000000000000000000000000000000000000000000000000000000000000000000000000000000000000000000000000000000000000000000000000000000000000000000000000000000000000000000000000000000000
310
00000000000000000000000000000000000000000000000000000000000000000000000000000000000000000000000000000000000000000000000000000000000000000000000000000000000000000000000000000000000000000000000000000000000000000000000000000000000000000000000000000000000000
310
00000000000000000000000000000000000000000000000000000000000000000000000000000000000000000000000000000000000000000000000000000000000000000000000000000000000000000000000000000000000000000000000000000000000000000000000000000000000000000000000000000000000000
310
00000000000000000000000000000000000000000000000000000000000000000000000000000000000000000000000000000000000000000000000000000000000000000000000000000000000000000000000000000000000000000000000000000000000000000000000000000000000000000000000000000000000000
310
00000000000000000000000000000000000000000000000000000000000000000000000000000000000000000000000000000000000000000000000000000000000000000000000000000000000000000000000000000000000000000000000000000000000000000000000000000000000000000000000000000000000000
310
00000000000000000000000000000000000000000000000000000000000000000000000000000000000000000000000000000000000000000000000000000000000000000000000000000000000000000000000000000000000000000000000000000000000000000000000000000000000000000000000000000000000000
310
00000000000000000000000000000000000000000000000000000000000000000000000000000000000000000000000000000000000000000000000000000000000000000000000000000000000000000000000000000000000000000000000000000000000000000000000000000000000000000000000000000000000000
310
00000000000000000000000000000000000000000000000000000000000000000000000000000000000000000000000000000000000000000000000000000000000000000000000000000000000000000000000000000000000000000000000000000000000000000000000000000000000000000000000000000000000000
310
00000000000000000000000000000000000000000000000000000000000000000000000000000000000000000000000000000000000000000000000000000000000000000000000000000000000000000000000000000000000000000000000000000000000000000000000000000000000000000000000000000000000000
310
00000000000000000000000000000000000000000000000000000000000000000000000000000000000000000000000000000000000000000000000000000000000000000000000000000000000000000000000000000000000000000000000000000000000000000000000000000000000000000000000000000000000000
310
00000000000000000000000000000000000000000000000000000000000000000000000000000000000000000000000000000000000000000000000000000000000000000000000000000000000000000000000000000000000000000000000000000000000000000000000000000000000000000000000000000000000000
310
00000000000000000000000000000000000000000000000000000000000000000000000000000000000000000000000000000000000000000000000000000000000000000000000000000000000000000000000000000000000000000000000000000000000000000000000000000000000000000000000000000000000000
310
00000000000000000000000000000000000000000000000000000000000000000000000000000000000000000000000000000000000000000000000000000000000000000000000000000000000000000000000000000000000000000000000000000000000000000000000000000000000000000000000000000000000000
310
00000000000000000000000000000000000000000000000000000000000000000000000000000000000000000000000000000000000000000000000000000000000000000000000000000000000000000000000000000000000000000000000000000000000000000000000000000000000000000000000000000000000000
310
00000000000000000000000000000000000000000000000000000000000000000000000000000000000000000000000000000000000000000000000000000000000000000000000000000000000000000000000000000000000000000000000000000000000000000000000000000000000000000000000000000000000000
310
00000000000000000000000000000000000000000000000000000000000000000000000000000000000000000000000000000000000000000000000000000000000000000000000000000000000000000000000000000000000000000000000000000000000000000000000000000000000000000000000000000000000000
310
00000000000000000000000000000000000000000000000000000000000000000000000000000000000000000000000000000000000000000000000000000000000000000000000000000000000000000000000000000000000000000000000000000000000000000000000000000000000000000000000000000000000000
310
00000000000000000000000000000000000000000000000000000000000000000000000000000000000000000000000000000000000000000000000000000000000000000000000000000000000000000000000000000000000000000000000000000000000000000000000000000000000000000000000000000000000000
310
00000000000000000000000000000000000000000000000000000000000000000000000000000000000000000000000000000000000000000000000000000000000000000000000000000000000000000000000000000000000000000000000000000000000000000000000000000000000000000000000000000000000000
310
00000000000000000000000000000000000000000000000000000000000000000000000000000000000000000000000000000000000000000000000000000000000000000000000000000000000000000000000000000000000000000000000000000000000000000000000000000000000000000000000000000000000000
310
00000000000000000000000000000000000000000000000000000000000000000000000000000000000000000000000000000000000000000000000000000000000000000000000000000000000000000000000000000000000000000000000000000000000000000000000000000000000000000000000000000000000000
310
00000000000000000000000000000000000000000000000000002828282828282828282828282828282828282828282828282828282828282828282828282828282828282828282828282828282828282828282828282828282828282828282828282828282828282828282828282828282828282828282828282828282828
310
28282828282828282828282828282828282828282828282828282828282800000000000000000000000000000000000000000000000000000000000000000000000000000000000000000000000000000000000000000000000000000000000000000000000000000000000000000000000000000000000000000000000000
310
00000000000000000000000000000000000000000000000000000000280000000000000000000000000000000000000000000000000000000000000000000000000000000000000000000000000000000000000000000000000000000000000000000000000000000000282828282828282828282828282828282828280028
310
28282828282828000028280000282828282828280028280000002828280000280000000000000000000000000000000000000000000000000000000000000000000000000000000000000000000000000000000000000000000000000000000000000000000000000000000000000000000000000000000000000000000000
310
00000000000000000000000000000000000000000000000000000000000028000000000000000000000000000000000000000000000000000000000000000000000000000000000000000000000000000000000000000000000000000000000000000000000000000000000028282828280028282828282828282828282828
310
00282828282828282828282828280028282800282828002828002828000028000028000000000000000000000000000000000000000000000000000000000000000000000000000000000000000000000000000000000000000000000000000000000000000000000000000000000000000000000000000000000000000000
310
00000000000000000000000000000000000000000000000000000000000000002800000000000000000000000000000000000000000000000000000000000000000000000000000000000000000000000000000000000000000000000000000000000000000000000000000000002828282828282828282828280028282800
310
28280028282828282828280028282800282828280028282828000028000028282800002800000000000000000000000000000000000000000000000000000000000000000000000000000000000000000000000000000000000000000000000000000000000000000000000000000000000000000000000000000000000000
310
00000000000000000000000000000000000000000000000000000000000000000000280000000000000000000000000000000000000000000000000000000000000000000000000000000000000000000000000000000000000000000000000000000000000000000000000000000000282828282828282828282828282828
310
28282828282828282828282828000028282800282800280028002800002800002828280000280000000000000000000000000000000000000000000000000000000000000000000000000000000000000000000000000000000000000000000000000000000000000000000000000000000000000000000000000000000000
310
00000000000000000000000000000000000000000000000000000000000000000000000028000000000000000000000000000000000000000000000000000000000000000000000000000000000000000000000000000000000000000000000000000000000000000000000000000000000028282828282828282828282828
310
28282828282828282828282828282828282828282828282828282828282828282828282828282828000000000000000000000000000000000000000000000000000000000000000000000000000000000000000000000000000000000000000000000000000000000000000000000000000000000000000000000000000000
310
00000000000000000000000000000000000000000000000000000000000000000000000000002800000000000000000000000000000000000000000000000000000000000000000000000000000000000000000000000000000000000000000000000000000000000000000000000000000000002828280000282800282800
310
00282800282800282828282828282828282828282828280000282828282828282828280000000000002800000000000000000000000000000000000000000000000000000000000000000000000000000000000000000000000000000000000000000000000000000000000000000000000000000000000000000000000000
310
00000000000000000000000000000000000000000000000000000000000000000000000000000000280000000000000000000000000000000000000000000000282828282828282828282828282828282828282828282828282828282828282828282828280000000000000000000000000000000000282828282828282828
310
28282828280028282828002828282828282828282828282828000028282828282828282828280000000000280000000000000000000000000000000000000000000000000000000000000000000000000000000000000000000000000000000000000000000000000000000000000000000000000000000000000000000000
310
0000000000000000000000000000000000000000000000000000000000000000000000000000000000002800000000000000000000000000000000000000000000002828280000282828000000282800F528282800000000000000000000000000000000000028000000000000000000000000000000000028282828282828
310
28282828282828282828282828282828282828282828282828282828282828282828282828282828282828282828000000000000000000000000000000000000000000000000000000000000000000000000000000000000000000000000000000000000000000000000000000000000000000000000000000000000000000
310
00000000000000000000000000000000000000000000000000000000000000000000000000000000000000002800000000000000000000000000000000000000000000002828280000002828000000282800F50028280000000000000000000000000000000000002800000000000000000000000000000000002828000028
310
28280000000000000000282800282828000000000000280000000000280000000000002800000000002800000000002800000000000000000000000000000000000000000000000000000000000000000000000000000000000000000000000000000000000000000000000000000000000000000000000000000000000000
310
00000000000000000000000000000000000000000000000000000000000000000000000000000000000000000000280000000000000000000000000000000000000000000000F528282828F5F5F528F5F528F528F5F52828282828F5F528F52828282828F5F5F5F5F5F5280000000000000000000000000000000000282828
310
28282828000000000000000028282828282800000000000028000000000028000000000000280000000000280000000000280000000000000000000000000000000000000000000000000000000000000000000000000000000000000000000000000000000000000000000000000000000000000000000000000000000000
310
00000000000000000000000000000000000000000000000000000000000000000000000000000000000000000000000028000000000000000000000000000000000000000000000028280028282828282828282828282828282828282828002828282828282800000000000028000000000000000000000000000000000028
310
28282828282828282828282828282828282828282828282828282800000000002800000000000028000000000028000000000028000000000000000000000000000000000000000000000000000000000000000000000000000000000000000000000000000000000000000000000000000000000000000000000000000000
310
00000000000000000000000000000000000000000000000000000000000000000000000000000000000000000000000000002800000000000000000000000000000000000000000000002828282828280028282828282828F52828282828282828002828282828282800000000002800000000000000000000000000000000
310
00282800002828280000280028002828282800282828000028282800280000000000280000000000002800000000002800000000002800000000000000000000000000000000000000000000000000000000000000000000000000000000000000000000000000000000000000000000000000000000000000000000000000
310
00000000000000000000000000000000000000000000000000000000000000000000000000000000000000000000000000000000280000000000000000000000000000000000000000000000F5F5F5F5F5F5F5F5F5F5F5F5F5F5F52828282828F5F5F5F5F5F5F5F5F5F5F5F5F5F5F5F5F50000000000000000000000000000
310
00000028282828282828002828282828282828282828282828282828280028000000000028000000000000280000000000280000000000280000000000000000000000000000000000000000000000000000000000000000000000000000000000000000000000000000000000000000000000000000000000000000000000
310
0000000000000000000000000000000000000000000000000000000000000000000000000000000000000000000000000000000000002800000000000000000000000000000000000000000000002828282828282828282828282800F500280028280000000000000000000000000000000028000000000000000000000000
310
00000000002828282828002800002800282828282828280028002800282828002800000000002800000000000028000000000028000000000028000000000000000000000000000000000000000000000000000000000000000000000000000000000000000000000000000000000000000000000000000000000000000000
310
00000000000000000000000000000000000000000000000000000000000000000000000000000000000000000000000000000000000000002800000000000000000000000000000000000000000000002828282828282828282828282800F52828282828000000000000000000000000000000002800000000000000000000
310
00000000000000282828282828282828282828282828282828282828282828282828282828282828282828282828282828282828282828282828282800000000000000000000000000000000000000000000000000000000000000000000000000000000000000000000000000000000000000000000000000000000000000
310
00000000000000000000000000000000000000000000000000000000000000000000000000000000000000000000000000000000000000000000280000000000000000000000000000000000000000000000F5F5F5F5F5F5F5F5F5F5F5F5F5F5F5F52828F528F5F5F5F5F5F5F5F5F5F5F5F5F5F5F5F5F50000000000000000
310
00000000000000000028282800282828282828282828282828282828282828282828282828002828282828002828282800282828282800282828282800280000000000000000000000000000000000000000000000000000000000000000000000000000000000000000000000000000000000000000000000000000000000
310
0000000000000000000000000000000000000000000000000000000000000000000000000000000000000000000000000000000000000000000000002800000000000000000000000000000000000000000000002828280028280028280028280000F528280028282828000028282828282828282828282828000000000000
310
00000000000000000000002828282828282828282828282828282828282828282828282828282828282828282828282828280028282828282828282828280028000000000000000000000000000000000000000000000000000000000000000000000000000000000000000000000000000000000000000000000000000000
310
00000000000000000000000000000000000000000000000000000000000000000000000000000000000000000000000000000000000000000000000000002800000000000000000000000000000000000000000000002828282828280028280028280000F52828002828282800002828282828282828282828282800000000
310
00000000000000000000000000282828282828280000000000000000000000000000000000000000280028282828282828282828002828282828282828282828002800000000000000000000000000000000000000000000000000000000000000000000000000000000000000000000000000000000000000000000000000
310
000000000000000000000000000000000000000000000000000000000000000000000000000000000000000000000000000000000000000000000000000000002800000000000000000000000000000000000000000000002828280028280028280028280000F5002828002828282800280028000000000000280000280000
310
00000000000000000000000000000028282828282828282828282828282828282828282828282828282828282828282828282828282828282828282828282828282828280000000000000000000000000000000000000000000000000000000000000000000000000000000000000000000000000000000000000000000000
310
000000000000000000000000000000000000000000000000000000000000000000000000000000000000000000000000000000000000000000000000000000000000280000000000000000000000000000000000000000000000F5F5F5F5F5F5F5F5F5F5F5F5F5F5F528282828F5F5F5F5F5F5F5F5F5F5F5F5F5F5F5F5F5F5
310
00000000000000000000000000000000000000000000000000000000000000000000000000000000000000002800002828282828282800000028002828282828282800000028000000000000000000000000000000000000000000000000000000000000000000000000000000000000000000000000000000000000000000
310
00000000000000000000000000000000000000000000000000000000000000000000000000000000000000000000000000000000000000000000000000000000000000002800000000000000000000000000000000000000000000002828282828280028280028280000F52828282800000000000000000000000000000000
310
00280000000000000000000000000000000000000000000000000000000000000000000000000000000000000000280000282800000028280000002828282828282828280000002800000000000000000000000000000000000000000000000000000000000000000000000000000000000000000000000000000000000000
310
000000000000000000000000000000000000000000000000000000000000000000000000000000000000000000000000000000000000000000000000000000000000000000002800000000000000000000000000000000000000000000002828280028280028280028280000F5282800000000000000000000000000000000
310
00000028000000000000000000000000000000000000000000000000000000000000000000000000000000000000000028282828282828282828282828282828282828282828282828280000000000000000000000000000000000000000000000000000000000000000000000000000000000000000000000000000000000
310
000000000000000000000000000000000000000000000000000000000000000000000000000000000000000000000000000000000000000000000000000000000000000000000000280000000000000000000000000000000000000000000000282828F5F5F5F5F5F5F52828F5F5F5F52828F528282828282828F5F528F5F5
310
F5F5F5F5F52800000000000000000000000000000000000000000000000000000000000000000000000000000000000000000000000000000000000000000000000000000000000000000028000000000000000000000000000000000000000000000000000000000000000000000000000000000000000000000000000000
310
00000000000000000000000000000000000000000000000000000000000000000000000000000000000000000000000000000000000000000000000000000000000000000000000000002800000000000000000000000000000000000000000000002828280000000000000028280000F52828282828282828282828282828
310
00000000000000280000000000000000000000000000000000000000000000000000000000000000000000000000000000000000000000000000000000000000000000000000000000000000002800000000000000000000000000000000000000000000000000000000000000000000000000000000000000000000000000
310
000000000000000000000000000000000000000000000000000000000000000000000000000000000000000000000000000000000000000000000000000000000000000000000000000000002800000000000000000000000000000000000000000000002828280000000000000028280000F5002828282828282828002800
310
28280000000000000028000000000000000000000000000000000000000000000000000000000000000000000000000000000000000000000000000000000000000000000000000000000000000000280000000000000000000000000000000000000000000000000000000000000000000000000000000000000000000000
310
000000000000000000000000000000000000000000000000000000000000000000000000000000000000000000000000000000000000000000000000000000000000000000000000000000000000280000000000000000000000000000000000000000000000282828F5F5F52828F5F5F52828F5F5F5F5F5F5282828282828
310
282828282828282828F5F52800000000000000000000000000000000000000000000000000000000000000000000000000000000000000000000000000000000000000000000000000000000000000000028000000000000000000000000000000000000000000000000000000000000000000000000000000000000000000
310
00000000000000000000000000000000000000000000000000000000000000000000000000000000000000000000000000000000000000000000000000000000000000000000000000000000000000002800000000000000000000000000000000000000000000002828280000002828000000282828000000002800282828
310
28282828282828282828002800280000000000000000000000000000000000000000000000000000000000000000000000000000000000000000000000000000000000000000000000000000000000000000002800000000000000000000000000000000000000000000000000000000000000000000000000000000000000
310
00000000000000000000000000000000000000000000000000000000000000000000000000000000000000000000000000000000000000000000000000000000000000000000000000000000000000000000280000000000000000000000000000000000000000000000282828000000282800000028282800000000280028
310
28282828282828282828282800280028000000000000000000000000000000000000000000000000000000000000000000000000000000000000000000000000000000000000000000000000000000000000000000280000000000000000000000000000000000000000000000000000000000000000000000000000000000
310
00000000000000000000000000000000000000000000000000000000000000000000000000000000000000000000000000000000000000000000000000000000000000000000000000000000000000000000000028000000000000000000000000000000000000000000000028282828282828282828282828282828282828
310
28282828282828282828282828282828282800000000000000000000000000000000000000000000000000000000000000000000000000000000000000000000000000000000000000000000000000000000000000000028000000000000000000000000000000000000000000000000000000000000000000000000000000
310
00000000000000000000000000000000000000000000000000000000000000000000000000000000000000000000000000000000000000000000000000000000000000000000000000000000000000000000000000002800000000000000000000000000000000000000000000000000000000000000000000000000000000
310
00000000000000000000000000000000000000000000000000000000000000000000000000000000000000000000000000000000000000000000000000000000000000000000000000000000000000000000000000000000002800000000000000000000000000000000000000000000000000000000000000000000000000
310
00000000000000000000000000000000000000000000000000000000000000000000000000000000000000000000000000000000000000000000000000000000000000000000000000000000000000000000000000000000280000000000000000000000000000000000000000000000000000000000000000000000000000
310
00000000000000000000000000000000000000000000000000000000000000000000000000000000000000000000000000000000000000000000000000000000000000000000000000000000000000000000000000000000000000280000000000000000000000000000000000000000000000000000000000000000000000
310
00000000000000000000000000000000000000000000000000000000000000000000000000000000000000000000000000000000000000000000000000000000000000000000000000000000000000000000000000000000000028000000000000000000000000000000000000000000000000000000000000000000000000
310
00000000000000000000000000000000000000000000000000000000000000000000000000000000000000000000000000000000000000000000000000000000000000000000000000000000000000000000000000000000000000000028000000000000000000000000000000000000000000000000000000000000000000
310
00000000000000000000000000000000000000000000000000000000000000000000000000000000000000000000000000000000000000000000000000000000000000000000000000000000000000000000000000000000000000002800000000000000000000000000000000000000000000000000000000000000000000
310
00000000000000000000000000000000000000000000000000000000000000000000000000000000000000000000000000000000000000000000000000000000000000000000000000000000000000000000000000000000000000000000002800000000000000000000000000000000000000000000000000000000000000
310
00000000000000000000000000000000000000000000000000000000000000000000000000000000000000000000000000000000000000000000000000000000000000000000000000000000000000000000000000000000000000000000280000000000000000000000000000000000000000000000000000000000000000
310
00000000000000000000000000000000000000000000000000000000000000000000000000000000000000000000000000000000000000000000000000000000000000000000000000000000000000000000000000000000000000000000000000280000000000000000000000000000000000000000000000000000000000
310
00000000000000000000000000000000000000000000000000000000000000000000000000000000000000000000000000000000000000000000000000000000000000000000000000000000000000000000000000000000000000000000000028000000000000000000000000000000000000000000000000000000000000
310
00000000000000000000000000000000000000000000000000000000000000000000000000000000000000000000000000000000000000000000000000000000000000000000000000000000000000000000000000000000000000000000000000000028000000000000000000000000000000000000000000000000000000
310
00000000000000000000000000000000000000000000000000000000000000000000000000000000000000000000000000000000000000000000000000000000000000000000000000000000000000000000000000000000000000000000000000002800000000000000000000000000000000000000000000000000000000
310
00000000000000000000000000000000000000000000000000000000000000000000000000000000000000000000000000000000000000000000000000000000000000000000000000000000000000000000000000000000000000000000000000000000002800000000000000000000000000000000000000000000000000
310
00000000000000000000000000000000000000000000000000000000000000000000000000000000000000000000000000000000000000000000000000000000000000000000000000000000000000000000000000000000000000000000000000000000280000000000000000000000000000000000000000000000000000
310
000000000000F5F5000000000000000000000000000000000000000000000000000000000000000000000000000000000000000000000000000000000000000000F5F5000000000000000000000000000000000000000000000000000000000000000000000000280000000000000000000000000000000000000000000000
310
00000000000000000000000000000000000000000000000000000000000000000000000000000000000000000000000000000000000000000000000000000000000000000000000000000000000000000000000000000000000000000000000000000000000028000000000000000000000000000000000000000000000000
310
0000000000000000F5F5F5F5F5F5F5F5F5F5F5F5F5F5F5F5F5F5F5F5F5F5F5F5F5F5F52D2D2D2D2D2D2DF5F5F5F5F5F5F5F5F5F5F5F5F5F5F5F5F5F5F5F5F5F5F5F5F5F5F500000000000000000000000000000000000000000000000000000000000000000000000028000000000000000000000000000000000000000000
310
00000000000000000000000000000000000000000000000000000000000000000000000000000000000000000000000000000000000000000000000000000000000000000000000000000000000000000000000000000000000000000000000000000000000000002800000000000000000000000000000000000000000000
310
00000000000000000000F500000000000000000000000000000000000000000000000000002D2D2D2D2D2D2D0000000000000000000000000000000000000000000000000000F50000000000000000000000000000000000000000000000000000000000000000000000002800000000000000000000000000000000000000
310
00000000000000000000000000000000000000000000000000000000000000000000000000000000000000000000000000000000000000000000000000000000000000000000000000000000000000000000000000000000000000000000000000000000000000000000280000000000000000000000000000000000000000
310
000000000000000000000000F50000000000000000000000000000000000000000000000000000000000000000000000000000000000000000000000000000000000000000000000F5000000000000000000000000000000000000000000000000000000000000000000000000280000000000000000000000000000000000
310
00000000000000000000000000000000000000000000000000000000000000000000000000000000000000000000000000000000000000000000000000000000000000000000000000000000000000000000000000000000000000000000000000000000000000000000000028000000000000000000F5F5F5F5F5F5F5F5F5
310
F5F5F5F5F5F5F500000000000000F5F5F5F5F5F5F5F5F5F5F5F5F5F5F5F5F5F5F5F5F5F5F5F5F500000000000000000000F5F5F5F5F5F5F5F5F5F5F5F5F5F5F5F5F5F5F5F5F5F5F5F5F5F500000000000000000000F5F5F5F5F5F5F5F5F5F5F5F5F5F5F5000000000000000000000028000000000000000000000000000000
310
000000000000000000000000000000000000000000000000000000000000000000000000000000000000000000000000000000000000000000000000000000000000000000000000000000000000000000000000000000000000000000000000000000000000000000000000000028000000000000000000F5F50000002D2D
310
2D2D2D00000000F5F500000000000000F5F50000000000000000002D2D2D2D0000000000000000F5F500000000000000000000F5F50000000000000000002D2D2D2D000000000000000000F5F500000000000000000000F5F5000000002D2D2D2D000000F5F500000000000000000000002800000000000000000000000000
310
0000000000000000000000000000000000000000000000000000000000000000000000000000000000000000000000000000000000000000000000000000000000000000000000000000000000000000000000000000000000000000000000000000000000000000000000000000000028000000000000000000F500000000
310
002D2D2D2D0000000000F500000000000000F5000000000000000000002D2D2D2D000000000000000000F500000000000000000000F5000000000000000000002D2D2D2D00000000000000000000F500000000000000000000F500000000002D2D2D2D00000000F50000000000000000000000280000000000000000000000
310
00000000000000000000000000000000000000000000000000000000000000000000000000000000000000000000000000000000000000000000000000000000000000000000000000000000000000000000000000000000000000000000000000000000000000000000000000000000000028000000000000000000F50000
310
000000282828000000000000F500000000000000282800280000000000000000000000000000000000000000F500000000000000000000F5000000000000000000000000000000000000000000000000F500000000000000000000F500000000000000000000000000F5000000000000000000000028000000000000000000
310
000000000000000000000000000000000000000000000000000000000000000000000000000000000000000000000000000000000000000000000000000000000000000000000000000000000000000000000000000000000000000000000000000000000000000000000000000000000000000028000000000000000000F5
310
0000002828000000282800000000F500000000000000282828282828000000000000000000000000000000000000F500000000000000000000F5000000000000000000000000000000000000000000002828F500000000000000000000F500000000000028280000000000F500000000000000000000002800000000000000
310
00000000000000000000000000000000000000000000000000000000000000000000000000000000000000000000000000000000000000000000000000000000000000000000000000000000000000000000000000000000000000000000000000000000000000000000000000000000000000000000280000000000000000
310
00F50000280028282828282828280000F500000000000000282828280028280000000000000000000000000000000000F500000000000000000000F500000000000000000000000000000000002828F528F500F52800000000000000000000F500000028282828282828000000F50000000000000000000000280000000000
310
00000000000000000000000000000000000000000000000000000000000000000000000000000000000000000000000000000000000000000000000000000000000000000000000000000000000000000000000000000000000000000000000000000000000000000000000000000000000000000000000028000000000000
310
000000F500280028F5F5F5F5F50028002800F500000000000000282828280028F5F528282828282800000000000000000000F500000000000000000000F500000000000000000000000000000028280000F528F500F52800000000000000000000F500282828F5F5F5F5F5F5282800F5000000000000000000000028000000
310
00000000000000000000000000000000000000000000000000000000000000000000000000000000000000000000000000000000000000000000000000000000000000000000000000000000000000000000000000000000000000000000000000000000000000000000000000000000000000000000000000002800000000
310
0000000000F528002800F5F5F5F5F50000280028F500000000000000282828280028F5F5F5F50000000028282800000000000000F500000000000000000000F500000000000000000000000000002800000000F528F500F52800000000000000000000F500282800F5F5F5F5F5F5002828F500000000000000000000002800
310
00000000000000000000000000000000000000000000000000000000000000000000000000000000000000000000000000000000000000000000000000000000000000000000000000000000000000000000000000000000000000000000000000000000000000000000000000000000000000000000000000000000280000
310
00000000000000280028000000F5F5F5000000002828F500000000000000282828280028F5F5F5F5000000000000002828F5F50000282800000000000000000000F500000000000000282828282828280000000000F528F500F5F5F5F5F5F5F50000000000F5280028000000F5F5F500000028280000000000000000000000
310
28000000000000000000000000000000000000000000000000000000000000000000000000000000000000000000000000000000000000000000000000000000000000000000000000000000000000000000000000000000000000000000000000000000000000000000000000000000000000000000000000000000000028
310
0000000000000000002828000000F5F5F5F50000F5F52828F500000000000000282828280028F5F5F5F5F5F500000000000028F5F5F5F528280000000000F5F50000002828F5F5F5F5F5F5002800000000000000F5F5F5F528F500F52800000000F50000000000F5282800000000F5F5F50000F52828000000000000000000
310
00002800000000000000000000000000000000000000000000000000000000000000000000000000000000000000000000000000000000000000000000000000000000000000000000000000000000000000000000000000000000000000000000000000000000000000000000000000000000000000000000000000000000
310
002800000000000000000028280000F5F5F5F5F5F5F5F5F500282800000000000000282828280028F5F5F5F5F5F5F5000000000028F5F5F5F528282828282828F5282828282800F5F5F5F5F5F50028000000000000F5F5F5F5F528F500F5F5F5F5F5F5F500000000002800280000F500F5F500F5F5F5002800000000000000
310
00000000280000000000000000000000000000000000000000000000000000000000000000000000000000000000000000000000000000000000000000000000000000000000000000000000000000000000000000000000000000000000000000000000000000000000000000000000000000000000000000000000000000
310
0000002800000000000000000028280000F5F5F50000F5F5F5F500282800000000000000282828280028F5F5F5F5F5F5F5000000000028F5F5F5F5282800000000F5F5F50000002800F5F5F5F5F5F50028000000000000F5F5F5F5F528F500F528000000F5000000000000282800F5F5F500000000F5F5F500280000000000
310
00000000000028000000000000000000000000000000000000000000000000000000000000000000000000000000000000000000000000000000000000000000000000000000000000000000000000000000000000000000000000000000000000000000000000000000000000000000000000000000000000000000000000
310
00000000002800000000000000000028280000F5F5F50000F5F5F5F500282800000000000000282828280028F5F5F5F5F5F5F5000000000028F5F5F5F528280000000000F5F50000002800F5F5F5F5F5F50028000000000000F5F5F5F5F528F500F5F5F5F5F5F5000000000000280028F5F5F500000000F500F50028000000
310
00000000000000002800000000000000000000000000000000000000000000000000000000000000000000000000000000000000000000000000000000000000000000000000000000000000000000000000000000000000000000000000000000000000000000000000000000000000000000000000000000000000000000
310
000000000000002800000000000000000028280000F5F5F5F5F5F5F5F5F528280000000000000000282828280028F5F5F5F5F5F5F5000000000028F5F5F5F528282828282828F5282828282828F5F5F5F5F5F5002800000000000000F5F5F5F528F500F5F5F5F5F5F5000000000000002828000000F5F5F5000000F5282800
310
00000000000000000000280000000000000000000000000000000000000000000000000000000000000000000000000000000000000000000000000000000000000000000000000000000000000000000000000000000000000000000000000000000000000000000000000000000000000000000000000000000000000000
310
00000000000000000028000000000000000000282800000000F5F5F5F500000028280000000000000000282828280028F5F5F5F5000000000000000028F5F5F5F52828000000000000000000000000000000000000282828282800000000000000F528F500F5F5F5F5F5F5000000000000002800280000F5F5F50000000028
310
28000000000000000000000028000000000000000000000000000000000000000000000000000000000000000000000000000000000000000000000000000000000000000000000000000000000000000000000000000000000000000000000000000000000000000000000000000000000000000000000000000000000000
310
0000000000000000000000280000000000000000000028280000F5F5F5F5F5F5000028280000000000000000282828280028F5F5F5F5000000000000002800000000000000000000000000000000000000000000000000000000000028280000000000F528F500F528000000000000000000000000282800F5F5F5F5F5F500
310
28280000000000000000000000002800000000000000000000000000000000000000000000000000000000000000000000000000000000000000000000000000000000000000000000000000000000000000000000000000000000000000000000000000000000000000000000000000000000000000000000000000000000
310
00000000000000000000000000280000000000000000000028002800F5F5F5F5F500002828000000000000000000282828280028F5F52828000000000028280000000000000000000000000000000000000000000000000000000000000000002828000000F528F500F528000000000000000000000000280028F5F5F5F5F5
310
F5282800000000000000000000000000280000000000000000000000000000000000000000000000000000000000000000000000000000000000000000000000000000000000000000000000000000000000000000000000000000000000000000000000000000000000000000000000000000000000000000000000000000
310
000000000000000000000000000000280000000000000000000000280028282828282828282828000000000000000000282828280028F5000000282828282800000000000000000000000000000000000000000000000000000000000000000000000000282828F528F500F528000000000000000000000000002828282828
310
28282828000000000000000000000000000028000000000000000000000000000000000000000000000000000000000000000000000000000000000000000000000000000000000000000000000000000000000000000000000000000000000000000000000000000000000000000000000000000000000000000000000000
310
0000000000000000000000000000000000280000000000000000000000002828280000002828280000000000000000000000282828280028000000000000000000000000000000000000000000000000000000000000000000000000000000000000000000000000000028F528F52800000000000000000000000000000028
310
28282828280000000000000000000000000000002800000000000000000000000000000000000000000000000000000000000000000000000000000000000000000000000000000000000000000000000000000000000000000000000000000000000000000000000000000000000000000000000000000000000000000000
310
00000000000000000000000000000000000000280000000000000000000000000000002828280000000000000000000000000000282828282800000000000000000000000000000000000000000000000000000000000000000000000000000000000000000000000000000000000000000000000000000000000000000000
310
00000000000000000000000000000000000000000000280000000000000000000000000000000000000000000000000000000000000000000000000000000000000000000000000000000000000000000000000000000000000000000000000000000000000000000000000000000000000000000000000000000000000000
310
00000000000000000000000000000000000000000028000000000000000000000000000000000000000000000000000000000000000000000000000000000000000000000000000000000000000000000000000000000000000000000000000000000000000000000000000000000000000000000000000000000000000000
310
00000000000000000000000000000000000000000000000028000000000000000000000000000000000000000000000000000000000000000000000000000000000000000000000000000000000000000000000000000000000000000000000000000000000000000000000000000000000000000000000000000000000000
310
00000000000000000000000000000000000000000000002800000000000000000000000000000000000000000000000000000000000000000000000000000000000000000000000000000000000000000000000000000000000000000000000000000000000000000000000000000000000000000000000000000000000000
310
00000000000000000000000000000000000000000000000000002800000000000000000000000000000000000000000000000000000000000000000000000000000000000000000000000000000000000000000000000000000000000000000000000000000000000000000000000000000000000000000000000000000000
310
00000000000000000000000000000000000000000000000000280000000000000000000000000000000000000000000000000000000000000000000000000000000000000000000000000000000000000000000000000000000000000000000000000000000000000000000000000000000000000000000000000000000000
310
00000000000000000000000000000000000000000000000000000000280000000000000000000000000000000000000000000000000000000000000000000000000000000000000000000000000000000000000000000000000000000000000000000000000000000000000000000000000000000000000000000000000000
310
00000000000000000000000000000000000000000000000000000028000000000000000000000000000000000000000000000000000000000000000000000000000000000000000000000000000000000000000000000000000000000000000000000000000000000000000000000000000000000000000000000000000000
310
00000000000000000000000000000000000000000000000000000000000028000000000000000000000000000000000000000000000000000000000000000000000000000000000000000000000000000000000000000000000000000000000000000000000000000000000000000000000000000000000000000000000000
310
00000000000000000000000000000000000000000000000000000000002800000000000000000000000000000000000000000000000000000000000000000000000000000000000000000000000000000000000000000000000000000000000000000000000000000000000000000000000000000000000000000000000000
310
00000000000000000000000000000000000000000000000000000000000000002800000000000000000000000000000000000000000000000000000000000000000000000000000000000000000000000000000000000000000000000000000000000000000000000000000000000000000000000000000000000000000000
310
00000000000000000000000000000000000000000000000000000000000000280000000000000000000000000000000000000000000000000000000000000000000000000000000000000000000000000000000000000000000000000000000000000000000000000000000000000000000000000000000000000000000000
310
00000000000000000000000000000000000000000000000000000000000000000000280000000000000000000000000000000000000000000000000000000000000000000000000000000000000000000000000000000000000000000000000000000000000000000000000000000000000000000000000000000000000000
310
00000000000000000000000000000000000000000000000000000000000000000028000000000000000000000000000000000000000000000000000000000000000000000000000000000000000000000000000000000000000000000000000000000000000000000000000000000000000000000000000000000000000000
310
00000000000000000000000000000000000000000000000000000000000000000000000028000000000000000000000000000000000000000000000000000000000000000000000000000000000000000000000000000000000000000000000000000000000000000000000000000000000000000000000000000000000000
310
00000000000000000000000000000000000000000000000000000000000000000000002800000000000000000000000000000000000000000000000000000000000000000000000000000000000000000000000000000000000000000000000000000000000000000000000000000000000000000000000000000000000000
310
00000000000000000000000000000000000000000000000000000000000000000000000000002800000000000000000000000000000000000000000000000000000000000000000000000000000000000000000000000000000000000000000000000000000000000000000000000000000000000000000000000000000000
310
00000000000000000000000000000000000000000000000000000000000000000000000000280000000000000000000000000000000000000000000000000000000000000000000000000000000000000000000000000000000000000000000000000000000000000000000000000000000000000000000000000000000000
310
00000000000000000000000000000000000000000000000000000000000000000000000000000000280000000000000000000000000000000000000000000000000000000000000000000000000000000000000000000000000000000000000000000000000000000000000000000000000000000000000000000000000000
310
00000000000000000000000000000000000000000000000000000000000000000000000000000028000000000000000000000000000000000000000000000000000000000000000000000000000000000000000000000000000000000000000000000000000000000000000000000000000000000000000000000000000000
310
00000000000000000000000000000000000000000000000000000000000000000000000000000000000028000000000000000000000000000000000000000000000000000000000000000000000000000000000000000000000000000000000000000000000000000000000000000000000000000000000000000000000000
310
00000000000000000000000000000000000000000000000000000000000000000000000000000000002800000000000000000000000000000000000000000000000000000000000000000000000000000000000000000000000000000000000000000000000000000000000000000000000000000000000000000000000000
310
00000000000000000000000000000000000000000000000000000000000000000000000000000000000000002800000000000000000000000000000000000000000000000000000000000000000000000000000000000000000000000000000000000000000000000000000000000000000000000000000000000000000000
310
00000000000000000000000000000000000000000000000000000000000000000000000000000000000000280000000000000000000000000000000000000000000000000000000000000000000000000000000000000000000000000000000000000000000000000000000000000000000000000000000000000000000000
310
00000000000000000000000000000000000000000000000000000000000000000000000000000000000000000000280000000000000000000000000000000000000000000000000000000000000000000000000000000000000000000000000000000000000000000000000000000000000000000000000000000000000000
310
00000000000000000000000000000000000000000000000000000000000000000000000000000000000000000028000000000000000000000000000000000000000000000000000000000000000000000000000000000000000000000000000000000000000000000000000000000000000000000000000000000000000000
310
00000000000000000000000000000000000000000000000000000000000000000000000000000000000000000000000028000000000000000000000000000000000000000000000000000000000000000000000000000000000000000000000000000000000000000000000000000000000000000000000000000000000000
310
00000000000000000000000000000000000000000000000000000000000000000000000000000000000000000000002800000000000000000000000000000000000000000000000000000000000000000000000000000000000000000000000000000000000000000000000000000000000000000000000000000000000000
310
00000000000000000000000000000000000000000000000000000000000000000000000000000000000000000000000000002800000000000000000000000000000000000000000000000000000000000000000000000000000000000000000000000000000000000000000000000000000000000000000000000000000000
310
00000000000000000000000000000000000000000000000000000000000000000000000000000000000000000000000000280000000000000000000000000000000000000000000000000000000000000000000000000000000000000000000000000000000000000000000000000000000000000000000000000000000000
310
00000000000000000000002828282828F52828282828282828F528282828282828282828282828282828282828F5282828282828280000000000000000000000000000000000000000000000000000000000000000000000000000000000000000000000000000000000000000000000000000000000000000000000000000
310
00000000000000000000000000000000000000000000000000000000000000000000000000000000000000000000000000000028000000000000000000000000000000000000000000000000000000000000000000000000000000000000000000000000000000000000000000000000000000000000000000000000000000
310
00000000000000000000000000280028F500F50000000000000000F500000000000000000000000000000000000000F500000000000028000000000000000000000000000000000000000000000000000000000000000000000000000000000000000000000000000000000000000000000000000000000000000000000000
310
00000000000000000000000000000000000000000000000000000000000000000000000000000000000000000000000000000000002800000000000000000000000000000000000000000000000000000000000000000000000000000000000000000000000000000000000000000000000000000000000000000000000000
310
00000000000000000000000000000028F5F5F5F5F5F5F5F5F5F5F5F5F5F5F5F5F5F5F5F5F5F5F5F5F5F5F5F5F5F5F5F5F5F5F5F5F5F5F5F5F500000000000000000000000000000000000000000000000000000000000000000000000000000000000000000000000000000000000000000000000000000000000000000000
310
00000000000000000000000000000000000000000000000000000000000000000000000000000000000000000000000000000000000000280000000000000000000000000000000000000000000000000000000000000000000000000000000000000000000000000000000000000000000000000000000000000000000000
310
0000000000000000000000000000000000280000F5F5F50000000000000000F500000000000000000000000000000000000000F5000000000000280000000000000000000000000000000000000000000000000000000000000000000000000000000000000000000000000000000000000000000000000000000000000000
310
00000000000000000000000000000000000000000000000000000000000000000000000000000000000000000000000000000000000000000028000000000000000000000000000000000000000000000000000000000000000000000000000000000000000000000000000000000000000000000000000000000000000000
310
000000000000000000000000000000000000002828282828F52828282828282828F528282828282828282828282828282828282828F528282828282828000000000000000000000000000000000000000000000000000000000000000000000000000000000000000000000000000000000000000000000000000000000000
310
00000000000000000000000000000000000000000000000000000000000000000000000000000000000000000000000000000000000000000000002800000000000000000000000000000000000000000000000000000000000000000000000000000000000000000000000000000000000000000000000000000000000000
310
0000000000000000000000000000000000000000002828282828F52828002828000000F528282828282828282828282800000000000000F52828002828282800000000000000000000000000000000000000000000000000000000000000000000000000000000000000000000000000000000000000000000000000000000
310
00000000000000000000000000000000000000000000000000000000000000000000000000000000000000000000000000000000000000000000000000280000000000000000000000000000000000000000000000000000000000000000000000000000000000000000000000000000000000000000000000000000000000
310
00000000000000000000000000000000000000000000002828282828F52828000028280000F528282800002828282828282800000000000000F5282800002800280000000000000000000000000000000000000000000000000000000000000000000000000000000000000000000000000000000000000000000000000000
310
00000000000000000000000000000000000000000000000000000000000000000000000000000000000000000000000000000000000000000000000000000028000000000000000000000000000000000000000000000000000000000000000000000000000000000000000000000000000000000000000000000000000000
310
000000000000000000000000000000000000000000000000002828282828F52828282828282828F528282828282828282828282828282828282828F528282828282828000000000000000000000000000000000000000000000000000000000000000000000000000000000000000000000000000000000000000000000000
310
00000000000000000000000000000000000000000000000000000000000000000000000000000000000000000000000000000000000000000000000000000000002800000000000000000000000000000000000000000000000000000000000000000000000000000000000000000000000000000000000000000000000000
310
00000000000000000000000000000000000000000000000000000028000000000028280000000000000028280000000000000028280000000000000028280000000000002800000000000000000000000000000000000000000000000000000000000000000000000000000000000000000000000000000000000000000000
310
00000000000000000000000000000000000000000000000000000000000000000000000000000000000000000000000000000000000000000000000000000000000000282828282828282828282828282828282828282828282828282828282828282828282828282828282828282828282828282828282828282828282828
310
28282828282828282828282828282828282828282828282828282828282828282828282828282828282828282828282828282828282828282828282828282828282828282828280000000000000000000000000000000000000000000000000000000000000000000000000000000000000000000000000000000000000000
310
00000000000000000000000000000000000000000000000000000000000000000000000000000000000000000000000000000000000000000000000000000000000000000000000000000000000000000000000000000000000000000000000000000000000000000000000000000000000000000000000000000000000000
310
00000000000000000000000000000000000000000000000000000000000000000000000000000000000000000000000000000000000000000000000000000000000000000000000000000000000000000000000000000000000000000000000000000000000000000000000000000000000000000000000000000000000000
310
00000000000000000000000000000000000000000000000000000000000000000000000000000000000000000000000000000000000000000000000000000000000000000000000000000000000000000000000000000000000000000000000000000000000000000000000000000000000000000000000000000000000000
310
00000000000000000000000000000000000000000000000000000000000000000000000000000000000000000000000000000000000000000000000000000000000000000000000000000000000000000000000000000000000000000000000000000000000000000000000000000000000000000000000000000000000000
310
00000000000000000000000000000000000000000000000000000000000000000000000000000000000000000000000000000000000000000000000000000000000000000000000000000000000000000000000000000000000000000000000000000000000000000000000000000000000000000000000000000000000000
310
00000000000000000000000000000000000000000000000000000000000000000000000000000000000000000000000000000000000000000000000000000000000000000000000000000000000000000000000000000000000000000000000000000000000000000000000000000000000000000000000000000000000000
310
00000000000000000000000000000000000000000000000000000000000000000000000000000000000000000000000000000000000000000000000000000000000000000000000000000000000000000000000000000000000000000000000000000000000000000000000000000000000000000000000000000000000000
310
00000000000000000000000000280000000000000000000000000000000000000000000000000000000000000000000000000000000000000000000000000000000000000000000000000000000000000000000000000000000000000000000000000000000000000000000000000000000000000000000000000000000000
310
00000000000000000000000000000000000000000000000000000000000000000000000000000000000000000000000000000000000000000000000000000000000000000000000000000000000000000000000000000000000000000000000000000000000000000000000000000000000000000000000000000000000000
310
00000000000000000000000000000028000000000000000000000000000000000000000000000000000000000000000000000000000000000000000000000000000000000000000000000000000000000000000000000000000000000000000000000000000000000000000000000000000000000000000000000000000000
310
00000000000000000000000000000000000000000000000000000000000000000000000000000000000000000000000000000000000000000000000000000000000000000000000000000000000000000000000000000000000000000000000000000000000000000000000000000000000000000000000000000000000000
310
00000000000000000000000000000000000000000000000000000000000000000000000000000000000000000000000000000000000000000000000000000000000000000000000000000000000000000000000000000000000000000000000000000000000000000000000000000000000000000000000000000000000000
310
00000000000000000000000000000000000000000000000000000000000000000000000000000000000000000000000000000000000000000000000000000000000000000000000000000000000000000000000000000000000000000000000000000000000000000000000000000000000000000000000000000000000000
310
00000000000000000000000000000000000000000000000000000000000000000000000000000000000000000000000000000000000000000000000000000000000000000000000000000000000000000000000000000000000000000000000000000000000000000000000000000000000000000000000000000000000000
310
00000000000000000000000000000000000000000000000000000000000000000000000000000000000000000000000000000000000000000000000000000000000000000000000000000000000000000000000000000000000000000000000000000000000000000000000000000000000000000000000000000000000000
310
00000000000000000000000000000000000000000000000000000000000000000000000000000000000000000000000000000000000000000000000000000000000000000000000000000000000000000000000000000000000000000000000000000000000000000000000000000000000000000000000000000000000000
310
00000000000000000000000000000000000000000000000000000000000000000000000000000000000000000000000000000000000000000000000000000000000000000000000000000000000000000000000000000000000000000000000000000000000000000000000000000000000000000000000000000000000000
310
00000000000000000000000000000000000000000000000000000000000000000000000000000000000000000000000000000000000000000000000000000000000000000000000000000000000000000000000000000000000000000000000000000000000000000000000000000000000000000000000000000000000000
310
00000000000000000000000000000000000000000000000000000000000000000000000000000000000000000000000000000000000000000000000000000000000000000000000000000000000000000000000000000000000000000000000000000000000000000000000000000000000000000000000000000000000000
310
00000000000000000000000000000000000000000000000000000000000000000000000000000000000000000000000000000000000000000000000000000000000000000000000000000000000000000000000000000000000000000000000000000000000000000000000000000000000000000000000000000000000000
310
00000000000000000000000000000000000000000000000000000000000000000000000000000000000000000000000000000000000000000000000000000000000000000000000000000000000000000000000000000000000000000000000000000000000000000000000000000000000000000000000000000000000000
310
00000000000000000000000000000000000000000000000000000000000000000000000000000000000000000000000000000000000000000000000000000000000000000000000000000000000000000000000000000000000000000000000000000000000000000000000000000000000000000000000000000000000000
310
00000000000000000000000000000000000000000000000000000000000000000000000000000000000000000000000000000000000000000000000000000000000000000000000000000000000000000000000000000000000000000000000000000000000000000000000000000000000000000000000000000000000000
310
00000000000000000000000000000000000000000000000000000000000000000000000000000000000000000000000000000000000000000000000000000000000000000000000000000000000000000000000000000000000000000000000000000000000000000000000000000000000000000000000000000000000000
310
00000000000000000000000000000000000000000000000000000000000000000000000000000000000000000000000000000000000000000000000000000000000000000000000000000000000000000000000000000000000000000000000000000000000000000000000000000000000000000000000000000000000000
310
00000000000000000000000000000000000000000000000000000000000000000000000000000000000000000000000000000000000000000000000000000000000000000000000000000000000000000000000000000000000000000000000000000000000000000000000000000000000000000000000000000000000000
310
00000000000000000000000000000000000000000000000000000000000000000000000000000000000000000000000000000000000000000000000000000000000000000000000000000000000000000000000000000000000000000000000000000000000000000000000000000000000000000000000000000000000000
310
00000000000000000000000000000000000000000000000000000000000000000000000000000000000000000000000000000000000000000000000000000000000000000000000000000000000000000000000000000000000000000000000000000000000000000000000000000000000000000000000000000000000000
310
00000000000000000000000000000000000000000000000000000000000000000000000000000000000000000000000000000000000000000000000000000000000000000000000000000000000000000000000000000000000000000000000000000000000000000000000000000000000000000000000000000000000000
310
00000000000000000000000000000000000000000000000000000000000000000000000000000000000000000000000000000000000000000000000000000000000000000000000000000000000000000000000000000000000000000000000000000000000000000000000000000000000000000000000000000000000000
310
00000000000000000000000000000000000000000000000000000000000000000000000000000000000000000000000000000000000000000000000000000000000000000000000000000000000000000000000000000000000000000000000000000000000000000000000000000000000000000000000000000000000000
310
00000000000000000000000000000000000000000000000000000000000000000000000000000000000000000000000000000000000000000000000000000000000000000000000000000000000000000000000000000000000000000000000000000000000000000000000000000000000000000000000000000000000000
310
00000000000000000000000000000000000000000000000000000000000000000000000000000000000000000000000000000000000000000000000000000000000000000000000000000000000000000000000000000000000000000000000000000000000000000000000000000000000000000000000000000000000000
310
00000000000000000000000000000000000000000000000000000000000000000000000000000000000000000000000000000000000000000000000000000000000000000000000000000000000000000000000000000000000000000000000000000000000000000000000000000000000000000000000000000000000000
310
00000000000000000000000000000000000000000000000000000000000000000000000000000000000000000000000000000000000000000000000000000000000000000000000000000000000000000000000000000000000000000000000000000000000000000000000000000000000000000000000000000000000000
310
00000000000000000000000000000000000000000000000000000000000000000000000000000000000000000000000000000000000000000000000000000000000000000000000000000000000000000000000000000000000000000000000000000000000000000000000000000000000000000000000000000000000000
310
00000000000000000000000000000000000000000000000000000000000000000000000000000000000000000000000000000000000000000000000000000000000000000000000000000000000000000000000000000000000000000000000000000000000000000000000000000000000000000000000000000000000000
310
00000000000000000000000000000000000000000000000000000000000000000000000000000000000000000000000000000000000000000000000000000000000000000000000000000000000000000000000000000000000000000000000000000000000000000000000000000000000000000000000000000000000000
310
00000000000000000000000000000000000000000000000000000000000000000000000000000000000000000000000000000000000000000000000000000000000000000000000000000000000000000000000000000000000000000000000000000000000000000000000000000000000000000000000000000000000000
310
00000000000000000000000000000000000000000000000000000000000000000000000000000000000000000000000000000000000000000000000000000000000000000000000000000000000000000000000000000000000000000000000000000000000000000000000000000000000000000000000000000000000000
310
00000000000000000000000000000000000000000000000000000000000000000000000000000000000000000000000000000000000000000000000000000000000000000000000000000000000000000000000000000000000000000000000000000000000000000000000000000000000000000000000000000000000000
310
00000000000000000000000000000000000000000000000000000000000000000000000000000000000000000000000000000000000000000000000000000000000000000000000000000000000000000000000000000000000000000000000000000000000000000000000000000000000000000000000000000000000000
310
00000000000000000000000000000000000000000000000000000000000000000000000000000000000000000000000000000000000000000000000000000000000000000000000000000000000000000000000000000000000000000000000000000000000000000000000000000000000000000000000000000000000000
310
00000000000000000000000000000000000000000000000000000000000000000000000000000000000000000000000000000000000000000000000000000000000000000000000000000000000000000000000000000000000000000000000000000000000000000000000000000000000000000000000000000000000000
310
00000000000000000000000000000000000000000000000000000000000000000000000000000000000000000000000000000000000000000000000000000000000000000000000000000000000000000000000000000000000000000000000000000000000000000000000000000000000000000000000000000000000000
310
00000000000000000000000000000000000000000000000000000000000000000000000000000000000000000000000000000000000000000000000000000000000000000000000000000000000000000000000000000000000000000000000000000000000000000000000000000000000000000000000000000000000000
310
00000000000000000000000000000000000000000000000000000000000000000000000000000000000000000000000000000000000000000000000000000000000000000000000000000000000000000000000000000000000000000000000000000000000000000000000000000000000000000000000000000000000000
310
00000000000000000000000000000000000000000000000000000000000000000000000000000000000000000000000000000000000000000000000000000000000000000000000000000000000000000000000000000000000000000000000000000000000000000000000000000000000000000000000000000000000000
310
00000000000000000000000000000000000000000000000000000000000000000000000000000000000000000000000000000000000000000000000000000000000000000000000000000000000000000000000000000000000000000000000000000000000000000000000000000000000000000000000000000000000000
310
00000000000000000000000000000000000000000000000000000000000000000000000000000000000000000000000000000000000000000000000000000000000000000000000000000000000000000000000000000000000000000000000000000000000000000000000000000000000000000000000000000000000000
310
00000000000000000000000000000000000000000000000000000000000000000000000000000000000000000000000000000000000000000000000000000000000000000000000000000000000000000000000000000000000000000000000000000000000000000000000000000000000000000000000000000000000000
310
00000000000000000000000000000000000000000000000000000000000000000000000000000000000000000000000000000000000000000000000000000000000000000000000000000000000000000000000000000000000000000000000000000000000000000000000000000000000000000000000000000000000000
310
00000000000000000000000000000000000000000000000000000000000000000000000000000000000000000000000000000000000000000000000000000000000000000000000000000000000000000000000000000000000000000000000000000000000000000000000000000000000000000000000000000000000000
310
00000000000000000000000000000000000000000000000000000000000000000000000000000000000000000000000000000000000000000000000000000000000000000000000000000000000000000000000000000000000000000000000000000000000000000000000000000000000000000000000000000000000000
310
00000000000000000000000000000000000000000000000000000000000000000000000000000000000000000000000000000000000000000000000000000000000000000000000000000000000000000000000000000000000000000000000000000000000000000000000000000000000000000000000000000000000000
310
00000000000000000000000000000000000000000000000000000000000000000000000000000000000000000000000000000000000000000000000000000000000000000000000000000000000000000000000000000000000000000000000000000000000000000000000000000000000000000000000000000000000000
310
00000000000000000000000000000000000000000000000000000000000000000000000000000000000000000000000000000000000000000000000000000000000000000000000000000000000000000000000000000000000000000000000000000000000000000000000000000000000000000000000000000000000000
310
00000000000000000000000000000000000000000000000000000000000000000000000000000000000000000000000000000000000000000000000000000000000000000000000000000000000000000000000000000000000000000000000000000000000000000000000000000000000000000000000000000000000000
310
000000000000000000000000000000000000000000000000000000000000000000000000000000000000000000000000000000000000000000000000000000000000000000000000000000000000000000000000
  0
XRECORD
  5
397
102
{ACAD_REACTORS
330
396
102
}
330
396
100
AcDbXrecord
280
     1
102
MATERIAL
148
0.0
149
0.0
149
0.0
 93
        0
 94
      127
282
     0
 72
     1
 77
     1
171
     1
175
     1
179
     1
273
     0
  0
XRECORD
  5
395
102
{ACAD_REACTORS
330
394
102
}
330
394
100
AcDbXrecord
280
     1
102
MATERIAL
148
0.0
149
0.0
149
0.0
 93
        0
 94
      127
282
     0
 72
     1
 77
     1
171
     1
175
     1
179
     1
273
     0
  0
XRECORD
  5
399
102
{ACAD_REACTORS
330
398
102
}
330
398
100
AcDbXrecord
280
     1
102
MATERIAL
148
0.0
149
0.0
149
0.0
 93
        0
 94
      127
282
     0
 72
     1
 77
     1
171
     1
175
     1
179
     1
273
     0
  0
CELLSTYLEMAP
  5
8A3
102
{ACAD_REACTORS
330
8A2
102
}
330
8A2
100
AcDbCellStyleMap
 90
        3
300
CELLSTYLE
  1
TABLEFORMAT_BEGIN
 90
        5
170
     1
 91
        0
 92
    32768
 62
   257
 93
        1
300
CONTENTFORMAT
  1
CONTENTFORMAT_BEGIN
 90
        0
 91
        0
 92
      512
 93
        0
300

 40
0.0
140
1.0
 94
        5
 62
     0
340
26
144
0.25
309
CONTENTFORMAT_END
171
     0
 94
        6
 95
        1
302
GRIDFORMAT
  1
GRIDFORMAT_BEGIN
 90
        0
 91
        1
 62
     0
 92
       -2
340
0
 93
        0
 40
0.045
309
GRIDFORMAT_END
 95
        2
302
GRIDFORMAT
  1
GRIDFORMAT_BEGIN
 90
        0
 91
        1
 62
     0
 92
       -2
340
0
 93
        0
 40
0.045
309
GRIDFORMAT_END
 95
        4
302
GRIDFORMAT
  1
GRIDFORMAT_BEGIN
 90
        0
 91
        1
 62
     0
 92
       -2
340
0
 93
        0
 40
0.045
309
GRIDFORMAT_END
 95
        8
302
GRIDFORMAT
  1
GRIDFORMAT_BEGIN
 90
        0
 91
        1
 62
     0
 92
       -2
340
0
 93
        0
 40
0.045
309
GRIDFORMAT_END
 95
       16
302
GRIDFORMAT
  1
GRIDFORMAT_BEGIN
 90
        0
 91
        1
 62
     0
 92
       -2
340
0
 93
        0
 40
0.045
309
GRIDFORMAT_END
 95
       32
302
GRIDFORMAT
  1
GRIDFORMAT_BEGIN
 90
        0
 91
        1
 62
     0
 92
       -2
340
0
 93
        0
 40
0.045
309
GRIDFORMAT_END
309
TABLEFORMAT_END
  1
CELLSTYLE_BEGIN
 90
        1
 91
        1
300
_TITLE
309
CELLSTYLE_END
300
CELLSTYLE
  1
TABLEFORMAT_BEGIN
 90
        5
170
     1
 91
        0
 92
        0
 62
   257
 93
        1
300
CONTENTFORMAT
  1
CONTENTFORMAT_BEGIN
 90
        0
 91
        0
 92
      512
 93
        0
300

 40
0.0
140
1.0
 94
        5
 62
     0
340
26
144
0.18
309
CONTENTFORMAT_END
171
     0
 94
        6
 95
        1
302
GRIDFORMAT
  1
GRIDFORMAT_BEGIN
 90
        0
 91
        1
 62
     0
 92
       -2
340
0
 93
        0
 40
0.045
309
GRIDFORMAT_END
 95
        2
302
GRIDFORMAT
  1
GRIDFORMAT_BEGIN
 90
        0
 91
        1
 62
     0
 92
       -2
340
0
 93
        0
 40
0.045
309
GRIDFORMAT_END
 95
        4
302
GRIDFORMAT
  1
GRIDFORMAT_BEGIN
 90
        0
 91
        1
 62
     0
 92
       -2
340
0
 93
        0
 40
0.045
309
GRIDFORMAT_END
 95
        8
302
GRIDFORMAT
  1
GRIDFORMAT_BEGIN
 90
        0
 91
        1
 62
     0
 92
       -2
340
0
 93
        0
 40
0.045
309
GRIDFORMAT_END
 95
       16
302
GRIDFORMAT
  1
GRIDFORMAT_BEGIN
 90
        0
 91
        1
 62
     0
 92
       -2
340
0
 93
        0
 40
0.045
309
GRIDFORMAT_END
 95
       32
302
GRIDFORMAT
  1
GRIDFORMAT_BEGIN
 90
        0
 91
        1
 62
     0
 92
       -2
340
0
 93
        0
 40
0.045
309
GRIDFORMAT_END
309
TABLEFORMAT_END
  1
CELLSTYLE_BEGIN
 90
        2
 91
        1
300
_HEADER
309
CELLSTYLE_END
300
CELLSTYLE
  1
TABLEFORMAT_BEGIN
 90
        5
170
     1
 91
        0
 92
        0
 62
   257
 93
        1
300
CONTENTFORMAT
  1
CONTENTFORMAT_BEGIN
 90
        0
 91
        0
 92
      512
 93
        0
300

 40
0.0
140
1.0
 94
        2
 62
     0
340
26
144
0.18
309
CONTENTFORMAT_END
171
     0
 94
        6
 95
        1
302
GRIDFORMAT
  1
GRIDFORMAT_BEGIN
 90
        0
 91
        1
 62
     0
 92
       -2
340
0
 93
        0
 40
0.045
309
GRIDFORMAT_END
 95
        2
302
GRIDFORMAT
  1
GRIDFORMAT_BEGIN
 90
        0
 91
        1
 62
     0
 92
       -2
340
0
 93
        0
 40
0.045
309
GRIDFORMAT_END
 95
        4
302
GRIDFORMAT
  1
GRIDFORMAT_BEGIN
 90
        0
 91
        1
 62
     0
 92
       -2
340
0
 93
        0
 40
0.045
309
GRIDFORMAT_END
 95
        8
302
GRIDFORMAT
  1
GRIDFORMAT_BEGIN
 90
        0
 91
        1
 62
     0
 92
       -2
340
0
 93
        0
 40
0.045
309
GRIDFORMAT_END
 95
       16
302
GRIDFORMAT
  1
GRIDFORMAT_BEGIN
 90
        0
 91
        1
 62
     0
 92
       -2
340
0
 93
        0
 40
0.045
309
GRIDFORMAT_END
 95
       32
302
GRIDFORMAT
  1
GRIDFORMAT_BEGIN
 90
        0
 91
        1
 62
     0
 92
       -2
340
0
 93
        0
 40
0.045
309
GRIDFORMAT_END
309
TABLEFORMAT_END
  1
CELLSTYLE_BEGIN
 90
        3
 91
        2
300
_DATA
309
CELLSTYLE_END
  0
XRECORD
  5
8CA
102
{ACAD_REACTORS
330
8A2
102
}
330
8A2
100
AcDbXrecord
280
     1
102
ACAD_ROUNDTRIP_PRE2007_TABLESTYLE
 90
      512
 91
        0
  1

 92
      512
 93
        0
  2

 94
      512
 95
        0
  3

  0
XRECORD
  5
8B5
102
{ACAD_REACTORS
330
8B4
102
}
330
8B4
100
AcDbXrecord
280
     1
102
RTVSPropertyOp0
 70
     1
102
RTVSPropertyOp1
 70
     1
102
RTVSPropertyOp2
 70
     1
102
RTVSPropertyOp3
 70
     1
102
RTVSPropertyOp4
 70
     1
102
RTVSPropertyOp5
 70
     1
102
RTVSPropertyOp6
 70
     1
102
RTVSPropertyOp7
 70
     1
102
RTVSPropertyOp8
 70
     1
102
RTVSPropertyOp9
 70
     1
102
RTVSPropertyOp10
 70
     1
102
RTVSPropertyOp11
 70
     1
102
RTVSPropertyOp12
 70
     1
102
RTVSPropertyOp13
 70
     1
102
RTVSPropertyOp14
 70
     1
102
RTVSPropertyOp15
 70
     1
102
RTVSPropertyOp16
 70
     1
102
RTVSPropertyOp17
 70
     1
102
RTVSPropertyOp18
 70
     1
102
RTVSPropertyOp19
 70
     1
102
RTVSPropertyOp20
 70
     1
102
RTVSPropertyOp21
 70
     1
102
RTVSPropertyOp22
 70
     1
102
RTVSPropertyOp23
 70
     1
102
RTVSPropertyOp24
 70
     1
102
RTVSPropertyOp25
 70
     1
102
RTVSPropertyOp26
 70
     1
102
RTVSPropertyOp27
 70
     1
102
RTVSPropertyOp28
 70
     1
102
RTVSPropertyOp29
 70
     1
102
RTVSPropertyOp30
 70
     1
102
RTVSPropertyOp31
 70
     1
102
RTVSPropertyOp32
 70
     1
  0
XRECORD
  5
8B9
102
{ACAD_REACTORS
330
8B8
102
}
330
8B8
100
AcDbXrecord
280
     1
102
RTVSPropertyOp0
 70
     1
102
RTVSPropertyOp1
 70
     1
102
RTVSPropertyOp2
 70
     1
102
RTVSPropertyOp3
 70
     1
102
RTVSPropertyOp4
 70
     1
102
RTVSPropertyOp5
 70
     1
102
RTVSPropertyOp6
 70
     1
102
RTVSPropertyOp7
 70
     1
102
RTVSPropertyOp8
 70
     1
102
RTVSPropertyOp9
 70
     1
102
RTVSPropertyOp10
 70
     1
102
RTVSPropertyOp11
 70
     1
102
RTVSPropertyOp12
 70
     1
102
RTVSPropertyOp13
 70
     1
102
RTVSPropertyOp14
 70
     1
102
RTVSPropertyOp15
 70
     1
102
RTVSPropertyOp16
 70
     1
102
RTVSPropertyOp17
 70
     1
102
RTVSPropertyOp18
 70
     1
102
RTVSPropertyOp19
 70
     1
102
RTVSPropertyOp20
 70
     1
102
RTVSPropertyOp21
 70
     1
102
RTVSPropertyOp22
 70
     1
102
RTVSPropertyOp23
 70
     1
102
RTVSPropertyOp24
 70
     1
102
RTVSPropertyOp25
 70
     1
102
RTVSPropertyOp26
 70
     1
102
RTVSPropertyOp27
 70
     1
102
RTVSPropertyOp28
 70
     1
102
RTVSPropertyOp29
 70
     1
102
RTVSPropertyOp30
 70
     1
102
RTVSPropertyOp31
 70
     1
102
RTVSPropertyOp32
 70
     1
  0
XRECORD
  5
8B7
102
{ACAD_REACTORS
330
8B6
102
}
330
8B6
100
AcDbXrecord
280
     1
102
RTVSPropertyOp0
 70
     1
102
RTVSPropertyOp1
 70
     1
102
RTVSPropertyOp2
 70
     1
102
RTVSPropertyOp3
 70
     1
102
RTVSPropertyOp4
 70
     1
102
RTVSPropertyOp5
 70
     1
102
RTVSPropertyOp6
 70
     1
102
RTVSPropertyOp7
 70
     1
102
RTVSPropertyOp8
 70
     1
102
RTVSPropertyOp9
 70
     1
102
RTVSPropertyOp10
 70
     1
102
RTVSPropertyOp11
 70
     1
102
RTVSPropertyOp12
 70
     1
102
RTVSPropertyOp13
 70
     1
102
RTVSPropertyOp14
 70
     1
102
RTVSPropertyOp15
 70
     1
102
RTVSPropertyOp16
 70
     1
102
RTVSPropertyOp17
 70
     1
102
RTVSPropertyOp18
 70
     1
102
RTVSPropertyOp19
 70
     1
102
RTVSPropertyOp20
 70
     1
102
RTVSPropertyOp21
 70
     1
102
RTVSPropertyOp22
 70
     1
102
RTVSPropertyOp23
 70
     1
102
RTVSPropertyOp24
 70
     1
102
RTVSPropertyOp25
 70
     1
102
RTVSPropertyOp26
 70
     1
102
RTVSPropertyOp27
 70
     1
102
RTVSPropertyOp28
 70
     1
102
RTVSPropertyOp29
 70
     1
102
RTVSPropertyOp30
 70
     1
102
RTVSPropertyOp31
 70
     1
102
RTVSPropertyOp32
 70
     1
  0
XRECORD
  5
8B3
102
{ACAD_REACTORS
330
8B2
102
}
330
8B2
100
AcDbXrecord
280
     1
102
RTVSPropertyOp0
 70
     1
102
RTVSPropertyOp1
 70
     1
102
RTVSPropertyOp2
 70
     1
102
RTVSPropertyOp3
 70
     1
102
RTVSPropertyOp4
 70
     1
102
RTVSPropertyOp5
 70
     1
102
RTVSPropertyOp6
 70
     1
102
RTVSPropertyOp7
 70
     1
102
RTVSPropertyOp8
 70
     1
102
RTVSPropertyOp9
 70
     1
102
RTVSPropertyOp10
 70
     1
102
RTVSPropertyOp11
 70
     1
102
RTVSPropertyOp12
 70
     1
102
RTVSPropertyOp13
 70
     1
102
RTVSPropertyOp14
 70
     1
102
RTVSPropertyOp15
 70
     1
102
RTVSPropertyOp16
 70
     1
102
RTVSPropertyOp17
 70
     1
102
RTVSPropertyOp18
 70
     1
102
RTVSPropertyOp19
 70
     1
102
RTVSPropertyOp20
 70
     1
102
RTVSPropertyOp21
 70
     1
102
RTVSPropertyOp22
 70
     1
102
RTVSPropertyOp23
 70
     1
102
RTVSPropertyOp24
 70
     1
102
RTVSPropertyOp25
 70
     1
102
RTVSPropertyOp26
 70
     1
102
RTVSPropertyOp27
 70
     1
102
RTVSPropertyOp28
 70
     1
102
RTVSPropertyOp29
 70
     1
102
RTVSPropertyOp30
 70
     1
102
RTVSPropertyOp31
 70
     1
102
RTVSPropertyOp32
 70
     1
  0
XRECORD
  5
8C1
102
{ACAD_REACTORS
330
8C0
102
}
330
8C0
100
AcDbXrecord
280
     1
102
RTVSPropertyOp0
 70
     1
102
RTVSPropertyOp1
 70
     1
102
RTVSPropertyOp2
 70
     1
102
RTVSPropertyOp3
 70
     1
102
RTVSPropertyOp4
 70
     1
102
RTVSPropertyOp5
 70
     1
102
RTVSPropertyOp6
 70
     1
102
RTVSPropertyOp7
 70
     1
102
RTVSPropertyOp8
 70
     1
102
RTVSPropertyOp9
 70
     1
102
RTVSPropertyOp10
 70
     1
102
RTVSPropertyOp11
 70
     1
102
RTVSPropertyOp12
 70
     1
102
RTVSPropertyOp13
 70
     1
102
RTVSPropertyOp14
 70
     1
102
RTVSPropertyOp15
 70
     1
102
RTVSPropertyOp16
 70
     1
102
RTVSPropertyOp17
 70
     1
102
RTVSPropertyOp18
 70
     1
102
RTVSPropertyOp19
 70
     1
102
RTVSPropertyOp20
 70
     1
102
RTVSPropertyOp21
 70
     1
102
RTVSPropertyOp22
 70
     1
102
RTVSPropertyOp23
 70
     1
102
RTVSPropertyOp24
 70
     1
102
RTVSPropertyOp25
 70
     1
102
RTVSPropertyOp26
 70
     1
102
RTVSPropertyOp27
 70
     1
102
RTVSPropertyOp28
 70
     1
102
RTVSPropertyOp29
 70
     1
102
RTVSPropertyOp30
 70
     1
102
RTVSPropertyOp31
 70
     1
102
RTVSPropertyOp32
 70
     1
  0
XRECORD
  5
8C9
102
{ACAD_REACTORS
330
8C8
102
}
330
8C8
100
AcDbXrecord
280
     1
102
RTVSPropertyOp0
 70
     1
102
RTVSPropertyOp1
 70
     1
102
RTVSPropertyOp2
 70
     1
102
RTVSPropertyOp3
 70
     1
102
RTVSPropertyOp4
 70
     1
102
RTVSPropertyOp5
 70
     1
102
RTVSPropertyOp6
 70
     1
102
RTVSPropertyOp7
 70
     1
102
RTVSPropertyOp8
 70
     1
102
RTVSPropertyOp9
 70
     1
102
RTVSPropertyOp10
 70
     1
102
RTVSPropertyOp11
 70
     1
102
RTVSPropertyOp12
 70
     1
102
RTVSPropertyOp13
 70
     1
102
RTVSPropertyOp14
 70
     1
102
RTVSPropertyOp15
 70
     1
102
RTVSPropertyOp16
 70
     1
102
RTVSPropertyOp17
 70
     1
102
RTVSPropertyOp18
 70
     1
102
RTVSPropertyOp19
 70
     1
102
RTVSPropertyOp20
 70
     1
102
RTVSPropertyOp21
 70
     1
102
RTVSPropertyOp22
 70
     1
102
RTVSPropertyOp23
 70
     1
102
RTVSPropertyOp24
 70
     1
102
RTVSPropertyOp25
 70
     1
102
RTVSPropertyOp26
 70
     1
102
RTVSPropertyOp27
 70
     1
102
RTVSPropertyOp28
 70
     1
102
RTVSPropertyOp29
 70
     1
102
RTVSPropertyOp30
 70
     1
102
RTVSPropertyOp31
 70
     1
102
RTVSPropertyOp32
 70
     1
  0
XRECORD
  5
8BB
102
{ACAD_REACTORS
330
8BA
102
}
330
8BA
100
AcDbXrecord
280
     1
102
RTVSPropertyOp0
 70
     1
102
RTVSPropertyOp1
 70
     1
102
RTVSPropertyOp2
 70
     1
102
RTVSPropertyOp3
 70
     1
102
RTVSPropertyOp4
 70
     1
102
RTVSPropertyOp5
 70
     1
102
RTVSPropertyOp6
 70
     1
102
RTVSPropertyOp7
 70
     1
102
RTVSPropertyOp8
 70
     1
102
RTVSPropertyOp9
 70
     1
102
RTVSPropertyOp10
 70
     1
102
RTVSPropertyOp11
 70
     1
102
RTVSPropertyOp12
 70
     1
102
RTVSPropertyOp13
 70
     1
102
RTVSPropertyOp14
 70
     1
102
RTVSPropertyOp15
 70
     1
102
RTVSPropertyOp16
 70
     1
102
RTVSPropertyOp17
 70
     1
102
RTVSPropertyOp18
 70
     1
102
RTVSPropertyOp19
 70
     1
102
RTVSPropertyOp20
 70
     1
102
RTVSPropertyOp21
 70
     1
102
RTVSPropertyOp22
 70
     1
102
RTVSPropertyOp23
 70
     1
102
RTVSPropertyOp24
 70
     1
102
RTVSPropertyOp25
 70
     1
102
RTVSPropertyOp26
 70
     1
102
RTVSPropertyOp27
 70
     1
102
RTVSPropertyOp28
 70
     1
102
RTVSPropertyOp29
 70
     1
102
RTVSPropertyOp30
 70
     1
102
RTVSPropertyOp31
 70
     1
102
RTVSPropertyOp32
 70
     1
  0
XRECORD
  5
8BF
102
{ACAD_REACTORS
330
8BE
102
}
330
8BE
100
AcDbXrecord
280
     1
102
RTVSPropertyOp0
 70
     1
102
RTVSPropertyOp1
 70
     1
102
RTVSPropertyOp2
 70
     1
102
RTVSPropertyOp3
 70
     1
102
RTVSPropertyOp4
 70
     1
102
RTVSPropertyOp5
 70
     1
102
RTVSPropertyOp6
 70
     1
102
RTVSPropertyOp7
 70
     1
102
RTVSPropertyOp8
 70
     1
102
RTVSPropertyOp9
 70
     1
102
RTVSPropertyOp10
 70
     1
102
RTVSPropertyOp11
 70
     1
102
RTVSPropertyOp12
 70
     1
102
RTVSPropertyOp13
 70
     1
102
RTVSPropertyOp14
 70
     1
102
RTVSPropertyOp15
 70
     1
102
RTVSPropertyOp16
 70
     1
102
RTVSPropertyOp17
 70
     1
102
RTVSPropertyOp18
 70
     1
102
RTVSPropertyOp19
 70
     1
102
RTVSPropertyOp20
 70
     1
102
RTVSPropertyOp21
 70
     1
102
RTVSPropertyOp22
 70
     1
102
RTVSPropertyOp23
 70
     1
102
RTVSPropertyOp24
 70
     1
102
RTVSPropertyOp25
 70
     1
102
RTVSPropertyOp26
 70
     1
102
RTVSPropertyOp27
 70
     1
102
RTVSPropertyOp28
 70
     1
102
RTVSPropertyOp29
 70
     1
102
RTVSPropertyOp30
 70
     1
102
RTVSPropertyOp31
 70
     1
102
RTVSPropertyOp32
 70
     1
  0
XRECORD
  5
8DE
102
{ACAD_REACTORS
330
8DD
102
}
330
8DD
100
AcDbXrecord
280
     1
102
RTVSPropertyOp0
 70
     0
102
RTVSPropertyOp1
 70
     0
102
RTVSPropertyOp2
 70
     0
102
RTVSPropertyOp3
 70
     0
102
RTVSPropertyOp4
 70
     0
102
RTVSPropertyOp5
 70
     0
102
RTVSPropertyOp6
 70
     0
102
RTVSPropertyOp7
 70
     0
102
RTVSPropertyOp8
 70
     0
102
RTVSPropertyOp9
 70
     0
102
RTVSPropertyOp10
 70
     0
102
RTVSPropertyOp11
 70
     0
102
RTVSPropertyOp12
 70
     0
102
RTVSPropertyOp13
 70
     0
102
RTVSPropertyOp14
 70
     2
102
RTVSPropertyOp15
 70
     0
102
RTVSPropertyOp16
 70
     0
102
RTVSPropertyOp17
 70
     0
102
RTVSPropertyOp18
 70
     0
102
RTVSPropertyOp19
 70
     0
102
RTVSPropertyOp20
 70
     0
102
RTVSPropertyOp21
 70
     0
102
RTVSPropertyOp22
 70
     0
102
RTVSPropertyOp23
 70
     0
102
RTVSPropertyOp24
 70
     0
102
RTVSPropertyOp25
 70
     0
102
RTVSPropertyOp26
 70
     0
102
RTVSPropertyOp27
 70
     0
102
RTVSPropertyOp28
 70
     0
102
RTVSPropertyOp29
 70
     0
102
RTVSPropertyOp30
 70
     0
102
RTVSPropertyOp31
 70
     0
102
RTVSPropertyOp32
 70
     0
  0
XRECORD
  5
8C7
102
{ACAD_REACTORS
330
8C6
102
}
330
8C6
100
AcDbXrecord
280
     1
102
RTVSPropertyOp0
 70
     1
102
RTVSPropertyOp1
 70
     1
102
RTVSPropertyOp2
 70
     1
102
RTVSPropertyOp3
 70
     1
102
RTVSPropertyOp4
 70
     1
102
RTVSPropertyOp5
 70
     1
102
RTVSPropertyOp6
 70
     1
102
RTVSPropertyOp7
 70
     1
102
RTVSPropertyOp8
 70
     1
102
RTVSPropertyOp9
 70
     1
102
RTVSPropertyOp10
 70
     1
102
RTVSPropertyOp11
 70
     1
102
RTVSPropertyOp12
 70
     1
102
RTVSPropertyOp13
 70
     1
102
RTVSPropertyOp14
 70
     1
102
RTVSPropertyOp15
 70
     1
102
RTVSPropertyOp16
 70
     1
102
RTVSPropertyOp17
 70
     1
102
RTVSPropertyOp18
 70
     1
102
RTVSPropertyOp19
 70
     1
102
RTVSPropertyOp20
 70
     1
102
RTVSPropertyOp21
 70
     1
102
RTVSPropertyOp22
 70
     1
102
RTVSPropertyOp23
 70
     1
102
RTVSPropertyOp24
 70
     1
102
RTVSPropertyOp25
 70
     1
102
RTVSPropertyOp26
 70
     1
102
RTVSPropertyOp27
 70
     1
102
RTVSPropertyOp28
 70
     1
102
RTVSPropertyOp29
 70
     1
102
RTVSPropertyOp30
 70
     1
102
RTVSPropertyOp31
 70
     1
102
RTVSPropertyOp32
 70
     1
  0
XRECORD
  5
8AB
102
{ACAD_REACTORS
330
8AA
102
}
330
8AA
100
AcDbXrecord
280
     1
102
RTVSPropertyOp0
 70
     1
102
RTVSPropertyOp1
 70
     1
102
RTVSPropertyOp2
 70
     1
102
RTVSPropertyOp3
 70
     1
102
RTVSPropertyOp4
 70
     1
102
RTVSPropertyOp5
 70
     1
102
RTVSPropertyOp6
 70
     1
102
RTVSPropertyOp7
 70
     1
102
RTVSPropertyOp8
 70
     1
102
RTVSPropertyOp9
 70
     1
102
RTVSPropertyOp10
 70
     1
102
RTVSPropertyOp11
 70
     1
102
RTVSPropertyOp12
 70
     1
102
RTVSPropertyOp13
 70
     1
102
RTVSPropertyOp14
 70
     1
102
RTVSPropertyOp15
 70
     1
102
RTVSPropertyOp16
 70
     1
102
RTVSPropertyOp17
 70
     1
102
RTVSPropertyOp18
 70
     1
102
RTVSPropertyOp19
 70
     1
102
RTVSPropertyOp20
 70
     1
102
RTVSPropertyOp21
 70
     1
102
RTVSPropertyOp22
 70
     1
102
RTVSPropertyOp23
 70
     1
102
RTVSPropertyOp24
 70
     1
102
RTVSPropertyOp25
 70
     1
102
RTVSPropertyOp26
 70
     1
102
RTVSPropertyOp27
 70
     1
102
RTVSPropertyOp28
 70
     1
102
RTVSPropertyOp29
 70
     1
102
RTVSPropertyOp30
 70
     1
102
RTVSPropertyOp31
 70
     1
102
RTVSPropertyOp32
 70
     1
  0
XRECORD
  5
8AD
102
{ACAD_REACTORS
330
8AC
102
}
330
8AC
100
AcDbXrecord
280
     1
102
RTVSPropertyOp0
 70
     1
102
RTVSPropertyOp1
 70
     1
102
RTVSPropertyOp2
 70
     1
102
RTVSPropertyOp3
 70
     1
102
RTVSPropertyOp4
 70
     1
102
RTVSPropertyOp5
 70
     1
102
RTVSPropertyOp6
 70
     1
102
RTVSPropertyOp7
 70
     1
102
RTVSPropertyOp8
 70
     1
102
RTVSPropertyOp9
 70
     1
102
RTVSPropertyOp10
 70
     1
102
RTVSPropertyOp11
 70
     1
102
RTVSPropertyOp12
 70
     1
102
RTVSPropertyOp13
 70
     1
102
RTVSPropertyOp14
 70
     1
102
RTVSPropertyOp15
 70
     1
102
RTVSPropertyOp16
 70
     1
102
RTVSPropertyOp17
 70
     1
102
RTVSPropertyOp18
 70
     1
102
RTVSPropertyOp19
 70
     1
102
RTVSPropertyOp20
 70
     1
102
RTVSPropertyOp21
 70
     1
102
RTVSPropertyOp22
 70
     1
102
RTVSPropertyOp23
 70
     1
102
RTVSPropertyOp24
 70
     1
102
RTVSPropertyOp25
 70
     1
102
RTVSPropertyOp26
 70
     1
102
RTVSPropertyOp27
 70
     1
102
RTVSPropertyOp28
 70
     1
102
RTVSPropertyOp29
 70
     1
102
RTVSPropertyOp30
 70
     1
102
RTVSPropertyOp31
 70
     1
102
RTVSPropertyOp32
 70
     1
  0
XRECORD
  5
8AF
102
{ACAD_REACTORS
330
8AE
102
}
330
8AE
100
AcDbXrecord
280
     1
102
RTVSPropertyOp0
 70
     1
102
RTVSPropertyOp1
 70
     1
102
RTVSPropertyOp2
 70
     1
102
RTVSPropertyOp3
 70
     1
102
RTVSPropertyOp4
 70
     1
102
RTVSPropertyOp5
 70
     1
102
RTVSPropertyOp6
 70
     1
102
RTVSPropertyOp7
 70
     1
102
RTVSPropertyOp8
 70
     1
102
RTVSPropertyOp9
 70
     1
102
RTVSPropertyOp10
 70
     1
102
RTVSPropertyOp11
 70
     1
102
RTVSPropertyOp12
 70
     1
102
RTVSPropertyOp13
 70
     1
102
RTVSPropertyOp14
 70
     1
102
RTVSPropertyOp15
 70
     1
102
RTVSPropertyOp16
 70
     1
102
RTVSPropertyOp17
 70
     1
102
RTVSPropertyOp18
 70
     1
102
RTVSPropertyOp19
 70
     1
102
RTVSPropertyOp20
 70
     1
102
RTVSPropertyOp21
 70
     1
102
RTVSPropertyOp22
 70
     1
102
RTVSPropertyOp23
 70
     1
102
RTVSPropertyOp24
 70
     1
102
RTVSPropertyOp25
 70
     1
102
RTVSPropertyOp26
 70
     1
102
RTVSPropertyOp27
 70
     1
102
RTVSPropertyOp28
 70
     1
102
RTVSPropertyOp29
 70
     1
102
RTVSPropertyOp30
 70
     1
102
RTVSPropertyOp31
 70
     1
102
RTVSPropertyOp32
 70
     1
  0
XRECORD
  5
8B1
102
{ACAD_REACTORS
330
8B0
102
}
330
8B0
100
AcDbXrecord
280
     1
102
RTVSPropertyOp0
 70
     1
102
RTVSPropertyOp1
 70
     1
102
RTVSPropertyOp2
 70
     1
102
RTVSPropertyOp3
 70
     1
102
RTVSPropertyOp4
 70
     1
102
RTVSPropertyOp5
 70
     1
102
RTVSPropertyOp6
 70
     1
102
RTVSPropertyOp7
 70
     1
102
RTVSPropertyOp8
 70
     1
102
RTVSPropertyOp9
 70
     1
102
RTVSPropertyOp10
 70
     1
102
RTVSPropertyOp11
 70
     1
102
RTVSPropertyOp12
 70
     1
102
RTVSPropertyOp13
 70
     1
102
RTVSPropertyOp14
 70
     1
102
RTVSPropertyOp15
 70
     1
102
RTVSPropertyOp16
 70
     1
102
RTVSPropertyOp17
 70
     1
102
RTVSPropertyOp18
 70
     1
102
RTVSPropertyOp19
 70
     1
102
RTVSPropertyOp20
 70
     1
102
RTVSPropertyOp21
 70
     1
102
RTVSPropertyOp22
 70
     1
102
RTVSPropertyOp23
 70
     1
102
RTVSPropertyOp24
 70
     1
102
RTVSPropertyOp25
 70
     1
102
RTVSPropertyOp26
 70
     1
102
RTVSPropertyOp27
 70
     1
102
RTVSPropertyOp28
 70
     1
102
RTVSPropertyOp29
 70
     1
102
RTVSPropertyOp30
 70
     1
102
RTVSPropertyOp31
 70
     1
102
RTVSPropertyOp32
 70
     1
  0
XRECORD
  5
8CE
102
{ACAD_REACTORS
330
8CD
102
}
330
8CD
100
AcDbXrecord
280
     1
102
RTVSPropertyOp0
 70
     1
102
RTVSPropertyOp1
 70
     1
102
RTVSPropertyOp2
 70
     1
102
RTVSPropertyOp3
 70
     1
102
RTVSPropertyOp4
 70
     1
102
RTVSPropertyOp5
 70
     1
102
RTVSPropertyOp6
 70
     1
102
RTVSPropertyOp7
 70
     1
102
RTVSPropertyOp8
 70
     1
102
RTVSPropertyOp9
 70
     1
102
RTVSPropertyOp10
 70
     1
102
RTVSPropertyOp11
 70
     1
102
RTVSPropertyOp12
 70
     1
102
RTVSPropertyOp13
 70
     1
102
RTVSPropertyOp14
 70
     1
102
RTVSPropertyOp15
 70
     1
102
RTVSPropertyOp16
 70
     1
102
RTVSPropertyOp17
 70
     1
102
RTVSPropertyOp18
 70
     1
102
RTVSPropertyOp19
 70
     1
102
RTVSPropertyOp20
 70
     1
102
RTVSPropertyOp21
 70
     1
102
RTVSPropertyOp22
 70
     1
102
RTVSPropertyOp23
 70
     1
102
RTVSPropertyOp24
 70
     1
102
RTVSPropertyOp25
 70
     1
102
RTVSPropertyOp26
 70
     1
102
RTVSPropertyOp27
 70
     1
102
RTVSPropertyOp28
 70
     1
102
RTVSPropertyOp29
 70
     1
102
RTVSPropertyOp30
 70
     1
102
RTVSPropertyOp31
 70
     1
102
RTVSPropertyOp32
 70
     1
  0
XRECORD
  5
8DA
102
{ACAD_REACTORS
330
8D9
102
}
330
8D9
100
AcDbXrecord
280
     1
102
RTVSPropertyOp0
 70
     0
102
RTVSPropertyOp1
 70
     0
102
RTVSPropertyOp2
 70
     0
102
RTVSPropertyOp3
 70
     0
102
RTVSPropertyOp4
 70
     0
102
RTVSPropertyOp5
 70
     0
102
RTVSPropertyOp6
 70
     0
102
RTVSPropertyOp7
 70
     0
102
RTVSPropertyOp8
 70
     0
102
RTVSPropertyOp9
 70
     0
102
RTVSPropertyOp10
 70
     0
102
RTVSPropertyOp11
 70
     0
102
RTVSPropertyOp12
 70
     0
102
RTVSPropertyOp13
 70
     0
102
RTVSPropertyOp14
 70
     2
102
RTVSPropertyOp15
 70
     0
102
RTVSPropertyOp16
 70
     0
102
RTVSPropertyOp17
 70
     0
102
RTVSPropertyOp18
 70
     0
102
RTVSPropertyOp19
 70
     0
102
RTVSPropertyOp20
 70
     0
102
RTVSPropertyOp21
 70
     0
102
RTVSPropertyOp22
 70
     0
102
RTVSPropertyOp23
 70
     0
102
RTVSPropertyOp24
 70
     0
102
RTVSPropertyOp25
 70
     0
102
RTVSPropertyOp26
 70
     0
102
RTVSPropertyOp27
 70
     0
102
RTVSPropertyOp28
 70
     0
102
RTVSPropertyOp29
 70
     0
102
RTVSPropertyOp30
 70
     0
102
RTVSPropertyOp31
 70
     0
102
RTVSPropertyOp32
 70
     0
  0
XRECORD
  5
8C5
102
{ACAD_REACTORS
330
8C4
102
}
330
8C4
100
AcDbXrecord
280
     1
102
RTVSPropertyOp0
 70
     1
102
RTVSPropertyOp1
 70
     1
102
RTVSPropertyOp2
 70
     1
102
RTVSPropertyOp3
 70
     1
102
RTVSPropertyOp4
 70
     1
102
RTVSPropertyOp5
 70
     1
102
RTVSPropertyOp6
 70
     1
102
RTVSPropertyOp7
 70
     1
102
RTVSPropertyOp8
 70
     1
102
RTVSPropertyOp9
 70
     1
102
RTVSPropertyOp10
 70
     1
102
RTVSPropertyOp11
 70
     1
102
RTVSPropertyOp12
 70
     1
102
RTVSPropertyOp13
 70
     1
102
RTVSPropertyOp14
 70
     1
102
RTVSPropertyOp15
 70
     1
102
RTVSPropertyOp16
 70
     1
102
RTVSPropertyOp17
 70
     1
102
RTVSPropertyOp18
 70
     1
102
RTVSPropertyOp19
 70
     1
102
RTVSPropertyOp20
 70
     1
102
RTVSPropertyOp21
 70
     1
102
RTVSPropertyOp22
 70
     1
102
RTVSPropertyOp23
 70
     1
102
RTVSPropertyOp24
 70
     1
102
RTVSPropertyOp25
 70
     1
102
RTVSPropertyOp26
 70
     1
102
RTVSPropertyOp27
 70
     1
102
RTVSPropertyOp28
 70
     1
102
RTVSPropertyOp29
 70
     1
102
RTVSPropertyOp30
 70
     1
102
RTVSPropertyOp31
 70
     1
102
RTVSPropertyOp32
 70
     1
  0
XRECORD
  5
8DC
102
{ACAD_REACTORS
330
8DB
102
}
330
8DB
100
AcDbXrecord
280
     1
102
RTVSPropertyOp0
 70
     0
102
RTVSPropertyOp1
 70
     0
102
RTVSPropertyOp2
 70
     0
102
RTVSPropertyOp3
 70
     0
102
RTVSPropertyOp4
 70
     0
102
RTVSPropertyOp5
 70
     0
102
RTVSPropertyOp6
 70
     0
102
RTVSPropertyOp7
 70
     0
102
RTVSPropertyOp8
 70
     0
102
RTVSPropertyOp9
 70
     0
102
RTVSPropertyOp10
 70
     0
102
RTVSPropertyOp11
 70
     0
102
RTVSPropertyOp12
 70
     0
102
RTVSPropertyOp13
 70
     0
102
RTVSPropertyOp14
 70
     2
102
RTVSPropertyOp15
 70
     0
102
RTVSPropertyOp16
 70
     0
102
RTVSPropertyOp17
 70
     0
102
RTVSPropertyOp18
 70
     0
102
RTVSPropertyOp19
 70
     0
102
RTVSPropertyOp20
 70
     0
102
RTVSPropertyOp21
 70
     0
102
RTVSPropertyOp22
 70
     0
102
RTVSPropertyOp23
 70
     0
102
RTVSPropertyOp24
 70
     0
102
RTVSPropertyOp25
 70
     0
102
RTVSPropertyOp26
 70
     0
102
RTVSPropertyOp27
 70
     0
102
RTVSPropertyOp28
 70
     0
102
RTVSPropertyOp29
 70
     0
102
RTVSPropertyOp30
 70
     0
102
RTVSPropertyOp31
 70
     0
102
RTVSPropertyOp32
 70
     0
  0
XRECORD
  5
8BD
102
{ACAD_REACTORS
330
8BC
102
}
330
8BC
100
AcDbXrecord
280
     1
102
RTVSPropertyOp0
 70
     1
102
RTVSPropertyOp1
 70
     1
102
RTVSPropertyOp2
 70
     1
102
RTVSPropertyOp3
 70
     1
102
RTVSPropertyOp4
 70
     1
102
RTVSPropertyOp5
 70
     1
102
RTVSPropertyOp6
 70
     1
102
RTVSPropertyOp7
 70
     1
102
RTVSPropertyOp8
 70
     1
102
RTVSPropertyOp9
 70
     1
102
RTVSPropertyOp10
 70
     1
102
RTVSPropertyOp11
 70
     1
102
RTVSPropertyOp12
 70
     1
102
RTVSPropertyOp13
 70
     1
102
RTVSPropertyOp14
 70
     1
102
RTVSPropertyOp15
 70
     1
102
RTVSPropertyOp16
 70
     1
102
RTVSPropertyOp17
 70
     1
102
RTVSPropertyOp18
 70
     1
102
RTVSPropertyOp19
 70
     1
102
RTVSPropertyOp20
 70
     1
102
RTVSPropertyOp21
 70
     1
102
RTVSPropertyOp22
 70
     1
102
RTVSPropertyOp23
 70
     1
102
RTVSPropertyOp24
 70
     1
102
RTVSPropertyOp25
 70
     1
102
RTVSPropertyOp26
 70
     1
102
RTVSPropertyOp27
 70
     1
102
RTVSPropertyOp28
 70
     1
102
RTVSPropertyOp29
 70
     1
102
RTVSPropertyOp30
 70
     1
102
RTVSPropertyOp31
 70
     1
102
RTVSPropertyOp32
 70
     1
  0
XRECORD
  5
8D8
102
{ACAD_REACTORS
330
8D7
102
}
330
8D7
100
AcDbXrecord
280
     1
102
RTVSPropertyOp0
 70
     1
102
RTVSPropertyOp1
 70
     1
102
RTVSPropertyOp2
 70
     1
102
RTVSPropertyOp3
 70
     1
102
RTVSPropertyOp4
 70
     1
102
RTVSPropertyOp5
 70
     1
102
RTVSPropertyOp6
 70
     1
102
RTVSPropertyOp7
 70
     1
102
RTVSPropertyOp8
 70
     1
102
RTVSPropertyOp9
 70
     1
102
RTVSPropertyOp10
 70
     1
102
RTVSPropertyOp11
 70
     1
102
RTVSPropertyOp12
 70
     1
102
RTVSPropertyOp13
 70
     1
102
RTVSPropertyOp14
 70
     1
102
RTVSPropertyOp15
 70
     1
102
RTVSPropertyOp16
 70
     1
102
RTVSPropertyOp17
 70
     1
102
RTVSPropertyOp18
 70
     1
102
RTVSPropertyOp19
 70
     1
102
RTVSPropertyOp20
 70
     1
102
RTVSPropertyOp21
 70
     1
102
RTVSPropertyOp22
 70
     1
102
RTVSPropertyOp23
 70
     1
102
RTVSPropertyOp24
 70
     1
102
RTVSPropertyOp25
 70
     1
102
RTVSPropertyOp26
 70
     1
102
RTVSPropertyOp27
 70
     1
102
RTVSPropertyOp28
 70
     1
102
RTVSPropertyOp29
 70
     1
102
RTVSPropertyOp30
 70
     1
102
RTVSPropertyOp31
 70
     1
102
RTVSPropertyOp32
 70
     1
  0
XRECORD
  5
8D6
102
{ACAD_REACTORS
330
8D5
102
}
330
8D5
100
AcDbXrecord
280
     1
102
RTVSPropertyOp0
 70
     1
102
RTVSPropertyOp1
 70
     1
102
RTVSPropertyOp2
 70
     1
102
RTVSPropertyOp3
 70
     1
102
RTVSPropertyOp4
 70
     1
102
RTVSPropertyOp5
 70
     1
102
RTVSPropertyOp6
 70
     1
102
RTVSPropertyOp7
 70
     1
102
RTVSPropertyOp8
 70
     1
102
RTVSPropertyOp9
 70
     1
102
RTVSPropertyOp10
 70
     1
102
RTVSPropertyOp11
 70
     1
102
RTVSPropertyOp12
 70
     1
102
RTVSPropertyOp13
 70
     1
102
RTVSPropertyOp14
 70
     1
102
RTVSPropertyOp15
 70
     1
102
RTVSPropertyOp16
 70
     1
102
RTVSPropertyOp17
 70
     1
102
RTVSPropertyOp18
 70
     1
102
RTVSPropertyOp19
 70
     1
102
RTVSPropertyOp20
 70
     1
102
RTVSPropertyOp21
 70
     1
102
RTVSPropertyOp22
 70
     1
102
RTVSPropertyOp23
 70
     1
102
RTVSPropertyOp24
 70
     1
102
RTVSPropertyOp25
 70
     1
102
RTVSPropertyOp26
 70
     1
102
RTVSPropertyOp27
 70
     1
102
RTVSPropertyOp28
 70
     1
102
RTVSPropertyOp29
 70
     1
102
RTVSPropertyOp30
 70
     1
102
RTVSPropertyOp31
 70
     1
102
RTVSPropertyOp32
 70
     1
  0
XRECORD
  5
8D0
102
{ACAD_REACTORS
330
8CF
102
}
330
8CF
100
AcDbXrecord
280
     1
102
RTVSPropertyOp0
 70
     1
102
RTVSPropertyOp1
 70
     1
102
RTVSPropertyOp2
 70
     1
102
RTVSPropertyOp3
 70
     1
102
RTVSPropertyOp4
 70
     1
102
RTVSPropertyOp5
 70
     1
102
RTVSPropertyOp6
 70
     1
102
RTVSPropertyOp7
 70
     1
102
RTVSPropertyOp8
 70
     1
102
RTVSPropertyOp9
 70
     1
102
RTVSPropertyOp10
 70
     1
102
RTVSPropertyOp11
 70
     1
102
RTVSPropertyOp12
 70
     1
102
RTVSPropertyOp13
 70
     1
102
RTVSPropertyOp14
 70
     1
102
RTVSPropertyOp15
 70
     1
102
RTVSPropertyOp16
 70
     1
102
RTVSPropertyOp17
 70
     1
102
RTVSPropertyOp18
 70
     1
102
RTVSPropertyOp19
 70
     1
102
RTVSPropertyOp20
 70
     1
102
RTVSPropertyOp21
 70
     1
102
RTVSPropertyOp22
 70
     1
102
RTVSPropertyOp23
 70
     1
102
RTVSPropertyOp24
 70
     1
102
RTVSPropertyOp25
 70
     1
102
RTVSPropertyOp26
 70
     1
102
RTVSPropertyOp27
 70
     1
102
RTVSPropertyOp28
 70
     1
102
RTVSPropertyOp29
 70
     1
102
RTVSPropertyOp30
 70
     1
102
RTVSPropertyOp31
 70
     1
102
RTVSPropertyOp32
 70
     1
  0
XRECORD
  5
8D2
102
{ACAD_REACTORS
330
8D1
102
}
330
8D1
100
AcDbXrecord
280
     1
102
RTVSPropertyOp0
 70
     1
102
RTVSPropertyOp1
 70
     1
102
RTVSPropertyOp2
 70
     1
102
RTVSPropertyOp3
 70
     1
102
RTVSPropertyOp4
 70
     1
102
RTVSPropertyOp5
 70
     1
102
RTVSPropertyOp6
 70
     1
102
RTVSPropertyOp7
 70
     1
102
RTVSPropertyOp8
 70
     1
102
RTVSPropertyOp9
 70
     1
102
RTVSPropertyOp10
 70
     1
102
RTVSPropertyOp11
 70
     1
102
RTVSPropertyOp12
 70
     1
102
RTVSPropertyOp13
 70
     1
102
RTVSPropertyOp14
 70
     1
102
RTVSPropertyOp15
 70
     1
102
RTVSPropertyOp16
 70
     1
102
RTVSPropertyOp17
 70
     1
102
RTVSPropertyOp18
 70
     1
102
RTVSPropertyOp19
 70
     1
102
RTVSPropertyOp20
 70
     1
102
RTVSPropertyOp21
 70
     1
102
RTVSPropertyOp22
 70
     1
102
RTVSPropertyOp23
 70
     1
102
RTVSPropertyOp24
 70
     1
102
RTVSPropertyOp25
 70
     1
102
RTVSPropertyOp26
 70
     1
102
RTVSPropertyOp27
 70
     1
102
RTVSPropertyOp28
 70
     1
102
RTVSPropertyOp29
 70
     1
102
RTVSPropertyOp30
 70
     1
102
RTVSPropertyOp31
 70
     1
102
RTVSPropertyOp32
 70
     1
  0
XRECORD
  5
8C3
102
{ACAD_REACTORS
330
8C2
102
}
330
8C2
100
AcDbXrecord
280
     1
102
RTVSPropertyOp0
 70
     1
102
RTVSPropertyOp1
 70
     1
102
RTVSPropertyOp2
 70
     1
102
RTVSPropertyOp3
 70
     1
102
RTVSPropertyOp4
 70
     1
102
RTVSPropertyOp5
 70
     1
102
RTVSPropertyOp6
 70
     1
102
RTVSPropertyOp7
 70
     1
102
RTVSPropertyOp8
 70
     1
102
RTVSPropertyOp9
 70
     1
102
RTVSPropertyOp10
 70
     1
102
RTVSPropertyOp11
 70
     1
102
RTVSPropertyOp12
 70
     1
102
RTVSPropertyOp13
 70
     1
102
RTVSPropertyOp14
 70
     1
102
RTVSPropertyOp15
 70
     1
102
RTVSPropertyOp16
 70
     1
102
RTVSPropertyOp17
 70
     1
102
RTVSPropertyOp18
 70
     1
102
RTVSPropertyOp19
 70
     1
102
RTVSPropertyOp20
 70
     1
102
RTVSPropertyOp21
 70
     1
102
RTVSPropertyOp22
 70
     1
102
RTVSPropertyOp23
 70
     1
102
RTVSPropertyOp24
 70
     1
102
RTVSPropertyOp25
 70
     1
102
RTVSPropertyOp26
 70
     1
102
RTVSPropertyOp27
 70
     1
102
RTVSPropertyOp28
 70
     1
102
RTVSPropertyOp29
 70
     1
102
RTVSPropertyOp30
 70
     1
102
RTVSPropertyOp31
 70
     1
102
RTVSPropertyOp32
 70
     1
  0
XRECORD
  5
8CC
102
{ACAD_REACTORS
330
8CB
102
}
330
8CB
100
AcDbXrecord
280
     1
102
RTVSPropertyOp0
 70
     1
102
RTVSPropertyOp1
 70
     1
102
RTVSPropertyOp2
 70
     1
102
RTVSPropertyOp3
 70
     1
102
RTVSPropertyOp4
 70
     1
102
RTVSPropertyOp5
 70
     1
102
RTVSPropertyOp6
 70
     1
102
RTVSPropertyOp7
 70
     1
102
RTVSPropertyOp8
 70
     1
102
RTVSPropertyOp9
 70
     1
102
RTVSPropertyOp10
 70
     1
102
RTVSPropertyOp11
 70
     1
102
RTVSPropertyOp12
 70
     1
102
RTVSPropertyOp13
 70
     1
102
RTVSPropertyOp14
 70
     1
102
RTVSPropertyOp15
 70
     1
102
RTVSPropertyOp16
 70
     1
102
RTVSPropertyOp17
 70
     1
102
RTVSPropertyOp18
 70
     1
102
RTVSPropertyOp19
 70
     1
102
RTVSPropertyOp20
 70
     1
102
RTVSPropertyOp21
 70
     1
102
RTVSPropertyOp22
 70
     1
102
RTVSPropertyOp23
 70
     1
102
RTVSPropertyOp24
 70
     1
102
RTVSPropertyOp25
 70
     1
102
RTVSPropertyOp26
 70
     1
102
RTVSPropertyOp27
 70
     1
102
RTVSPropertyOp28
 70
     1
102
RTVSPropertyOp29
 70
     1
102
RTVSPropertyOp30
 70
     1
102
RTVSPropertyOp31
 70
     1
102
RTVSPropertyOp32
 70
     1
  0
XRECORD
  5
8D4
102
{ACAD_REACTORS
330
8D3
102
}
330
8D3
100
AcDbXrecord
280
     1
102
RTVSPropertyOp0
 70
     1
102
RTVSPropertyOp1
 70
     1
102
RTVSPropertyOp2
 70
     1
102
RTVSPropertyOp3
 70
     1
102
RTVSPropertyOp4
 70
     1
102
RTVSPropertyOp5
 70
     1
102
RTVSPropertyOp6
 70
     1
102
RTVSPropertyOp7
 70
     1
102
RTVSPropertyOp8
 70
     1
102
RTVSPropertyOp9
 70
     1
102
RTVSPropertyOp10
 70
     1
102
RTVSPropertyOp11
 70
     1
102
RTVSPropertyOp12
 70
     1
102
RTVSPropertyOp13
 70
     1
102
RTVSPropertyOp14
 70
     1
102
RTVSPropertyOp15
 70
     1
102
RTVSPropertyOp16
 70
     1
102
RTVSPropertyOp17
 70
     1
102
RTVSPropertyOp18
 70
     1
102
RTVSPropertyOp19
 70
     1
102
RTVSPropertyOp20
 70
     1
102
RTVSPropertyOp21
 70
     1
102
RTVSPropertyOp22
 70
     1
102
RTVSPropertyOp23
 70
     1
102
RTVSPropertyOp24
 70
     1
102
RTVSPropertyOp25
 70
     1
102
RTVSPropertyOp26
 70
     1
102
RTVSPropertyOp27
 70
     1
102
RTVSPropertyOp28
 70
     1
102
RTVSPropertyOp29
 70
     1
102
RTVSPropertyOp30
 70
     1
102
RTVSPropertyOp31
 70
     1
102
RTVSPropertyOp32
 70
     1
  0
ENDSEC
  0
EOF
