  0
SECTION
  2
HEADER
  9
$ACADVER
  1
AC1015
  9
$ACADMAINTVER
 70
    20
  9
$DWGCODEPAGE
  3
ANSI_932
  9
$INSBASE
 10
0.0
 20
0.0
 30
0.0
  9
$EXTMIN
 10
-443.4858288717302
 20
-90.26312410419894
 30
-0.0015258207003583
  9
$EXTMAX
 10
-166.4103324307611
 20
100.2190535329484
 30
0.0000000349246037
  9
$LIMMIN
 10
-138.501
 20
-90.00100000000001
  9
$LIMMAX
 10
139.323342
 20
100.473618
  9
$ORTHOMODE
 70
     1
  9
$REGENMODE
 70
     1
  9
$FILLMODE
 70
     1
  9
$QTEXTMODE
 70
     0
  9
$MIRRTEXT
 70
     0
  9
$LTSCALE
 40
4.630372
  9
$ATTMODE
 70
     1
  9
$TEXTSIZE
 40
3.2
  9
$TRACEWID
 40
0.05
  9
$TEXTSTYLE
  7
高3.2
  9
$CLAYER
  8
0
  9
$CELTYPE
  6
CONTINUOUS
  9
$CECOLOR
 62
   256
  9
$CELTSCALE
 40
1.0
  9
$DISPSILH
 70
     0
  9
$DIMSCALE
 40
1.0
  9
$DIMASZ
 40
2.5
  9
$DIMEXO
 40
0.25
  9
$DIMDLI
 40
0.2
  9
$DIMRND
 40
0.0
  9
$DIMDLE
 40
0.0
  9
$DIMEXE
 40
1.25
  9
$DIMTP
 40
0.0
  9
$DIMTM
 40
0.0
  9
$DIMTXT
 40
3.0
  9
$DIMCEN
 40
0.0
  9
$DIMTSZ
 40
0.0
  9
$DIMTOL
 70
     0
  9
$DIMLIM
 70
     0
  9
$DIMTIH
 70
     0
  9
$DIMTOH
 70
     0
  9
$DIMSE1
 70
     0
  9
$DIMSE2
 70
     0
  9
$DIMTAD
 70
     3
  9
$DIMZIN
 70
     8
  9
$DIMBLK
  1
Open30
  9
$DIMASO
 70
     1
  9
$DIMSHO
 70
     1
  9
$DIMPOST
  1

  9
$DIMAPOST
  1

  9
$DIMALT
 70
     0
  9
$DIMALTD
 70
     3
  9
$DIMALTF
 40
0.03937007874016
  9
$DIMLFAC
 40
1.0
  9
$DIMTOFL
 70
     1
  9
$DIMTVP
 40
0.0
  9
$DIMTIX
 70
     0
  9
$DIMSOXD
 70
     0
  9
$DIMSAH
 70
     0
  9
$DIMBLK1
  1

  9
$DIMBLK2
  1

  9
$DIMSTYLE
  2
FREE
  9
$DIMCLRD
 70
     0
  9
$DIMCLRE
 70
     0
  9
$DIMCLRT
 70
     4
  9
$DIMTFAC
 40
1.0
  9
$DIMGAP
 40
0.625
  9
$DIMJUST
 70
     0
  9
$DIMSD1
 70
     0
  9
$DIMSD2
 70
     0
  9
$DIMTOLJ
 70
     0
  9
$DIMTZIN
 70
     8
  9
$DIMALTZ
 70
     0
  9
$DIMALTTZ
 70
     0
  9
$DIMUPT
 70
     1
  9
$DIMDEC
 70
     2
  9
$DIMTDEC
 70
     2
  9
$DIMALTU
 70
     2
  9
$DIMALTTD
 70
     3
  9
$DIMTXSTY
  7
STANDARD
  9
$DIMAUNIT
 70
     0
  9
$DIMADEC
 70
     1
  9
$DIMALTRND
 40
0.0
  9
$DIMAZIN
 70
     2
  9
$DIMDSEP
 70
    46
  9
$DIMATFIT
 70
     0
  9
$DIMFRAC
 70
     0
  9
$DIMLDRBLK
  1
Open30
  9
$DIMLUNIT
 70
     2
  9
$DIMLWD
 70
    -2
  9
$DIMLWE
 70
    -2
  9
$DIMTMOVE
 70
     0
  9
$LUNITS
 70
     2
  9
$LUPREC
 70
     4
  9
$SKETCHINC
 40
0.1
  9
$FILLETRAD
 40
0.0
  9
$AUNITS
 70
     0
  9
$AUPREC
 70
     0
  9
$MENU
  1
.
  9
$ELEVATION
 40
0.0
  9
$PELEVATION
 40
0.0
  9
$THICKNESS
 40
0.0
  9
$LIMCHECK
 70
     0
  9
$CHAMFERA
 40
0.0
  9
$CHAMFERB
 40
0.0
  9
$CHAMFERC
 40
0.0
  9
$CHAMFERD
 40
0.0
  9
$SKPOLY
 70
     0
  9
$TDCREATE
 40
2455548.692048426
  9
$TDUCREATE
 40
2455548.317048426
  9
$TDUPDATE
 40
2456749.387952245
  9
$TDUUPDATE
 40
2456749.012952245
  9
$TDINDWG
 40
0.0080305093
  9
$TDUSRTIMER
 40
0.0080205903
  9
$USRTIMER
 70
     1
  9
$ANGBASE
 50
0.0
  9
$ANGDIR
 70
     0
  9
$PDMODE
 70
     0
  9
$PDSIZE
 40
0.0
  9
$PLINEWID
 40
0.0
  9
$SPLFRAME
 70
     0
  9
$SPLINETYPE
 70
     6
  9
$SPLINESEGS
 70
     8
  9
$HANDSEED
  5
D50
  9
$SURFTAB1
 70
     6
  9
$SURFTAB2
 70
     6
  9
$SURFTYPE
 70
     6
  9
$SURFU
 70
     6
  9
$SURFV
 70
     6
  9
$UCSBASE
  2

  9
$UCSNAME
  2

  9
$UCSORG
 10
0.0
 20
0.0
 30
0.0
  9
$UCSXDIR
 10
1.0
 20
0.0
 30
0.0
  9
$UCSYDIR
 10
0.0
 20
1.0
 30
0.0
  9
$UCSORTHOREF
  2

  9
$UCSORTHOVIEW
 70
     0
  9
$UCSORGTOP
 10
0.0
 20
0.0
 30
0.0
  9
$UCSORGBOTTOM
 10
0.0
 20
0.0
 30
0.0
  9
$UCSORGLEFT
 10
0.0
 20
0.0
 30
0.0
  9
$UCSORGRIGHT
 10
0.0
 20
0.0
 30
0.0
  9
$UCSORGFRONT
 10
0.0
 20
0.0
 30
0.0
  9
$UCSORGBACK
 10
0.0
 20
0.0
 30
0.0
  9
$PUCSBASE
  2

  9
$PUCSNAME
  2

  9
$PUCSORG
 10
0.0
 20
0.0
 30
0.0
  9
$PUCSXDIR
 10
1.0
 20
0.0
 30
0.0
  9
$PUCSYDIR
 10
0.0
 20
1.0
 30
0.0
  9
$PUCSORTHOREF
  2

  9
$PUCSORTHOVIEW
 70
     0
  9
$PUCSORGTOP
 10
0.0
 20
0.0
 30
0.0
  9
$PUCSORGBOTTOM
 10
0.0
 20
0.0
 30
0.0
  9
$PUCSORGLEFT
 10
0.0
 20
0.0
 30
0.0
  9
$PUCSORGRIGHT
 10
0.0
 20
0.0
 30
0.0
  9
$PUCSORGFRONT
 10
0.0
 20
0.0
 30
0.0
  9
$PUCSORGBACK
 10
0.0
 20
0.0
 30
0.0
  9
$USERI1
 70
     0
  9
$USERI2
 70
     0
  9
$USERI3
 70
     0
  9
$USERI4
 70
     0
  9
$USERI5
 70
     0
  9
$USERR1
 40
0.0
  9
$USERR2
 40
0.0
  9
$USERR3
 40
0.0
  9
$USERR4
 40
0.0
  9
$USERR5
 40
0.0
  9
$WORLDVIEW
 70
     1
  9
$SHADEDGE
 70
     3
  9
$SHADEDIF
 70
    70
  9
$TILEMODE
 70
     1
  9
$MAXACTVP
 70
    64
  9
$PINSBASE
 10
0.0
 20
0.0
 30
0.0
  9
$PLIMCHECK
 70
     0
  9
$PEXTMIN
 10
1.000000000000000E+20
 20
1.000000000000000E+20
 30
1.000000000000000E+20
  9
$PEXTMAX
 10
-1.000000000000000E+20
 20
-1.000000000000000E+20
 30
-1.000000000000000E+20
  9
$PLIMMIN
 10
0.0
 20
0.0
  9
$PLIMMAX
 10
12.0
 20
9.0
  9
$UNITMODE
 70
     0
  9
$VISRETAIN
 70
     1
  9
$PLINEGEN
 70
     0
  9
$PSLTSCALE
 70
     1
  9
$TREEDEPTH
 70
  3020
  9
$CMLSTYLE
  2
Standard
  9
$CMLJUST
 70
     0
  9
$CMLSCALE
 40
1.0
  9
$PROXYGRAPHICS
 70
     1
  9
$MEASUREMENT
 70
     0
  9
$CELWEIGHT
370
    -1
  9
$ENDCAPS
280
     0
  9
$JOINSTYLE
280
     0
  9
$LWDISPLAY
290
     0
  9
$INSUNITS
 70
     0
  9
$HYPERLINKBASE
  1

  9
$STYLESHEET
  1
n-plot.ctb
  9
$XEDIT
290
     1
  9
$CEPSNTYPE
380
     0
  9
$PSTYLEMODE
290
     1
  9
$FINGERPRINTGUID
  2
{F6998376-4D2E-4E07-B487-1AE841DCA394}
  9
$VERSIONGUID
  2
{A88BFDA9-C4C3-4FF0-91C5-9247FA7D5DFC}
  9
$EXTNAMES
290
     1
  9
$PSVPSCALE
 40
0.0
  9
$OLESTARTUP
290
     0
  0
ENDSEC
  0
SECTION
  2
CLASSES
  0
CLASS
  1
ACDBDICTIONARYWDFLT
  2
AcDbDictionaryWithDefault
  3
ObjectDBX Classes
 90
        0
280
     0
281
     0
  0
CLASS
  1
MATERIAL
  2
AcDbMaterial
  3
ObjectDBX Classes
 90
     1153
280
     0
281
     0
  0
CLASS
  1
VISUALSTYLE
  2
AcDbVisualStyle
  3
ObjectDBX Classes
 90
     4095
280
     0
281
     0
  0
CLASS
  1
TABLESTYLE
  2
AcDbTableStyle
  3
ObjectDBX Classes
 90
     4095
280
     0
281
     0
  0
CLASS
  1
DICTIONARYVAR
  2
AcDbDictionaryVar
  3
ObjectDBX Classes
 90
        0
280
     0
281
     0
  0
CLASS
  1
SCALE
  2
AcDbScale
  3
ObjectDBX Classes
 90
     1153
280
     0
281
     0
  0
CLASS
  1
MLEADERSTYLE
  2
AcDbMLeaderStyle
  3
ACDB_MLEADERSTYLE_CLASS
 90
     4095
280
     0
281
     0
  0
CLASS
  1
SORTENTSTABLE
  2
AcDbSortentsTable
  3
ObjectDBX Classes
 90
        0
280
     0
281
     0
  0
CLASS
  1
CELLSTYLEMAP
  2
AcDbCellStyleMap
  3
ObjectDBX Classes
 90
     1152
280
     0
281
     0
  0
CLASS
  1
ACDBPLACEHOLDER
  2
AcDbPlaceHolder
  3
ObjectDBX Classes
 90
        0
280
     0
281
     0
  0
CLASS
  1
LAYOUT
  2
AcDbLayout
  3
ObjectDBX Classes
 90
        0
280
     0
281
     0
  0
ENDSEC
  0
SECTION
  2
TABLES
  0
TABLE
  2
VPORT
  5
8
330
0
100
AcDbSymbolTable
 70
     1
  0
VPORT
  5
56
330
8
100
AcDbSymbolTableRecord
100
AcDbViewportTableRecord
  2
*Active
 70
     0
 10
0.0
 20
0.0
 11
1.0
 21
1.0
 12
-240.841760632223
 22
43.93887611008233
 13
0.0
 23
0.0
 14
1.0
 24
1.0
 15
0.0
 25
0.0
 16
0.0
 26
0.0
 36
1.0
 17
0.0
 27
0.0
 37
0.0
 40
539.9821071500748
 41
1.102189781021897
 42
50.0
 43
0.0
 44
0.0
 50
0.0
 51
0.0
 71
     0
 72
   100
 73
     1
 74
     1
 75
     0
 76
     0
 77
     0
 78
     0
281
     0
 65
     1
110
0.0
120
0.0
130
0.0
111
1.0
121
0.0
131
0.0
112
0.0
122
1.0
132
0.0
 79
     0
146
0.0
  0
ENDTAB
  0
TABLE
  2
LTYPE
  5
5
330
0
100
AcDbSymbolTable
 70
     2
  0
LTYPE
  5
28
330
5
100
AcDbSymbolTableRecord
100
AcDbLinetypeTableRecord
  2
ByBlock
 70
     0
  3

 72
    65
 73
     0
 40
0.0
  0
LTYPE
  5
29
330
5
100
AcDbSymbolTableRecord
100
AcDbLinetypeTableRecord
  2
ByLayer
 70
     0
  3

 72
    65
 73
     0
 40
0.0
  0
LTYPE
  5
2A
330
5
100
AcDbSymbolTableRecord
100
AcDbLinetypeTableRecord
  2
CONTINUOUS
 70
     0
  3
Solid-line
 72
    65
 73
     0
 40
0.0
  0
ENDTAB
  0
TABLE
  2
LAYER
  5
2
102
{ACAD_XDICTIONARY
360
41D
102
}
330
0
100
AcDbSymbolTable
 70
     2
  0
LAYER
  5
25
102
{ACAD_XDICTIONARY
360
B7F
102
}
330
2
100
AcDbSymbolTableRecord
100
AcDbLayerTableRecord
  2
0
 70
     0
 62
     7
  6
CONTINUOUS
370
    -3
390
F
  0
LAYER
  5
412
330
2
100
AcDbSymbolTableRecord
100
AcDbLayerTableRecord
  2
Defpoints
 70
     0
 62
     7
  6
CONTINUOUS
290
     0
370
    -3
390
F
  0
ENDTAB
  0
TABLE
  2
STYLE
  5
3
330
0
100
AcDbSymbolTable
 70
     7
  0
STYLE
  5
26
330
3
100
AcDbSymbolTableRecord
100
AcDbTextStyleTableRecord
  2
STANDARD
 70
     0
 40
0.0
 41
1.0
 50
0.0
 71
     0
 42
0.2
  3
TXT
  4
BIGFONT
  0
STYLE
  5
413
330
3
100
AcDbSymbolTableRecord
100
AcDbTextStyleTableRecord
  2
高3.2
 70
     0
 40
3.2
 41
1.0
 50
0.0
 71
     0
 42
3.2
  3
txt.shx
  4
bigfont.shx
  0
STYLE
  5
414
330
3
100
AcDbSymbolTableRecord
100
AcDbTextStyleTableRecord
  2
高6.3
 70
     0
 40
6.299999999999998
 41
1.0
 50
0.0
 71
     0
 42
6.299999999999998
  3
txt.shx
  4
bigfont.shx
  0
STYLE
  5
415
330
3
100
AcDbSymbolTableRecord
100
AcDbTextStyleTableRecord
  2
高4.5
 70
     0
 40
4.5
 41
1.0
 50
0.0
 71
     0
 42
6.299999999999998
  3
txt.shx
  4
bigfont.shx
  0
STYLE
  5
416
330
3
100
AcDbSymbolTableRecord
100
AcDbTextStyleTableRecord
  2
高2
 70
     0
 40
2.0
 41
1.0
 50
0.0
 71
     0
 42
2.0
  3
txt.shx
  4
bigfont.shx
  0
STYLE
  5
9C8
330
3
100
AcDbSymbolTableRecord
100
AcDbTextStyleTableRecord
  2
高2.5
 70
     0
 40
2.5
 41
1.0
 50
0.0
 71
     0
 42
0.2
  3
txt.shx
  4
bigfont.shx
  0
ENDTAB
  0
TABLE
  2
VIEW
  5
6
330
0
100
AcDbSymbolTable
 70
     0
  0
ENDTAB
  0
TABLE
  2
UCS
  5
7
330
0
100
AcDbSymbolTable
 70
     0
  0
ENDTAB
  0
TABLE
  2
APPID
  5
9
330
0
100
AcDbSymbolTable
 70
    10
  0
APPID
  5
27
330
9
100
AcDbSymbolTableRecord
100
AcDbRegAppTableRecord
  2
ACAD
 70
     0
  0
APPID
  5
38A
330
9
100
AcDbSymbolTableRecord
100
AcDbRegAppTableRecord
  2
ACAD_PSEXT
 70
     0
  0
APPID
  5
419
330
9
100
AcDbSymbolTableRecord
100
AcDbRegAppTableRecord
  2
ACAD_DSTYLE_DIMJOGGED_JOGANGLE_SYMBOL
 70
     0
  0
APPID
  5
41A
330
9
100
AcDbSymbolTableRecord
100
AcDbRegAppTableRecord
  2
ACAD_DSTYLE_DIMJAG
 70
     0
  0
APPID
  5
41B
330
9
100
AcDbSymbolTableRecord
100
AcDbRegAppTableRecord
  2
ACAD_DSTYLE_DIMBREAK
 70
     0
  0
APPID
  5
41C
330
9
100
AcDbSymbolTableRecord
100
AcDbRegAppTableRecord
  2
ACAD_DSTYLE_DIMTALN
 70
     0
  0
APPID
  5
B11
330
9
100
AcDbSymbolTableRecord
100
AcDbRegAppTableRecord
  2
ACAD_EXEMPT_FROM_CAD_STANDARDS
 70
     0
  0
APPID
  5
BC9
330
9
100
AcDbSymbolTableRecord
100
AcDbRegAppTableRecord
  2
ACAD_MLEADERVER
 70
     0
  0
APPID
  5
BCA
330
9
100
AcDbSymbolTableRecord
100
AcDbRegAppTableRecord
  2
ACAD_DSTYLE_DIMARC_LENGTH_SYMBOL
 70
     0
  0
APPID
  5
BCB
330
9
100
AcDbSymbolTableRecord
100
AcDbRegAppTableRecord
  2
ACAD_DSTYLE_DIMEXT_LENGTH
 70
     0
  0
ENDTAB
  0
TABLE
  2
DIMSTYLE
  5
A
330
0
100
AcDbSymbolTable
 70
    12
100
AcDbDimStyleTable
 71
     2
340
418
340
370
  0
DIMSTYLE
105
370
330
A
100
AcDbSymbolTableRecord
100
AcDbDimStyleTableRecord
  2
Standard
 70
     0
340
26
  0
DIMSTYLE
105
417
330
A
100
AcDbSymbolTableRecord
100
AcDbDimStyleTableRecord
  2
1／2
 70
     0
 41
2.5
 42
0.25
 43
0.2
 44
1.25
 73
     0
 74
     0
 77
     3
 78
     8
 79
     2
140
3.0
141
0.0
143
0.03937007874016
144
2.0
147
0.625
171
     3
172
     1
178
     4
179
     1
271
     2
272
     2
274
     3
283
     0
284
     8
288
     1
289
     0
340
26
341
3D0
342
3D0
1001
ACAD_DSTYLE_DIMARC_LENGTH_SYMBOL
1070
   379
1070
     2
1001
ACAD_DSTYLE_DIMEXT_LENGTH
1070
   378
1040
1.25
1001
ACAD_DSTYLE_DIMJOGGED_JOGANGLE_SYMBOL
1070
   384
1040
1.570796326794896
  0
DIMSTYLE
105
418
330
A
100
AcDbSymbolTableRecord
100
AcDbDimStyleTableRecord
  2
FREE
 70
     0
 41
2.5
 42
0.25
 43
0.2
 44
1.25
 73
     0
 74
     0
 77
     3
 78
     8
 79
     2
140
3.0
141
0.0
143
0.03937007874016
147
0.625
171
     3
172
     1
178
     4
179
     1
271
     2
272
     2
274
     3
283
     0
284
     8
288
     1
289
     0
340
26
341
3D0
342
3D0
1001
ACAD_DSTYLE_DIMBREAK
1070
   391
1040
3.75
1001
ACAD_DSTYLE_DIMJAG
1070
   388
1040
1.5
1001
ACAD_DSTYLE_DIMTALN
1070
   392
1070
     0
1001
ACAD_DSTYLE_DIMARC_LENGTH_SYMBOL
1070
   379
1070
     2
1001
ACAD_DSTYLE_DIMEXT_LENGTH
1070
   378
1040
1.25
1001
ACAD_DSTYLE_DIMJOGGED_JOGANGLE_SYMBOL
1070
   384
1040
1.570796326794896
  0
DIMSTYLE
105
9C9
330
A
100
AcDbSymbolTableRecord
100
AcDbDimStyleTableRecord
  2
1：1
 70
     0
 41
2.5
 42
0.25
 43
0.2
 44
1.25
 73
     0
 74
     0
 77
     3
 78
     8
 79
     2
140
3.0
141
0.0
143
0.03937007874016
147
0.625
171
     3
172
     1
178
     4
179
     1
271
     2
272
     2
274
     3
283
     0
284
     8
288
     1
289
     0
340
26
341
3D0
342
3D0
1001
ACAD_DSTYLE_DIMARC_LENGTH_SYMBOL
1070
   379
1070
     2
1001
ACAD_DSTYLE_DIMEXT_LENGTH
1070
   378
1040
1.25
1001
ACAD_DSTYLE_DIMJOGGED_JOGANGLE_SYMBOL
1070
   384
1040
1.570796326794896
  0
DIMSTYLE
105
9CA
330
A
100
AcDbSymbolTableRecord
100
AcDbDimStyleTableRecord
  2
2：1
 70
     0
 41
2.5
 42
0.25
 43
0.2
 44
1.25
 73
     0
 74
     0
 77
     3
 78
     8
 79
     2
140
3.0
141
0.0
143
0.03937007874016
144
0.5
147
0.625
171
     3
172
     1
178
     4
179
     1
271
     2
272
     2
274
     3
283
     0
284
     8
288
     1
289
     0
340
26
341
3D0
342
3D0
1001
ACAD_DSTYLE_DIMARC_LENGTH_SYMBOL
1070
   379
1070
     2
1001
ACAD_DSTYLE_DIMEXT_LENGTH
1070
   378
1040
1.25
1001
ACAD_DSTYLE_DIMJOGGED_JOGANGLE_SYMBOL
1070
   384
1040
1.570796326794896
  0
DIMSTYLE
105
9CB
330
A
100
AcDbSymbolTableRecord
100
AcDbDimStyleTableRecord
  2
5：1
 70
     0
 41
2.5
 42
0.25
 43
0.2
 44
1.25
 73
     0
 74
     0
 77
     3
 78
     8
 79
     2
140
3.0
141
0.0
143
0.03937007874016
144
0.2
147
0.625
171
     3
172
     1
178
     4
179
     1
271
     2
272
     2
274
     3
283
     0
284
     8
288
     1
289
     0
340
26
341
3D0
342
3D0
1001
ACAD_DSTYLE_DIMARC_LENGTH_SYMBOL
1070
   379
1070
     2
1001
ACAD_DSTYLE_DIMEXT_LENGTH
1070
   378
1040
1.25
1001
ACAD_DSTYLE_DIMJOGGED_JOGANGLE_SYMBOL
1070
   384
1040
1.570796326794896
  0
DIMSTYLE
105
9CC
330
A
100
AcDbSymbolTableRecord
100
AcDbDimStyleTableRecord
  2
10：1
 70
     0
 41
2.5
 42
0.25
 43
0.2
 44
1.25
 73
     0
 74
     0
 77
     3
 78
     8
 79
     2
140
3.0
141
0.0
143
0.03937007874016
144
0.1
147
0.625
171
     3
172
     1
178
     4
179
     1
271
     2
272
     2
274
     3
283
     0
284
     8
288
     1
289
     0
340
26
341
3D0
342
3D0
1001
ACAD_DSTYLE_DIMARC_LENGTH_SYMBOL
1070
   379
1070
     2
1001
ACAD_DSTYLE_DIMEXT_LENGTH
1070
   378
1040
1.25
1001
ACAD_DSTYLE_DIMJOGGED_JOGANGLE_SYMBOL
1070
   384
1040
1.570796326794896
  0
DIMSTYLE
105
9CD
330
A
100
AcDbSymbolTableRecord
100
AcDbDimStyleTableRecord
  2
1／5
 70
     0
 41
2.5
 42
0.25
 43
0.2
 44
1.25
 73
     0
 74
     0
 77
     3
 78
     8
 79
     2
140
3.0
141
0.0
143
0.03937007874016
144
5.0
147
0.625
171
     3
172
     1
178
     4
179
     1
271
     2
272
     2
274
     3
283
     0
284
     8
288
     1
289
     0
340
26
341
3D0
342
3D0
1001
ACAD_DSTYLE_DIMARC_LENGTH_SYMBOL
1070
   379
1070
     2
1001
ACAD_DSTYLE_DIMEXT_LENGTH
1070
   378
1040
1.25
1001
ACAD_DSTYLE_DIMJOGGED_JOGANGLE_SYMBOL
1070
   384
1040
1.570796326794896
  0
DIMSTYLE
105
9CE
330
A
100
AcDbSymbolTableRecord
100
AcDbDimStyleTableRecord
  2
1／10
 70
     0
 41
2.5
 42
0.25
 43
0.2
 44
1.25
 73
     0
 74
     0
 77
     3
 78
     8
 79
     2
140
3.0
141
0.0
143
0.03937007874016
144
10.0
147
0.625
171
     3
172
     1
178
     4
179
     1
271
     2
272
     2
274
     3
283
     0
284
     8
288
     1
289
     0
340
26
341
3D0
342
3D0
1001
ACAD_DSTYLE_DIMARC_LENGTH_SYMBOL
1070
   379
1070
     2
1001
ACAD_DSTYLE_DIMEXT_LENGTH
1070
   378
1040
1.25
1001
ACAD_DSTYLE_DIMJOGGED_JOGANGLE_SYMBOL
1070
   384
1040
1.570796326794896
  0
DIMSTYLE
105
9CF
330
A
100
AcDbSymbolTableRecord
100
AcDbDimStyleTableRecord
  2
1／4
 70
     0
 41
2.5
 42
0.25
 43
0.2
 44
1.25
 73
     0
 74
     0
 77
     3
 78
     8
 79
     2
140
3.0
141
0.0
143
0.03937007874016
144
4.0
147
0.625
171
     3
172
     1
178
     4
179
     1
271
     2
272
     2
274
     3
283
     0
284
     8
288
     1
289
     0
340
26
341
3D0
342
3D0
1001
ACAD_DSTYLE_DIMARC_LENGTH_SYMBOL
1070
   379
1070
     2
1001
ACAD_DSTYLE_DIMEXT_LENGTH
1070
   378
1040
1.25
1001
ACAD_DSTYLE_DIMJOGGED_JOGANGLE_SYMBOL
1070
   384
1040
1.570796326794896
  0
DIMSTYLE
105
9D0
330
A
100
AcDbSymbolTableRecord
100
AcDbDimStyleTableRecord
  2
1／3
 70
     0
 41
2.5
 42
0.25
 43
0.2
 44
1.25
 73
     0
 74
     0
 77
     3
 78
     8
 79
     2
140
3.0
141
0.0
143
0.03937007874016
144
3.0
147
0.625
171
     3
172
     1
178
     4
179
     1
271
     2
272
     2
274
     3
283
     0
284
     8
288
     1
289
     0
340
26
341
3D0
342
3D0
1001
ACAD_DSTYLE_DIMARC_LENGTH_SYMBOL
1070
   379
1070
     2
1001
ACAD_DSTYLE_DIMEXT_LENGTH
1070
   378
1040
1.25
1001
ACAD_DSTYLE_DIMJOGGED_JOGANGLE_SYMBOL
1070
   384
1040
1.570796326794896
  0
ENDTAB
  0
TABLE
  2
BLOCK_RECORD
  5
1
330
0
100
AcDbSymbolTable
 70
    17
  0
BLOCK_RECORD
  5
36
102
{ACAD_XDICTIONARY
360
CC0
102
}
330
1
100
AcDbSymbolTableRecord
100
AcDbBlockTableRecord
  2
*Model_Space
340
39
  0
BLOCK_RECORD
  5
32
330
1
100
AcDbSymbolTableRecord
100
AcDbBlockTableRecord
  2
*Paper_Space
340
35
  0
BLOCK_RECORD
  5
3D0
330
1
100
AcDbSymbolTableRecord
100
AcDbBlockTableRecord
  2
_Open30
340
0
102
{BLKREFS
331
B18
331
B19
331
B23
331
B24
331
B2E
331
B2F
331
B39
331
B3A
331
B44
331
B45
331
B4F
331
B50
331
B5A
331
B5B
331
B65
331
B66
331
B70
331
B71
331
B79
331
B7A
331
C09
331
C0A
331
C12
331
C13
331
C1B
331
C1C
331
C24
331
C25
331
C2F
331
C30
102
}
  0
BLOCK_RECORD
  5
8D5
330
1
100
AcDbSymbolTableRecord
100
AcDbBlockTableRecord
  2
*D1
340
0
  0
BLOCK_RECORD
  5
8E1
330
1
100
AcDbSymbolTableRecord
100
AcDbBlockTableRecord
  2
*D2
340
0
  0
BLOCK_RECORD
  5
8ED
330
1
100
AcDbSymbolTableRecord
100
AcDbBlockTableRecord
  2
*D3
340
0
  0
BLOCK_RECORD
  5
8F9
330
1
100
AcDbSymbolTableRecord
100
AcDbBlockTableRecord
  2
*D4
340
0
  0
BLOCK_RECORD
  5
905
330
1
100
AcDbSymbolTableRecord
100
AcDbBlockTableRecord
  2
*D5
340
0
  0
BLOCK_RECORD
  5
A1B
330
1
100
AcDbSymbolTableRecord
100
AcDbBlockTableRecord
  2
*D6
340
0
  0
BLOCK_RECORD
  5
A29
330
1
100
AcDbSymbolTableRecord
100
AcDbBlockTableRecord
  2
*D7
340
0
  0
BLOCK_RECORD
  5
A37
330
1
100
AcDbSymbolTableRecord
100
AcDbBlockTableRecord
  2
*D8
340
0
  0
BLOCK_RECORD
  5
A45
330
1
100
AcDbSymbolTableRecord
100
AcDbBlockTableRecord
  2
*D9
340
0
  0
BLOCK_RECORD
  5
A53
330
1
100
AcDbSymbolTableRecord
100
AcDbBlockTableRecord
  2
*D10
340
0
  0
BLOCK_RECORD
  5
A61
330
1
100
AcDbSymbolTableRecord
100
AcDbBlockTableRecord
  2
*D11
340
0
  0
BLOCK_RECORD
  5
A6F
330
1
100
AcDbSymbolTableRecord
100
AcDbBlockTableRecord
  2
*D12
340
0
  0
BLOCK_RECORD
  5
A7D
330
1
100
AcDbSymbolTableRecord
100
AcDbBlockTableRecord
  2
*D13
340
0
  0
BLOCK_RECORD
  5
A8B
330
1
100
AcDbSymbolTableRecord
100
AcDbBlockTableRecord
  2
*D14
340
0
  0
BLOCK_RECORD
  5
A99
330
1
100
AcDbSymbolTableRecord
100
AcDbBlockTableRecord
  2
*D15
340
0
  0
ENDTAB
  0
ENDSEC
  0
SECTION
  2
BLOCKS
  0
BLOCK
  5
37
330
36
100
AcDbEntity
  8
0
100
AcDbBlockBegin
  2
*Model_Space
 70
     0
 10
0.0
 20
0.0
 30
0.0
  3
*Model_Space
  1

  0
ENDBLK
  5
38
330
36
100
AcDbEntity
  8
0
100
AcDbBlockEnd
  0
BLOCK
  5
33
330
32
100
AcDbEntity
 67
     1
  8
0
100
AcDbBlockBegin
  2
*Paper_Space
 70
     0
 10
0.0
 20
0.0
 30
0.0
  3
*Paper_Space
  1

  0
ENDBLK
  5
34
330
32
100
AcDbEntity
 67
     1
  8
0
100
AcDbBlockEnd
  0
BLOCK
  5
3D1
330
3D0
100
AcDbEntity
  8
0
100
AcDbBlockBegin
  2
_Open30
 70
     0
 10
0.0
 20
0.0
 30
0.0
  3
_Open30
  1

  0
LINE
  5
3D2
330
3D0
100
AcDbEntity
  8
0
  6
ByBlock
 62
     0
370
    -2
100
AcDbLine
 10
-1.0
 20
0.267949
 30
0.0
 11
0.0
 21
0.0
 31
0.0
  0
LINE
  5
3D3
330
3D0
100
AcDbEntity
  8
0
  6
ByBlock
 62
     0
370
    -2
100
AcDbLine
 10
0.0
 20
0.0
 30
0.0
 11
-1.0
 21
-0.267949
 31
0.0
  0
LINE
  5
3D4
330
3D0
100
AcDbEntity
  8
0
  6
ByBlock
 62
     0
370
    -2
100
AcDbLine
 10
0.0
 20
0.0
 30
0.0
 11
-1.0
 21
0.0
 31
0.0
  0
ENDBLK
  5
3D5
330
3D0
100
AcDbEntity
  8
0
100
AcDbBlockEnd
  0
BLOCK
  5
8D6
330
8D5
100
AcDbEntity
  8
0
100
AcDbBlockBegin
  2
*D1
 70
     1
 10
0.0
 20
0.0
 30
0.0
  3
*D1
  1

  0
LINE
  5
C2C
330
8D5
100
AcDbEntity
  8
0
 62
     0
370
    -2
100
AcDbLine
 10
-373.7683864358988
 20
4.796716286009271
 30
0.0
 11
-373.7683864358988
 21
-11.29134671399072
 31
0.0
  0
LINE
  5
C2D
330
8D5
100
AcDbEntity
  8
0
 62
     0
370
    -2
100
AcDbLine
 10
-245.5548274358987
 20
7.03457128600928
 30
0.0
 11
-245.5548274358987
 21
-11.29134671399072
 31
0.0
  0
LINE
  5
C2E
330
8D5
100
AcDbEntity
  8
0
 62
     0
370
    -2
100
AcDbLine
 10
-371.2683864358989
 20
-10.04134671399072
 30
0.0
 11
-248.0548274358987
 21
-10.04134671399072
 31
0.0
  0
INSERT
  5
C2F
330
8D5
100
AcDbEntity
  8
0
 62
     0
370
    -2
100
AcDbBlockReference
  2
_Open30
 10
-373.7683864358988
 20
-10.04134671399072
 30
0.0
 41
2.5
 42
2.5
 43
2.5
 50
180.0
  0
INSERT
  5
C30
330
8D5
100
AcDbEntity
  8
0
 62
     0
370
    -2
100
AcDbBlockReference
  2
_Open30
 10
-245.5548274358987
 20
-10.04134671399072
 30
0.0
 41
2.5
 42
2.5
 43
2.5
  0
MTEXT
  5
C31
330
8D5
100
AcDbEntity
  8
0
 62
     4
100
AcDbMText
 10
-309.6616069358987
 20
-7.916346713990719
 30
0.0
 40
3.0
 41
0.0
 71
     5
 72
     1
  1
電線長さ
 73
     1
 44
1.0
1001
ACAD
1000
MTEXTBEGIN
1070
    73
1070
     1
1070
    44
1040
1.0
1070
    74
1070
     0
1000
MTEXTEND
  0
POINT
  5
C32
330
8D5
100
AcDbEntity
  8
Defpoints
 62
     0
100
AcDbPoint
 10
-373.7683864358988
 20
5.046716286009271
 30
0.0
  0
POINT
  5
C33
330
8D5
100
AcDbEntity
  8
Defpoints
 62
     0
100
AcDbPoint
 10
-245.5548274358987
 20
7.28457128600928
 30
0.0
  0
POINT
  5
C34
330
8D5
100
AcDbEntity
  8
Defpoints
 62
     0
100
AcDbPoint
 10
-245.5548274358987
 20
-10.04134671399072
 30
0.0
  0
ENDBLK
  5
8D7
330
8D5
100
AcDbEntity
  8
0
100
AcDbBlockEnd
  0
BLOCK
  5
8E2
330
8E1
100
AcDbEntity
  8
0
100
AcDbBlockBegin
  2
*D2
 70
     1
 10
0.0
 20
0.0
 30
0.0
  3
*D2
  1

  0
LINE
  5
C06
330
8E1
100
AcDbEntity
  8
0
 62
     0
370
    -2
100
AcDbLine
 10
-220.7676074358988
 20
21.00610928600928
 30
0.0
 11
-220.7676074358988
 21
-3.457719713990726
 31
0.0
  0
LINE
  5
C07
330
8E1
100
AcDbEntity
  8
0
 62
     0
370
    -2
100
AcDbLine
 10
-190.2676074358987
 20
21.00610928600928
 30
0.0
 11
-190.2676074358987
 21
-3.457719713990726
 31
0.0
  0
LINE
  5
C08
330
8E1
100
AcDbEntity
  8
0
 62
     0
370
    -2
100
AcDbLine
 10
-218.2676074358988
 20
-2.207719713990726
 30
0.0
 11
-192.7676074358987
 21
-2.207719713990726
 31
0.0
  0
INSERT
  5
C09
330
8E1
100
AcDbEntity
  8
0
 62
     0
370
    -2
100
AcDbBlockReference
  2
_Open30
 10
-220.7676074358988
 20
-2.207719713990726
 30
0.0
 41
2.5
 42
2.5
 43
2.5
 50
180.0
  0
INSERT
  5
C0A
330
8E1
100
AcDbEntity
  8
0
 62
     0
370
    -2
100
AcDbBlockReference
  2
_Open30
 10
-190.2676074358987
 20
-2.207719713990726
 30
0.0
 41
2.5
 42
2.5
 43
2.5
  0
MTEXT
  5
C0B
330
8E1
100
AcDbEntity
  8
0
 62
     4
100
AcDbMText
 10
-205.5176074358988
 20
-0.0827197139907261
 30
0.0
 40
3.0
 41
0.0
 71
     5
 72
     1
  1
%%C61
 73
     1
 44
1.0
1001
ACAD
1000
MTEXTBEGIN
1070
    73
1070
     1
1070
    44
1040
1.0
1070
    74
1070
     0
1000
MTEXTEND
  0
POINT
  5
C0C
330
8E1
100
AcDbEntity
  8
Defpoints
 62
     0
100
AcDbPoint
 10
-220.7676074358988
 20
21.25610928600928
 30
0.0
  0
POINT
  5
C0D
330
8E1
100
AcDbEntity
  8
Defpoints
 62
     0
100
AcDbPoint
 10
-190.2676074358987
 20
21.25610928600928
 30
0.0
  0
POINT
  5
C0E
330
8E1
100
AcDbEntity
  8
Defpoints
 62
     0
100
AcDbPoint
 10
-190.2676074358987
 20
-2.207719713990726
 30
0.0
  0
ENDBLK
  5
8E3
330
8E1
100
AcDbEntity
  8
0
100
AcDbBlockEnd
  0
BLOCK
  5
8EE
330
8ED
100
AcDbEntity
  8
0
100
AcDbBlockBegin
  2
*D3
 70
     1
 10
0.0
 20
0.0
 30
0.0
  3
*D3
  1

  0
LINE
  5
C0F
330
8ED
100
AcDbEntity
  8
0
 62
     0
370
    -2
100
AcDbLine
 10
-297.8048274358987
 20
18.04671628600928
 30
0.0
 11
-297.8048274358987
 21
-3.457719713990726
 31
0.0
  0
LINE
  5
C10
330
8ED
100
AcDbEntity
  8
0
 62
     0
370
    -2
100
AcDbLine
 10
-245.5548274358987
 20
7.03457128600928
 30
0.0
 11
-245.5548274358987
 21
-3.457719713990726
 31
0.0
  0
LINE
  5
C11
330
8ED
100
AcDbEntity
  8
0
 62
     0
370
    -2
100
AcDbLine
 10
-295.3048274358987
 20
-2.207719713990726
 30
0.0
 11
-248.0548274358987
 21
-2.207719713990726
 31
0.0
  0
INSERT
  5
C12
330
8ED
100
AcDbEntity
  8
0
 62
     0
370
    -2
100
AcDbBlockReference
  2
_Open30
 10
-297.8048274358987
 20
-2.207719713990726
 30
0.0
 41
2.5
 42
2.5
 43
2.5
 50
180.0
  0
INSERT
  5
C13
330
8ED
100
AcDbEntity
  8
0
 62
     0
370
    -2
100
AcDbBlockReference
  2
_Open30
 10
-245.5548274358987
 20
-2.207719713990726
 30
0.0
 41
2.5
 42
2.5
 43
2.5
  0
MTEXT
  5
C14
330
8ED
100
AcDbEntity
  8
0
 62
     4
100
AcDbMText
 10
-271.6798274358987
 20
-0.0827197139907261
 30
0.0
 40
3.0
 41
0.0
 71
     5
 72
     1
  1
104
 73
     1
 44
1.0
1001
ACAD
1000
MTEXTBEGIN
1070
    73
1070
     1
1070
    44
1040
1.0
1070
    74
1070
     0
1000
MTEXTEND
  0
POINT
  5
C15
330
8ED
100
AcDbEntity
  8
Defpoints
 62
     0
100
AcDbPoint
 10
-297.8048274358987
 20
18.29671628600928
 30
0.0
  0
POINT
  5
C16
330
8ED
100
AcDbEntity
  8
Defpoints
 62
     0
100
AcDbPoint
 10
-245.5548274358987
 20
7.28457128600928
 30
0.0
  0
POINT
  5
C17
330
8ED
100
AcDbEntity
  8
Defpoints
 62
     0
100
AcDbPoint
 10
-245.5548274358987
 20
-2.207719713990726
 30
0.0
  0
ENDBLK
  5
8EF
330
8ED
100
AcDbEntity
  8
0
100
AcDbBlockEnd
  0
BLOCK
  5
8FA
330
8F9
100
AcDbEntity
  8
0
100
AcDbBlockBegin
  2
*D4
 70
     1
 10
0.0
 20
0.0
 30
0.0
  3
*D4
  1

  0
LINE
  5
C18
330
8F9
100
AcDbEntity
  8
0
 62
     0
370
    -2
100
AcDbLine
 10
-373.7683864358988
 20
4.796716286009271
 30
0.0
 11
-373.7683864358988
 21
-3.457719713990726
 31
0.0
  0
LINE
  5
C19
330
8F9
100
AcDbEntity
  8
0
 62
     0
370
    -2
100
AcDbLine
 10
-321.2683864358987
 20
18.04671628600928
 30
0.0
 11
-321.2683864358987
 21
-3.457719713990726
 31
0.0
  0
LINE
  5
C1A
330
8F9
100
AcDbEntity
  8
0
 62
     0
370
    -2
100
AcDbLine
 10
-371.2683864358989
 20
-2.207719713990726
 30
0.0
 11
-323.7683864358987
 21
-2.207719713990726
 31
0.0
  0
INSERT
  5
C1B
330
8F9
100
AcDbEntity
  8
0
 62
     0
370
    -2
100
AcDbBlockReference
  2
_Open30
 10
-373.7683864358988
 20
-2.207719713990726
 30
0.0
 41
2.5
 42
2.5
 43
2.5
 50
180.0
  0
INSERT
  5
C1C
330
8F9
100
AcDbEntity
  8
0
 62
     0
370
    -2
100
AcDbBlockReference
  2
_Open30
 10
-321.2683864358987
 20
-2.207719713990726
 30
0.0
 41
2.5
 42
2.5
 43
2.5
  0
MTEXT
  5
C1D
330
8F9
100
AcDbEntity
  8
0
 62
     4
100
AcDbMText
 10
-347.5183864358988
 20
-0.0827197139907261
 30
0.0
 40
3.0
 41
0.0
 71
     5
 72
     1
  1
105
 73
     1
 44
1.0
1001
ACAD
1000
MTEXTBEGIN
1070
    73
1070
     1
1070
    44
1040
1.0
1070
    74
1070
     0
1000
MTEXTEND
  0
POINT
  5
C1E
330
8F9
100
AcDbEntity
  8
Defpoints
 62
     0
100
AcDbPoint
 10
-373.7683864358988
 20
5.046716286009271
 30
0.0
  0
POINT
  5
C1F
330
8F9
100
AcDbEntity
  8
Defpoints
 62
     0
100
AcDbPoint
 10
-321.2683864358987
 20
18.29671628600928
 30
0.0
  0
POINT
  5
C20
330
8F9
100
AcDbEntity
  8
Defpoints
 62
     0
100
AcDbPoint
 10
-321.2683864358987
 20
-2.207719713990726
 30
0.0
  0
ENDBLK
  5
8FB
330
8F9
100
AcDbEntity
  8
0
100
AcDbBlockEnd
  0
BLOCK
  5
906
330
905
100
AcDbEntity
  8
0
100
AcDbBlockBegin
  2
*D5
 70
     1
 10
0.0
 20
0.0
 30
0.0
  3
*D5
  1

  0
LINE
  5
C21
330
905
100
AcDbEntity
  8
0
 62
     0
370
    -2
100
AcDbLine
 10
-423.6659524358986
 20
21.01052228600928
 30
0.0
 11
-423.6659524358986
 21
-3.457719713990726
 31
0.0
  0
LINE
  5
C22
330
905
100
AcDbEntity
  8
0
 62
     0
370
    -2
100
AcDbLine
 10
-390.6659524358988
 20
21.01052228600928
 30
0.0
 11
-390.6659524358988
 21
-3.457719713990726
 31
0.0
  0
LINE
  5
C23
330
905
100
AcDbEntity
  8
0
 62
     0
370
    -2
100
AcDbLine
 10
-421.1659524358986
 20
-2.207719713990726
 30
0.0
 11
-393.1659524358988
 21
-2.207719713990726
 31
0.0
  0
INSERT
  5
C24
330
905
100
AcDbEntity
  8
0
 62
     0
370
    -2
100
AcDbBlockReference
  2
_Open30
 10
-423.6659524358986
 20
-2.207719713990726
 30
0.0
 41
2.5
 42
2.5
 43
2.5
 50
180.0
  0
INSERT
  5
C25
330
905
100
AcDbEntity
  8
0
 62
     0
370
    -2
100
AcDbBlockReference
  2
_Open30
 10
-390.6659524358988
 20
-2.207719713990726
 30
0.0
 41
2.5
 42
2.5
 43
2.5
  0
MTEXT
  5
C26
330
905
100
AcDbEntity
  8
0
 62
     4
100
AcDbMText
 10
-407.1659524358986
 20
-0.0827197139907261
 30
0.0
 40
3.0
 41
0.0
 71
     5
 72
     1
  1
%%C65
 73
     1
 44
1.0
1001
ACAD
1000
MTEXTBEGIN
1070
    73
1070
     1
1070
    44
1040
1.0
1070
    74
1070
     0
1000
MTEXTEND
  0
POINT
  5
C27
330
905
100
AcDbEntity
  8
Defpoints
 62
     0
100
AcDbPoint
 10
-423.6659524358986
 20
21.26052228600928
 30
0.0
  0
POINT
  5
C28
330
905
100
AcDbEntity
  8
Defpoints
 62
     0
100
AcDbPoint
 10
-390.6659524358988
 20
21.26052228600928
 30
0.0
  0
POINT
  5
C29
330
905
100
AcDbEntity
  8
Defpoints
 62
     0
100
AcDbPoint
 10
-390.6659524358988
 20
-2.207719713990726
 30
0.0
  0
ENDBLK
  5
907
330
905
100
AcDbEntity
  8
0
100
AcDbBlockEnd
  0
BLOCK
  5
A1C
330
A1B
100
AcDbEntity
  8
0
100
AcDbBlockBegin
  2
*D6
 70
     1
 10
0.0
 20
0.0
 30
0.0
  3
*D6
  1

  0
LINE
  5
B13
330
A1B
100
AcDbEntity
  8
0
 62
     0
370
    -2
100
AcDbLine
 10
-70.78167376421998
 20
86.84607997939611
 30
0.0
 11
-70.78167376421998
 21
83.93644855738726
 31
0.0
  0
LINE
  5
B14
330
A1B
100
AcDbEntity
  8
0
 62
     0
370
    -2
100
AcDbLine
 10
-73.2388608183403
 20
86.84607997939611
 30
0.0
 11
-73.2388608183403
 21
83.93644855738726
 31
0.0
  0
LINE
  5
B15
330
A1B
100
AcDbEntity
  8
0
 62
     0
370
    -2
100
AcDbLine
 10
-68.28167376421999
 20
85.18644855738726
 30
0.0
 11
-65.78167376421999
 21
85.18644855738726
 31
0.0
  0
LINE
  5
B16
330
A1B
100
AcDbEntity
  8
0
 62
     0
370
    -2
100
AcDbLine
 10
-75.7388608183403
 20
85.18644855738726
 30
0.0
 11
-88.48886081834029
 21
85.18644855738726
 31
0.0
  0
LINE
  5
B17
330
A1B
100
AcDbEntity
  8
0
 62
     0
370
    -2
100
AcDbLine
 10
-70.78167376421998
 20
85.18644855738726
 30
0.0
 11
-73.2388608183403
 21
85.18644855738726
 31
0.0
  0
INSERT
  5
B18
330
A1B
100
AcDbEntity
  8
0
 62
     0
370
    -2
100
AcDbBlockReference
  2
_Open30
 10
-70.78167376421998
 20
85.18644855738726
 30
0.0
 41
2.5
 42
2.5
 43
2.5
 50
180.0
  0
INSERT
  5
B19
330
A1B
100
AcDbEntity
  8
0
 62
     0
370
    -2
100
AcDbBlockReference
  2
_Open30
 10
-73.2388608183403
 20
85.18644855738726
 30
0.0
 41
2.5
 42
2.5
 43
2.5
  0
MTEXT
  5
B1A
330
A1B
100
AcDbEntity
  8
0
 62
     4
100
AcDbMText
 10
-83.3638608183403
 20
87.31144855738728
 30
0.0
 40
3.0
 41
0.0
 71
     5
 72
     1
  1
2.46
 73
     1
 44
1.0
1001
ACAD
1000
MTEXTBEGIN
1070
    73
1070
     1
1070
    44
1040
1.0
1070
    74
1070
     0
1000
MTEXTEND
  0
POINT
  5
B1B
330
A1B
100
AcDbEntity
  8
Defpoints
 62
     0
100
AcDbPoint
 10
-70.78167376421998
 20
87.09607997939611
 30
0.0
  0
POINT
  5
B1C
330
A1B
100
AcDbEntity
  8
Defpoints
 62
     0
100
AcDbPoint
 10
-73.2388608183403
 20
87.09607997939611
 30
0.0
  0
POINT
  5
B1D
330
A1B
100
AcDbEntity
  8
Defpoints
 62
     0
100
AcDbPoint
 10
-73.2388608183403
 20
85.18644855738726
 30
0.0
  0
ENDBLK
  5
A1D
330
A1B
100
AcDbEntity
  8
0
100
AcDbBlockEnd
  0
BLOCK
  5
A2A
330
A29
100
AcDbEntity
  8
0
100
AcDbBlockBegin
  2
*D7
 70
     1
 10
0.0
 20
0.0
 30
0.0
  3
*D7
  1

  0
LINE
  5
B1E
330
A29
100
AcDbEntity
  8
0
 62
     0
370
    -2
100
AcDbLine
 10
-69.1435488581468
 20
81.38999040663373
 30
0.0
 11
-69.1435488581468
 21
78.8440983371704
 31
0.0
  0
LINE
  5
B1F
330
A29
100
AcDbEntity
  8
0
 62
     0
370
    -2
100
AcDbLine
 10
-72.23778465628971
 20
81.38999040663373
 30
0.0
 11
-72.23778465628971
 21
78.8440983371704
 31
0.0
  0
LINE
  5
B20
330
A29
100
AcDbEntity
  8
0
 62
     0
370
    -2
100
AcDbLine
 10
-66.6435488581468
 20
80.09409833717041
 30
0.0
 11
-64.1435488581468
 21
80.09409833717041
 31
0.0
  0
LINE
  5
B21
330
A29
100
AcDbEntity
  8
0
 62
     0
370
    -2
100
AcDbLine
 10
-74.73778465628971
 20
80.09409833717041
 30
0.0
 11
-88.57111798962305
 21
80.09409833717041
 31
0.0
  0
LINE
  5
B22
330
A29
100
AcDbEntity
  8
0
 62
     0
370
    -2
100
AcDbLine
 10
-69.1435488581468
 20
80.09409833717041
 30
0.0
 11
-72.23778465628971
 21
80.09409833717041
 31
0.0
  0
INSERT
  5
B23
330
A29
100
AcDbEntity
  8
0
 62
     0
370
    -2
100
AcDbBlockReference
  2
_Open30
 10
-69.1435488581468
 20
80.09409833717041
 30
0.0
 41
2.5
 42
2.5
 43
2.5
 50
180.0
  0
INSERT
  5
B24
330
A29
100
AcDbEntity
  8
0
 62
     0
370
    -2
100
AcDbBlockReference
  2
_Open30
 10
-72.23778465628971
 20
80.09409833717041
 30
0.0
 41
2.5
 42
2.5
 43
2.5
  0
MTEXT
  5
B25
330
A29
100
AcDbEntity
  8
0
 62
     4
100
AcDbMText
 10
-83.3627846562897
 20
81.96909833717041
 30
0.0
 40
2.5
 41
0.0
 71
     5
 72
     1
  1
15.47
  7
高2.5
 73
     1
 44
1.0
1001
ACAD
1000
MTEXTBEGIN
1070
    73
1070
     1
1070
    44
1040
1.0
1070
    74
1070
     0
1000
MTEXTEND
  0
POINT
  5
B26
330
A29
100
AcDbEntity
  8
Defpoints
 62
     0
100
AcDbPoint
 10
-69.1435488581468
 20
81.63999040663373
 30
0.0
  0
POINT
  5
B27
330
A29
100
AcDbEntity
  8
Defpoints
 62
     0
100
AcDbPoint
 10
-72.23778465628971
 20
81.63999040663373
 30
0.0
  0
POINT
  5
B28
330
A29
100
AcDbEntity
  8
Defpoints
 62
     0
100
AcDbPoint
 10
-72.23778465628971
 20
80.09409833717041
 30
0.0
  0
ENDBLK
  5
A2B
330
A29
100
AcDbEntity
  8
0
100
AcDbBlockEnd
  0
BLOCK
  5
A38
330
A37
100
AcDbEntity
  8
0
100
AcDbBlockBegin
  2
*D8
 70
     1
 10
0.0
 20
0.0
 30
0.0
  3
*D8
  1

  0
LINE
  5
B29
330
A37
100
AcDbEntity
  8
0
 62
     0
370
    -2
100
AcDbLine
 10
-67.41441725006132
 20
75.93390069078727
 30
0.0
 11
-67.41441725006132
 21
73.66081302841997
 31
0.0
  0
LINE
  5
B2A
330
A37
100
AcDbEntity
  8
0
 62
     0
370
    -2
100
AcDbLine
 10
-71.41872220325314
 20
75.93390069078727
 30
0.0
 11
-71.41872220325314
 21
73.66081302841997
 31
0.0
  0
LINE
  5
B2B
330
A37
100
AcDbEntity
  8
0
 62
     0
370
    -2
100
AcDbLine
 10
-64.91441725006132
 20
74.91081302841997
 30
0.0
 11
-62.41441725006132
 21
74.91081302841997
 31
0.0
  0
LINE
  5
B2C
330
A37
100
AcDbEntity
  8
0
 62
     0
370
    -2
100
AcDbLine
 10
-73.91872220325314
 20
74.91081302841997
 30
0.0
 11
-85.66872220325313
 21
74.91081302841997
 31
0.0
  0
LINE
  5
B2D
330
A37
100
AcDbEntity
  8
0
 62
     0
370
    -2
100
AcDbLine
 10
-67.41441725006132
 20
74.91081302841997
 30
0.0
 11
-71.41872220325314
 21
74.91081302841997
 31
0.0
  0
INSERT
  5
B2E
330
A37
100
AcDbEntity
  8
0
 62
     0
370
    -2
100
AcDbBlockReference
  2
_Open30
 10
-67.41441725006132
 20
74.91081302841997
 30
0.0
 41
2.5
 42
2.5
 43
2.5
 50
180.0
  0
INSERT
  5
B2F
330
A37
100
AcDbEntity
  8
0
 62
     0
370
    -2
100
AcDbBlockReference
  2
_Open30
 10
-71.41872220325314
 20
74.91081302841997
 30
0.0
 41
2.5
 42
2.5
 43
2.5
  0
MTEXT
  5
B30
330
A37
100
AcDbEntity
  8
0
 62
     4
100
AcDbMText
 10
-81.04372220325315
 20
77.13581302841994
 30
0.0
 40
3.2
 41
0.0
 71
     5
 72
     1
  1
8.01
  7
高3.2
 73
     1
 44
1.0
1001
ACAD
1000
MTEXTBEGIN
1070
    73
1070
     1
1070
    44
1040
1.0
1070
    74
1070
     0
1000
MTEXTEND
  0
POINT
  5
B31
330
A37
100
AcDbEntity
  8
Defpoints
 62
     0
100
AcDbPoint
 10
-67.41441725006132
 20
76.18390069078725
 30
0.0
  0
POINT
  5
B32
330
A37
100
AcDbEntity
  8
Defpoints
 62
     0
100
AcDbPoint
 10
-71.41872220325314
 20
76.18390069078725
 30
0.0
  0
POINT
  5
B33
330
A37
100
AcDbEntity
  8
Defpoints
 62
     0
100
AcDbPoint
 10
-71.41872220325314
 20
74.91081302841997
 30
0.0
  0
ENDBLK
  5
A39
330
A37
100
AcDbEntity
  8
0
100
AcDbBlockEnd
  0
BLOCK
  5
A46
330
A45
100
AcDbEntity
  8
0
100
AcDbBlockBegin
  2
*D9
 70
     1
 10
0.0
 20
0.0
 30
0.0
  3
*D9
  1

  0
LINE
  5
B34
330
A45
100
AcDbEntity
  8
0
 62
     0
370
    -2
100
AcDbLine
 10
-67.50542395207361
 20
70.65968072275564
 30
0.0
 11
-67.50542395207361
 21
68.84126721529923
 31
0.0
  0
LINE
  5
B35
330
A45
100
AcDbEntity
  8
0
 62
     0
370
    -2
100
AcDbLine
 10
-72.23778465628971
 20
70.65968072275564
 30
0.0
 11
-72.23778465628971
 21
68.84126721529923
 31
0.0
  0
LINE
  5
B36
330
A45
100
AcDbEntity
  8
0
 62
     0
370
    -2
100
AcDbLine
 10
-65.00542395207361
 20
70.09126721529923
 30
0.0
 11
-62.50542395207361
 21
70.09126721529923
 31
0.0
  0
LINE
  5
B37
330
A45
100
AcDbEntity
  8
0
 62
     0
370
    -2
100
AcDbLine
 10
-74.73778465628971
 20
70.09126721529923
 30
0.0
 11
-96.48778465628971
 21
70.09126721529923
 31
0.0
  0
LINE
  5
B38
330
A45
100
AcDbEntity
  8
0
 62
     0
370
    -2
100
AcDbLine
 10
-67.50542395207361
 20
70.09126721529923
 30
0.0
 11
-72.23778465628971
 21
70.09126721529923
 31
0.0
  0
INSERT
  5
B39
330
A45
100
AcDbEntity
  8
0
 62
     0
370
    -2
100
AcDbBlockReference
  2
_Open30
 10
-67.50542395207361
 20
70.09126721529923
 30
0.0
 41
2.5
 42
2.5
 43
2.5
 50
180.0
  0
INSERT
  5
B3A
330
A45
100
AcDbEntity
  8
0
 62
     0
370
    -2
100
AcDbBlockReference
  2
_Open30
 10
-72.23778465628971
 20
70.09126721529923
 30
0.0
 41
2.5
 42
2.5
 43
2.5
  0
MTEXT
  5
B3B
330
A45
100
AcDbEntity
  8
0
 62
     4
100
AcDbMText
 10
-86.86278465628971
 20
72.96626721529924
 30
0.0
 40
4.5
 41
0.0
 71
     5
 72
     1
  1
47.32
  7
高4.5
 73
     1
 44
1.0
1001
ACAD
1000
MTEXTBEGIN
1070
    73
1070
     1
1070
    44
1040
1.0
1070
    74
1070
     0
1000
MTEXTEND
  0
POINT
  5
B3C
330
A45
100
AcDbEntity
  8
Defpoints
 62
     0
100
AcDbPoint
 10
-67.50542395207361
 20
70.90968072275564
 30
0.0
  0
POINT
  5
B3D
330
A45
100
AcDbEntity
  8
Defpoints
 62
     0
100
AcDbPoint
 10
-72.23778465628971
 20
70.90968072275564
 30
0.0
  0
POINT
  5
B3E
330
A45
100
AcDbEntity
  8
Defpoints
 62
     0
100
AcDbPoint
 10
-72.23778465628971
 20
70.09126721529923
 30
0.0
  0
ENDBLK
  5
A47
330
A45
100
AcDbEntity
  8
0
100
AcDbBlockEnd
  0
BLOCK
  5
A54
330
A53
100
AcDbEntity
  8
0
100
AcDbBlockBegin
  2
*D10
 70
     1
 10
0.0
 20
0.0
 30
0.0
  3
*D10
  1

  0
LINE
  5
B3F
330
A53
100
AcDbEntity
  8
0
 62
     0
370
    -2
100
AcDbLine
 10
-46.02778768406614
 20
86.84607997939611
 30
0.0
 11
-46.02778768406614
 21
83.93644855738726
 31
0.0
  0
LINE
  5
B40
330
A53
100
AcDbEntity
  8
0
 62
     0
370
    -2
100
AcDbLine
 10
-48.48497473818645
 20
86.84607997939611
 30
0.0
 11
-48.48497473818645
 21
83.93644855738726
 31
0.0
  0
LINE
  5
B41
330
A53
100
AcDbEntity
  8
0
 62
     0
370
    -2
100
AcDbLine
 10
-43.52778768406614
 20
85.18644855738726
 30
0.0
 11
-41.02778768406614
 21
85.18644855738726
 31
0.0
  0
LINE
  5
B42
330
A53
100
AcDbEntity
  8
0
 62
     0
370
    -2
100
AcDbLine
 10
-50.98497473818645
 20
85.18644855738726
 30
0.0
 11
-72.58497473818646
 21
85.18644855738726
 31
0.0
  0
LINE
  5
B43
330
A53
100
AcDbEntity
  8
0
 62
     0
370
    -2
100
AcDbLine
 10
-46.02778768406614
 20
85.18644855738726
 30
0.0
 11
-48.48497473818645
 21
85.18644855738726
 31
0.0
  0
INSERT
  5
B44
330
A53
100
AcDbEntity
  8
0
 62
     0
370
    -2
100
AcDbBlockReference
  2
_Open30
 10
-46.02778768406614
 20
85.18644855738726
 30
0.0
 41
2.5
 42
2.5
 43
2.5
 50
180.0
  0
INSERT
  5
B45
330
A53
100
AcDbEntity
  8
0
 62
     0
370
    -2
100
AcDbBlockReference
  2
_Open30
 10
-48.48497473818645
 20
85.18644855738726
 30
0.0
 41
2.5
 42
2.5
 43
2.5
  0
MTEXT
  5
B46
330
A53
100
AcDbEntity
  8
0
 62
     4
100
AcDbMText
 10
-63.03497473818646
 20
88.96144855738731
 30
0.0
 40
6.299999999999998
 41
0.0
 71
     5
 72
     1
  1
0.25
  7
高6.3
 73
     1
 44
1.0
1001
ACAD
1000
MTEXTBEGIN
1070
    73
1070
     1
1070
    44
1040
1.0
1070
    74
1070
     0
1000
MTEXTEND
  0
POINT
  5
B47
330
A53
100
AcDbEntity
  8
Defpoints
 62
     0
100
AcDbPoint
 10
-46.02778768406614
 20
87.09607997939611
 30
0.0
  0
POINT
  5
B48
330
A53
100
AcDbEntity
  8
Defpoints
 62
     0
100
AcDbPoint
 10
-48.48497473818645
 20
87.09607997939611
 30
0.0
  0
POINT
  5
B49
330
A53
100
AcDbEntity
  8
Defpoints
 62
     0
100
AcDbPoint
 10
-48.48497473818645
 20
85.18644855738726
 30
0.0
  0
ENDBLK
  5
A55
330
A53
100
AcDbEntity
  8
0
100
AcDbBlockEnd
  0
BLOCK
  5
A62
330
A61
100
AcDbEntity
  8
0
100
AcDbBlockBegin
  2
*D11
 70
     1
 10
0.0
 20
0.0
 30
0.0
  3
*D11
  1

  0
LINE
  5
B4A
330
A61
100
AcDbEntity
  8
0
 62
     0
370
    -2
100
AcDbLine
 10
-44.38966277799295
 20
81.38999040663373
 30
0.0
 11
-44.38966277799295
 21
78.8440983371704
 31
0.0
  0
LINE
  5
B4B
330
A61
100
AcDbEntity
  8
0
 62
     0
370
    -2
100
AcDbLine
 10
-47.48389857613585
 20
81.38999040663373
 30
0.0
 11
-47.48389857613585
 21
78.8440983371704
 31
0.0
  0
LINE
  5
B4C
330
A61
100
AcDbEntity
  8
0
 62
     0
370
    -2
100
AcDbLine
 10
-41.88966277799295
 20
80.09409833717041
 30
0.0
 11
-39.38966277799295
 21
80.09409833717041
 31
0.0
  0
LINE
  5
B4D
330
A61
100
AcDbEntity
  8
0
 62
     0
370
    -2
100
AcDbLine
 10
-49.98389857613585
 20
80.09409833717041
 30
0.0
 11
-61.98389857613586
 21
80.09409833717041
 31
0.0
  0
LINE
  5
B4E
330
A61
100
AcDbEntity
  8
0
 62
     0
370
    -2
100
AcDbLine
 10
-44.38966277799295
 20
80.09409833717041
 30
0.0
 11
-47.48389857613585
 21
80.09409833717041
 31
0.0
  0
INSERT
  5
B4F
330
A61
100
AcDbEntity
  8
0
 62
     0
370
    -2
100
AcDbBlockReference
  2
_Open30
 10
-44.38966277799295
 20
80.09409833717041
 30
0.0
 41
2.5
 42
2.5
 43
2.5
 50
180.0
  0
INSERT
  5
B50
330
A61
100
AcDbEntity
  8
0
 62
     0
370
    -2
100
AcDbBlockReference
  2
_Open30
 10
-47.48389857613585
 20
80.09409833717041
 30
0.0
 41
2.5
 42
2.5
 43
2.5
  0
MTEXT
  5
B51
330
A61
100
AcDbEntity
  8
0
 62
     4
100
AcDbMText
 10
-57.35889857613585
 20
82.2190983371704
 30
0.0
 40
3.0
 41
0.0
 71
     5
 72
     1
  1
1.55
 73
     1
 44
1.0
1001
ACAD
1000
MTEXTBEGIN
1070
    73
1070
     1
1070
    44
1040
1.0
1070
    74
1070
     0
1000
MTEXTEND
  0
POINT
  5
B52
330
A61
100
AcDbEntity
  8
Defpoints
 62
     0
100
AcDbPoint
 10
-44.38966277799295
 20
81.63999040663373
 30
0.0
  0
POINT
  5
B53
330
A61
100
AcDbEntity
  8
Defpoints
 62
     0
100
AcDbPoint
 10
-47.48389857613585
 20
81.63999040663373
 30
0.0
  0
POINT
  5
B54
330
A61
100
AcDbEntity
  8
Defpoints
 62
     0
100
AcDbPoint
 10
-47.48389857613585
 20
80.09409833717041
 30
0.0
  0
ENDBLK
  5
A63
330
A61
100
AcDbEntity
  8
0
100
AcDbBlockEnd
  0
BLOCK
  5
A70
330
A6F
100
AcDbEntity
  8
0
100
AcDbBlockBegin
  2
*D12
 70
     1
 10
0.0
 20
0.0
 30
0.0
  3
*D12
  1

  0
LINE
  5
B55
330
A6F
100
AcDbEntity
  8
0
 62
     0
370
    -2
100
AcDbLine
 10
-42.66053116990747
 20
75.93390069078727
 30
0.0
 11
-42.66053116990747
 21
73.66081302841997
 31
0.0
  0
LINE
  5
B56
330
A6F
100
AcDbEntity
  8
0
 62
     0
370
    -2
100
AcDbLine
 10
-46.66483612309929
 20
75.93390069078727
 30
0.0
 11
-46.66483612309929
 21
73.66081302841997
 31
0.0
  0
LINE
  5
B57
330
A6F
100
AcDbEntity
  8
0
 62
     0
370
    -2
100
AcDbLine
 10
-40.16053116990747
 20
74.91081302841997
 30
0.0
 11
-37.66053116990747
 21
74.91081302841997
 31
0.0
  0
LINE
  5
B58
330
A6F
100
AcDbEntity
  8
0
 62
     0
370
    -2
100
AcDbLine
 10
-49.16483612309929
 20
74.91081302841997
 30
0.0
 11
-57.49816945643262
 21
74.91081302841997
 31
0.0
  0
LINE
  5
B59
330
A6F
100
AcDbEntity
  8
0
 62
     0
370
    -2
100
AcDbLine
 10
-42.66053116990747
 20
74.91081302841997
 30
0.0
 11
-46.66483612309929
 21
74.91081302841997
 31
0.0
  0
INSERT
  5
B5A
330
A6F
100
AcDbEntity
  8
0
 62
     0
370
    -2
100
AcDbBlockReference
  2
_Open30
 10
-42.66053116990747
 20
74.91081302841997
 30
0.0
 41
2.5
 42
2.5
 43
2.5
 50
180.0
  0
INSERT
  5
B5B
330
A6F
100
AcDbEntity
  8
0
 62
     0
370
    -2
100
AcDbBlockReference
  2
_Open30
 10
-46.66483612309929
 20
74.91081302841997
 30
0.0
 41
2.5
 42
2.5
 43
2.5
  0
MTEXT
  5
B5C
330
A6F
100
AcDbEntity
  8
0
 62
     4
100
AcDbMText
 10
-55.03983612309929
 20
76.53581302841995
 30
0.0
 40
2.0
 41
0.0
 71
     5
 72
     1
  1
0.8
  7
高2
 73
     1
 44
1.0
1001
ACAD
1000
MTEXTBEGIN
1070
    73
1070
     1
1070
    44
1040
1.0
1070
    74
1070
     0
1000
MTEXTEND
  0
POINT
  5
B5D
330
A6F
100
AcDbEntity
  8
Defpoints
 62
     0
100
AcDbPoint
 10
-42.66053116990747
 20
76.18390069078725
 30
0.0
  0
POINT
  5
B5E
330
A6F
100
AcDbEntity
  8
Defpoints
 62
     0
100
AcDbPoint
 10
-46.66483612309929
 20
76.18390069078725
 30
0.0
  0
POINT
  5
B5F
330
A6F
100
AcDbEntity
  8
Defpoints
 62
     0
100
AcDbPoint
 10
-46.66483612309929
 20
74.91081302841997
 30
0.0
  0
ENDBLK
  5
A71
330
A6F
100
AcDbEntity
  8
0
100
AcDbBlockEnd
  0
BLOCK
  5
A7E
330
A7D
100
AcDbEntity
  8
0
100
AcDbBlockBegin
  2
*D13
 70
     1
 10
0.0
 20
0.0
 30
0.0
  3
*D13
  1

  0
LINE
  5
B60
330
A7D
100
AcDbEntity
  8
0
 62
     0
370
    -2
100
AcDbLine
 10
-42.75153787191976
 20
70.65968072275564
 30
0.0
 11
-42.75153787191976
 21
68.84126721529923
 31
0.0
  0
LINE
  5
B61
330
A7D
100
AcDbEntity
  8
0
 62
     0
370
    -2
100
AcDbLine
 10
-47.48389857613585
 20
70.65968072275564
 30
0.0
 11
-47.48389857613585
 21
68.84126721529923
 31
0.0
  0
LINE
  5
B62
330
A7D
100
AcDbEntity
  8
0
 62
     0
370
    -2
100
AcDbLine
 10
-40.25153787191976
 20
70.09126721529923
 30
0.0
 11
-37.75153787191977
 21
70.09126721529923
 31
0.0
  0
LINE
  5
B63
330
A7D
100
AcDbEntity
  8
0
 62
     0
370
    -2
100
AcDbLine
 10
-49.98389857613585
 20
70.09126721529923
 30
0.0
 11
-64.73389857613586
 21
70.09126721529923
 31
0.0
  0
LINE
  5
B64
330
A7D
100
AcDbEntity
  8
0
 62
     0
370
    -2
100
AcDbLine
 10
-42.75153787191976
 20
70.09126721529923
 30
0.0
 11
-47.48389857613585
 21
70.09126721529923
 31
0.0
  0
INSERT
  5
B65
330
A7D
100
AcDbEntity
  8
0
 62
     0
370
    -2
100
AcDbBlockReference
  2
_Open30
 10
-42.75153787191976
 20
70.09126721529923
 30
0.0
 41
2.5
 42
2.5
 43
2.5
 50
180.0
  0
INSERT
  5
B66
330
A7D
100
AcDbEntity
  8
0
 62
     0
370
    -2
100
AcDbBlockReference
  2
_Open30
 10
-47.48389857613585
 20
70.09126721529923
 30
0.0
 41
2.5
 42
2.5
 43
2.5
  0
MTEXT
  5
B67
330
A7D
100
AcDbEntity
  8
0
 62
     4
100
AcDbMText
 10
-58.60889857613585
 20
72.21626721529924
 30
0.0
 40
3.0
 41
0.0
 71
     5
 72
     1
  1
18.93
 73
     1
 44
1.0
1001
ACAD
1000
MTEXTBEGIN
1070
    73
1070
     1
1070
    44
1040
1.0
1070
    74
1070
     0
1000
MTEXTEND
  0
POINT
  5
B68
330
A7D
100
AcDbEntity
  8
Defpoints
 62
     0
100
AcDbPoint
 10
-42.75153787191976
 20
70.90968072275564
 30
0.0
  0
POINT
  5
B69
330
A7D
100
AcDbEntity
  8
Defpoints
 62
     0
100
AcDbPoint
 10
-47.48389857613585
 20
70.90968072275564
 30
0.0
  0
POINT
  5
B6A
330
A7D
100
AcDbEntity
  8
Defpoints
 62
     0
100
AcDbPoint
 10
-47.48389857613585
 20
70.09126721529923
 30
0.0
  0
ENDBLK
  5
A7F
330
A7D
100
AcDbEntity
  8
0
100
AcDbBlockEnd
  0
BLOCK
  5
A8C
330
A8B
100
AcDbEntity
  8
0
100
AcDbBlockBegin
  2
*D14
 70
     1
 10
0.0
 20
0.0
 30
0.0
  3
*D14
  1

  0
LINE
  5
B6B
330
A8B
100
AcDbEntity
  8
0
 62
     0
370
    -2
100
AcDbLine
 10
-45.55596472305808
 20
65.60384051616586
 30
0.0
 11
-45.55596472305808
 21
63.29391943929033
 31
0.0
  0
LINE
  5
B6C
330
A8B
100
AcDbEntity
  8
0
 62
     0
370
    -2
100
AcDbLine
 10
-50.14463992520597
 20
65.60384051616586
 30
0.0
 11
-50.14463992520597
 21
63.29391943929033
 31
0.0
  0
LINE
  5
B6D
330
A8B
100
AcDbEntity
  8
0
 62
     0
370
    -2
100
AcDbLine
 10
-43.05596472305808
 20
64.54391943929033
 30
0.0
 11
-40.55596472305807
 21
64.54391943929033
 31
0.0
  0
LINE
  5
B6E
330
A8B
100
AcDbEntity
  8
0
 62
     0
370
    -2
100
AcDbLine
 10
-52.64463992520597
 20
64.54391943929033
 30
0.0
 11
-67.39463992520597
 21
64.54391943929033
 31
0.0
  0
LINE
  5
B6F
330
A8B
100
AcDbEntity
  8
0
 62
     0
370
    -2
100
AcDbLine
 10
-45.55596472305808
 20
64.54391943929033
 30
0.0
 11
-50.14463992520597
 21
64.54391943929033
 31
0.0
  0
INSERT
  5
B70
330
A8B
100
AcDbEntity
  8
0
 62
     0
370
    -2
100
AcDbBlockReference
  2
_Open30
 10
-45.55596472305808
 20
64.54391943929033
 30
0.0
 41
2.5
 42
2.5
 43
2.5
 50
180.0
  0
INSERT
  5
B71
330
A8B
100
AcDbEntity
  8
0
 62
     0
370
    -2
100
AcDbBlockReference
  2
_Open30
 10
-50.14463992520597
 20
64.54391943929033
 30
0.0
 41
2.5
 42
2.5
 43
2.5
  0
MTEXT
  5
B72
330
A8B
100
AcDbEntity
  8
0
 62
     4
100
AcDbMText
 10
-61.26963992520597
 20
66.66891943929035
 30
0.0
 40
3.0
 41
0.0
 71
     5
 72
     1
  1
13.77
 73
     1
 44
1.0
1001
ACAD
1000
MTEXTBEGIN
1070
    73
1070
     1
1070
    44
1040
1.0
1070
    74
1070
     0
1000
MTEXTEND
  0
POINT
  5
B73
330
A8B
100
AcDbEntity
  8
Defpoints
 62
     0
100
AcDbPoint
 10
-45.55596472305808
 20
65.85384051616586
 30
0.0
  0
POINT
  5
B74
330
A8B
100
AcDbEntity
  8
Defpoints
 62
     0
100
AcDbPoint
 10
-50.14463992520597
 20
65.85384051616586
 30
0.0
  0
POINT
  5
B75
330
A8B
100
AcDbEntity
  8
Defpoints
 62
     0
100
AcDbPoint
 10
-50.14463992520597
 20
64.54391943929033
 30
0.0
  0
ENDBLK
  5
A8D
330
A8B
100
AcDbEntity
  8
0
100
AcDbBlockEnd
  0
BLOCK
  5
A9A
330
A99
100
AcDbEntity
  8
0
100
AcDbBlockBegin
  2
*D15
 70
     1
 10
0.0
 20
0.0
 30
0.0
  3
*D15
  1

  0
LINE
  5
B76
330
A99
100
AcDbEntity
  8
0
 62
     0
370
    -2
100
AcDbLine
 10
-52.65224755620841
 20
96.53333183444022
 30
0.0
 11
-52.65224755620841
 21
103.9298653123779
 31
0.0
  0
LINE
  5
B77
330
A99
100
AcDbEntity
  8
0
 62
     0
370
    -2
100
AcDbLine
 10
-62.59072192569839
 20
96.53333183444022
 30
0.0
 11
-62.59072192569839
 21
103.9298653123779
 31
0.0
  0
LINE
  5
B78
330
A99
100
AcDbEntity
  8
0
 62
     0
370
    -2
100
AcDbLine
 10
-55.15224755620841
 20
102.6798653123779
 30
0.0
 11
-60.09072192569839
 21
102.6798653123779
 31
0.0
  0
INSERT
  5
B79
330
A99
100
AcDbEntity
  8
0
 62
     0
370
    -2
100
AcDbBlockReference
  2
_Open30
 10
-52.65224755620841
 20
102.6798653123779
 30
0.0
 41
2.5
 42
2.5
 43
2.5
  0
INSERT
  5
B7A
330
A99
100
AcDbEntity
  8
0
 62
     0
370
    -2
100
AcDbBlockReference
  2
_Open30
 10
-62.59072192569839
 20
102.6798653123779
 30
0.0
 41
2.5
 42
2.5
 43
2.5
 50
180.0
  0
MTEXT
  5
B7B
330
A99
100
AcDbEntity
  8
0
 62
     4
100
AcDbMText
 10
-57.6214847409534
 20
105.7548653123779
 30
0.0
 40
3.0
 41
0.0
 71
     5
 72
     1
  1
9.94\H0.7X;\S+0^ -0.02;
 73
     1
 44
1.0
1001
ACAD
1000
MTEXTBEGIN
1070
    73
1070
     1
1070
    44
1040
1.0
1070
    74
1070
     0
1000
MTEXTEND
  0
POINT
  5
B7C
330
A99
100
AcDbEntity
  8
Defpoints
 62
     0
100
AcDbPoint
 10
-52.65224755620841
 20
96.28333183444022
 30
0.0
  0
POINT
  5
B7D
330
A99
100
AcDbEntity
  8
Defpoints
 62
     0
100
AcDbPoint
 10
-62.59072192569839
 20
96.28333183444022
 30
0.0
  0
POINT
  5
B7E
330
A99
100
AcDbEntity
  8
Defpoints
 62
     0
100
AcDbPoint
 10
-62.59072192569839
 20
102.6798653123779
 30
0.0
  0
ENDBLK
  5
A9B
330
A99
100
AcDbEntity
  8
0
100
AcDbBlockEnd
  0
ENDSEC
  0
SECTION
  2
ENTITIES
  0
LINE
  5
681
330
36
100
AcDbEntity
  8
0
 62
     3
100
AcDbLine
 10
-304.9581234358988
 20
100.2138942860093
 30
0.0
 11
-304.9581234358988
 21
98.96533528600928
 31
0.0
  0
LINE
  5
682
330
36
100
AcDbEntity
  8
0
 62
     3
100
AcDbLine
 10
-334.7683864358987
 20
15.04671628600928
 30
0.0
 11
-334.7683864358987
 21
21.29671628600929
 31
0.0
  0
LINE
  5
683
330
36
100
AcDbEntity
  8
0
 62
     3
100
AcDbLine
 10
-340.0751684358988
 20
11.65627228600928
 30
0.0
 11
-334.7683864358987
 21
15.04671628600928
 31
0.0
  0
LINE
  5
684
330
36
100
AcDbEntity
  8
0
 62
     3
100
AcDbLine
 10
-321.2683864358987
 20
16.29671628600928
 30
0.0
 11
-321.2683864358987
 21
21.29671628600929
 31
0.0
  0
LINE
  5
685
330
36
100
AcDbEntity
  8
0
 62
     3
100
AcDbLine
 10
-323.7683864358987
 20
16.29671628600928
 30
0.0
 11
-323.7683864358987
 21
21.29671628600929
 31
0.0
  0
ARC
  5
686
330
36
100
AcDbEntity
  8
0
 62
     3
100
AcDbCircle
 10
-322.5183864358987
 20
16.29671628600928
 30
0.0
 40
1.25
100
AcDbArc
 50
180.0
 51
0.0
  0
LINE
  5
687
330
36
100
AcDbEntity
  8
0
 62
     3
100
AcDbLine
 10
-323.7683864358987
 20
16.29671628600928
 30
0.0
 11
-334.7683864358987
 21
15.04671628600928
 31
0.0
  0
LINE
  5
688
330
36
100
AcDbEntity
  8
0
 62
     3
100
AcDbLine
 10
-334.7683864358987
 20
27.54671628600929
 30
0.0
 11
-334.7683864358987
 21
21.29671628600929
 31
0.0
  0
LINE
  5
689
330
36
100
AcDbEntity
  8
0
 62
     3
100
AcDbLine
 10
-340.0751684358988
 20
30.93716028600929
 30
0.0
 11
-334.7683864358987
 21
27.54671628600929
 31
0.0
  0
LINE
  5
68A
330
36
100
AcDbEntity
  8
0
 62
     3
100
AcDbLine
 10
-321.2683864358987
 20
26.29671628600929
 30
0.0
 11
-321.2683864358987
 21
21.29671628600929
 31
0.0
  0
LINE
  5
68B
330
36
100
AcDbEntity
  8
0
 62
     3
100
AcDbLine
 10
-323.7683864358987
 20
26.29671628600929
 30
0.0
 11
-323.7683864358987
 21
21.29671628600929
 31
0.0
  0
ARC
  5
68C
330
36
100
AcDbEntity
  8
0
 62
     3
100
AcDbCircle
 10
-322.5183864358987
 20
26.29671628600929
 30
0.0
 40
1.25
100
AcDbArc
 50
0.0
 51
180.0
  0
LINE
  5
68D
330
36
100
AcDbEntity
  8
0
 62
     3
100
AcDbLine
 10
-323.7683864358987
 20
26.29671628600929
 30
0.0
 11
-334.7683864358987
 21
27.54671628600929
 31
0.0
  0
ARC
  5
68F
330
36
100
AcDbEntity
  8
0
 62
     3
100
AcDbCircle
 10
-364.4490384358987
 20
6.796716286009271
 30
0.0
 40
1.5
100
AcDbArc
 50
270.0
 51
318.8140750000008
  0
LINE
  5
690
330
36
100
AcDbEntity
  8
0
 62
     3
100
AcDbLine
 10
-363.3201734358987
 20
36.78447328600928
 30
0.0
 11
-360.2683864358987
 21
33.29671628600929
 31
0.0
  0
ARC
  5
691
330
36
100
AcDbEntity
  8
0
 62
     3
100
AcDbCircle
 10
-364.4490384358987
 20
35.79671628600929
 30
0.0
 40
1.5
100
AcDbArc
 50
41.18592499999913
 51
90.0
  0
LINE
  5
692
330
36
100
AcDbEntity
  8
0
 62
     3
100
AcDbLine
 10
-373.7683864358988
 20
37.54671628600929
 30
0.0
 11
-373.7683864358988
 21
21.29671628600929
 31
0.0
  0
LINE
  5
693
330
36
100
AcDbEntity
  8
0
 62
     3
100
AcDbLine
 10
-373.5183864358988
 20
37.79671628600929
 30
0.0
 11
-370.9582124358988
 21
37.79671628600929
 31
0.0
  0
ARC
  5
694
330
36
100
AcDbEntity
  8
0
 62
     3
100
AcDbCircle
 10
-370.9582124358988
 20
37.54671628600929
 30
0.0
 40
0.25
100
AcDbArc
 50
0.0
 51
90.0
  0
ARC
  5
695
330
36
100
AcDbEntity
  8
0
 62
     3
100
AcDbCircle
 10
-373.5183864358988
 20
37.54671628600929
 30
0.0
 40
0.25
100
AcDbArc
 50
90.0
 51
180.0
  0
LINE
  5
696
330
36
100
AcDbEntity
  8
0
 62
     3
100
AcDbLine
 10
-373.7683864358988
 20
5.046716286009271
 30
0.0
 11
-373.7683864358988
 21
21.29671628600929
 31
0.0
  0
LINE
  5
697
330
36
100
AcDbEntity
  8
0
 62
     3
100
AcDbLine
 10
-363.3201734358987
 20
5.808959286009268
 30
0.0
 11
-360.2683864358987
 21
9.296716286009283
 31
0.0
  0
ARC
  5
698
330
36
100
AcDbEntity
  8
0
 62
     3
100
AcDbCircle
 10
-370.9582124358988
 20
5.046716286009271
 30
0.0
 40
0.25
100
AcDbArc
 50
270.0
 51
0.0
  0
LINE
  5
699
330
36
100
AcDbEntity
  8
0
 62
     3
100
AcDbLine
 10
-373.5183864358988
 20
4.796716286009271
 30
0.0
 11
-370.9582124358988
 21
4.796716286009271
 31
0.0
  0
ARC
  5
69A
330
36
100
AcDbEntity
  8
0
 62
     3
100
AcDbCircle
 10
-373.5183864358988
 20
5.046716286009271
 30
0.0
 40
0.25
100
AcDbArc
 50
180.0
 51
270.0
  0
LINE
  5
69B
330
36
100
AcDbEntity
  8
0
 62
     3
100
AcDbLine
 10
-363.7599484358988
 20
37.12906528600929
 30
0.0
 11
-363.7599484358988
 21
5.808959286009268
 31
0.0
  0
LINE
  5
69C
330
36
100
AcDbEntity
  8
0
 62
     3
100
AcDbLine
 10
-368.2082124358988
 20
5.046716286009271
 30
0.0
 11
-368.2082124358988
 21
37.54671628600929
 31
0.0
  0
LINE
  5
69D
330
36
100
AcDbEntity
  8
0
 62
     3
100
AcDbLine
 10
-366.7082124358988
 20
5.046716286009271
 30
0.0
 11
-366.7082124358988
 21
37.54671628600929
 31
0.0
  0
LINE
  5
69E
330
36
100
AcDbEntity
  8
0
 62
     3
100
AcDbLine
 10
-370.7082124358988
 20
37.54671628600929
 30
0.0
 11
-370.7082124358988
 21
5.046716286009271
 31
0.0
  0
LINE
  5
69F
330
36
100
AcDbEntity
  8
0
 62
     3
100
AcDbLine
 10
-367.9582124358987
 20
37.79671628600929
 30
0.0
 11
-366.9582124358988
 21
37.79671628600929
 31
0.0
  0
LINE
  5
6A0
330
36
100
AcDbEntity
  8
0
 62
     3
100
AcDbLine
 10
-366.9582124358988
 20
4.796716286009271
 30
0.0
 11
-367.9582124358987
 21
4.796716286009271
 31
0.0
  0
LINE
  5
6A1
330
36
100
AcDbEntity
  8
0
 62
     3
100
AcDbLine
 10
-364.4490384358987
 20
37.29671628600929
 30
0.0
 11
-366.7082124358988
 21
37.29671628600929
 31
0.0
  0
LINE
  5
6A2
330
36
100
AcDbEntity
  8
0
 62
     3
100
AcDbLine
 10
-368.2082124358988
 20
37.29671628600929
 30
0.0
 11
-370.7082124358988
 21
37.29671628600929
 31
0.0
  0
LINE
  5
6A3
330
36
100
AcDbEntity
  8
0
 62
     3
100
AcDbLine
 10
-364.4490384358987
 20
5.296716286009271
 30
0.0
 11
-366.7082124358988
 21
5.296716286009271
 31
0.0
  0
LINE
  5
6A4
330
36
100
AcDbEntity
  8
0
 62
     3
100
AcDbLine
 10
-368.2082124358988
 20
5.296716286009271
 30
0.0
 11
-370.7082124358988
 21
5.296716286009271
 31
0.0
  0
ARC
  5
6A5
330
36
100
AcDbEntity
  8
0
 62
     3
100
AcDbCircle
 10
-366.9582124358988
 20
37.54671628600929
 30
0.0
 40
0.25
100
AcDbArc
 50
0.0
 51
90.0
  0
ARC
  5
6A6
330
36
100
AcDbEntity
  8
0
 62
     3
100
AcDbCircle
 10
-367.9582124358987
 20
37.54671628600929
 30
0.0
 40
0.25
100
AcDbArc
 50
90.0
 51
180.0
  0
ARC
  5
6A7
330
36
100
AcDbEntity
  8
0
 62
     3
100
AcDbCircle
 10
-367.9582124358987
 20
5.046716286009271
 30
0.0
 40
0.25
100
AcDbArc
 50
180.0
 51
270.0
  0
ARC
  5
6A8
330
36
100
AcDbEntity
  8
0
 62
     3
100
AcDbCircle
 10
-366.9582124358988
 20
5.046716286009271
 30
0.0
 40
0.25
100
AcDbArc
 50
270.0
 51
0.0
  0
CIRCLE
  5
6A9
330
36
100
AcDbEntity
  8
0
 62
     3
100
AcDbCircle
 10
-407.1659524358986
 20
21.26052228600928
 30
0.0
 40
13.5
  0
CIRCLE
  5
6AA
330
36
100
AcDbEntity
  8
0
 62
     3
100
AcDbCircle
 10
-407.1659524358986
 20
21.26052228600928
 30
0.0
 40
16.5
  0
LINE
  5
6AB
330
36
100
AcDbEntity
  8
0
 62
     3
100
AcDbLine
 10
-297.8048274358987
 20
24.80109928600928
 30
0.0
 11
-297.8048274358987
 21
17.76804428600928
 31
0.0
  0
LINE
  5
6AC
330
36
100
AcDbEntity
  8
0
 62
     3
100
AcDbLine
 10
-296.8214924358989
 20
25.80096028600929
 30
0.0
 11
-282.8048274358987
 21
26.03457128600928
 31
0.0
  0
LINE
  5
6AD
330
36
100
AcDbEntity
  8
0
 62
     3
100
AcDbLine
 10
-296.8214924358989
 20
16.76818228600928
 30
0.0
 11
-282.8048274358987
 21
16.53457128600928
 31
0.0
  0
LINE
  5
6AE
330
36
100
AcDbEntity
  8
0
 62
     3
100
AcDbLine
 10
-253.5548274358987
 20
35.28457128600928
 30
0.0
 11
-253.5548274358987
 21
7.28457128600928
 31
0.0
  0
LINE
  5
6AF
330
36
100
AcDbEntity
  8
0
 62
     3
100
AcDbLine
 10
-253.5548274358987
 20
35.28457128600928
 30
0.0
 11
-251.0548274358987
 21
35.28457128600928
 31
0.0
  0
LINE
  5
6B0
330
36
100
AcDbEntity
  8
0
 62
     3
100
AcDbLine
 10
-245.5548274358987
 20
7.28457128600928
 30
0.0
 11
-245.5548274358987
 21
35.28457128600928
 31
0.0
  0
LINE
  5
6B1
330
36
100
AcDbEntity
  8
0
 62
     3
100
AcDbLine
 10
-253.5548274358987
 20
35.28457128600928
 30
0.0
 11
-255.0548274358988
 21
33.78457128600928
 31
0.0
  0
LINE
  5
6B2
330
36
100
AcDbEntity
  8
0
 62
     3
100
AcDbLine
 10
-253.5548274358987
 20
7.28457128600928
 30
0.0
 11
-255.0548274358988
 21
8.784571286009279
 31
0.0
  0
ARC
  5
6B3
330
36
100
AcDbEntity
  8
0
 62
     3
100
AcDbCircle
 10
-248.8048274358988
 20
8.684571286009273
 30
0.0
 40
2.649999999999999
100
AcDbArc
 50
211.8907920000002
 51
328.1092079999998
  0
ARC
  5
6B4
330
36
100
AcDbEntity
  8
0
 62
     3
100
AcDbCircle
 10
-248.8048274358988
 20
33.88457128600928
 30
0.0
 40
2.649999999999999
100
AcDbArc
 50
31.89079200000018
 51
148.1092079999998
  0
LINE
  5
6B5
330
36
100
AcDbEntity
  8
0
 62
     3
100
AcDbLine
 10
-246.5548274358988
 20
35.28457128600928
 30
0.0
 11
-245.5548274358987
 21
35.28457128600928
 31
0.0
  0
LINE
  5
6B6
330
36
100
AcDbEntity
  8
0
 62
     3
100
AcDbLine
 10
-253.5548274358987
 20
7.28457128600928
 30
0.0
 11
-251.0548274358987
 21
7.28457128600928
 31
0.0
  0
LINE
  5
6B7
330
36
100
AcDbEntity
  8
0
 62
     3
100
AcDbLine
 10
-246.5548274358988
 20
7.28457128600928
 30
0.0
 11
-245.5548274358987
 21
7.28457128600928
 31
0.0
  0
ARC
  5
6B8
330
36
100
AcDbEntity
  8
0
 62
     3
100
AcDbCircle
 10
-296.8048274358988
 20
17.76804428600928
 30
0.0
 40
1.0
100
AcDbArc
 50
180.0
 51
269.0451589999994
  0
ARC
  5
6B9
330
36
100
AcDbEntity
  8
0
 62
     3
100
AcDbCircle
 10
-296.8048274358988
 20
24.80109928600928
 30
0.0
 40
1.0
100
AcDbArc
 50
90.95484100000055
 51
180.0
  0
LINE
  5
6BA
330
36
100
AcDbEntity
  8
0
 62
     3
100
AcDbLine
 10
-321.2683864358987
 20
24.29671628600929
 30
0.0
 11
-315.6418934358987
 21
24.29671628600929
 31
0.0
  0
LINE
  5
6BB
330
36
100
AcDbEntity
  8
0
 62
     3
100
AcDbLine
 10
-321.2683864358987
 20
18.29671628600928
 30
0.0
 11
-315.6418934358987
 21
18.29671628600928
 31
0.0
  0
LINE
  5
6BC
330
36
100
AcDbEntity
  8
0
 62
     3
100
AcDbLine
 10
-393.7373383284689
 20
-28.1300187184101
 30
0.0
 11
-393.7373383284689
 21
-77.13001871841008
 31
0.0
  0
TEXT
  5
6BD
330
36
100
AcDbEntity
  8
0
 62
     3
100
AcDbText
 10
-391.7373383284689
 20
-41.13001871841007
 30
0.0
 40
4.5
  1
型       式
 41
0.8
  7
高4.5
100
AcDbText
  0
TEXT
  5
6BE
330
36
100
AcDbEntity
  8
0
 62
     3
100
AcDbText
 10
-391.7373383284689
 20
-48.13001871841009
 30
0.0
 40
4.5
  1
電 線 長 さ
 41
0.8
  7
高4.5
100
AcDbText
  0
TEXT
  5
6BF
330
36
100
AcDbEntity
  8
0
 62
     3
100
AcDbText
 10
-391.7373383284689
 20
-55.13001871841009
 30
0.0
 40
4.5
  1
電 線 仕 様
 41
0.8
  7
高4.5
100
AcDbText
  0
TEXT
  5
6C0
330
36
100
AcDbEntity
  8
0
 62
     3
100
AcDbText
 10
-391.7373383284689
 20
-62.13001871841012
 30
0.0
 40
4.5
  1
電線許容電流
 41
0.8
  7
高4.5
100
AcDbText
  0
TEXT
  5
6C1
330
36
100
AcDbEntity
  8
0
 62
     3
100
AcDbText
 10
-391.7373383284689
 20
-76.13001871841008
 30
0.0
 40
4.5
  1
電   線   色
 41
0.8
  7
高4.5
100
AcDbText
  0
LINE
  5
6C2
330
36
100
AcDbEntity
  8
0
 62
     3
100
AcDbLine
 10
-393.7373383284689
 20
-28.1300187184101
 30
0.0
 11
-314.9771943392563
 21
-28.1300187184101
 31
0.0
  0
LINE
  5
6C3
330
36
100
AcDbEntity
  8
0
 62
     7
100
AcDbLine
 10
-314.9771943392563
 20
-70.1300187184101
 30
0.0
 11
-393.7373383284689
 21
-70.1300187184101
 31
0.0
  0
LINE
  5
6C5
330
36
100
AcDbEntity
  8
0
 62
     3
100
AcDbLine
 10
-310.2593754358987
 20
24.29671628600929
 30
0.0
 11
-315.3750204358988
 21
24.29671628600929
 31
0.0
  0
LINE
  5
6C6
330
36
100
AcDbEntity
  8
0
 62
     3
100
AcDbLine
 10
-307.8410774358988
 20
24.29671628600929
 30
0.0
 11
-297.8048274358987
 21
24.29671628600929
 31
0.0
  0
LINE
  5
6C7
330
36
100
AcDbEntity
  8
0
 62
     3
100
AcDbLine
 10
-310.4512214358988
 20
18.29671628600928
 30
0.0
 11
-315.5668664358988
 21
18.29671628600928
 31
0.0
  0
LINE
  5
6C8
330
36
100
AcDbEntity
  8
0
 62
     3
100
AcDbLine
 10
-308.0448834358989
 20
18.29671628600928
 30
0.0
 11
-297.8048274358987
 21
18.29671628600928
 31
0.0
  0
TEXT
  5
6C9
330
36
100
AcDbEntity
  8
0
 62
     3
100
AcDbText
 10
-263.0368274358988
 20
-58.32073571399071
 30
0.0
 40
4.5
  1
防雨型200V延長コード
 41
0.7
  7
高4.5
100
AcDbText
  0
TEXT
  5
6CA
330
36
100
AcDbEntity
  8
0
 62
     3
100
AcDbText
 10
-200.6244724358988
 20
-78.53972071399072
 30
0.0
 40
3.2
  1
2003.2.27
  7
高3.2
100
AcDbText
  0
LINE
  5
6CB
330
36
100
AcDbEntity
  8
0
 62
     3
100
AcDbLine
 10
-314.9771943392563
 20
-28.1300187184101
 30
0.0
 11
-314.9771943392563
 21
-77.13001871841008
 31
0.0
  0
LINE
  5
6CC
330
36
100
AcDbEntity
  8
0
 62
     7
100
AcDbLine
 10
-361.9753223284689
 20
-35.1300187184101
 30
0.0
 11
-361.9753223284689
 21
-77.13001871841008
 31
0.0
  0
LINE
  5
6CD
330
36
100
AcDbEntity
  8
0
 62
     7
100
AcDbLine
 10
-314.9771943392563
 20
-49.13001871841007
 30
0.0
 11
-393.7373383284689
 21
-49.13001871841007
 31
0.0
  0
LINE
  5
6CE
330
36
100
AcDbEntity
  8
0
 62
     7
100
AcDbLine
 10
-314.9771943392563
 20
-56.13001871841008
 30
0.0
 11
-393.7373383284689
 21
-56.13001871841008
 31
0.0
  0
LINE
  5
6CF
330
36
100
AcDbEntity
  8
0
 62
     7
100
AcDbLine
 10
-314.9771943392563
 20
-63.13001871841011
 30
0.0
 11
-393.7373383284689
 21
-63.13001871841011
 31
0.0
  0
TEXT
  5
6D0
330
36
100
AcDbEntity
  8
0
 62
     3
100
AcDbText
 10
-359.9753223284689
 20
-62.13001871841012
 30
0.0
 40
4.5
  1
19A
 41
0.8
  7
高4.5
100
AcDbText
  0
TEXT
  5
6D1
330
36
100
AcDbEntity
  8
0
 62
     3
100
AcDbText
 10
-359.9753223284689
 20
-76.13001871841008
 30
0.0
 40
4.5
  1
黒
 41
0.8
  7
高4.5
100
AcDbText
  0
TEXT
  5
6D2
330
36
100
AcDbEntity
  8
0
 62
     3
100
AcDbText
 10
-359.9753223284689
 20
-48.13001871841009
 30
0.0
 40
4.5
  1
20m
 41
0.8
  7
高4.5
100
AcDbText
  0
TEXT
  5
6D3
330
36
100
AcDbEntity
  8
0
 62
     3
100
AcDbText
 10
-391.7373383284689
 20
-34.1300187184101
 30
0.0
 40
4.5
  1
主　仕　様　　(防雨.防塵型)
  7
高4.5
100
AcDbText
  0
TEXT
  5
6D5
330
36
100
AcDbEntity
  8
0
 62
     3
100
AcDbText
 10
-232.4713304358987
 20
-78.58482571399071
 30
0.0
 40
3.2
  1
FREE
  7
高3.2
100
AcDbText
  0
LINE
  5
6D6
330
36
100
AcDbEntity
  8
0
 62
     3
100
AcDbLine
 10
-443.4581234358986
 20
89.74127728600928
 30
0.0
 11
-443.4581234358986
 21
-90.25872271399071
 31
0.0
  0
LINE
  5
6D7
330
36
100
AcDbEntity
  8
0
 62
     3
100
AcDbLine
 10
-166.4581234358987
 20
-90.25872271399071
 30
0.0
 11
-166.4581234358987
 21
89.74127728600928
 31
0.0
  0
LINE
  5
6D8
330
36
100
AcDbEntity
  8
0
 62
     3
100
AcDbLine
 10
-443.4581234358986
 20
-90.25872271399071
 30
0.0
 11
-166.4581234358987
 21
-90.25872271399071
 31
0.0
  0
LINE
  5
6D9
330
36
100
AcDbEntity
  8
0
 62
     3
100
AcDbLine
 10
-443.4581234358986
 20
89.74127728600928
 30
0.0
 11
-166.4581234358987
 21
89.74127728600928
 31
0.0
  0
LINE
  5
6DA
330
36
100
AcDbEntity
  8
0
 62
     3
100
AcDbLine
 10
-282.8048274358987
 20
26.28457128600928
 30
0.0
 11
-282.8048274358987
 21
16.28457128600928
 31
0.0
  0
LINE
  5
6DB
330
36
100
AcDbEntity
  8
0
 62
     3
100
AcDbLine
 10
-278.3048274358987
 20
27.03457128600928
 30
0.0
 11
-278.3048274358987
 21
15.53457128600928
 31
0.0
  0
ARC
  5
6DC
330
36
100
AcDbEntity
  8
0
 62
     3
100
AcDbCircle
 10
-280.5548274358987
 20
26.28457128600928
 30
0.0
 40
2.25
100
AcDbArc
 50
0.0
 51
180.0
  0
ARC
  5
6DD
330
36
100
AcDbEntity
  8
0
 62
     3
100
AcDbCircle
 10
-280.5548274358987
 20
16.28457128600928
 30
0.0
 40
2.25
100
AcDbArc
 50
180.0
 51
0.0
  0
LINE
  5
6DE
330
36
100
AcDbEntity
  8
0
 62
     3
100
AcDbLine
 10
-272.3660074358987
 20
27.03457128600928
 30
0.0
 11
-278.3048274358987
 21
27.03457128600928
 31
0.0
  0
LINE
  5
6DF
330
36
100
AcDbEntity
  8
0
 62
     3
100
AcDbLine
 10
-272.3660074358987
 20
15.53457128600928
 30
0.0
 11
-278.3048274358987
 21
15.53457128600928
 31
0.0
  0
ARC
  5
6E0
330
36
100
AcDbEntity
  8
0
 62
     3
100
AcDbCircle
 10
-272.3660074358987
 20
31.03457128600928
 30
0.0
 40
4.0
100
AcDbArc
 50
270.0
 51
323.7784529999999
  0
ARC
  5
6E1
330
36
100
AcDbEntity
  8
0
 62
     3
100
AcDbCircle
 10
-272.3660074358987
 20
11.53457128600928
 30
0.0
 40
4.0
100
AcDbArc
 50
36.22154699999938
 51
90.0
  0
ARC
  5
6E2
330
36
100
AcDbEntity
  8
0
 62
     3
100
AcDbCircle
 10
-259.0548274358988
 20
21.28457128600928
 30
0.0
 40
12.5
100
AcDbArc
 50
90.0
 51
143.7784530000006
  0
ARC
  5
6E3
330
36
100
AcDbEntity
  8
0
 62
     3
100
AcDbCircle
 10
-259.0548274358988
 20
21.28457128600928
 30
0.0
 40
12.5
100
AcDbArc
 50
216.2215469999994
 51
270.0
  0
LINE
  5
6E4
330
36
100
AcDbEntity
  8
0
 62
     3
100
AcDbLine
 10
-255.0548274358988
 20
8.784571286009279
 30
0.0
 11
-259.0548274358988
 21
8.784571286009279
 31
0.0
  0
LINE
  5
6E5
330
36
100
AcDbEntity
  8
0
 62
     3
100
AcDbLine
 10
-255.0548274358988
 20
33.78457128600928
 30
0.0
 11
-259.0548274358988
 21
33.78457128600928
 31
0.0
  0
TEXT
  5
6E6
330
36
100
AcDbEntity
  8
0
 62
     3
100
AcDbText
 10
-359.9753223284689
 20
-55.13001871841009
 30
0.0
 40
4.5
  1
SVCT 2.0sqx4c
 41
0.8
  7
高4.5
100
AcDbText
  0
LINE
  5
6E7
330
36
100
AcDbEntity
  8
0
 62
     7
100
AcDbLine
 10
-314.9771943392563
 20
-42.13001871841007
 30
0.0
 11
-393.7373383284689
 21
-42.13001871841007
 31
0.0
  0
LINE
  5
6E8
330
36
100
AcDbEntity
  8
0
 62
     7
100
AcDbLine
 10
-314.9771943392563
 20
-35.1300187184101
 30
0.0
 11
-393.7373383284689
 21
-35.1300187184101
 31
0.0
  0
TEXT
  5
6E9
330
36
100
AcDbEntity
  8
0
 62
     7
100
AcDbText
 10
-206.5176074358987
 20
27.75610928600928
 30
0.0
 40
2.0
  1
Y
100
AcDbText
  0
TEXT
  5
6EA
330
36
100
AcDbEntity
  8
0
 62
     7
100
AcDbText
 10
-194.4873664358987
 20
17.24826728600928
 30
0.0
 40
1.6
  1
防　雨　型
 50
90.00000300000001
 41
0.833333
100
AcDbText
  0
TEXT
  5
6EB
330
36
100
AcDbEntity
  8
0
 62
     7
100
AcDbText
 10
-214.0176074358988
 20
20.25610928600928
 30
0.0
 40
2.0
  1
Z
100
AcDbText
  0
TEXT
  5
6EC
330
36
100
AcDbEntity
  8
0
 62
     7
100
AcDbText
 10
-199.3676074358988
 20
19.68110928600927
 30
0.0
 40
3.149999999999999
  1
x
100
AcDbText
  0
LINE
  5
6ED
330
36
100
AcDbEntity
  8
0
 62
     7
100
AcDbLine
 10
-203.1593454358988
 20
16.25610928600927
 30
0.0
 11
-202.1593454358987
 21
16.25610928600927
 31
0.0
  0
LINE
  5
6EE
330
36
100
AcDbEntity
  8
0
 62
     7
100
AcDbLine
 10
-202.6593454358987
 20
16.88110928600927
 30
0.0
 11
-202.6593454358987
 21
16.50610928600928
 31
0.0
  0
CIRCLE
  5
6EF
330
36
100
AcDbEntity
  8
0
 62
     7
100
AcDbCircle
 10
-202.6593454358987
 20
16.50610928600928
 30
0.0
 40
1.0
  0
LINE
  5
6F0
330
36
100
AcDbEntity
  8
0
 62
     7
100
AcDbLine
 10
-201.9093454358988
 20
16.50610928600928
 30
0.0
 11
-203.4093454358988
 21
16.50610928600928
 31
0.0
  0
LINE
  5
6F1
330
36
100
AcDbEntity
  8
0
 62
     7
100
AcDbLine
 10
-202.4093454358987
 20
16.00610928600928
 30
0.0
 11
-202.9093454358988
 21
16.00610928600928
 31
0.0
  0
TEXT
  5
6F2
330
36
100
AcDbEntity
  8
0
 62
     7
100
AcDbText
 10
-205.3034514358988
 20
30.42566528600929
 30
0.0
 40
1.404158999999999
  1
JET
100
AcDbText
  0
ARC
  5
6F3
330
36
100
AcDbEntity
  8
0
 62
     7
100
AcDbCircle
 10
-200.2190824358988
 20
31.08477028600928
 30
0.0
 40
0.599625
100
AcDbArc
 50
204.1020920000005
 51
28.32624699999923
  0
LINE
  5
6F4
330
36
100
AcDbEntity
  8
0
 62
     7
100
AcDbLine
 10
-199.5991124358987
 20
31.45541828600928
 30
0.0
 11
-200.1588894358988
 21
30.48585628600929
 31
0.0
  0
LINE
  5
6F5
330
36
100
AcDbEntity
  8
0
 62
     7
100
AcDbLine
 10
-200.8390524358988
 20
30.71412228600929
 30
0.0
 11
-200.2792754358988
 21
31.68368428600928
 31
0.0
  0
ARC
  5
6F6
330
36
100
AcDbEntity
  8
0
 62
     7
100
AcDbCircle
 10
-200.2190824358988
 20
31.08477028600928
 30
0.0
 40
0.601931
100
AcDbArc
 50
26.80229100000064
 51
204.2608300000008
  0
LINE
  5
6F7
330
36
100
AcDbEntity
  8
0
 62
     7
100
AcDbLine
 10
-200.2190824358988
 20
31.68670128600928
 30
0.0
 11
-200.2190824358988
 21
30.48283928600929
 31
0.0
  0
TEXT
  5
6F8
330
36
100
AcDbEntity
  8
0
 62
     7
100
AcDbText
 10
-206.6733484358988
 20
30.42566528600929
 30
0.0
 40
1.404158999999999
  1
E
100
AcDbText
  0
TEXT
  5
6F9
330
36
100
AcDbEntity
  8
0
 62
     7
100
AcDbText
 10
-210.4780614358988
 20
30.42646928600929
 30
0.0
 40
1.404158999999999
  1
PS
100
AcDbText
  0
LINE
  5
6FA
330
36
100
AcDbEntity
  8
0
 62
     7
100
AcDbLine
 10
-211.3645284358987
 20
31.16670828600928
 30
0.0
 11
-210.6695864358987
 21
31.73617428600927
 31
0.0
  0
LINE
  5
6FB
330
36
100
AcDbEntity
  8
0
 62
     7
100
AcDbLine
 10
-211.3645284358987
 20
31.16670828600928
 30
0.0
 11
-210.6695864358987
 21
30.59724228600928
 31
0.0
  0
LINE
  5
6FC
330
36
100
AcDbEntity
  8
0
 62
     7
100
AcDbLine
 10
-207.0493144358987
 20
31.16670828600928
 30
0.0
 11
-207.7442554358988
 21
30.59724228600928
 31
0.0
  0
LINE
  5
6FD
330
36
100
AcDbEntity
  8
0
 62
     7
100
AcDbLine
 10
-207.0493144358987
 20
31.16670828600928
 30
0.0
 11
-207.7442554358988
 21
31.73617428600927
 31
0.0
  0
TEXT
  5
6FE
330
36
100
AcDbEntity
  8
0
 62
     7
100
AcDbText
 10
-211.2892764358988
 20
10.70883928600928
 30
0.0
 40
1.75
  1
19A 250V
 41
0.9060489999999999
100
AcDbText
  0
LINE
  5
6FF
330
36
100
AcDbEntity
  8
0
 62
     7
100
AcDbLine
 10
-199.8676074358987
 20
23.25610928600928
 30
0.0
 11
-199.8676074358987
 21
19.25610928600928
 31
0.0
  0
LINE
  5
700
330
36
100
AcDbEntity
  8
0
 62
     7
100
AcDbLine
 10
-200.8676074358987
 20
23.25610928600928
 30
0.0
 11
-200.8676074358987
 21
19.25610928600928
 31
0.0
  0
LINE
  5
701
330
36
100
AcDbEntity
  8
0
 62
     7
100
AcDbLine
 10
-210.1676074358988
 20
23.25610928600928
 30
0.0
 11
-210.1676074358988
 21
19.25610928600928
 31
0.0
  0
LINE
  5
702
330
36
100
AcDbEntity
  8
0
 62
     7
100
AcDbLine
 10
-211.1676074358987
 20
23.25610928600928
 30
0.0
 11
-211.1676074358987
 21
19.25610928600928
 31
0.0
  0
LINE
  5
703
330
36
100
AcDbEntity
  8
0
 62
     7
100
AcDbLine
 10
-199.8676074358987
 20
23.25610928600928
 30
0.0
 11
-200.8676074358987
 21
23.25610928600928
 31
0.0
  0
LINE
  5
704
330
36
100
AcDbEntity
  8
0
 62
     7
100
AcDbLine
 10
-210.1676074358988
 20
23.25610928600928
 30
0.0
 11
-211.1676074358987
 21
23.25610928600928
 31
0.0
  0
LINE
  5
705
330
36
100
AcDbEntity
  8
0
 62
     7
100
AcDbLine
 10
-199.8676074358987
 20
19.25610928600928
 30
0.0
 11
-200.8676074358987
 21
19.25610928600928
 31
0.0
  0
LINE
  5
706
330
36
100
AcDbEntity
  8
0
 62
     7
100
AcDbLine
 10
-210.1676074358988
 20
19.25610928600928
 30
0.0
 11
-211.1676074358987
 21
19.25610928600928
 31
0.0
  0
LINE
  5
707
330
36
100
AcDbEntity
  8
0
 62
     7
100
AcDbLine
 10
-203.5176074358988
 20
26.90610928600928
 30
0.0
 11
-207.5176074358988
 21
26.90610928600928
 31
0.0
  0
LINE
  5
708
330
36
100
AcDbEntity
  8
0
 62
     7
100
AcDbLine
 10
-203.5176074358988
 20
25.90610928600928
 30
0.0
 11
-207.5176074358988
 21
25.90610928600928
 31
0.0
  0
LINE
  5
709
330
36
100
AcDbEntity
  8
0
 62
     7
100
AcDbLine
 10
-203.5176074358988
 20
26.90610928600928
 30
0.0
 11
-203.5176074358988
 21
25.90610928600928
 31
0.0
  0
LINE
  5
70A
330
36
100
AcDbEntity
  8
0
 62
     7
100
AcDbLine
 10
-207.5176074358988
 20
26.90610928600928
 30
0.0
 11
-207.5176074358988
 21
25.90610928600928
 31
0.0
  0
LINE
  5
70B
330
36
100
AcDbEntity
  8
0
 62
     7
100
AcDbLine
 10
-205.0176074358987
 20
18.50610928600928
 30
0.0
 11
-206.0176074358988
 21
18.50610928600928
 31
0.0
  0
LINE
  5
70C
330
36
100
AcDbEntity
  8
0
 62
     7
100
AcDbLine
 10
-205.0176074358987
 20
14.50610928600928
 30
0.0
 11
-206.0176074358988
 21
14.50610928600928
 31
0.0
  0
LINE
  5
70D
330
36
100
AcDbEntity
  8
0
 62
     7
100
AcDbLine
 10
-205.0176074358987
 20
18.50610928600928
 30
0.0
 11
-205.0176074358987
 21
14.50610928600928
 31
0.0
  0
LINE
  5
70E
330
36
100
AcDbEntity
  8
0
 62
     7
100
AcDbLine
 10
-206.0176074358988
 20
18.50610928600928
 30
0.0
 11
-206.0176074358988
 21
14.50610928600928
 31
0.0
  0
LINE
  5
70F
330
36
100
AcDbEntity
  8
0
 62
     7
100
AcDbLine
 10
-210.3176074358988
 20
22.38110928600928
 30
0.0
 11
-210.3176074358988
 21
20.13110928600928
 31
0.0
  0
LINE
  5
710
330
36
100
AcDbEntity
  8
0
 62
     7
100
AcDbLine
 10
-211.0176074358987
 20
22.38110928600928
 30
0.0
 11
-211.0176074358987
 21
20.13110928600928
 31
0.0
  0
LINE
  5
711
330
36
100
AcDbEntity
  8
0
 62
     7
100
AcDbLine
 10
-200.0176074358988
 20
22.38110928600928
 30
0.0
 11
-200.0176074358988
 21
20.13110928600928
 31
0.0
  0
LINE
  5
712
330
36
100
AcDbEntity
  8
0
 62
     7
100
AcDbLine
 10
-200.7176074358987
 20
22.38110928600928
 30
0.0
 11
-200.7176074358987
 21
20.13110928600928
 31
0.0
  0
LINE
  5
713
330
36
100
AcDbEntity
  8
0
 62
     7
100
AcDbLine
 10
-204.3926074358988
 20
26.75610928600928
 30
0.0
 11
-206.6426074358988
 21
26.75610928600928
 31
0.0
  0
LINE
  5
714
330
36
100
AcDbEntity
  8
0
 62
     7
100
AcDbLine
 10
-204.3926074358988
 20
26.05610928600928
 30
0.0
 11
-206.6426074358988
 21
26.05610928600928
 31
0.0
  0
LINE
  5
715
330
36
100
AcDbEntity
  8
0
 62
     7
100
AcDbLine
 10
-205.1676074358987
 20
17.63110928600928
 30
0.0
 11
-205.8676074358988
 21
17.63110928600928
 31
0.0
  0
LINE
  5
716
330
36
100
AcDbEntity
  8
0
 62
     7
100
AcDbLine
 10
-205.1676074358987
 20
15.38110928600928
 30
0.0
 11
-205.8676074358988
 21
15.38110928600928
 31
0.0
  0
LINE
  5
717
330
36
100
AcDbEntity
  8
0
 62
     7
100
AcDbLine
 10
-204.3926074358988
 20
26.05610928600928
 30
0.0
 11
-204.3926074358988
 21
26.75610928600928
 31
0.0
  0
LINE
  5
718
330
36
100
AcDbEntity
  8
0
 62
     7
100
AcDbLine
 10
-206.6426074358988
 20
26.05610928600928
 30
0.0
 11
-206.6426074358988
 21
26.75610928600928
 31
0.0
  0
LINE
  5
719
330
36
100
AcDbEntity
  8
0
 62
     7
100
AcDbLine
 10
-200.0176074358988
 20
22.38110928600928
 30
0.0
 11
-200.7176074358987
 21
22.38110928600928
 31
0.0
  0
LINE
  5
71A
330
36
100
AcDbEntity
  8
0
 62
     7
100
AcDbLine
 10
-210.3176074358988
 20
22.38110928600928
 30
0.0
 11
-211.0176074358987
 21
22.38110928600928
 31
0.0
  0
LINE
  5
71B
330
36
100
AcDbEntity
  8
0
 62
     7
100
AcDbLine
 10
-200.0176074358988
 20
20.13110928600928
 30
0.0
 11
-200.7176074358987
 21
20.13110928600928
 31
0.0
  0
LINE
  5
71C
330
36
100
AcDbEntity
  8
0
 62
     7
100
AcDbLine
 10
-210.3176074358988
 20
20.13110928600928
 30
0.0
 11
-211.0176074358987
 21
20.13110928600928
 31
0.0
  0
LINE
  5
71D
330
36
100
AcDbEntity
  8
0
 62
     7
100
AcDbLine
 10
-200.0176074358988
 20
22.38110928600928
 30
0.0
 11
-199.8676074358987
 21
23.25610928600928
 31
0.0
  0
LINE
  5
71E
330
36
100
AcDbEntity
  8
0
 62
     7
100
AcDbLine
 10
-200.7176074358987
 20
22.38110928600928
 30
0.0
 11
-200.8676074358987
 21
23.25610928600928
 31
0.0
  0
LINE
  5
71F
330
36
100
AcDbEntity
  8
0
 62
     7
100
AcDbLine
 10
-200.7176074358987
 20
20.13110928600928
 30
0.0
 11
-200.8676074358987
 21
19.25610928600928
 31
0.0
  0
LINE
  5
720
330
36
100
AcDbEntity
  8
0
 62
     7
100
AcDbLine
 10
-200.0176074358988
 20
20.13110928600928
 30
0.0
 11
-199.8676074358987
 21
19.25610928600928
 31
0.0
  0
LINE
  5
721
330
36
100
AcDbEntity
  8
0
 62
     7
100
AcDbLine
 10
-205.1676074358987
 20
17.63110928600928
 30
0.0
 11
-205.1676074358987
 21
15.38110928600928
 31
0.0
  0
LINE
  5
722
330
36
100
AcDbEntity
  8
0
 62
     7
100
AcDbLine
 10
-205.8676074358988
 20
17.63110928600928
 30
0.0
 11
-205.8676074358988
 21
15.38110928600928
 31
0.0
  0
LINE
  5
723
330
36
100
AcDbEntity
  8
0
 62
     7
100
AcDbLine
 10
-205.1676074358987
 20
17.63110928600928
 30
0.0
 11
-205.0176074358987
 21
18.50610928600928
 31
0.0
  0
LINE
  5
724
330
36
100
AcDbEntity
  8
0
 62
     7
100
AcDbLine
 10
-205.8676074358988
 20
17.63110928600928
 30
0.0
 11
-206.0176074358988
 21
18.50610928600928
 31
0.0
  0
LINE
  5
725
330
36
100
AcDbEntity
  8
0
 62
     7
100
AcDbLine
 10
-205.8676074358988
 20
15.38110928600928
 30
0.0
 11
-206.0176074358988
 21
14.50610928600928
 31
0.0
  0
LINE
  5
726
330
36
100
AcDbEntity
  8
0
 62
     7
100
AcDbLine
 10
-205.1676074358987
 20
15.38110928600928
 30
0.0
 11
-205.0176074358987
 21
14.50610928600928
 31
0.0
  0
LINE
  5
727
330
36
100
AcDbEntity
  8
0
 62
     7
100
AcDbLine
 10
-204.3926074358988
 20
26.75610928600928
 30
0.0
 11
-203.5176074358988
 21
26.90610928600928
 31
0.0
  0
LINE
  5
728
330
36
100
AcDbEntity
  8
0
 62
     7
100
AcDbLine
 10
-204.3926074358988
 20
26.05610928600928
 30
0.0
 11
-203.5176074358988
 21
25.90610928600928
 31
0.0
  0
LINE
  5
729
330
36
100
AcDbEntity
  8
0
 62
     7
100
AcDbLine
 10
-206.6426074358988
 20
26.75610928600928
 30
0.0
 11
-207.5176074358988
 21
26.90610928600928
 31
0.0
  0
LINE
  5
72A
330
36
100
AcDbEntity
  8
0
 62
     7
100
AcDbLine
 10
-206.6426074358988
 20
26.05610928600928
 30
0.0
 11
-207.5176074358988
 21
25.90610928600928
 31
0.0
  0
LINE
  5
72B
330
36
100
AcDbEntity
  8
0
 62
     7
100
AcDbLine
 10
-210.1676074358988
 20
19.25610928600928
 30
0.0
 11
-210.3176074358988
 21
20.13110928600928
 31
0.0
  0
LINE
  5
72C
330
36
100
AcDbEntity
  8
0
 62
     7
100
AcDbLine
 10
-210.3176074358988
 20
22.38110928600928
 30
0.0
 11
-210.1676074358988
 21
23.25610928600928
 31
0.0
  0
LINE
  5
72D
330
36
100
AcDbEntity
  8
0
 62
     7
100
AcDbLine
 10
-211.0176074358987
 20
22.38110928600928
 30
0.0
 11
-211.1676074358987
 21
23.25610928600928
 31
0.0
  0
LINE
  5
72E
330
36
100
AcDbEntity
  8
0
 62
     7
100
AcDbLine
 10
-211.0176074358987
 20
20.13110928600928
 30
0.0
 11
-211.1676074358987
 21
19.25610928600928
 31
0.0
  0
CIRCLE
  5
72F
330
36
100
AcDbEntity
  8
0
 62
     3
100
AcDbCircle
 10
-205.5176074358988
 20
21.25610928600928
 30
0.0
 40
15.25
  0
CIRCLE
  5
730
330
36
100
AcDbEntity
  8
0
 62
     3
100
AcDbCircle
 10
-205.5176074358988
 20
21.25610928600928
 30
0.0
 40
13.25
  0
LINE
  5
731
330
36
100
AcDbEntity
  8
0
 62
     7
100
AcDbLine
 10
-236.5552844358988
 20
26.93340028600927
 30
0.0
 11
-245.5552844358988
 21
26.93340028600927
 31
0.0
  0
LINE
  5
732
330
36
100
AcDbEntity
  8
0
 62
     7
100
AcDbLine
 10
-236.5552844358988
 20
25.93340028600929
 30
0.0
 11
-245.5552844358988
 21
25.93340028600929
 31
0.0
  0
LINE
  5
733
330
36
100
AcDbEntity
  8
0
 62
     7
100
AcDbLine
 10
-236.4302844358987
 20
23.28340028600928
 30
0.0
 11
-245.5552844358988
 21
23.28340028600928
 31
0.0
  0
LINE
  5
734
330
36
100
AcDbEntity
  8
0
 62
     7
100
AcDbLine
 10
-236.4302844358987
 20
19.28340028600928
 30
0.0
 11
-245.5552844358988
 21
19.28340028600928
 31
0.0
  0
LINE
  5
735
330
36
100
AcDbEntity
  8
0
 62
     7
100
AcDbLine
 10
-234.9302844358987
 20
18.53340028600928
 30
0.0
 11
-245.5552844358988
 21
18.53340028600928
 31
0.0
  0
LINE
  5
736
330
36
100
AcDbEntity
  8
0
 62
     7
100
AcDbLine
 10
-234.9302844358987
 20
14.53340028600928
 30
0.0
 11
-245.5552844358988
 21
14.53340028600928
 31
0.0
  0
LINE
  5
737
330
36
100
AcDbEntity
  8
0
 62
     7
100
AcDbLine
 10
-234.0552844358988
 20
17.65840028600928
 30
0.0
 11
-234.0552844358988
 21
15.40840028600928
 31
0.0
  0
LINE
  5
738
330
36
100
AcDbEntity
  8
0
 62
     7
100
AcDbLine
 10
-235.5552844358987
 20
26.78340028600928
 30
0.0
 11
-235.5552844358987
 21
26.08340028600928
 31
0.0
  0
LINE
  5
739
330
36
100
AcDbEntity
  8
0
 62
     7
100
AcDbLine
 10
-235.5552844358987
 20
22.40840028600928
 30
0.0
 11
-235.5552844358987
 21
20.15840028600928
 31
0.0
  0
LINE
  5
73A
330
36
100
AcDbEntity
  8
0
 62
     7
100
AcDbLine
 10
-235.0552844358988
 20
18.53340028600928
 30
0.0
 11
-235.0552844358988
 21
14.53340028600928
 31
0.0
  0
LINE
  5
73B
330
36
100
AcDbEntity
  8
0
 62
     7
100
AcDbLine
 10
-236.5552844358988
 20
23.28340028600928
 30
0.0
 11
-236.5552844358988
 21
19.28340028600928
 31
0.0
  0
LINE
  5
73C
330
36
100
AcDbEntity
  8
0
 62
     7
100
AcDbLine
 10
-236.5552844358988
 20
26.93340028600927
 30
0.0
 11
-236.5552844358988
 21
25.93340028600929
 31
0.0
  0
LINE
  5
73D
330
36
100
AcDbEntity
  8
0
 62
     7
100
AcDbLine
 10
-234.9302844358987
 20
18.53340028600928
 30
0.0
 11
-234.0552844358988
 21
17.65840028600928
 31
0.0
  0
LINE
  5
73E
330
36
100
AcDbEntity
  8
0
 62
     7
100
AcDbLine
 10
-234.9302844358987
 20
14.53340028600928
 30
0.0
 11
-234.0552844358988
 21
15.40840028600928
 31
0.0
  0
LINE
  5
73F
330
36
100
AcDbEntity
  8
0
 62
     7
100
AcDbLine
 10
-235.5552844358987
 20
20.15840028600928
 30
0.0
 11
-236.4302844358987
 21
19.28340028600928
 31
0.0
  0
LINE
  5
740
330
36
100
AcDbEntity
  8
0
 62
     7
100
AcDbLine
 10
-236.4302844358987
 20
23.28340028600928
 30
0.0
 11
-235.5552844358987
 21
22.40840028600928
 31
0.0
  0
LINE
  5
741
330
36
100
AcDbEntity
  8
0
 62
     7
100
AcDbLine
 10
-236.5552844358988
 20
26.93340028600927
 30
0.0
 11
-235.5552844358987
 21
26.78340028600928
 31
0.0
  0
LINE
  5
742
330
36
100
AcDbEntity
  8
0
 62
     7
100
AcDbLine
 10
-235.5552844358987
 20
26.08340028600928
 30
0.0
 11
-236.5552844358988
 21
25.93340028600929
 31
0.0
  0
LINE
  5
743
330
36
100
AcDbEntity
  8
0
 62
     7
100
AcDbLine
 10
-246.5548274358988
 20
35.28457128600928
 30
0.0
 11
-246.5548274358988
 21
7.28457128600928
 31
0.0
  0
LINE
  5
744
330
36
100
AcDbEntity
  8
0
 62
     7
100
AcDbLine
 10
-251.0548274358987
 20
35.28457128600928
 30
0.0
 11
-251.0548274358987
 21
7.28457128600928
 31
0.0
  0
LINE
  5
745
330
36
100
AcDbEntity
  8
0
 62
     7
100
AcDbLine
 10
-255.0548274358988
 20
33.78457128600928
 30
0.0
 11
-255.0548274358988
 21
8.784571286009279
 31
0.0
  0
LINE
  5
746
330
36
100
AcDbEntity
  8
0
 62
     7
100
AcDbLine
 10
-259.0548274358988
 20
26.28457128600928
 30
0.0
 11
-255.0548274358988
 21
26.28457128600928
 31
0.0
  0
ARC
  5
747
330
36
100
AcDbEntity
  8
0
 62
     7
100
AcDbCircle
 10
-259.0548274358988
 20
21.28457128600928
 30
0.0
 40
5.0
100
AcDbArc
 50
90.0
 51
270.0
  0
LINE
  5
748
330
36
100
AcDbEntity
  8
0
 62
     7
100
AcDbLine
 10
-259.0548274358988
 20
16.28457128600928
 30
0.0
 11
-255.0548274358988
 21
16.28457128600928
 31
0.0
  0
LINE
  5
749
330
36
100
AcDbEntity
  8
0
 62
     7
100
AcDbLine
 10
-257.4482894358987
 20
19.04865728600927
 30
0.0
 11
-256.8187594358988
 21
18.45636528600929
 31
0.0
  0
LINE
  5
74A
330
36
100
AcDbEntity
  8
0
 62
     7
100
AcDbLine
 10
-256.8187594358988
 20
18.45636528600929
 30
0.0
 11
-257.6331794358988
 21
18.92657028600928
 31
0.0
  0
LINE
  5
74B
330
36
100
AcDbEntity
  8
0
 62
     7
100
AcDbLine
 10
-258.1456674358987
 20
19.22245528600928
 30
0.0
 11
-261.3048274358988
 21
21.04639728600928
 31
0.0
  0
ARC
  5
74C
330
36
100
AcDbEntity
  8
0
 62
     7
100
AcDbCircle
 10
-259.0548274358988
 20
21.28059228600928
 30
0.0
 40
2.25
100
AcDbArc
 50
186.1670469999997
 51
293.8329529999995
  0
ARC
  5
74D
330
36
100
AcDbEntity
  8
0
 62
     7
100
AcDbCircle
 10
-259.0548274358988
 20
21.28059228600928
 30
0.0
 40
2.25
100
AcDbArc
 50
303.2601410000008
 51
353.6206299999997
  0
ARC
  5
74E
330
36
100
AcDbEntity
  8
0
 62
     7
100
AcDbCircle
 10
-259.0548274358988
 20
21.28059228600928
 30
0.0
 40
2.75
100
AcDbArc
 50
305.7462030000006
 51
120.9686959999992
  0
ARC
  5
74F
330
36
100
AcDbEntity
  8
0
 62
     7
100
AcDbCircle
 10
-259.0548274358988
 20
21.28059228600928
 30
0.0
 40
2.75
100
AcDbArc
 50
125.7142760000006
 51
301.128751
  0
LINE
  5
750
330
36
100
AcDbEntity
  8
0
 62
     7
100
AcDbLine
 10
-259.5548274358987
 20
21.03059228600928
 30
0.0
 11
-257.8208354358987
 21
19.39916628600927
 31
0.0
  0
LINE
  5
751
330
36
100
AcDbEntity
  8
0
 62
     7
100
AcDbLine
 10
-259.9563554358988
 20
23.34208328600928
 30
0.0
 11
-256.8187594358988
 21
21.53059228600929
 31
0.0
  0
ARC
  5
752
330
36
100
AcDbEntity
  8
0
 62
     7
100
AcDbCircle
 10
-259.0548274358988
 20
21.28059228600928
 30
0.0
 40
2.25
100
AcDbArc
 50
6.379370000000257
 51
113.6206299999998
  0
LINE
  5
753
330
36
100
AcDbEntity
  8
0
 62
     7
100
AcDbLine
 10
-256.8187594358988
 20
21.03059228600928
 30
0.0
 11
-259.5548274358987
 21
21.03059228600928
 31
0.0
  0
LINE
  5
754
330
36
100
AcDbEntity
  8
0
 62
     7
100
AcDbLine
 10
-258.5548274358988
 20
21.53059228600929
 30
0.0
 11
-261.2908954358987
 21
21.53059228600929
 31
0.0
  0
LINE
  5
755
330
36
100
AcDbEntity
  8
0
 62
     7
100
AcDbLine
 10
-261.3048274358988
 20
24.12062428600928
 30
0.0
 11
-260.4698944358988
 21
23.63857528600929
 31
0.0
  0
LINE
  5
756
330
36
100
AcDbEntity
  8
0
 62
     7
100
AcDbLine
 10
-261.3048274358988
 20
24.12062428600928
 30
0.0
 11
-260.6601224358988
 21
23.51342128600927
 31
0.0
  0
LINE
  5
757
330
36
100
AcDbEntity
  8
0
 62
     7
100
AcDbLine
 10
-260.2877554358987
 20
23.16271528600927
 30
0.0
 11
-258.5548274358988
 21
21.53059228600929
 31
0.0
  0
ARC
  5
758
330
36
100
AcDbEntity
  8
0
 62
     7
100
AcDbCircle
 10
-259.0548274358988
 20
21.28059228600928
 30
0.0
 40
2.25
100
AcDbArc
 50
123.2277170000001
 51
173.6206299999997
  0
LINE
  5
759
330
36
100
AcDbEntity
  8
0
 62
     7
100
AcDbLine
 10
-259.0548274358988
 20
25.03457128600928
 30
0.0
 11
-255.0548274358988
 21
25.03457128600928
 31
0.0
  0
ARC
  5
75A
330
36
100
AcDbEntity
  8
0
 62
     7
100
AcDbCircle
 10
-259.0548274358988
 20
21.28457128600928
 30
0.0
 40
3.75
100
AcDbArc
 50
90.0
 51
270.0
  0
LINE
  5
75B
330
36
100
AcDbEntity
  8
0
 62
     7
100
AcDbLine
 10
-259.0548274358988
 20
17.53457128600928
 30
0.0
 11
-255.0548274358988
 21
17.53457128600928
 31
0.0
  0
LINE
  5
75C
330
36
100
AcDbEntity
  8
0
 62
     7
100
AcDbLine
 10
-284.3048274358988
 20
24.23457128600927
 30
0.0
 11
-284.3048274358988
 21
26.00957128600928
 31
0.0
  0
LINE
  5
75D
330
36
100
AcDbEntity
  8
0
 62
     7
100
AcDbLine
 10
-284.3048274358988
 20
24.23457128600927
 30
0.0
 11
-284.3048274358988
 21
22.03457128600928
 31
0.0
  0
LINE
  5
75E
330
36
100
AcDbEntity
  8
0
 62
     7
100
AcDbLine
 10
-285.8048274358988
 20
24.23457128600927
 30
0.0
 11
-284.3048274358988
 21
24.23457128600927
 31
0.0
  0
LINE
  5
75F
330
36
100
AcDbEntity
  8
0
 62
     7
100
AcDbLine
 10
-285.8048274358988
 20
24.23457128600927
 30
0.0
 11
-285.8048274358988
 21
25.98457128600927
 31
0.0
  0
LINE
  5
760
330
36
100
AcDbEntity
  8
0
 62
     7
100
AcDbLine
 10
-287.3048274358987
 20
24.23457128600927
 30
0.0
 11
-287.3048274358987
 21
25.95957128600928
 31
0.0
  0
LINE
  5
761
330
36
100
AcDbEntity
  8
0
 62
     7
100
AcDbLine
 10
-288.8048274358988
 20
24.23457128600927
 30
0.0
 11
-288.8048274358988
 21
25.93457128600929
 31
0.0
  0
LINE
  5
762
330
36
100
AcDbEntity
  8
0
 62
     7
100
AcDbLine
 10
-290.3048274358988
 20
24.23457128600927
 30
0.0
 11
-290.3048274358988
 21
25.90957128600928
 31
0.0
  0
LINE
  5
763
330
36
100
AcDbEntity
  8
0
 62
     7
100
AcDbLine
 10
-291.8048274358987
 20
24.23457128600927
 30
0.0
 11
-291.8048274358987
 21
25.88457128600929
 31
0.0
  0
LINE
  5
764
330
36
100
AcDbEntity
  8
0
 62
     7
100
AcDbLine
 10
-293.3048274358987
 20
24.23457128600927
 30
0.0
 11
-293.3048274358987
 21
25.85957128600927
 31
0.0
  0
LINE
  5
765
330
36
100
AcDbEntity
  8
0
 62
     7
100
AcDbLine
 10
-294.8048274358987
 20
24.23457128600927
 30
0.0
 11
-294.8048274358987
 21
25.83457128600928
 31
0.0
  0
LINE
  5
766
330
36
100
AcDbEntity
  8
0
 62
     7
100
AcDbLine
 10
-294.8048274358987
 20
18.33457128600928
 30
0.0
 11
-294.8048274358987
 21
16.73457128600927
 31
0.0
  0
LINE
  5
767
330
36
100
AcDbEntity
  8
0
 62
     7
100
AcDbLine
 10
-293.3048274358987
 20
18.33457128600928
 30
0.0
 11
-293.3048274358987
 21
16.70957128600928
 31
0.0
  0
LINE
  5
768
330
36
100
AcDbEntity
  8
0
 62
     7
100
AcDbLine
 10
-291.8048274358987
 20
18.33457128600928
 30
0.0
 11
-291.8048274358987
 21
16.68457128600929
 31
0.0
  0
LINE
  5
769
330
36
100
AcDbEntity
  8
0
 62
     7
100
AcDbLine
 10
-290.3048274358988
 20
18.33457128600928
 30
0.0
 11
-290.3048274358988
 21
16.65957128600927
 31
0.0
  0
LINE
  5
76A
330
36
100
AcDbEntity
  8
0
 62
     7
100
AcDbLine
 10
-288.8048274358988
 20
18.33457128600928
 30
0.0
 11
-288.8048274358988
 21
16.63457128600927
 31
0.0
  0
LINE
  5
76B
330
36
100
AcDbEntity
  8
0
 62
     7
100
AcDbLine
 10
-287.3048274358987
 20
18.33457128600928
 30
0.0
 11
-287.3048274358987
 21
16.60957128600927
 31
0.0
  0
LINE
  5
76C
330
36
100
AcDbEntity
  8
0
 62
     7
100
AcDbLine
 10
-285.8048274358988
 20
18.33457128600928
 30
0.0
 11
-285.8048274358988
 21
16.58457128600928
 31
0.0
  0
LINE
  5
76D
330
36
100
AcDbEntity
  8
0
 62
     7
100
AcDbLine
 10
-284.3048274358988
 20
18.33457128600928
 30
0.0
 11
-284.3048274358988
 21
16.55957128600929
 31
0.0
  0
LINE
  5
76E
330
36
100
AcDbEntity
  8
0
 62
     7
100
AcDbLine
 10
-293.3048274358987
 20
22.03457128600928
 30
0.0
 11
-294.8048274358987
 21
22.03457128600928
 31
0.0
  0
LINE
  5
76F
330
36
100
AcDbEntity
  8
0
 62
     7
100
AcDbLine
 10
-293.3048274358987
 20
20.53457128600928
 30
0.0
 11
-294.8048274358987
 21
20.53457128600928
 31
0.0
  0
LINE
  5
770
330
36
100
AcDbEntity
  8
0
 62
     7
100
AcDbLine
 10
-290.3048274358988
 20
22.03457128600928
 30
0.0
 11
-291.8048274358987
 21
22.03457128600928
 31
0.0
  0
LINE
  5
771
330
36
100
AcDbEntity
  8
0
 62
     7
100
AcDbLine
 10
-290.3048274358988
 20
20.53457128600928
 30
0.0
 11
-291.8048274358987
 21
20.53457128600928
 31
0.0
  0
LINE
  5
772
330
36
100
AcDbEntity
  8
0
 62
     7
100
AcDbLine
 10
-284.3048274358988
 20
22.03457128600928
 30
0.0
 11
-285.8048274358988
 21
22.03457128600928
 31
0.0
  0
LINE
  5
773
330
36
100
AcDbEntity
  8
0
 62
     7
100
AcDbLine
 10
-287.3048274358987
 20
22.03457128600928
 30
0.0
 11
-288.8048274358988
 21
22.03457128600928
 31
0.0
  0
LINE
  5
774
330
36
100
AcDbEntity
  8
0
 62
     7
100
AcDbLine
 10
-284.3048274358988
 20
20.53457128600928
 30
0.0
 11
-285.8048274358988
 21
20.53457128600928
 31
0.0
  0
LINE
  5
775
330
36
100
AcDbEntity
  8
0
 62
     7
100
AcDbLine
 10
-287.3048274358987
 20
20.53457128600928
 30
0.0
 11
-288.8048274358988
 21
20.53457128600928
 31
0.0
  0
LINE
  5
776
330
36
100
AcDbEntity
  8
0
 62
     7
100
AcDbLine
 10
-293.3048274358987
 20
24.23457128600927
 30
0.0
 11
-293.3048274358987
 21
22.03457128600928
 31
0.0
  0
LINE
  5
777
330
36
100
AcDbEntity
  8
0
 62
     7
100
AcDbLine
 10
-293.3048274358987
 20
20.53457128600928
 30
0.0
 11
-293.3048274358987
 21
18.33457128600928
 31
0.0
  0
LINE
  5
778
330
36
100
AcDbEntity
  8
0
 62
     7
100
AcDbLine
 10
-290.3048274358988
 20
24.23457128600927
 30
0.0
 11
-290.3048274358988
 21
22.03457128600928
 31
0.0
  0
LINE
  5
779
330
36
100
AcDbEntity
  8
0
 62
     7
100
AcDbLine
 10
-290.3048274358988
 20
20.53457128600928
 30
0.0
 11
-290.3048274358988
 21
18.33457128600928
 31
0.0
  0
LINE
  5
77A
330
36
100
AcDbEntity
  8
0
 62
     7
100
AcDbLine
 10
-287.3048274358987
 20
24.23457128600927
 30
0.0
 11
-287.3048274358987
 21
22.03457128600928
 31
0.0
  0
LINE
  5
77B
330
36
100
AcDbEntity
  8
0
 62
     7
100
AcDbLine
 10
-287.3048274358987
 20
20.53457128600928
 30
0.0
 11
-287.3048274358987
 21
18.33457128600928
 31
0.0
  0
LINE
  5
77C
330
36
100
AcDbEntity
  8
0
 62
     7
100
AcDbLine
 10
-288.8048274358988
 20
24.23457128600927
 30
0.0
 11
-288.8048274358988
 21
22.03457128600928
 31
0.0
  0
LINE
  5
77D
330
36
100
AcDbEntity
  8
0
 62
     7
100
AcDbLine
 10
-288.8048274358988
 20
20.53457128600928
 30
0.0
 11
-288.8048274358988
 21
18.33457128600928
 31
0.0
  0
LINE
  5
77E
330
36
100
AcDbEntity
  8
0
 62
     7
100
AcDbLine
 10
-285.8048274358988
 20
24.23457128600927
 30
0.0
 11
-285.8048274358988
 21
22.03457128600928
 31
0.0
  0
LINE
  5
77F
330
36
100
AcDbEntity
  8
0
 62
     7
100
AcDbLine
 10
-285.8048274358988
 20
20.53457128600928
 30
0.0
 11
-285.8048274358988
 21
18.33457128600928
 31
0.0
  0
LINE
  5
780
330
36
100
AcDbEntity
  8
0
 62
     7
100
AcDbLine
 10
-284.3048274358988
 20
20.53457128600928
 30
0.0
 11
-284.3048274358988
 21
18.33457128600928
 31
0.0
  0
LINE
  5
781
330
36
100
AcDbEntity
  8
0
 62
     7
100
AcDbLine
 10
-291.8048274358987
 20
24.23457128600927
 30
0.0
 11
-291.8048274358987
 21
22.03457128600928
 31
0.0
  0
LINE
  5
782
330
36
100
AcDbEntity
  8
0
 62
     7
100
AcDbLine
 10
-291.8048274358987
 20
20.53457128600928
 30
0.0
 11
-291.8048274358987
 21
18.33457128600928
 31
0.0
  0
LINE
  5
783
330
36
100
AcDbEntity
  8
0
 62
     7
100
AcDbLine
 10
-294.8048274358987
 20
24.23457128600927
 30
0.0
 11
-294.8048274358987
 21
22.03457128600928
 31
0.0
  0
LINE
  5
784
330
36
100
AcDbEntity
  8
0
 62
     7
100
AcDbLine
 10
-294.8048274358987
 20
20.53457128600928
 30
0.0
 11
-294.8048274358987
 21
18.33457128600928
 31
0.0
  0
LINE
  5
785
330
36
100
AcDbEntity
  8
0
 62
     7
100
AcDbLine
 10
-294.8048274358987
 20
24.23457128600927
 30
0.0
 11
-293.3048274358987
 21
24.23457128600927
 31
0.0
  0
LINE
  5
786
330
36
100
AcDbEntity
  8
0
 62
     7
100
AcDbLine
 10
-294.8048274358987
 20
18.33457128600928
 30
0.0
 11
-293.3048274358987
 21
18.33457128600928
 31
0.0
  0
LINE
  5
787
330
36
100
AcDbEntity
  8
0
 62
     7
100
AcDbLine
 10
-291.8048274358987
 20
24.23457128600927
 30
0.0
 11
-290.3048274358988
 21
24.23457128600927
 31
0.0
  0
LINE
  5
788
330
36
100
AcDbEntity
  8
0
 62
     7
100
AcDbLine
 10
-291.8048274358987
 20
18.33457128600928
 30
0.0
 11
-290.3048274358988
 21
18.33457128600928
 31
0.0
  0
LINE
  5
789
330
36
100
AcDbEntity
  8
0
 62
     7
100
AcDbLine
 10
-288.8048274358988
 20
24.23457128600927
 30
0.0
 11
-287.3048274358987
 21
24.23457128600927
 31
0.0
  0
LINE
  5
78A
330
36
100
AcDbEntity
  8
0
 62
     7
100
AcDbLine
 10
-288.8048274358988
 20
18.33457128600928
 30
0.0
 11
-287.3048274358987
 21
18.33457128600928
 31
0.0
  0
LINE
  5
78B
330
36
100
AcDbEntity
  8
0
 62
     7
100
AcDbLine
 10
-285.8048274358988
 20
18.33457128600928
 30
0.0
 11
-284.3048274358988
 21
18.33457128600928
 31
0.0
  0
LINE
  5
78C
330
36
100
AcDbEntity
  8
0
 62
     7
100
AcDbLine
 10
-325.2683864358987
 20
26.46717028600928
 30
0.0
 11
-325.2683864358987
 21
22.04671628600928
 31
0.0
  0
LINE
  5
78D
330
36
100
AcDbEntity
  8
0
 62
     7
100
AcDbLine
 10
-326.7683864358987
 20
24.29671628600929
 30
0.0
 11
-325.2683864358987
 21
24.29671628600929
 31
0.0
  0
LINE
  5
78E
330
36
100
AcDbEntity
  8
0
 62
     7
100
AcDbLine
 10
-325.2683864358987
 20
16.12626128600927
 30
0.0
 11
-325.2683864358987
 21
20.54671628600929
 31
0.0
  0
LINE
  5
78F
330
36
100
AcDbEntity
  8
0
 62
     7
100
AcDbLine
 10
-326.7683864358987
 20
15.95580728600927
 30
0.0
 11
-326.7683864358987
 21
20.54671628600929
 31
0.0
  0
LINE
  5
790
330
36
100
AcDbEntity
  8
0
 62
     7
100
AcDbLine
 10
-328.2683864358987
 20
15.78535228600927
 30
0.0
 11
-328.2683864358987
 21
20.54671628600929
 31
0.0
  0
LINE
  5
791
330
36
100
AcDbEntity
  8
0
 62
     7
100
AcDbLine
 10
-329.7683864358987
 20
15.61489728600928
 30
0.0
 11
-329.7683864358987
 21
20.54671628600929
 31
0.0
  0
LINE
  5
792
330
36
100
AcDbEntity
  8
0
 62
     7
100
AcDbLine
 10
-331.2683864358987
 20
20.54671628600929
 30
0.0
 11
-331.2683864358987
 21
15.44444328600927
 31
0.0
  0
LINE
  5
793
330
36
100
AcDbEntity
  8
0
 62
     7
100
AcDbLine
 10
-332.7683864358987
 20
20.54671628600929
 30
0.0
 11
-332.7683864358987
 21
15.27398828600928
 31
0.0
  0
LINE
  5
794
330
36
100
AcDbEntity
  8
0
 62
     7
100
AcDbLine
 10
-326.7683864358987
 20
20.54671628600929
 30
0.0
 11
-325.2683864358987
 21
20.54671628600929
 31
0.0
  0
LINE
  5
795
330
36
100
AcDbEntity
  8
0
 62
     7
100
AcDbLine
 10
-332.7683864358987
 20
20.54671628600929
 30
0.0
 11
-331.2683864358987
 21
20.54671628600929
 31
0.0
  0
LINE
  5
796
330
36
100
AcDbEntity
  8
0
 62
     7
100
AcDbLine
 10
-329.7683864358987
 20
20.54671628600929
 30
0.0
 11
-328.2683864358987
 21
20.54671628600929
 31
0.0
  0
LINE
  5
797
330
36
100
AcDbEntity
  8
0
 62
     7
100
AcDbLine
 10
-326.7683864358987
 20
18.29671628600928
 30
0.0
 11
-325.2683864358987
 21
18.29671628600928
 31
0.0
  0
LINE
  5
798
330
36
100
AcDbEntity
  8
0
 62
     7
100
AcDbLine
 10
-329.7683864358987
 20
18.29671628600928
 30
0.0
 11
-328.2683864358987
 21
18.29671628600928
 31
0.0
  0
LINE
  5
799
330
36
100
AcDbEntity
  8
0
 62
     7
100
AcDbLine
 10
-332.7683864358987
 20
18.29671628600928
 30
0.0
 11
-331.2683864358987
 21
18.29671628600928
 31
0.0
  0
LINE
  5
79A
330
36
100
AcDbEntity
  8
0
 62
     7
100
AcDbLine
 10
-326.7683864358987
 20
26.63762528600928
 30
0.0
 11
-326.7683864358987
 21
22.04671628600928
 31
0.0
  0
LINE
  5
79B
330
36
100
AcDbEntity
  8
0
 62
     7
100
AcDbLine
 10
-328.2683864358987
 20
26.80807928600927
 30
0.0
 11
-328.2683864358987
 21
22.04671628600928
 31
0.0
  0
LINE
  5
79C
330
36
100
AcDbEntity
  8
0
 62
     7
100
AcDbLine
 10
-329.7683864358987
 20
26.97853428600928
 30
0.0
 11
-329.7683864358987
 21
22.04671628600928
 31
0.0
  0
LINE
  5
79D
330
36
100
AcDbEntity
  8
0
 62
     7
100
AcDbLine
 10
-331.2683864358987
 20
22.04671628600928
 30
0.0
 11
-331.2683864358987
 21
27.14898828600929
 31
0.0
  0
LINE
  5
79E
330
36
100
AcDbEntity
  8
0
 62
     7
100
AcDbLine
 10
-332.7683864358987
 20
22.04671628600928
 30
0.0
 11
-332.7683864358987
 21
27.31944328600928
 31
0.0
  0
LINE
  5
79F
330
36
100
AcDbEntity
  8
0
 62
     7
100
AcDbLine
 10
-326.7683864358987
 20
22.04671628600928
 30
0.0
 11
-325.2683864358987
 21
22.04671628600928
 31
0.0
  0
LINE
  5
7A0
330
36
100
AcDbEntity
  8
0
 62
     7
100
AcDbLine
 10
-332.7683864358987
 20
22.04671628600928
 30
0.0
 11
-331.2683864358987
 21
22.04671628600928
 31
0.0
  0
LINE
  5
7A1
330
36
100
AcDbEntity
  8
0
 62
     7
100
AcDbLine
 10
-329.7683864358987
 20
22.04671628600928
 30
0.0
 11
-328.2683864358987
 21
22.04671628600928
 31
0.0
  0
LINE
  5
7A2
330
36
100
AcDbEntity
  8
0
 62
     7
100
AcDbLine
 10
-329.7683864358987
 20
24.29671628600929
 30
0.0
 11
-328.2683864358987
 21
24.29671628600929
 31
0.0
  0
LINE
  5
7A3
330
36
100
AcDbEntity
  8
0
 62
     7
100
AcDbLine
 10
-332.7683864358987
 20
24.29671628600929
 30
0.0
 11
-331.2683864358987
 21
24.29671628600929
 31
0.0
  0
LINE
  5
7A4
330
36
100
AcDbEntity
  8
0
 62
     7
100
AcDbLine
 10
-354.1885324358988
 20
10.29671628600928
 30
0.0
 11
-354.1885324358988
 21
17.29671628600928
 31
0.0
  0
ARC
  5
7A5
330
36
100
AcDbEntity
  8
0
 62
     7
100
AcDbCircle
 10
-350.8476314358987
 20
21.18019528600928
 30
0.0
 40
2.25
100
AcDbArc
 50
6.634483999999884
 51
114.2196929999985
  0
LINE
  5
7A6
330
36
100
AcDbEntity
  8
0
 62
     7
100
AcDbLine
 10
-351.7706634358988
 20
23.23214828600928
 30
0.0
 11
-348.6146514358988
 21
21.45642528600928
 31
0.0
  0
LINE
  5
7A7
330
36
100
AcDbEntity
  8
0
 62
     7
100
AcDbLine
 10
-351.9703314358987
 20
23.13007828600929
 30
0.0
 11
-349.9737534358987
 21
21.43408828600929
 31
0.0
  0
ARC
  5
7A8
330
36
100
AcDbEntity
  8
0
 62
     7
100
AcDbCircle
 10
-350.8476314358987
 20
21.18019528600928
 30
0.0
 40
2.5
100
AcDbArc
 50
302.3047630000011
 51
118.5813610000002
  0
ARC
  5
7A9
330
36
100
AcDbEntity
  8
0
 62
     7
100
AcDbCircle
 10
-350.8476314358987
 20
21.18019528600928
 30
0.0
 40
2.25
100
AcDbArc
 50
119.9323890000004
 51
173.8757439999999
  0
ARC
  5
7AA
330
36
100
AcDbEntity
  8
0
 62
     7
100
AcDbCircle
 10
-350.8476314358987
 20
21.18019528600928
 30
0.0
 40
2.5
100
AcDbArc
 50
122.304764999999
 51
298.5813610000002
  0
LINE
  5
7AB
330
36
100
AcDbEntity
  8
0
 62
     7
100
AcDbLine
 10
-352.1836874358986
 20
23.29323828600928
 30
0.0
 11
-352.6087454358988
 21
23.67237828600929
 31
0.0
  0
LINE
  5
7AC
330
36
100
AcDbEntity
  8
0
 62
     7
100
AcDbLine
 10
-352.6087454358988
 20
23.67237828600929
 30
0.0
 11
-352.0587584358988
 21
23.36724128600927
 31
0.0
  0
LINE
  5
7AD
330
36
100
AcDbEntity
  8
0
 62
     7
100
AcDbLine
 10
-353.0847904358988
 20
21.42023628600927
 30
0.0
 11
-349.9737534358987
 21
21.43408828600929
 31
0.0
  0
ARC
  5
7AE
330
36
100
AcDbEntity
  8
0
 62
     7
100
AcDbCircle
 10
-350.8476314358987
 20
21.18019528600928
 30
0.0
 40
2.25
100
AcDbArc
 50
186.6344839999999
 51
294.2196930000015
  0
LINE
  5
7AF
330
36
100
AcDbEntity
  8
0
 62
     7
100
AcDbLine
 10
-349.9245994358988
 20
19.12824228600928
 30
0.0
 11
-353.0825634358988
 21
20.92024128600929
 31
0.0
  0
LINE
  5
7B0
330
36
100
AcDbEntity
  8
0
 62
     7
100
AcDbLine
 10
-349.7249314358987
 20
19.23031228600928
 30
0.0
 11
-351.7215094358987
 21
20.92630128600928
 31
0.0
  0
LINE
  5
7B1
330
36
100
AcDbEntity
  8
0
 62
     7
100
AcDbLine
 10
-351.7215094358987
 20
20.92630128600928
 30
0.0
 11
-348.6104724358987
 21
20.94015428600927
 31
0.0
  0
ARC
  5
7B2
330
36
100
AcDbEntity
  8
0
 62
     7
100
AcDbCircle
 10
-350.8476314358987
 20
21.18019528600928
 30
0.0
 40
2.25
100
AcDbArc
 50
299.9323890000004
 51
353.8757439999998
  0
LINE
  5
7B3
330
36
100
AcDbEntity
  8
0
 62
     7
100
AcDbLine
 10
-349.5115744358987
 20
19.06715128600928
 30
0.0
 11
-349.0865174358988
 21
18.68801228600928
 31
0.0
  0
LINE
  5
7B4
330
36
100
AcDbEntity
  8
0
 62
     7
100
AcDbLine
 10
-349.0865174358988
 20
18.68801228600928
 30
0.0
 11
-349.6346254358988
 21
18.99419028600928
 31
0.0
  0
LINE
  5
7B5
330
36
100
AcDbEntity
  8
0
 62
     7
100
AcDbLine
 10
-350.7836954358987
 20
25.29671628600929
 30
0.0
 11
-354.1885324358988
 21
25.29671628600929
 31
0.0
  0
LINE
  5
7B6
330
36
100
AcDbEntity
  8
0
 62
     7
100
AcDbLine
 10
-350.7836954358987
 20
17.29671628600928
 30
0.0
 11
-354.1885324358988
 21
17.29671628600928
 31
0.0
  0
LINE
  5
7B7
330
36
100
AcDbEntity
  8
0
 62
     7
100
AcDbLine
 10
-354.1885324358988
 20
25.29671628600929
 30
0.0
 11
-354.1885324358988
 21
32.29671628600929
 31
0.0
  0
ARC
  5
7B8
330
36
100
AcDbEntity
  8
0
 62
     7
100
AcDbCircle
 10
-350.7836954358987
 20
21.29671628600929
 30
0.0
 40
4.0
100
AcDbArc
 50
270.0
 51
90.0
  0
LINE
  5
7B9
330
36
100
AcDbEntity
  8
0
 62
     7
100
AcDbLine
 10
-357.6664424358987
 20
23.48492528600929
 30
0.0
 11
-357.6658424358988
 21
23.35018728600929
 31
0.0
  0
ARC
  5
7BA
330
36
100
AcDbEntity
  8
0
 62
     7
100
AcDbCircle
 10
-357.4899354358988
 20
23.48571128600928
 30
0.0
 40
0.176509
100
AcDbArc
 50
90.25511400000052
 51
180.2551139999997
  0
LINE
  5
7BB
330
36
100
AcDbEntity
  8
0
 62
     7
100
AcDbLine
 10
-357.4907214358987
 20
23.66221828600928
 30
0.0
 11
-355.6232484358988
 21
23.67053328600928
 31
0.0
  0
LINE
  5
7BC
330
36
100
AcDbEntity
  8
0
 62
     7
100
AcDbLine
 10
-355.0793364358988
 20
24.97994228600929
 30
0.0
 11
-355.0721304358988
 21
23.36173628600928
 31
0.0
  0
LINE
  5
7BD
330
36
100
AcDbEntity
  8
0
 62
     7
100
AcDbLine
 10
-355.4525614358988
 20
24.97828028600928
 30
0.0
 11
-355.0793364358988
 21
24.97994228600929
 31
0.0
  0
LINE
  5
7BE
330
36
100
AcDbEntity
  8
0
 62
     7
100
AcDbLine
 10
-355.4519614358988
 20
24.84354228600928
 30
0.0
 11
-355.4525614358988
 21
24.97828028600928
 31
0.0
  0
ARC
  5
7BF
330
36
100
AcDbEntity
  8
0
 62
     7
100
AcDbCircle
 10
-355.6284684358987
 20
24.84275628600928
 30
0.0
 40
0.176509
100
AcDbArc
 50
270.2551140000005
 51
0.2551139999997059
  0
LINE
  5
7C0
330
36
100
AcDbEntity
  8
0
 62
     7
100
AcDbLine
 10
-358.0362014358988
 20
22.72070528600929
 30
0.0
 11
-358.0294584358987
 21
21.20624628600928
 31
0.0
  0
LINE
  5
7C1
330
36
100
AcDbEntity
  8
0
 62
     7
100
AcDbLine
 10
-358.0362014358988
 20
22.72070528600929
 30
0.0
 11
-357.6605074358988
 21
22.72237728600928
 31
0.0
  0
LINE
  5
7C2
330
36
100
AcDbEntity
  8
0
 62
     7
100
AcDbLine
 10
-357.6600074358988
 20
22.61009628600929
 30
0.0
 11
-357.6605074358988
 21
22.72237728600928
 31
0.0
  0
ARC
  5
7C3
330
36
100
AcDbEntity
  8
0
 62
     7
100
AcDbCircle
 10
-357.4861004358987
 20
22.64028828600928
 30
0.0
 40
0.176509
100
AcDbArc
 50
189.8491820000005
 51
270.2551140000005
  0
LINE
  5
7C4
330
36
100
AcDbEntity
  8
0
 62
     7
100
AcDbLine
 10
-357.4853144358988
 20
22.46378128600929
 30
0.0
 11
-355.6178424358988
 21
22.47209628600927
 31
0.0
  0
ARC
  5
7C5
330
36
100
AcDbEntity
  8
0
 62
     7
100
AcDbCircle
 10
-355.6186284358988
 20
22.64860328600928
 30
0.0
 40
0.176509
100
AcDbArc
 50
270.2551140000005
 51
350.6610459999996
  0
LINE
  5
7C6
330
36
100
AcDbEntity
  8
0
 62
     7
100
AcDbLine
 10
-355.4444584358988
 20
22.61996128600927
 30
0.0
 11
-355.4449584358987
 21
22.73224228600928
 31
0.0
  0
LINE
  5
7C7
330
36
100
AcDbEntity
  8
0
 62
     7
100
AcDbLine
 10
-355.4449584358987
 20
22.73224228600928
 30
0.0
 11
-355.0692644358987
 21
22.73391528600928
 31
0.0
  0
LINE
  5
7C8
330
36
100
AcDbEntity
  8
0
 62
     7
100
AcDbLine
 10
-355.0692644358987
 20
22.73391528600928
 30
0.0
 11
-355.0625214358988
 21
21.21945728600927
 31
0.0
  0
ARC
  5
7C9
330
36
100
AcDbEntity
  8
0
 62
     7
100
AcDbCircle
 10
-357.4959404358988
 20
24.83444128600929
 30
0.0
 40
0.176509
100
AcDbArc
 50
180.2551139999997
 51
270.2551140000005
  0
LINE
  5
7CA
330
36
100
AcDbEntity
  8
0
 62
     7
100
AcDbLine
 10
-357.4951544358988
 20
24.65793428600929
 30
0.0
 11
-355.6276824358988
 21
24.66624928600928
 31
0.0
  0
LINE
  5
7CB
330
36
100
AcDbEntity
  8
0
 62
     7
100
AcDbLine
 10
-358.0462724358988
 20
24.96673228600928
 30
0.0
 11
-357.6730474358988
 21
24.96839328600927
 31
0.0
  0
LINE
  5
7CC
330
36
100
AcDbEntity
  8
0
 62
     7
100
AcDbLine
 10
-357.6724474358988
 20
24.83365528600927
 30
0.0
 11
-357.6730474358988
 21
24.96839328600927
 31
0.0
  0
LINE
  5
7CD
330
36
100
AcDbEntity
  8
0
 62
     7
100
AcDbLine
 10
-358.0462724358988
 20
24.96673228600928
 30
0.0
 11
-358.0390674358988
 21
23.34852528600928
 31
0.0
  0
LINE
  5
7CE
330
36
100
AcDbEntity
  8
0
 62
     7
100
AcDbLine
 10
-358.0390674358988
 20
23.34852528600928
 30
0.0
 11
-357.6658424358988
 21
23.35018728600929
 31
0.0
  0
LINE
  5
7CF
330
36
100
AcDbEntity
  8
0
 62
     7
100
AcDbLine
 10
-355.4552464358987
 20
25.58138728600928
 30
0.0
 11
-355.0820214358988
 21
25.58304928600927
 31
0.0
  0
ARC
  5
7D0
330
36
100
AcDbEntity
  8
0
 62
     7
100
AcDbCircle
 10
-355.6323534358987
 20
25.71534028600928
 30
0.0
 40
0.176509
100
AcDbArc
 50
0.2551139999997059
 51
90.25511400000052
  0
LINE
  5
7D1
330
36
100
AcDbEntity
  8
0
 62
     7
100
AcDbLine
 10
-355.4558464358988
 20
25.71612628600929
 30
0.0
 11
-355.4552464358987
 21
25.58138728600928
 31
0.0
  0
LINE
  5
7D2
330
36
100
AcDbEntity
  8
0
 62
     7
100
AcDbLine
 10
-355.0898014358986
 20
27.33038928600928
 30
0.0
 11
-355.0820214358988
 21
25.58304928600927
 31
0.0
  0
LINE
  5
7D3
330
36
100
AcDbEntity
  8
0
 62
     7
100
AcDbLine
 10
-357.5006114358988
 20
25.88353228600928
 30
0.0
 11
-355.6331394358988
 21
25.89184728600928
 31
0.0
  0
LINE
  5
7D4
330
36
100
AcDbEntity
  8
0
 62
     7
100
AcDbLine
 10
-357.5778044358988
 20
26.87892428600929
 30
0.0
 11
-355.5648144358988
 21
26.88788728600929
 31
0.0
  0
LINE
  5
7D5
330
36
100
AcDbEntity
  8
0
 62
     7
100
AcDbLine
 10
-355.5648144358988
 20
26.88788728600929
 30
0.0
 11
-355.5654184358989
 21
27.02363528600928
 31
0.0
  0
ARC
  5
7D6
330
36
100
AcDbEntity
  8
0
 62
     7
100
AcDbCircle
 10
-356.5688224358988
 20
26.32502728600929
 30
0.0
 40
1.22265
100
AcDbArc
 50
34.84706900000083
 51
145.6631589999989
  0
ARC
  5
7D7
330
36
100
AcDbEntity
  8
0
 62
     7
100
AcDbCircle
 10
-356.2620244358988
 20
27.32517028600928
 30
0.0
 40
1.172235
100
AcDbArc
 50
0.2551139999997059
 51
72.94636499999959
  0
ARC
  5
7D8
330
36
100
AcDbEntity
  8
0
 62
     7
100
AcDbCircle
 10
-356.8845154358986
 20
27.32239828600928
 30
0.0
 40
1.172235
100
AcDbArc
 50
107.5638630000009
 51
180.2551139999997
  0
LINE
  5
7D9
330
36
100
AcDbEntity
  8
0
 62
     7
100
AcDbLine
 10
-358.0567384358988
 20
27.31717928600928
 30
0.0
 11
-358.0489584358987
 21
25.56983928600928
 31
0.0
  0
LINE
  5
7DA
330
36
100
AcDbEntity
  8
0
 62
     7
100
AcDbLine
 10
-358.0489584358987
 20
25.56983928600928
 30
0.0
 11
-357.6757334358988
 21
25.57150028600928
 31
0.0
  0
LINE
  5
7DB
330
36
100
AcDbEntity
  8
0
 62
     7
100
AcDbLine
 10
-357.6763334358988
 20
25.70623928600928
 30
0.0
 11
-357.6757334358988
 21
25.57150028600928
 31
0.0
  0
ARC
  5
7DC
330
36
100
AcDbEntity
  8
0
 62
     7
100
AcDbCircle
 10
-357.4998264358987
 20
25.70702528600929
 30
0.0
 40
0.176509
100
AcDbArc
 50
90.25511400000052
 51
180.2551139999997
  0
ARC
  5
7DD
330
36
100
AcDbEntity
  8
0
 62
     7
100
AcDbCircle
 10
-355.6224624358987
 20
23.49402628600927
 30
0.0
 40
0.176509
100
AcDbArc
 50
0.2551139999997059
 51
90.25511400000052
  0
LINE
  5
7DE
330
36
100
AcDbEntity
  8
0
 62
     7
100
AcDbLine
 10
-355.4459554358988
 20
23.49481228600928
 30
0.0
 11
-355.4453554358988
 21
23.36007428600928
 31
0.0
  0
LINE
  5
7DF
330
36
100
AcDbEntity
  8
0
 62
     7
100
AcDbLine
 10
-355.4453554358988
 20
23.36007428600928
 30
0.0
 11
-355.0721304358988
 21
23.36173628600928
 31
0.0
  0
LINE
  5
7E0
330
36
100
AcDbEntity
  8
0
 62
     7
100
AcDbLine
 10
-357.5778044358988
 20
26.87892428600929
 30
0.0
 11
-357.5784084358986
 21
27.01467128600928
 31
0.0
  0
ARC
  5
7E1
330
36
100
AcDbEntity
  8
0
 62
     7
100
AcDbCircle
 10
-356.5688224358988
 20
26.32502728600929
 30
0.0
 40
2.218374999999999
100
AcDbArc
 50
72.94636499999959
 51
107.5636800000008
  0
ARC
  5
7E2
330
36
100
AcDbEntity
  8
0
 62
     7
100
AcDbCircle
 10
-356.7604094358987
 20
26.95787928600927
 30
0.0
 40
2.104519999999999
100
AcDbArc
 50
63.93039799999985
 51
109.9457489999993
  0
ARC
  5
7E3
330
36
100
AcDbEntity
  8
0
 62
     7
100
AcDbCircle
 10
-356.5701234358987
 20
31.76006928600927
 30
0.0
 40
1.968491999999999
100
AcDbArc
 50
239.5895270000009
 51
299.6165809999991
  0
ARC
  5
7E4
330
36
100
AcDbEntity
  8
0
 62
     7
100
AcDbCircle
 10
-356.5909934358988
 20
30.12501328600929
 30
0.0
 40
1.483482999999996
100
AcDbArc
 50
300.6129539999998
 51
233.2631929999994
  0
ARC
  5
7E5
330
36
100
AcDbEntity
  8
0
 62
     7
100
AcDbCircle
 10
-356.5555624358988
 20
28.49020828600929
 30
0.0
 40
1.968491999999999
100
AcDbArc
 50
60.62738699999815
 51
121.0956389999992
  0
ARC
  5
7E6
330
36
100
AcDbEntity
  8
0
 62
     7
100
AcDbCircle
 10
-357.5145864358987
 20
30.12185928600928
 30
0.0
 40
0.078971
100
AcDbArc
 50
136.8768850000008
 51
228.844383000001
  0
ARC
  5
7E7
330
36
100
AcDbEntity
  8
0
 62
     7
100
AcDbCircle
 10
-355.6569084358987
 20
30.13013028600929
 30
0.0
 40
0.100866
100
AcDbArc
 50
306.2202370000012
 51
48.47693000000105
  0
LINE
  5
7E8
330
36
100
AcDbEntity
  8
0
 62
     7
100
AcDbLine
 10
-357.4560684358987
 20
15.88160528600927
 30
0.0
 11
-355.5885954358988
 21
15.88988828600928
 31
0.0
  0
LINE
  5
7E9
330
36
100
AcDbEntity
  8
0
 62
     7
100
AcDbLine
 10
-355.4128714358987
 20
16.06717828600928
 30
0.0
 11
-355.4134694358987
 21
16.20191628600928
 31
0.0
  0
ARC
  5
7EA
330
36
100
AcDbEntity
  8
0
 62
     7
100
AcDbCircle
 10
-355.5893784358988
 20
16.06639528600928
 30
0.0
 40
0.176509
100
AcDbArc
 50
270.2541139999985
 51
0.2541140000001871
  0
LINE
  5
7EB
330
36
100
AcDbEntity
  8
0
 62
     7
100
AcDbLine
 10
-355.4134694358987
 20
16.20191628600928
 30
0.0
 11
-355.0402444358988
 21
16.20357128600928
 31
0.0
  0
LINE
  5
7EC
330
36
100
AcDbEntity
  8
0
 62
     7
100
AcDbLine
 10
-355.0330674358988
 20
14.58536428600928
 30
0.0
 11
-355.0402444358988
 21
16.20357128600928
 31
0.0
  0
LINE
  5
7ED
330
36
100
AcDbEntity
  8
0
 62
     7
100
AcDbLine
 10
-356.7610644358989
 20
11.90702628600928
 30
0.0
 11
-355.5708944358987
 21
11.91232628600927
 31
0.0
  0
ARC
  5
7EE
330
36
100
AcDbEntity
  8
0
 62
     7
100
AcDbCircle
 10
-355.5716804358988
 20
12.08883328600927
 30
0.0
 40
0.176509
100
AcDbArc
 50
270.2551140000005
 51
0.2551139999997059
  0
LINE
  5
7EF
330
36
100
AcDbEntity
  8
0
 62
     7
100
AcDbLine
 10
-355.0176524358988
 20
11.12655428600928
 30
0.0
 11
-355.0225474358989
 21
12.22601928600927
 31
0.0
  0
ARC
  5
7F0
330
36
100
AcDbEntity
  8
0
 62
     7
100
AcDbCircle
 10
-356.5315874358987
 20
17.96249128600928
 30
0.0
 40
1.483482999999996
100
AcDbArc
 50
137.0079939999992
 51
43.0782340000004
  0
ARC
  5
7F1
330
36
100
AcDbEntity
  8
0
 62
     7
100
AcDbCircle
 10
-356.5244834358987
 20
8.521289286009277
 30
0.0
 40
10.50969
100
AcDbArc
 50
84.12111999999998
 51
87.94914800000098
  0
LINE
  5
7F2
330
36
100
AcDbEntity
  8
0
 62
     7
100
AcDbLine
 10
-356.1478494358988
 20
18.32062028600927
 30
0.0
 11
-356.1483784358987
 21
19.02424728600928
 31
0.0
  0
LINE
  5
7F4
330
36
100
AcDbEntity
  8
0
 62
     7
100
AcDbLine
 10
-356.9158644358988
 20
18.32004228600928
 30
0.0
 11
-356.9163944358987
 21
19.02366928600928
 31
0.0
  0
ARC
  5
7F5
330
36
100
AcDbEntity
  8
0
 62
     7
100
AcDbCircle
 10
-356.5244834358987
 20
8.521289286009277
 30
0.0
 40
10.50969
100
AcDbArc
 50
92.1370799999987
 51
95.96510800000206
  0
ARC
  5
7F6
330
36
100
AcDbEntity
  8
0
 62
     7
100
AcDbCircle
 10
-357.4568514358988
 20
16.05811228600927
 30
0.0
 40
0.176509
100
AcDbArc
 50
180.2541419999998
 51
270.2541139999985
  0
LINE
  5
7F7
330
36
100
AcDbEntity
  8
0
 62
     7
100
AcDbLine
 10
-358.0071814358988
 20
16.19041228600927
 30
0.0
 11
-357.6339564358988
 21
16.19206828600927
 31
0.0
  0
LINE
  5
7F8
330
36
100
AcDbEntity
  8
0
 62
     7
100
AcDbLine
 10
-358.0000044358988
 20
14.57220528600928
 30
0.0
 11
-358.0071814358988
 21
16.19041228600927
 31
0.0
  0
LINE
  5
7F9
330
36
100
AcDbEntity
  8
0
 62
     7
100
AcDbLine
 10
-357.6333584358987
 20
16.05732928600928
 30
0.0
 11
-357.6339564358988
 21
16.19206828600927
 31
0.0
  0
ARC
  5
7FA
330
36
100
AcDbEntity
  8
0
 62
     7
100
AcDbCircle
 10
-357.4508604358987
 20
14.70936928600927
 30
0.0
 40
0.176509
100
AcDbArc
 50
90.25491700000046
 51
180.2548880000001
  0
LINE
  5
7FB
330
36
100
AcDbEntity
  8
0
 62
     7
100
AcDbLine
 10
-357.4516454358987
 20
14.88587628600928
 30
0.0
 11
-355.5841724358987
 21
14.89418528600927
 31
0.0
  0
ARC
  5
7FC
330
36
100
AcDbEntity
  8
0
 62
     7
100
AcDbCircle
 10
-355.5833964358988
 20
14.71766428600927
 30
0.0
 40
0.176509
100
AcDbArc
 50
0.2541140000001871
 51
90.25411399999851
  0
LINE
  5
7FD
330
36
100
AcDbEntity
  8
0
 62
     7
100
AcDbLine
 10
-355.4062924358988
 20
14.58370928600928
 30
0.0
 11
-355.0330674358988
 21
14.58536428600928
 31
0.0
  0
LINE
  5
7FE
330
36
100
AcDbEntity
  8
0
 62
     7
100
AcDbLine
 10
-355.4068894358987
 20
14.71844728600928
 30
0.0
 11
-355.4062924358988
 21
14.58370928600928
 31
0.0
  0
LINE
  5
7FF
330
36
100
AcDbEntity
  8
0
 62
     7
100
AcDbLine
 10
-358.0000044358988
 20
14.57220528600928
 30
0.0
 11
-357.6267794358988
 21
14.57386128600927
 31
0.0
  0
LINE
  5
800
330
36
100
AcDbEntity
  8
0
 62
     7
100
AcDbLine
 10
-357.6273764358989
 20
14.70859928600927
 30
0.0
 11
-357.6267794358988
 21
14.57386128600927
 31
0.0
  0
LINE
  5
801
330
36
100
AcDbEntity
  8
0
 62
     7
100
AcDbLine
 10
-355.3957724358987
 20
12.22435728600928
 30
0.0
 11
-355.0225474358989
 21
12.22601928600927
 31
0.0
  0
LINE
  5
802
330
36
100
AcDbEntity
  8
0
 62
     7
100
AcDbLine
 10
-355.3951724358987
 20
12.08961928600928
 30
0.0
 11
-355.3957724358987
 21
12.22435728600928
 31
0.0
  0
LINE
  5
803
330
36
100
AcDbEntity
  8
0
 62
     7
100
AcDbLine
 10
-356.7610644358989
 20
11.90702628600928
 30
0.0
 11
-355.0260034358988
 21
13.00221328600928
 31
0.0
  0
LINE
  5
804
330
36
100
AcDbEntity
  8
0
 62
     7
100
AcDbLine
 10
-355.0260034358988
 20
13.00221328600928
 30
0.0
 11
-355.0292464358987
 21
13.73037228600928
 31
0.0
  0
LINE
  5
805
330
36
100
AcDbEntity
  8
0
 62
     7
100
AcDbLine
 10
-357.3427024358988
 20
13.72007128600927
 30
0.0
 11
-355.0292464358987
 21
13.73037228600928
 31
0.0
  0
ARC
  5
806
330
36
100
AcDbEntity
  8
0
 62
     7
100
AcDbCircle
 10
-357.3439504358987
 20
14.00032628600928
 30
0.0
 40
0.280258
100
AcDbArc
 50
173.9065400000002
 51
270.2551140000005
  0
LINE
  5
807
330
36
100
AcDbEntity
  8
0
 62
     7
100
AcDbLine
 10
-357.9975684358988
 20
14.02840628600927
 30
0.0
 11
-357.6226254358987
 21
14.03007628600927
 31
0.0
  0
LINE
  5
808
330
36
100
AcDbEntity
  8
0
 62
     7
100
AcDbLine
 10
-357.9926734358987
 20
12.92894228600927
 30
0.0
 11
-357.9975684358988
 21
14.02840628600927
 31
0.0
  0
LINE
  5
809
330
36
100
AcDbEntity
  8
0
 62
     7
100
AcDbLine
 10
-357.9926734358987
 20
12.92894228600927
 30
0.0
 11
-357.6194484358989
 21
12.93060428600927
 31
0.0
  0
LINE
  5
80A
330
36
100
AcDbEntity
  8
0
 62
     7
100
AcDbLine
 10
-357.6194484358989
 20
12.93060428600927
 30
0.0
 11
-357.6200484358988
 21
13.06534228600928
 31
0.0
  0
ARC
  5
80B
330
36
100
AcDbEntity
  8
0
 62
     7
100
AcDbCircle
 10
-357.4435414358987
 20
13.06612828600927
 30
0.0
 40
0.176509
100
AcDbArc
 50
90.25511400000052
 51
180.2551139999997
  0
LINE
  5
80C
330
36
100
AcDbEntity
  8
0
 62
     7
100
AcDbLine
 10
-356.6502394358987
 20
13.24617128600928
 30
0.0
 11
-357.4443264358988
 21
13.24263528600927
 31
0.0
  0
LINE
  5
80D
330
36
100
AcDbEntity
  8
0
 62
     7
100
AcDbLine
 10
-356.6502394358987
 20
13.24617128600928
 30
0.0
 11
-357.9901324358989
 21
12.35830628600928
 31
0.0
  0
LINE
  5
80E
330
36
100
AcDbEntity
  8
0
 62
     7
100
AcDbLine
 10
-357.9845894358988
 20
11.11334428600928
 30
0.0
 11
-357.9901324358989
 21
12.35830628600928
 31
0.0
  0
LINE
  5
80F
330
36
100
AcDbEntity
  8
0
 62
     7
100
AcDbLine
 10
-355.6060174358988
 20
19.81640528600928
 30
0.0
 11
-357.4734894358987
 21
19.80809028600926
 31
0.0
  0
LINE
  5
810
330
36
100
AcDbEntity
  8
0
 62
     7
100
AcDbLine
 10
-358.0220674358987
 20
19.54627128600927
 30
0.0
 11
-358.0288104358988
 21
21.06072928600928
 31
0.0
  0
ARC
  5
811
330
36
100
AcDbEntity
  8
0
 62
     7
100
AcDbCircle
 10
-357.4729344358988
 20
19.68345728600928
 30
0.0
 40
0.124634
100
AcDbArc
 50
90.25511400000052
 51
180.2551139999997
  0
LINE
  5
812
330
36
100
AcDbEntity
  8
0
 62
     7
100
AcDbLine
 10
-357.5975674358988
 20
19.68290228600928
 30
0.0
 11
-357.5969674358987
 21
19.54816428600928
 31
0.0
  0
LINE
  5
813
330
36
100
AcDbEntity
  8
0
 62
     7
100
AcDbLine
 10
-357.5969674358987
 20
19.54816428600928
 30
0.0
 11
-358.0220674358987
 21
19.54627128600927
 31
0.0
  0
ARC
  5
814
330
36
100
AcDbEntity
  8
0
 62
     7
100
AcDbCircle
 10
-355.6054624358988
 20
19.69177228600928
 30
0.0
 40
0.124634
100
AcDbArc
 50
0.2551139999997059
 51
90.25511400000052
  0
LINE
  5
815
330
36
100
AcDbEntity
  8
0
 62
     7
100
AcDbLine
 10
-355.4808294358987
 20
19.69232728600927
 30
0.0
 11
-355.4802294358988
 21
19.55758928600927
 31
0.0
  0
LINE
  5
816
330
36
100
AcDbEntity
  8
0
 62
     7
100
AcDbLine
 10
-355.0551304358986
 20
19.55948128600929
 30
0.0
 11
-355.4802294358988
 21
19.55758928600927
 31
0.0
  0
LINE
  5
817
330
36
100
AcDbEntity
  8
0
 62
     7
100
AcDbLine
 10
-355.0551304358986
 20
19.55948128600929
 30
0.0
 11
-355.0618734358987
 21
21.07394028600928
 31
0.0
  0
ARC
  5
818
330
36
100
AcDbEntity
  8
0
 62
     7
100
AcDbCircle
 10
-357.4800954358988
 20
21.29155828600928
 30
0.0
 40
0.176509
100
AcDbArc
 50
90.25511400000052
 51
170.6610459999996
  0
LINE
  5
819
330
36
100
AcDbEntity
  8
0
 62
     7
100
AcDbLine
 10
-357.6542644358988
 20
21.32020128600928
 30
0.0
 11
-357.6537644358988
 21
21.20791928600929
 31
0.0
  0
LINE
  5
81A
330
36
100
AcDbEntity
  8
0
 62
     7
100
AcDbLine
 10
-356.7856314358987
 20
21.47116128600928
 30
0.0
 11
-357.4808814358986
 21
21.46806528600928
 31
0.0
  0
LINE
  5
81B
330
36
100
AcDbEntity
  8
0
 62
     7
100
AcDbLine
 10
-356.7856314358987
 20
21.47116128600928
 30
0.0
 11
-356.7826734358988
 21
20.80690128600928
 31
0.0
  0
LINE
  5
81C
330
36
100
AcDbEntity
  8
0
 62
     7
100
AcDbLine
 10
-356.3086584358988
 20
21.47328528600929
 30
0.0
 11
-356.3057004358987
 21
20.80902528600927
 31
0.0
  0
LINE
  5
81D
330
36
100
AcDbEntity
  8
0
 62
     7
100
AcDbLine
 10
-355.6134084358987
 20
21.47638028600928
 30
0.0
 11
-356.3086584358988
 21
21.47328528600929
 31
0.0
  0
ARC
  5
81E
330
36
100
AcDbEntity
  8
0
 62
     7
100
AcDbCircle
 10
-355.6126224358987
 20
21.29987328600927
 30
0.0
 40
0.176509
100
AcDbArc
 50
9.849182000000572
 51
90.25511400000052
  0
LINE
  5
81F
330
36
100
AcDbEntity
  8
0
 62
     7
100
AcDbLine
 10
-355.4387154358987
 20
21.33006628600929
 30
0.0
 11
-355.4382154358988
 21
21.21778428600928
 31
0.0
  0
LINE
  5
820
330
36
100
AcDbEntity
  8
0
 62
     7
100
AcDbLine
 10
-355.4382154358988
 20
21.21778428600928
 30
0.0
 11
-355.0625214358988
 21
21.21945728600927
 31
0.0
  0
LINE
  5
821
330
36
100
AcDbEntity
  8
0
 62
     7
100
AcDbLine
 10
-355.4375674358988
 20
21.07226728600928
 30
0.0
 11
-355.0618734358987
 21
21.07394028600928
 31
0.0
  0
LINE
  5
822
330
36
100
AcDbEntity
  8
0
 62
     7
100
AcDbLine
 10
-355.4370674358988
 20
20.95998528600927
 30
0.0
 11
-355.4375674358988
 21
21.07226728600928
 31
0.0
  0
ARC
  5
823
330
36
100
AcDbEntity
  8
0
 62
     7
100
AcDbCircle
 10
-355.6112364358987
 20
20.98862828600929
 30
0.0
 40
0.176509
100
AcDbArc
 50
270.2551140000005
 51
350.6610459999996
  0
LINE
  5
824
330
36
100
AcDbEntity
  8
0
 62
     7
100
AcDbLine
 10
-355.6104504358988
 20
20.81212128600927
 30
0.0
 11
-356.3057004358987
 21
20.80902528600927
 31
0.0
  0
LINE
  5
825
330
36
100
AcDbEntity
  8
0
 62
     7
100
AcDbLine
 10
-356.7826734358988
 20
20.80690128600928
 30
0.0
 11
-357.4779234358987
 21
20.80380628600928
 31
0.0
  0
ARC
  5
826
330
36
100
AcDbEntity
  8
0
 62
     7
100
AcDbCircle
 10
-357.4787094358987
 20
20.98031328600928
 30
0.0
 40
0.176509
100
AcDbArc
 50
189.8491820000005
 51
270.2551140000005
  0
LINE
  5
827
330
36
100
AcDbEntity
  8
0
 62
     7
100
AcDbLine
 10
-357.6526164358988
 20
20.95012028600928
 30
0.0
 11
-357.6531164358988
 21
21.06240228600928
 31
0.0
  0
LINE
  5
828
330
36
100
AcDbEntity
  8
0
 62
     7
100
AcDbLine
 10
-357.6531164358988
 20
21.06240228600928
 30
0.0
 11
-358.0288104358988
 21
21.06072928600928
 31
0.0
  0
LINE
  5
829
330
36
100
AcDbEntity
  8
0
 62
     7
100
AcDbLine
 10
-357.6537644358988
 20
21.20791928600929
 30
0.0
 11
-358.0294584358987
 21
21.20624628600928
 31
0.0
  0
LINE
  5
82A
330
36
100
AcDbEntity
  8
0
 62
     7
100
AcDbLine
 10
-355.3908774358987
 20
11.12489328600928
 30
0.0
 11
-355.0176524358988
 21
11.12655428600928
 31
0.0
  0
LINE
  5
82B
330
36
100
AcDbEntity
  8
0
 62
     7
100
AcDbLine
 10
-357.4362424358988
 20
11.42703728600928
 30
0.0
 11
-355.5687704358987
 21
11.43535228600927
 31
0.0
  0
ARC
  5
82C
330
36
100
AcDbEntity
  8
0
 62
     7
100
AcDbCircle
 10
-355.5679844358988
 20
11.25884528600927
 30
0.0
 40
0.176509
100
AcDbArc
 50
0.2551139999997059
 51
90.25511400000052
  0
LINE
  5
82D
330
36
100
AcDbEntity
  8
0
 62
     7
100
AcDbLine
 10
-355.3914774358988
 20
11.25963128600928
 30
0.0
 11
-355.3908774358987
 21
11.12489328600928
 31
0.0
  0
ARC
  5
82E
330
36
100
AcDbEntity
  8
0
 62
     7
100
AcDbCircle
 10
-357.4354564358988
 20
11.25053028600928
 30
0.0
 40
0.176509
100
AcDbArc
 50
90.25511400000052
 51
180.2551139999997
  0
LINE
  5
82F
330
36
100
AcDbEntity
  8
0
 62
     7
100
AcDbLine
 10
-357.9845894358988
 20
11.11334428600928
 30
0.0
 11
-357.6113644358987
 21
11.11500628600927
 31
0.0
  0
LINE
  5
830
330
36
100
AcDbEntity
  8
0
 62
     7
100
AcDbLine
 10
-357.6119644358988
 20
11.24974428600927
 30
0.0
 11
-357.6113644358987
 21
11.11500628600927
 31
0.0
  0
ARC
  5
831
330
36
100
AcDbEntity
  8
0
 62
     3
100
AcDbCircle
 10
-348.1510074358987
 20
24.29671628600929
 30
0.0
 40
15.0
100
AcDbArc
 50
270.0
 51
302.5740570000004
  0
LINE
  5
832
330
36
100
AcDbEntity
  8
0
 62
     3
100
AcDbLine
 10
-348.1510074358987
 20
9.296716286009283
 30
0.0
 11
-352.7683864358987
 21
9.296716286009283
 31
0.0
  0
ARC
  5
833
330
36
100
AcDbEntity
  8
0
 62
     3
100
AcDbCircle
 10
-356.5183864358987
 20
4.596476286009276
 30
0.0
 40
6.012882
100
AcDbArc
 50
51.41602299999982
 51
128.5839770000001
  0
ARC
  5
834
330
36
100
AcDbEntity
  8
0
 62
     3
100
AcDbCircle
 10
-356.5183864358987
 20
37.99695528600928
 30
0.0
 40
6.012882
100
AcDbArc
 50
231.4160229999998
 51
308.5839770000002
  0
LINE
  5
835
330
36
100
AcDbEntity
  8
0
 62
     3
100
AcDbLine
 10
-348.1510074358987
 20
33.29671628600929
 30
0.0
 11
-352.7683864358987
 21
33.29671628600929
 31
0.0
  0
ARC
  5
836
330
36
100
AcDbEntity
  8
0
 62
     3
100
AcDbCircle
 10
-348.1510074358987
 20
18.29671628600928
 30
0.0
 40
15.0
100
AcDbArc
 50
57.42594299999955
 51
90.0
  0
LINE
  5
837
330
36
100
AcDbEntity
  8
0
 62
     7
100
AcDbLine
 10
-358.7147244358988
 20
10.29671628600928
 30
0.0
 11
-358.7147244358988
 21
32.29671628600929
 31
0.0
  0
LINE
  5
838
330
36
100
AcDbEntity
  8
0
 62
     7
100
AcDbLine
 10
-360.2683864358987
 20
9.296716286009283
 30
0.0
 11
-360.2683864358987
 21
33.29671628600929
 31
0.0
  0
TEXT
  5
839
330
36
100
AcDbEntity
  8
0
 62
     7
100
AcDbText
 10
-396.6681954358987
 20
17.34652128600927
 30
0.0
 40
1.6
  1
防　雨　型
 50
90.00000300000001
 41
0.833333
100
AcDbText
  0
LINE
  5
83A
330
36
100
AcDbEntity
  8
0
 62
     7
100
AcDbLine
 10
-405.6659524358988
 20
13.51052228600927
 30
0.0
 11
-408.6659524358986
 21
13.51052228600927
 31
0.0
  0
LINE
  5
83B
330
36
100
AcDbEntity
  8
0
 62
     7
100
AcDbLine
 10
-406.4159524358986
 20
14.26052228600928
 30
0.0
 11
-407.9159524358986
 21
14.26052228600928
 31
0.0
  0
LINE
  5
83C
330
36
100
AcDbEntity
  8
0
 62
     7
100
AcDbLine
 10
-408.6659524358986
 20
19.51052228600928
 30
0.0
 11
-408.6659524358986
 21
13.51052228600927
 31
0.0
  0
LINE
  5
83D
330
36
100
AcDbEntity
  8
0
 62
     7
100
AcDbLine
 10
-407.9159524358986
 20
18.76052228600928
 30
0.0
 11
-407.9159524358986
 21
14.26052228600928
 31
0.0
  0
LINE
  5
83E
330
36
100
AcDbEntity
  8
0
 62
     7
100
AcDbLine
 10
-406.4159524358986
 20
18.76052228600928
 30
0.0
 11
-406.4159524358986
 21
14.26052228600928
 31
0.0
  0
LINE
  5
83F
330
36
100
AcDbEntity
  8
0
 62
     7
100
AcDbLine
 10
-405.6659524358988
 20
19.51052228600928
 30
0.0
 11
-405.6659524358988
 21
13.51052228600927
 31
0.0
  0
LINE
  5
840
330
36
100
AcDbEntity
  8
0
 62
     7
100
AcDbLine
 10
-405.6659524358988
 20
19.51052228600928
 30
0.0
 11
-408.6659524358986
 21
19.51052228600928
 31
0.0
  0
LINE
  5
841
330
36
100
AcDbEntity
  8
0
 62
     7
100
AcDbLine
 10
-406.4159524358986
 20
18.76052228600928
 30
0.0
 11
-407.9159524358986
 21
18.76052228600928
 31
0.0
  0
LINE
  5
842
330
36
100
AcDbEntity
  8
0
 62
     7
100
AcDbLine
 10
-410.8159524358987
 20
24.26052228600929
 30
0.0
 11
-413.8159524358988
 21
24.26052228600929
 31
0.0
  0
LINE
  5
843
330
36
100
AcDbEntity
  8
0
 62
     7
100
AcDbLine
 10
-413.8159524358988
 20
24.26052228600929
 30
0.0
 11
-413.8159524358988
 21
18.26052228600928
 31
0.0
  0
LINE
  5
844
330
36
100
AcDbEntity
  8
0
 62
     7
100
AcDbLine
 10
-411.5659524358988
 20
23.51052228600928
 30
0.0
 11
-413.0659524358986
 21
23.51052228600928
 31
0.0
  0
LINE
  5
845
330
36
100
AcDbEntity
  8
0
 62
     7
100
AcDbLine
 10
-413.0659524358986
 20
23.51052228600928
 30
0.0
 11
-413.0659524358986
 21
19.01052228600928
 31
0.0
  0
LINE
  5
846
330
36
100
AcDbEntity
  8
0
 62
     7
100
AcDbLine
 10
-411.5659524358988
 20
23.51052228600928
 30
0.0
 11
-411.5659524358988
 21
19.01052228600928
 31
0.0
  0
LINE
  5
847
330
36
100
AcDbEntity
  8
0
 62
     7
100
AcDbLine
 10
-410.8159524358987
 20
24.26052228600929
 30
0.0
 11
-410.8159524358987
 21
18.26052228600928
 31
0.0
  0
LINE
  5
848
330
36
100
AcDbEntity
  8
0
 62
     7
100
AcDbLine
 10
-411.5659524358988
 20
19.01052228600928
 30
0.0
 11
-413.0659524358986
 21
19.01052228600928
 31
0.0
  0
LINE
  5
849
330
36
100
AcDbEntity
  8
0
 62
     7
100
AcDbLine
 10
-410.8159524358987
 20
18.26052228600928
 30
0.0
 11
-413.8159524358988
 21
18.26052228600928
 31
0.0
  0
LINE
  5
84A
330
36
100
AcDbEntity
  8
0
 62
     7
100
AcDbLine
 10
-400.5159524358986
 20
24.26052228600929
 30
0.0
 11
-403.5159524358986
 21
24.26052228600929
 31
0.0
  0
LINE
  5
84B
330
36
100
AcDbEntity
  8
0
 62
     7
100
AcDbLine
 10
-403.5159524358986
 20
24.26052228600929
 30
0.0
 11
-403.5159524358986
 21
18.26052228600928
 31
0.0
  0
LINE
  5
84C
330
36
100
AcDbEntity
  8
0
 62
     7
100
AcDbLine
 10
-401.2659524358986
 20
23.51052228600928
 30
0.0
 11
-402.7659524358986
 21
23.51052228600928
 31
0.0
  0
LINE
  5
84D
330
36
100
AcDbEntity
  8
0
 62
     7
100
AcDbLine
 10
-402.7659524358986
 20
23.51052228600928
 30
0.0
 11
-402.7659524358986
 21
19.01052228600928
 31
0.0
  0
LINE
  5
84E
330
36
100
AcDbEntity
  8
0
 62
     7
100
AcDbLine
 10
-401.2659524358986
 20
23.51052228600928
 30
0.0
 11
-401.2659524358986
 21
19.01052228600928
 31
0.0
  0
LINE
  5
84F
330
36
100
AcDbEntity
  8
0
 62
     7
100
AcDbLine
 10
-401.2659524358986
 20
19.01052228600928
 30
0.0
 11
-402.7659524358986
 21
19.01052228600928
 31
0.0
  0
LINE
  5
850
330
36
100
AcDbEntity
  8
0
 62
     7
100
AcDbLine
 10
-400.5159524358986
 20
18.26052228600928
 30
0.0
 11
-403.5159524358986
 21
18.26052228600928
 31
0.0
  0
LINE
  5
851
330
36
100
AcDbEntity
  8
0
 62
     7
100
AcDbLine
 10
-410.1659524358986
 20
24.91052228600928
 30
0.0
 11
-404.1659524358986
 21
24.91052228600928
 31
0.0
  0
LINE
  5
852
330
36
100
AcDbEntity
  8
0
 62
     7
100
AcDbLine
 10
-409.4159524358986
 20
25.66052228600928
 30
0.0
 11
-404.9159524358986
 21
25.66052228600928
 31
0.0
  0
LINE
  5
853
330
36
100
AcDbEntity
  8
0
 62
     7
100
AcDbLine
 10
-410.1659524358986
 20
27.91052228600928
 30
0.0
 11
-410.1659524358986
 21
24.91052228600928
 31
0.0
  0
LINE
  5
854
330
36
100
AcDbEntity
  8
0
 62
     7
100
AcDbLine
 10
-409.4159524358986
 20
27.16052228600928
 30
0.0
 11
-409.4159524358986
 21
25.66052228600928
 31
0.0
  0
LINE
  5
855
330
36
100
AcDbEntity
  8
0
 62
     7
100
AcDbLine
 10
-404.1659524358986
 20
27.91052228600928
 30
0.0
 11
-404.1659524358986
 21
24.91052228600928
 31
0.0
  0
LINE
  5
856
330
36
100
AcDbEntity
  8
0
 62
     7
100
AcDbLine
 10
-404.9159524358986
 20
27.16052228600928
 30
0.0
 11
-404.9159524358986
 21
25.66052228600928
 31
0.0
  0
LINE
  5
857
330
36
100
AcDbEntity
  8
0
 62
     7
100
AcDbLine
 10
-409.4159524358986
 20
27.16052228600928
 30
0.0
 11
-404.9159524358986
 21
27.16052228600928
 31
0.0
  0
LINE
  5
858
330
36
100
AcDbEntity
  8
0
 62
     7
100
AcDbLine
 10
-410.1659524358986
 20
27.91052228600928
 30
0.0
 11
-404.1659524358986
 21
27.91052228600928
 31
0.0
  0
LINE
  5
859
330
36
100
AcDbEntity
  8
0
 62
     7
100
AcDbLine
 10
-410.1659524358986
 20
27.91052228600928
 30
0.0
 11
-409.4159524358986
 21
27.16052228600928
 31
0.0
  0
LINE
  5
85A
330
36
100
AcDbEntity
  8
0
 62
     7
100
AcDbLine
 10
-409.4159524358986
 20
25.66052228600928
 30
0.0
 11
-410.1659524358986
 21
24.91052228600928
 31
0.0
  0
LINE
  5
85B
330
36
100
AcDbEntity
  8
0
 62
     7
100
AcDbLine
 10
-404.9159524358986
 20
25.66052228600928
 30
0.0
 11
-404.1659524358986
 21
24.91052228600928
 31
0.0
  0
LINE
  5
85C
330
36
100
AcDbEntity
  8
0
 62
     7
100
AcDbLine
 10
-404.1659524358986
 20
27.91052228600928
 30
0.0
 11
-404.9159524358986
 21
27.16052228600928
 31
0.0
  0
LINE
  5
85D
330
36
100
AcDbEntity
  8
0
 62
     7
100
AcDbLine
 10
-403.5159524358986
 20
24.26052228600929
 30
0.0
 11
-402.7659524358986
 21
23.51052228600928
 31
0.0
  0
LINE
  5
85E
330
36
100
AcDbEntity
  8
0
 62
     7
100
AcDbLine
 10
-401.2659524358986
 20
23.51052228600928
 30
0.0
 11
-400.5159524358986
 21
24.26052228600929
 31
0.0
  0
LINE
  5
85F
330
36
100
AcDbEntity
  8
0
 62
     7
100
AcDbLine
 10
-401.2659524358986
 20
19.01052228600928
 30
0.0
 11
-400.5159524358986
 21
18.26052228600928
 31
0.0
  0
LINE
  5
860
330
36
100
AcDbEntity
  8
0
 62
     7
100
AcDbLine
 10
-402.7659524358986
 20
19.01052228600928
 30
0.0
 11
-403.5159524358986
 21
18.26052228600928
 31
0.0
  0
LINE
  5
861
330
36
100
AcDbEntity
  8
0
 62
     7
100
AcDbLine
 10
-410.8159524358987
 20
24.26052228600929
 30
0.0
 11
-411.5659524358988
 21
23.51052228600928
 31
0.0
  0
LINE
  5
862
330
36
100
AcDbEntity
  8
0
 62
     7
100
AcDbLine
 10
-413.0659524358986
 20
23.51052228600928
 30
0.0
 11
-413.8159524358988
 21
24.26052228600929
 31
0.0
  0
LINE
  5
863
330
36
100
AcDbEntity
  8
0
 62
     7
100
AcDbLine
 10
-413.0659524358986
 20
19.01052228600928
 30
0.0
 11
-413.8159524358988
 21
18.26052228600928
 31
0.0
  0
LINE
  5
864
330
36
100
AcDbEntity
  8
0
 62
     7
100
AcDbLine
 10
-411.5659524358988
 20
19.01052228600928
 30
0.0
 11
-410.8159524358987
 21
18.26052228600928
 31
0.0
  0
LINE
  5
865
330
36
100
AcDbEntity
  8
0
 62
     7
100
AcDbLine
 10
-408.6659524358986
 20
19.51052228600928
 30
0.0
 11
-407.9159524358986
 21
18.76052228600928
 31
0.0
  0
LINE
  5
866
330
36
100
AcDbEntity
  8
0
 62
     7
100
AcDbLine
 10
-406.4159524358986
 20
18.76052228600928
 30
0.0
 11
-405.6659524358988
 21
19.51052228600928
 31
0.0
  0
LINE
  5
867
330
36
100
AcDbEntity
  8
0
 62
     7
100
AcDbLine
 10
-406.4159524358986
 20
14.26052228600928
 30
0.0
 11
-405.6659524358988
 21
13.51052228600927
 31
0.0
  0
LINE
  5
868
330
36
100
AcDbEntity
  8
0
 62
     7
100
AcDbLine
 10
-407.9159524358986
 20
14.26052228600928
 30
0.0
 11
-408.6659524358986
 21
13.51052228600927
 31
0.0
  0
TEXT
  5
869
330
36
100
AcDbEntity
  8
0
 62
     7
100
AcDbText
 10
-411.5659514358986
 20
10.63647828600928
 30
0.0
 40
1.6
  1
19A 250V
 41
0.7166990000000001
100
AcDbText
  0
TEXT
  5
86A
330
36
100
AcDbEntity
  8
0
 62
     7
100
AcDbText
 10
-406.9916994358987
 20
29.41123728600928
 30
0.0
 40
1.404158999999999
  1
JET
100
AcDbText
  0
ARC
  5
86B
330
36
100
AcDbEntity
  8
0
 62
     7
100
AcDbCircle
 10
-401.9073304358986
 20
30.07034228600929
 30
0.0
 40
0.599625
100
AcDbArc
 50
204.1020920000005
 51
28.32624699999923
  0
LINE
  5
86C
330
36
100
AcDbEntity
  8
0
 62
     7
100
AcDbLine
 10
-401.2873604358986
 20
30.44098928600929
 30
0.0
 11
-401.8471374358986
 21
29.47142828600929
 31
0.0
  0
LINE
  5
86D
330
36
100
AcDbEntity
  8
0
 62
     7
100
AcDbLine
 10
-402.5273004358986
 20
29.69969428600928
 30
0.0
 11
-401.9675244358986
 21
30.66925628600927
 31
0.0
  0
ARC
  5
86E
330
36
100
AcDbEntity
  8
0
 62
     7
100
AcDbCircle
 10
-401.9073304358986
 20
30.07034228600929
 30
0.0
 40
0.601931
100
AcDbArc
 50
26.80229100000064
 51
204.2608300000008
  0
TEXT
  5
86F
330
36
100
AcDbEntity
  8
0
 62
     7
100
AcDbText
 10
-408.3615964358986
 20
29.41123728600928
 30
0.0
 40
1.404158999999999
  1
E
100
AcDbText
  0
TEXT
  5
870
330
36
100
AcDbEntity
  8
0
 62
     7
100
AcDbText
 10
-412.1663094358988
 20
29.41204128600928
 30
0.0
 40
1.404158999999999
  1
PS
100
AcDbText
  0
LINE
  5
871
330
36
100
AcDbEntity
  8
0
 62
     7
100
AcDbLine
 10
-413.0527764358986
 20
30.15227928600929
 30
0.0
 11
-412.3578354358986
 21
30.72174528600929
 31
0.0
  0
LINE
  5
872
330
36
100
AcDbEntity
  8
0
 62
     7
100
AcDbLine
 10
-413.0527764358986
 20
30.15227928600929
 30
0.0
 11
-412.3578354358986
 21
29.58281328600927
 31
0.0
  0
LINE
  5
873
330
36
100
AcDbEntity
  8
0
 62
     7
100
AcDbLine
 10
-408.7375624358988
 20
30.15227928600929
 30
0.0
 11
-409.4325034358986
 21
29.58281328600927
 31
0.0
  0
LINE
  5
874
330
36
100
AcDbEntity
  8
0
 62
     7
100
AcDbLine
 10
-408.7375624358988
 20
30.15227928600929
 30
0.0
 11
-409.4325034358986
 21
30.72174528600929
 31
0.0
  0
CIRCLE
  5
875
330
36
100
AcDbEntity
  8
0
 62
     7
100
AcDbCircle
 10
-410.7275054358986
 20
16.41093428600928
 30
0.0
 40
0.9374629999999999
  0
LINE
  5
876
330
36
100
AcDbEntity
  8
0
 62
     7
100
AcDbLine
 10
-410.1650284358986
 20
16.03594928600927
 30
0.0
 11
-411.2899834358986
 21
16.03594928600927
 31
0.0
  0
LINE
  5
877
330
36
100
AcDbEntity
  8
0
 62
     7
100
AcDbLine
 10
-410.7275054358986
 20
16.31718828600927
 30
0.0
 11
-410.7275054358986
 21
17.16090428600927
 31
0.0
  0
LINE
  5
878
330
36
100
AcDbEntity
  8
0
 62
     7
100
AcDbLine
 10
-410.4931394358986
 20
15.75471128600928
 30
0.0
 11
-410.9618714358986
 21
15.75471128600928
 31
0.0
  0
LINE
  5
879
330
36
100
AcDbEntity
  8
0
 62
     7
100
AcDbLine
 10
-409.9775354358986
 20
16.31718828600927
 30
0.0
 11
-411.4774754358988
 21
16.31718828600927
 31
0.0
  0
LINE
  5
87A
330
36
100
AcDbEntity
  8
0
 62
     7
100
AcDbLine
 10
-401.9073304358986
 20
30.67227328600927
 30
0.0
 11
-401.9073304358986
 21
29.46841028600929
 31
0.0
  0
LINE
  5
87B
330
36
100
AcDbEntity
  8
0
 62
     7
100
AcDbLine
 10
-400.5159524358986
 20
24.26052228600929
 30
0.0
 11
-400.5159524358986
 21
18.26052228600928
 31
0.0
  0
LINE
  5
87C
330
36
100
AcDbEntity
  8
0
 62
     3
100
AcDbLine
 10
-192.2575234358987
 20
-73.52985571399071
 30
0.0
 11
-192.2575234358987
 21
-50.5298557139907
 31
0.0
  0
LINE
  5
87D
330
36
100
AcDbEntity
  8
0
 62
     3
100
AcDbLine
 10
-245.3111324358987
 20
-80.52985571399068
 30
0.0
 11
-245.3111324358987
 21
-66.52985571399071
 31
0.0
  0
TEXT
  5
87E
330
36
100
AcDbEntity
  8
0
 62
     3
100
AcDbText
 10
-216.2472054358988
 20
-54.32473971399073
 30
0.0
 40
2.0
  1
A
 41
0.7
100
AcDbText
  0
TEXT
  5
87F
330
36
100
AcDbEntity
  8
0
 62
     3
100
AcDbText
 10
-213.7119184358987
 20
-54.32473971399073
 30
0.0
 40
2.0
  1
P
 41
0.7
100
AcDbText
  0
TEXT
  5
880
330
36
100
AcDbEntity
  8
0
 62
     3
100
AcDbText
 10
-211.1766324358987
 20
-54.32473971399073
 30
0.0
 40
2.0
  1
P
 41
0.7
100
AcDbText
  0
TEXT
  5
881
330
36
100
AcDbEntity
  8
0
 62
     3
100
AcDbText
 10
-208.6413464358988
 20
-54.32473971399073
 30
0.0
 40
2.0
  1
D
 41
0.7
100
AcDbText
  0
TEXT
  5
882
330
36
100
AcDbEntity
  8
0
 62
     3
100
AcDbText
 10
-203.2726634358988
 20
-54.32473971399073
 30
0.0
 40
2.0
  1
C
 41
0.7
100
AcDbText
  0
TEXT
  5
883
330
36
100
AcDbEntity
  8
0
 62
     3
100
AcDbText
 10
-200.7373774358988
 20
-54.32473971399073
 30
0.0
 40
2.0
  1
H
 41
0.7
100
AcDbText
  0
TEXT
  5
884
330
36
100
AcDbEntity
  8
0
 62
     3
100
AcDbText
 10
-198.2020904358987
 20
-54.32473971399073
 30
0.0
 40
2.0
  1
C
 41
0.7
100
AcDbText
  0
TEXT
  5
885
330
36
100
AcDbEntity
  8
0
 62
     3
100
AcDbText
 10
-195.6668044358987
 20
-54.32473971399073
 30
0.0
 40
2.0
  1
K
 41
0.7
100
AcDbText
  0
TEXT
  5
886
330
36
100
AcDbEntity
  8
0
 62
     3
100
AcDbText
 10
-189.9928384358987
 20
-54.32473971399073
 30
0.0
 40
2.0
  1
DESN
 41
1.216762999999998
100
AcDbText
  0
TEXT
  5
887
330
36
100
AcDbEntity
  8
0
 62
     3
100
AcDbText
 10
-274.9991964358987
 20
-83.67123771399072
 30
0.0
 40
2.0
  1
NICHIDO IND.CO.LTD
 41
1.274876
100
AcDbText
  0
LINE
  5
888
330
36
100
AcDbEntity
  8
0
 62
     3
100
AcDbLine
 10
-264.6161674358988
 20
-50.5298557139907
 30
0.0
 11
-264.6161674358988
 21
-73.52985571399071
 31
0.0
  0
LINE
  5
889
330
36
100
AcDbEntity
  8
0
 62
     3
100
AcDbLine
 10
-218.2575234358989
 20
-50.5298557139907
 30
0.0
 11
-218.2575234358989
 21
-90.19557871399072
 31
0.0
  0
LINE
  5
88A
330
36
100
AcDbEntity
  8
0
 62
     3
100
AcDbLine
 10
-205.2575234358987
 20
-50.5298557139907
 30
0.0
 11
-205.2575234358987
 21
-80.52985571399068
 31
0.0
  0
TEXT
  5
88B
330
36
100
AcDbEntity
  8
0
 62
     3
100
AcDbText
 10
-217.1450784358988
 20
-79.66516871399072
 30
0.0
 40
3.2
  1
作成日
 41
1.017225999999997
100
AcDbText
  0
LINE
  5
88C
330
36
100
AcDbEntity
  8
0
 62
     3
100
AcDbLine
 10
-166.5581594358988
 20
-50.5298557139907
 30
0.0
 11
-277.8616024358988
 21
-50.5298557139907
 31
0.0
  0
LINE
  5
88D
330
36
100
AcDbEntity
  8
0
 62
     3
100
AcDbLine
 10
-179.2575234358987
 20
-73.52985571399071
 30
0.0
 11
-179.2575234358987
 21
-50.5298557139907
 31
0.0
  0
TEXT
  5
88E
330
36
100
AcDbEntity
  8
0
 62
     3
100
AcDbText
 10
-175.9337194358987
 20
-54.23892171399072
 30
0.0
 40
1.8
  1
D
 41
0.666667
100
AcDbText
  0
TEXT
  5
88F
330
36
100
AcDbEntity
  8
0
 62
     3
100
AcDbText
 10
-173.1170914358987
 20
-54.23892171399072
 30
0.0
 40
1.8
  1
E
 41
0.666667
100
AcDbText
  0
TEXT
  5
890
330
36
100
AcDbEntity
  8
0
 62
     3
100
AcDbText
 10
-170.3004634358987
 20
-54.23892171399072
 30
0.0
 40
1.8
  1
F
 41
0.666667
100
AcDbText
  0
TEXT
  5
891
330
36
100
AcDbEntity
  8
0
 62
     3
100
AcDbText
 10
-175.9337194358987
 20
-58.23147471399071
 30
0.0
 40
3.2
  1
製図
 41
1.076369
100
AcDbText
  0
LINE
  5
892
330
36
100
AcDbEntity
  8
0
 62
     3
100
AcDbLine
 10
-277.8616024358988
 20
-50.5298557139907
 30
0.0
 11
-277.8616024358988
 21
-90.19557871399072
 31
0.0
  0
TEXT
  5
893
330
36
100
AcDbEntity
  8
0
 62
     3
100
AcDbText
 10
-276.4849494358988
 20
-89.86311271399072
 30
0.0
 40
5.0
  1
日動工業株式会社
 41
0.833333
100
AcDbText
  0
LINE
  5
894
330
36
100
AcDbEntity
  8
0
 62
     3
100
AcDbLine
 10
-234.9791984358987
 20
-66.52985571399073
 30
0.0
 11
-234.9791984358987
 21
-90.19557871399072
 31
0.0
  0
LINE
  5
895
330
36
100
AcDbEntity
  8
0
 62
     3
100
AcDbLine
 10
-234.9791984358987
 20
-85.36271671399072
 30
0.0
 11
-218.2575234358989
 21
-85.36271671399072
 31
0.0
  0
TEXT
  5
896
330
36
100
AcDbEntity
  8
0
 62
     3
100
AcDbText
 10
-234.3925964358987
 20
-84.54628671399074
 30
0.0
 40
3.2
  1
出図コード
 41
0.8356860000000001
100
AcDbText
  0
LINE
  5
897
330
36
100
AcDbEntity
  8
0
 62
     3
100
AcDbLine
 10
-277.8616024358988
 20
-80.52985571399068
 30
0.0
 11
-166.5581594358988
 21
-80.52985571399068
 31
0.0
  0
LINE
  5
898
330
36
100
AcDbEntity
  8
0
 62
     3
100
AcDbLine
 10
-277.8616024358988
 20
-59.52985571399072
 30
0.0
 11
-166.5581594358988
 21
-59.52985571399072
 31
0.0
  0
LINE
  5
899
330
36
100
AcDbEntity
  8
0
 62
     3
100
AcDbLine
 10
-277.8616024358988
 20
-66.52985571399071
 30
0.0
 11
-218.2575234358989
 21
-66.52985571399071
 31
0.0
  0
LINE
  5
89A
330
36
100
AcDbEntity
  8
0
 62
     3
100
AcDbLine
 10
-277.8616024358988
 20
-73.52985571399071
 30
0.0
 11
-166.5581594358988
 21
-73.52985571399071
 31
0.0
  0
TEXT
  5
89B
330
36
100
AcDbEntity
  8
0
 62
     3
100
AcDbText
 10
-234.5251444358988
 20
-89.59338371399073
 30
0.0
 40
3.2
  1
ZK-A4X
 41
0.8112849999999999
100
AcDbText
  0
TEXT
  5
89C
330
36
100
AcDbEntity
  8
0
 62
     3
100
AcDbText
 10
-276.0442054358989
 20
-54.36032971399071
 30
0.0
 40
2.0
  1
CONPONENTS
 41
0.5331600000000001
100
AcDbText
  0
TEXT
  5
89D
330
36
100
AcDbEntity
  8
0
 62
     3
100
AcDbText
 10
-276.3939314358988
 20
-73.2925067139907
 30
0.0
 40
3.0
  1
材
 41
0.833333
100
AcDbText
  0
TEXT
  5
89E
330
36
100
AcDbEntity
  8
0
 62
     3
100
AcDbText
 10
-268.8582894358988
 20
-73.2925067139907
 30
0.0
 40
3.0
  1
質
 41
0.833333
100
AcDbText
  0
TEXT
  5
89F
330
36
100
AcDbEntity
  8
0
 62
     3
100
AcDbText
 10
-276.3058614358988
 20
-62.66798271399071
 30
0.0
 40
2.0
  1
MODEL
 41
1.031072999999999
100
AcDbText
  0
TEXT
  5
8A0
330
36
100
AcDbEntity
  8
0
 62
     3
100
AcDbText
 10
-276.3939314358988
 20
-69.61019871399073
 30
0.0
 40
2.0
  1
MATERIAL
 41
0.659278
100
AcDbText
  0
TEXT
  5
8A1
330
36
100
AcDbEntity
  8
0
 62
     3
100
AcDbText
 10
-245.0866514358988
 20
-73.2925067139907
 30
0.0
 40
3.0
  1
備
 41
0.833333
100
AcDbText
  0
TEXT
  5
8A2
330
36
100
AcDbEntity
  8
0
 62
     3
100
AcDbText
 10
-238.3536494358988
 20
-73.2925067139907
 30
0.0
 40
3.0
  1
考
 41
0.833333
100
AcDbText
  0
TEXT
  5
8A3
330
36
100
AcDbEntity
  8
0
 62
     3
100
AcDbText
 10
-244.803810452098
 20
-69.61019871399073
 30
0.0
 40
2.0
  1
REMARKS
 41
0.675794
100
AcDbText
  0
TEXT
  5
8A4
330
36
100
AcDbEntity
  8
0
 62
     3
100
AcDbText
 10
-274.8042024358988
 20
-76.5303197139907
 30
0.0
 40
2.0
  1
3AD
 41
1.42614
100
AcDbText
  0
TEXT
  5
8A5
330
36
100
AcDbEntity
  8
0
 62
     3
100
AcDbText
 10
-265.4932234358987
 20
-76.36458571399072
 30
0.0
 40
2.0
  1
ANGLE
 41
1.669883999999996
100
AcDbText
  0
TEXT
  5
8A6
330
36
100
AcDbEntity
  8
0
 62
     3
100
AcDbText
 10
-244.5593364358987
 20
-76.74142671399072
 30
0.0
 40
2.0
  1
SCALE
 41
0.7719630000000001
100
AcDbText
  0
TEXT
  5
8A7
330
36
100
AcDbEntity
  8
0
 62
     3
100
AcDbText
 10
-275.1180734358988
 20
-80.52985571399068
 30
0.0
 40
3.0
  1
第
 41
0.833333
100
AcDbText
  0
TEXT
  5
8A8
330
36
100
AcDbEntity
  8
0
 62
     3
100
AcDbText
 10
-267.3312234358988
 20
-80.52985571399068
 30
0.0
 40
3.0
  1
三
 41
0.833333
100
AcDbText
  0
TEXT
  5
8A9
330
36
100
AcDbEntity
  8
0
 62
     3
100
AcDbText
 10
-259.5443734358988
 20
-80.52985571399068
 30
0.0
 40
3.0
  1
角
 41
0.833333
100
AcDbText
  0
TEXT
  5
8AA
330
36
100
AcDbEntity
  8
0
 62
     3
100
AcDbText
 10
-251.7575234358989
 20
-80.52985571399068
 30
0.0
 40
3.0
  1
法
 41
0.833333
100
AcDbText
  0
TEXT
  5
8AB
330
36
100
AcDbEntity
  8
0
 62
     3
100
AcDbText
 10
-244.6961314358987
 20
-80.24142671399072
 30
0.0
 40
3.0
  1
尺
 41
0.833333
100
AcDbText
  0
TEXT
  5
8AC
330
36
100
AcDbEntity
  8
0
 62
     3
100
AcDbText
 10
-237.9631294358988
 20
-80.24142671399072
 30
0.0
 40
3.0
  1
度
 41
0.833333
100
AcDbText
  0
TEXT
  5
8AD
330
36
100
AcDbEntity
  8
0
 62
     3
100
AcDbText
 10
-215.3798584358987
 20
-58.07212671399073
 30
0.0
 40
3.0
  1
承認
 41
1.089472999999999
100
AcDbText
  0
TEXT
  5
8AE
330
36
100
AcDbEntity
  8
0
 62
     3
100
AcDbText
 10
-202.1369784358987
 20
-58.12985571399071
 30
0.0
 40
3.0
  1
検図
 41
0.931761
100
AcDbText
  0
TEXT
  5
8AF
330
36
100
AcDbEntity
  8
0
 62
     3
100
AcDbText
 10
-189.1365814358987
 20
-58.12985571399071
 30
0.0
 40
3.0
  1
設
 41
0.833333
100
AcDbText
  0
TEXT
  5
8B0
330
36
100
AcDbEntity
  8
0
 62
     3
100
AcDbText
 10
-184.6467134358987
 20
-58.12985571399071
 30
0.0
 40
3.0
  1
計
 41
0.833333
100
AcDbText
  0
TEXT
  5
8B1
330
36
100
AcDbEntity
  8
0
 62
     3
100
AcDbText
 10
-276.1127334358988
 20
-58.84109971399071
 30
0.0
 40
3.0
  1
品
 41
0.833333
100
AcDbText
  0
TEXT
  5
8B2
330
36
100
AcDbEntity
  8
0
 62
     3
100
AcDbText
 10
-268.5770914358987
 20
-58.84109971399071
 30
0.0
 40
3.0
  1
名
 41
0.833333
100
AcDbText
  0
TEXT
  5
8B3
330
36
100
AcDbEntity
  8
0
 62
     3
100
AcDbText
 10
-276.3058614358988
 20
-66.30024271399071
 30
0.0
 40
3.0
  1
型
 41
0.833333
100
AcDbText
  0
TEXT
  5
8B4
330
36
100
AcDbEntity
  8
0
 62
     3
100
AcDbText
 10
-268.7577704358988
 20
-66.30024271399071
 30
0.0
 40
3.0
  1
式
 41
0.833333
100
AcDbText
  0
TEXT
  5
8B5
330
36
100
AcDbEntity
  8
0
 62
     3
100
AcDbText
 10
-262.2713100686277
 20
-65.32073571399073
 30
0.0
 40
4.5
  1
4P20AW-20
  7
高4.5
100
AcDbText
  0
TEXT
  5
8B6
330
36
100
AcDbEntity
  8
0
 62
     3
100
AcDbText
 10
-359.9753223284689
 20
-41.13001871841007
 30
0.0
 40
4.5
  1
4P20AW-20
 41
0.8
  7
高4.5
100
AcDbText
  0
TEXT
  5
8B7
330
36
100
AcDbEntity
  8
0
 62
     3
100
AcDbText
 10
-216.0454780163851
 20
-89.24185871399071
 30
0.0
 40
6.299999999999998
  1
4P20AW-20
 41
0.8
  7
高6.3
100
AcDbText
  0
LINE
  5
8B8
330
36
100
AcDbEntity
  8
0
 62
     3
100
AcDbLine
 10
-192.2575234358987
 20
-50.5298557139907
 30
0.0
 11
-192.2575234358987
 21
-44.52985571399072
 31
0.0
  0
LINE
  5
8B9
330
36
100
AcDbEntity
  8
0
 62
     3
100
AcDbLine
 10
-218.2575234358989
 20
-50.5298557139907
 30
0.0
 11
-218.2575234358989
 21
-44.52985571399072
 31
0.0
  0
LINE
  5
8BA
330
36
100
AcDbEntity
  8
0
 62
     3
100
AcDbLine
 10
-166.5581604358988
 20
-44.52985571399072
 30
0.0
 11
-218.2575234358989
 21
-44.52985571399072
 31
0.0
  0
TEXT
  5
8BB
330
36
100
AcDbEntity
  8
0
 62
     3
100
AcDbText
 10
-213.6187601131914
 20
-49.73350671399071
 30
0.0
 40
4.5
  1
コード
  7
高4.5
100
AcDbText
  0
TEXT
  5
8BC
330
36
100
AcDbEntity
  8
0
 62
     3
100
AcDbText
 10
-190.2703774358987
 20
-49.88571871399073
 30
0.0
 40
4.5
  1
5076
  7
高4.5
100
AcDbText
  0
LINE
  5
8BD
330
36
100
AcDbEntity
  8
0
 62
     3
100
AcDbLine
 10
-314.9771943392563
 20
-77.13001871841008
 30
0.0
 11
-393.7373383284689
 21
-77.13001871841008
 31
0.0
  0
TEXT
  5
8BE
330
36
100
AcDbEntity
  8
0
 62
     3
100
AcDbText
 10
-359.9753223284689
 20
-69.1300187184101
 30
0.0
 40
4.5
  1
材質 PVC樹脂
 41
0.8
  7
高4.5
100
AcDbText
  0
TEXT
  5
8BF
330
36
100
AcDbEntity
  8
0
 62
     3
100
AcDbText
 10
-391.7373383284689
 20
-69.1300187184101
 30
0.0
 40
4.5
  1
プラグ・コンセント
 41
0.6
  7
高4.5
100
AcDbText
  0
TEXT
  5
8C0
330
36
100
AcDbEntity
  8
0
 62
     3
100
AcDbText
 10
-178.9581234358989
 20
80.24127728600928
 30
0.0
 40
3.2
  1
担　当
  7
高3.2
100
AcDbText
  0
TEXT
  5
8C1
330
36
100
AcDbEntity
  8
0
 62
     3
100
AcDbText
 10
-222.9581234358989
 20
80.24127728600928
 30
0.0
 40
3.2
  1
変更・追記内容
  7
高3.2
100
AcDbText
  0
TEXT
  5
8C2
330
36
100
AcDbEntity
  8
0
 62
     3
100
AcDbText
 10
-247.8446084355596
 20
75.570738776101
 30
0.0
 40
2.0
  1
1
  7
高2
100
AcDbText
  0
TEXT
  5
8C3
330
36
100
AcDbEntity
  8
0
 62
     3
100
AcDbText
 10
-248.1531199123169
 20
70.40092206382809
 30
0.0
 40
2.0
  1
2
  7
高2
100
AcDbText
  0
TEXT
  5
8C4
330
36
100
AcDbEntity
  8
0
 62
     3
100
AcDbText
 10
-240.9581234358989
 20
80.24127728600928
 30
0.0
 40
3.2
  1
日　付
  7
高3.2
100
AcDbText
  0
TEXT
  5
8C5
330
36
100
AcDbEntity
  8
0
 62
     3
100
AcDbText
 10
-240.9581234358989
 20
85.24127728600928
 30
0.0
 40
3.2
  1
図　　　　面　　　　略　　　　歴
  7
高3.2
100
AcDbText
  0
TEXT
  5
8C6
330
36
100
AcDbEntity
  8
0
 62
     3
100
AcDbText
 10
-250.9581234358989
 20
80.24127728600928
 30
0.0
 40
3.2
  1
記号
  7
高3.2
100
AcDbText
  0
LINE
  5
8C7
330
36
100
AcDbEntity
  8
0
 62
     7
100
AcDbLine
 10
-247.4581234358989
 20
73.53217328600938
 30
0.0
 11
-249.3581234358988
 21
70.24127728600928
 31
0.0
  0
LINE
  5
8C8
330
36
100
AcDbEntity
  8
0
 62
     7
100
AcDbLine
 10
-247.4581234358989
 20
73.53217328600938
 30
0.0
 11
-245.5581234358989
 21
70.24127728600928
 31
0.0
  0
LINE
  5
8C9
330
36
100
AcDbEntity
  8
0
 62
     7
100
AcDbLine
 10
-249.3581234358988
 20
70.24127728600928
 30
0.0
 11
-245.5581234358989
 21
70.24127728600928
 31
0.0
  0
LINE
  5
8CA
330
36
100
AcDbEntity
  8
0
 62
     7
100
AcDbLine
 10
-247.4581234358989
 20
78.53217428600936
 30
0.0
 11
-249.3581234358988
 21
75.24127728600928
 31
0.0
  0
LINE
  5
8CB
330
36
100
AcDbEntity
  8
0
 62
     7
100
AcDbLine
 10
-247.4581234358989
 20
78.53217428600936
 30
0.0
 11
-245.5581234358989
 21
75.24127728600928
 31
0.0
  0
LINE
  5
8CC
330
36
100
AcDbEntity
  8
0
 62
     7
100
AcDbLine
 10
-249.3581234358988
 20
75.24127728600928
 30
0.0
 11
-245.5581234358989
 21
75.24127728600928
 31
0.0
  0
LINE
  5
8CD
330
36
100
AcDbEntity
  8
0
 62
     3
100
AcDbLine
 10
-252.4581234358989
 20
84.74127728600928
 30
0.0
 11
-166.4581234358989
 21
84.74127728600928
 31
0.0
  0
LINE
  5
8CE
330
36
100
AcDbEntity
  8
0
 62
     3
100
AcDbLine
 10
-252.4581234358989
 20
79.74127728600928
 30
0.0
 11
-166.4581234358989
 21
79.74127728600928
 31
0.0
  0
LINE
  5
8CF
330
36
100
AcDbEntity
  8
0
 62
     7
100
AcDbLine
 10
-252.4581234358989
 20
74.74127728600928
 30
0.0
 11
-166.4581234358989
 21
74.74127728600928
 31
0.0
  0
LINE
  5
8D0
330
36
100
AcDbEntity
  8
0
 62
     3
100
AcDbLine
 10
-252.4581234358989
 20
69.74127728600928
 30
0.0
 11
-166.4581234358989
 21
69.74127728600928
 31
0.0
  0
LINE
  5
8D1
330
36
100
AcDbEntity
  8
0
 62
     7
100
AcDbLine
 10
-180.4581234358989
 20
69.74127728600928
 30
0.0
 11
-180.4581234358988
 21
84.74127728600928
 31
0.0
  0
LINE
  5
8D2
330
36
100
AcDbEntity
  8
0
 62
     7
100
AcDbLine
 10
-224.4581234358989
 20
69.74127728600928
 30
0.0
 11
-224.4581234358989
 21
84.74127728600928
 31
0.0
  0
LINE
  5
8D3
330
36
100
AcDbEntity
  8
0
 62
     7
100
AcDbLine
 10
-242.4581234358988
 20
69.74127728600928
 30
0.0
 11
-242.4581234358988
 21
84.74127728600928
 31
0.0
  0
LINE
  5
8D4
330
36
100
AcDbEntity
  8
0
 62
     3
100
AcDbLine
 10
-252.4581234358989
 20
69.74127728600928
 30
0.0
 11
-252.4581234358989
 21
89.74127728600928
 31
0.0
  0
LINE
  5
C81
330
36
100
AcDbEntity
  8
0
 62
     7
100
AcDbLine
 10
-356.9158644358988
 20
18.32004228600928
 30
0.0
 11
-357.0009964358987
 21
18.30635828600927
 31
0.0
  0
LINE
  5
C82
330
36
100
AcDbEntity
  8
0
 62
     7
100
AcDbLine
 10
-357.0009964358987
 20
18.30635828600927
 30
0.0
 11
-357.0824984358988
 21
18.29001528600928
 31
0.0
  0
LINE
  5
C83
330
36
100
AcDbEntity
  8
0
 62
     7
100
AcDbLine
 10
-357.0824984358988
 20
18.29001528600928
 30
0.0
 11
-357.1597434358988
 21
18.27114128600928
 31
0.0
  0
LINE
  5
C84
330
36
100
AcDbEntity
  8
0
 62
     7
100
AcDbLine
 10
-357.1597434358988
 20
18.27114128600928
 30
0.0
 11
-357.2321324358987
 21
18.24988128600928
 31
0.0
  0
LINE
  5
C85
330
36
100
AcDbEntity
  8
0
 62
     7
100
AcDbLine
 10
-357.2321324358987
 20
18.24988128600928
 30
0.0
 11
-357.2991074358987
 21
18.22640028600928
 31
0.0
  0
LINE
  5
C86
330
36
100
AcDbEntity
  8
0
 62
     7
100
AcDbLine
 10
-357.2991074358987
 20
18.22640028600928
 30
0.0
 11
-357.3601494358987
 21
18.20087928600928
 31
0.0
  0
LINE
  5
C87
330
36
100
AcDbEntity
  8
0
 62
     7
100
AcDbLine
 10
-357.3601494358987
 20
18.20087928600928
 30
0.0
 11
-357.4147864358987
 21
18.17351528600928
 31
0.0
  0
LINE
  5
C88
330
36
100
AcDbEntity
  8
0
 62
     7
100
AcDbLine
 10
-357.4147864358987
 20
18.17351528600928
 30
0.0
 11
-357.4625974358988
 21
18.14452128600928
 31
0.0
  0
LINE
  5
C89
330
36
100
AcDbEntity
  8
0
 62
     7
100
AcDbLine
 10
-357.4625974358988
 20
18.14452128600928
 30
0.0
 11
-357.5032124358988
 21
18.11411928600928
 31
0.0
  0
LINE
  5
C8A
330
36
100
AcDbEntity
  8
0
 62
     7
100
AcDbLine
 10
-357.5032124358988
 20
18.11411928600928
 30
0.0
 11
-357.5363164358988
 21
18.08254528600928
 31
0.0
  0
LINE
  5
C8B
330
36
100
AcDbEntity
  8
0
 62
     7
100
AcDbLine
 10
-357.5363164358988
 20
18.08254528600928
 30
0.0
 11
-357.5616554358987
 21
18.05004328600928
 31
0.0
  0
LINE
  5
C8C
330
36
100
AcDbEntity
  8
0
 62
     7
100
AcDbLine
 10
-357.5616554358987
 20
18.05004328600928
 30
0.0
 11
-357.5790324358987
 21
18.01686528600928
 31
0.0
  0
LINE
  5
C8D
330
36
100
AcDbEntity
  8
0
 62
     7
100
AcDbLine
 10
-357.5790324358987
 20
18.01686528600928
 30
0.0
 11
-357.5883124358987
 21
17.98326628600928
 31
0.0
  0
LINE
  5
C8E
330
36
100
AcDbEntity
  8
0
 62
     7
100
AcDbLine
 10
-357.5883124358987
 20
17.98326628600928
 30
0.0
 11
-357.5894244358988
 21
17.94950728600928
 31
0.0
  0
LINE
  5
C8F
330
36
100
AcDbEntity
  8
0
 62
     7
100
AcDbLine
 10
-357.5894244358988
 20
17.94950728600928
 30
0.0
 11
-357.5823604358987
 21
17.91584828600928
 31
0.0
  0
LINE
  5
C90
330
36
100
AcDbEntity
  8
0
 62
     7
100
AcDbLine
 10
-357.5823604358987
 20
17.91584828600928
 30
0.0
 11
-357.5671744358988
 21
17.88254928600928
 31
0.0
  0
LINE
  5
C91
330
36
100
AcDbEntity
  8
0
 62
     7
100
AcDbLine
 10
-357.5671744358988
 20
17.88254928600928
 30
0.0
 11
-357.5439844358988
 21
17.84986928600928
 31
0.0
  0
LINE
  5
C92
330
36
100
AcDbEntity
  8
0
 62
     7
100
AcDbLine
 10
-357.5439844358988
 20
17.84986928600928
 30
0.0
 11
-357.5129684358988
 21
17.81805928600929
 31
0.0
  0
LINE
  5
C93
330
36
100
AcDbEntity
  8
0
 62
     7
100
AcDbLine
 10
-357.5129684358988
 20
17.81805928600929
 30
0.0
 11
-357.4743664358988
 21
17.78736528600927
 31
0.0
  0
LINE
  5
C94
330
36
100
AcDbEntity
  8
0
 62
     7
100
AcDbLine
 10
-357.4743664358988
 20
17.78736528600927
 30
0.0
 11
-357.4284784358988
 21
17.75802528600928
 31
0.0
  0
LINE
  5
C95
330
36
100
AcDbEntity
  8
0
 62
     7
100
AcDbLine
 10
-357.4284784358988
 20
17.75802528600928
 30
0.0
 11
-357.3756574358987
 21
17.73026628600928
 31
0.0
  0
LINE
  5
C96
330
36
100
AcDbEntity
  8
0
 62
     7
100
AcDbLine
 10
-357.3756574358987
 20
17.73026628600928
 30
0.0
 11
-357.3163114358987
 21
17.70430128600928
 31
0.0
  0
LINE
  5
C97
330
36
100
AcDbEntity
  8
0
 62
     7
100
AcDbLine
 10
-357.3163114358987
 20
17.70430128600928
 30
0.0
 11
-357.2509004358987
 21
17.68033228600927
 31
0.0
  0
LINE
  5
C98
330
36
100
AcDbEntity
  8
0
 62
     7
100
AcDbLine
 10
-357.2509004358987
 20
17.68033228600927
 30
0.0
 11
-357.1799304358988
 21
17.65854428600929
 31
0.0
  0
LINE
  5
C99
330
36
100
AcDbEntity
  8
0
 62
     7
100
AcDbLine
 10
-357.1799304358988
 20
17.65854428600929
 30
0.0
 11
-357.1039474358987
 21
17.63910528600928
 31
0.0
  0
LINE
  5
C9A
330
36
100
AcDbEntity
  8
0
 62
     7
100
AcDbLine
 10
-357.1039474358987
 20
17.63910528600928
 30
0.0
 11
-357.0235414358988
 21
17.62216628600927
 31
0.0
  0
LINE
  5
C9B
330
36
100
AcDbEntity
  8
0
 62
     7
100
AcDbLine
 10
-357.0235414358988
 20
17.62216628600927
 30
0.0
 11
-356.9393324358988
 21
17.60785828600926
 31
0.0
  0
LINE
  5
C9C
330
36
100
AcDbEntity
  8
0
 62
     7
100
AcDbLine
 10
-356.9393324358988
 20
17.60785828600926
 30
0.0
 11
-356.8519724358988
 21
17.59629028600928
 31
0.0
  0
LINE
  5
C9D
330
36
100
AcDbEntity
  8
0
 62
     7
100
AcDbLine
 10
-356.8519724358988
 20
17.59629028600928
 30
0.0
 11
-356.7621354358986
 21
17.58755428600928
 31
0.0
  0
LINE
  5
C9E
330
36
100
AcDbEntity
  8
0
 62
     7
100
AcDbLine
 10
-356.7621354358986
 20
17.58755428600928
 30
0.0
 11
-356.6705164358988
 21
17.58171528600928
 31
0.0
  0
LINE
  5
C9F
330
36
100
AcDbEntity
  8
0
 62
     7
100
AcDbLine
 10
-356.6705164358988
 20
17.58171528600928
 30
0.0
 11
-356.5778244358987
 21
17.57881928600928
 31
0.0
  0
LINE
  5
CA0
330
36
100
AcDbEntity
  8
0
 62
     7
100
AcDbLine
 10
-356.5778244358987
 20
17.57881928600928
 30
0.0
 11
-356.4847744358988
 21
17.57888928600928
 31
0.0
  0
LINE
  5
CA1
330
36
100
AcDbEntity
  8
0
 62
     7
100
AcDbLine
 10
-356.4847744358988
 20
17.57888928600928
 30
0.0
 11
-356.3920854358987
 21
17.58192428600928
 31
0.0
  0
LINE
  5
CA2
330
36
100
AcDbEntity
  8
0
 62
     7
100
AcDbLine
 10
-356.3920854358987
 20
17.58192428600928
 30
0.0
 11
-356.3004764358987
 21
17.58790128600927
 31
0.0
  0
LINE
  5
CA3
330
36
100
AcDbEntity
  8
0
 62
     7
100
AcDbLine
 10
-356.3004764358987
 20
17.58790128600927
 30
0.0
 11
-356.2106524358987
 21
17.59677328600928
 31
0.0
  0
LINE
  5
CA4
330
36
100
AcDbEntity
  8
0
 62
     7
100
AcDbLine
 10
-356.2106524358987
 20
17.59677328600928
 30
0.0
 11
-356.1233094358988
 21
17.60847228600929
 31
0.0
  0
LINE
  5
CA5
330
36
100
AcDbEntity
  8
0
 62
     7
100
AcDbLine
 10
-356.1233094358988
 20
17.60847228600929
 30
0.0
 11
-356.0391224358988
 21
17.62290728600928
 31
0.0
  0
LINE
  5
CA6
330
36
100
AcDbEntity
  8
0
 62
     7
100
AcDbLine
 10
-356.0391224358988
 20
17.62290728600928
 30
0.0
 11
-355.9587414358987
 21
17.63996728600928
 31
0.0
  0
LINE
  5
CA7
330
36
100
AcDbEntity
  8
0
 62
     7
100
AcDbLine
 10
-355.9587414358987
 20
17.63996728600928
 30
0.0
 11
-355.8827894358988
 21
17.65952028600928
 31
0.0
  0
LINE
  5
CA8
330
36
100
AcDbEntity
  8
0
 62
     7
100
AcDbLine
 10
-355.8827894358988
 20
17.65952028600928
 30
0.0
 11
-355.8118514358988
 21
17.68141528600928
 31
0.0
  0
LINE
  5
CA9
330
36
100
AcDbEntity
  8
0
 62
     7
100
AcDbLine
 10
-355.8118514358988
 20
17.68141528600928
 30
0.0
 11
-355.7464764358988
 21
17.70548228600927
 31
0.0
  0
LINE
  5
CAA
330
36
100
AcDbEntity
  8
0
 62
     7
100
AcDbLine
 10
-355.7464764358988
 20
17.70548228600927
 30
0.0
 11
-355.6871704358987
 21
17.73153628600927
 31
0.0
  0
LINE
  5
CAB
330
36
100
AcDbEntity
  8
0
 62
     7
100
AcDbLine
 10
-355.6871704358987
 20
17.73153628600927
 30
0.0
 11
-355.6343904358988
 21
17.75937528600929
 31
0.0
  0
LINE
  5
CAC
330
36
100
AcDbEntity
  8
0
 62
     7
100
AcDbLine
 10
-355.6343904358988
 20
17.75937528600929
 30
0.0
 11
-355.5885464358988
 21
17.78878428600927
 31
0.0
  0
LINE
  5
CAD
330
36
100
AcDbEntity
  8
0
 62
     7
100
AcDbLine
 10
-355.5885464358988
 20
17.78878428600927
 30
0.0
 11
-355.5499914358987
 21
17.81953628600928
 31
0.0
  0
LINE
  5
CAE
330
36
100
AcDbEntity
  8
0
 62
     7
100
AcDbLine
 10
-355.5499914358987
 20
17.81953628600928
 30
0.0
 11
-355.5190234358988
 21
17.85139328600928
 31
0.0
  0
LINE
  5
CAF
330
36
100
AcDbEntity
  8
0
 62
     7
100
AcDbLine
 10
-355.5190234358988
 20
17.85139328600928
 30
0.0
 11
-355.4958814358986
 21
17.88410828600928
 31
0.0
  0
LINE
  5
CB0
330
36
100
AcDbEntity
  8
0
 62
     7
100
AcDbLine
 10
-355.4958814358986
 20
17.88410828600928
 30
0.0
 11
-355.4807464358987
 21
17.91742928600928
 31
0.0
  0
LINE
  5
CB1
330
36
100
AcDbEntity
  8
0
 62
     7
100
AcDbLine
 10
-355.4807464358987
 20
17.91742928600928
 30
0.0
 11
-355.4737324358988
 21
17.95109928600928
 31
0.0
  0
LINE
  5
CB2
330
36
100
AcDbEntity
  8
0
 62
     7
100
AcDbLine
 10
-355.4737324358988
 20
17.95109928600928
 30
0.0
 11
-355.4748954358988
 21
17.98485628600927
 31
0.0
  0
LINE
  5
CB3
330
36
100
AcDbEntity
  8
0
 62
     7
100
AcDbLine
 10
-355.4748954358988
 20
17.98485628600927
 30
0.0
 11
-355.4842264358989
 21
18.01844128600928
 31
0.0
  0
LINE
  5
CB4
330
36
100
AcDbEntity
  8
0
 62
     7
100
AcDbLine
 10
-355.4842264358989
 20
18.01844128600928
 30
0.0
 11
-355.5016534358987
 21
18.05159428600927
 31
0.0
  0
LINE
  5
CB5
330
36
100
AcDbEntity
  8
0
 62
     7
100
AcDbLine
 10
-355.5016534358987
 20
18.05159428600927
 30
0.0
 11
-355.5270404358988
 21
18.08405728600928
 31
0.0
  0
LINE
  5
CB6
330
36
100
AcDbEntity
  8
0
 62
     7
100
AcDbLine
 10
-355.5270404358988
 20
18.08405728600928
 30
0.0
 11
-355.5601924358989
 21
18.11558128600927
 31
0.0
  0
LINE
  5
CB7
330
36
100
AcDbEntity
  8
0
 62
     7
100
AcDbLine
 10
-355.5601924358989
 20
18.11558128600927
 30
0.0
 11
-355.6008524358987
 21
18.14592228600928
 31
0.0
  0
LINE
  5
CB8
330
36
100
AcDbEntity
  8
0
 62
     7
100
AcDbLine
 10
-355.6008524358987
 20
18.14592228600928
 30
0.0
 11
-355.6487074358988
 21
18.17484428600927
 31
0.0
  0
LINE
  5
CB9
330
36
100
AcDbEntity
  8
0
 62
     7
100
AcDbLine
 10
-355.6487074358988
 20
18.17484428600927
 30
0.0
 11
-355.7033864358988
 21
18.20212628600927
 31
0.0
  0
LINE
  5
CBA
330
36
100
AcDbEntity
  8
0
 62
     7
100
AcDbLine
 10
-355.7033864358988
 20
18.20212628600927
 30
0.0
 11
-355.7644664358987
 21
18.22755528600928
 31
0.0
  0
LINE
  5
CBB
330
36
100
AcDbEntity
  8
0
 62
     7
100
AcDbLine
 10
-355.7644664358987
 20
18.22755528600928
 30
0.0
 11
-355.8314764358988
 21
18.25093528600928
 31
0.0
  0
LINE
  5
CBC
330
36
100
AcDbEntity
  8
0
 62
     7
100
AcDbLine
 10
-355.8314764358988
 20
18.25093528600928
 30
0.0
 11
-355.9038974358988
 21
18.27208628600928
 31
0.0
  0
LINE
  5
CBD
330
36
100
AcDbEntity
  8
0
 62
     7
100
AcDbLine
 10
-355.9038974358988
 20
18.27208628600928
 30
0.0
 11
-355.9811704358988
 21
18.29084428600927
 31
0.0
  0
LINE
  5
CBE
330
36
100
AcDbEntity
  8
0
 62
     7
100
AcDbLine
 10
-355.9811704358988
 20
18.29084428600927
 30
0.0
 11
-356.0626974358988
 21
18.30706428600928
 31
0.0
  0
LINE
  5
CBF
330
36
100
AcDbEntity
  8
0
 62
     7
100
AcDbLine
 10
-356.0626974358988
 20
18.30706428600928
 30
0.0
 11
-356.1478494358988
 21
18.32062028600927
 31
0.0
  0
LINE
  5
CC2
330
36
100
AcDbEntity
  8
0
 62
     7
100
AcDbLine
 10
-307.5425944358987
 20
17.25749528600927
 30
0.0
 11
-308.2848014358988
 21
18.91333828600927
 31
0.0
  0
LINE
  5
CC3
330
36
100
AcDbEntity
  8
0
 62
     7
100
AcDbLine
 10
-308.2848014358988
 20
18.91333828600927
 30
0.0
 11
-308.4427964358988
 21
20.54883428600928
 31
0.0
  0
LINE
  5
CC4
330
36
100
AcDbEntity
  8
0
 62
     7
100
AcDbLine
 10
-308.4427964358988
 20
20.54883428600928
 30
0.0
 11
-308.0028994358987
 21
21.72322628600928
 31
0.0
  0
LINE
  5
CC5
330
36
100
AcDbEntity
  8
0
 62
     7
100
AcDbLine
 10
-308.0028994358987
 20
21.72322628600928
 30
0.0
 11
-307.6099724358987
 21
22.89688128600928
 31
0.0
  0
LINE
  5
CC6
330
36
100
AcDbEntity
  8
0
 62
     7
100
AcDbLine
 10
-307.6099724358987
 20
22.89688128600928
 30
0.0
 11
-307.7839944358988
 21
24.14097528600928
 31
0.0
  0
LINE
  5
CC7
330
36
100
AcDbEntity
  8
0
 62
     7
100
AcDbLine
 10
-307.7839944358988
 20
24.14097528600928
 30
0.0
 11
-308.3503474358987
 21
25.39613728600928
 31
0.0
  0
LINE
  5
CC8
330
36
100
AcDbEntity
  8
0
 62
     7
100
AcDbLine
 10
-310.0158114358988
 20
17.40702928600927
 30
0.0
 11
-310.7580184358988
 21
19.06287328600928
 31
0.0
  0
LINE
  5
CC9
330
36
100
AcDbEntity
  8
0
 62
     7
100
AcDbLine
 10
-310.7580184358988
 20
19.06287328600928
 30
0.0
 11
-310.9160144358988
 21
20.69836928600928
 31
0.0
  0
LINE
  5
CCA
330
36
100
AcDbEntity
  8
0
 62
     7
100
AcDbLine
 10
-310.9160144358988
 20
20.69836928600928
 30
0.0
 11
-310.4761164358988
 21
21.87276028600928
 31
0.0
  0
LINE
  5
CCB
330
36
100
AcDbEntity
  8
0
 62
     7
100
AcDbLine
 10
-310.4761164358988
 20
21.87276028600928
 30
0.0
 11
-310.0831894358988
 21
23.04641528600928
 31
0.0
  0
LINE
  5
CCC
330
36
100
AcDbEntity
  8
0
 62
     7
100
AcDbLine
 10
-310.0831894358988
 20
23.04641528600928
 30
0.0
 11
-310.2572114358987
 21
24.29050928600928
 31
0.0
  0
LINE
  5
CCD
330
36
100
AcDbEntity
  8
0
 62
     7
100
AcDbLine
 10
-310.2572114358987
 20
24.29050928600928
 30
0.0
 11
-310.8235654358988
 21
25.54567128600929
 31
0.0
  0
LINE
  5
CCE
330
36
100
AcDbEntity
  8
0
100
AcDbLine
 10
-423.6659524358986
 20
21.01052228600928
 30
0.0
 11
-423.6659524358986
 21
-3.457719713990726
 31
0.0
  0
LINE
  5
CCF
330
36
100
AcDbEntity
  8
0
100
AcDbLine
 10
-390.6659524358988
 20
21.01052228600928
 30
0.0
 11
-390.6659524358988
 21
-3.457719713990726
 31
0.0
  0
LINE
  5
CD0
330
36
100
AcDbEntity
  8
0
100
AcDbLine
 10
-421.1659524358986
 20
-2.207719713990726
 30
0.0
 11
-393.1659524358988
 21
-2.207719713990726
 31
0.0
  0
LINE
  5
CD4
330
36
100
AcDbEntity
  8
0
100
AcDbLine
 10
-373.7683864358988
 20
4.796716286009271
 30
0.0
 11
-373.7683864358988
 21
-3.457719713990726
 31
0.0
  0
LINE
  5
CD5
330
36
100
AcDbEntity
  8
0
100
AcDbLine
 10
-321.2683864358987
 20
18.04671628600928
 30
0.0
 11
-321.2683864358987
 21
-3.457719713990726
 31
0.0
  0
LINE
  5
CD6
330
36
100
AcDbEntity
  8
0
100
AcDbLine
 10
-371.2683864358989
 20
-2.207719713990726
 30
0.0
 11
-323.7683864358987
 21
-2.207719713990726
 31
0.0
  0
LINE
  5
CDA
330
36
100
AcDbEntity
  8
0
100
AcDbLine
 10
-297.8048274358987
 20
18.04671628600928
 30
0.0
 11
-297.8048274358987
 21
-3.457719713990726
 31
0.0
  0
LINE
  5
CDB
330
36
100
AcDbEntity
  8
0
100
AcDbLine
 10
-245.5548274358987
 20
7.03457128600928
 30
0.0
 11
-245.5548274358987
 21
-3.457719713990726
 31
0.0
  0
LINE
  5
CDC
330
36
100
AcDbEntity
  8
0
100
AcDbLine
 10
-295.3048274358987
 20
-2.207719713990726
 30
0.0
 11
-248.0548274358987
 21
-2.207719713990726
 31
0.0
  0
LINE
  5
CE0
330
36
100
AcDbEntity
  8
0
100
AcDbLine
 10
-220.7676074358988
 20
21.00610928600928
 30
0.0
 11
-220.7676074358988
 21
-3.457719713990726
 31
0.0
  0
LINE
  5
CE1
330
36
100
AcDbEntity
  8
0
100
AcDbLine
 10
-190.2676074358987
 20
21.00610928600928
 30
0.0
 11
-190.2676074358987
 21
-3.457719713990726
 31
0.0
  0
LINE
  5
CE2
330
36
100
AcDbEntity
  8
0
100
AcDbLine
 10
-218.2676074358988
 20
-2.207719713990726
 30
0.0
 11
-192.7676074358987
 21
-2.207719713990726
 31
0.0
  0
LINE
  5
CE6
330
36
100
AcDbEntity
  8
0
100
AcDbLine
 10
-373.7683864358988
 20
4.796716286009271
 30
0.0
 11
-373.7683864358988
 21
-11.29134671399072
 31
0.0
  0
LINE
  5
CE7
330
36
100
AcDbEntity
  8
0
100
AcDbLine
 10
-245.5548274358987
 20
7.03457128600928
 30
0.0
 11
-245.5548274358987
 21
-11.29134671399072
 31
0.0
  0
LINE
  5
CE8
330
36
100
AcDbEntity
  8
0
100
AcDbLine
 10
-371.2683864358989
 20
-10.04134671399072
 30
0.0
 11
-248.0548274358987
 21
-10.04134671399072
 31
0.0
  0
TEXT
  5
CEC
330
36
100
AcDbEntity
  8
0
  6
Continuous
 62
     4
100
AcDbText
 10
-411.1659524358986
 20
-1.582719713990726
 30
0.0
 40
3.0
  1
\U+220565
100
AcDbText
  0
LINE
  5
CED
330
36
100
AcDbEntity
  8
0
  6
ByBlock
 62
     0
370
    -2
100
AcDbLine
 10
-393.1659524358988
 20
-1.537847213990726
 30
0.0
 11
-390.6659524358988
 21
-2.207719713990726
 31
0.0
  0
LINE
  5
CEE
330
36
100
AcDbEntity
  8
0
  6
ByBlock
 62
     0
370
    -2
100
AcDbLine
 10
-390.6659524358988
 20
-2.207719713990726
 30
0.0
 11
-393.1659524358988
 21
-2.877592213990725
 31
0.0
  0
LINE
  5
CEF
330
36
100
AcDbEntity
  8
0
  6
ByBlock
 62
     0
370
    -2
100
AcDbLine
 10
-390.6659524358988
 20
-2.207719713990726
 30
0.0
 11
-393.1659524358988
 21
-2.207719713990726
 31
0.0
  0
LINE
  5
CF0
330
36
100
AcDbEntity
  8
0
  6
ByBlock
 62
     0
370
    -2
100
AcDbLine
 10
-421.1659524358986
 20
-2.877592213990726
 30
0.0
 11
-423.6659524358986
 21
-2.207719713990726
 31
0.0
  0
LINE
  5
CF1
330
36
100
AcDbEntity
  8
0
  6
ByBlock
 62
     0
370
    -2
100
AcDbLine
 10
-423.6659524358986
 20
-2.207719713990726
 30
0.0
 11
-421.1659524358986
 21
-1.537847213990726
 31
0.0
  0
LINE
  5
CF2
330
36
100
AcDbEntity
  8
0
  6
ByBlock
 62
     0
370
    -2
100
AcDbLine
 10
-423.6659524358986
 20
-2.207719713990726
 30
0.0
 11
-421.1659524358986
 21
-2.207719713990726
 31
0.0
  0
TEXT
  5
CF3
330
36
100
AcDbEntity
  8
0
  6
Continuous
 62
     4
100
AcDbText
 10
-350.7683864358988
 20
-1.582719713990726
 30
0.0
 40
3.0
  1
105
100
AcDbText
  0
LINE
  5
CF4
330
36
100
AcDbEntity
  8
0
  6
ByBlock
 62
     0
370
    -2
100
AcDbLine
 10
-323.7683864358987
 20
-1.537847213990726
 30
0.0
 11
-321.2683864358987
 21
-2.207719713990726
 31
0.0
  0
LINE
  5
CF5
330
36
100
AcDbEntity
  8
0
  6
ByBlock
 62
     0
370
    -2
100
AcDbLine
 10
-321.2683864358987
 20
-2.207719713990726
 30
0.0
 11
-323.7683864358987
 21
-2.877592213990725
 31
0.0
  0
LINE
  5
CF6
330
36
100
AcDbEntity
  8
0
  6
ByBlock
 62
     0
370
    -2
100
AcDbLine
 10
-321.2683864358987
 20
-2.207719713990726
 30
0.0
 11
-323.7683864358987
 21
-2.207719713990726
 31
0.0
  0
LINE
  5
CF7
330
36
100
AcDbEntity
  8
0
  6
ByBlock
 62
     0
370
    -2
100
AcDbLine
 10
-371.2683864358989
 20
-2.877592213990726
 30
0.0
 11
-373.7683864358988
 21
-2.207719713990726
 31
0.0
  0
LINE
  5
CF8
330
36
100
AcDbEntity
  8
0
  6
ByBlock
 62
     0
370
    -2
100
AcDbLine
 10
-373.7683864358988
 20
-2.207719713990726
 30
0.0
 11
-371.2683864358989
 21
-1.537847213990726
 31
0.0
  0
LINE
  5
CF9
330
36
100
AcDbEntity
  8
0
  6
ByBlock
 62
     0
370
    -2
100
AcDbLine
 10
-373.7683864358988
 20
-2.207719713990726
 30
0.0
 11
-371.2683864358989
 21
-2.207719713990726
 31
0.0
  0
TEXT
  5
CFA
330
36
100
AcDbEntity
  8
0
  6
Continuous
 62
     4
100
AcDbText
 10
-274.9298274358987
 20
-1.582719713990726
 30
0.0
 40
3.0
  1
104
100
AcDbText
  0
LINE
  5
CFB
330
36
100
AcDbEntity
  8
0
  6
ByBlock
 62
     0
370
    -2
100
AcDbLine
 10
-248.0548274358987
 20
-1.537847213990726
 30
0.0
 11
-245.5548274358987
 21
-2.207719713990726
 31
0.0
  0
LINE
  5
CFC
330
36
100
AcDbEntity
  8
0
  6
ByBlock
 62
     0
370
    -2
100
AcDbLine
 10
-245.5548274358987
 20
-2.207719713990726
 30
0.0
 11
-248.0548274358987
 21
-2.877592213990725
 31
0.0
  0
LINE
  5
CFD
330
36
100
AcDbEntity
  8
0
  6
ByBlock
 62
     0
370
    -2
100
AcDbLine
 10
-245.5548274358987
 20
-2.207719713990726
 30
0.0
 11
-248.0548274358987
 21
-2.207719713990726
 31
0.0
  0
LINE
  5
CFE
330
36
100
AcDbEntity
  8
0
  6
ByBlock
 62
     0
370
    -2
100
AcDbLine
 10
-295.3048274358987
 20
-2.877592213990726
 30
0.0
 11
-297.8048274358987
 21
-2.207719713990726
 31
0.0
  0
LINE
  5
CFF
330
36
100
AcDbEntity
  8
0
  6
ByBlock
 62
     0
370
    -2
100
AcDbLine
 10
-297.8048274358987
 20
-2.207719713990726
 30
0.0
 11
-295.3048274358987
 21
-1.537847213990726
 31
0.0
  0
LINE
  5
D00
330
36
100
AcDbEntity
  8
0
  6
ByBlock
 62
     0
370
    -2
100
AcDbLine
 10
-297.8048274358987
 20
-2.207719713990726
 30
0.0
 11
-295.3048274358987
 21
-2.207719713990726
 31
0.0
  0
TEXT
  5
D01
330
36
100
AcDbEntity
  8
0
  6
Continuous
 62
     4
100
AcDbText
 10
-209.0176074358987
 20
-1.582719713990726
 30
0.0
 40
3.0
  1
\U+220561
100
AcDbText
  0
LINE
  5
D02
330
36
100
AcDbEntity
  8
0
  6
ByBlock
 62
     0
370
    -2
100
AcDbLine
 10
-192.7676074358987
 20
-1.537847213990726
 30
0.0
 11
-190.2676074358987
 21
-2.207719713990726
 31
0.0
  0
LINE
  5
D03
330
36
100
AcDbEntity
  8
0
  6
ByBlock
 62
     0
370
    -2
100
AcDbLine
 10
-190.2676074358987
 20
-2.207719713990726
 30
0.0
 11
-192.7676074358987
 21
-2.877592213990725
 31
0.0
  0
LINE
  5
D04
330
36
100
AcDbEntity
  8
0
  6
ByBlock
 62
     0
370
    -2
100
AcDbLine
 10
-190.2676074358987
 20
-2.207719713990726
 30
0.0
 11
-192.7676074358987
 21
-2.207719713990726
 31
0.0
  0
LINE
  5
D05
330
36
100
AcDbEntity
  8
0
  6
ByBlock
 62
     0
370
    -2
100
AcDbLine
 10
-218.2676074358988
 20
-2.877592213990726
 30
0.0
 11
-220.7676074358988
 21
-2.207719713990726
 31
0.0
  0
LINE
  5
D06
330
36
100
AcDbEntity
  8
0
  6
ByBlock
 62
     0
370
    -2
100
AcDbLine
 10
-220.7676074358988
 20
-2.207719713990726
 30
0.0
 11
-218.2676074358988
 21
-1.537847213990726
 31
0.0
  0
LINE
  5
D07
330
36
100
AcDbEntity
  8
0
  6
ByBlock
 62
     0
370
    -2
100
AcDbLine
 10
-220.7676074358988
 20
-2.207719713990726
 30
0.0
 11
-218.2676074358988
 21
-2.207719713990726
 31
0.0
  0
TEXT
  5
D08
330
36
100
AcDbEntity
  8
0
  6
Continuous
 62
     4
100
AcDbText
 10
-316.2616069358988
 20
-9.416346713990719
 30
0.0
 40
3.0
  1
電線長さ
100
AcDbText
  0
LINE
  5
D09
330
36
100
AcDbEntity
  8
0
  6
ByBlock
 62
     0
370
    -2
100
AcDbLine
 10
-248.0548274358987
 20
-9.371474213990719
 30
0.0
 11
-245.5548274358987
 21
-10.04134671399072
 31
0.0
  0
LINE
  5
D0A
330
36
100
AcDbEntity
  8
0
  6
ByBlock
 62
     0
370
    -2
100
AcDbLine
 10
-245.5548274358987
 20
-10.04134671399072
 30
0.0
 11
-248.0548274358987
 21
-10.71121921399072
 31
0.0
  0
LINE
  5
D0B
330
36
100
AcDbEntity
  8
0
  6
ByBlock
 62
     0
370
    -2
100
AcDbLine
 10
-245.5548274358987
 20
-10.04134671399072
 30
0.0
 11
-248.0548274358987
 21
-10.04134671399072
 31
0.0
  0
LINE
  5
D0C
330
36
100
AcDbEntity
  8
0
  6
ByBlock
 62
     0
370
    -2
100
AcDbLine
 10
-371.2683864358989
 20
-10.71121921399072
 30
0.0
 11
-373.7683864358988
 21
-10.04134671399072
 31
0.0
  0
LINE
  5
D0D
330
36
100
AcDbEntity
  8
0
  6
ByBlock
 62
     0
370
    -2
100
AcDbLine
 10
-373.7683864358988
 20
-10.04134671399072
 30
0.0
 11
-371.2683864358989
 21
-9.371474213990719
 31
0.0
  0
LINE
  5
D0E
330
36
100
AcDbEntity
  8
0
  6
ByBlock
 62
     0
370
    -2
100
AcDbLine
 10
-373.7683864358988
 20
-10.04134671399072
 30
0.0
 11
-371.2683864358989
 21
-10.04134671399072
 31
0.0
  0
ENDSEC
  0
SECTION
  2
OBJECTS
  0
DICTIONARY
  5
C
330
0
100
AcDbDictionary
281
     1
  3
ACAD_2007HEADERVARS_RT
350
D12
  3
ACAD_COLOR
350
2F
  3
ACAD_GROUP
350
D
  3
ACAD_LAYOUT
350
2E
  3
ACAD_MATERIAL
350
10
  3
ACAD_MLEADERSTYLE
350
3CD
  3
ACAD_MLINESTYLE
350
2B
  3
ACAD_PLOTSETTINGS
350
2D
  3
ACAD_PLOTSTYLENAME
350
E
  3
ACAD_SCALELIST
350
3BB
  3
ACAD_TABLESTYLE
350
30
  3
ACAD_VISUALSTYLE
350
14
  3
ACDB_RECOMPOSE_DATA
350
D10
  3
AcDbVariableDictionary
350
378
  3
DWGPROPS
350
D11
  0
DICTIONARY
  5
41D
330
2
100
AcDbDictionary
280
     1
281
     1
  3
ACAD_LAYERSTATES
360
41E
  0
DICTIONARY
  5
B7F
330
25
100
AcDbDictionary
280
     1
281
     1
  3
ADSK_XREC_LAYER_RECONCILED
360
B80
  0
DICTIONARY
  5
CC0
330
36
100
AcDbDictionary
280
     1
281
     1
  3
ACAD_SORTENTS
360
CC1
  0
DICTIONARY
  5
D12
102
{ACAD_REACTORS
330
C
102
}
330
C
100
AcDbDictionary
281
     1
  3
DIMARCSYM
350
D14
  3
DIMFXL
350
D13
  3
DIMJOGANG
350
D15
  3
INTERFEREVPVS
350
D16
  0
DICTIONARY
  5
2F
102
{ACAD_REACTORS
330
C
102
}
330
C
100
AcDbDictionary
281
     1
  0
DICTIONARY
  5
D
102
{ACAD_REACTORS
330
C
102
}
330
C
100
AcDbDictionary
281
     1
  0
DICTIONARY
  5
2E
102
{ACAD_REACTORS
330
C
102
}
330
C
100
AcDbDictionary
281
     1
  3
Model
350
39
  3
レイアウト1
350
35
  0
DICTIONARY
  5
10
102
{ACAD_REACTORS
330
C
102
}
330
C
100
AcDbDictionary
281
     1
  3
ByBlock
350
12
  3
ByLayer
350
11
  3
Global
350
13
  0
DICTIONARY
  5
3CD
102
{ACAD_REACTORS
330
C
102
}
330
C
100
AcDbDictionary
281
     1
  3
Standard
350
3CE
  0
DICTIONARY
  5
2B
102
{ACAD_REACTORS
330
C
102
}
330
C
100
AcDbDictionary
281
     1
  3
Standard
350
2C
  0
DICTIONARY
  5
2D
102
{ACAD_REACTORS
330
C
102
}
330
C
100
AcDbDictionary
281
     1
  0
ACDBDICTIONARYWDFLT
  5
E
102
{ACAD_REACTORS
330
C
102
}
330
C
100
AcDbDictionary
281
     1
  3
Normal
350
F
100
AcDbDictionaryWithDefault
340
F
  0
DICTIONARY
  5
3BB
102
{ACAD_REACTORS
330
C
102
}
330
C
100
AcDbDictionary
281
     1
  3
A0
350
3BC
  3
A1
350
3BD
  3
A2
350
3BE
  3
A3
350
3BF
  3
A4
350
3C0
  3
A5
350
3C1
  3
A6
350
3C2
  3
A7
350
3C3
  3
A8
350
3C4
  3
A9
350
3C5
  3
B0
350
3C6
  3
B1
350
3C7
  3
B2
350
3C8
  3
B3
350
3C9
  3
B4
350
3CA
  3
B5
350
3CB
  3
B6
350
3CC
  0
DICTIONARY
  5
30
102
{ACAD_REACTORS
330
C
102
}
330
C
100
AcDbDictionary
281
     1
  3
Standard
350
31
  0
DICTIONARY
  5
14
102
{ACAD_REACTORS
330
C
102
}
330
C
100
AcDbDictionary
281
     1
  3
2dWireframe
350
1A
  3
3D Hidden
350
1C
  3
3dWireframe
350
1B
  3
Basic
350
19
  3
Brighten
350
20
  3
ColorChange
350
24
  3
Conceptual
350
1D
  3
Dim
350
1F
  3
EdgeColorOff
350
3BA
  3
Facepattern
350
23
  3
Flat
350
15
  3
FlatWithEdges
350
16
  3
Gouraud
350
17
  3
GouraudWithEdges
350
18
  3
Hidden
350
3B2
  3
JitterOff
350
3B8
  3
Linepattern
350
22
  3
OverhangOff
350
3B9
  3
Realistic
350
1E
  3
Shaded
350
3B7
  3
Shaded with edges
350
3B6
  3
Shades of Gray
350
3B3
  3
Sketchy
350
3B4
  3
Thicken
350
21
  3
Wireframe
350
3B1
  3
X-Ray
350
3B5
  0
XRECORD
  5
D10
102
{ACAD_REACTORS
330
C
102
}
330
C
100
AcDbXrecord
280
     1
 90
        1
330
31
  0
DICTIONARY
  5
378
102
{ACAD_REACTORS
330
C
102
}
330
C
100
AcDbDictionary
281
     1
  3
CANNOSCALE
350
B82
  3
CMLEADERSTYLE
350
B81
  3
CTABLESTYLE
350
379
  3
DIMASSOC
350
37C
  3
INDEXCTL
350
37B
  3
LOFTANG1
350
C35
  3
LOFTANG2
350
C36
  3
SORTENTS
350
37A
  3
XCLIPFRAME
350
C37
  0
XRECORD
  5
D11
102
{ACAD_REACTORS
330
C
102
}
330
C
100
AcDbXrecord
280
     1
  1
DWGPROPS COOKIE
  2

  3

  4

  6

  7

  8
imamura
  9

300
=
301
=
302
=
303
=
304
=
305
=
306
=
307
=
308
=
309
=
 40
0.0080303935185185
 41
2455548.692048426
 42
2456749.387952245
  1

 90
        0
  0
DICTIONARY
  5
41E
102
{ACAD_REACTORS
330
41D
102
}
330
41D
100
AcDbDictionary
281
     1
  0
XRECORD
  5
B80
102
{ACAD_REACTORS
330
B7F
102
}
330
B7F
100
AcDbXrecord
280
     1
290
     1
  0
SORTENTSTABLE
  5
CC1
102
{ACAD_REACTORS
330
CC0
102
}
330
CC0
100
AcDbSortentsTable
330
36
331
800
  5
88C
331
730
  5
77D
331
811
  5
89D
331
741
  5
78E
331
CD0
  5
6BB
331
822
  5
8AE
331
752
  5
79F
331
689
  5
6CC
331
833
  5
8BF
331
763
  5
7B0
331
69A
  5
6E3
331
844
  5
8D0
331
774
  5
7C1
331
6AB
  5
6F4
331
855
  5
C8D
331
6BC
  5
705
331
866
  5
C9E
331
77E
  5
7CB
331
6CD
  5
71B
331
78F
  5
7DC
331
6DE
  5
72B
331
870
  5
CA8
331
7A0
  5
7ED
331
6EF
  5
73C
331
881
  5
CB9
331
7B1
  5
7FF
331
892
  5
CCC
331
7C2
  5
810
331
CE1
  5
696
331
8A3
  5
CDD
331
7D3
  5
821
331
CF2
  5
6BE
331
8B4
  5
CEE
331
7E4
  5
832
331
D03
  5
6A2
331
8C5
  5
CFF
331
C9D
  5
85D
331
CAE
  5
86E
331
70E
  5
75B
331
CBF
  5
87F
331
71F
  5
76C
331
C8C
  5
84C
331
7F0
  5
83E
331
720
  5
76D
331
801
  5
88D
331
731
  5
77E
331
812
  5
89E
331
742
  5
78F
331
823
  5
8AF
331
753
  5
7A0
331
68A
  5
6CD
331
834
  5
8C0
331
764
  5
7B1
331
69B
  5
6E4
331
845
  5
8D1
331
775
  5
7C2
331
6AC
  5
6F5
331
856
  5
C8E
331
6BD
  5
706
331
867
  5
C9F
331
77F
  5
7CC
331
6CE
  5
71C
331
790
  5
7DD
331
6DF
  5
72C
331
871
  5
CA9
331
7A1
  5
7EE
331
6F0
  5
73D
331
882
  5
CBA
331
7B2
  5
800
331
893
  5
CCD
331
7C3
  5
811
331
CE2
  5
69A
331
8A4
  5
CDE
331
7D4
  5
822
331
CF3
  5
6B8
331
8B5
  5
CEF
331
7E5
  5
833
331
D04
  5
6A3
331
8C6
  5
D00
331
C9E
  5
85E
331
CAF
  5
86F
331
70F
  5
75C
331
C8D
  5
84D
331
CB0
  5
870
331
710
  5
75D
331
7F1
  5
83F
331
721
  5
76E
331
802
  5
88E
331
732
  5
77F
331
813
  5
89F
331
743
  5
790
331
824
  5
8B0
331
754
  5
7A1
331
68B
  5
6CE
331
835
  5
8C1
331
765
  5
7B2
331
69C
  5
6E5
331
846
  5
8D2
331
776
  5
7C3
331
6AD
  5
6F6
331
857
  5
C8F
331
6BE
  5
707
331
780
  5
7CD
331
6CF
  5
71D
331
791
  5
7DE
331
6E0
  5
72D
331
872
  5
CAA
331
7A2
  5
7EF
331
6F1
  5
73E
331
883
  5
CBB
331
7B3
  5
801
331
894
  5
CCE
331
7C4
  5
812
331
8A5
  5
CDF
331
7D5
  5
823
331
CF4
  5
6B5
331
8B6
  5
CF0
331
7E6
  5
834
331
D05
  5
69B
331
8C7
  5
D01
331
C9F
  5
85F
331
C8E
  5
84E
331
8C8
  5
D02
331
700
  5
74D
331
CA0
  5
860
331
CB1
  5
871
331
711
  5
75E
331
7F2
  5
840
331
722
  5
76F
331
803
  5
88F
331
733
  5
780
331
CC2
  5
70D
331
814
  5
8A0
331
744
  5
791
331
825
  5
8B1
331
755
  5
7A2
331
68C
  5
6CF
331
836
  5
8C2
331
766
  5
7B3
331
69D
  5
6E6
331
847
  5
8D3
331
777
  5
7C4
331
6AE
  5
6F7
331
858
  5
C90
331
6BF
  5
708
331
781
  5
7CE
331
6D0
  5
71E
331
792
  5
7DF
331
6E1
  5
72E
331
873
  5
CAB
331
7A3
  5
7F0
331
6F2
  5
73F
331
884
  5
CBC
331
7B4
  5
802
331
895
  5
CCF
331
7C5
  5
813
331
8A6
  5
CE0
331
7D6
  5
824
331
CF5
  5
6B6
331
8B7
  5
CF1
331
7E7
  5
835
331
D06
  5
69C
331
C8F
  5
84F
331
8B8
  5
CF2
331
7E8
  5
836
331
8D0
  5
D0A
331
C90
  5
850
331
8C9
  5
D03
331
701
  5
74E
331
CA1
  5
861
331
CB2
  5
872
331
712
  5
75F
331
723
  5
770
331
804
  5
890
331
734
  5
781
331
CC3
  5
70E
331
815
  5
8A1
331
745
  5
792
331
CD4
  5
6AF
331
826
  5
8B2
331
756
  5
7A3
331
68D
  5
6D0
331
837
  5
8C3
331
767
  5
7B4
331
69E
  5
6E7
331
848
  5
8D4
331
6AF
  5
6F8
331
859
  5
C91
331
6C0
  5
709
331
782
  5
7CF
331
6D1
  5
71F
331
793
  5
7E0
331
6E2
  5
72F
331
874
  5
CAC
331
7A4
  5
7F1
331
6F3
  5
740
331
885
  5
CBD
331
7B5
  5
803
331
896
  5
CD0
331
8A7
  5
CE1
331
7D7
  5
825
331
CF6
  5
6B7
331
D07
  5
6A0
331
7C6
  5
814
331
8A8
  5
CE2
331
7D8
  5
826
331
8B9
  5
CF3
331
7E9
  5
837
331
D08
  5
694
331
8D1
  5
D0B
331
C91
  5
851
331
8CA
  5
D04
331
702
  5
74F
331
CA2
  5
862
331
CB3
  5
873
331
713
  5
760
331
7F4
  5
880
331
724
  5
771
331
805
  5
891
331
735
  5
782
331
CC4
  5
70F
331
816
  5
8A2
331
746
  5
793
331
CD5
  5
6B0
331
827
  5
8B3
331
757
  5
7A4
331
838
  5
8C4
331
768
  5
7B5
331
69F
  5
6E8
331
849
  5
C81
331
6B0
  5
6F9
331
85A
  5
C92
331
6C1
  5
70A
331
783
  5
7D0
331
6D2
  5
720
331
794
  5
7E1
331
6E3
  5
730
331
875
  5
CAD
331
7A5
  5
7F2
331
6F4
  5
741
331
886
  5
CBE
331
7B6
  5
804
331
897
  5
CD1
331
7C7
  5
815
331
CF7
  5
6B2
331
CE6
  5
681
331
898
  5
CD2
331
7C8
  5
816
331
8A9
  5
CE3
331
7D9
  5
827
331
CF8
  5
6B3
331
C81
  5
841
331
8BA
  5
CF4
331
7EA
  5
838
331
D09
  5
68D
331
8D2
  5
D0C
331
C92
  5
852
331
8CB
  5
D05
331
703
  5
750
331
CA3
  5
863
331
CB4
  5
874
331
714
  5
761
331
7F5
  5
881
331
725
  5
772
331
806
  5
892
331
736
  5
783
331
CC5
  5
710
331
817
  5
8A3
331
747
  5
794
331
CD6
  5
6B1
331
828
  5
8B4
331
758
  5
7A5
331
68F
  5
6D8
331
839
  5
8C5
331
769
  5
7B6
331
6A0
  5
6E9
331
84A
  5
C82
331
6B1
  5
6FA
331
85B
  5
C93
331
6C2
  5
70B
331
784
  5
7D1
331
6D3
  5
721
331
795
  5
7E2
331
6E4
  5
731
331
876
  5
CAE
331
7A6
  5
7F4
331
6F5
  5
742
331
887
  5
CBF
331
7B7
  5
805
331
CE7
  5
682
331
888
  5
CC2
331
7B8
  5
806
331
899
  5
CD3
331
7C9
  5
817
331
8AA
  5
CE4
331
7DA
  5
828
331
CF9
  5
6B4
331
C82
  5
842
331
8BB
  5
CF5
331
7EB
  5
839
331
D0A
  5
68F
331
8D3
  5
D0D
331
C93
  5
853
331
8CC
  5
D06
331
704
  5
751
331
CA4
  5
864
331
CB5
  5
875
331
715
  5
762
331
7F6
  5
882
331
726
  5
773
331
807
  5
893
331
737
  5
784
331
CC6
  5
711
331
818
  5
8A4
331
748
  5
795
331
829
  5
8B5
331
759
  5
7A6
331
690
  5
6D9
331
83A
  5
8C6
331
76A
  5
7B7
331
6A1
  5
6EA
331
84B
  5
C83
331
6B2
  5
6FB
331
85C
  5
C94
331
6C3
  5
70C
331
785
  5
7D2
331
CE8
  5
683
331
796
  5
7E3
331
6E5
  5
732
331
877
  5
CAF
331
7A7
  5
7F5
331
6F6
  5
743
331
878
  5
CB0
331
7A8
  5
7F6
331
889
  5
CC3
331
7B9
  5
807
331
89A
  5
CD4
331
7CA
  5
818
331
8AB
  5
CE5
331
7DB
  5
829
331
CFA
  5
6AE
331
C83
  5
843
331
8BC
  5
CF6
331
7EC
  5
83A
331
D0B
  5
690
331
8D4
  5
D0E
331
C94
  5
854
331
8CD
  5
D07
331
705
  5
752
331
CA5
  5
865
331
CB6
  5
876
331
716
  5
763
331
7F7
  5
883
331
727
  5
774
331
808
  5
894
331
738
  5
785
331
CC7
  5
712
331
819
  5
8A5
331
749
  5
796
331
82A
  5
8B6
331
75A
  5
7A7
331
691
  5
6DA
331
681
  5
6C3
331
83B
  5
8C7
331
76B
  5
7B8
331
6A2
  5
6EB
331
85D
  5
C95
331
84C
  5
C84
331
6B3
  5
6FC
331
786
  5
7D3
331
6D5
  5
722
331
797
  5
7E4
331
6E6
  5
733
331
6F7
  5
744
331
868
  5
CA0
331
798
  5
7E5
331
879
  5
CB1
331
7A9
  5
7F7
331
6F8
  5
745
331
88A
  5
CC4
331
7BA
  5
808
331
89B
  5
CD5
331
7CB
  5
819
331
8AC
  5
CE6
331
7DC
  5
82A
331
C84
  5
844
331
8BD
  5
CF7
331
7ED
  5
83B
331
D0C
  5
687
331
C95
  5
855
331
8CE
  5
D08
331
706
  5
753
331
CA6
  5
866
331
CB7
  5
877
331
717
  5
764
331
7F8
  5
884
331
728
  5
775
331
809
  5
895
331
739
  5
786
331
CC8
  5
6D1
331
81A
  5
8A6
331
74A
  5
797
331
82B
  5
8B7
331
75B
  5
7A8
331
692
  5
6DB
331
682
  5
6C5
331
83C
  5
8C8
331
76C
  5
7B9
331
6A3
  5
6EC
331
84D
  5
C85
331
6B4
  5
6FD
331
85E
  5
C96
331
6C5
  5
713
331
787
  5
7D4
331
6D6
  5
723
331
CFB
  5
6AB
331
6E7
  5
734
331
788
  5
7D5
331
869
  5
CA1
331
799
  5
7E6
331
6E8
  5
735
331
87A
  5
CB2
331
7AA
  5
7F8
331
6F9
  5
746
331
88B
  5
CC5
331
7BB
  5
809
331
CDA
  5
6A5
331
89C
  5
CD6
331
7CC
  5
81A
331
8AD
  5
CE7
331
7DD
  5
82B
331
CFC
  5
6AC
331
8BE
  5
CF8
331
7EE
  5
83C
331
D0D
  5
688
331
C96
  5
856
331
8CF
  5
D09
331
707
  5
754
331
CA7
  5
867
331
CB8
  5
878
331
718
  5
765
331
7F9
  5
885
331
729
  5
776
331
80A
  5
896
331
73A
  5
787
331
CC9
  5
6D2
331
81B
  5
8A7
331
74B
  5
798
331
82C
  5
8B8
331
75C
  5
7A9
331
693
  5
6DC
331
683
  5
6C6
331
83D
  5
8C9
331
76D
  5
7BA
331
6A4
  5
6ED
331
84E
  5
C86
331
6B5
  5
6FE
331
85F
  5
C97
331
6C6
  5
714
331
6D7
  5
724
331
C85
  5
845
331
860
  5
C98
331
778
  5
7C5
331
789
  5
7D6
331
6D8
  5
725
331
86A
  5
CA2
331
79A
  5
7E7
331
6E9
  5
736
331
87B
  5
CB3
331
7AB
  5
7F9
331
6FA
  5
747
331
88C
  5
CC6
331
7BC
  5
80A
331
CDB
  5
6A6
331
89D
  5
CD7
331
7CD
  5
81B
331
CEC
  5
6C2
331
8AE
  5
CE8
331
7DE
  5
82C
331
CFD
  5
6AD
331
C86
  5
846
331
8BF
  5
CF9
331
7EF
  5
83D
331
D0E
  5
689
331
C97
  5
857
331
CA8
  5
868
331
CB9
  5
879
331
719
  5
766
331
7FA
  5
886
331
72A
  5
777
331
80B
  5
897
331
73B
  5
788
331
CCA
  5
6D3
331
81C
  5
8A8
331
74C
  5
799
331
82D
  5
8B9
331
75D
  5
7AA
331
694
  5
6DD
331
684
  5
6C7
331
83E
  5
8CA
331
76E
  5
7BB
331
6A5
  5
6EE
331
84F
  5
C87
331
6B6
  5
6FF
331
6C7
  5
715
331
708
  5
755
331
850
  5
C88
331
861
  5
C99
331
779
  5
7C6
331
6C8
  5
716
331
78A
  5
7D7
331
6D9
  5
726
331
86B
  5
CA3
331
79B
  5
7E8
331
6EA
  5
737
331
87C
  5
CB4
331
7AC
  5
7FA
331
6FB
  5
748
331
88D
  5
CC7
331
7BD
  5
80B
331
CDC
  5
6A7
331
89E
  5
CD8
331
7CE
  5
81C
331
CED
  5
6BF
331
8AF
  5
CE9
331
7DF
  5
82D
331
CFE
  5
6A8
331
8C0
  5
CFA
331
C87
  5
847
331
C98
  5
858
331
CA9
  5
869
331
709
  5
756
331
CBA
  5
87A
331
7FB
  5
887
331
72B
  5
778
331
80C
  5
898
331
73C
  5
789
331
CCB
  5
6D5
331
81D
  5
8A9
331
74D
  5
79A
331
82E
  5
8BA
331
75E
  5
7AB
331
695
  5
6DE
331
685
  5
6C8
331
83F
  5
8CB
331
76F
  5
7BC
331
6A6
  5
6EF
331
6B7
  5
700
331
71A
  5
767
331
840
  5
8CC
331
770
  5
7BD
331
851
  5
C89
331
6B8
  5
701
331
862
  5
C9A
331
77A
  5
7C7
331
6C9
  5
717
331
78B
  5
7D8
331
6DA
  5
727
331
86C
  5
CA4
331
79C
  5
7E9
331
6EB
  5
738
331
87D
  5
CB5
331
7AD
  5
7FB
331
6FC
  5
749
331
88E
  5
CC8
331
7BE
  5
80C
331
89F
  5
CD9
331
7CF
  5
81D
331
CEE
  5
6C0
331
8B0
  5
CEA
331
7E0
  5
82E
331
CFF
  5
6A9
331
8C1
  5
CFB
331
C88
  5
848
331
C99
  5
859
331
CAA
  5
86A
331
70A
  5
757
331
CBB
  5
87B
331
7FC
  5
888
331
72C
  5
779
331
80D
  5
899
331
73D
  5
78A
331
CCC
  5
6D6
331
81E
  5
8AA
331
74E
  5
79B
331
82F
  5
8BB
331
75F
  5
7AC
331
696
  5
6DF
331
686
  5
6C9
331
6A7
  5
6F0
331
71B
  5
768
331
830
  5
8BC
331
760
  5
7AD
331
841
  5
8CD
331
771
  5
7BE
331
6A8
  5
6F1
331
852
  5
C8A
331
6B9
  5
702
331
863
  5
C9B
331
77B
  5
7C8
331
6CA
  5
718
331
78C
  5
7D9
331
6DB
  5
728
331
86D
  5
CA5
331
79D
  5
7EA
331
6EC
  5
739
331
87E
  5
CB6
331
7AE
  5
7FC
331
6FD
  5
74A
331
88F
  5
CC9
331
7BF
  5
80D
331
8A0
  5
CDA
331
7D0
  5
81E
331
CEF
  5
6C1
331
8B1
  5
CEB
331
7E1
  5
82F
331
D00
  5
6AA
331
8C2
  5
CFC
331
C89
  5
849
331
C9A
  5
85A
331
CAB
  5
86B
331
70B
  5
758
331
CBC
  5
87C
331
71C
  5
769
331
7FD
  5
889
331
80E
  5
89A
331
73E
  5
78B
331
CCD
  5
6D7
331
81F
  5
8AB
331
74F
  5
79C
331
697
  5
6E0
331
687
  5
6CA
331
72D
  5
77A
331
820
  5
8AC
331
750
  5
79D
331
831
  5
8BD
331
761
  5
7AE
331
698
  5
6E1
331
842
  5
8CE
331
772
  5
7BF
331
6A9
  5
6F2
331
853
  5
C8B
331
6BA
  5
703
331
864
  5
C9C
331
77C
  5
7C9
331
6CB
  5
719
331
78D
  5
7DA
331
6DC
  5
729
331
86E
  5
CA6
331
79E
  5
7EB
331
6ED
  5
73A
331
87F
  5
CB7
331
7AF
  5
7FD
331
6FE
  5
74B
331
890
  5
CCA
331
7C0
  5
80E
331
8A1
  5
CDB
331
7D1
  5
81F
331
CF0
  5
6BC
331
8B2
  5
CEC
331
7E2
  5
830
331
D01
  5
6A4
331
8C3
  5
CFD
331
C8A
  5
84A
331
C9B
  5
85B
331
CAC
  5
86C
331
70C
  5
759
331
CBD
  5
87D
331
71D
  5
76A
331
7FE
  5
88A
331
72E
  5
77B
331
80F
  5
89B
331
73F
  5
78C
331
CCE
  5
6B9
331
810
  5
89C
331
740
  5
78D
331
821
  5
8AD
331
751
  5
79E
331
688
  5
6CB
331
832
  5
8BE
331
762
  5
7AF
331
699
  5
6E2
331
843
  5
8CF
331
773
  5
7C0
331
6AA
  5
6F3
331
854
  5
C8C
331
6BB
  5
704
331
865
  5
C9D
331
77D
  5
7CA
331
6CC
  5
71A
331
78E
  5
7DB
331
6DD
  5
72A
331
86F
  5
CA7
331
79F
  5
7EC
331
6EE
  5
73B
331
880
  5
CB8
331
7B0
  5
7FE
331
6FF
  5
74C
331
891
  5
CCB
331
7C1
  5
80F
331
CE0
  5
695
331
8A2
  5
CDC
331
7D2
  5
820
331
CF1
  5
6BD
331
8B3
  5
CED
331
7E3
  5
831
331
D02
  5
6A1
331
8C4
  5
CFE
331
C9C
  5
85C
331
CAD
  5
86D
331
70D
  5
75A
331
CBE
  5
87E
331
71E
  5
76B
331
7FF
  5
88B
331
72F
  5
77C
331
CCF
  5
6BA
331
C8B
  5
84B
  0
XRECORD
  5
D14
102
{ACAD_REACTORS
330
D12
102
}
330
D12
100
AcDbXrecord
280
     1
 70
     2
  0
XRECORD
  5
D13
102
{ACAD_REACTORS
330
D12
102
}
330
D12
100
AcDbXrecord
280
     1
 40
1.25
  0
XRECORD
  5
D15
102
{ACAD_REACTORS
330
D12
102
}
330
D12
100
AcDbXrecord
280
     1
 40
1.570796326794896
  0
XRECORD
  5
D16
102
{ACAD_REACTORS
330
D12
102
}
330
D12
100
AcDbXrecord
280
     1
340
1B
  0
LAYOUT
  5
39
102
{ACAD_XDICTIONARY
360
D3A
102
}
102
{ACAD_REACTORS
330
2E
102
}
330
2E
100
AcDbPlotSettings
  1

  2
PDF Complete
  4
A4
  6

 40
3.174999952316281
 41
3.174999952316281
 42
3.175003051757812
 43
3.17498779296875
 44
209.9733276367186
 45
297.0106506347656
 46
0.0
 47
0.0
 48
0.0
 49
0.0
140
0.0
141
0.0
142
1.0
143
26.24503742757898
 70
 11952
 72
     0
 73
     1
 74
     0
  7

 75
     0
147
0.0381024413761808
148
3813.985570005147
149
2305.372838389462
100
AcDbLayout
  1
Model
 70
     1
 71
     0
 10
0.0
 20
0.0
 11
12.0
 21
9.0
 12
0.0
 22
0.0
 32
0.0
 14
0.0
 24
0.0
 34
0.0
 15
0.0
 25
0.0
 35
0.0
146
0.0
 13
0.0
 23
0.0
 33
0.0
 16
1.0
 26
0.0
 36
0.0
 17
0.0
 27
1.0
 37
0.0
 76
     0
330
36
331
56
1001
ACAD_PSEXT
1000
PDF Complete
1000
PDF Complete Converter
1000
PDFC
1000
PDF Document Creator
1070
     0
  0
LAYOUT
  5
35
102
{ACAD_XDICTIONARY
360
D38
102
}
102
{ACAD_REACTORS
330
2E
102
}
330
2E
100
AcDbPlotSettings
  1

  2
PDF Complete
  4

  6

 40
0.0
 41
0.0
 42
0.0
 43
0.0
 44
0.0
 45
0.0
 46
0.0
 47
0.0
 48
0.0
 49
0.0
140
0.0
141
0.0
142
1.0
143
1.0
 70
   688
 72
     0
 73
     0
 74
     5
  7

 75
    16
147
1.0
148
0.0
149
0.0
100
AcDbLayout
  1
レイアウト1
 70
     1
 71
     1
 10
0.0
 20
0.0
 11
12.0
 21
9.0
 12
0.0
 22
0.0
 32
0.0
 14
1.000000000000000E+20
 24
1.000000000000000E+20
 34
1.000000000000000E+20
 15
-1.000000000000000E+20
 25
-1.000000000000000E+20
 35
-1.000000000000000E+20
146
0.0
 13
0.0
 23
0.0
 33
0.0
 16
1.0
 26
0.0
 36
0.0
 17
0.0
 27
1.0
 37
0.0
 76
     0
330
32
  0
MATERIAL
  5
12
102
{ACAD_XDICTIONARY
360
396
102
}
102
{ACAD_REACTORS
330
10
102
}
330
10
100
AcDbMaterial
  1
ByBlock
  0
MATERIAL
  5
11
102
{ACAD_XDICTIONARY
360
394
102
}
102
{ACAD_REACTORS
330
10
102
}
330
10
100
AcDbMaterial
  1
ByLayer
  0
MATERIAL
  5
13
102
{ACAD_XDICTIONARY
360
398
102
}
102
{ACAD_REACTORS
330
10
102
}
330
10
100
AcDbMaterial
  1
Global
  0
MLEADERSTYLE
  5
3CE
102
{ACAD_REACTORS
330
3CD
102
}
330
3CD
100
AcDbMLeaderStyle
170
     2
171
     1
172
     0
 90
        2
 40
0.0
 41
0.0
173
     1
 91
-1056964608
340
28
 92
       -2
290
     1
 42
0.09
291
     1
 43
0.36
  3
Standard
 44
0.18
300

342
26
174
     1
178
     6
175
     1
176
     0
 93
-1056964608
 45
0.18
292
     0
297
     0
 46
0.18
 94
-1056964608
 47
1.0
 49
1.0
140
1.0
293
     1
141
0.0
294
     1
177
     0
142
1.0
295
     0
296
     0
143
0.125
1001
ACAD_MLEADERVER
1070
     2
  0
MLINESTYLE
  5
2C
102
{ACAD_REACTORS
330
2B
102
}
330
2B
100
AcDbMlineStyle
  2
STANDARD
 70
     0
  3

 62
   256
 51
90.0
 52
90.0
 71
     2
 49
0.5
 62
   256
  6
BYLAYER
 49
-0.5
 62
   256
  6
BYLAYER
  0
ACDBPLACEHOLDER
  5
F
102
{ACAD_REACTORS
330
E
102
}
330
E
  0
SCALE
  5
3BC
102
{ACAD_REACTORS
330
3BB
102
}
330
3BB
100
AcDbScale
 70
     0
300
1:1
140
1.0
141
1.0
290
     1
  0
SCALE
  5
3BD
102
{ACAD_REACTORS
330
3BB
102
}
330
3BB
100
AcDbScale
 70
     0
300
1/128" = 1'-0"
140
0.0078125
141
12.0
290
     0
  0
SCALE
  5
3BE
102
{ACAD_REACTORS
330
3BB
102
}
330
3BB
100
AcDbScale
 70
     0
300
1/64" = 1'-0"
140
0.015625
141
12.0
290
     0
  0
SCALE
  5
3BF
102
{ACAD_REACTORS
330
3BB
102
}
330
3BB
100
AcDbScale
 70
     0
300
1/32" = 1'-0"
140
0.03125
141
12.0
290
     0
  0
SCALE
  5
3C0
102
{ACAD_REACTORS
330
3BB
102
}
330
3BB
100
AcDbScale
 70
     0
300
1/16" = 1'-0"
140
0.0625
141
12.0
290
     0
  0
SCALE
  5
3C1
102
{ACAD_REACTORS
330
3BB
102
}
330
3BB
100
AcDbScale
 70
     0
300
3/32" = 1'-0"
140
0.09375
141
12.0
290
     0
  0
SCALE
  5
3C2
102
{ACAD_REACTORS
330
3BB
102
}
330
3BB
100
AcDbScale
 70
     0
300
1/8" = 1'-0"
140
0.125
141
12.0
290
     0
  0
SCALE
  5
3C3
102
{ACAD_REACTORS
330
3BB
102
}
330
3BB
100
AcDbScale
 70
     0
300
3/16" = 1'-0"
140
0.1875
141
12.0
290
     0
  0
SCALE
  5
3C4
102
{ACAD_REACTORS
330
3BB
102
}
330
3BB
100
AcDbScale
 70
     0
300
1/4" = 1'-0"
140
0.25
141
12.0
290
     0
  0
SCALE
  5
3C5
102
{ACAD_REACTORS
330
3BB
102
}
330
3BB
100
AcDbScale
 70
     0
300
3/8" = 1'-0"
140
0.375
141
12.0
290
     0
  0
SCALE
  5
3C6
102
{ACAD_REACTORS
330
3BB
102
}
330
3BB
100
AcDbScale
 70
     0
300
1/2" = 1'-0"
140
0.5
141
12.0
290
     0
  0
SCALE
  5
3C7
102
{ACAD_REACTORS
330
3BB
102
}
330
3BB
100
AcDbScale
 70
     0
300
3/4" = 1'-0"
140
0.75
141
12.0
290
     0
  0
SCALE
  5
3C8
102
{ACAD_REACTORS
330
3BB
102
}
330
3BB
100
AcDbScale
 70
     0
300
1" = 1'-0"
140
1.0
141
12.0
290
     0
  0
SCALE
  5
3C9
102
{ACAD_REACTORS
330
3BB
102
}
330
3BB
100
AcDbScale
 70
     0
300
1-1/2" = 1'-0"
140
1.5
141
12.0
290
     0
  0
SCALE
  5
3CA
102
{ACAD_REACTORS
330
3BB
102
}
330
3BB
100
AcDbScale
 70
     0
300
3" = 1'-0"
140
3.0
141
12.0
290
     0
  0
SCALE
  5
3CB
102
{ACAD_REACTORS
330
3BB
102
}
330
3BB
100
AcDbScale
 70
     0
300
6" = 1'-0"
140
6.0
141
12.0
290
     0
  0
SCALE
  5
3CC
102
{ACAD_REACTORS
330
3BB
102
}
330
3BB
100
AcDbScale
 70
     0
300
1'-0" = 1'-0"
140
12.0
141
12.0
290
     0
  0
TABLESTYLE
  5
31
102
{ACAD_XDICTIONARY
360
B87
102
}
102
{ACAD_REACTORS
330
30
102
}
330
30
100
AcDbTableStyle
  3
Standard
 70
     0
 71
     0
 40
0.06
 41
0.06
280
     0
281
     0
  7
STANDARD
140
0.18
170
     2
 62
     0
 63
     7
283
     0
274
    -2
284
     1
 64
     0
275
    -2
285
     1
 65
     0
276
    -2
286
     1
 66
     0
277
    -2
287
     1
 67
     0
278
    -2
288
     1
 68
     0
279
    -2
289
     1
 69
     0
  7
STANDARD
140
0.25
170
     5
 62
     0
 63
     7
283
     0
274
    -2
284
     1
 64
     0
275
    -2
285
     1
 65
     0
276
    -2
286
     1
 66
     0
277
    -2
287
     1
 67
     0
278
    -2
288
     1
 68
     0
279
    -2
289
     1
 69
     0
  7
STANDARD
140
0.18
170
     5
 62
     0
 63
     7
283
     0
274
    -2
284
     1
 64
     0
275
    -2
285
     1
 65
     0
276
    -2
286
     1
 66
     0
277
    -2
287
     1
 67
     0
278
    -2
288
     1
 68
     0
279
    -2
289
     1
 69
     0
  0
VISUALSTYLE
  5
1A
102
{ACAD_XDICTIONARY
360
D21
102
}
102
{ACAD_REACTORS
330
14
102
}
330
14
100
AcDbVisualStyle
  2

 70
     4
 71
     0
 72
     2
 73
     0
 90
        0
 40
-0.6
 41
-30.0
 62
     5
 63
     7
 74
     1
 91
        4
 64
     7
 65
   257
 75
     1
175
     1
 42
1.0
 92
        0
 66
   257
 43
1.0
 76
     1
 77
     6
 78
     2
 67
     7
 79
     5
170
     0
171
     0
290
     0
174
     0
 93
        1
 44
0.0
173
     0
291
     0
 45
0.0
1001
ACAD
1000
AcDbSavedByObjectVersion
1070
     0
  0
VISUALSTYLE
  5
1C
102
{ACAD_XDICTIONARY
360
D25
102
}
102
{ACAD_REACTORS
330
14
102
}
330
14
100
AcDbVisualStyle
  2

 70
     6
 71
     1
 72
     2
 73
     2
 90
        0
 40
-0.6
 41
-30.0
 62
     5
 63
     7
 74
     2
 91
        2
 64
     7
 65
   257
 75
     2
175
     1
 42
40.0
 92
        0
 66
   257
 43
1.0
 76
     1
 77
     6
 78
     2
 67
     7
 79
     3
170
     0
171
     0
290
     0
174
     0
 93
        1
 44
0.0
173
     0
291
     0
 45
0.0
1001
ACAD
1000
AcDbSavedByObjectVersion
1070
     0
  0
VISUALSTYLE
  5
1B
102
{ACAD_XDICTIONARY
360
D23
102
}
102
{ACAD_REACTORS
330
14
102
}
330
14
100
AcDbVisualStyle
  2

 70
     5
 71
     0
 72
     2
 73
     0
 90
        0
 40
-0.6
 41
-30.0
 62
     5
 63
     7
 74
     1
 91
        4
 64
     7
 65
   257
 75
     1
175
     1
 42
1.0
 92
        0
 66
   257
 43
1.0
 76
     1
 77
     6
 78
     2
 67
     7
 79
     5
170
     0
171
     0
290
     0
174
     0
 93
        1
 44
0.0
173
     0
291
     0
 45
0.0
1001
ACAD
1000
AcDbSavedByObjectVersion
1070
     0
  0
VISUALSTYLE
  5
19
102
{ACAD_XDICTIONARY
360
D1F
102
}
102
{ACAD_REACTORS
330
14
102
}
330
14
100
AcDbVisualStyle
  2

 70
     7
 71
     1
 72
     0
 73
     1
 90
        0
 40
-0.6
 41
-30.0
 62
     5
 63
     7
 74
     0
 91
        4
 64
     7
 65
   257
 75
     1
175
     1
 42
1.0
 92
        8
 66
     7
 43
1.0
 76
     1
 77
     6
 78
     2
 67
     7
 79
     5
170
     0
171
     0
290
     0
174
     0
 93
        1
 44
0.0
173
     0
291
     1
 45
0.0
1001
ACAD
1000
AcDbSavedByObjectVersion
1070
     0
  0
VISUALSTYLE
  5
20
102
{ACAD_XDICTIONARY
360
D2D
102
}
102
{ACAD_REACTORS
330
14
102
}
330
14
100
AcDbVisualStyle
  2

 70
    12
 71
     2
 72
     2
 73
     0
 90
        0
 40
-0.6
 41
-30.0
 62
     5
 63
     7
 74
     1
 91
        4
 64
     7
 65
   257
 75
     1
175
     1
 42
1.0
 92
        8
 66
     7
 43
1.0
 76
     1
 77
     6
 78
     2
 67
     7
 79
     5
170
     0
171
     0
290
     0
174
     0
 93
        1
 44
50.0
173
     0
291
     1
 45
0.0
1001
ACAD
1000
AcDbSavedByObjectVersion
1070
     0
  0
VISUALSTYLE
  5
24
102
{ACAD_XDICTIONARY
360
D35
102
}
102
{ACAD_REACTORS
330
14
102
}
330
14
100
AcDbVisualStyle
  2

 70
    16
 71
     2
 72
     2
 73
     3
 90
        0
 40
-0.6
 41
-30.0
 62
     5
 63
     8
 74
     1
 91
        4
 64
     7
 65
   257
 75
     1
175
     1
 42
1.0
 92
        8
 66
     8
 43
1.0
 76
     1
 77
     6
 78
     2
 67
     7
 79
     5
170
     0
171
     0
290
     0
174
     0
 93
        1
 44
0.0
173
     0
291
     1
 45
0.0
1001
ACAD
1000
AcDbSavedByObjectVersion
1070
     0
  0
VISUALSTYLE
  5
1D
102
{ACAD_XDICTIONARY
360
D27
102
}
102
{ACAD_REACTORS
330
14
102
}
330
14
100
AcDbVisualStyle
  2

 70
     9
 71
     3
 72
     2
 73
     0
 90
        0
 40
-0.6
 41
-30.0
 62
     5
 63
     7
 74
     2
 91
        2
 64
     7
 65
   257
 75
     1
175
     1
 42
40.0
 92
        8
 66
     7
 43
1.0
 76
     1
 77
     6
 78
     2
 67
     7
 79
     3
170
     0
171
     0
290
     0
174
     0
 93
        1
 44
0.0
173
     0
291
     0
 45
0.0
1001
ACAD
1000
AcDbSavedByObjectVersion
1070
     0
  0
VISUALSTYLE
  5
1F
102
{ACAD_XDICTIONARY
360
D2B
102
}
102
{ACAD_REACTORS
330
14
102
}
330
14
100
AcDbVisualStyle
  2

 70
    11
 71
     2
 72
     2
 73
     0
 90
        0
 40
-0.6
 41
-30.0
 62
     5
 63
     7
 74
     1
 91
        4
 64
     7
 65
   257
 75
     1
175
     1
 42
1.0
 92
        8
 66
     7
 43
1.0
 76
     1
 77
     6
 78
     2
 67
     7
 79
     5
170
     0
171
     0
290
     0
174
     0
 93
        1
 44
-50.0
173
     0
291
     1
 45
0.0
1001
ACAD
1000
AcDbSavedByObjectVersion
1070
     0
  0
VISUALSTYLE
  5
3BA
102
{ACAD_XDICTIONARY
360
D4E
102
}
102
{ACAD_REACTORS
330
14
102
}
330
14
100
AcDbVisualStyle
  2

 70
    22
 71
     2
 72
     2
 73
     0
 90
        0
 40
-0.6
 41
-30.0
 62
     5
 63
     7
 74
     1
 91
        4
 64
     7
 65
   257
 75
     1
175
     1
 42
1.0
 92
        8
 66
     7
 43
1.0
 76
     1
 77
     6
 78
     2
 67
     7
 79
     5
170
     0
171
     0
290
     0
174
     0
 93
        1
 44
0.0
173
     0
291
     1
 45
0.0
1001
ACAD
1000
AcDbSavedByObjectVersion
1070
     0
  0
VISUALSTYLE
  5
23
102
{ACAD_XDICTIONARY
360
D33
102
}
102
{ACAD_REACTORS
330
14
102
}
330
14
100
AcDbVisualStyle
  2

 70
    15
 71
     2
 72
     2
 73
     0
 90
        0
 40
-0.6
 41
-30.0
 62
     5
 63
     7
 74
     1
 91
        4
 64
     7
 65
   257
 75
     1
175
     1
 42
1.0
 92
        8
 66
     7
 43
1.0
 76
     1
 77
     6
 78
     2
 67
     7
 79
     5
170
     0
171
     0
290
     0
174
     0
 93
        1
 44
0.0
173
     0
291
     1
 45
0.0
1001
ACAD
1000
AcDbSavedByObjectVersion
1070
     0
  0
VISUALSTYLE
  5
15
102
{ACAD_XDICTIONARY
360
D17
102
}
102
{ACAD_REACTORS
330
14
102
}
330
14
100
AcDbVisualStyle
  2

 70
     0
 71
     2
 72
     1
 73
     1
 90
        2
 40
-0.6
 41
30.0
 62
     5
 63
     7
 74
     0
 91
        4
 64
     7
 65
   257
 75
     1
175
     1
 42
1.0
 92
        8
 66
     7
 43
1.0
 76
     1
 77
     6
 78
     2
 67
     7
 79
     5
170
     0
171
     0
290
     0
174
     0
 93
       13
 44
0.0
173
     0
291
     1
 45
0.0
1001
ACAD
1000
AcDbSavedByObjectVersion
1070
     0
  0
VISUALSTYLE
  5
16
102
{ACAD_XDICTIONARY
360
D19
102
}
102
{ACAD_REACTORS
330
14
102
}
330
14
100
AcDbVisualStyle
  2

 70
     1
 71
     2
 72
     1
 73
     1
 90
        2
 40
-0.6
 41
30.0
 62
     5
 63
     7
 74
     1
 91
        4
 64
     7
 65
   257
 75
     1
175
     1
 42
1.0
 92
        0
 66
   257
 43
1.0
 76
     1
 77
     6
 78
     2
 67
     7
 79
     5
170
     0
171
     0
290
     0
174
     0
 93
       13
 44
0.0
173
     0
291
     1
 45
0.0
1001
ACAD
1000
AcDbSavedByObjectVersion
1070
     0
  0
VISUALSTYLE
  5
17
102
{ACAD_XDICTIONARY
360
D1B
102
}
102
{ACAD_REACTORS
330
14
102
}
330
14
100
AcDbVisualStyle
  2

 70
     2
 71
     2
 72
     2
 73
     1
 90
        2
 40
-0.6
 41
30.0
 62
     5
 63
     7
 74
     0
 91
        4
 64
     7
 65
   257
 75
     1
175
     1
 42
1.0
 92
        0
 66
     7
 43
1.0
 76
     1
 77
     6
 78
     2
 67
     7
 79
     5
170
     0
171
     0
290
     0
174
     0
 93
       13
 44
0.0
173
     0
291
     1
 45
0.0
1001
ACAD
1000
AcDbSavedByObjectVersion
1070
     0
  0
VISUALSTYLE
  5
18
102
{ACAD_XDICTIONARY
360
D1D
102
}
102
{ACAD_REACTORS
330
14
102
}
330
14
100
AcDbVisualStyle
  2

 70
     3
 71
     2
 72
     2
 73
     1
 90
        2
 40
-0.6
 41
30.0
 62
     5
 63
     7
 74
     1
 91
        4
 64
     7
 65
   257
 75
     1
175
     1
 42
1.0
 92
        0
 66
   257
 43
1.0
 76
     1
 77
     6
 78
     2
 67
     7
 79
     5
170
     0
171
     0
290
     0
174
     0
 93
       13
 44
0.0
173
     0
291
     1
 45
0.0
1001
ACAD
1000
AcDbSavedByObjectVersion
1070
     0
  0
VISUALSTYLE
  5
3B2
102
{ACAD_XDICTIONARY
360
D3E
102
}
102
{ACAD_REACTORS
330
14
102
}
330
14
100
AcDbVisualStyle
  2

 70
     6
 71
     1
 72
     2
 73
     2
 90
        0
 40
-0.6
 41
-30.0
 62
     5
 63
     7
 74
     2
 91
        2
 64
     7
 65
   257
 75
     2
175
     1
 42
40.0
 92
        0
 66
   257
 43
1.0
 76
     1
 77
     6
 78
     2
 67
     7
 79
     3
170
     0
171
     0
290
     0
174
     0
 93
        1
 44
0.0
173
     0
291
     0
 45
0.0
1001
ACAD
1000
AcDbSavedByObjectVersion
1070
     0
  0
VISUALSTYLE
  5
3B8
102
{ACAD_XDICTIONARY
360
D4A
102
}
102
{ACAD_REACTORS
330
14
102
}
330
14
100
AcDbVisualStyle
  2

 70
    20
 71
     2
 72
     2
 73
     0
 90
        0
 40
-0.6
 41
-30.0
 62
     5
 63
     7
 74
     1
 91
        4
 64
     7
 65
   257
 75
     1
175
     1
 42
1.0
 92
       10
 66
     7
 43
1.0
 76
     1
 77
     6
 78
     2
 67
     7
 79
     5
170
     0
171
     0
290
     0
174
     0
 93
        1
 44
0.0
173
     0
291
     1
 45
0.0
1001
ACAD
1000
AcDbSavedByObjectVersion
1070
     0
  0
VISUALSTYLE
  5
22
102
{ACAD_XDICTIONARY
360
D31
102
}
102
{ACAD_REACTORS
330
14
102
}
330
14
100
AcDbVisualStyle
  2

 70
    14
 71
     2
 72
     2
 73
     0
 90
        0
 40
-0.6
 41
-30.0
 62
     5
 63
     7
 74
     1
 91
        4
 64
     7
 65
   257
 75
     7
175
     7
 42
1.0
 92
        8
 66
     7
 43
1.0
 76
     1
 77
     6
 78
     2
 67
     7
 79
     5
170
     0
171
     0
290
     0
174
     0
 93
        1
 44
0.0
173
     0
291
     1
 45
0.0
1001
ACAD
1000
AcDbSavedByObjectVersion
1070
     0
  0
VISUALSTYLE
  5
3B9
102
{ACAD_XDICTIONARY
360
D4C
102
}
102
{ACAD_REACTORS
330
14
102
}
330
14
100
AcDbVisualStyle
  2

 70
    21
 71
     2
 72
     2
 73
     0
 90
        0
 40
-0.6
 41
-30.0
 62
     5
 63
     7
 74
     1
 91
        4
 64
     7
 65
   257
 75
     1
175
     1
 42
1.0
 92
        9
 66
     7
 43
1.0
 76
     1
 77
     6
 78
     2
 67
     7
 79
     5
170
     0
171
     0
290
     0
174
     0
 93
        1
 44
0.0
173
     0
291
     1
 45
0.0
1001
ACAD
1000
AcDbSavedByObjectVersion
1070
     0
  0
VISUALSTYLE
  5
1E
102
{ACAD_XDICTIONARY
360
D29
102
}
102
{ACAD_REACTORS
330
14
102
}
330
14
100
AcDbVisualStyle
  2

 70
     8
 71
     2
 72
     2
 73
     0
 90
        0
 40
-0.6
 41
-30.0
 62
     5
 63
     7
 74
     1
 91
        0
 64
     7
 65
   257
 75
     1
175
     1
 42
1.0
 92
        8
 66
     8
 43
1.0
 76
     1
 77
     6
 78
     2
 67
     7
 79
     5
170
     0
171
     0
290
     0
174
     0
 93
       13
 44
0.0
173
     0
291
     0
 45
0.0
1001
ACAD
1000
AcDbSavedByObjectVersion
1070
     0
  0
VISUALSTYLE
  5
3B7
102
{ACAD_XDICTIONARY
360
D48
102
}
102
{ACAD_REACTORS
330
14
102
}
330
14
100
AcDbVisualStyle
  2

 70
    27
 71
     2
 72
     2
 73
     1
 90
        2
 40
-0.6
 41
30.0
 62
     5
 63
     7
 74
     0
 91
        4
 64
     7
 65
   257
 75
     1
175
     1
 42
1.0
 92
        8
 66
   257
 43
1.0
 76
     1
 77
     6
 78
     2
 67
     8
 79
     3
170
     0
171
     0
290
     0
174
     0
 93
        5
 44
0.0
173
     0
291
     0
 45
0.0
1001
ACAD
1000
AcDbSavedByObjectVersion
1070
     0
  0
VISUALSTYLE
  5
3B6
102
{ACAD_XDICTIONARY
360
D46
102
}
102
{ACAD_REACTORS
330
14
102
}
330
14
100
AcDbVisualStyle
  2

 70
    26
 71
     2
 72
     2
 73
     1
 90
        2
 40
-0.6
 41
30.0
 62
     5
 63
     7
 74
     1
 91
       10
 64
     7
 65
   257
 75
     2
175
     1
 42
1.0
 92
        8
 66
   257
 43
1.0
 76
     1
 77
     6
 78
     2
 67
     7
 79
     3
170
     0
171
     0
290
     0
174
     0
 93
        5
 44
0.0
173
     0
291
     0
 45
0.0
1001
ACAD
1000
AcDbSavedByObjectVersion
1070
     0
  0
VISUALSTYLE
  5
3B3
102
{ACAD_XDICTIONARY
360
D40
102
}
102
{ACAD_REACTORS
330
14
102
}
330
14
100
AcDbVisualStyle
  2

 70
    23
 71
     2
 72
     2
 73
     3
 90
        0
 40
-0.6
 41
-30.0
 62
     5
 63
     7
 74
     2
 91
        2
 64
     7
 65
     7
 75
     1
175
     1
 42
40.0
 92
        8
 66
     7
 43
1.0
 76
     1
 77
     6
 78
     2
 67
     7
 79
     3
170
     0
171
     0
290
     0
174
     0
 93
        1
 44
0.0
173
     0
291
     0
 45
0.0
1001
ACAD
1000
AcDbSavedByObjectVersion
1070
     0
  0
VISUALSTYLE
  5
3B4
102
{ACAD_XDICTIONARY
360
D42
102
}
102
{ACAD_REACTORS
330
14
102
}
330
14
100
AcDbVisualStyle
  2

 70
    24
 71
     1
 72
     2
 73
     2
 90
        0
 40
-0.6
 41
-30.0
 62
     5
 63
     7
 74
     2
 91
        2
 64
     7
 65
     7
 75
     1
175
     1
 42
40.0
 92
       11
 66
     7
 43
1.0
 76
     1
 77
     6
 78
     2
 67
     7
 79
     6
170
     0
171
     0
290
     0
174
     0
 93
        1
 44
0.0
173
     0
291
     0
 45
0.0
1001
ACAD
1000
AcDbSavedByObjectVersion
1070
     0
  0
VISUALSTYLE
  5
21
102
{ACAD_XDICTIONARY
360
D2F
102
}
102
{ACAD_REACTORS
330
14
102
}
330
14
100
AcDbVisualStyle
  2

 70
    13
 71
     2
 72
     2
 73
     0
 90
        0
 40
-0.6
 41
-30.0
 62
     5
 63
     7
 74
     1
 91
        4
 64
     7
 65
   257
 75
     1
175
     1
 42
1.0
 92
       12
 66
     7
 43
1.0
 76
     1
 77
     6
 78
     2
 67
     7
 79
     5
170
     0
171
     0
290
     0
174
     0
 93
        1
 44
0.0
173
     0
291
     1
 45
0.0
1001
ACAD
1000
AcDbSavedByObjectVersion
1070
     0
  0
VISUALSTYLE
  5
3B1
102
{ACAD_XDICTIONARY
360
D3C
102
}
102
{ACAD_REACTORS
330
14
102
}
330
14
100
AcDbVisualStyle
  2

 70
     5
 71
     0
 72
     2
 73
     0
 90
        0
 40
-0.6
 41
-30.0
 62
     5
 63
     7
 74
     1
 91
        4
 64
     7
 65
   257
 75
     1
175
     1
 42
1.0
 92
        0
 66
   257
 43
1.0
 76
     1
 77
     6
 78
     2
 67
     7
 79
     3
170
     0
171
     0
290
     0
174
     0
 93
        1
 44
0.0
173
     0
291
     0
 45
0.0
1001
ACAD
1000
AcDbSavedByObjectVersion
1070
     0
  0
VISUALSTYLE
  5
3B5
102
{ACAD_XDICTIONARY
360
D44
102
}
102
{ACAD_REACTORS
330
14
102
}
330
14
100
AcDbVisualStyle
  2

 70
    25
 71
     2
 72
     2
 73
     1
 90
        1
 40
0.5
 41
-30.0
 62
     5
 63
     7
 74
     1
 91
        0
 64
     7
 65
   257
 75
     1
175
     1
 42
1.0
 92
        8
 66
     7
 43
1.0
 76
     1
 77
     6
 78
     2
 67
     7
 79
     3
170
     0
171
     0
290
     0
174
     0
 93
       13
 44
0.0
173
     0
291
     0
 45
0.0
1001
ACAD
1000
AcDbSavedByObjectVersion
1070
     0
  0
DICTIONARYVAR
  5
B82
102
{ACAD_REACTORS
330
378
102
}
330
378
100
DictionaryVariables
280
     0
  1
1:1
  0
DICTIONARYVAR
  5
B81
102
{ACAD_REACTORS
330
378
102
}
330
378
100
DictionaryVariables
280
     0
  1
STANDARD
  0
DICTIONARYVAR
  5
379
102
{ACAD_REACTORS
330
378
102
}
330
378
100
DictionaryVariables
280
     0
  1
STANDARD
  0
DICTIONARYVAR
  5
37C
102
{ACAD_REACTORS
330
378
102
}
330
378
100
DictionaryVariables
280
     0
  1
1
  0
DICTIONARYVAR
  5
37B
102
{ACAD_REACTORS
330
378
102
}
330
378
100
DictionaryVariables
280
     0
  1
0
  0
DICTIONARYVAR
  5
C35
102
{ACAD_REACTORS
330
378
102
}
330
378
100
DictionaryVariables
280
     0
  1
1.570796
  0
DICTIONARYVAR
  5
C36
102
{ACAD_REACTORS
330
378
102
}
330
378
100
DictionaryVariables
280
     0
  1
1.570796
  0
DICTIONARYVAR
  5
37A
102
{ACAD_REACTORS
330
378
102
}
330
378
100
DictionaryVariables
280
     0
  1
127
  0
DICTIONARYVAR
  5
C37
102
{ACAD_REACTORS
330
378
102
}
330
378
100
DictionaryVariables
280
     0
  1
2
  0
DICTIONARY
  5
D3A
330
39
100
AcDbDictionary
280
     1
281
     1
  3
ACAD_XREC_ROUNDTRIP
360
D3B
  0
DICTIONARY
  5
D38
330
35
100
AcDbDictionary
280
     1
281
     1
  3
ACAD_XREC_ROUNDTRIP
360
D39
  0
DICTIONARY
  5
396
330
12
100
AcDbDictionary
280
     1
281
     1
  3
ACAD_XREC_ROUNDTRIP
360
397
  0
DICTIONARY
  5
394
330
11
100
AcDbDictionary
280
     1
281
     1
  3
ACAD_XREC_ROUNDTRIP
360
395
  0
DICTIONARY
  5
398
330
13
100
AcDbDictionary
280
     1
281
     1
  3
ACAD_XREC_ROUNDTRIP
360
399
  0
DICTIONARY
  5
B87
330
31
100
AcDbDictionary
280
     1
281
     1
  3
ACAD_ROUNDTRIP_2008_TABLESTYLE_CELLSTYLEMAP
360
D0F
  3
ACAD_XREC_ROUNDTRIP
360
D37
  0
DICTIONARY
  5
D21
330
1A
100
AcDbDictionary
280
     1
281
     1
  3
ACAD_XREC_ROUNDTRIP
360
D22
  0
DICTIONARY
  5
D25
330
1C
100
AcDbDictionary
280
     1
281
     1
  3
ACAD_XREC_ROUNDTRIP
360
D26
  0
DICTIONARY
  5
D23
330
1B
100
AcDbDictionary
280
     1
281
     1
  3
ACAD_XREC_ROUNDTRIP
360
D24
  0
DICTIONARY
  5
D1F
330
19
100
AcDbDictionary
280
     1
281
     1
  3
ACAD_XREC_ROUNDTRIP
360
D20
  0
DICTIONARY
  5
D2D
330
20
100
AcDbDictionary
280
     1
281
     1
  3
ACAD_XREC_ROUNDTRIP
360
D2E
  0
DICTIONARY
  5
D35
330
24
100
AcDbDictionary
280
     1
281
     1
  3
ACAD_XREC_ROUNDTRIP
360
D36
  0
DICTIONARY
  5
D27
330
1D
100
AcDbDictionary
280
     1
281
     1
  3
ACAD_XREC_ROUNDTRIP
360
D28
  0
DICTIONARY
  5
D2B
330
1F
100
AcDbDictionary
280
     1
281
     1
  3
ACAD_XREC_ROUNDTRIP
360
D2C
  0
DICTIONARY
  5
D4E
330
3BA
100
AcDbDictionary
280
     1
281
     1
  3
ACAD_XREC_ROUNDTRIP
360
D4F
  0
DICTIONARY
  5
D33
330
23
100
AcDbDictionary
280
     1
281
     1
  3
ACAD_XREC_ROUNDTRIP
360
D34
  0
DICTIONARY
  5
D17
330
15
100
AcDbDictionary
280
     1
281
     1
  3
ACAD_XREC_ROUNDTRIP
360
D18
  0
DICTIONARY
  5
D19
330
16
100
AcDbDictionary
280
     1
281
     1
  3
ACAD_XREC_ROUNDTRIP
360
D1A
  0
DICTIONARY
  5
D1B
330
17
100
AcDbDictionary
280
     1
281
     1
  3
ACAD_XREC_ROUNDTRIP
360
D1C
  0
DICTIONARY
  5
D1D
330
18
100
AcDbDictionary
280
     1
281
     1
  3
ACAD_XREC_ROUNDTRIP
360
D1E
  0
DICTIONARY
  5
D3E
330
3B2
100
AcDbDictionary
280
     1
281
     1
  3
ACAD_XREC_ROUNDTRIP
360
D3F
  0
DICTIONARY
  5
D4A
330
3B8
100
AcDbDictionary
280
     1
281
     1
  3
ACAD_XREC_ROUNDTRIP
360
D4B
  0
DICTIONARY
  5
D31
330
22
100
AcDbDictionary
280
     1
281
     1
  3
ACAD_XREC_ROUNDTRIP
360
D32
  0
DICTIONARY
  5
D4C
330
3B9
100
AcDbDictionary
280
     1
281
     1
  3
ACAD_XREC_ROUNDTRIP
360
D4D
  0
DICTIONARY
  5
D29
330
1E
100
AcDbDictionary
280
     1
281
     1
  3
ACAD_XREC_ROUNDTRIP
360
D2A
  0
DICTIONARY
  5
D48
330
3B7
100
AcDbDictionary
280
     1
281
     1
  3
ACAD_XREC_ROUNDTRIP
360
D49
  0
DICTIONARY
  5
D46
330
3B6
100
AcDbDictionary
280
     1
281
     1
  3
ACAD_XREC_ROUNDTRIP
360
D47
  0
DICTIONARY
  5
D40
330
3B3
100
AcDbDictionary
280
     1
281
     1
  3
ACAD_XREC_ROUNDTRIP
360
D41
  0
DICTIONARY
  5
D42
330
3B4
100
AcDbDictionary
280
     1
281
     1
  3
ACAD_XREC_ROUNDTRIP
360
D43
  0
DICTIONARY
  5
D2F
330
21
100
AcDbDictionary
280
     1
281
     1
  3
ACAD_XREC_ROUNDTRIP
360
D30
  0
DICTIONARY
  5
D3C
330
3B1
100
AcDbDictionary
280
     1
281
     1
  3
ACAD_XREC_ROUNDTRIP
360
D3D
  0
DICTIONARY
  5
D44
330
3B5
100
AcDbDictionary
280
     1
281
     1
  3
ACAD_XREC_ROUNDTRIP
360
D45
  0
XRECORD
  5
D3B
102
{ACAD_REACTORS
330
D3A
102
}
330
D3A
100
AcDbXrecord
280
     1
102
SHADEPLOT
 70
     0
102
SHADEPLOTRESLEVEL
 70
     2
102
SHADEPLOTCUSTOMDPI
 70
   300
  0
XRECORD
  5
D39
102
{ACAD_REACTORS
330
D38
102
}
330
D38
100
AcDbXrecord
280
     1
102
SHADEPLOT
 70
     0
102
SHADEPLOTRESLEVEL
 70
     2
102
SHADEPLOTCUSTOMDPI
 70
   300
  0
XRECORD
  5
397
102
{ACAD_REACTORS
330
396
102
}
330
396
100
AcDbXrecord
280
     1
102
MATERIAL
148
0.0
149
0.0
149
0.0
 93
        0
 94
      127
282
     0
 72
     1
 77
     1
171
     1
175
     1
179
     1
273
     0
  0
XRECORD
  5
395
102
{ACAD_REACTORS
330
394
102
}
330
394
100
AcDbXrecord
280
     1
102
MATERIAL
148
0.0
149
0.0
149
0.0
 93
        0
 94
      127
282
     0
 72
     1
 77
     1
171
     1
175
     1
179
     1
273
     0
  0
XRECORD
  5
399
102
{ACAD_REACTORS
330
398
102
}
330
398
100
AcDbXrecord
280
     1
102
MATERIAL
148
0.0
149
0.0
149
0.0
 93
        0
 94
      127
282
     0
 72
     1
 77
     1
171
     1
175
     1
179
     1
273
     0
  0
CELLSTYLEMAP
  5
D0F
102
{ACAD_REACTORS
330
B87
102
}
330
B87
100
AcDbCellStyleMap
 90
        3
300
CELLSTYLE
  1
TABLEFORMAT_BEGIN
 90
        5
170
     1
 91
        0
 92
    32768
 62
   257
 93
        1
300
CONTENTFORMAT
  1
CONTENTFORMAT_BEGIN
 90
        0
 91
        0
 92
      512
 93
        0
300

 40
0.0
140
1.0
 94
        5
 62
     0
340
26
144
0.25
309
CONTENTFORMAT_END
171
     1
301
MARGIN
  1
CELLMARGIN_BEGIN
 40
0.06
 40
0.06
 40
0.06
 40
0.06
 40
0.18
 40
0.18
309
CELLMARGIN_END
 94
        6
 95
        1
302
GRIDFORMAT
  1
GRIDFORMAT_BEGIN
 90
        0
 91
        1
 62
     0
 92
       -2
340
0
 93
        0
 40
0.045
309
GRIDFORMAT_END
 95
        2
302
GRIDFORMAT
  1
GRIDFORMAT_BEGIN
 90
        0
 91
        1
 62
     0
 92
       -2
340
0
 93
        0
 40
0.045
309
GRIDFORMAT_END
 95
        4
302
GRIDFORMAT
  1
GRIDFORMAT_BEGIN
 90
        0
 91
        1
 62
     0
 92
       -2
340
0
 93
        0
 40
0.045
309
GRIDFORMAT_END
 95
        8
302
GRIDFORMAT
  1
GRIDFORMAT_BEGIN
 90
        0
 91
        1
 62
     0
 92
       -2
340
0
 93
        0
 40
0.045
309
GRIDFORMAT_END
 95
       16
302
GRIDFORMAT
  1
GRIDFORMAT_BEGIN
 90
        0
 91
        1
 62
     0
 92
       -2
340
0
 93
        0
 40
0.045
309
GRIDFORMAT_END
 95
       32
302
GRIDFORMAT
  1
GRIDFORMAT_BEGIN
 90
        0
 91
        1
 62
     0
 92
       -2
340
0
 93
        0
 40
0.045
309
GRIDFORMAT_END
309
TABLEFORMAT_END
  1
CELLSTYLE_BEGIN
 90
        1
 91
        1
300
_TITLE
309
CELLSTYLE_END
300
CELLSTYLE
  1
TABLEFORMAT_BEGIN
 90
        5
170
     1
 91
        0
 92
        0
 62
   257
 93
        1
300
CONTENTFORMAT
  1
CONTENTFORMAT_BEGIN
 90
        0
 91
        0
 92
      512
 93
        0
300

 40
0.0
140
1.0
 94
        5
 62
     0
340
26
144
0.18
309
CONTENTFORMAT_END
171
     1
301
MARGIN
  1
CELLMARGIN_BEGIN
 40
0.06
 40
0.06
 40
0.06
 40
0.06
 40
0.18
 40
0.18
309
CELLMARGIN_END
 94
        6
 95
        1
302
GRIDFORMAT
  1
GRIDFORMAT_BEGIN
 90
        0
 91
        1
 62
     0
 92
       -2
340
0
 93
        0
 40
0.045
309
GRIDFORMAT_END
 95
        2
302
GRIDFORMAT
  1
GRIDFORMAT_BEGIN
 90
        0
 91
        1
 62
     0
 92
       -2
340
0
 93
        0
 40
0.045
309
GRIDFORMAT_END
 95
        4
302
GRIDFORMAT
  1
GRIDFORMAT_BEGIN
 90
        0
 91
        1
 62
     0
 92
       -2
340
0
 93
        0
 40
0.045
309
GRIDFORMAT_END
 95
        8
302
GRIDFORMAT
  1
GRIDFORMAT_BEGIN
 90
        0
 91
        1
 62
     0
 92
       -2
340
0
 93
        0
 40
0.045
309
GRIDFORMAT_END
 95
       16
302
GRIDFORMAT
  1
GRIDFORMAT_BEGIN
 90
        0
 91
        1
 62
     0
 92
       -2
340
0
 93
        0
 40
0.045
309
GRIDFORMAT_END
 95
       32
302
GRIDFORMAT
  1
GRIDFORMAT_BEGIN
 90
        0
 91
        1
 62
     0
 92
       -2
340
0
 93
        0
 40
0.045
309
GRIDFORMAT_END
309
TABLEFORMAT_END
  1
CELLSTYLE_BEGIN
 90
        2
 91
        1
300
_HEADER
309
CELLSTYLE_END
300
CELLSTYLE
  1
TABLEFORMAT_BEGIN
 90
        5
170
     1
 91
        0
 92
        0
 62
   257
 93
        1
300
CONTENTFORMAT
  1
CONTENTFORMAT_BEGIN
 90
        0
 91
        0
 92
      512
 93
        0
300

 40
0.0
140
1.0
 94
        2
 62
     0
340
26
144
0.18
309
CONTENTFORMAT_END
171
     1
301
MARGIN
  1
CELLMARGIN_BEGIN
 40
0.06
 40
0.06
 40
0.06
 40
0.06
 40
0.18
 40
0.18
309
CELLMARGIN_END
 94
        6
 95
        1
302
GRIDFORMAT
  1
GRIDFORMAT_BEGIN
 90
        0
 91
        1
 62
     0
 92
       -2
340
0
 93
        0
 40
0.045
309
GRIDFORMAT_END
 95
        2
302
GRIDFORMAT
  1
GRIDFORMAT_BEGIN
 90
        0
 91
        1
 62
     0
 92
       -2
340
0
 93
        0
 40
0.045
309
GRIDFORMAT_END
 95
        4
302
GRIDFORMAT
  1
GRIDFORMAT_BEGIN
 90
        0
 91
        1
 62
     0
 92
       -2
340
0
 93
        0
 40
0.045
309
GRIDFORMAT_END
 95
        8
302
GRIDFORMAT
  1
GRIDFORMAT_BEGIN
 90
        0
 91
        1
 62
     0
 92
       -2
340
0
 93
        0
 40
0.045
309
GRIDFORMAT_END
 95
       16
302
GRIDFORMAT
  1
GRIDFORMAT_BEGIN
 90
        0
 91
        1
 62
     0
 92
       -2
340
0
 93
        0
 40
0.045
309
GRIDFORMAT_END
 95
       32
302
GRIDFORMAT
  1
GRIDFORMAT_BEGIN
 90
        0
 91
        1
 62
     0
 92
       -2
340
0
 93
        0
 40
0.045
309
GRIDFORMAT_END
309
TABLEFORMAT_END
  1
CELLSTYLE_BEGIN
 90
        3
 91
        2
300
_DATA
309
CELLSTYLE_END
  0
XRECORD
  5
D37
102
{ACAD_REACTORS
330
B87
102
}
330
B87
100
AcDbXrecord
280
     1
102
ACAD_ROUNDTRIP_PRE2007_TABLESTYLE
 90
      512
 91
        0
  1

 92
      512
 93
        0
  2

 94
      512
 95
        0
  3

  0
XRECORD
  5
D22
102
{ACAD_REACTORS
330
D21
102
}
330
D21
100
AcDbXrecord
280
     1
102
RTVSPropertyOp0
 70
     1
102
RTVSPropertyOp1
 70
     1
102
RTVSPropertyOp2
 70
     1
102
RTVSPropertyOp3
 70
     1
102
RTVSPropertyOp4
 70
     1
102
RTVSPropertyOp5
 70
     1
102
RTVSPropertyOp6
 70
     1
102
RTVSPropertyOp7
 70
     1
102
RTVSPropertyOp8
 70
     1
102
RTVSPropertyOp9
 70
     1
102
RTVSPropertyOp10
 70
     1
102
RTVSPropertyOp11
 70
     1
102
RTVSPropertyOp12
 70
     1
102
RTVSPropertyOp13
 70
     1
102
RTVSPropertyOp14
 70
     1
102
RTVSPropertyOp15
 70
     1
102
RTVSPropertyOp16
 70
     1
102
RTVSPropertyOp17
 70
     1
102
RTVSPropertyOp18
 70
     1
102
RTVSPropertyOp19
 70
     1
102
RTVSPropertyOp20
 70
     1
102
RTVSPropertyOp21
 70
     1
102
RTVSPropertyOp22
 70
     1
102
RTVSPropertyOp23
 70
     1
102
RTVSPropertyOp24
 70
     1
102
RTVSPropertyOp25
 70
     1
102
RTVSPropertyOp26
 70
     1
102
RTVSPropertyOp27
 70
     1
102
RTVSPropertyOp28
 70
     1
102
RTVSPropertyOp29
 70
     1
102
RTVSPropertyOp30
 70
     1
102
RTVSPropertyOp31
 70
     1
102
RTVSPropertyOp32
 70
     1
  0
XRECORD
  5
D26
102
{ACAD_REACTORS
330
D25
102
}
330
D25
100
AcDbXrecord
280
     1
102
RTVSPropertyOp0
 70
     1
102
RTVSPropertyOp1
 70
     1
102
RTVSPropertyOp2
 70
     1
102
RTVSPropertyOp3
 70
     1
102
RTVSPropertyOp4
 70
     1
102
RTVSPropertyOp5
 70
     1
102
RTVSPropertyOp6
 70
     1
102
RTVSPropertyOp7
 70
     1
102
RTVSPropertyOp8
 70
     1
102
RTVSPropertyOp9
 70
     1
102
RTVSPropertyOp10
 70
     1
102
RTVSPropertyOp11
 70
     1
102
RTVSPropertyOp12
 70
     1
102
RTVSPropertyOp13
 70
     1
102
RTVSPropertyOp14
 70
     1
102
RTVSPropertyOp15
 70
     1
102
RTVSPropertyOp16
 70
     1
102
RTVSPropertyOp17
 70
     1
102
RTVSPropertyOp18
 70
     1
102
RTVSPropertyOp19
 70
     1
102
RTVSPropertyOp20
 70
     1
102
RTVSPropertyOp21
 70
     1
102
RTVSPropertyOp22
 70
     1
102
RTVSPropertyOp23
 70
     1
102
RTVSPropertyOp24
 70
     1
102
RTVSPropertyOp25
 70
     1
102
RTVSPropertyOp26
 70
     1
102
RTVSPropertyOp27
 70
     1
102
RTVSPropertyOp28
 70
     1
102
RTVSPropertyOp29
 70
     1
102
RTVSPropertyOp30
 70
     1
102
RTVSPropertyOp31
 70
     1
102
RTVSPropertyOp32
 70
     1
  0
XRECORD
  5
D24
102
{ACAD_REACTORS
330
D23
102
}
330
D23
100
AcDbXrecord
280
     1
102
RTVSPropertyOp0
 70
     1
102
RTVSPropertyOp1
 70
     1
102
RTVSPropertyOp2
 70
     1
102
RTVSPropertyOp3
 70
     1
102
RTVSPropertyOp4
 70
     1
102
RTVSPropertyOp5
 70
     1
102
RTVSPropertyOp6
 70
     1
102
RTVSPropertyOp7
 70
     1
102
RTVSPropertyOp8
 70
     1
102
RTVSPropertyOp9
 70
     1
102
RTVSPropertyOp10
 70
     1
102
RTVSPropertyOp11
 70
     1
102
RTVSPropertyOp12
 70
     1
102
RTVSPropertyOp13
 70
     1
102
RTVSPropertyOp14
 70
     1
102
RTVSPropertyOp15
 70
     1
102
RTVSPropertyOp16
 70
     1
102
RTVSPropertyOp17
 70
     1
102
RTVSPropertyOp18
 70
     1
102
RTVSPropertyOp19
 70
     1
102
RTVSPropertyOp20
 70
     1
102
RTVSPropertyOp21
 70
     1
102
RTVSPropertyOp22
 70
     1
102
RTVSPropertyOp23
 70
     1
102
RTVSPropertyOp24
 70
     1
102
RTVSPropertyOp25
 70
     1
102
RTVSPropertyOp26
 70
     1
102
RTVSPropertyOp27
 70
     1
102
RTVSPropertyOp28
 70
     1
102
RTVSPropertyOp29
 70
     1
102
RTVSPropertyOp30
 70
     1
102
RTVSPropertyOp31
 70
     1
102
RTVSPropertyOp32
 70
     1
  0
XRECORD
  5
D20
102
{ACAD_REACTORS
330
D1F
102
}
330
D1F
100
AcDbXrecord
280
     1
102
RTVSPropertyOp0
 70
     1
102
RTVSPropertyOp1
 70
     1
102
RTVSPropertyOp2
 70
     1
102
RTVSPropertyOp3
 70
     1
102
RTVSPropertyOp4
 70
     1
102
RTVSPropertyOp5
 70
     1
102
RTVSPropertyOp6
 70
     1
102
RTVSPropertyOp7
 70
     1
102
RTVSPropertyOp8
 70
     1
102
RTVSPropertyOp9
 70
     1
102
RTVSPropertyOp10
 70
     1
102
RTVSPropertyOp11
 70
     1
102
RTVSPropertyOp12
 70
     1
102
RTVSPropertyOp13
 70
     1
102
RTVSPropertyOp14
 70
     1
102
RTVSPropertyOp15
 70
     1
102
RTVSPropertyOp16
 70
     1
102
RTVSPropertyOp17
 70
     1
102
RTVSPropertyOp18
 70
     1
102
RTVSPropertyOp19
 70
     1
102
RTVSPropertyOp20
 70
     1
102
RTVSPropertyOp21
 70
     1
102
RTVSPropertyOp22
 70
     1
102
RTVSPropertyOp23
 70
     1
102
RTVSPropertyOp24
 70
     1
102
RTVSPropertyOp25
 70
     1
102
RTVSPropertyOp26
 70
     1
102
RTVSPropertyOp27
 70
     1
102
RTVSPropertyOp28
 70
     1
102
RTVSPropertyOp29
 70
     1
102
RTVSPropertyOp30
 70
     1
102
RTVSPropertyOp31
 70
     1
102
RTVSPropertyOp32
 70
     1
  0
XRECORD
  5
D2E
102
{ACAD_REACTORS
330
D2D
102
}
330
D2D
100
AcDbXrecord
280
     1
102
RTVSPropertyOp0
 70
     1
102
RTVSPropertyOp1
 70
     1
102
RTVSPropertyOp2
 70
     1
102
RTVSPropertyOp3
 70
     1
102
RTVSPropertyOp4
 70
     1
102
RTVSPropertyOp5
 70
     1
102
RTVSPropertyOp6
 70
     1
102
RTVSPropertyOp7
 70
     1
102
RTVSPropertyOp8
 70
     1
102
RTVSPropertyOp9
 70
     1
102
RTVSPropertyOp10
 70
     1
102
RTVSPropertyOp11
 70
     1
102
RTVSPropertyOp12
 70
     1
102
RTVSPropertyOp13
 70
     1
102
RTVSPropertyOp14
 70
     1
102
RTVSPropertyOp15
 70
     1
102
RTVSPropertyOp16
 70
     1
102
RTVSPropertyOp17
 70
     1
102
RTVSPropertyOp18
 70
     1
102
RTVSPropertyOp19
 70
     1
102
RTVSPropertyOp20
 70
     1
102
RTVSPropertyOp21
 70
     1
102
RTVSPropertyOp22
 70
     1
102
RTVSPropertyOp23
 70
     1
102
RTVSPropertyOp24
 70
     1
102
RTVSPropertyOp25
 70
     1
102
RTVSPropertyOp26
 70
     1
102
RTVSPropertyOp27
 70
     1
102
RTVSPropertyOp28
 70
     1
102
RTVSPropertyOp29
 70
     1
102
RTVSPropertyOp30
 70
     1
102
RTVSPropertyOp31
 70
     1
102
RTVSPropertyOp32
 70
     1
  0
XRECORD
  5
D36
102
{ACAD_REACTORS
330
D35
102
}
330
D35
100
AcDbXrecord
280
     1
102
RTVSPropertyOp0
 70
     1
102
RTVSPropertyOp1
 70
     1
102
RTVSPropertyOp2
 70
     1
102
RTVSPropertyOp3
 70
     1
102
RTVSPropertyOp4
 70
     1
102
RTVSPropertyOp5
 70
     1
102
RTVSPropertyOp6
 70
     1
102
RTVSPropertyOp7
 70
     1
102
RTVSPropertyOp8
 70
     1
102
RTVSPropertyOp9
 70
     1
102
RTVSPropertyOp10
 70
     1
102
RTVSPropertyOp11
 70
     1
102
RTVSPropertyOp12
 70
     1
102
RTVSPropertyOp13
 70
     1
102
RTVSPropertyOp14
 70
     1
102
RTVSPropertyOp15
 70
     1
102
RTVSPropertyOp16
 70
     1
102
RTVSPropertyOp17
 70
     1
102
RTVSPropertyOp18
 70
     1
102
RTVSPropertyOp19
 70
     1
102
RTVSPropertyOp20
 70
     1
102
RTVSPropertyOp21
 70
     1
102
RTVSPropertyOp22
 70
     1
102
RTVSPropertyOp23
 70
     1
102
RTVSPropertyOp24
 70
     1
102
RTVSPropertyOp25
 70
     1
102
RTVSPropertyOp26
 70
     1
102
RTVSPropertyOp27
 70
     1
102
RTVSPropertyOp28
 70
     1
102
RTVSPropertyOp29
 70
     1
102
RTVSPropertyOp30
 70
     1
102
RTVSPropertyOp31
 70
     1
102
RTVSPropertyOp32
 70
     1
  0
XRECORD
  5
D28
102
{ACAD_REACTORS
330
D27
102
}
330
D27
100
AcDbXrecord
280
     1
102
RTVSPropertyOp0
 70
     1
102
RTVSPropertyOp1
 70
     1
102
RTVSPropertyOp2
 70
     1
102
RTVSPropertyOp3
 70
     1
102
RTVSPropertyOp4
 70
     1
102
RTVSPropertyOp5
 70
     1
102
RTVSPropertyOp6
 70
     1
102
RTVSPropertyOp7
 70
     1
102
RTVSPropertyOp8
 70
     1
102
RTVSPropertyOp9
 70
     1
102
RTVSPropertyOp10
 70
     1
102
RTVSPropertyOp11
 70
     1
102
RTVSPropertyOp12
 70
     1
102
RTVSPropertyOp13
 70
     1
102
RTVSPropertyOp14
 70
     1
102
RTVSPropertyOp15
 70
     1
102
RTVSPropertyOp16
 70
     1
102
RTVSPropertyOp17
 70
     1
102
RTVSPropertyOp18
 70
     1
102
RTVSPropertyOp19
 70
     1
102
RTVSPropertyOp20
 70
     1
102
RTVSPropertyOp21
 70
     1
102
RTVSPropertyOp22
 70
     1
102
RTVSPropertyOp23
 70
     1
102
RTVSPropertyOp24
 70
     1
102
RTVSPropertyOp25
 70
     1
102
RTVSPropertyOp26
 70
     1
102
RTVSPropertyOp27
 70
     1
102
RTVSPropertyOp28
 70
     1
102
RTVSPropertyOp29
 70
     1
102
RTVSPropertyOp30
 70
     1
102
RTVSPropertyOp31
 70
     1
102
RTVSPropertyOp32
 70
     1
  0
XRECORD
  5
D2C
102
{ACAD_REACTORS
330
D2B
102
}
330
D2B
100
AcDbXrecord
280
     1
102
RTVSPropertyOp0
 70
     1
102
RTVSPropertyOp1
 70
     1
102
RTVSPropertyOp2
 70
     1
102
RTVSPropertyOp3
 70
     1
102
RTVSPropertyOp4
 70
     1
102
RTVSPropertyOp5
 70
     1
102
RTVSPropertyOp6
 70
     1
102
RTVSPropertyOp7
 70
     1
102
RTVSPropertyOp8
 70
     1
102
RTVSPropertyOp9
 70
     1
102
RTVSPropertyOp10
 70
     1
102
RTVSPropertyOp11
 70
     1
102
RTVSPropertyOp12
 70
     1
102
RTVSPropertyOp13
 70
     1
102
RTVSPropertyOp14
 70
     1
102
RTVSPropertyOp15
 70
     1
102
RTVSPropertyOp16
 70
     1
102
RTVSPropertyOp17
 70
     1
102
RTVSPropertyOp18
 70
     1
102
RTVSPropertyOp19
 70
     1
102
RTVSPropertyOp20
 70
     1
102
RTVSPropertyOp21
 70
     1
102
RTVSPropertyOp22
 70
     1
102
RTVSPropertyOp23
 70
     1
102
RTVSPropertyOp24
 70
     1
102
RTVSPropertyOp25
 70
     1
102
RTVSPropertyOp26
 70
     1
102
RTVSPropertyOp27
 70
     1
102
RTVSPropertyOp28
 70
     1
102
RTVSPropertyOp29
 70
     1
102
RTVSPropertyOp30
 70
     1
102
RTVSPropertyOp31
 70
     1
102
RTVSPropertyOp32
 70
     1
  0
XRECORD
  5
D4F
102
{ACAD_REACTORS
330
D4E
102
}
330
D4E
100
AcDbXrecord
280
     1
102
RTVSPropertyOp0
 70
     0
102
RTVSPropertyOp1
 70
     0
102
RTVSPropertyOp2
 70
     0
102
RTVSPropertyOp3
 70
     0
102
RTVSPropertyOp4
 70
     0
102
RTVSPropertyOp5
 70
     0
102
RTVSPropertyOp6
 70
     0
102
RTVSPropertyOp7
 70
     0
102
RTVSPropertyOp8
 70
     0
102
RTVSPropertyOp9
 70
     0
102
RTVSPropertyOp10
 70
     0
102
RTVSPropertyOp11
 70
     0
102
RTVSPropertyOp12
 70
     0
102
RTVSPropertyOp13
 70
     0
102
RTVSPropertyOp14
 70
     2
102
RTVSPropertyOp15
 70
     0
102
RTVSPropertyOp16
 70
     0
102
RTVSPropertyOp17
 70
     0
102
RTVSPropertyOp18
 70
     0
102
RTVSPropertyOp19
 70
     0
102
RTVSPropertyOp20
 70
     0
102
RTVSPropertyOp21
 70
     0
102
RTVSPropertyOp22
 70
     0
102
RTVSPropertyOp23
 70
     0
102
RTVSPropertyOp24
 70
     0
102
RTVSPropertyOp25
 70
     0
102
RTVSPropertyOp26
 70
     0
102
RTVSPropertyOp27
 70
     0
102
RTVSPropertyOp28
 70
     0
102
RTVSPropertyOp29
 70
     0
102
RTVSPropertyOp30
 70
     0
102
RTVSPropertyOp31
 70
     0
102
RTVSPropertyOp32
 70
     0
  0
XRECORD
  5
D34
102
{ACAD_REACTORS
330
D33
102
}
330
D33
100
AcDbXrecord
280
     1
102
RTVSPropertyOp0
 70
     1
102
RTVSPropertyOp1
 70
     1
102
RTVSPropertyOp2
 70
     1
102
RTVSPropertyOp3
 70
     1
102
RTVSPropertyOp4
 70
     1
102
RTVSPropertyOp5
 70
     1
102
RTVSPropertyOp6
 70
     1
102
RTVSPropertyOp7
 70
     1
102
RTVSPropertyOp8
 70
     1
102
RTVSPropertyOp9
 70
     1
102
RTVSPropertyOp10
 70
     1
102
RTVSPropertyOp11
 70
     1
102
RTVSPropertyOp12
 70
     1
102
RTVSPropertyOp13
 70
     1
102
RTVSPropertyOp14
 70
     1
102
RTVSPropertyOp15
 70
     1
102
RTVSPropertyOp16
 70
     1
102
RTVSPropertyOp17
 70
     1
102
RTVSPropertyOp18
 70
     1
102
RTVSPropertyOp19
 70
     1
102
RTVSPropertyOp20
 70
     1
102
RTVSPropertyOp21
 70
     1
102
RTVSPropertyOp22
 70
     1
102
RTVSPropertyOp23
 70
     1
102
RTVSPropertyOp24
 70
     1
102
RTVSPropertyOp25
 70
     1
102
RTVSPropertyOp26
 70
     1
102
RTVSPropertyOp27
 70
     1
102
RTVSPropertyOp28
 70
     1
102
RTVSPropertyOp29
 70
     1
102
RTVSPropertyOp30
 70
     1
102
RTVSPropertyOp31
 70
     1
102
RTVSPropertyOp32
 70
     1
  0
XRECORD
  5
D18
102
{ACAD_REACTORS
330
D17
102
}
330
D17
100
AcDbXrecord
280
     1
102
RTVSPropertyOp0
 70
     1
102
RTVSPropertyOp1
 70
     1
102
RTVSPropertyOp2
 70
     1
102
RTVSPropertyOp3
 70
     1
102
RTVSPropertyOp4
 70
     1
102
RTVSPropertyOp5
 70
     1
102
RTVSPropertyOp6
 70
     1
102
RTVSPropertyOp7
 70
     1
102
RTVSPropertyOp8
 70
     1
102
RTVSPropertyOp9
 70
     1
102
RTVSPropertyOp10
 70
     1
102
RTVSPropertyOp11
 70
     1
102
RTVSPropertyOp12
 70
     1
102
RTVSPropertyOp13
 70
     1
102
RTVSPropertyOp14
 70
     1
102
RTVSPropertyOp15
 70
     1
102
RTVSPropertyOp16
 70
     1
102
RTVSPropertyOp17
 70
     1
102
RTVSPropertyOp18
 70
     1
102
RTVSPropertyOp19
 70
     1
102
RTVSPropertyOp20
 70
     1
102
RTVSPropertyOp21
 70
     1
102
RTVSPropertyOp22
 70
     1
102
RTVSPropertyOp23
 70
     1
102
RTVSPropertyOp24
 70
     1
102
RTVSPropertyOp25
 70
     1
102
RTVSPropertyOp26
 70
     1
102
RTVSPropertyOp27
 70
     1
102
RTVSPropertyOp28
 70
     1
102
RTVSPropertyOp29
 70
     1
102
RTVSPropertyOp30
 70
     1
102
RTVSPropertyOp31
 70
     1
102
RTVSPropertyOp32
 70
     1
  0
XRECORD
  5
D1A
102
{ACAD_REACTORS
330
D19
102
}
330
D19
100
AcDbXrecord
280
     1
102
RTVSPropertyOp0
 70
     1
102
RTVSPropertyOp1
 70
     1
102
RTVSPropertyOp2
 70
     1
102
RTVSPropertyOp3
 70
     1
102
RTVSPropertyOp4
 70
     1
102
RTVSPropertyOp5
 70
     1
102
RTVSPropertyOp6
 70
     1
102
RTVSPropertyOp7
 70
     1
102
RTVSPropertyOp8
 70
     1
102
RTVSPropertyOp9
 70
     1
102
RTVSPropertyOp10
 70
     1
102
RTVSPropertyOp11
 70
     1
102
RTVSPropertyOp12
 70
     1
102
RTVSPropertyOp13
 70
     1
102
RTVSPropertyOp14
 70
     1
102
RTVSPropertyOp15
 70
     1
102
RTVSPropertyOp16
 70
     1
102
RTVSPropertyOp17
 70
     1
102
RTVSPropertyOp18
 70
     1
102
RTVSPropertyOp19
 70
     1
102
RTVSPropertyOp20
 70
     1
102
RTVSPropertyOp21
 70
     1
102
RTVSPropertyOp22
 70
     1
102
RTVSPropertyOp23
 70
     1
102
RTVSPropertyOp24
 70
     1
102
RTVSPropertyOp25
 70
     1
102
RTVSPropertyOp26
 70
     1
102
RTVSPropertyOp27
 70
     1
102
RTVSPropertyOp28
 70
     1
102
RTVSPropertyOp29
 70
     1
102
RTVSPropertyOp30
 70
     1
102
RTVSPropertyOp31
 70
     1
102
RTVSPropertyOp32
 70
     1
  0
XRECORD
  5
D1C
102
{ACAD_REACTORS
330
D1B
102
}
330
D1B
100
AcDbXrecord
280
     1
102
RTVSPropertyOp0
 70
     1
102
RTVSPropertyOp1
 70
     1
102
RTVSPropertyOp2
 70
     1
102
RTVSPropertyOp3
 70
     1
102
RTVSPropertyOp4
 70
     1
102
RTVSPropertyOp5
 70
     1
102
RTVSPropertyOp6
 70
     1
102
RTVSPropertyOp7
 70
     1
102
RTVSPropertyOp8
 70
     1
102
RTVSPropertyOp9
 70
     1
102
RTVSPropertyOp10
 70
     1
102
RTVSPropertyOp11
 70
     1
102
RTVSPropertyOp12
 70
     1
102
RTVSPropertyOp13
 70
     1
102
RTVSPropertyOp14
 70
     1
102
RTVSPropertyOp15
 70
     1
102
RTVSPropertyOp16
 70
     1
102
RTVSPropertyOp17
 70
     1
102
RTVSPropertyOp18
 70
     1
102
RTVSPropertyOp19
 70
     1
102
RTVSPropertyOp20
 70
     1
102
RTVSPropertyOp21
 70
     1
102
RTVSPropertyOp22
 70
     1
102
RTVSPropertyOp23
 70
     1
102
RTVSPropertyOp24
 70
     1
102
RTVSPropertyOp25
 70
     1
102
RTVSPropertyOp26
 70
     1
102
RTVSPropertyOp27
 70
     1
102
RTVSPropertyOp28
 70
     1
102
RTVSPropertyOp29
 70
     1
102
RTVSPropertyOp30
 70
     1
102
RTVSPropertyOp31
 70
     1
102
RTVSPropertyOp32
 70
     1
  0
XRECORD
  5
D1E
102
{ACAD_REACTORS
330
D1D
102
}
330
D1D
100
AcDbXrecord
280
     1
102
RTVSPropertyOp0
 70
     1
102
RTVSPropertyOp1
 70
     1
102
RTVSPropertyOp2
 70
     1
102
RTVSPropertyOp3
 70
     1
102
RTVSPropertyOp4
 70
     1
102
RTVSPropertyOp5
 70
     1
102
RTVSPropertyOp6
 70
     1
102
RTVSPropertyOp7
 70
     1
102
RTVSPropertyOp8
 70
     1
102
RTVSPropertyOp9
 70
     1
102
RTVSPropertyOp10
 70
     1
102
RTVSPropertyOp11
 70
     1
102
RTVSPropertyOp12
 70
     1
102
RTVSPropertyOp13
 70
     1
102
RTVSPropertyOp14
 70
     1
102
RTVSPropertyOp15
 70
     1
102
RTVSPropertyOp16
 70
     1
102
RTVSPropertyOp17
 70
     1
102
RTVSPropertyOp18
 70
     1
102
RTVSPropertyOp19
 70
     1
102
RTVSPropertyOp20
 70
     1
102
RTVSPropertyOp21
 70
     1
102
RTVSPropertyOp22
 70
     1
102
RTVSPropertyOp23
 70
     1
102
RTVSPropertyOp24
 70
     1
102
RTVSPropertyOp25
 70
     1
102
RTVSPropertyOp26
 70
     1
102
RTVSPropertyOp27
 70
     1
102
RTVSPropertyOp28
 70
     1
102
RTVSPropertyOp29
 70
     1
102
RTVSPropertyOp30
 70
     1
102
RTVSPropertyOp31
 70
     1
102
RTVSPropertyOp32
 70
     1
  0
XRECORD
  5
D3F
102
{ACAD_REACTORS
330
D3E
102
}
330
D3E
100
AcDbXrecord
280
     1
102
RTVSPropertyOp0
 70
     1
102
RTVSPropertyOp1
 70
     1
102
RTVSPropertyOp2
 70
     1
102
RTVSPropertyOp3
 70
     1
102
RTVSPropertyOp4
 70
     1
102
RTVSPropertyOp5
 70
     1
102
RTVSPropertyOp6
 70
     1
102
RTVSPropertyOp7
 70
     1
102
RTVSPropertyOp8
 70
     1
102
RTVSPropertyOp9
 70
     1
102
RTVSPropertyOp10
 70
     1
102
RTVSPropertyOp11
 70
     1
102
RTVSPropertyOp12
 70
     1
102
RTVSPropertyOp13
 70
     1
102
RTVSPropertyOp14
 70
     1
102
RTVSPropertyOp15
 70
     1
102
RTVSPropertyOp16
 70
     1
102
RTVSPropertyOp17
 70
     1
102
RTVSPropertyOp18
 70
     1
102
RTVSPropertyOp19
 70
     1
102
RTVSPropertyOp20
 70
     1
102
RTVSPropertyOp21
 70
     1
102
RTVSPropertyOp22
 70
     1
102
RTVSPropertyOp23
 70
     1
102
RTVSPropertyOp24
 70
     1
102
RTVSPropertyOp25
 70
     1
102
RTVSPropertyOp26
 70
     1
102
RTVSPropertyOp27
 70
     1
102
RTVSPropertyOp28
 70
     1
102
RTVSPropertyOp29
 70
     1
102
RTVSPropertyOp30
 70
     1
102
RTVSPropertyOp31
 70
     1
102
RTVSPropertyOp32
 70
     1
  0
XRECORD
  5
D4B
102
{ACAD_REACTORS
330
D4A
102
}
330
D4A
100
AcDbXrecord
280
     1
102
RTVSPropertyOp0
 70
     0
102
RTVSPropertyOp1
 70
     0
102
RTVSPropertyOp2
 70
     0
102
RTVSPropertyOp3
 70
     0
102
RTVSPropertyOp4
 70
     0
102
RTVSPropertyOp5
 70
     0
102
RTVSPropertyOp6
 70
     0
102
RTVSPropertyOp7
 70
     0
102
RTVSPropertyOp8
 70
     0
102
RTVSPropertyOp9
 70
     0
102
RTVSPropertyOp10
 70
     0
102
RTVSPropertyOp11
 70
     0
102
RTVSPropertyOp12
 70
     0
102
RTVSPropertyOp13
 70
     0
102
RTVSPropertyOp14
 70
     2
102
RTVSPropertyOp15
 70
     0
102
RTVSPropertyOp16
 70
     0
102
RTVSPropertyOp17
 70
     0
102
RTVSPropertyOp18
 70
     0
102
RTVSPropertyOp19
 70
     0
102
RTVSPropertyOp20
 70
     0
102
RTVSPropertyOp21
 70
     0
102
RTVSPropertyOp22
 70
     0
102
RTVSPropertyOp23
 70
     0
102
RTVSPropertyOp24
 70
     0
102
RTVSPropertyOp25
 70
     0
102
RTVSPropertyOp26
 70
     0
102
RTVSPropertyOp27
 70
     0
102
RTVSPropertyOp28
 70
     0
102
RTVSPropertyOp29
 70
     0
102
RTVSPropertyOp30
 70
     0
102
RTVSPropertyOp31
 70
     0
102
RTVSPropertyOp32
 70
     0
  0
XRECORD
  5
D32
102
{ACAD_REACTORS
330
D31
102
}
330
D31
100
AcDbXrecord
280
     1
102
RTVSPropertyOp0
 70
     1
102
RTVSPropertyOp1
 70
     1
102
RTVSPropertyOp2
 70
     1
102
RTVSPropertyOp3
 70
     1
102
RTVSPropertyOp4
 70
     1
102
RTVSPropertyOp5
 70
     1
102
RTVSPropertyOp6
 70
     1
102
RTVSPropertyOp7
 70
     1
102
RTVSPropertyOp8
 70
     1
102
RTVSPropertyOp9
 70
     1
102
RTVSPropertyOp10
 70
     1
102
RTVSPropertyOp11
 70
     1
102
RTVSPropertyOp12
 70
     1
102
RTVSPropertyOp13
 70
     1
102
RTVSPropertyOp14
 70
     1
102
RTVSPropertyOp15
 70
     1
102
RTVSPropertyOp16
 70
     1
102
RTVSPropertyOp17
 70
     1
102
RTVSPropertyOp18
 70
     1
102
RTVSPropertyOp19
 70
     1
102
RTVSPropertyOp20
 70
     1
102
RTVSPropertyOp21
 70
     1
102
RTVSPropertyOp22
 70
     1
102
RTVSPropertyOp23
 70
     1
102
RTVSPropertyOp24
 70
     1
102
RTVSPropertyOp25
 70
     1
102
RTVSPropertyOp26
 70
     1
102
RTVSPropertyOp27
 70
     1
102
RTVSPropertyOp28
 70
     1
102
RTVSPropertyOp29
 70
     1
102
RTVSPropertyOp30
 70
     1
102
RTVSPropertyOp31
 70
     1
102
RTVSPropertyOp32
 70
     1
  0
XRECORD
  5
D4D
102
{ACAD_REACTORS
330
D4C
102
}
330
D4C
100
AcDbXrecord
280
     1
102
RTVSPropertyOp0
 70
     0
102
RTVSPropertyOp1
 70
     0
102
RTVSPropertyOp2
 70
     0
102
RTVSPropertyOp3
 70
     0
102
RTVSPropertyOp4
 70
     0
102
RTVSPropertyOp5
 70
     0
102
RTVSPropertyOp6
 70
     0
102
RTVSPropertyOp7
 70
     0
102
RTVSPropertyOp8
 70
     0
102
RTVSPropertyOp9
 70
     0
102
RTVSPropertyOp10
 70
     0
102
RTVSPropertyOp11
 70
     0
102
RTVSPropertyOp12
 70
     0
102
RTVSPropertyOp13
 70
     0
102
RTVSPropertyOp14
 70
     2
102
RTVSPropertyOp15
 70
     0
102
RTVSPropertyOp16
 70
     0
102
RTVSPropertyOp17
 70
     0
102
RTVSPropertyOp18
 70
     0
102
RTVSPropertyOp19
 70
     0
102
RTVSPropertyOp20
 70
     0
102
RTVSPropertyOp21
 70
     0
102
RTVSPropertyOp22
 70
     0
102
RTVSPropertyOp23
 70
     0
102
RTVSPropertyOp24
 70
     0
102
RTVSPropertyOp25
 70
     0
102
RTVSPropertyOp26
 70
     0
102
RTVSPropertyOp27
 70
     0
102
RTVSPropertyOp28
 70
     0
102
RTVSPropertyOp29
 70
     0
102
RTVSPropertyOp30
 70
     0
102
RTVSPropertyOp31
 70
     0
102
RTVSPropertyOp32
 70
     0
  0
XRECORD
  5
D2A
102
{ACAD_REACTORS
330
D29
102
}
330
D29
100
AcDbXrecord
280
     1
102
RTVSPropertyOp0
 70
     1
102
RTVSPropertyOp1
 70
     1
102
RTVSPropertyOp2
 70
     1
102
RTVSPropertyOp3
 70
     1
102
RTVSPropertyOp4
 70
     1
102
RTVSPropertyOp5
 70
     1
102
RTVSPropertyOp6
 70
     1
102
RTVSPropertyOp7
 70
     1
102
RTVSPropertyOp8
 70
     1
102
RTVSPropertyOp9
 70
     1
102
RTVSPropertyOp10
 70
     1
102
RTVSPropertyOp11
 70
     1
102
RTVSPropertyOp12
 70
     1
102
RTVSPropertyOp13
 70
     1
102
RTVSPropertyOp14
 70
     1
102
RTVSPropertyOp15
 70
     1
102
RTVSPropertyOp16
 70
     1
102
RTVSPropertyOp17
 70
     1
102
RTVSPropertyOp18
 70
     1
102
RTVSPropertyOp19
 70
     1
102
RTVSPropertyOp20
 70
     1
102
RTVSPropertyOp21
 70
     1
102
RTVSPropertyOp22
 70
     1
102
RTVSPropertyOp23
 70
     1
102
RTVSPropertyOp24
 70
     1
102
RTVSPropertyOp25
 70
     1
102
RTVSPropertyOp26
 70
     1
102
RTVSPropertyOp27
 70
     1
102
RTVSPropertyOp28
 70
     1
102
RTVSPropertyOp29
 70
     1
102
RTVSPropertyOp30
 70
     1
102
RTVSPropertyOp31
 70
     1
102
RTVSPropertyOp32
 70
     1
  0
XRECORD
  5
D49
102
{ACAD_REACTORS
330
D48
102
}
330
D48
100
AcDbXrecord
280
     1
102
RTVSPropertyOp0
 70
     1
102
RTVSPropertyOp1
 70
     1
102
RTVSPropertyOp2
 70
     1
102
RTVSPropertyOp3
 70
     1
102
RTVSPropertyOp4
 70
     1
102
RTVSPropertyOp5
 70
     1
102
RTVSPropertyOp6
 70
     1
102
RTVSPropertyOp7
 70
     1
102
RTVSPropertyOp8
 70
     1
102
RTVSPropertyOp9
 70
     1
102
RTVSPropertyOp10
 70
     1
102
RTVSPropertyOp11
 70
     1
102
RTVSPropertyOp12
 70
     1
102
RTVSPropertyOp13
 70
     1
102
RTVSPropertyOp14
 70
     1
102
RTVSPropertyOp15
 70
     1
102
RTVSPropertyOp16
 70
     1
102
RTVSPropertyOp17
 70
     1
102
RTVSPropertyOp18
 70
     1
102
RTVSPropertyOp19
 70
     1
102
RTVSPropertyOp20
 70
     1
102
RTVSPropertyOp21
 70
     1
102
RTVSPropertyOp22
 70
     1
102
RTVSPropertyOp23
 70
     1
102
RTVSPropertyOp24
 70
     1
102
RTVSPropertyOp25
 70
     1
102
RTVSPropertyOp26
 70
     1
102
RTVSPropertyOp27
 70
     1
102
RTVSPropertyOp28
 70
     1
102
RTVSPropertyOp29
 70
     1
102
RTVSPropertyOp30
 70
     1
102
RTVSPropertyOp31
 70
     1
102
RTVSPropertyOp32
 70
     1
  0
XRECORD
  5
D47
102
{ACAD_REACTORS
330
D46
102
}
330
D46
100
AcDbXrecord
280
     1
102
RTVSPropertyOp0
 70
     1
102
RTVSPropertyOp1
 70
     1
102
RTVSPropertyOp2
 70
     1
102
RTVSPropertyOp3
 70
     1
102
RTVSPropertyOp4
 70
     1
102
RTVSPropertyOp5
 70
     1
102
RTVSPropertyOp6
 70
     1
102
RTVSPropertyOp7
 70
     1
102
RTVSPropertyOp8
 70
     1
102
RTVSPropertyOp9
 70
     1
102
RTVSPropertyOp10
 70
     1
102
RTVSPropertyOp11
 70
     1
102
RTVSPropertyOp12
 70
     1
102
RTVSPropertyOp13
 70
     1
102
RTVSPropertyOp14
 70
     1
102
RTVSPropertyOp15
 70
     1
102
RTVSPropertyOp16
 70
     1
102
RTVSPropertyOp17
 70
     1
102
RTVSPropertyOp18
 70
     1
102
RTVSPropertyOp19
 70
     1
102
RTVSPropertyOp20
 70
     1
102
RTVSPropertyOp21
 70
     1
102
RTVSPropertyOp22
 70
     1
102
RTVSPropertyOp23
 70
     1
102
RTVSPropertyOp24
 70
     1
102
RTVSPropertyOp25
 70
     1
102
RTVSPropertyOp26
 70
     1
102
RTVSPropertyOp27
 70
     1
102
RTVSPropertyOp28
 70
     1
102
RTVSPropertyOp29
 70
     1
102
RTVSPropertyOp30
 70
     1
102
RTVSPropertyOp31
 70
     1
102
RTVSPropertyOp32
 70
     1
  0
XRECORD
  5
D41
102
{ACAD_REACTORS
330
D40
102
}
330
D40
100
AcDbXrecord
280
     1
102
RTVSPropertyOp0
 70
     1
102
RTVSPropertyOp1
 70
     1
102
RTVSPropertyOp2
 70
     1
102
RTVSPropertyOp3
 70
     1
102
RTVSPropertyOp4
 70
     1
102
RTVSPropertyOp5
 70
     1
102
RTVSPropertyOp6
 70
     1
102
RTVSPropertyOp7
 70
     1
102
RTVSPropertyOp8
 70
     1
102
RTVSPropertyOp9
 70
     1
102
RTVSPropertyOp10
 70
     1
102
RTVSPropertyOp11
 70
     1
102
RTVSPropertyOp12
 70
     1
102
RTVSPropertyOp13
 70
     1
102
RTVSPropertyOp14
 70
     1
102
RTVSPropertyOp15
 70
     1
102
RTVSPropertyOp16
 70
     1
102
RTVSPropertyOp17
 70
     1
102
RTVSPropertyOp18
 70
     1
102
RTVSPropertyOp19
 70
     1
102
RTVSPropertyOp20
 70
     1
102
RTVSPropertyOp21
 70
     1
102
RTVSPropertyOp22
 70
     1
102
RTVSPropertyOp23
 70
     1
102
RTVSPropertyOp24
 70
     1
102
RTVSPropertyOp25
 70
     1
102
RTVSPropertyOp26
 70
     1
102
RTVSPropertyOp27
 70
     1
102
RTVSPropertyOp28
 70
     1
102
RTVSPropertyOp29
 70
     1
102
RTVSPropertyOp30
 70
     1
102
RTVSPropertyOp31
 70
     1
102
RTVSPropertyOp32
 70
     1
  0
XRECORD
  5
D43
102
{ACAD_REACTORS
330
D42
102
}
330
D42
100
AcDbXrecord
280
     1
102
RTVSPropertyOp0
 70
     1
102
RTVSPropertyOp1
 70
     1
102
RTVSPropertyOp2
 70
     1
102
RTVSPropertyOp3
 70
     1
102
RTVSPropertyOp4
 70
     1
102
RTVSPropertyOp5
 70
     1
102
RTVSPropertyOp6
 70
     1
102
RTVSPropertyOp7
 70
     1
102
RTVSPropertyOp8
 70
     1
102
RTVSPropertyOp9
 70
     1
102
RTVSPropertyOp10
 70
     1
102
RTVSPropertyOp11
 70
     1
102
RTVSPropertyOp12
 70
     1
102
RTVSPropertyOp13
 70
     1
102
RTVSPropertyOp14
 70
     1
102
RTVSPropertyOp15
 70
     1
102
RTVSPropertyOp16
 70
     1
102
RTVSPropertyOp17
 70
     1
102
RTVSPropertyOp18
 70
     1
102
RTVSPropertyOp19
 70
     1
102
RTVSPropertyOp20
 70
     1
102
RTVSPropertyOp21
 70
     1
102
RTVSPropertyOp22
 70
     1
102
RTVSPropertyOp23
 70
     1
102
RTVSPropertyOp24
 70
     1
102
RTVSPropertyOp25
 70
     1
102
RTVSPropertyOp26
 70
     1
102
RTVSPropertyOp27
 70
     1
102
RTVSPropertyOp28
 70
     1
102
RTVSPropertyOp29
 70
     1
102
RTVSPropertyOp30
 70
     1
102
RTVSPropertyOp31
 70
     1
102
RTVSPropertyOp32
 70
     1
  0
XRECORD
  5
D30
102
{ACAD_REACTORS
330
D2F
102
}
330
D2F
100
AcDbXrecord
280
     1
102
RTVSPropertyOp0
 70
     1
102
RTVSPropertyOp1
 70
     1
102
RTVSPropertyOp2
 70
     1
102
RTVSPropertyOp3
 70
     1
102
RTVSPropertyOp4
 70
     1
102
RTVSPropertyOp5
 70
     1
102
RTVSPropertyOp6
 70
     1
102
RTVSPropertyOp7
 70
     1
102
RTVSPropertyOp8
 70
     1
102
RTVSPropertyOp9
 70
     1
102
RTVSPropertyOp10
 70
     1
102
RTVSPropertyOp11
 70
     1
102
RTVSPropertyOp12
 70
     1
102
RTVSPropertyOp13
 70
     1
102
RTVSPropertyOp14
 70
     1
102
RTVSPropertyOp15
 70
     1
102
RTVSPropertyOp16
 70
     1
102
RTVSPropertyOp17
 70
     1
102
RTVSPropertyOp18
 70
     1
102
RTVSPropertyOp19
 70
     1
102
RTVSPropertyOp20
 70
     1
102
RTVSPropertyOp21
 70
     1
102
RTVSPropertyOp22
 70
     1
102
RTVSPropertyOp23
 70
     1
102
RTVSPropertyOp24
 70
     1
102
RTVSPropertyOp25
 70
     1
102
RTVSPropertyOp26
 70
     1
102
RTVSPropertyOp27
 70
     1
102
RTVSPropertyOp28
 70
     1
102
RTVSPropertyOp29
 70
     1
102
RTVSPropertyOp30
 70
     1
102
RTVSPropertyOp31
 70
     1
102
RTVSPropertyOp32
 70
     1
  0
XRECORD
  5
D3D
102
{ACAD_REACTORS
330
D3C
102
}
330
D3C
100
AcDbXrecord
280
     1
102
RTVSPropertyOp0
 70
     1
102
RTVSPropertyOp1
 70
     1
102
RTVSPropertyOp2
 70
     1
102
RTVSPropertyOp3
 70
     1
102
RTVSPropertyOp4
 70
     1
102
RTVSPropertyOp5
 70
     1
102
RTVSPropertyOp6
 70
     1
102
RTVSPropertyOp7
 70
     1
102
RTVSPropertyOp8
 70
     1
102
RTVSPropertyOp9
 70
     1
102
RTVSPropertyOp10
 70
     1
102
RTVSPropertyOp11
 70
     1
102
RTVSPropertyOp12
 70
     1
102
RTVSPropertyOp13
 70
     1
102
RTVSPropertyOp14
 70
     1
102
RTVSPropertyOp15
 70
     1
102
RTVSPropertyOp16
 70
     1
102
RTVSPropertyOp17
 70
     1
102
RTVSPropertyOp18
 70
     1
102
RTVSPropertyOp19
 70
     1
102
RTVSPropertyOp20
 70
     1
102
RTVSPropertyOp21
 70
     1
102
RTVSPropertyOp22
 70
     1
102
RTVSPropertyOp23
 70
     1
102
RTVSPropertyOp24
 70
     1
102
RTVSPropertyOp25
 70
     1
102
RTVSPropertyOp26
 70
     1
102
RTVSPropertyOp27
 70
     1
102
RTVSPropertyOp28
 70
     1
102
RTVSPropertyOp29
 70
     1
102
RTVSPropertyOp30
 70
     1
102
RTVSPropertyOp31
 70
     1
102
RTVSPropertyOp32
 70
     1
  0
XRECORD
  5
D45
102
{ACAD_REACTORS
330
D44
102
}
330
D44
100
AcDbXrecord
280
     1
102
RTVSPropertyOp0
 70
     1
102
RTVSPropertyOp1
 70
     1
102
RTVSPropertyOp2
 70
     1
102
RTVSPropertyOp3
 70
     1
102
RTVSPropertyOp4
 70
     1
102
RTVSPropertyOp5
 70
     1
102
RTVSPropertyOp6
 70
     1
102
RTVSPropertyOp7
 70
     1
102
RTVSPropertyOp8
 70
     1
102
RTVSPropertyOp9
 70
     1
102
RTVSPropertyOp10
 70
     1
102
RTVSPropertyOp11
 70
     1
102
RTVSPropertyOp12
 70
     1
102
RTVSPropertyOp13
 70
     1
102
RTVSPropertyOp14
 70
     1
102
RTVSPropertyOp15
 70
     1
102
RTVSPropertyOp16
 70
     1
102
RTVSPropertyOp17
 70
     1
102
RTVSPropertyOp18
 70
     1
102
RTVSPropertyOp19
 70
     1
102
RTVSPropertyOp20
 70
     1
102
RTVSPropertyOp21
 70
     1
102
RTVSPropertyOp22
 70
     1
102
RTVSPropertyOp23
 70
     1
102
RTVSPropertyOp24
 70
     1
102
RTVSPropertyOp25
 70
     1
102
RTVSPropertyOp26
 70
     1
102
RTVSPropertyOp27
 70
     1
102
RTVSPropertyOp28
 70
     1
102
RTVSPropertyOp29
 70
     1
102
RTVSPropertyOp30
 70
     1
102
RTVSPropertyOp31
 70
     1
102
RTVSPropertyOp32
 70
     1
  0
ENDSEC
  0
EOF
