  0
SECTION
  2
HEADER
  9
$ACADVER
  1
AC1015
  9
$ACADMAINTVER
 70
    20
  9
$DWGCODEPAGE
  3
ANSI_932
  9
$INSBASE
 10
0.0
 20
0.0
 30
0.0
  9
$EXTMIN
 10
-441.0829853387368
 20
-383.7885569535418
 30
0.0
  9
$EXTMAX
 10
-164.0829853387369
 20
-195.3159396535417
 30
0.0
  9
$LIMMIN
 10
-131.901101
 20
-379.480492
  9
$LIMMAX
 10
145.110314
 20
-191.005882
  9
$ORTHOMODE
 70
     0
  9
$REGENMODE
 70
     1
  9
$FILLMODE
 70
     1
  9
$QTEXTMODE
 70
     0
  9
$MIRRTEXT
 70
     0
  9
$LTSCALE
 40
4.616823999999998
  9
$ATTMODE
 70
     1
  9
$TEXTSIZE
 40
3.2
  9
$TRACEWID
 40
0.05
  9
$TEXTSTYLE
  7
高3.2
  9
$CLAYER
  8
0
  9
$CELTYPE
  6
CONTINUOUS
  9
$CECOLOR
 62
   256
  9
$CELTSCALE
 40
1.0
  9
$DISPSILH
 70
     0
  9
$DIMSCALE
 40
1.0
  9
$DIMASZ
 40
2.5
  9
$DIMEXO
 40
0.25
  9
$DIMDLI
 40
0.2
  9
$DIMRND
 40
0.0
  9
$DIMDLE
 40
0.0
  9
$DIMEXE
 40
1.25
  9
$DIMTP
 40
0.0
  9
$DIMTM
 40
0.0
  9
$DIMTXT
 40
3.0
  9
$DIMCEN
 40
0.0
  9
$DIMTSZ
 40
0.0
  9
$DIMTOL
 70
     0
  9
$DIMLIM
 70
     0
  9
$DIMTIH
 70
     0
  9
$DIMTOH
 70
     0
  9
$DIMSE1
 70
     0
  9
$DIMSE2
 70
     0
  9
$DIMTAD
 70
     3
  9
$DIMZIN
 70
     8
  9
$DIMBLK
  1
Open30
  9
$DIMASO
 70
     1
  9
$DIMSHO
 70
     1
  9
$DIMPOST
  1

  9
$DIMAPOST
  1

  9
$DIMALT
 70
     0
  9
$DIMALTD
 70
     3
  9
$DIMALTF
 40
0.03937007874016
  9
$DIMLFAC
 40
1.0
  9
$DIMTOFL
 70
     1
  9
$DIMTVP
 40
0.0
  9
$DIMTIX
 70
     0
  9
$DIMSOXD
 70
     0
  9
$DIMSAH
 70
     0
  9
$DIMBLK1
  1

  9
$DIMBLK2
  1

  9
$DIMSTYLE
  2
1：1
  9
$DIMCLRD
 70
     0
  9
$DIMCLRE
 70
     0
  9
$DIMCLRT
 70
     4
  9
$DIMTFAC
 40
1.0
  9
$DIMGAP
 40
0.625
  9
$DIMJUST
 70
     0
  9
$DIMSD1
 70
     0
  9
$DIMSD2
 70
     0
  9
$DIMTOLJ
 70
     0
  9
$DIMTZIN
 70
     8
  9
$DIMALTZ
 70
     0
  9
$DIMALTTZ
 70
     0
  9
$DIMUPT
 70
     1
  9
$DIMDEC
 70
     2
  9
$DIMTDEC
 70
     2
  9
$DIMALTU
 70
     2
  9
$DIMALTTD
 70
     3
  9
$DIMTXSTY
  7
STANDARD
  9
$DIMAUNIT
 70
     0
  9
$DIMADEC
 70
     1
  9
$DIMALTRND
 40
0.0
  9
$DIMAZIN
 70
     2
  9
$DIMDSEP
 70
    46
  9
$DIMATFIT
 70
     0
  9
$DIMFRAC
 70
     0
  9
$DIMLDRBLK
  1
Open30
  9
$DIMLUNIT
 70
     2
  9
$DIMLWD
 70
    -2
  9
$DIMLWE
 70
    -2
  9
$DIMTMOVE
 70
     0
  9
$LUNITS
 70
     2
  9
$LUPREC
 70
     4
  9
$SKETCHINC
 40
0.1
  9
$FILLETRAD
 40
0.0
  9
$AUNITS
 70
     0
  9
$AUPREC
 70
     0
  9
$MENU
  1
.
  9
$ELEVATION
 40
0.0
  9
$PELEVATION
 40
0.0
  9
$THICKNESS
 40
0.0
  9
$LIMCHECK
 70
     0
  9
$CHAMFERA
 40
0.0
  9
$CHAMFERB
 40
0.0
  9
$CHAMFERC
 40
0.0
  9
$CHAMFERD
 40
0.0
  9
$SKPOLY
 70
     0
  9
$TDCREATE
 40
2457240.420952836
  9
$TDUCREATE
 40
2457240.045952836
  9
$TDUPDATE
 40
2457240.471606829
  9
$TDUUPDATE
 40
2457240.096606829
  9
$TDINDWG
 40
0.0066922569
  9
$TDUSRTIMER
 40
0.0066920718
  9
$USRTIMER
 70
     1
  9
$ANGBASE
 50
0.0
  9
$ANGDIR
 70
     0
  9
$PDMODE
 70
     0
  9
$PDSIZE
 40
0.0
  9
$PLINEWID
 40
0.0
  9
$SPLFRAME
 70
     0
  9
$SPLINETYPE
 70
     6
  9
$SPLINESEGS
 70
     8
  9
$HANDSEED
  5
C56
  9
$SURFTAB1
 70
     6
  9
$SURFTAB2
 70
     6
  9
$SURFTYPE
 70
     6
  9
$SURFU
 70
     6
  9
$SURFV
 70
     6
  9
$UCSBASE
  2

  9
$UCSNAME
  2

  9
$UCSORG
 10
0.0
 20
0.0
 30
0.0
  9
$UCSXDIR
 10
1.0
 20
0.0
 30
0.0
  9
$UCSYDIR
 10
0.0
 20
1.0
 30
0.0
  9
$UCSORTHOREF
  2

  9
$UCSORTHOVIEW
 70
     0
  9
$UCSORGTOP
 10
0.0
 20
0.0
 30
0.0
  9
$UCSORGBOTTOM
 10
0.0
 20
0.0
 30
0.0
  9
$UCSORGLEFT
 10
0.0
 20
0.0
 30
0.0
  9
$UCSORGRIGHT
 10
0.0
 20
0.0
 30
0.0
  9
$UCSORGFRONT
 10
0.0
 20
0.0
 30
0.0
  9
$UCSORGBACK
 10
0.0
 20
0.0
 30
0.0
  9
$PUCSBASE
  2

  9
$PUCSNAME
  2

  9
$PUCSORG
 10
0.0
 20
0.0
 30
0.0
  9
$PUCSXDIR
 10
1.0
 20
0.0
 30
0.0
  9
$PUCSYDIR
 10
0.0
 20
1.0
 30
0.0
  9
$PUCSORTHOREF
  2

  9
$PUCSORTHOVIEW
 70
     0
  9
$PUCSORGTOP
 10
0.0
 20
0.0
 30
0.0
  9
$PUCSORGBOTTOM
 10
0.0
 20
0.0
 30
0.0
  9
$PUCSORGLEFT
 10
0.0
 20
0.0
 30
0.0
  9
$PUCSORGRIGHT
 10
0.0
 20
0.0
 30
0.0
  9
$PUCSORGFRONT
 10
0.0
 20
0.0
 30
0.0
  9
$PUCSORGBACK
 10
0.0
 20
0.0
 30
0.0
  9
$USERI1
 70
     0
  9
$USERI2
 70
     0
  9
$USERI3
 70
     0
  9
$USERI4
 70
     0
  9
$USERI5
 70
     0
  9
$USERR1
 40
0.0
  9
$USERR2
 40
0.0
  9
$USERR3
 40
0.0
  9
$USERR4
 40
0.0
  9
$USERR5
 40
0.0
  9
$WORLDVIEW
 70
     1
  9
$SHADEDGE
 70
     3
  9
$SHADEDIF
 70
    70
  9
$TILEMODE
 70
     1
  9
$MAXACTVP
 70
    64
  9
$PINSBASE
 10
0.0
 20
0.0
 30
0.0
  9
$PLIMCHECK
 70
     0
  9
$PEXTMIN
 10
1.000000000000000E+20
 20
1.000000000000000E+20
 30
1.000000000000000E+20
  9
$PEXTMAX
 10
-1.000000000000000E+20
 20
-1.000000000000000E+20
 30
-1.000000000000000E+20
  9
$PLIMMIN
 10
0.0
 20
0.0
  9
$PLIMMAX
 10
12.0
 20
9.0
  9
$UNITMODE
 70
     0
  9
$VISRETAIN
 70
     1
  9
$PLINEGEN
 70
     0
  9
$PSLTSCALE
 70
     1
  9
$TREEDEPTH
 70
  3020
  9
$CMLSTYLE
  2
Standard
  9
$CMLJUST
 70
     0
  9
$CMLSCALE
 40
1.0
  9
$PROXYGRAPHICS
 70
     1
  9
$MEASUREMENT
 70
     0
  9
$CELWEIGHT
370
    -1
  9
$ENDCAPS
280
     0
  9
$JOINSTYLE
280
     0
  9
$LWDISPLAY
290
     0
  9
$INSUNITS
 70
     0
  9
$HYPERLINKBASE
  1

  9
$STYLESHEET
  1

  9
$XEDIT
290
     1
  9
$CEPSNTYPE
380
     0
  9
$PSTYLEMODE
290
     1
  9
$FINGERPRINTGUID
  2
{D131C541-9211-4F38-B47C-2A680001EB03}
  9
$VERSIONGUID
  2
{C8A400A5-EB39-4DC6-A5EB-57A07E24D403}
  9
$EXTNAMES
290
     1
  9
$PSVPSCALE
 40
0.0
  9
$OLESTARTUP
290
     0
  0
ENDSEC
  0
SECTION
  2
CLASSES
  0
CLASS
  1
ACDBDICTIONARYWDFLT
  2
AcDbDictionaryWithDefault
  3
ObjectDBX Classes
 90
        0
280
     0
281
     0
  0
CLASS
  1
MATERIAL
  2
AcDbMaterial
  3
ObjectDBX Classes
 90
     1153
280
     0
281
     0
  0
CLASS
  1
VISUALSTYLE
  2
AcDbVisualStyle
  3
ObjectDBX Classes
 90
     4095
280
     0
281
     0
  0
CLASS
  1
SCALE
  2
AcDbScale
  3
ObjectDBX Classes
 90
     1153
280
     0
281
     0
  0
CLASS
  1
TABLESTYLE
  2
AcDbTableStyle
  3
ObjectDBX Classes
 90
     4095
280
     0
281
     0
  0
CLASS
  1
MLEADERSTYLE
  2
AcDbMLeaderStyle
  3
ACDB_MLEADERSTYLE_CLASS
 90
     4095
280
     0
281
     0
  0
CLASS
  1
SORTENTSTABLE
  2
AcDbSortentsTable
  3
ObjectDBX Classes
 90
        0
280
     0
281
     0
  0
CLASS
  1
AEC_REFEDIT_STATUS_TRACKER
  2
AecDbRefEditStatusTracker
  3
AecArchBase60|Product Desc: Autodesk Architectural Desktop 2007 |Company: Autodesk,Inc. |WEB Address: www.autodesk.com
 90
      129
280
     0
281
     0
  0
CLASS
  1
NPOCOLLECTION
  2
AcDbImpNonPersistentObjectsCollection
  3
ObjectDBX Classes
 90
     1153
280
     0
281
     0
  0
CLASS
  1
DICTIONARYVAR
  2
AcDbDictionaryVar
  3
ObjectDBX Classes
 90
        0
280
     0
281
     0
  0
CLASS
  1
CELLSTYLEMAP
  2
AcDbCellStyleMap
  3
ObjectDBX Classes
 90
     1152
280
     0
281
     0
  0
CLASS
  1
ACDBPLACEHOLDER
  2
AcDbPlaceHolder
  3
ObjectDBX Classes
 90
        0
280
     0
281
     0
  0
CLASS
  1
LAYOUT
  2
AcDbLayout
  3
ObjectDBX Classes
 90
        0
280
     0
281
     0
  0
ENDSEC
  0
SECTION
  2
TABLES
  0
TABLE
  2
VPORT
  5
8
330
0
100
AcDbSymbolTable
 70
     1
  0
VPORT
  5
8B
330
8
100
AcDbSymbolTableRecord
100
AcDbViewportTableRecord
  2
*Active
 70
     0
 10
0.0
 20
0.0
 11
1.0
 21
1.0
 12
-107.5547089139513
 22
-334.6630755505498
 13
0.0
 23
0.0
 14
1.0
 24
1.0
 15
0.0
 25
0.0
 16
0.0
 26
0.0
 36
1.0
 17
0.0
 27
0.0
 37
0.0
 40
541.2808797885368
 41
1.669642857142857
 42
50.0
 43
0.0
 44
0.0
 50
0.0
 51
0.0
 71
     0
 72
   100
 73
     1
 74
     1
 75
     0
 76
     0
 77
     0
 78
     0
281
     0
 65
     1
110
0.0
120
0.0
130
0.0
111
1.0
121
0.0
131
0.0
112
0.0
122
1.0
132
0.0
 79
     0
146
0.0
  0
ENDTAB
  0
TABLE
  2
LTYPE
  5
5
330
0
100
AcDbSymbolTable
 70
     1
  0
LTYPE
  5
5A
330
5
100
AcDbSymbolTableRecord
100
AcDbLinetypeTableRecord
  2
ByBlock
 70
     0
  3

 72
    65
 73
     0
 40
0.0
  0
LTYPE
  5
5B
330
5
100
AcDbSymbolTableRecord
100
AcDbLinetypeTableRecord
  2
ByLayer
 70
     0
  3

 72
    65
 73
     0
 40
0.0
  0
LTYPE
  5
5C
330
5
100
AcDbSymbolTableRecord
100
AcDbLinetypeTableRecord
  2
CONTINUOUS
 70
     0
  3
Solid-line
 72
    65
 73
     0
 40
0.0
  0
ENDTAB
  0
TABLE
  2
LAYER
  5
2
102
{ACAD_XDICTIONARY
360
4BB
102
}
330
0
100
AcDbSymbolTable
 70
     2
  0
LAYER
  5
54
102
{ACAD_XDICTIONARY
360
AC4
102
}
330
2
100
AcDbSymbolTableRecord
100
AcDbLayerTableRecord
  2
0
 70
     0
 62
     7
  6
CONTINUOUS
370
    -3
390
F
  0
LAYER
  5
4B3
330
2
100
AcDbSymbolTableRecord
100
AcDbLayerTableRecord
  2
Defpoints
 70
     0
 62
     7
  6
CONTINUOUS
290
     0
370
    -3
390
F
  0
ENDTAB
  0
TABLE
  2
STYLE
  5
3
330
0
100
AcDbSymbolTable
 70
     6
  0
STYLE
  5
55
330
3
100
AcDbSymbolTableRecord
100
AcDbTextStyleTableRecord
  2
STANDARD
 70
     0
 40
0.0
 41
1.0
 50
0.0
 71
     0
 42
0.2
  3
TXT
  4
BIGFONT
  0
STYLE
  5
4B4
330
3
100
AcDbSymbolTableRecord
100
AcDbTextStyleTableRecord
  2
高3.2
 70
     0
 40
3.2
 41
1.0
 50
0.0
 71
     0
 42
3.2
  3
txt.shx
  4
bigfont.shx
  0
STYLE
  5
4B5
330
3
100
AcDbSymbolTableRecord
100
AcDbTextStyleTableRecord
  2
高6.3
 70
     0
 40
6.299999999999998
 41
1.0
 50
0.0
 71
     0
 42
6.299999999999998
  3
txt.shx
  4
bigfont.shx
  0
STYLE
  5
4B6
330
3
100
AcDbSymbolTableRecord
100
AcDbTextStyleTableRecord
  2
高2.5
 70
     0
 40
2.5
 41
1.0
 50
0.0
 71
     0
 42
0.2
  3
txt.shx
  4
bigfont.shx
  0
STYLE
  5
4B7
330
3
100
AcDbSymbolTableRecord
100
AcDbTextStyleTableRecord
  2
高4.5
 70
     0
 40
4.5
 41
1.0
 50
0.0
 71
     0
 42
6.299999999999998
  3
txt.shx
  4
bigfont.shx
  0
STYLE
  5
4B8
330
3
100
AcDbSymbolTableRecord
100
AcDbTextStyleTableRecord
  2
高2
 70
     0
 40
2.0
 41
1.0
 50
0.0
 71
     0
 42
6.299999999999998
  3
txt.shx
  4
bigfont.shx
  0
ENDTAB
  0
TABLE
  2
VIEW
  5
6
330
0
100
AcDbSymbolTable
 70
     0
  0
ENDTAB
  0
TABLE
  2
UCS
  5
7
330
0
100
AcDbSymbolTable
 70
     0
  0
ENDTAB
  0
TABLE
  2
APPID
  5
9
330
0
100
AcDbSymbolTable
 70
     7
  0
APPID
  5
56
330
9
100
AcDbSymbolTableRecord
100
AcDbRegAppTableRecord
  2
ACAD
 70
     0
  0
APPID
  5
5D
330
9
100
AcDbSymbolTableRecord
100
AcDbRegAppTableRecord
  2
AcadAnnotative
 70
     0
  0
APPID
  5
4BA
330
9
100
AcDbSymbolTableRecord
100
AcDbRegAppTableRecord
  2
ACAD_DSTYLE_DIMJOGGED_JOGANGLE_SYMBOL
 70
     0
  0
APPID
  5
AC2
330
9
100
AcDbSymbolTableRecord
100
AcDbRegAppTableRecord
  2
ACAD_EXEMPT_FROM_CAD_STANDARDS
 70
     0
  0
APPID
  5
B0A
330
9
100
AcDbSymbolTableRecord
100
AcDbRegAppTableRecord
  2
ACAD_MLEADERVER
 70
     0
  0
APPID
  5
B0F
330
9
100
AcDbSymbolTableRecord
100
AcDbRegAppTableRecord
  2
ACAD_DSTYLE_DIMARC_LENGTH_SYMBOL
 70
     0
  0
APPID
  5
B10
330
9
100
AcDbSymbolTableRecord
100
AcDbRegAppTableRecord
  2
ACAD_DSTYLE_DIMEXT_LENGTH
 70
     0
  0
ENDTAB
  0
TABLE
  2
DIMSTYLE
  5
A
330
0
100
AcDbSymbolTable
 70
     2
100
AcDbDimStyleTable
 71
     0
  0
DIMSTYLE
105
57
330
A
100
AcDbSymbolTableRecord
100
AcDbDimStyleTableRecord
  2
Standard
 70
     0
340
55
  0
DIMSTYLE
105
4B9
330
A
100
AcDbSymbolTableRecord
100
AcDbDimStyleTableRecord
  2
1：1
 70
     0
 41
2.5
 42
0.25
 43
0.2
 44
1.25
 73
     0
 74
     0
 77
     3
 78
     8
 79
     2
140
3.0
141
0.0
143
0.03937007874016
147
0.625
171
     3
172
     1
178
     4
179
     1
271
     2
272
     2
274
     3
283
     0
284
     8
288
     1
289
     0
340
55
341
465
342
465
1001
ACAD_DSTYLE_DIMARC_LENGTH_SYMBOL
1070
   379
1070
     2
1001
ACAD_DSTYLE_DIMEXT_LENGTH
1070
   378
1040
1.25
1001
ACAD_DSTYLE_DIMJOGGED_JOGANGLE_SYMBOL
1070
   384
1040
1.570796326794896
  0
ENDTAB
  0
TABLE
  2
BLOCK_RECORD
  5
1
330
0
100
AcDbSymbolTable
 70
     7
  0
BLOCK_RECORD
  5
6B
102
{ACAD_XDICTIONARY
360
B86
102
}
330
1
100
AcDbSymbolTableRecord
100
AcDbBlockTableRecord
  2
*Model_Space
340
6E
  0
BLOCK_RECORD
  5
67
330
1
100
AcDbSymbolTableRecord
100
AcDbBlockTableRecord
  2
*Paper_Space
340
6A
  0
BLOCK_RECORD
  5
465
330
1
100
AcDbSymbolTableRecord
100
AcDbBlockTableRecord
  2
_Open30
340
0
102
{BLKREFS
331
B4E
331
B4F
331
B57
331
B58
331
B60
331
B61
331
B69
331
B6A
331
B72
331
B73
331
B7B
331
B7C
102
}
  0
BLOCK_RECORD
  5
A44
330
1
100
AcDbSymbolTableRecord
100
AcDbBlockTableRecord
  2
*D1
340
0
  0
BLOCK_RECORD
  5
A50
330
1
100
AcDbSymbolTableRecord
100
AcDbBlockTableRecord
  2
*D2
340
0
  0
BLOCK_RECORD
  5
A5C
330
1
100
AcDbSymbolTableRecord
100
AcDbBlockTableRecord
  2
*D3
340
0
  0
BLOCK_RECORD
  5
A68
330
1
100
AcDbSymbolTableRecord
100
AcDbBlockTableRecord
  2
*D4
340
0
  0
BLOCK_RECORD
  5
A74
330
1
100
AcDbSymbolTableRecord
100
AcDbBlockTableRecord
  2
*D5
340
0
  0
BLOCK_RECORD
  5
A80
330
1
100
AcDbSymbolTableRecord
100
AcDbBlockTableRecord
  2
*D6
340
0
  0
ENDTAB
  0
ENDSEC
  0
SECTION
  2
BLOCKS
  0
BLOCK
  5
6C
330
6B
100
AcDbEntity
  8
0
100
AcDbBlockBegin
  2
*Model_Space
 70
     0
 10
0.0
 20
0.0
 30
0.0
  3
*Model_Space
  1

  0
ENDBLK
  5
6D
330
6B
100
AcDbEntity
  8
0
100
AcDbBlockEnd
  0
BLOCK
  5
68
330
67
100
AcDbEntity
 67
     1
  8
0
100
AcDbBlockBegin
  2
*Paper_Space
 70
     0
 10
0.0
 20
0.0
 30
0.0
  3
*Paper_Space
  1

  0
ENDBLK
  5
69
330
67
100
AcDbEntity
 67
     1
  8
0
100
AcDbBlockEnd
  0
BLOCK
  5
466
330
465
100
AcDbEntity
  8
0
100
AcDbBlockBegin
  2
_Open30
 70
     0
 10
0.0
 20
0.0
 30
0.0
  3
_Open30
  1

  0
LINE
  5
467
330
465
100
AcDbEntity
  8
0
  6
ByBlock
 62
     0
370
    -2
100
AcDbLine
 10
-1.0
 20
0.267949
 30
0.0
 11
0.0
 21
0.0
 31
0.0
  0
LINE
  5
468
330
465
100
AcDbEntity
  8
0
  6
ByBlock
 62
     0
370
    -2
100
AcDbLine
 10
0.0
 20
0.0
 30
0.0
 11
-1.0
 21
-0.267949
 31
0.0
  0
LINE
  5
469
330
465
100
AcDbEntity
  8
0
  6
ByBlock
 62
     0
370
    -2
100
AcDbLine
 10
0.0
 20
0.0
 30
0.0
 11
-1.0
 21
0.0
 31
0.0
  0
ENDBLK
  5
46A
330
465
100
AcDbEntity
  8
0
100
AcDbBlockEnd
  0
BLOCK
  5
A45
330
A44
100
AcDbEntity
  8
0
100
AcDbBlockBegin
  2
*D1
 70
     1
 10
0.0
 20
0.0
 30
0.0
  3
*D1
  1

  0
LINE
  5
B4B
330
A44
100
AcDbEntity
  8
0
  6
Continuous
 62
     0
370
    -2
100
AcDbLine
 10
-378.7636158847872
 20
-240.3343367081642
 30
0.0
 11
-407.056896509019
 21
-240.3343367081642
 31
0.0
  0
LINE
  5
B4C
330
A44
100
AcDbEntity
  8
0
  6
Continuous
 62
     0
370
    -2
100
AcDbLine
 10
-378.7636158847872
 20
-311.3343367081642
 30
0.0
 11
-407.056896509019
 21
-311.3343367081641
 31
0.0
  0
LINE
  5
B4D
330
A44
100
AcDbEntity
  8
0
  6
Continuous
 62
     0
370
    -2
100
AcDbLine
 10
-405.806896509019
 20
-242.8343367081642
 30
0.0
 11
-405.806896509019
 21
-308.8343367081642
 31
0.0
  0
INSERT
  5
B4E
330
A44
100
AcDbEntity
  8
0
  6
Continuous
 62
     0
370
    -2
100
AcDbBlockReference
  2
_Open30
 10
-405.806896509019
 20
-240.3343367081642
 30
0.0
 41
2.5
 42
2.5
 43
2.5
 50
90.0
  0
INSERT
  5
B4F
330
A44
100
AcDbEntity
  8
0
  6
Continuous
 62
     0
370
    -2
100
AcDbBlockReference
  2
_Open30
 10
-405.806896509019
 20
-311.3343367081641
 30
0.0
 41
2.5
 42
2.5
 43
2.5
 50
270.0
  0
MTEXT
  5
B50
330
A44
100
AcDbEntity
  8
0
  6
Continuous
 62
     4
100
AcDbMText
 10
-407.9318965090189
 20
-278.036960665622
 30
0.0
 40
3.0
 41
0.0
 71
     5
 72
     1
  1
71
 11
0.0000000000000001
 21
1.0
 31
0.0
 73
     1
 44
1.0
1001
ACAD
1000
MTEXTBEGIN
1070
    73
1070
     1
1070
    44
1040
1.0
1070
    74
1070
     0
1000
MTEXTEND
  0
POINT
  5
B51
330
A44
100
AcDbEntity
  8
Defpoints
  6
Continuous
 62
     0
100
AcDbPoint
 10
-378.5136158847872
 20
-240.3343367081642
 30
0.0
  0
POINT
  5
B52
330
A44
100
AcDbEntity
  8
Defpoints
  6
Continuous
 62
     0
100
AcDbPoint
 10
-378.5136158847872
 20
-311.3343367081642
 30
0.0
  0
POINT
  5
B53
330
A44
100
AcDbEntity
  8
Defpoints
  6
Continuous
 62
     0
100
AcDbPoint
 10
-405.806896509019
 20
-311.3343367081641
 30
0.0
  0
ENDBLK
  5
A46
330
A44
100
AcDbEntity
  8
0
100
AcDbBlockEnd
  0
BLOCK
  5
A51
330
A50
100
AcDbEntity
  8
0
100
AcDbBlockBegin
  2
*D2
 70
     1
 10
0.0
 20
0.0
 30
0.0
  3
*D2
  1

  0
LINE
  5
B54
330
A50
100
AcDbEntity
  8
0
  6
Continuous
 62
     0
370
    -2
100
AcDbLine
 10
-316.3093531252901
 20
-242.7056584161281
 30
0.0
 11
-316.3093531252901
 21
-228.0500402978837
 31
0.0
  0
LINE
  5
B55
330
A50
100
AcDbEntity
  8
0
  6
Continuous
 62
     0
370
    -2
100
AcDbLine
 10
-293.8093531029384
 20
-250.2843367081643
 30
0.0
 11
-293.8093531029384
 21
-228.0500402978837
 31
0.0
  0
LINE
  5
B56
330
A50
100
AcDbEntity
  8
0
  6
Continuous
 62
     0
370
    -2
100
AcDbLine
 10
-313.8093531252901
 20
-229.3000402978837
 30
0.0
 11
-296.3093531029384
 21
-229.3000402978837
 31
0.0
  0
INSERT
  5
B57
330
A50
100
AcDbEntity
  8
0
  6
Continuous
 62
     0
370
    -2
100
AcDbBlockReference
  2
_Open30
 10
-316.3093531252901
 20
-229.3000402978837
 30
0.0
 41
2.5
 42
2.5
 43
2.5
 50
180.0
  0
INSERT
  5
B58
330
A50
100
AcDbEntity
  8
0
  6
Continuous
 62
     0
370
    -2
100
AcDbBlockReference
  2
_Open30
 10
-293.8093531029384
 20
-229.3000402978837
 30
0.0
 41
2.5
 42
2.5
 43
2.5
  0
MTEXT
  5
B59
330
A50
100
AcDbEntity
  8
0
  6
Continuous
 62
     4
100
AcDbMText
 10
-304.3380186947469
 20
-227.1750402978837
 30
0.0
 40
3.0
 41
0.0
 71
     5
 72
     1
  1
22.5
 73
     1
 44
1.0
1001
ACAD
1000
MTEXTBEGIN
1070
    73
1070
     1
1070
    44
1040
1.0
1070
    74
1070
     0
1000
MTEXTEND
  0
POINT
  5
B5A
330
A50
100
AcDbEntity
  8
Defpoints
  6
Continuous
 62
     0
100
AcDbPoint
 10
-316.3093531252901
 20
-242.9556584161281
 30
0.0
  0
POINT
  5
B5B
330
A50
100
AcDbEntity
  8
Defpoints
  6
Continuous
 62
     0
100
AcDbPoint
 10
-293.8093531029384
 20
-250.5343367081643
 30
0.0
  0
POINT
  5
B5C
330
A50
100
AcDbEntity
  8
Defpoints
  6
Continuous
 62
     0
100
AcDbPoint
 10
-293.8093531029384
 20
-229.3000402978837
 30
0.0
  0
ENDBLK
  5
A52
330
A50
100
AcDbEntity
  8
0
100
AcDbBlockEnd
  0
BLOCK
  5
A5D
330
A5C
100
AcDbEntity
  8
0
100
AcDbBlockBegin
  2
*D3
 70
     1
 10
0.0
 20
0.0
 30
0.0
  3
*D3
  1

  0
LINE
  5
B5D
330
A5C
100
AcDbEntity
  8
0
  6
Continuous
 62
     0
370
    -2
100
AcDbLine
 10
-311.3093532370488
 20
-240.0843355458737
 30
0.0
 11
-311.3093532370488
 21
-233.4801385456669
 31
0.0
  0
LINE
  5
B5E
330
A5C
100
AcDbEntity
  8
0
  6
Continuous
 62
     0
370
    -2
100
AcDbLine
 10
-293.8093531029384
 20
-250.2843367081643
 30
0.0
 11
-293.8093531029384
 21
-233.4801385456669
 31
0.0
  0
LINE
  5
B5F
330
A5C
100
AcDbEntity
  8
0
  6
Continuous
 62
     0
370
    -2
100
AcDbLine
 10
-308.8093532370488
 20
-234.7301385456669
 30
0.0
 11
-296.3093531029384
 21
-234.7301385456669
 31
0.0
  0
INSERT
  5
B60
330
A5C
100
AcDbEntity
  8
0
  6
Continuous
 62
     0
370
    -2
100
AcDbBlockReference
  2
_Open30
 10
-311.3093532370488
 20
-234.7301385456669
 30
0.0
 41
2.5
 42
2.5
 43
2.5
 50
180.0
  0
INSERT
  5
B61
330
A5C
100
AcDbEntity
  8
0
  6
Continuous
 62
     0
370
    -2
100
AcDbBlockReference
  2
_Open30
 10
-293.8093531029384
 20
-234.7301385456669
 30
0.0
 41
2.5
 42
2.5
 43
2.5
  0
MTEXT
  5
B62
330
A5C
100
AcDbEntity
  8
0
  6
Continuous
 62
     4
100
AcDbMText
 10
-302.8353903790782
 20
-232.6051385456669
 30
0.0
 40
3.0
 41
0.0
 71
     5
 72
     1
  1
17.5
 73
     1
 44
1.0
1001
ACAD
1000
MTEXTBEGIN
1070
    73
1070
     1
1070
    44
1040
1.0
1070
    74
1070
     0
1000
MTEXTEND
  0
POINT
  5
B63
330
A5C
100
AcDbEntity
  8
Defpoints
  6
Continuous
 62
     0
100
AcDbPoint
 10
-311.3093532370488
 20
-240.3343355458737
 30
0.0
  0
POINT
  5
B64
330
A5C
100
AcDbEntity
  8
Defpoints
  6
Continuous
 62
     0
100
AcDbPoint
 10
-293.8093531029384
 20
-250.5343367081643
 30
0.0
  0
POINT
  5
B65
330
A5C
100
AcDbEntity
  8
Defpoints
  6
Continuous
 62
     0
100
AcDbPoint
 10
-293.8093531029384
 20
-234.7301385456669
 30
0.0
  0
ENDBLK
  5
A5E
330
A5C
100
AcDbEntity
  8
0
100
AcDbBlockEnd
  0
BLOCK
  5
A69
330
A68
100
AcDbEntity
  8
0
100
AcDbBlockBegin
  2
*D4
 70
     1
 10
0.0
 20
0.0
 30
0.0
  3
*D4
  1

  0
LINE
  5
B66
330
A68
100
AcDbEntity
  8
0
  6
Continuous
 62
     0
370
    -2
100
AcDbLine
 10
-395.3136152857605
 20
-249.8466897409916
 30
0.0
 11
-395.3136152857605
 21
-229.6484452348337
 31
0.0
  0
LINE
  5
B67
330
A68
100
AcDbEntity
  8
0
  6
Continuous
 62
     0
370
    -2
100
AcDbLine
 10
-361.7136164838139
 20
-249.8466897409916
 30
0.0
 11
-361.7136164838139
 21
-229.6484452348337
 31
0.0
  0
LINE
  5
B68
330
A68
100
AcDbEntity
  8
0
  6
Continuous
 62
     0
370
    -2
100
AcDbLine
 10
-392.8136152857605
 20
-230.8984452348337
 30
0.0
 11
-364.2136164838138
 21
-230.8984452348337
 31
0.0
  0
INSERT
  5
B69
330
A68
100
AcDbEntity
  8
0
  6
Continuous
 62
     0
370
    -2
100
AcDbBlockReference
  2
_Open30
 10
-395.3136152857605
 20
-230.8984452348337
 30
0.0
 41
2.5
 42
2.5
 43
2.5
 50
180.0
  0
INSERT
  5
B6A
330
A68
100
AcDbEntity
  8
0
  6
Continuous
 62
     0
370
    -2
100
AcDbBlockReference
  2
_Open30
 10
-361.7136164838139
 20
-230.8984452348337
 30
0.0
 41
2.5
 42
2.5
 43
2.5
  0
MTEXT
  5
B6B
330
A68
100
AcDbEntity
  8
0
  6
Continuous
 62
     4
100
AcDbMText
 10
-378.3500714664312
 20
-228.7734452348337
 30
0.0
 40
3.0
 41
0.0
 71
     5
 72
     1
  1
33.6
 73
     1
 44
1.0
1001
ACAD
1000
MTEXTBEGIN
1070
    73
1070
     1
1070
    44
1040
1.0
1070
    74
1070
     0
1000
MTEXTEND
  0
POINT
  5
B6C
330
A68
100
AcDbEntity
  8
Defpoints
  6
Continuous
 62
     0
100
AcDbPoint
 10
-395.3136152857605
 20
-250.0966897409916
 30
0.0
  0
POINT
  5
B6D
330
A68
100
AcDbEntity
  8
Defpoints
  6
Continuous
 62
     0
100
AcDbPoint
 10
-361.7136164838139
 20
-250.0966897409916
 30
0.0
  0
POINT
  5
B6E
330
A68
100
AcDbEntity
  8
Defpoints
  6
Continuous
 62
     0
100
AcDbPoint
 10
-361.7136164838139
 20
-230.8984452348337
 30
0.0
  0
ENDBLK
  5
A6A
330
A68
100
AcDbEntity
  8
0
100
AcDbBlockEnd
  0
BLOCK
  5
A75
330
A74
100
AcDbEntity
  8
0
100
AcDbBlockBegin
  2
*D5
 70
     1
 10
0.0
 20
0.0
 30
0.0
  3
*D5
  1

  0
LINE
  5
B6F
330
A74
100
AcDbEntity
  8
0
  6
Continuous
 62
     0
370
    -2
100
AcDbLine
 10
-218.3865801755608
 20
-250.6790369403124
 30
0.0
 11
-218.3865801755608
 21
-235.1811960129602
 31
0.0
  0
LINE
  5
B70
330
A74
100
AcDbEntity
  8
0
  6
Continuous
 62
     0
370
    -2
100
AcDbLine
 10
-250.3865816954793
 20
-250.6790369403124
 30
0.0
 11
-250.3865816954793
 21
-235.1811960129602
 31
0.0
  0
LINE
  5
B71
330
A74
100
AcDbEntity
  8
0
  6
Continuous
 62
     0
370
    -2
100
AcDbLine
 10
-220.8865801755608
 20
-236.4311960129602
 30
0.0
 11
-247.8865816954793
 21
-236.4311960129602
 31
0.0
  0
INSERT
  5
B72
330
A74
100
AcDbEntity
  8
0
  6
Continuous
 62
     0
370
    -2
100
AcDbBlockReference
  2
_Open30
 10
-218.3865801755608
 20
-236.4311960129602
 30
0.0
 41
2.5
 42
2.5
 43
2.5
  0
INSERT
  5
B73
330
A74
100
AcDbEntity
  8
0
  6
Continuous
 62
     0
370
    -2
100
AcDbBlockReference
  2
_Open30
 10
-250.3865816954793
 20
-236.4311960129602
 30
0.0
 41
2.5
 42
2.5
 43
2.5
 50
180.0
  0
MTEXT
  5
B74
330
A74
100
AcDbEntity
  8
0
  6
Continuous
 62
     4
100
AcDbMText
 10
-234.866579422065
 20
-234.3061960129602
 30
0.0
 40
3.0
 41
0.0
 71
     5
 72
     1
  1
32
 73
     1
 44
1.0
1001
ACAD
1000
MTEXTBEGIN
1070
    73
1070
     1
1070
    44
1040
1.0
1070
    74
1070
     0
1000
MTEXTEND
  0
POINT
  5
B75
330
A74
100
AcDbEntity
  8
Defpoints
  6
Continuous
 62
     0
100
AcDbPoint
 10
-218.3865801755608
 20
-250.9290369403124
 30
0.0
  0
POINT
  5
B76
330
A74
100
AcDbEntity
  8
Defpoints
  6
Continuous
 62
     0
100
AcDbPoint
 10
-250.3865816954793
 20
-250.9290369403124
 30
0.0
  0
POINT
  5
B77
330
A74
100
AcDbEntity
  8
Defpoints
  6
Continuous
 62
     0
100
AcDbPoint
 10
-250.3865816954793
 20
-236.4311960129602
 30
0.0
  0
ENDBLK
  5
A76
330
A74
100
AcDbEntity
  8
0
100
AcDbBlockEnd
  0
BLOCK
  5
A81
330
A80
100
AcDbEntity
  8
0
100
AcDbBlockBegin
  2
*D6
 70
     1
 10
0.0
 20
0.0
 30
0.0
  3
*D6
  1

  0
LINE
  5
B78
330
A80
100
AcDbEntity
  8
0
  6
Continuous
 62
     0
370
    -2
100
AcDbLine
 10
-249.4365809399904
 20
-249.8343361717224
 30
0.0
 11
-257.8688661086979
 21
-249.8343361717224
 31
0.0
  0
LINE
  5
B79
330
A80
100
AcDbEntity
  8
0
  6
Continuous
 62
     0
370
    -2
100
AcDbLine
 10
-249.4365809399904
 20
-301.834337244606
 30
0.0
 11
-257.8688661086979
 21
-301.834337244606
 31
0.0
  0
LINE
  5
B7A
330
A80
100
AcDbEntity
  8
0
  6
Continuous
 62
     0
370
    -2
100
AcDbLine
 10
-256.6188661086979
 20
-252.3343361717224
 30
0.0
 11
-256.6188661086979
 21
-299.334337244606
 31
0.0
  0
INSERT
  5
B7B
330
A80
100
AcDbEntity
  8
0
  6
Continuous
 62
     0
370
    -2
100
AcDbBlockReference
  2
_Open30
 10
-256.6188661086979
 20
-249.8343361717224
 30
0.0
 41
2.5
 42
2.5
 43
2.5
 50
90.0
  0
INSERT
  5
B7C
330
A80
100
AcDbEntity
  8
0
  6
Continuous
 62
     0
370
    -2
100
AcDbBlockReference
  2
_Open30
 10
-256.6188661086979
 20
-301.834337244606
 30
0.0
 41
2.5
 42
2.5
 43
2.5
 50
270.0
  0
MTEXT
  5
B7D
330
A80
100
AcDbEntity
  8
0
  6
Continuous
 62
     4
100
AcDbMText
 10
-258.7438661086978
 20
-275.8343367081644
 30
0.0
 40
3.0
 41
0.0
 71
     5
 72
     1
  1
52
 11
0.0000000000000001
 21
1.0
 31
0.0
 73
     1
 44
1.0
1001
ACAD
1000
MTEXTBEGIN
1070
    73
1070
     1
1070
    44
1040
1.0
1070
    74
1070
     0
1000
MTEXTEND
  0
POINT
  5
B7E
330
A80
100
AcDbEntity
  8
Defpoints
  6
Continuous
 62
     0
100
AcDbPoint
 10
-249.1865809399904
 20
-249.8343361717224
 30
0.0
  0
POINT
  5
B7F
330
A80
100
AcDbEntity
  8
Defpoints
  6
Continuous
 62
     0
100
AcDbPoint
 10
-249.1865809399904
 20
-301.834337244606
 30
0.0
  0
POINT
  5
B80
330
A80
100
AcDbEntity
  8
Defpoints
  6
Continuous
 62
     0
100
AcDbPoint
 10
-256.6188661086979
 20
-301.834337244606
 30
0.0
  0
ENDBLK
  5
A82
330
A80
100
AcDbEntity
  8
0
100
AcDbBlockEnd
  0
ENDSEC
  0
SECTION
  2
ENTITIES
  0
LINE
  5
785
330
6B
100
AcDbEntity
  8
0
 62
     3
100
AcDbLine
 10
-365.0014083387369
 20
-371.255375990077
 30
0.0
 11
-285.369914338737
 21
-371.255375990077
 31
0.0
  0
LINE
  5
786
330
6B
100
AcDbEntity
  8
0
 62
     3
100
AcDbLine
 10
-365.0014083387369
 20
-342.255375990077
 30
0.0
 11
-365.0014083387369
 21
-371.255375990077
 31
0.0
  0
LINE
  5
787
330
6B
100
AcDbEntity
  8
0
 62
     7
100
AcDbLine
 10
-365.0014083387369
 20
-350.255375990077
 30
0.0
 11
-285.369914338737
 21
-350.255375990077
 31
0.0
  0
LINE
  5
788
330
6B
100
AcDbEntity
  8
0
 62
     7
100
AcDbLine
 10
-365.0014083387369
 20
-357.255375990077
 30
0.0
 11
-285.369914338737
 21
-357.255375990077
 31
0.0
  0
LINE
  5
789
330
6B
100
AcDbEntity
  8
0
 62
     7
100
AcDbLine
 10
-365.0014083387369
 20
-364.255375990077
 30
0.0
 11
-285.369914338737
 21
-364.255375990077
 31
0.0
  0
LINE
  5
78A
330
6B
100
AcDbEntity
  8
0
 62
     7
100
AcDbLine
 10
-335.0014083387369
 20
-350.255375990077
 30
0.0
 11
-335.0014083387369
 21
-371.255375990077
 31
0.0
  0
ARC
  5
78B
330
6B
100
AcDbEntity
  8
0
 62
     3
100
AcDbCircle
 10
-290.7679843387369
 20
-368.207897990077
 30
0.0
 40
2.0
100
AcDbArc
 50
206.8022930000001
 51
24.26083000000231
  0
ARC
  5
78C
330
6B
100
AcDbEntity
  8
0
 62
     3
100
AcDbCircle
 10
-290.7679843387369
 20
-368.207897990077
 30
0.0
 40
2.0
100
AcDbArc
 50
26.80229099999991
 51
204.2608300000023
  0
LINE
  5
78D
330
6B
100
AcDbEntity
  8
0
 62
     3
100
AcDbLine
 10
-290.5679843387369
 20
-366.419043990077
 30
0.0
 11
-290.5679843387369
 21
-369.207897990077
 31
0.0
  0
LINE
  5
78E
330
6B
100
AcDbEntity
  8
0
 62
     3
100
AcDbLine
 10
-290.967984338737
 20
-367.207897990077
 30
0.0
 11
-290.967984338737
 21
-369.9967519900769
 31
0.0
  0
LINE
  5
78F
330
6B
100
AcDbEntity
  8
0
 62
     3
100
AcDbLine
 10
-290.967984338737
 20
-367.207897990077
 30
0.0
 11
-292.412126338737
 21
-368.940561990077
 31
0.0
  0
LINE
  5
790
330
6B
100
AcDbEntity
  8
0
 62
     3
100
AcDbLine
 10
-292.5531203387369
 20
-369.1097249900769
 30
0.0
 11
-292.827920338737
 21
-369.4394269900769
 31
0.0
  0
LINE
  5
791
330
6B
100
AcDbEntity
  8
0
 62
     3
100
AcDbLine
 10
-292.827920338737
 20
-369.4394269900769
 30
0.0
 11
-292.5913533387369
 21
-369.029679990077
 31
0.0
  0
LINE
  5
792
330
6B
100
AcDbEntity
  8
0
 62
     3
100
AcDbLine
 10
-292.4643823387368
 20
-368.8097589900769
 30
0.0
 11
-291.0949563387369
 21
-366.437844990077
 31
0.0
  0
ARC
  5
793
330
6B
100
AcDbEntity
  8
0
 62
     3
100
AcDbCircle
 10
-290.7679843387369
 20
-368.207897990077
 30
0.0
 40
1.8
100
AcDbArc
 50
204.0187570000003
 51
263.6206300000006
  0
ARC
  5
794
330
6B
100
AcDbEntity
  8
0
 62
     3
100
AcDbCircle
 10
-290.7679843387369
 20
-368.207897990077
 30
0.0
 40
1.8
100
AcDbArc
 50
100.4659349999996
 51
199.5340650000004
  0
ARC
  5
795
330
6B
100
AcDbEntity
  8
0
 62
     3
100
AcDbCircle
 10
-290.7679843387369
 20
-368.207897990077
 30
0.0
 40
1.8
100
AcDbArc
 50
280.4659349999996
 51
19.53406500000047
  0
ARC
  5
796
330
6B
100
AcDbEntity
  8
0
 62
     3
100
AcDbCircle
 10
-290.7679843387369
 20
-368.207897990077
 30
0.0
 40
1.8
100
AcDbArc
 50
24.0187570000003
 51
83.62063000000054
  0
LINE
  5
797
330
6B
100
AcDbEntity
  8
0
 62
     3
100
AcDbLine
 10
-292.2080483387369
 20
-366.9763689900769
 30
0.0
 11
-292.4446163387369
 21
-367.386115990077
 31
0.0
  0
LINE
  5
798
330
6B
100
AcDbEntity
  8
0
 62
     3
100
AcDbLine
 10
-289.071587338737
 20
-367.606036990077
 30
0.0
 11
-290.4410133387369
 21
-369.9779519900769
 31
0.0
  0
LINE
  5
799
330
6B
100
AcDbEntity
  8
0
 62
     3
100
AcDbLine
 10
-290.5679843387369
 20
-369.207897990077
 30
0.0
 11
-289.1238423387369
 21
-367.4752339900769
 31
0.0
  0
LINE
  5
79A
330
6B
100
AcDbEntity
  8
0
 62
     3
100
AcDbLine
 10
-292.4828493387368
 20
-367.3060719900769
 30
0.0
 11
-292.2080483387369
 21
-366.9763689900769
 31
0.0
  0
LINE
  5
79B
330
6B
100
AcDbEntity
  8
0
 62
     3
100
AcDbLine
 10
-365.0014083387369
 20
-342.255375990077
 30
0.0
 11
-285.369914338737
 21
-342.255375990077
 31
0.0
  0
TEXT
  5
79C
330
6B
100
AcDbEntity
  8
0
 62
     3
100
AcDbText
 10
-307.5778223387369
 20
-370.615902990077
 30
0.0
 40
4.5
  1
JET
  7
高4.5
100
AcDbText
  0
TEXT
  5
79D
330
6B
100
AcDbEntity
  8
0
 62
     3
100
AcDbText
 10
-313.507192338737
 20
-370.469806990077
 30
0.0
 40
4.5
  1
E
  7
高4.5
100
AcDbText
  0
TEXT
  5
79E
330
6B
100
AcDbEntity
  8
0
 62
     3
100
AcDbText
 10
-363.2154153387371
 20
-370.1739589900772
 30
0.0
 40
4.5
  1
型式認可番号
 41
0.8
  7
高4.5
100
AcDbText
  0
TEXT
  5
79F
330
6B
100
AcDbEntity
  8
0
 62
     3
100
AcDbText
 10
-363.1953953387369
 20
-356.374241990077
 30
0.0
 40
4.5
  1
定格電圧
  7
高4.5
100
AcDbText
  0
TEXT
  5
7A0
330
6B
100
AcDbEntity
  8
0
 62
     3
100
AcDbText
 10
-363.1953953387369
 20
-363.3742419900769
 30
0.0
 40
4.5
  1
定格電流
  7
高4.5
100
AcDbText
  0
TEXT
  5
7A1
330
6B
100
AcDbEntity
  8
0
 62
     3
100
AcDbText
 10
-331.6352773387369
 20
-370.354647990077
 30
0.0
 40
4.5
  1
<PS>
  7
高4.5
100
AcDbText
  0
LINE
  5
7A2
330
6B
100
AcDbEntity
  8
0
 62
     3
100
AcDbLine
 10
-285.369914338737
 20
-371.255375990077
 30
0.0
 11
-285.369914338737
 21
-342.255375990077
 31
0.0
  0
TEXT
  5
7A3
330
6B
100
AcDbEntity
  8
0
 62
     3
100
AcDbText
 10
-348.4384813387369
 20
-348.822763990077
 30
0.0
 40
4.5
  1
仕　　様（屋内型）
  7
高4.5
100
AcDbText
  0
TEXT
  5
7A4
330
6B
100
AcDbEntity
  8
0
 62
     3
100
AcDbText
 10
-319.1156133387369
 20
-363.0678679900769
 30
0.0
 40
4.5
  1
15A
  7
高4.5
100
AcDbText
  0
TEXT
  5
7A5
330
6B
100
AcDbEntity
  8
0
 62
     3
100
AcDbText
 10
-322.0838193387371
 20
-356.218527990077
 30
0.0
 40
4.5
  1
125V
  7
高4.5
100
AcDbText
  0
LINE
  5
7A6
330
6B
100
AcDbEntity
  8
0
 62
     3
100
AcDbLine
 10
-190.0829853387369
 20
-343.7885569535418
 30
0.0
 11
-190.0829853387369
 21
-337.7885569535417
 31
0.0
  0
LINE
  5
7A7
330
6B
100
AcDbEntity
  8
0
 62
     3
100
AcDbLine
 10
-216.0829853387369
 20
-343.7885569535418
 30
0.0
 11
-216.0829853387369
 21
-337.7885569535417
 31
0.0
  0
LINE
  5
7A8
330
6B
100
AcDbEntity
  8
0
 62
     3
100
AcDbLine
 10
-164.0829853387369
 20
-337.7885569535417
 30
0.0
 11
-216.0829853387369
 21
-337.7885569535417
 31
0.0
  0
TEXT
  5
7A9
330
6B
100
AcDbEntity
  8
0
 62
     3
100
AcDbText
 10
-210.7385893630362
 20
-343.1239501723416
 30
0.0
 40
4.5
  1
コード
  7
高4.5
100
AcDbText
  0
TEXT
  5
7AA
330
6B
100
AcDbEntity
  8
0
 62
     7
100
AcDbText
 10
-187.6697523387369
 20
-343.2731929535417
 30
0.0
 40
4.5
  1
51397
  7
高4.5
100
AcDbText
  0
LINE
  5
7AB
330
6B
100
AcDbEntity
  8
0
 62
     3
100
AcDbLine
 10
-441.0829853387368
 20
-203.7885569535416
 30
0.0
 11
-441.0829853387368
 21
-383.7885569535418
 31
0.0
  0
LINE
  5
7AC
330
6B
100
AcDbEntity
  8
0
 62
     3
100
AcDbLine
 10
-164.0829853387369
 20
-383.7885569535418
 30
0.0
 11
-164.0829853387369
 21
-203.7885569535416
 31
0.0
  0
LINE
  5
7AD
330
6B
100
AcDbEntity
  8
0
 62
     3
100
AcDbLine
 10
-441.0829853387368
 20
-383.7885569535418
 30
0.0
 11
-164.0829853387369
 21
-383.7885569535418
 31
0.0
  0
LINE
  5
7AE
330
6B
100
AcDbEntity
  8
0
 62
     3
100
AcDbLine
 10
-302.5829853387369
 20
-195.3159396535417
 30
0.0
 11
-302.5829853387369
 21
-196.5644987635416
 31
0.0
  0
LINE
  5
7AF
330
6B
100
AcDbEntity
  8
0
 62
     3
100
AcDbLine
 10
-314.4963240587369
 20
-201.9552292335416
 30
0.0
 11
-314.0605761487369
 21
-202.1826973735417
 31
0.0
  0
LINE
  5
7B0
330
6B
100
AcDbEntity
  8
0
 62
     3
100
AcDbLine
 10
-314.4963240587369
 20
-205.6858597035418
 30
0.0
 11
-314.0605761487369
 21
-205.4583915735417
 31
0.0
  0
LINE
  5
7B1
330
6B
100
AcDbEntity
  8
0
 62
     3
100
AcDbLine
 10
-314.0605761487369
 20
-202.1826973735417
 30
0.0
 11
-314.0605761487369
 21
-205.4583915735417
 31
0.0
  0
LINE
  5
7B2
330
6B
100
AcDbEntity
  8
0
 62
     3
100
AcDbLine
 10
-312.9570587287369
 20
-205.6858597035418
 30
0.0
 11
-313.3928066387368
 21
-205.4583915735417
 31
0.0
  0
LINE
  5
7B3
330
6B
100
AcDbEntity
  8
0
 62
     3
100
AcDbLine
 10
-313.3928066387368
 20
-203.4615327535417
 30
0.0
 11
-313.3928066387368
 21
-205.4583915735417
 31
0.0
  0
LINE
  5
7B4
330
6B
100
AcDbEntity
  8
0
 62
     3
100
AcDbLine
 10
-310.4151959487369
 20
-201.9552292335416
 30
0.0
 11
-310.8509438587369
 21
-202.1826973735417
 31
0.0
  0
LINE
  5
7B5
330
6B
100
AcDbEntity
  8
0
 62
     3
100
AcDbLine
 10
-311.954461278737
 20
-201.9552292335416
 30
0.0
 11
-311.5187133687368
 21
-202.1826973735417
 31
0.0
  0
LINE
  5
7B6
330
6B
100
AcDbEntity
  8
0
 62
     3
100
AcDbLine
 10
-311.5187133687368
 20
-202.1826973735417
 30
0.0
 11
-311.5187133687368
 21
-203.6250344335418
 31
0.0
  0
LINE
  5
7B7
330
6B
100
AcDbEntity
  8
0
 62
     3
100
AcDbLine
 10
-310.8509438587369
 20
-202.1826973735417
 30
0.0
 11
-310.8509438587369
 21
-205.8974208535418
 31
0.0
  0
LINE
  5
7B8
330
6B
100
AcDbEntity
  8
0
 62
     3
100
AcDbLine
 10
-310.1998987487369
 20
-201.9552318635417
 30
0.0
 11
-309.7641524087369
 21
-202.1827029935416
 31
0.0
  0
LINE
  5
7B9
330
6B
100
AcDbEntity
  8
0
 62
     3
100
AcDbLine
 10
-310.1999767187369
 20
-205.6858097335418
 30
0.0
 11
-309.7642208687369
 21
-205.4583568035418
 31
0.0
  0
LINE
  5
7BA
330
6B
100
AcDbEntity
  8
0
 62
     3
100
AcDbLine
 10
-309.7641524087369
 20
-202.1827029935416
 30
0.0
 11
-309.7641524087369
 21
-205.4583568035418
 31
0.0
  0
LINE
  5
7BB
330
6B
100
AcDbEntity
  8
0
 62
     3
100
AcDbLine
 10
-308.2703623487369
 20
-201.9552555335416
 30
0.0
 11
-308.7061134487369
 21
-202.1827175635416
 31
0.0
  0
LINE
  5
7BC
330
6B
100
AcDbEntity
  8
0
 62
     3
100
AcDbLine
 10
-308.7061134487369
 20
-202.1827175635416
 30
0.0
 11
-308.7061134487369
 21
-205.4583713735417
 31
0.0
  0
LINE
  5
7BD
330
6B
100
AcDbEntity
  8
0
 62
     3
100
AcDbLine
 10
-308.2703623487369
 20
-205.6858334135416
 30
0.0
 11
-308.7061134487369
 21
-205.4583713735417
 31
0.0
  0
LINE
  5
7BE
330
6B
100
AcDbEntity
  8
0
 62
     3
100
AcDbLine
 10
-304.5801089087369
 20
-201.9552965335416
 30
0.0
 11
-304.1443617887369
 21
-202.1827661735418
 31
0.0
  0
LINE
  5
7BF
330
6B
100
AcDbEntity
  8
0
 62
     3
100
AcDbLine
 10
-304.1443617887369
 20
-202.1827661735418
 30
0.0
 11
-304.1444189587369
 21
-205.4584199835417
 31
0.0
  0
LINE
  5
7C0
330
6B
100
AcDbEntity
  8
0
 62
     3
100
AcDbLine
 10
-304.5801740287369
 20
-205.6858744135418
 30
0.0
 11
-304.1444189587369
 21
-205.4584199835417
 31
0.0
  0
LINE
  5
7C1
330
6B
100
AcDbEntity
  8
0
 62
     3
100
AcDbLine
 10
-302.6278479487369
 20
-201.9552965335416
 30
0.0
 11
-303.0635950687369
 21
-202.1827661735418
 31
0.0
  0
LINE
  5
7C2
330
6B
100
AcDbEntity
  8
0
 62
     3
100
AcDbLine
 10
-302.6277828387369
 20
-205.6858744135418
 30
0.0
 11
-303.063537898737
 21
-205.4584199835417
 31
0.0
  0
LINE
  5
7C3
330
6B
100
AcDbEntity
  8
0
 62
     3
100
AcDbLine
 10
-302.4241200887368
 20
-201.9552965335416
 30
0.0
 11
-301.9883729687369
 21
-202.1827661735418
 31
0.0
  0
LINE
  5
7C4
330
6B
100
AcDbEntity
  8
0
 62
     3
100
AcDbLine
 10
-302.4241851987369
 20
-205.6858744135418
 30
0.0
 11
-301.9884301387369
 21
-205.4584199835417
 31
0.0
  0
LINE
  5
7C5
330
6B
100
AcDbEntity
  8
0
 62
     3
100
AcDbLine
 10
-300.4718591187369
 20
-201.9552965335416
 30
0.0
 11
-300.9076062387369
 21
-202.1827661735418
 31
0.0
  0
LINE
  5
7C6
330
6B
100
AcDbEntity
  8
0
 62
     3
100
AcDbLine
 10
-300.9076062387369
 20
-202.1827661735418
 30
0.0
 11
-300.9075490687369
 21
-205.4584199835417
 31
0.0
  0
LINE
  5
7C7
330
6B
100
AcDbEntity
  8
0
 62
     3
100
AcDbLine
 10
-300.4717940087369
 20
-205.6858744135418
 30
0.0
 11
-300.9075490687369
 21
-205.4584199835417
 31
0.0
  0
LINE
  5
7C8
330
6B
100
AcDbEntity
  8
0
 62
     3
100
AcDbLine
 10
-301.9883978687369
 20
-203.6098992935417
 30
0.0
 11
-303.0635701587369
 21
-203.6098992935417
 31
0.0
  0
LINE
  5
7C9
330
6B
100
AcDbEntity
  8
0
 62
     3
100
AcDbLine
 10
-301.9884052287368
 20
-204.0311896535417
 30
0.0
 11
-303.0635628087368
 21
-204.0311896535417
 31
0.0
  0
LINE
  5
7CA
330
6B
100
AcDbEntity
  8
0
 62
     3
100
AcDbLine
 10
-301.9883729687369
 20
-202.1827661735418
 30
0.0
 11
-301.9883978687369
 21
-203.6098992935417
 31
0.0
  0
LINE
  5
7CB
330
6B
100
AcDbEntity
  8
0
 62
     3
100
AcDbLine
 10
-301.9884052287368
 20
-204.0311896535417
 30
0.0
 11
-301.9884301387369
 21
-205.4584199835417
 31
0.0
  0
LINE
  5
7CC
330
6B
100
AcDbEntity
  8
0
 62
     3
100
AcDbLine
 10
-303.0635950687369
 20
-202.1827661735418
 30
0.0
 11
-303.0635701587369
 21
-203.6098992935417
 31
0.0
  0
LINE
  5
7CD
330
6B
100
AcDbEntity
  8
0
 62
     3
100
AcDbLine
 10
-303.0635628087368
 20
-204.0311896535417
 30
0.0
 11
-303.063537898737
 21
-205.4584199835417
 31
0.0
  0
LINE
  5
7CE
330
6B
100
AcDbEntity
  8
0
 62
     3
100
AcDbLine
 10
-300.2648999987368
 20
-201.9552965335416
 30
0.0
 11
-299.8291528787369
 21
-202.1827661735418
 31
0.0
  0
LINE
  5
7CF
330
6B
100
AcDbEntity
  8
0
 62
     3
100
AcDbLine
 10
-299.8291528787369
 20
-202.1827661735418
 30
0.0
 11
-299.829210048737
 21
-205.4584199835417
 31
0.0
  0
LINE
  5
7D0
330
6B
100
AcDbEntity
  8
0
 62
     3
100
AcDbLine
 10
-300.2649651087369
 20
-205.6858744135418
 30
0.0
 11
-299.829210048737
 21
-205.4584199835417
 31
0.0
  0
LINE
  5
7D1
330
6B
100
AcDbEntity
  8
0
 62
     3
100
AcDbLine
 10
-298.3353897287368
 20
-201.9552965335416
 30
0.0
 11
-298.7711368487369
 21
-202.1827661735418
 31
0.0
  0
LINE
  5
7D2
330
6B
100
AcDbEntity
  8
0
 62
     3
100
AcDbLine
 10
-298.7711368487369
 20
-202.1827661735418
 30
0.0
 11
-298.7710796787369
 21
-205.4584199835417
 31
0.0
  0
LINE
  5
7D3
330
6B
100
AcDbEntity
  8
0
 62
     3
100
AcDbLine
 10
-298.3353246187368
 20
-205.6858744135418
 30
0.0
 11
-298.7710796787369
 21
-205.4584199835417
 31
0.0
  0
LINE
  5
7D4
330
6B
100
AcDbEntity
  8
0
 62
     3
100
AcDbLine
 10
-298.1210301687369
 20
-201.9552965335416
 30
0.0
 11
-297.6852830387369
 21
-202.1827661735418
 31
0.0
  0
LINE
  5
7D5
330
6B
100
AcDbEntity
  8
0
 62
     3
100
AcDbLine
 10
-297.6852830387369
 20
-202.1827661735418
 30
0.0
 11
-297.6853402087368
 21
-205.4584199835417
 31
0.0
  0
LINE
  5
7D6
330
6B
100
AcDbEntity
  8
0
 62
     3
100
AcDbLine
 10
-298.1210952787369
 20
-205.6858744135418
 30
0.0
 11
-297.6853402087368
 21
-205.4584199835417
 31
0.0
  0
ARC
  5
7D7
330
6B
100
AcDbEntity
  8
0
 62
     3
100
AcDbCircle
 10
-305.9720201787369
 20
-203.8111547135416
 30
0.0
 40
2.086285909999999
100
AcDbArc
 50
97.70152350999701
 51
270.0
  0
ARC
  5
7D8
330
6B
100
AcDbEntity
  8
0
 62
     3
100
AcDbCircle
 10
-293.0914193387368
 20
-203.8321113435418
 30
0.0
 40
2.108943379999999
100
AcDbArc
 50
0.3142502700009053
 51
69.00558244999579
  0
ARC
  5
7D9
330
6B
100
AcDbEntity
  8
0
 62
     3
100
AcDbCircle
 10
-292.6307440187369
 20
-203.8321113435418
 30
0.0
 40
2.108943379999999
100
AcDbArc
 50
110.9944175499969
 51
148.116611020001
  0
ARC
  5
7DA
330
6B
100
AcDbEntity
  8
0
 62
     3
100
AcDbCircle
 10
-293.0914193387368
 20
-203.8089776035417
 30
0.0
 40
2.108943379999999
100
AcDbArc
 50
290.9944175499969
 51
359.6857497299991
  0
ARC
  5
7DB
330
6B
100
AcDbEntity
  8
0
 62
     3
100
AcDbCircle
 10
-292.6307440187369
 20
-203.8089776035417
 30
0.0
 40
2.108943379999999
100
AcDbArc
 50
211.8833889799989
 51
249.0055824499958
  0
ARC
  5
7DC
330
6B
100
AcDbEntity
  8
0
 62
     3
100
AcDbCircle
 10
-292.8610816787369
 20
-202.9577390735418
 30
0.0
 40
1.214070989999997
100
AcDbArc
 50
64.36517189999924
 51
115.6348281000007
  0
ARC
  5
7DD
330
6B
100
AcDbEntity
  8
0
 62
     3
100
AcDbCircle
 10
-292.8610816787369
 20
-204.6833498635418
 30
0.0
 40
1.214070989999997
100
AcDbArc
 50
244.3651718999992
 51
295.6348281000007
  0
ARC
  5
7DE
330
6B
100
AcDbEntity
  8
0
 62
     3
100
AcDbCircle
 10
-292.8610816787369
 20
-202.9346773935416
 30
0.0
 40
0.59585563
100
AcDbArc
 50
19.48660554000177
 51
160.5133944599982
  0
ARC
  5
7DF
330
6B
100
AcDbEntity
  8
0
 62
     3
100
AcDbCircle
 10
-292.8610816787369
 20
-204.6833498635418
 30
0.0
 40
1.214070989999997
100
AcDbArc
 50
244.3651718999992
 51
295.6348281000007
  0
ARC
  5
7E0
330
6B
100
AcDbEntity
  8
0
 62
     3
100
AcDbCircle
 10
-292.8610816787369
 20
-204.7064115435417
 30
0.0
 40
0.59585563
100
AcDbArc
 50
199.4866055400017
 51
340.5133944599981
  0
ARC
  5
7E1
330
6B
100
AcDbEntity
  8
0
 62
     3
100
AcDbCircle
 10
-297.6035541787369
 20
-226.0486043135418
 30
0.0
 40
26.04
100
AcDbArc
 50
69.50571480000154
 51
81.68998807000383
  0
ARC
  5
7E2
330
6B
100
AcDbEntity
  8
0
 62
     3
100
AcDbCircle
 10
-297.6035541787369
 20
-181.5924846335416
 30
0.0
 40
26.04
100
AcDbArc
 50
278.3100119299961
 51
290.4942851999985
  0
ARC
  5
7E3
330
6B
100
AcDbEntity
  8
0
 62
     3
100
AcDbCircle
 10
-289.2953500587369
 20
-203.8205444735417
 30
0.0
 40
2.31
100
AcDbArc
 50
290.4942851999985
 51
69.50571480000154
  0
ARC
  5
7E4
330
6B
100
AcDbEntity
  8
0
 62
     3
100
AcDbCircle
 10
-316.5953500587369
 20
-203.8205444735417
 30
0.0
 40
2.31
100
AcDbArc
 50
110.4942851999985
 51
249.5057147999943
  0
ARC
  5
7E5
330
6B
100
AcDbEntity
  8
0
 62
     3
100
AcDbCircle
 10
-308.2871459287369
 20
-226.0486043135418
 30
0.0
 40
26.04
100
AcDbArc
 50
98.31001192999615
 51
110.4942851999985
  0
ARC
  5
7E6
330
6B
100
AcDbEntity
  8
0
 62
     3
100
AcDbCircle
 10
-308.2871459287369
 20
-181.5924846335416
 30
0.0
 40
26.04
100
AcDbArc
 50
249.5057147999943
 51
261.6899880699974
  0
ARC
  5
7E7
330
6B
100
AcDbEntity
  8
0
 62
     3
100
AcDbCircle
 10
-302.9453500587369
 20
-262.6205444735418
 30
0.0
 40
62.99999987
100
AcDbArc
 50
81.68998807000383
 51
98.31001192999615
  0
ARC
  5
7E8
330
6B
100
AcDbEntity
  8
0
 62
     3
100
AcDbCircle
 10
-302.9453500587369
 20
-145.0205444735417
 30
0.0
 40
62.99999987
100
AcDbArc
 50
261.6899880699974
 51
278.3100119299961
  0
ARC
  5
7E9
330
6B
100
AcDbEntity
  8
0
 62
     3
100
AcDbCircle
 10
-302.9453500587369
 20
-262.6205444735418
 30
0.0
 40
62.36999987
100
AcDbArc
 50
81.68998807000383
 51
98.31001192999615
  0
ARC
  5
7EA
330
6B
100
AcDbEntity
  8
0
 62
     3
100
AcDbCircle
 10
-302.9453500587369
 20
-145.0205444735417
 30
0.0
 40
62.36999987
100
AcDbArc
 50
261.6899880699974
 51
278.3100119299961
  0
ARC
  5
7EB
330
6B
100
AcDbEntity
  8
0
 62
     3
100
AcDbCircle
 10
-297.6035541787369
 20
-181.5924846335416
 30
0.0
 40
25.41
100
AcDbArc
 50
278.3100119299961
 51
290.4942851999985
  0
ARC
  5
7EC
330
6B
100
AcDbEntity
  8
0
 62
     3
100
AcDbCircle
 10
-297.6035541787369
 20
-226.0486043135418
 30
0.0
 40
25.41
100
AcDbArc
 50
69.50571480000154
 51
81.68998807000383
  0
ARC
  5
7ED
330
6B
100
AcDbEntity
  8
0
 62
     3
100
AcDbCircle
 10
-289.2953500587369
 20
-203.8205444735417
 30
0.0
 40
1.679999999999999
100
AcDbArc
 50
290.4942851999985
 51
69.50571480000154
  0
ARC
  5
7EE
330
6B
100
AcDbEntity
  8
0
 62
     3
100
AcDbCircle
 10
-316.5953500587369
 20
-203.8205444735417
 30
0.0
 40
1.679999999999999
100
AcDbArc
 50
110.4942851999985
 51
249.5057147999943
  0
ARC
  5
7EF
330
6B
100
AcDbEntity
  8
0
 62
     3
100
AcDbCircle
 10
-308.2871459287369
 20
-226.0486043135418
 30
0.0
 40
25.41
100
AcDbArc
 50
98.31001192999615
 51
110.4942851999985
  0
ARC
  5
7F0
330
6B
100
AcDbEntity
  8
0
 62
     3
100
AcDbCircle
 10
-308.2871459287369
 20
-181.5924846335416
 30
0.0
 40
25.41
100
AcDbArc
 50
249.5057147999943
 51
261.6899880699974
  0
LINE
  5
7F1
330
6B
100
AcDbEntity
  8
0
 62
     3
100
AcDbLine
 10
-298.3353889487369
 20
-205.8974208535418
 30
0.0
 11
-300.2649007787369
 21
-205.8974208535418
 31
0.0
  0
LINE
  5
7F2
330
6B
100
AcDbEntity
  8
0
 62
     3
100
AcDbLine
 10
-298.3353889487369
 20
-205.6858597035418
 30
0.0
 11
-298.3353889487369
 21
-205.8974208535418
 31
0.0
  0
LINE
  5
7F3
330
6B
100
AcDbEntity
  8
0
 62
     3
100
AcDbLine
 10
-300.4718583387369
 20
-201.7437668035418
 30
0.0
 11
-302.4241208687369
 21
-201.7437668035418
 31
0.0
  0
LINE
  5
7F4
330
6B
100
AcDbEntity
  8
0
 62
     3
100
AcDbLine
 10
-300.4718583387369
 20
-201.7437668035418
 30
0.0
 11
-300.4718583387369
 21
-201.9552292335416
 31
0.0
  0
LINE
  5
7F5
330
6B
100
AcDbEntity
  8
0
 62
     3
100
AcDbLine
 10
-300.4718583387369
 20
-205.6858597035418
 30
0.0
 11
-300.4718583387369
 21
-205.8975195635417
 31
0.0
  0
LINE
  5
7F6
330
6B
100
AcDbEntity
  8
0
 62
     3
100
AcDbLine
 10
-300.4718583387369
 20
-205.8975195635417
 30
0.0
 11
-302.4241208687369
 21
-205.8975195635417
 31
0.0
  0
LINE
  5
7F7
330
6B
100
AcDbEntity
  8
0
 62
     3
100
AcDbLine
 10
-298.3353889487369
 20
-201.7436680935416
 30
0.0
 11
-298.3353889487369
 21
-201.9552292335416
 31
0.0
  0
LINE
  5
7F8
330
6B
100
AcDbEntity
  8
0
 62
     3
100
AcDbLine
 10
-298.3353889487369
 20
-201.7436680935416
 30
0.0
 11
-300.2649007787369
 21
-201.7436680935416
 31
0.0
  0
LINE
  5
7F9
330
6B
100
AcDbEntity
  8
0
 62
     3
100
AcDbLine
 10
-300.2649007787369
 20
-201.7436680935416
 30
0.0
 11
-300.2649007787369
 21
-201.9552292335416
 31
0.0
  0
LINE
  5
7FA
330
6B
100
AcDbEntity
  8
0
 62
     3
100
AcDbLine
 10
-298.1210309487368
 20
-205.6858597035418
 30
0.0
 11
-298.1210309487368
 21
-205.8974208535418
 31
0.0
  0
LINE
  5
7FB
330
6B
100
AcDbEntity
  8
0
 62
     3
100
AcDbLine
 10
-296.1367303887369
 20
-205.8974208535418
 30
0.0
 11
-298.1210309487368
 21
-205.8974208535418
 31
0.0
  0
LINE
  5
7FC
330
6B
100
AcDbEntity
  8
0
 62
     3
100
AcDbLine
 10
-296.6272670187369
 20
-202.4114376135417
 30
0.0
 11
-296.6272670187369
 21
-205.2296513335418
 31
0.0
  0
LINE
  5
7FD
330
6B
100
AcDbEntity
  8
0
 62
     3
100
AcDbLine
 10
-296.6272670187369
 20
-205.2296513335418
 30
0.0
 11
-296.4372180487369
 21
-205.2296513335418
 31
0.0
  0
ARC
  5
7FE
330
6B
100
AcDbEntity
  8
0
 62
     3
100
AcDbCircle
 10
-297.4090037887369
 20
-203.8205444735417
 30
0.0
 40
1.71170957
100
AcDbArc
 50
304.5919552700032
 51
55.40804472999678
  0
LINE
  5
7FF
330
6B
100
AcDbEntity
  8
0
 62
     3
100
AcDbLine
 10
-296.1367303887369
 20
-201.7436680935416
 30
0.0
 11
-298.1210309487368
 21
-201.7436680935416
 31
0.0
  0
LINE
  5
800
330
6B
100
AcDbEntity
  8
0
 62
     3
100
AcDbLine
 10
-298.1210309487368
 20
-201.7436680935416
 30
0.0
 11
-298.1210309487368
 21
-201.9552292335416
 31
0.0
  0
LINE
  5
801
330
6B
100
AcDbEntity
  8
0
 62
     3
100
AcDbLine
 10
-300.2649007787369
 20
-205.6858597035418
 30
0.0
 11
-300.2649007787369
 21
-205.8974208535418
 31
0.0
  0
LINE
  5
802
330
6B
100
AcDbEntity
  8
0
 62
     3
100
AcDbLine
 10
-296.6272670187369
 20
-202.4114376135417
 30
0.0
 11
-296.4372180487369
 21
-202.4114376135417
 31
0.0
  0
LINE
  5
803
330
6B
100
AcDbEntity
  8
0
 62
     3
100
AcDbLine
 10
-308.2704266787368
 20
-205.6858597035418
 30
0.0
 11
-308.2704303687369
 21
-205.8974406235418
 31
0.0
  0
LINE
  5
804
330
6B
100
AcDbEntity
  8
0
 62
     3
100
AcDbLine
 10
-310.1999422087369
 20
-205.8974010835417
 30
0.0
 11
-308.2704303687369
 21
-205.8974347535418
 31
0.0
  0
LINE
  5
805
330
6B
100
AcDbEntity
  8
0
 62
     3
100
AcDbLine
 10
-314.4963240587369
 20
-205.8974208535418
 30
0.0
 11
-312.9570587287369
 21
-205.8974208535418
 31
0.0
  0
ARC
  5
806
330
6B
100
AcDbEntity
  8
0
 62
     3
100
AcDbCircle
 10
-319.4782667387368
 20
-203.7716378435416
 30
0.0
 40
14.71356563
100
AcDbArc
 50
353.8660061899987
 51
357.69403426
  0
LINE
  5
807
330
6B
100
AcDbEntity
  8
0
 62
     3
100
AcDbLine
 10
-305.7616868787369
 20
-204.3600055035418
 30
0.0
 11
-304.7766159887369
 21
-204.3636503735418
 31
0.0
  0
LINE
  5
809
330
6B
100
AcDbEntity
  8
0
 62
     3
100
AcDbLine
 10
-305.7577084587369
 20
-203.2847907535418
 30
0.0
 11
-304.772637578737
 21
-203.2884356335416
 31
0.0
  0
ARC
  5
80A
330
6B
100
AcDbEntity
  8
0
 62
     3
100
AcDbCircle
 10
-319.4782667387368
 20
-203.7716378435416
 30
0.0
 40
14.71356563
100
AcDbArc
 50
1.881965739998051
 51
5.709993810001195
  0
LINE
  5
80B
330
6B
100
AcDbEntity
  8
0
 62
     3
100
AcDbLine
 10
-308.2703578787368
 20
-201.7436878635418
 30
0.0
 11
-308.2703615687369
 21
-201.9552292335416
 31
0.0
  0
LINE
  5
80C
330
6B
100
AcDbEntity
  8
0
 62
     3
100
AcDbLine
 10
-310.199869708737
 20
-201.7436483235417
 30
0.0
 11
-308.2703578787368
 21
-201.7436819935416
 31
0.0
  0
LINE
  5
80D
330
6B
100
AcDbEntity
  8
0
 62
     3
100
AcDbLine
 10
-310.1999385187369
 20
-205.6858597035418
 30
0.0
 11
-310.1999422087369
 21
-205.8974010835417
 31
0.0
  0
LINE
  5
80E
330
6B
100
AcDbEntity
  8
0
 62
     3
100
AcDbLine
 10
-310.199869708737
 20
-201.7436483235417
 30
0.0
 11
-310.1998734087369
 21
-201.9552292335416
 31
0.0
  0
LINE
  5
80F
330
6B
100
AcDbEntity
  8
0
 62
     3
100
AcDbLine
 10
-312.9570587287369
 20
-205.6858597035418
 30
0.0
 11
-312.9570587287369
 21
-205.8974208535418
 31
0.0
  0
LINE
  5
810
330
6B
100
AcDbEntity
  8
0
 62
     3
100
AcDbLine
 10
-313.3928066387368
 20
-203.4615327535417
 30
0.0
 11
-311.8703765787369
 21
-205.8974208535418
 31
0.0
  0
LINE
  5
811
330
6B
100
AcDbEntity
  8
0
 62
     3
100
AcDbLine
 10
-311.8703765787369
 20
-205.8974208535418
 30
0.0
 11
-310.8509438587369
 21
-205.8974208535418
 31
0.0
  0
LINE
  5
812
330
6B
100
AcDbEntity
  8
0
 62
     3
100
AcDbLine
 10
-310.4151959487369
 20
-201.7436680935416
 30
0.0
 11
-310.4151959487369
 21
-201.9552292335416
 31
0.0
  0
LINE
  5
813
330
6B
100
AcDbEntity
  8
0
 62
     3
100
AcDbLine
 10
-311.954461278737
 20
-201.7436680935416
 30
0.0
 11
-310.4151959487369
 21
-201.7436680935416
 31
0.0
  0
LINE
  5
814
330
6B
100
AcDbEntity
  8
0
 62
     3
100
AcDbLine
 10
-311.954461278737
 20
-201.7436680935416
 30
0.0
 11
-311.954461278737
 21
-201.9552292335416
 31
0.0
  0
LINE
  5
815
330
6B
100
AcDbEntity
  8
0
 62
     3
100
AcDbLine
 10
-311.5187133687368
 20
-203.6250344335418
 30
0.0
 11
-312.7533600387369
 21
-201.7436680935416
 31
0.0
  0
LINE
  5
816
330
6B
100
AcDbEntity
  8
0
 62
     3
100
AcDbLine
 10
-314.4963240587369
 20
-201.7436680935416
 30
0.0
 11
-312.7533600387369
 21
-201.7436680935416
 31
0.0
  0
LINE
  5
817
330
6B
100
AcDbEntity
  8
0
 62
     3
100
AcDbLine
 10
-304.5801096987369
 20
-201.7437668035418
 30
0.0
 11
-302.6278471587369
 21
-201.7437668035418
 31
0.0
  0
LINE
  5
818
330
6B
100
AcDbEntity
  8
0
 62
     3
100
AcDbLine
 10
-304.5801096987369
 20
-201.9552292335416
 30
0.0
 11
-304.5801096987369
 21
-201.7437668035418
 31
0.0
  0
LINE
  5
819
330
6B
100
AcDbEntity
  8
0
 62
     3
100
AcDbLine
 10
-304.5801096987369
 20
-205.8975195635417
 30
0.0
 11
-304.5801096987369
 21
-205.6858597035418
 31
0.0
  0
LINE
  5
81A
330
6B
100
AcDbEntity
  8
0
 62
     3
100
AcDbLine
 10
-304.5801096987369
 20
-205.8975195635417
 30
0.0
 11
-302.6278471587369
 21
-205.8975195635417
 31
0.0
  0
LINE
  5
81B
330
6B
100
AcDbEntity
  8
0
 62
     3
100
AcDbLine
 10
-302.4241208687369
 20
-205.6858597035418
 30
0.0
 11
-302.4241208687369
 21
-205.8975195635417
 31
0.0
  0
LINE
  5
81C
330
6B
100
AcDbEntity
  8
0
 62
     3
100
AcDbLine
 10
-302.6278471587369
 20
-205.6858597035418
 30
0.0
 11
-302.6278471587369
 21
-205.8975195635417
 31
0.0
  0
LINE
  5
81D
330
6B
100
AcDbEntity
  8
0
 62
     3
100
AcDbLine
 10
-302.6278471587369
 20
-201.9552292335416
 30
0.0
 11
-302.6278471587369
 21
-201.7437668035418
 31
0.0
  0
LINE
  5
81E
330
6B
100
AcDbEntity
  8
0
 62
     3
100
AcDbLine
 10
-302.4241208687369
 20
-201.9552292335416
 30
0.0
 11
-302.4241208687369
 21
-201.7437668035418
 31
0.0
  0
LINE
  5
81F
330
6B
100
AcDbEntity
  8
0
 62
     3
100
AcDbLine
 10
-314.4963240587369
 20
-205.6858597035418
 30
0.0
 11
-314.4963240587369
 21
-205.8974208535418
 31
0.0
  0
LINE
  5
820
330
6B
100
AcDbEntity
  8
0
 62
     3
100
AcDbLine
 10
-314.4963240587369
 20
-201.7436680935416
 30
0.0
 11
-314.4963240587369
 21
-201.9552292335416
 31
0.0
  0
ARC
  5
821
330
6B
100
AcDbEntity
  8
0
 62
     3
100
AcDbCircle
 10
-295.9267303887369
 20
-203.3847965635416
 30
0.0
 40
1.641128469999999
100
AcDbArc
 50
17.3087489800011
 51
23.76507095999727
  0
ARC
  5
822
330
6B
100
AcDbEntity
  8
0
 62
     3
100
AcDbCircle
 10
-297.3250037887368
 20
-203.8205444735417
 30
0.0
 40
3.105725599999998
100
AcDbArc
 50
342.6912510199989
 51
17.30856644000025
  0
ARC
  5
823
330
6B
100
AcDbEntity
  8
0
 62
     3
100
AcDbCircle
 10
-295.9267303887369
 20
-204.2562923735416
 30
0.0
 40
1.641128469999999
100
AcDbArc
 50
336.2349290399968
 51
342.6912510199989
  0
ARC
  5
824
330
6B
100
AcDbEntity
  8
0
 62
     3
100
AcDbCircle
 10
-296.1367303887369
 20
-203.3847965635416
 30
0.0
 40
1.641128469999999
100
AcDbArc
 50
17.3087489800011
 51
90.0
  0
ARC
  5
825
330
6B
100
AcDbEntity
  8
0
 62
     3
100
AcDbCircle
 10
-297.5350037887369
 20
-203.8205444735417
 30
0.0
 40
3.105725599999998
100
AcDbArc
 50
342.6912510199989
 51
17.30856644000025
  0
ARC
  5
826
330
6B
100
AcDbEntity
  8
0
 62
     3
100
AcDbCircle
 10
-296.1367303887369
 20
-204.2562923735416
 30
0.0
 40
1.641128469999999
100
AcDbArc
 50
270.0
 51
342.6912510199989
  0
ARC
  5
827
330
6B
100
AcDbEntity
  8
0
 62
     3
100
AcDbCircle
 10
-306.2606707587371
 20
-203.8205444735417
 30
0.0
 40
2.076876379999998
100
AcDbArc
 50
46.75287961000178
 51
89.74999828999569
  0
ARC
  5
828
330
6B
100
AcDbEntity
  8
0
 62
     3
100
AcDbCircle
 10
-306.2606707587371
 20
-203.8205444735417
 30
0.0
 40
2.076876379999998
100
AcDbArc
 50
273.976333149997
 51
312.8231203899991
  0
ARC
  5
829
330
6B
100
AcDbEntity
  8
0
 62
     3
100
AcDbCircle
 10
-294.8188628187369
 20
-203.8526060035418
 30
0.0
 40
2.755888999999998
100
AcDbArc
 50
0.6665840600014417
 51
23.90392827000101
  0
ARC
  5
82A
330
6B
100
AcDbEntity
  8
0
 62
     3
100
AcDbCircle
 10
-290.9033005387369
 20
-203.8526060035418
 30
0.0
 40
2.755888999999998
100
AcDbArc
 50
156.096071729999
 51
179.3334159399985
  0
ARC
  5
82B
330
6B
100
AcDbEntity
  8
0
 62
     3
100
AcDbCircle
 10
-294.8188628187369
 20
-203.7884829435416
 30
0.0
 40
2.755888999999998
100
AcDbArc
 50
336.096071729999
 51
359.3334159399987
  0
ARC
  5
82C
330
6B
100
AcDbEntity
  8
0
 62
     3
100
AcDbCircle
 10
-290.9033005387369
 20
-203.7884829435416
 30
0.0
 40
2.755888999999998
100
AcDbArc
 50
180.6665840599982
 51
203.903928270001
  0
LINE
  5
82D
330
6B
100
AcDbEntity
  8
0
 62
     3
100
AcDbLine
 10
-320.3265405187369
 20
-203.7885569535416
 30
0.0
 11
-441.0829853387368
 21
-203.7885569535416
 31
0.0
  0
LINE
  5
82E
330
6B
100
AcDbEntity
  8
0
 62
     3
100
AcDbLine
 10
-164.0829853387369
 20
-203.7885569535416
 30
0.0
 11
-285.5214472787369
 21
-203.7885569535416
 31
0.0
  0
LINE
  5
82F
330
6B
100
AcDbEntity
  8
0
 62
     3
100
AcDbLine
 10
-216.0829853387371
 20
-383.7885569535418
 30
0.0
 11
-216.0829853387371
 21
-343.7885569535418
 31
0.0
  0
LINE
  5
830
330
6B
100
AcDbEntity
  8
0
 62
     3
100
AcDbLine
 10
-203.0829853387369
 20
-373.7885569535418
 30
0.0
 11
-203.0829853387369
 21
-343.7885569535418
 31
0.0
  0
LINE
  5
831
330
6B
100
AcDbEntity
  8
0
 62
     3
100
AcDbLine
 10
-243.0829853387371
 20
-373.7885569535418
 30
0.0
 11
-243.0829853387371
 21
-359.7885569535418
 31
0.0
  0
LINE
  5
832
330
6B
100
AcDbEntity
  8
0
 62
     3
100
AcDbLine
 10
-233.0829853387371
 20
-359.7885569535418
 30
0.0
 11
-233.0829853387371
 21
-383.7885569535418
 31
0.0
  0
LINE
  5
833
330
6B
100
AcDbEntity
  8
0
 62
     3
100
AcDbLine
 10
-262.0829853387371
 20
-343.7885569535418
 30
0.0
 11
-262.0829853387371
 21
-366.7885569535416
 31
0.0
  0
LINE
  5
834
330
6B
100
AcDbEntity
  8
0
 62
     3
100
AcDbLine
 10
-190.0829853387369
 20
-366.7885569535416
 30
0.0
 11
-190.0829853387369
 21
-343.7885569535418
 31
0.0
  0
LINE
  5
835
330
6B
100
AcDbEntity
  8
0
 62
     3
100
AcDbLine
 10
-164.0829853387369
 20
-343.7885569535418
 30
0.0
 11
-275.3284199787367
 21
-343.7885569535418
 31
0.0
  0
LINE
  5
836
330
6B
100
AcDbEntity
  8
0
 62
     3
100
AcDbLine
 10
-164.0829853387369
 20
-352.7885569535418
 30
0.0
 11
-275.328419978737
 21
-352.7885569535416
 31
0.0
  0
LINE
  5
837
330
6B
100
AcDbEntity
  8
0
 62
     3
100
AcDbLine
 10
-164.0829853387369
 20
-366.7885569535416
 30
0.0
 11
-275.328419978737
 21
-366.7885569535416
 31
0.0
  0
LINE
  5
838
330
6B
100
AcDbEntity
  8
0
 62
     3
100
AcDbLine
 10
-164.0829853387369
 20
-373.7885569535418
 30
0.0
 11
-275.386427838737
 21
-373.7885569535418
 31
0.0
  0
LINE
  5
839
330
6B
100
AcDbEntity
  8
0
 62
     3
100
AcDbLine
 10
-177.0829853387369
 20
-366.7885569535416
 30
0.0
 11
-177.0829853387369
 21
-343.7885569535418
 31
0.0
  0
LINE
  5
83A
330
6B
100
AcDbEntity
  8
0
 62
     3
100
AcDbLine
 10
-275.328419978737
 20
-343.7885569535418
 30
0.0
 11
-275.328419978737
 21
-383.7885569535418
 31
0.0
  0
LINE
  5
83B
330
6B
100
AcDbEntity
  8
0
 62
     3
100
AcDbLine
 10
-216.0829853387371
 20
-359.7885569535418
 30
0.0
 11
-275.328419978737
 21
-359.7885569535418
 31
0.0
  0
LINE
  5
83C
330
6B
100
AcDbEntity
  8
0
 62
     3
100
AcDbLine
 10
-232.8046604087369
 20
-378.9556956935417
 30
0.0
 11
-216.0829853387371
 21
-378.9556956935417
 31
0.0
  0
TEXT
  5
83D
330
6B
100
AcDbEntity
  8
0
 62
     3
100
AcDbText
 10
-231.9186599254212
 20
-364.7154601001763
 30
0.0
 40
2.5
  1
耐熱グレード
 41
0.8
  7
高2.5
100
AcDbText
  0
TEXT
  5
83E
330
6B
100
AcDbEntity
  8
0
 62
     3
100
AcDbText
 10
-260.8866166434848
 20
-364.4907425485579
 30
0.0
 40
2.5
  1
ABS樹脂
  7
高2.5
100
AcDbText
  0
TEXT
  5
83F
330
6B
100
AcDbEntity
  8
0
 62
     3
100
AcDbText
 10
-260.6217088887872
 20
-351.4763074297838
 30
0.0
 40
4.5
  1
2芯コンセント（白）
 41
0.8
  7
高4.5
100
AcDbText
1001
ACAD
1000
ACAD_MTEXT_DEFINED_HEIGHT_BEGIN
1070
    46
1040
0.0
1000
ACAD_MTEXT_DEFINED_HEIGHT_END
  0
TEXT
  5
840
330
6B
100
AcDbEntity
  8
0
 62
     3
100
AcDbText
 10
-174.0173962452629
 20
-347.2748648548381
 30
0.0
 40
2.0
  1
DEF
  7
高2
100
AcDbText
  0
TEXT
  5
841
330
6B
100
AcDbEntity
  8
0
 62
     3
100
AcDbText
 10
-187.9564945989711
 20
-347.2748648548381
 30
0.0
 40
2.0
  1
DESN
  7
高2
100
AcDbText
  0
TEXT
  5
842
330
6B
100
AcDbEntity
  8
0
 62
     3
100
AcDbText
 10
-214.2108615389713
 20
-347.2748648548381
 30
0.0
 40
2.0
  1
APPD
  7
高2
100
AcDbText
  0
TEXT
  5
843
330
6B
100
AcDbEntity
  8
0
 62
     3
100
AcDbText
 10
-201.098125438737
 20
-347.2748648548381
 30
0.0
 40
2.0
  1
CHCK
  7
高2
100
AcDbText
  0
TEXT
  5
844
330
6B
100
AcDbEntity
  8
0
 62
     3
100
AcDbText
 10
-242.1558196995843
 20
-369.6201581303112
 30
0.0
 40
2.0
  1
SCALE
 41
0.8
  7
高2
100
AcDbText
  0
TEXT
  5
845
330
6B
100
AcDbEntity
  8
0
 62
     3
100
AcDbText
 10
-273.6438412756909
 20
-369.6201581303112
 30
0.0
 40
2.0
  1
3AD　ANGLE
 41
1.5
  7
高2
100
AcDbText
  0
TEXT
  5
846
330
6B
100
AcDbEntity
  8
0
 62
     3
100
AcDbText
 10
-242.8864140087355
 20
-362.8686200613539
 30
0.0
 40
2.0
  1
REMARKS
 41
0.7
  7
高2
100
AcDbText
  0
TEXT
  5
847
330
6B
100
AcDbEntity
  8
0
 62
     3
100
AcDbText
 10
-273.860749628737
 20
-362.7885569535416
 30
0.0
 40
2.0
  1
MATERIAL
 41
0.7
  7
高2
100
AcDbText
  0
TEXT
  5
848
330
6B
100
AcDbEntity
  8
0
 62
     3
100
AcDbText
 10
-273.2842624259829
 20
-355.7885569535418
 30
0.0
 40
2.0
  1
MODEL
  7
高2
100
AcDbText
  0
TEXT
  5
849
330
6B
100
AcDbEntity
  8
0
 62
     3
100
AcDbText
 10
-273.6473415446516
 20
-347.0815356029427
 30
0.0
 40
2.0
  1
CONPONENTS
 41
0.5
  7
高2
100
AcDbText
  0
TEXT
  5
84A
330
6B
100
AcDbEntity
  8
0
 62
     3
100
AcDbText
 10
-260.9402260734849
 20
-358.7010758257298
 30
0.0
 40
4.5
  1
2PO-W
  7
高4.5
100
AcDbText
  0
TEXT
  5
84B
330
6B
100
AcDbEntity
  8
0
 62
     3
100
AcDbText
 10
-213.0179396081184
 20
-381.7500955581761
 30
0.0
 40
6.299999999999998
  1
2PO-W
  7
高6.3
100
AcDbText
1001
ACAD
1000
ACAD_MTEXT_DEFINED_HEIGHT_BEGIN
1070
    46
1040
0.0
1000
ACAD_MTEXT_DEFINED_HEIGHT_END
  0
TEXT
  5
84C
330
6B
100
AcDbEntity
  8
0
 62
     3
100
AcDbText
 10
-199.5194755884074
 20
-372.6876677953086
 30
0.0
 40
3.2
  1
1994.4.15
  7
高3.2
100
AcDbText
1001
ACAD
1000
ACAD_MTEXT_DEFINED_HEIGHT_BEGIN
1070
    46
1040
0.0
1000
ACAD_MTEXT_DEFINED_HEIGHT_END
  0
TEXT
  5
84D
330
6B
100
AcDbEntity
  8
0
 62
     3
100
AcDbText
 10
-229.2953874440907
 20
-372.6876399509738
 30
0.0
 40
3.2
  1
1/1
  7
高3.2
100
AcDbText
  0
TEXT
  5
84E
330
6B
100
AcDbEntity
  8
0
 62
     3
100
AcDbText
 10
-232.2180584687369
 20
-382.9716787804058
 30
0.0
 40
3.2
  1
ZK-A4X
 41
0.8
  7
高3.2
100
AcDbText
  0
TEXT
  5
84F
330
6B
100
AcDbEntity
  8
0
 62
     3
100
AcDbText
 10
-274.4977189387372
 20
-377.2639365313539
 30
0.0
 40
2.0
  1
NICHIDO IND.CO.LTD
 41
1.3
  7
高2
100
AcDbText
  0
TEXT
  5
850
330
6B
100
AcDbEntity
  8
0
 62
     3
100
AcDbText
 10
-273.3161956737797
 20
-351.6480287456568
 30
0.0
 40
3.2
  1
品 名
  7
高3.2
100
AcDbText
1001
ACAD
1000
ACAD_MTEXT_DEFINED_HEIGHT_BEGIN
1070
    46
1040
0.0
1000
ACAD_MTEXT_DEFINED_HEIGHT_END
  0
TEXT
  5
851
330
6B
100
AcDbEntity
  8
0
 62
     3
100
AcDbText
 10
-273.3161956737797
 20
-359.2885569535418
 30
0.0
 40
3.2
  1
型 式
  7
高3.2
100
AcDbText
1001
ACAD
1000
ACAD_MTEXT_DEFINED_HEIGHT_BEGIN
1070
    46
1040
3.064735913775953
1000
ACAD_MTEXT_DEFINED_HEIGHT_END
  0
TEXT
  5
852
330
6B
100
AcDbEntity
  8
0
 62
     3
100
AcDbText
 10
-273.3161956737797
 20
-366.2885569535416
 30
0.0
 40
3.2
  1
材 質
  7
高3.2
100
AcDbText
1001
ACAD
1000
ACAD_MTEXT_DEFINED_HEIGHT_BEGIN
1070
    46
1040
0.0
1000
ACAD_MTEXT_DEFINED_HEIGHT_END
  0
TEXT
  5
853
330
6B
100
AcDbEntity
  8
0
 62
     3
100
AcDbText
 10
-273.6212306237798
 20
-373.3211169612955
 30
0.0
 40
3.2
  1
第 三 角 法
  7
高3.2
100
AcDbText
1001
ACAD
1000
ACAD_MTEXT_DEFINED_HEIGHT_BEGIN
1070
    46
1040
0.0
1000
ACAD_MTEXT_DEFINED_HEIGHT_END
  0
TEXT
  5
854
330
6B
100
AcDbEntity
  8
0
 62
     3
100
AcDbText
 10
-275.2146980162509
 20
-382.6480287456568
 30
0.0
 40
3.2
  1
日動工業株式会社
 41
1.199999999999999
  7
高3.2
100
AcDbText
1001
ACAD
1000
ACAD_MTEXT_DEFINED_HEIGHT_BEGIN
1070
    46
1040
0.0
1000
ACAD_MTEXT_DEFINED_HEIGHT_END
  0
TEXT
  5
855
330
6B
100
AcDbEntity
  8
0
 62
     3
100
AcDbText
 10
-241.5790738167725
 20
-366.4039784203741
 30
0.0
 40
3.2
  1
備考
  7
高3.2
100
AcDbText
1001
ACAD
1000
ACAD_MTEXT_DEFINED_HEIGHT_BEGIN
1070
    46
1040
0.0
1000
ACAD_MTEXT_DEFINED_HEIGHT_END
  0
TEXT
  5
856
330
6B
100
AcDbEntity
  8
0
 62
     3
100
AcDbText
 10
-231.930016369737
 20
-377.6423269279713
 30
0.0
 40
2.5
  1
出図コード
  7
高2.5
100
AcDbText
1001
ACAD
1000
ACAD_MTEXT_DEFINED_HEIGHT_BEGIN
1070
    46
1040
0.0
1000
ACAD_MTEXT_DEFINED_HEIGHT_END
  0
TEXT
  5
857
330
6B
100
AcDbEntity
  8
0
 62
     3
100
AcDbText
 10
-241.7378399348599
 20
-373.3353220431288
 30
0.0
 40
3.2
  1
尺度
  7
高3.2
100
AcDbText
1001
ACAD
1000
ACAD_MTEXT_DEFINED_HEIGHT_BEGIN
1070
    46
1040
0.0
1000
ACAD_MTEXT_DEFINED_HEIGHT_END
  0
TEXT
  5
858
330
6B
100
AcDbEntity
  8
0
 62
     3
100
AcDbText
 10
-214.5915784530811
 20
-372.2038435950113
 30
0.0
 40
3.2
  1
作成日
  7
高3.2
100
AcDbText
1001
ACAD
1000
ACAD_MTEXT_DEFINED_HEIGHT_BEGIN
1070
    46
1040
0.0
1000
ACAD_MTEXT_DEFINED_HEIGHT_END
  0
TEXT
  5
859
330
6B
100
AcDbEntity
  8
0
 62
     3
100
AcDbText
 10
-214.697104446217
 20
-351.6480287456568
 30
0.0
 40
3.2
  1
承 認
  7
高3.2
100
AcDbText
1001
ACAD
1000
ACAD_MTEXT_DEFINED_HEIGHT_BEGIN
1070
    46
1040
0.0
1000
ACAD_MTEXT_DEFINED_HEIGHT_END
  0
TEXT
  5
85A
330
6B
100
AcDbEntity
  8
0
 62
     3
100
AcDbText
 10
-201.6971044462172
 20
-351.6480287456568
 30
0.0
 40
3.2
  1
検 図
  7
高3.2
100
AcDbText
1001
ACAD
1000
ACAD_MTEXT_DEFINED_HEIGHT_BEGIN
1070
    46
1040
0.0
1000
ACAD_MTEXT_DEFINED_HEIGHT_END
  0
TEXT
  5
85B
330
6B
100
AcDbEntity
  8
0
 62
     3
100
AcDbText
 10
-188.6971044462172
 20
-351.6480287456568
 30
0.0
 40
3.2
  1
設 計
  7
高3.2
100
AcDbText
1001
ACAD
1000
ACAD_MTEXT_DEFINED_HEIGHT_BEGIN
1070
    46
1040
0.0
1000
ACAD_MTEXT_DEFINED_HEIGHT_END
  0
TEXT
  5
85C
330
6B
100
AcDbEntity
  8
0
 62
     3
100
AcDbText
 10
-175.396467926217
 20
-351.6480287456568
 30
0.0
 40
3.2
  1
製 図
  7
高3.2
100
AcDbText
1001
ACAD
1000
ACAD_MTEXT_DEFINED_HEIGHT_BEGIN
1070
    46
1040
0.0
1000
ACAD_MTEXT_DEFINED_HEIGHT_END
  0
TEXT
  5
85D
330
6B
100
AcDbEntity
  8
0
 62
     3
100
AcDbText
 10
-176.5829853387369
 20
-213.2885569535417
 30
0.0
 40
3.2
  1
担　当
  7
高3.2
100
AcDbText
  0
TEXT
  5
85E
330
6B
100
AcDbEntity
  8
0
 62
     3
100
AcDbText
 10
-220.5829853387371
 20
-213.2885569535417
 30
0.0
 40
3.2
  1
変更・追記内容
  7
高3.2
100
AcDbText
  0
TEXT
  5
85F
330
6B
100
AcDbEntity
  8
0
 62
     3
100
AcDbText
 10
-245.4694703383977
 20
-217.9590954634499
 30
0.0
 40
2.0
  1
1
  7
高2
100
AcDbText
  0
TEXT
  5
860
330
6B
100
AcDbEntity
  8
0
 62
     3
100
AcDbText
 10
-245.777981815155
 20
-223.1289121757229
 30
0.0
 40
2.0
  1
2
  7
高2
100
AcDbText
  0
TEXT
  5
861
330
6B
100
AcDbEntity
  8
0
 62
     3
100
AcDbText
 10
-238.582985338737
 20
-213.2885569535417
 30
0.0
 40
3.2
  1
日　付
  7
高3.2
100
AcDbText
  0
TEXT
  5
862
330
6B
100
AcDbEntity
  8
0
 62
     3
100
AcDbText
 10
-238.582985338737
 20
-208.2885569535416
 30
0.0
 40
3.2
  1
図　　　　面　　　　略　　　　歴
  7
高3.2
100
AcDbText
  0
TEXT
  5
863
330
6B
100
AcDbEntity
  8
0
 62
     3
100
AcDbText
 10
-248.582985338737
 20
-213.2885569535417
 30
0.0
 40
3.2
  1
記号
  7
高3.2
100
AcDbText
  0
LINE
  5
864
330
6B
100
AcDbEntity
  8
0
 62
     7
100
AcDbLine
 10
-245.0829853387371
 20
-219.9976609535415
 30
0.0
 11
-246.9829853387369
 21
-223.2885569535417
 31
0.0
  0
LINE
  5
865
330
6B
100
AcDbEntity
  8
0
 62
     7
100
AcDbLine
 10
-245.0829853387371
 20
-219.9976609535415
 30
0.0
 11
-243.1829853387371
 21
-223.2885569535417
 31
0.0
  0
LINE
  5
866
330
6B
100
AcDbEntity
  8
0
 62
     7
100
AcDbLine
 10
-246.9829853387369
 20
-223.2885569535417
 30
0.0
 11
-243.1829853387371
 21
-223.2885569535417
 31
0.0
  0
LINE
  5
867
330
6B
100
AcDbEntity
  8
0
 62
     7
100
AcDbLine
 10
-245.0829853387371
 20
-214.9976599535416
 30
0.0
 11
-246.9829853387369
 21
-218.2885569535416
 31
0.0
  0
LINE
  5
868
330
6B
100
AcDbEntity
  8
0
 62
     7
100
AcDbLine
 10
-245.0829853387371
 20
-214.9976599535416
 30
0.0
 11
-243.1829853387371
 21
-218.2885569535416
 31
0.0
  0
LINE
  5
869
330
6B
100
AcDbEntity
  8
0
 62
     7
100
AcDbLine
 10
-246.9829853387369
 20
-218.2885569535416
 30
0.0
 11
-243.1829853387371
 21
-218.2885569535416
 31
0.0
  0
LINE
  5
86A
330
6B
100
AcDbEntity
  8
0
 62
     3
100
AcDbLine
 10
-250.082985338737
 20
-208.7885569535417
 30
0.0
 11
-164.0829853387369
 21
-208.7885569535417
 31
0.0
  0
LINE
  5
86B
330
6B
100
AcDbEntity
  8
0
 62
     3
100
AcDbLine
 10
-250.082985338737
 20
-213.7885569535416
 30
0.0
 11
-164.0829853387369
 21
-213.7885569535416
 31
0.0
  0
LINE
  5
86C
330
6B
100
AcDbEntity
  8
0
 62
     7
100
AcDbLine
 10
-250.082985338737
 20
-218.7885569535417
 30
0.0
 11
-164.0829853387369
 21
-218.7885569535417
 31
0.0
  0
LINE
  5
86D
330
6B
100
AcDbEntity
  8
0
 62
     3
100
AcDbLine
 10
-250.082985338737
 20
-223.7885569535418
 30
0.0
 11
-164.0829853387369
 21
-223.7885569535418
 31
0.0
  0
LINE
  5
86E
330
6B
100
AcDbEntity
  8
0
 62
     7
100
AcDbLine
 10
-178.082985338737
 20
-223.7885569535418
 30
0.0
 11
-178.0829853387369
 21
-208.7885569535417
 31
0.0
  0
LINE
  5
86F
330
6B
100
AcDbEntity
  8
0
 62
     7
100
AcDbLine
 10
-222.0829853387371
 20
-223.7885569535418
 30
0.0
 11
-222.0829853387371
 21
-208.7885569535417
 31
0.0
  0
LINE
  5
870
330
6B
100
AcDbEntity
  8
0
 62
     7
100
AcDbLine
 10
-240.0829853387369
 20
-223.7885569535418
 30
0.0
 11
-240.0829853387369
 21
-208.7885569535417
 31
0.0
  0
LINE
  5
871
330
6B
100
AcDbEntity
  8
0
 62
     3
100
AcDbLine
 10
-250.082985338737
 20
-223.7885569535418
 30
0.0
 11
-250.082985338737
 21
-203.7885569535416
 31
0.0
  0
LINE
  5
872
330
6B
100
AcDbEntity
  8
0
 62
     3
100
AcDbLine
 10
-385.1771697671773
 20
-298.8343367528677
 30
0.0
 11
-385.1771697671773
 21
-291.8343374681236
 31
0.0
  0
LINE
  5
873
330
6B
100
AcDbEntity
  8
0
 62
     3
100
AcDbLine
 10
-385.1771697671773
 20
-259.834335948205
 30
0.0
 11
-385.1771697671773
 21
-252.8343366634608
 31
0.0
  0
LINE
  5
874
330
6B
100
AcDbEntity
  8
0
 62
     3
100
AcDbLine
 10
-384.550061848915
 20
-291.8343374681236
 30
0.0
 11
-384.550061848915
 21
-298.8343367528677
 31
0.0
  0
LINE
  5
875
330
6B
100
AcDbEntity
  8
0
 62
     3
100
AcDbLine
 10
-384.550061848915
 20
-252.8343366634608
 30
0.0
 11
-384.550061848915
 21
-259.834335948205
 31
0.0
  0
ARC
  5
876
330
6B
100
AcDbEntity
  8
0
 62
     3
100
AcDbCircle
 10
-387.7684010176379
 20
-256.3343367081643
 30
0.0
 40
2.599999999999965
100
AcDbArc
 50
355.2930409772563
 51
4.706959022743756
  0
ARC
  5
877
330
6B
100
AcDbEntity
  8
0
 62
     3
100
AcDbCircle
 10
-387.7684010176379
 20
-295.3343367081643
 30
0.0
 40
2.599999999999969
100
AcDbArc
 50
355.2930409772563
 51
4.706959022743756
  0
LINE
  5
878
330
6B
100
AcDbEntity
  8
0
 62
     3
100
AcDbLine
 10
-372.4771699206594
 20
-298.8343367528677
 30
0.0
 11
-372.4771699206594
 21
-291.8343374681236
 31
0.0
  0
LINE
  5
879
330
6B
100
AcDbEntity
  8
0
 62
     3
100
AcDbLine
 10
-371.850062002397
 20
-291.8343374681236
 30
0.0
 11
-371.850062002397
 21
-298.8343367528677
 31
0.0
  0
LINE
  5
87A
330
6B
100
AcDbEntity
  8
0
 62
     3
100
AcDbLine
 10
-371.850062002397
 20
-252.8343366634608
 30
0.0
 11
-371.850062002397
 21
-259.834335948205
 31
0.0
  0
LINE
  5
87B
330
6B
100
AcDbEntity
  8
0
 62
     3
100
AcDbLine
 10
-372.4771699206594
 20
-259.834335948205
 30
0.0
 11
-372.4771699206594
 21
-252.8343366634608
 31
0.0
  0
LINE
  5
87E
330
6B
100
AcDbEntity
  8
0
 62
     7
100
AcDbLine
 10
-387.3636157521668
 20
-251.3343373489142
 30
0.0
 11
-387.3636157521668
 21
-261.3343371253969
 31
0.0
  0
LINE
  5
87F
330
6B
100
AcDbEntity
  8
0
 62
     7
100
AcDbLine
 10
-384.3636157260899
 20
-249.3343370210886
 30
0.0
 11
-385.3636158900027
 21
-249.3343370210886
 31
0.0
  0
LINE
  5
880
330
6B
100
AcDbEntity
  8
0
 62
     7
100
AcDbLine
 10
-385.3636158900027
 20
-263.3343365218998
 30
0.0
 11
-384.3636157260899
 21
-263.3343365218998
 31
0.0
  0
LINE
  5
881
330
6B
100
AcDbEntity
  8
0
 62
     7
100
AcDbLine
 10
-382.3636158639255
 20
-261.3343371253969
 30
0.0
 11
-382.3636158639255
 21
-251.3343373489142
 31
0.0
  0
SPLINE
  5
882
330
6B
100
AcDbEntity
  8
0
 62
     7
100
AcDbSpline
210
0.0
220
0.0
230
1.0
 70
     8
 71
     3
 72
    16
 73
    12
 74
     0
 42
0.0000000001
 43
0.0000000001
 40
0.0
 40
0.0
 40
0.0
 40
0.0
 40
0.1074000985055109
 40
0.2148000842401073
 40
0.3222003333667452
 40
0.4296001200975562
 40
0.5370004218126621
 40
0.6444005081245085
 40
0.7518005069895645
 40
0.8592003923915253
 40
1.0
 40
1.0
 40
1.0
 40
1.0
 10
-371.6636158795719
 20
-249.3343370210886
 30
0.0
 10
-371.5511824739733
 20
-249.3399398999159
 30
0.0
 10
-371.326315780832
 20
-249.3511456516877
 30
0.0
 10
-370.998391238182
 20
-249.4386185330859
 30
0.0
 10
-370.6897467139019
 20
-249.576855872851
 30
0.0
 10
-370.4081531568164
 20
-249.7650669372431
 30
0.0
 10
-370.1630203657131
 20
-249.9984487482763
 30
0.0
 10
-369.9592874253434
 20
-250.2690423273861
 30
0.0
 10
-369.8061160127186
 20
-250.5705018228984
 30
0.0
 10
-369.6891908362165
 20
-250.9265600427326
 30
0.0
 10
-369.6728729140103
 20
-251.1867409030339
 30
0.0
 10
-369.6636160174076
 20
-251.3343373489142
 30
0.0
  0
SPLINE
  5
883
330
6B
100
AcDbEntity
  8
0
 62
     7
100
AcDbSpline
210
0.0
220
0.0
230
1.0
 70
     8
 71
     3
 72
    16
 73
    12
 74
     0
 42
0.0000000001
 43
0.0000000001
 40
0.0
 40
0.0
 40
0.0
 40
0.0
 40
0.107400246395408
 40
0.2148004377524664
 40
0.3222004361217338
 40
0.4296004768077994
 40
0.5370004781641296
 40
0.6444005113608493
 40
0.7518006519533829
 40
0.8592008266881199
 40
1.0
 40
1.0
 40
1.0
 40
1.0
 10
-374.6636159056488
 20
-251.3343373489142
 30
0.0
 10
-374.658013220251
 20
-251.2219037549799
 30
0.0
 10
-374.6468078523265
 20
-250.9970366247287
 30
0.0
 10
-374.5593335400323
 20
-250.6691124626389
 30
0.0
 10
-374.4210979838767
 20
-250.360466813895
 30
0.0
 10
-374.2328846469392
 20
-250.0788752400694
 30
0.0
 10
-373.9995050954263
 20
-249.8337404972203
 30
0.0
 10
-373.7289099523322
 20
-249.6300099311284
 30
0.0
 10
-373.4274512184314
 20
-249.4768364861847
 30
0.0
 10
-373.0713925740948
 20
-249.3599122794835
 30
0.0
 10
-372.8112119731694
 20
-249.3435940620322
 30
0.0
 10
-372.6636160434845
 20
-249.3343370210886
 30
0.0
  0
SPLINE
  5
884
330
6B
100
AcDbEntity
  8
0
 62
     7
100
AcDbSpline
210
0.0
220
0.0
230
1.0
 70
     8
 71
     3
 72
    16
 73
    12
 74
     0
 42
0.0000000001
 43
0.0000000001
 40
0.0
 40
0.0
 40
0.0
 40
0.0
 40
0.1073999476625295
 40
0.2148001734888019
 40
0.3222001877920374
 40
0.4296003269654118
 40
0.5370002420375961
 40
0.6444005880365232
 40
0.7518006091316988
 40
0.8592006582820836
 40
1.0
 40
1.0
 40
1.0
 40
1.0
 10
-369.6636160174076
 20
-261.3343371253969
 30
0.0
 10
-369.6692184047689
 20
-261.446770419465
 30
0.0
 10
-369.6804231940016
 20
-261.6716372988011
 30
0.0
 10
-369.7678980714032
 20
-261.9995610157821
 30
0.0
 10
-369.9061333488578
 20
-262.3082068968533
 30
0.0
 10
-370.0943473319191
 20
-262.5897980465091
 30
0.0
 10
-370.3277266858429
 20
-262.8349332222153
 30
0.0
 10
-370.598321376035
 20
-263.0386646944818
 30
0.0
 10
-370.8997808682812
 20
-263.191836711244
 30
0.0
 10
-371.2558391067505
 20
-263.3087614935754
 30
0.0
 10
-371.5160197658277
 20
-263.3250795581854
 30
0.0
 10
-371.6636158795719
 20
-263.3343365218998
 30
0.0
  0
SPLINE
  5
885
330
6B
100
AcDbEntity
  8
0
 62
     7
100
AcDbSpline
210
0.0
220
0.0
230
1.0
 70
     8
 71
     3
 72
    16
 73
    12
 74
     0
 42
0.0000000001
 43
0.0000000001
 40
0.0
 40
0.0
 40
0.0
 40
0.0
 40
0.1074001046273294
 40
0.2148001958078063
 40
0.3222002191861204
 40
0.4296004907831121
 40
0.5370004149303666
 40
0.6444006809345627
 40
0.7518007111048175
 40
0.8592009332231436
 40
1.0
 40
1.0
 40
1.0
 40
1.0
 10
-372.6636160434845
 20
-263.3343365218998
 30
0.0
 10
-372.7760494968417
 20
-263.3287341598826
 30
0.0
 10
-373.0009163894787
 20
-263.3175294365496
 30
0.0
 10
-373.3288400765157
 20
-263.2300543942449
 30
0.0
 10
-373.6374858869579
 20
-263.0918190677103
 30
0.0
 10
-373.9190773546223
 20
-262.9036053449844
 30
0.0
 10
-374.1642126364214
 20
-262.670225983177
 30
0.0
 10
-374.3679435602123
 20
-262.3996310089851
 30
0.0
 10
-374.5211157095581
 20
-262.0981715264333
 30
0.0
 10
-374.6380405034475
 20
-261.7421134232738
 30
0.0
 10
-374.6543588157155
 20
-261.4819329220309
 30
0.0
 10
-374.6636159056488
 20
-261.3343371253969
 30
0.0
  0
SPLINE
  5
886
330
6B
100
AcDbEntity
  8
0
 62
     7
100
AcDbSpline
210
0.0
220
0.0
230
1.0
 70
     8
 71
     3
 72
    16
 73
    12
 74
     0
 42
0.0000000001
 43
0.0000000001
 40
0.0
 40
0.0
 40
0.0
 40
0.0
 40
0.1073999777958891
 40
0.2148001963328242
 40
0.3222002218819195
 40
0.4296002897478238
 40
0.5370003182839822
 40
0.6444005568002829
 40
0.7518005891413189
 40
0.8592007910559285
 40
1.0
 40
1.0
 40
1.0
 40
1.0
 10
-382.3636158639255
 20
-261.3343371253969
 30
0.0
 10
-382.369218572516
 20
-261.4467704057136
 30
0.0
 10
-382.3804240022557
 20
-261.6716372183706
 30
0.0
 10
-382.4678982245696
 20
-261.9995610859448
 30
0.0
 10
-382.6061338008817
 20
-262.3082067076353
 30
0.0
 10
-382.7943470668723
 20
-262.589798383156
 30
0.0
 10
-383.0277270110481
 20
-262.8349328818093
 30
0.0
 10
-383.2983212372969
 20
-263.0386648577843
 30
0.0
 10
-383.5997808617798
 20
-263.1918367863156
 30
0.0
 10
-383.955839135541
 20
-263.3087613713816
 30
0.0
 10
-384.2160197747102
 20
-263.3250795200024
 30
0.0
 10
-384.3636157260899
 20
-263.3343365218998
 30
0.0
  0
SPLINE
  5
887
330
6B
100
AcDbEntity
  8
0
 62
     7
100
AcDbSpline
210
0.0
220
0.0
230
1.0
 70
     8
 71
     3
 72
    16
 73
    12
 74
     0
 42
0.0000000001
 43
0.0000000001
 40
0.0
 40
0.0
 40
0.0
 40
0.0
 40
0.1074001060810805
 40
0.2148000993912385
 40
0.3222002207085276
 40
0.4296001383637666
 40
0.5370004476544566
 40
0.6444004524718567
 40
0.7518004589124756
 40
0.8592003742645463
 40
1.0
 40
1.0
 40
1.0
 40
1.0
 10
-384.3636157260899
 20
-249.3343370210886
 30
0.0
 10
-384.251182324173
 20
-249.3399399075066
 30
0.0
 10
-384.0263156383953
 20
-249.3511456744595
 30
0.0
 10
-383.6983911783099
 20
-249.4386184052428
 30
0.0
 10
-383.3897468632645
 20
-249.5768561405155
 30
0.0
 10
-383.1081530708973
 20
-249.7650667817965
 30
0.0
 10
-382.8630201865433
 20
-249.9984486241189
 30
0.0
 10
-382.6592877788735
 20
-250.2690424772963
 30
0.0
 10
-382.5061163512041
 20
-250.570501847035
 30
0.0
 10
-382.3891908738485
 20
-250.9265600087645
 30
0.0
 10
-382.3728728293188
 20
-251.1867408968565
 30
0.0
 10
-382.3636158639255
 20
-251.3343373489142
 30
0.0
  0
SPLINE
  5
888
330
6B
100
AcDbEntity
  8
0
 62
     7
100
AcDbSpline
210
0.0
220
0.0
230
1.0
 70
     8
 71
     3
 72
    16
 73
    12
 74
     0
 42
0.0000000001
 43
0.0000000001
 40
0.0
 40
0.0
 40
0.0
 40
0.0
 40
0.1074002162620532
 40
0.2148004149084231
 40
0.3222004020318097
 40
0.4296005140253035
 40
0.5370004019176641
 40
0.6444005425971751
 40
0.751800671943813
 40
0.8592006939143399
 40
1.0
 40
1.0
 40
1.0
 40
1.0
 10
-387.3636157521668
 20
-251.3343373489142
 30
0.0
 10
-387.3580133879984
 20
-251.2219037412285
 30
0.0
 10
-387.3468086605804
 20
-250.9970365442983
 30
0.0
 10
-387.2593336931989
 20
-250.6691125328015
 30
0.0
 10
-387.1210984359005
 20
-250.3604666246771
 30
0.0
 10
-386.9328843818924
 20
-250.0788755767164
 30
0.0
 10
-386.6995054206308
 20
-249.8337401568145
 30
0.0
 10
-386.4289098135941
 20
-249.6300100944317
 30
0.0
 10
-386.1274512119297
 20
-249.4768365612569
 30
0.0
 10
-385.7713926028855
 20
-249.35991215729
 30
0.0
 10
-385.5112119820518
 20
-249.3435940238494
 30
0.0
 10
-385.3636158900027
 20
-249.3343370210886
 30
0.0
  0
LINE
  5
889
330
6B
100
AcDbEntity
  8
0
 62
     7
100
AcDbLine
 10
-372.6636160434845
 20
-263.3343365218998
 30
0.0
 11
-371.6636158795719
 21
-263.3343365218998
 31
0.0
  0
LINE
  5
88A
330
6B
100
AcDbEntity
  8
0
 62
     7
100
AcDbLine
 10
-369.6636160174076
 20
-261.3343371253969
 30
0.0
 11
-369.6636160174076
 21
-251.3343373489142
 31
0.0
  0
LINE
  5
88B
330
6B
100
AcDbEntity
  8
0
 62
     7
100
AcDbLine
 10
-371.6636158795719
 20
-249.3343370210886
 30
0.0
 11
-372.6636160434845
 21
-249.3343370210886
 31
0.0
  0
LINE
  5
88C
330
6B
100
AcDbEntity
  8
0
 62
     7
100
AcDbLine
 10
-374.6636159056488
 20
-251.3343373489142
 30
0.0
 11
-374.6636159056488
 21
-261.3343371253969
 31
0.0
  0
SPLINE
  5
88D
330
6B
100
AcDbEntity
  8
0
 62
     7
100
AcDbSpline
210
0.0
220
0.0
230
1.0
 70
     8
 71
     3
 72
    16
 73
    12
 74
     0
 42
0.0000000001
 43
0.0000000001
 40
0.0
 40
0.0
 40
0.0
 40
0.0
 40
0.1074000970517195
 40
0.2148001806565875
 40
0.3222003318444002
 40
0.4296004725172506
 40
0.5370003890889083
 40
0.6444007365873139
 40
0.7518007591819642
 40
0.8592009513501722
 40
1.0
 40
1.0
 40
1.0
 40
1.0
 10
-385.3636158900027
 20
-263.3343365218998
 30
0.0
 10
-385.4760493470413
 20
-263.3287341674732
 30
0.0
 10
-385.7009162470419
 20
-263.3175294593215
 30
0.0
 10
-386.0288400166435
 20
-263.2300542664014
 30
0.0
 10
-386.3374860363214
 20
-263.0918193353752
 30
0.0
 10
-386.6190772687032
 20
-262.9036051895391
 30
0.0
 10
-386.8642124572523
 20
-262.6702258590212
 30
0.0
 10
-387.0679439137427
 20
-262.399631158895
 30
0.0
 10
-387.2211160480432
 20
-262.0981715505698
 30
0.0
 10
-387.3380405410804
 20
-261.7421133893063
 30
0.0
 10
-387.3543587310244
 20
-261.4819329158539
 30
0.0
 10
-387.3636157521668
 20
-261.3343371253969
 30
0.0
  0
LINE
  5
88E
330
6B
100
AcDbEntity
  8
0
 62
     7
100
AcDbLine
 10
-369.6636160174076
 20
-300.3343360674143
 30
0.0
 11
-369.6636160174076
 21
-290.3343362909317
 31
0.0
  0
LINE
  5
88F
330
6B
100
AcDbEntity
  8
0
 62
     7
100
AcDbLine
 10
-372.6636160434845
 20
-302.3343363952398
 30
0.0
 11
-371.6636158795719
 21
-302.3343363952398
 31
0.0
  0
LINE
  5
890
330
6B
100
AcDbEntity
  8
0
 62
     7
100
AcDbLine
 10
-371.6636158795719
 20
-288.3343368944288
 30
0.0
 11
-372.6636160434845
 21
-288.3343368944288
 31
0.0
  0
LINE
  5
891
330
6B
100
AcDbEntity
  8
0
 62
     7
100
AcDbLine
 10
-374.6636159056488
 20
-290.3343362909317
 30
0.0
 11
-374.6636159056488
 21
-300.3343360674143
 31
0.0
  0
SPLINE
  5
892
330
6B
100
AcDbEntity
  8
0
 62
     7
100
AcDbSpline
210
0.0
220
0.0
230
1.0
 70
     8
 71
     3
 72
    16
 73
    12
 74
     0
 42
0.0000000001
 43
0.0000000001
 40
0.0
 40
0.0
 40
0.0
 40
0.0
 40
0.1074000970517195
 40
0.2148001806565875
 40
0.3222003318444002
 40
0.4296004725172506
 40
0.5370003890889083
 40
0.6444007365873139
 40
0.7518007591819642
 40
0.8592009513501722
 40
1.0
 40
1.0
 40
1.0
 40
1.0
 10
-371.6636158795719
 20
-288.3343368944288
 30
0.0
 10
-371.5511824225331
 20
-288.3399392488554
 30
0.0
 10
-371.3263155225328
 20
-288.3511439570071
 30
0.0
 10
-370.9983917529309
 20
-288.4386191499272
 30
0.0
 10
-370.6897457332532
 20
-288.5768540809532
 30
0.0
 10
-370.4081545008714
 20
-288.7650682267895
 30
0.0
 10
-370.1630193123222
 20
-288.9984475573076
 30
0.0
 10
-369.9592878558318
 20
-289.2690422574336
 30
0.0
 10
-369.8061157215312
 20
-289.5705018657588
 30
0.0
 10
-369.689191228494
 20
-289.9265600270222
 30
0.0
 10
-369.6728730385501
 20
-290.1867405004746
 30
0.0
 10
-369.6636160174076
 20
-290.3343362909317
 30
0.0
  0
LINE
  5
893
330
6B
100
AcDbEntity
  8
0
 62
     7
100
AcDbLine
 10
-382.3636158639255
 20
-300.3343360674143
 30
0.0
 11
-382.3636158639255
 21
-290.3343362909317
 31
0.0
  0
LINE
  5
894
330
6B
100
AcDbEntity
  8
0
 62
     7
100
AcDbLine
 10
-384.3636157260899
 20
-288.3343368944288
 30
0.0
 11
-385.3636158900027
 21
-288.3343368944288
 31
0.0
  0
LINE
  5
895
330
6B
100
AcDbEntity
  8
0
 62
     7
100
AcDbLine
 10
-387.3636157521668
 20
-290.3343362909317
 30
0.0
 11
-387.3636157521668
 21
-300.3343360674143
 31
0.0
  0
SPLINE
  5
896
330
6B
100
AcDbEntity
  8
0
 62
     7
100
AcDbSpline
210
0.0
220
0.0
230
1.0
 70
     8
 71
     3
 72
    16
 73
    12
 74
     0
 42
0.0000000001
 43
0.0000000001
 40
0.0
 40
0.0
 40
0.0
 40
0.0
 40
0.1074001046273294
 40
0.2148001958078063
 40
0.3222002191861204
 40
0.4296004907831121
 40
0.5370004149303666
 40
0.6444006809345627
 40
0.7518007111048175
 40
0.8592009332231436
 40
1.0
 40
1.0
 40
1.0
 40
1.0
 10
-384.3636157260899
 20
-288.3343368944288
 30
0.0
 10
-384.2511822727329
 20
-288.339939256446
 30
0.0
 10
-384.0263153800957
 20
-288.351143979779
 30
0.0
 10
-383.6983916930588
 20
-288.4386190220837
 30
0.0
 10
-383.3897458826166
 20
-288.5768543486181
 30
0.0
 10
-383.1081544149522
 20
-288.7650680713441
 30
0.0
 10
-382.8630191331532
 20
-288.9984474331513
 30
0.0
 10
-382.6592882093621
 20
-289.2690424073434
 30
0.0
 10
-382.5061160600164
 20
-289.5705018898951
 30
0.0
 10
-382.3891912661269
 20
-289.9265599930546
 30
0.0
 10
-382.3728729538589
 20
-290.1867404942976
 30
0.0
 10
-382.3636158639255
 20
-290.3343362909317
 30
0.0
  0
SPLINE
  5
897
330
6B
100
AcDbEntity
  8
0
 62
     7
100
AcDbSpline
210
0.0
220
0.0
230
1.0
 70
     8
 71
     3
 72
    16
 73
    12
 74
     0
 42
0.0000000001
 43
0.0000000001
 40
0.0
 40
0.0
 40
0.0
 40
0.0
 40
0.1073999476625295
 40
0.2148001734888019
 40
0.3222001877920374
 40
0.4296003269654118
 40
0.5370002420375961
 40
0.6444005880365232
 40
0.7518006091316988
 40
0.8592006582820836
 40
1.0
 40
1.0
 40
1.0
 40
1.0
 10
-387.3636157521668
 20
-290.3343362909317
 30
0.0
 10
-387.3580133648057
 20
-290.2219029968637
 30
0.0
 10
-387.3468085755728
 20
-289.9970361175272
 30
0.0
 10
-387.2593336981712
 20
-289.6691124005463
 30
0.0
 10
-387.1210984207167
 20
-289.3604665194753
 30
0.0
 10
-386.9328844376554
 20
-289.0788753698193
 30
0.0
 10
-386.6995050837316
 20
-288.8337401941131
 30
0.0
 10
-386.4289103935393
 20
-288.6300087218468
 30
0.0
 10
-386.1274509012932
 20
-288.4768367050845
 30
0.0
 10
-385.771392662824
 20
-288.3599119227532
 30
0.0
 10
-385.5112120037468
 20
-288.3435938581433
 30
0.0
 10
-385.3636158900027
 20
-288.3343368944288
 30
0.0
  0
SPLINE
  5
898
330
6B
100
AcDbEntity
  8
0
 62
     7
100
AcDbSpline
210
0.0
220
0.0
230
1.0
 70
     8
 71
     3
 72
    16
 73
    12
 74
     0
 42
0.0000000001
 43
0.0000000001
 40
0.0
 40
0.0
 40
0.0
 40
0.0
 40
0.1074000985055109
 40
0.2148000842401073
 40
0.3222003333667452
 40
0.4296001200975562
 40
0.5370004218126621
 40
0.6444005081245085
 40
0.7518005069895645
 40
0.8592003923915253
 40
1.0
 40
1.0
 40
1.0
 40
1.0
 10
-385.3636158900027
 20
-302.3343363952398
 30
0.0
 10
-385.4760492956012
 20
-302.3287335164126
 30
0.0
 10
-385.7009159887424
 20
-302.317527764641
 30
0.0
 10
-386.0288405313927
 20
-302.2300548832427
 30
0.0
 10
-386.3374850556724
 20
-302.0918175434776
 30
0.0
 10
-386.6190786127578
 20
-301.9036064790853
 30
0.0
 10
-386.8642114038613
 20
-301.6702246680524
 30
0.0
 10
-387.0679443442311
 20
-301.3996310889425
 30
0.0
 10
-387.2211157568559
 20
-301.09817159343
 30
0.0
 10
-387.3380409333578
 20
-300.742113373596
 30
0.0
 10
-387.3543588555642
 20
-300.4819325132948
 30
0.0
 10
-387.3636157521668
 20
-300.3343360674143
 30
0.0
  0
SPLINE
  5
899
330
6B
100
AcDbEntity
  8
0
 62
     7
100
AcDbSpline
210
0.0
220
0.0
230
1.0
 70
     8
 71
     3
 72
    16
 73
    12
 74
     0
 42
0.0000000001
 43
0.0000000001
 40
0.0
 40
0.0
 40
0.0
 40
0.0
 40
0.1073999777958891
 40
0.2148001963328242
 40
0.3222002218819195
 40
0.4296002897478238
 40
0.5370003182839822
 40
0.6444005568002829
 40
0.7518005891413189
 40
0.8592007910559285
 40
1.0
 40
1.0
 40
1.0
 40
1.0
 10
-374.6636159056488
 20
-290.3343362909317
 30
0.0
 10
-374.6580131970584
 20
-290.2219030106149
 30
0.0
 10
-374.6468077673187
 20
-289.9970361979578
 30
0.0
 10
-374.5593335450048
 20
-289.6691123303838
 30
0.0
 10
-374.4210979686927
 20
-289.3604667086933
 30
0.0
 10
-374.2328847027021
 20
-289.0788750331726
 30
0.0
 10
-373.9995047585264
 20
-288.8337405345193
 30
0.0
 10
-373.7289105322775
 20
-288.6300085585443
 30
0.0
 10
-373.4274509077945
 20
-288.4768366300128
 30
0.0
 10
-373.0713926340334
 20
-288.3599120449467
 30
0.0
 10
-372.8112119948643
 20
-288.3435938963261
 30
0.0
 10
-372.6636160434845
 20
-288.3343368944288
 30
0.0
  0
SPLINE
  5
89A
330
6B
100
AcDbEntity
  8
0
 62
     7
100
AcDbSpline
210
0.0
220
0.0
230
1.0
 70
     8
 71
     3
 72
    16
 73
    12
 74
     0
 42
0.0000000001
 43
0.0000000001
 40
0.0
 40
0.0
 40
0.0
 40
0.0
 40
0.1074002162620532
 40
0.2148004149084231
 40
0.3222004020318097
 40
0.4296005140253035
 40
0.5370004019176641
 40
0.6444005425971751
 40
0.751800671943813
 40
0.8592006939143399
 40
1.0
 40
1.0
 40
1.0
 40
1.0
 10
-369.6636160174076
 20
-300.3343360674143
 30
0.0
 10
-369.669218381576
 20
-300.4467696751001
 30
0.0
 10
-369.6804231089942
 20
-300.6716368720303
 30
0.0
 10
-369.7678980763757
 20
-300.9995608835271
 30
0.0
 10
-369.9061333336739
 20
-301.3082067916514
 30
0.0
 10
-370.094347387682
 20
-301.5897978396121
 30
0.0
 10
-370.3277263489439
 20
-301.8349332595141
 30
0.0
 10
-370.5983219559803
 20
-302.0386633218968
 30
0.0
 10
-370.8997805576448
 20
-302.1918368550716
 30
0.0
 10
-371.2558391666888
 20
-302.3087612590387
 30
0.0
 10
-371.5160197875227
 20
-302.325079392479
 30
0.0
 10
-371.6636158795719
 20
-302.3343363952398
 30
0.0
  0
SPLINE
  5
89B
330
6B
100
AcDbEntity
  8
0
 62
     7
100
AcDbSpline
210
0.0
220
0.0
230
1.0
 70
     8
 71
     3
 72
    16
 73
    12
 74
     0
 42
0.0000000001
 43
0.0000000001
 40
0.0
 40
0.0
 40
0.0
 40
0.0
 40
0.1074001060810805
 40
0.2148000993912385
 40
0.3222002207085276
 40
0.4296001383637666
 40
0.5370004476544566
 40
0.6444004524718567
 40
0.7518004589124756
 40
0.8592003742645463
 40
1.0
 40
1.0
 40
1.0
 40
1.0
 10
-372.6636160434845
 20
-302.3343363952398
 30
0.0
 10
-372.7760494454014
 20
-302.3287335088219
 30
0.0
 10
-373.0009161311794
 20
-302.3175277418689
 30
0.0
 10
-373.3288405912647
 20
-302.2300550110856
 30
0.0
 10
-373.6374849063098
 20
-302.091817275813
 30
0.0
 10
-373.9190786986772
 20
-301.9036066345321
 30
0.0
 10
-374.1642115830312
 20
-301.6702247922097
 30
0.0
 10
-374.3679439907009
 20
-301.3996309390321
 30
0.0
 10
-374.5211154183703
 20
-301.0981715692935
 30
0.0
 10
-374.638040895726
 20
-300.7421134075638
 30
0.0
 10
-374.6543589402555
 20
-300.4819325194719
 30
0.0
 10
-374.6636159056488
 20
-300.3343360674143
 30
0.0
  0
SPLINE
  5
89C
330
6B
100
AcDbEntity
  8
0
 62
     7
100
AcDbSpline
210
0.0
220
0.0
230
1.0
 70
     8
 71
     3
 72
    16
 73
    12
 74
     0
 42
0.0000000001
 43
0.0000000001
 40
0.0
 40
0.0
 40
0.0
 40
0.0
 40
0.107400246395408
 40
0.2148004377524664
 40
0.3222004361217338
 40
0.4296004768077994
 40
0.5370004781641296
 40
0.6444005113608493
 40
0.7518006519533829
 40
0.8592008266881199
 40
1.0
 40
1.0
 40
1.0
 40
1.0
 10
-382.3636158639255
 20
-300.3343360674143
 30
0.0
 10
-382.3692185493235
 20
-300.4467696613488
 30
0.0
 10
-382.3804239172479
 20
-300.6716367915998
 30
0.0
 10
-382.4678982295422
 20
-300.9995609536896
 30
0.0
 10
-382.6061337856978
 20
-301.3082066024334
 30
0.0
 10
-382.7943471226352
 20
-301.5897981762591
 30
0.0
 10
-383.0277266741482
 20
-301.8349329191083
 30
0.0
 10
-383.2983218172422
 20
-302.0386634852001
 30
0.0
 10
-383.5997805511431
 20
-302.1918369301437
 30
0.0
 10
-383.9558391954795
 20
-302.3087611368451
 30
0.0
 10
-384.216019796405
 20
-302.3250793542963
 30
0.0
 10
-384.3636157260899
 20
-302.3343363952398
 30
0.0
  0
LINE
  5
89D
330
6B
100
AcDbEntity
  8
0
 62
     7
100
AcDbLine
 10
-385.3636158900027
 20
-302.3343363952398
 30
0.0
 11
-384.3636157260899
 21
-302.3343363952398
 31
0.0
  0
LINE
  5
89E
330
6B
100
AcDbEntity
  8
0
 62
     3
100
AcDbLine
 10
-394.9136699819628
 20
-264.4985176798464
 30
0.0
 11
-395.3136152857605
 21
-263.9592847031118
 31
0.0
  0
SPLINE
  5
89F
330
6B
100
AcDbEntity
  8
0
 62
     3
100
AcDbSpline
210
0.0
220
0.0
230
1.0
 70
    24
 71
     3
 72
    10
 73
     6
 74
     0
 42
0.0000000001
 43
0.0000000001
 40
0.0
 40
0.0
 40
0.0
 40
0.0
 40
0.3645483857187548
 40
0.7380469515163203
 40
1.0
 40
1.0
 40
1.0
 40
1.0
 10
-395.3136152857605
 20
-263.9592847031118
 30
0.0
 10
-395.3136152857605
 20
-263.7271259501138
 30
0.0
 10
-395.3136152857605
 20
-263.257108617353
 30
0.0
 10
-395.3136152857605
 20
-262.5737956169144
 30
0.0
 10
-395.3136152857605
 20
-262.1316973046199
 30
0.0
 10
-395.3136152857605
 20
-261.9494505402208
 30
0.0
  0
LINE
  5
8A0
330
6B
100
AcDbEntity
  8
0
 62
     3
100
AcDbLine
 10
-362.1135617876116
 20
-287.1701557364822
 30
0.0
 11
-361.7136164838139
 21
-287.7093887132168
 31
0.0
  0
SPLINE
  5
8A1
330
6B
100
AcDbEntity
  8
0
 62
     3
100
AcDbSpline
210
0.0
220
0.0
230
1.0
 70
    24
 71
     3
 72
    10
 73
     6
 74
     0
 42
0.0000000001
 43
0.0000000001
 40
0.0
 40
0.0
 40
0.0
 40
0.0
 40
0.3645483857187548
 40
0.7380469515163203
 40
1.0
 40
1.0
 40
1.0
 40
1.0
 10
-361.7136164838139
 20
-287.7093887132168
 30
0.0
 10
-361.7136164838139
 20
-287.9415474662146
 30
0.0
 10
-361.7136164838139
 20
-288.4115647989755
 30
0.0
 10
-361.7136164838139
 20
-289.0948777994142
 30
0.0
 10
-361.7136164838139
 20
-289.5369761117085
 30
0.0
 10
-361.7136164838139
 20
-289.7192228761078
 30
0.0
  0
SPLINE
  5
8A2
330
6B
100
AcDbEntity
  8
0
 62
     3
100
AcDbSpline
210
0.0
220
0.0
230
1.0
 70
    24
 71
     3
 72
    10
 73
     6
 74
     0
 42
0.0000000001
 43
0.0000000001
 40
0.0
 40
0.0
 40
0.0
 40
0.0
 40
0.3627487998391373
 40
0.7377359219012396
 40
1.0
 40
1.0
 40
1.0
 40
1.0
 10
-395.3136152857605
 20
-289.7192228761078
 30
0.0
 10
-395.3136152857605
 20
-289.4667289497452
 30
0.0
 10
-395.3136152857605
 20
-288.9532225243014
 30
0.0
 10
-395.3136152857605
 20
-288.2790214836654
 30
0.0
 10
-395.3136152857605
 20
-287.8754717326021
 30
0.0
 10
-395.3136152857605
 20
-287.7093887132168
 30
0.0
  0
LINE
  5
8A3
330
6B
100
AcDbEntity
  8
0
 62
     3
100
AcDbLine
 10
-395.3136152857605
 20
-287.7093887132168
 30
0.0
 11
-394.9136699819628
 21
-287.1701557364822
 31
0.0
  0
SPLINE
  5
8A4
330
6B
100
AcDbEntity
  8
0
 62
     3
100
AcDbSpline
210
0.0
220
0.0
230
1.0
 70
    24
 71
     3
 72
    10
 73
     6
 74
     0
 42
0.0000000001
 43
0.0000000001
 40
0.0
 40
0.0
 40
0.0
 40
0.0
 40
0.2804984190833073
 40
0.5668375344961368
 40
1.0
 40
1.0
 40
1.0
 40
1.0
 10
-361.7136164838139
 20
-261.9494505402208
 30
0.0
 10
-361.7136164838139
 20
-262.1446252023245
 30
0.0
 10
-361.7136164838139
 20
-262.5390385634573
 30
0.0
 10
-361.7136164838139
 20
-263.2223952991266
 30
0.0
 10
-361.7136164838139
 20
-263.6823672161603
 30
0.0
 10
-361.7136164838139
 20
-263.9592847031118
 30
0.0
  0
LINE
  5
8A5
330
6B
100
AcDbEntity
  8
0
 62
     3
100
AcDbLine
 10
-361.7136164838139
 20
-263.9592847031118
 30
0.0
 11
-362.1135617876116
 21
-264.4985176798464
 31
0.0
  0
ARC
  5
8A6
330
6B
100
AcDbEntity
  8
0
 62
     3
100
AcDbCircle
 10
-378.5136158847872
 20
-301.8343367081643
 30
0.0
 40
22.0
100
AcDbArc
 50
41.80163044465574
 51
138.1983695553442
  0
ARC
  5
8A7
330
6B
100
AcDbEntity
  8
0
 62
     3
100
AcDbCircle
 10
-378.5136158847872
 20
-249.8343367081643
 30
0.0
 40
22.0
100
AcDbArc
 50
221.8016304446558
 51
318.1983695553443
  0
LINE
  5
8A8
330
6B
100
AcDbEntity
  8
0
 62
     3
100
AcDbLine
 10
-361.7136164838139
 20
-289.7192228761078
 30
0.0
 11
-361.7136164838139
 21
-301.5719836753368
 31
0.0
  0
ARC
  5
8A9
330
6B
100
AcDbEntity
  8
0
 62
     3
100
AcDbCircle
 10
-366.7136158847872
 20
-301.571983540787
 30
0.0
 40
5.000000000000015
100
AcDbArc
 50
313.9569467237704
 51
0.0
  0
LINE
  5
8AA
330
6B
100
AcDbEntity
  8
0
 62
     3
100
AcDbLine
 10
-395.3136152857605
 20
-301.5719836753368
 30
0.0
 11
-395.3136152857605
 21
-289.7192228761078
 31
0.0
  0
ARC
  5
8AB
330
6B
100
AcDbEntity
  8
0
 62
     3
100
AcDbCircle
 10
-390.3136158847872
 20
-301.571983540787
 30
0.0
 40
5.000000000000012
100
AcDbArc
 50
180.0
 51
226.0430532762296
  0
ARC
  5
8AC
330
6B
100
AcDbEntity
  8
0
 62
     3
100
AcDbCircle
 10
-390.3136158847872
 20
-250.0966898755416
 30
0.0
 40
5.000000000000012
100
AcDbArc
 50
133.9569467237703
 51
180.0
  0
ARC
  5
8AD
330
6B
100
AcDbEntity
  8
0
 62
     3
100
AcDbCircle
 10
-378.5136158847872
 20
-289.3343367081643
 30
0.0
 40
22.0
100
AcDbArc
 50
226.0430532762296
 51
313.9569467237704
  0
ARC
  5
8AE
330
6B
100
AcDbEntity
  8
0
 62
     3
100
AcDbCircle
 10
-378.5136158847872
 20
-262.3343367081643
 30
0.0
 40
21.99999999999999
100
AcDbArc
 50
46.04305327622964
 51
133.9569467237703
  0
LINE
  5
8AF
330
6B
100
AcDbEntity
  8
0
 62
     3
100
AcDbLine
 10
-395.3136152857605
 20
-261.9494505402208
 30
0.0
 11
-395.3136152857605
 21
-250.0966897409916
 31
0.0
  0
ARC
  5
8B0
330
6B
100
AcDbEntity
  8
0
 62
     3
100
AcDbCircle
 10
-366.7136158847872
 20
-250.0966898755416
 30
0.0
 40
5.000000000000006
100
AcDbArc
 50
0.0
 51
46.04305327622964
  0
LINE
  5
8B1
330
6B
100
AcDbEntity
  8
0
 62
     3
100
AcDbLine
 10
-361.7136164838139
 20
-250.0966897409916
 30
0.0
 11
-361.7136164838139
 21
-261.9494505402208
 31
0.0
  0
LINE
  5
8B2
330
6B
100
AcDbEntity
  8
0
 62
     7
100
AcDbLine
 10
-383.7636158140067
 20
-290.9843370494008
 30
0.0
 11
-382.776962899572
 21
-289.1167437833309
 31
0.0
  0
LINE
  5
8B3
330
6B
100
AcDbEntity
  8
0
 62
     3
100
AcDbLine
 10
-385.9636158020857
 20
-290.9843370494008
 30
0.0
 11
-383.7636158140067
 21
-290.9843370494008
 31
0.0
  0
LINE
  5
8B4
330
6B
100
AcDbEntity
  8
0
 62
     7
100
AcDbLine
 10
-385.9636158020857
 20
-290.9843370494008
 30
0.0
 11
-386.9502687165204
 21
-289.1167437833309
 31
0.0
  0
LINE
  5
8B5
330
6B
100
AcDbEntity
  8
0
 62
     7
100
AcDbLine
 10
-383.7636158140067
 20
-251.9843371760607
 30
0.0
 11
-382.776962899572
 21
-250.1167429786682
 31
0.0
  0
LINE
  5
8B6
330
6B
100
AcDbEntity
  8
0
 62
     3
100
AcDbLine
 10
-383.7636158140067
 20
-251.9843371760607
 30
0.0
 11
-385.9636158020857
 21
-251.9843371760607
 31
0.0
  0
LINE
  5
8B7
330
6B
100
AcDbEntity
  8
0
 62
     7
100
AcDbLine
 10
-385.9636158020857
 20
-251.9843371760607
 30
0.0
 11
-386.9502687165204
 21
-250.1167429786682
 31
0.0
  0
LINE
  5
8B8
330
6B
100
AcDbEntity
  8
0
 62
     3
100
AcDbLine
 10
-383.7636158140067
 20
-299.6843362402679
 30
0.0
 11
-385.9636158020857
 21
-299.6843362402679
 31
0.0
  0
LINE
  5
8B9
330
6B
100
AcDbEntity
  8
0
 62
     7
100
AcDbLine
 10
-383.7636158140067
 20
-299.6843362402679
 30
0.0
 11
-382.776962899572
 21
-301.5519304376602
 31
0.0
  0
LINE
  5
8BA
330
6B
100
AcDbEntity
  8
0
 62
     7
100
AcDbLine
 10
-385.9636158020857
 20
-299.6843362402679
 30
0.0
 11
-386.9502687165204
 21
-301.5519304376602
 31
0.0
  0
LINE
  5
8BB
330
6B
100
AcDbEntity
  8
0
 62
     3
100
AcDbLine
 10
-385.9636158020857
 20
-260.6843363669278
 30
0.0
 11
-383.7636158140067
 21
-260.6843363669278
 31
0.0
  0
LINE
  5
8BC
330
6B
100
AcDbEntity
  8
0
 62
     7
100
AcDbLine
 10
-383.7636158140067
 20
-260.6843363669278
 30
0.0
 11
-382.776962899572
 21
-262.5519296329975
 31
0.0
  0
LINE
  5
8BD
330
6B
100
AcDbEntity
  8
0
 62
     7
100
AcDbLine
 10
-385.9636158020857
 20
-260.6843363669278
 30
0.0
 11
-386.9502687165204
 21
-262.5519296329975
 31
0.0
  0
LINE
  5
8BE
330
6B
100
AcDbEntity
  8
0
 62
     7
100
AcDbLine
 10
-373.2636159555677
 20
-298.8343367528677
 30
0.0
 11
-374.3149450318579
 21
-301.462659443593
 31
0.0
  0
LINE
  5
8BF
330
6B
100
AcDbEntity
  8
0
 62
     3
100
AcDbLine
 10
-371.0636159674887
 20
-298.8343367528677
 30
0.0
 11
-373.2636159555677
 21
-298.8343367528677
 31
0.0
  0
LINE
  5
8C0
330
6B
100
AcDbEntity
  8
0
 62
     7
100
AcDbLine
 10
-371.0636159674887
 20
-298.8343367528677
 30
0.0
 11
-370.0122864255372
 21
-301.462659443593
 31
0.0
  0
LINE
  5
8C1
330
6B
100
AcDbEntity
  8
0
 62
     3
100
AcDbLine
 10
-373.2636159555677
 20
-259.834335948205
 30
0.0
 11
-371.0636159674887
 21
-259.834335948205
 31
0.0
  0
LINE
  5
8C2
330
6B
100
AcDbEntity
  8
0
 62
     7
100
AcDbLine
 10
-371.0636159674887
 20
-259.834335948205
 30
0.0
 11
-370.0122864255372
 21
-262.462659570253
 31
0.0
  0
LINE
  5
8C3
330
6B
100
AcDbEntity
  8
0
 62
     7
100
AcDbLine
 10
-373.2636159555677
 20
-259.834335948205
 30
0.0
 11
-374.3149450318579
 21
-262.462659570253
 31
0.0
  0
LINE
  5
8C4
330
6B
100
AcDbEntity
  8
0
 62
     7
100
AcDbLine
 10
-371.0636159674887
 20
-252.8343366634608
 30
0.0
 11
-370.0122864255372
 21
-250.2060139727354
 31
0.0
  0
LINE
  5
8C5
330
6B
100
AcDbEntity
  8
0
 62
     3
100
AcDbLine
 10
-371.0636159674887
 20
-252.8343366634608
 30
0.0
 11
-373.2636159555677
 21
-252.8343366634608
 31
0.0
  0
LINE
  5
8C6
330
6B
100
AcDbEntity
  8
0
 62
     7
100
AcDbLine
 10
-373.2636159555677
 20
-252.8343366634608
 30
0.0
 11
-374.3149450318579
 21
-250.2060139727354
 31
0.0
  0
LINE
  5
8C7
330
6B
100
AcDbEntity
  8
0
 62
     7
100
AcDbLine
 10
-371.0636159674887
 20
-291.8343374681236
 30
0.0
 11
-370.0122864255372
 21
-289.2060138460756
 31
0.0
  0
LINE
  5
8C8
330
6B
100
AcDbEntity
  8
0
 62
     3
100
AcDbLine
 10
-373.2636159555677
 20
-291.8343374681236
 30
0.0
 11
-371.0636159674887
 21
-291.8343374681236
 31
0.0
  0
LINE
  5
8C9
330
6B
100
AcDbEntity
  8
0
 62
     7
100
AcDbLine
 10
-373.2636159555677
 20
-291.8343374681236
 30
0.0
 11
-374.3149450318579
 21
-289.2060138460756
 31
0.0
  0
LINE
  5
8CA
330
6B
100
AcDbEntity
  8
0
 62
     3
100
AcDbLine
 10
-371.0636159674887
 20
-291.8343374681236
 30
0.0
 11
-371.0636159674887
 21
-298.8343367528677
 31
0.0
  0
LINE
  5
8CB
330
6B
100
AcDbEntity
  8
0
 62
     3
100
AcDbLine
 10
-371.0636159674887
 20
-259.834335948205
 30
0.0
 11
-371.0636159674887
 21
-252.8343366634608
 31
0.0
  0
LINE
  5
8CC
330
6B
100
AcDbEntity
  8
0
 62
     3
100
AcDbLine
 10
-373.2636159555677
 20
-298.8343367528677
 30
0.0
 11
-373.2636159555677
 21
-291.8343374681236
 31
0.0
  0
LINE
  5
8CD
330
6B
100
AcDbEntity
  8
0
 62
     3
100
AcDbLine
 10
-373.2636159555677
 20
-252.8343366634608
 30
0.0
 11
-373.2636159555677
 21
-259.834335948205
 31
0.0
  0
LINE
  5
8CE
330
6B
100
AcDbEntity
  8
0
 62
     3
100
AcDbLine
 10
-385.9636158020857
 20
-251.9843371760607
 30
0.0
 11
-385.9636158020857
 21
-260.6843363669278
 31
0.0
  0
LINE
  5
8CF
330
6B
100
AcDbEntity
  8
0
 62
     3
100
AcDbLine
 10
-383.7636158140067
 20
-290.9843370494008
 30
0.0
 11
-383.7636158140067
 21
-299.6843362402679
 31
0.0
  0
LINE
  5
8D0
330
6B
100
AcDbEntity
  8
0
 62
     3
100
AcDbLine
 10
-383.7636158140067
 20
-260.6843363669278
 30
0.0
 11
-383.7636158140067
 21
-251.9843371760607
 31
0.0
  0
LINE
  5
8D1
330
6B
100
AcDbEntity
  8
0
 62
     3
100
AcDbLine
 10
-385.9636158020857
 20
-299.6843362402679
 30
0.0
 11
-385.9636158020857
 21
-290.9843370494008
 31
0.0
  0
LINE
  5
8D2
330
6B
100
AcDbEntity
  8
0
 62
     7
100
AcDbLine
 10
-365.213616126186
 20
-281.8343367603183
 30
0.0
 11
-365.213616126186
 21
-269.8343366560102
 31
0.0
  0
ARC
  5
8D3
330
6B
100
AcDbEntity
  8
0
 62
     7
100
AcDbCircle
 10
-370.2136158847872
 20
-272.8343367081643
 30
0.0
 40
1.0
100
AcDbArc
 50
0.0
 51
180.0
  0
LINE
  5
8D4
330
6B
100
AcDbEntity
  8
0
 62
     7
100
AcDbLine
 10
-385.8136160568957
 20
-278.8343367342413
 30
0.0
 11
-385.8136160568957
 21
-272.8343366820872
 31
0.0
  0
LINE
  5
8D5
330
6B
100
AcDbEntity
  8
0
 62
     7
100
AcDbLine
 10
-372.2136158765915
 20
-273.3343367640436
 30
0.0
 11
-372.2136158765915
 21
-278.3343366522849
 31
0.0
  0
ARC
  5
8D6
330
6B
100
AcDbEntity
  8
0
 62
     7
100
AcDbCircle
 10
-373.2136158847872
 20
-273.3343367081644
 30
0.0
 40
1.0
100
AcDbArc
 50
0.0
 51
180.0
  0
ARC
  5
8D7
330
6B
100
AcDbEntity
  8
0
 62
     7
100
AcDbCircle
 10
-364.2136158847872
 20
-281.8343367081644
 30
0.0
 40
1.0
100
AcDbArc
 50
180.0
 51
0.0
  0
LINE
  5
8D8
330
6B
100
AcDbEntity
  8
0
 62
     7
100
AcDbLine
 10
-387.8136159190598
 20
-272.8343366820872
 30
0.0
 11
-387.8136159190598
 21
-278.8343367342413
 31
0.0
  0
ARC
  5
8D9
330
6B
100
AcDbEntity
  8
0
 62
     7
100
AcDbCircle
 10
-367.2136158847872
 20
-279.8343367081644
 30
0.0
 40
1.0
100
AcDbArc
 50
180.0
 51
0.0
  0
LINE
  5
8DA
330
6B
100
AcDbEntity
  8
0
 62
     7
100
AcDbLine
 10
-374.2136157387558
 20
-278.3343366522849
 30
0.0
 11
-374.2136157387558
 21
-273.3343367640436
 31
0.0
  0
ARC
  5
8DB
330
6B
100
AcDbEntity
  8
0
 62
     7
100
AcDbCircle
 10
-389.8136158847872
 20
-271.8343367081642
 30
0.0
 40
1.0
100
AcDbArc
 50
0.0
 51
180.0
  0
LINE
  5
8DC
330
6B
100
AcDbEntity
  8
0
 62
     7
100
AcDbLine
 10
-390.8136154794756
 20
-271.8343365181744
 30
0.0
 11
-390.8136154794756
 21
-279.8343368981542
 31
0.0
  0
LINE
  5
8DD
330
6B
100
AcDbEntity
  8
0
 62
     7
100
AcDbLine
 10
-388.8136160829727
 20
-279.8343368981542
 30
0.0
 11
-388.8136160829727
 21
-271.8343365181744
 31
0.0
  0
ARC
  5
8DE
330
6B
100
AcDbEntity
  8
0
 62
     7
100
AcDbCircle
 10
-386.8136158847872
 20
-272.8343367081643
 30
0.0
 40
1.0
100
AcDbArc
 50
0.0
 51
180.0
  0
ARC
  5
8DF
330
6B
100
AcDbEntity
  8
0
 62
     7
100
AcDbCircle
 10
-392.8136158847872
 20
-269.8343367081642
 30
0.0
 40
1.0
100
AcDbArc
 50
0.0
 51
180.0
  0
LINE
  5
8E0
330
6B
100
AcDbEntity
  8
0
 62
     7
100
AcDbLine
 10
-393.813615971214
 20
-269.8343366560102
 30
0.0
 11
-393.813615971214
 21
-281.8343367603183
 31
0.0
  0
ARC
  5
8E1
330
6B
100
AcDbEntity
  8
0
 62
     7
100
AcDbCircle
 10
-386.8136158847872
 20
-278.8343367081643
 30
0.0
 40
1.0
100
AcDbArc
 50
180.0
 51
0.0
  0
ARC
  5
8E2
330
6B
100
AcDbEntity
  8
0
 62
     7
100
AcDbCircle
 10
-392.8136158847872
 20
-281.8343367081644
 30
0.0
 40
1.0
100
AcDbArc
 50
180.0
 51
0.0
  0
ARC
  5
8E3
330
6B
100
AcDbEntity
  8
0
 62
     7
100
AcDbCircle
 10
-383.8136158847872
 20
-273.3343367081644
 30
0.0
 40
1.0
100
AcDbArc
 50
0.0
 51
180.0
  0
LINE
  5
8E4
330
6B
100
AcDbEntity
  8
0
 62
     7
100
AcDbLine
 10
-382.8136160308186
 20
-278.3343366522849
 30
0.0
 11
-382.8136160308186
 21
-273.3343367640436
 31
0.0
  0
ARC
  5
8E5
330
6B
100
AcDbEntity
  8
0
 62
     7
100
AcDbCircle
 10
-383.8136158847872
 20
-278.3343367081642
 30
0.0
 40
1.0
100
AcDbArc
 50
180.0
 51
0.0
  0
LINE
  5
8E6
330
6B
100
AcDbEntity
  8
0
 62
     7
100
AcDbLine
 10
-384.8136158929829
 20
-273.3343367640436
 30
0.0
 11
-384.8136158929829
 21
-278.3343366522849
 31
0.0
  0
ARC
  5
8E7
330
6B
100
AcDbEntity
  8
0
 62
     7
100
AcDbCircle
 10
-367.2136158847872
 20
-271.8343367081642
 30
0.0
 40
1.0
100
AcDbArc
 50
0.0
 51
180.0
  0
LINE
  5
8E8
330
6B
100
AcDbEntity
  8
0
 62
     7
100
AcDbLine
 10
-368.2136156866017
 20
-279.8343368981542
 30
0.0
 11
-368.2136156866017
 21
-271.8343365181744
 31
0.0
  0
LINE
  5
8E9
330
6B
100
AcDbEntity
  8
0
 62
     7
100
AcDbLine
 10
-366.2136162900988
 20
-271.8343365181744
 30
0.0
 11
-366.2136162900988
 21
-279.8343368981542
 31
0.0
  0
LINE
  5
8EA
330
6B
100
AcDbEntity
  8
0
 62
     7
100
AcDbLine
 10
-369.2136158505145
 20
-272.8343366820872
 30
0.0
 11
-369.2136158505145
 21
-278.8343367342413
 31
0.0
  0
ARC
  5
8EB
330
6B
100
AcDbEntity
  8
0
 62
     7
100
AcDbCircle
 10
-370.2136158847872
 20
-278.8343367081643
 30
0.0
 40
1.0
100
AcDbArc
 50
180.0
 51
0.0
  0
ARC
  5
8EC
330
6B
100
AcDbEntity
  8
0
 62
     7
100
AcDbCircle
 10
-389.8136158847872
 20
-279.8343367081644
 30
0.0
 40
1.0
100
AcDbArc
 50
180.0
 51
0.0
  0
LINE
  5
8ED
330
6B
100
AcDbEntity
  8
0
 62
     7
100
AcDbLine
 10
-363.2136157983604
 20
-269.8343366560102
 30
0.0
 11
-363.2136157983604
 21
-281.8343367603183
 31
0.0
  0
ARC
  5
8EE
330
6B
100
AcDbEntity
  8
0
 62
     7
100
AcDbCircle
 10
-364.2136158847872
 20
-269.8343367081642
 30
0.0
 40
1.0
100
AcDbArc
 50
0.0
 51
180.0
  0
ARC
  5
8EF
330
6B
100
AcDbEntity
  8
0
 62
     7
100
AcDbCircle
 10
-373.2136158847872
 20
-278.3343367081642
 30
0.0
 40
1.0
100
AcDbArc
 50
180.0
 51
0.0
  0
LINE
  5
8F0
330
6B
100
AcDbEntity
  8
0
 62
     7
100
AcDbLine
 10
-391.8136156433884
 20
-281.8343367603183
 30
0.0
 11
-391.8136156433884
 21
-269.8343366560102
 31
0.0
  0
LINE
  5
8F1
330
6B
100
AcDbEntity
  8
0
 62
     7
100
AcDbLine
 10
-371.2136157126789
 20
-278.8343367342413
 30
0.0
 11
-371.2136157126789
 21
-272.8343366820872
 31
0.0
  0
CIRCLE
  5
8F2
330
6B
100
AcDbEntity
  8
0
 62
     3
100
AcDbCircle
 10
-378.5136158847872
 20
-275.8343367081642
 30
0.0
 40
3.75
  0
LINE
  5
8F3
330
6B
100
AcDbEntity
  8
0
 62
     3
100
AcDbLine
 10
-361.7136164838139
 20
-287.7093887132168
 30
0.0
 11
-361.7136164838139
 21
-263.9592847031118
 31
0.0
  0
LINE
  5
8F4
330
6B
100
AcDbEntity
  8
0
 62
     3
100
AcDbLine
 10
-395.3136152857605
 20
-263.9592847031118
 30
0.0
 11
-395.3136152857605
 21
-287.7093887132168
 31
0.0
  0
LINE
  5
8F5
330
6B
100
AcDbEntity
  8
0
 62
     3
100
AcDbLine
 10
-385.9636158020857
 20
-291.8343374681236
 30
0.0
 11
-385.3821948440437
 21
-291.8343374681236
 31
0.0
  0
LINE
  5
8F6
330
6B
100
AcDbEntity
  8
0
 62
     3
100
AcDbLine
 10
-385.9636158020857
 20
-298.8343367528677
 30
0.0
 11
-385.3821948440437
 21
-298.8343367528677
 31
0.0
  0
LINE
  5
8F7
330
6B
100
AcDbEntity
  8
0
 62
     3
100
AcDbLine
 10
-384.3450367720488
 20
-298.8343367528677
 30
0.0
 11
-383.7636158140067
 21
-298.8343367528677
 31
0.0
  0
LINE
  5
8F8
330
6B
100
AcDbEntity
  8
0
 62
     3
100
AcDbLine
 10
-384.3450367720488
 20
-291.8343374681236
 30
0.0
 11
-383.7636158140067
 21
-291.8343374681236
 31
0.0
  0
LINE
  5
8F9
330
6B
100
AcDbEntity
  8
0
 62
     3
100
AcDbLine
 10
-385.3821948440437
 20
-259.834335948205
 30
0.0
 11
-385.9636158020857
 21
-259.834335948205
 31
0.0
  0
LINE
  5
8FA
330
6B
100
AcDbEntity
  8
0
 62
     3
100
AcDbLine
 10
-385.9636158020857
 20
-252.8343366634608
 30
0.0
 11
-385.3821948440437
 21
-252.8343366634608
 31
0.0
  0
LINE
  5
8FB
330
6B
100
AcDbEntity
  8
0
 62
     3
100
AcDbLine
 10
-384.3450367720488
 20
-252.8343366634608
 30
0.0
 11
-383.7636158140067
 21
-252.8343366634608
 31
0.0
  0
LINE
  5
8FC
330
6B
100
AcDbEntity
  8
0
 62
     3
100
AcDbLine
 10
-383.7636158140067
 20
-259.834335948205
 30
0.0
 11
-384.3450367720488
 21
-259.834335948205
 31
0.0
  0
LINE
  5
8FD
330
6B
100
AcDbEntity
  8
0
 62
     3
100
AcDbLine
 10
-385.3821948440437
 20
-291.8343374681236
 30
0.0
 11
-385.1771697671773
 21
-291.8343374681236
 31
0.0
  0
LINE
  5
8FE
330
6B
100
AcDbEntity
  8
0
 62
     3
100
AcDbLine
 10
-385.1771697671773
 20
-298.8343367528677
 30
0.0
 11
-385.3821948440437
 21
-298.8343367528677
 31
0.0
  0
LINE
  5
8FF
330
6B
100
AcDbEntity
  8
0
 62
     3
100
AcDbLine
 10
-385.1771697671773
 20
-259.834335948205
 30
0.0
 11
-385.3821948440437
 21
-259.834335948205
 31
0.0
  0
LINE
  5
900
330
6B
100
AcDbEntity
  8
0
 62
     3
100
AcDbLine
 10
-385.3821948440437
 20
-252.8343366634608
 30
0.0
 11
-385.1771697671773
 21
-252.8343366634608
 31
0.0
  0
LINE
  5
901
330
6B
100
AcDbEntity
  8
0
 62
     3
100
AcDbLine
 10
-384.3450367720488
 20
-298.8343367528677
 30
0.0
 11
-384.550061848915
 21
-298.8343367528677
 31
0.0
  0
LINE
  5
902
330
6B
100
AcDbEntity
  8
0
 62
     3
100
AcDbLine
 10
-384.550061848915
 20
-291.8343374681236
 30
0.0
 11
-384.3450367720488
 21
-291.8343374681236
 31
0.0
  0
LINE
  5
903
330
6B
100
AcDbEntity
  8
0
 62
     3
100
AcDbLine
 10
-384.550061848915
 20
-252.8343366634608
 30
0.0
 11
-384.3450367720488
 21
-252.8343366634608
 31
0.0
  0
LINE
  5
904
330
6B
100
AcDbEntity
  8
0
 62
     3
100
AcDbLine
 10
-384.3450367720488
 20
-259.834335948205
 30
0.0
 11
-384.550061848915
 21
-259.834335948205
 31
0.0
  0
LINE
  5
905
330
6B
100
AcDbEntity
  8
0
 62
     3
100
AcDbLine
 10
-385.1771697671773
 20
-252.8343366634608
 30
0.0
 11
-384.550061848915
 21
-252.8343366634608
 31
0.0
  0
LINE
  5
906
330
6B
100
AcDbEntity
  8
0
 62
     3
100
AcDbLine
 10
-385.1771697671773
 20
-298.8343367528677
 30
0.0
 11
-384.550061848915
 21
-298.8343367528677
 31
0.0
  0
LINE
  5
907
330
6B
100
AcDbEntity
  8
0
 62
     3
100
AcDbLine
 10
-389.0136157432262
 20
-308.8343365293503
 30
0.0
 11
-388.6993903005187
 21
-308.8343365293503
 31
0.0
  0
LINE
  5
908
330
6B
100
AcDbEntity
  8
0
 62
     3
100
AcDbLine
 10
-389.0136157432262
 20
-308.8343365293503
 30
0.0
 11
-389.0136157432262
 21
-308.6669517856598
 31
0.0
  0
LINE
  5
909
330
6B
100
AcDbEntity
  8
0
 62
     3
100
AcDbLine
 10
-368.0136160263482
 20
-308.8343365293503
 30
0.0
 11
-368.3278414690557
 21
-308.8343365293503
 31
0.0
  0
LINE
  5
90A
330
6B
100
AcDbEntity
  8
0
 62
     3
100
AcDbLine
 10
-368.0136160263482
 20
-308.8343365293503
 30
0.0
 11
-368.0136160263482
 21
-308.6669517856598
 31
0.0
  0
LINE
  5
90B
330
6B
100
AcDbEntity
  8
0
 62
     3
100
AcDbLine
 10
-389.0136157432262
 20
-242.8343368869781
 30
0.0
 11
-388.6993903005187
 21
-242.8343368869781
 31
0.0
  0
LINE
  5
90C
330
6B
100
AcDbEntity
  8
0
 62
     3
100
AcDbLine
 10
-389.0136157432262
 20
-242.8343368869781
 30
0.0
 11
-389.0136157432262
 21
-243.0017216306687
 31
0.0
  0
LINE
  5
90D
330
6B
100
AcDbEntity
  8
0
 62
     3
100
AcDbLine
 10
-368.0136160263482
 20
-242.8343368869781
 30
0.0
 11
-368.3278414690557
 21
-242.8343368869781
 31
0.0
  0
LINE
  5
90E
330
6B
100
AcDbEntity
  8
0
 62
     3
100
AcDbLine
 10
-368.0136160263482
 20
-242.8343368869781
 30
0.0
 11
-368.0136160263482
 21
-243.0017216306687
 31
0.0
  0
LINE
  5
90F
330
6B
100
AcDbEntity
  8
0
 62
     3
100
AcDbLine
 10
-385.9636158020857
 20
-252.5343371730805
 30
0.0
 11
-383.7636158140067
 21
-252.5343371730805
 31
0.0
  0
LINE
  5
910
330
6B
100
AcDbEntity
  8
0
 62
     3
100
AcDbLine
 10
-383.7636158140067
 20
-299.1343362432481
 30
0.0
 11
-385.9636158020857
 21
-299.1343362432481
 31
0.0
  0
LINE
  5
911
330
6B
100
AcDbEntity
  8
0
 62
     3
100
AcDbLine
 10
-314.8093528794209
 20
-280.8343365964055
 30
0.0
 11
-315.8700128765862
 21
-281.894997059232
 31
0.0
  0
LINE
  5
912
330
6B
100
AcDbEntity
  8
0
 62
     3
100
AcDbLine
 10
-315.8700128765862
 20
-269.7736763570965
 30
0.0
 11
-314.8093528794209
 21
-270.8343368199229
 31
0.0
  0
LINE
  5
913
330
6B
100
AcDbEntity
  8
0
 62
     3
100
AcDbLine
 10
-305.1308861391237
 20
-301.5011193406343
 30
0.0
 11
-304.8093531029384
 21
-301.1837562721729
 31
0.0
  0
LINE
  5
914
330
6B
100
AcDbEntity
  8
0
 62
     3
100
AcDbLine
 10
-304.8093531029384
 20
-250.4849171441555
 30
0.0
 11
-305.1308861391237
 21
-250.1675540756941
 31
0.0
  0
ARC
  5
915
330
6B
100
AcDbEntity
  8
0
 62
     3
100
AcDbCircle
 10
-313.8093531029384
 20
-281.8343367081644
 30
0.0
 40
1.0
100
AcDbArc
 50
180.0
 51
270.0
  0
ARC
  5
916
330
6B
100
AcDbEntity
  8
0
 62
     3
100
AcDbCircle
 10
-313.8093531029384
 20
-269.8343367081642
 30
0.0
 40
1.0
100
AcDbArc
 50
90.0
 51
180.0
  0
LINE
  5
917
330
6B
100
AcDbEntity
  8
0
 62
     3
100
AcDbLine
 10
-314.3093527974646
 20
-311.3343378704548
 30
0.0
 11
-311.3093532370488
 21
-311.3343378704548
 31
0.0
  0
LINE
  5
918
330
6B
100
AcDbEntity
  8
0
 62
     3
100
AcDbLine
 10
-315.8700128765862
 20
-309.7736759286882
 30
0.0
 11
-314.3093527974646
 21
-311.3343378704548
 31
0.0
  0
LINE
  5
919
330
6B
100
AcDbEntity
  8
0
 62
     3
100
AcDbLine
 10
-311.3093532370488
 20
-240.3343355458737
 30
0.0
 11
-314.3093527974646
 21
-240.3343355458737
 31
0.0
  0
LINE
  5
91A
330
6B
100
AcDbEntity
  8
0
 62
     3
100
AcDbLine
 10
-314.3093527974646
 20
-240.3343355458737
 30
0.0
 11
-315.8700128765862
 21
-241.8949974876404
 31
0.0
  0
ARC
  5
91B
330
6B
100
AcDbEntity
  8
0
 62
     3
100
AcDbCircle
 10
-314.8093531029384
 20
-282.955657051724
 30
0.0
 40
1.5
100
AcDbArc
 50
135.0
 51
180.0
  0
ARC
  5
91C
330
6B
100
AcDbEntity
  8
0
 62
     3
100
AcDbCircle
 10
-314.8093531029384
 20
-268.7130163646045
 30
0.0
 40
1.500000000000011
100
AcDbArc
 50
180.0
 51
225.0
  0
ARC
  5
91D
330
6B
100
AcDbEntity
  8
0
 62
     3
100
AcDbCircle
 10
-314.8093531029384
 20
-308.7130163646046
 30
0.0
 40
1.5
100
AcDbArc
 50
180.0
 51
225.0
  0
ARC
  5
91E
330
6B
100
AcDbEntity
  8
0
 62
     3
100
AcDbCircle
 10
-314.8093531029384
 20
-242.9556570517239
 30
0.0
 40
1.5
100
AcDbArc
 50
135.0
 51
180.0
  0
LINE
  5
91F
330
6B
100
AcDbEntity
  8
0
 62
     3
100
AcDbLine
 10
-293.8093531625429
 20
-281.8343367603183
 30
0.0
 11
-291.8093528347173
 21
-281.8343367603183
 31
0.0
  0
LINE
  5
920
330
6B
100
AcDbEntity
  8
0
 62
     3
100
AcDbLine
 10
-291.8093528347173
 20
-269.8343366560102
 30
0.0
 11
-293.8093531625429
 21
-269.8343366560102
 31
0.0
  0
SPLINE
  5
921
330
6B
100
AcDbEntity
  8
0
 62
     7
100
AcDbSpline
210
0.0
220
0.0
230
1.0
 70
     8
 71
     3
 72
    10
 73
     6
 74
     0
 42
0.0000000001
 43
0.0000000001
 40
0.0
 40
0.0
 40
0.0
 40
0.0
 40
0.3645483857187548
 40
0.7380469515163203
 40
1.0
 40
1.0
 40
1.0
 40
1.0
 10
-313.8093527155082
 20
-287.7093887132168
 30
0.0
 10
-313.9120592110673
 20
-287.9415474662146
 30
0.0
 10
-314.1199937923683
 20
-288.4115647989755
 30
0.0
 10
-314.2819589748208
 20
-289.0948777994142
 30
0.0
 10
-314.3013565214824
 20
-289.5369761117085
 30
0.0
 10
-314.3093527974646
 20
-289.7192228761078
 30
0.0
  0
LINE
  5
922
330
6B
100
AcDbEntity
  8
0
 62
     7
100
AcDbLine
 10
-313.8093527155082
 20
-287.7093887132168
 30
0.0
 11
-313.8093527155082
 21
-263.9592847031118
 31
0.0
  0
SPLINE
  5
923
330
6B
100
AcDbEntity
  8
0
 62
     7
100
AcDbSpline
210
0.0
220
0.0
230
1.0
 70
     8
 71
     3
 72
    10
 73
     6
 74
     0
 42
0.0000000001
 43
0.0000000001
 40
0.0
 40
0.0
 40
0.0
 40
0.0
 40
0.2804984190833073
 40
0.5668375344961368
 40
1.0
 40
1.0
 40
1.0
 40
1.0
 10
-314.3093527974646
 20
-261.9494505402208
 30
0.0
 10
-314.3003555684773
 20
-262.1446252023245
 30
0.0
 10
-314.2821737651253
 20
-262.5390385634573
 30
0.0
 10
-314.1298487926746
 20
-263.2223952991266
 30
0.0
 10
-313.9297927269762
 20
-263.6823672161603
 30
0.0
 10
-313.8093527155082
 20
-263.9592847031118
 30
0.0
  0
LINE
  5
924
330
6B
100
AcDbEntity
  8
0
 62
     3
100
AcDbLine
 10
-311.3093532370488
 20
-311.3343378704548
 30
0.0
 11
-311.3093532370488
 21
-240.3343355458737
 31
0.0
  0
LINE
  5
925
330
6B
100
AcDbEntity
  8
0
 62
     3
100
AcDbLine
 10
-304.8093531029384
 20
-271.4343367320061
 30
0.0
 11
-304.8093531030351
 21
-280.2343366843224
 31
0.0
  0
LINE
  5
926
330
6B
100
AcDbEntity
  8
0
 62
     3
100
AcDbLine
 10
-305.1265308382073
 20
-280.2343366843224
 30
0.0
 11
-304.8093531030351
 21
-280.2343366843224
 31
0.0
  0
LINE
  5
927
330
6B
100
AcDbEntity
  8
0
 62
     3
100
AcDbLine
 10
-305.1265308382073
 20
-300.5021156918764
 30
0.0
 11
-305.1265308382073
 21
-280.2343366843224
 31
0.0
  0
LINE
  5
928
330
6B
100
AcDbEntity
  8
0
 62
     3
100
AcDbLine
 10
-305.1265308382073
 20
-271.4343367320061
 30
0.0
 11
-305.1265308382073
 21
-251.166557724452
 31
0.0
  0
LINE
  5
929
330
6B
100
AcDbEntity
  8
0
 62
     3
100
AcDbLine
 10
-304.8093531029384
 20
-271.4343367320061
 30
0.0
 11
-305.1265308382073
 21
-271.4343367320061
 31
0.0
  0
SPLINE
  5
92A
330
6B
100
AcDbEntity
  8
0
 62
     3
100
AcDbSpline
210
0.0
220
0.0
230
1.0
 70
     8
 71
     3
 72
    12
 73
     8
 74
     0
 42
0.0000000001
 43
0.0000000001
 40
0.0
 40
0.0
 40
0.0
 40
0.0
 40
0.1309048201953523
 40
0.2602324264465985
 40
0.5129313944344324
 40
0.7594999338548977
 40
1.0
 40
1.0
 40
1.0
 40
1.0
 10
-305.1315149564846
 20
-301.5009684663773
 30
0.0
 10
-305.1304034856285
 20
-301.4968583626345
 30
0.0
 10
-305.1281939355341
 20
-301.4886876759602
 30
0.0
 10
-305.124523569416
 20
-301.4050835341291
 30
0.0
 10
-305.1218713730823
 20
-301.2149920167111
 30
0.0
 10
-305.1225539129721
 20
-300.8827904213462
 30
0.0
 10
-305.1252162533176
 20
-300.6279488965991
 30
0.0
 10
-305.1265308382073
 20
-300.5021156918764
 30
0.0
  0
LINE
  5
92B
330
6B
100
AcDbEntity
  8
0
 62
     3
100
AcDbLine
 10
-305.1315149564846
 20
-301.5009684663773
 30
0.0
 11
-311.3093532370488
 21
-301.7382955354215
 31
0.0
  0
LINE
  5
92C
330
6B
100
AcDbEntity
  8
0
 62
     3
100
AcDbLine
 10
-311.3093532370488
 20
-249.930377880907
 30
0.0
 11
-305.1315149564846
 21
-250.1677049499512
 31
0.0
  0
SPLINE
  5
92D
330
6B
100
AcDbEntity
  8
0
 62
     3
100
AcDbSpline
210
0.0
220
0.0
230
1.0
 70
     8
 71
     3
 72
    12
 73
     8
 74
     0
 42
0.0000000001
 43
0.0000000001
 40
0.0
 40
0.0
 40
0.0
 40
0.0
 40
0.2405000661451023
 40
0.4870686055655677
 40
0.7397675735534018
 40
0.8690951798046475
 40
1.0
 40
1.0
 40
1.0
 40
1.0
 10
-305.1265308382073
 20
-251.166557724452
 30
0.0
 10
-305.1252162533176
 20
-251.0407245197293
 30
0.0
 10
-305.1225539129721
 20
-250.7858829949825
 30
0.0
 10
-305.1218713730823
 20
-250.4536813996174
 30
0.0
 10
-305.124523569416
 20
-250.2635898821995
 30
0.0
 10
-305.1281939355341
 20
-250.1799857403685
 30
0.0
 10
-305.1304034856285
 20
-250.1718150536941
 30
0.0
 10
-305.1315149564846
 20
-250.1677049499512
 30
0.0
  0
LINE
  5
92E
330
6B
100
AcDbEntity
  8
0
 62
     3
100
AcDbLine
 10
-304.8093531029384
 20
-301.1835588317871
 30
0.0
 11
-305.1315149564846
 21
-301.5009684663773
 31
0.0
  0
LINE
  5
92F
330
6B
100
AcDbEntity
  8
0
 62
     3
100
AcDbLine
 10
-304.8093531029384
 20
-300.5021156918764
 30
0.0
 11
-305.1265308382073
 21
-300.5021156918764
 31
0.0
  0
LINE
  5
930
330
6B
100
AcDbEntity
  8
0
 62
     3
100
AcDbLine
 10
-304.8093531029384
 20
-251.166557724452
 30
0.0
 11
-305.1265308382073
 21
-251.166557724452
 31
0.0
  0
LINE
  5
931
330
6B
100
AcDbEntity
  8
0
 62
     3
100
AcDbLine
 10
-304.8093531029384
 20
-250.4851145845413
 30
0.0
 11
-305.1315149564846
 21
-250.1677049499512
 31
0.0
  0
LINE
  5
932
330
6B
100
AcDbEntity
  8
0
 62
     3
100
AcDbLine
 10
-304.8093531029384
 20
-280.2343366843224
 30
0.0
 11
-304.8093531029384
 21
-280.3343365144493
 31
0.0
  0
LINE
  5
933
330
6B
100
AcDbEntity
  8
0
 62
     3
100
AcDbLine
 10
-304.8093531029384
 20
-271.3343369018793
 30
0.0
 11
-304.8093531029384
 21
-271.4343367320061
 31
0.0
  0
LINE
  5
934
330
6B
100
AcDbEntity
  8
0
 62
     7
100
AcDbLine
 10
-298.5093530947427
 20
-276.8343367556617
 30
0.0
 11
-299.8093532146971
 21
-276.8343367556617
 31
0.0
  0
LINE
  5
935
330
6B
100
AcDbEntity
  8
0
 62
     7
100
AcDbLine
 10
-299.8093532146971
 20
-276.8343367556617
 30
0.0
 11
-302.3093531588177
 21
-278.0343366962434
 31
0.0
  0
LINE
  5
936
330
6B
100
AcDbEntity
  8
0
 62
     7
100
AcDbLine
 10
-302.3093531588177
 20
-278.0343366962434
 30
0.0
 11
-302.3093531588177
 21
-280.2343366843224
 31
0.0
  0
LINE
  5
937
330
6B
100
AcDbEntity
  8
0
 62
     7
100
AcDbLine
 10
-302.3093531588177
 20
-271.4343367320061
 30
0.0
 11
-302.3093531588177
 21
-273.6343367200853
 31
0.0
  0
LINE
  5
938
330
6B
100
AcDbEntity
  8
0
 62
     7
100
AcDbLine
 10
-302.3093531588177
 20
-273.6343367200853
 30
0.0
 11
-299.8093532146971
 21
-274.8343366606668
 31
0.0
  0
LINE
  5
939
330
6B
100
AcDbEntity
  8
0
 62
     7
100
AcDbLine
 10
-299.8093532146971
 20
-274.8343366606668
 30
0.0
 11
-298.5093530947427
 21
-274.8343366606668
 31
0.0
  0
ARC
  5
93A
330
6B
100
AcDbEntity
  8
0
 62
     7
100
AcDbCircle
 10
-298.5093531029384
 20
-275.8343367081642
 30
0.0
 40
1.0
100
AcDbArc
 50
0.0
 51
89.99999999844972
  0
ARC
  5
93B
330
6B
100
AcDbEntity
  8
0
 62
     7
100
AcDbCircle
 10
-298.5093531029384
 20
-275.8343367081642
 30
0.0
 40
1.0
100
AcDbArc
 50
270.0000000015438
 51
0.0
  0
LINE
  5
93C
330
6B
100
AcDbEntity
  8
0
 62
     7
100
AcDbLine
 10
-304.8093531029384
 20
-271.4343367320061
 30
0.0
 11
-302.3093531588177
 21
-271.4343367320061
 31
0.0
  0
LINE
  5
93D
330
6B
100
AcDbEntity
  8
0
 62
     7
100
AcDbLine
 10
-304.8093531030351
 20
-280.2343366843224
 30
0.0
 11
-302.3093531588177
 21
-280.2343366843224
 31
0.0
  0
SPLINE
  5
93E
330
6B
100
AcDbEntity
  8
0
 62
     3
100
AcDbSpline
210
0.0
220
0.0
230
1.0
 70
    24
 71
     3
 72
    12
 73
     8
 74
     0
 42
0.0000000001
 43
0.0000000001
 40
0.0
 40
0.0
 40
0.0
 40
0.0
 40
0.0655592077293884
 40
0.2801046888388828
 40
0.5009363399605417
 40
0.7456369954730912
 40
1.0
 40
1.0
 40
1.0
 40
1.0
 10
-316.3093531252901
 20
-290.3406087484718
 30
0.0
 10
-316.3093531252901
 20
-290.298645964386
 30
0.0
 10
-316.3093531252901
 20
-290.1193580659155
 30
0.0
 10
-316.3093531252901
 20
-289.7994994512444
 30
0.0
 10
-316.3093531252901
 20
-289.3821602841213
 30
0.0
 10
-316.3093531252901
 20
-288.9691205734136
 30
0.0
 10
-316.3093531252901
 20
-288.7289422345028
 30
0.0
 10
-316.3093531252901
 20
-288.6065280240536
 30
0.0
  0
SPLINE
  5
93F
330
6B
100
AcDbEntity
  8
0
 62
     3
100
AcDbSpline
210
0.0
220
0.0
230
1.0
 70
    24
 71
     3
 72
    12
 73
     8
 74
     0
 42
0.0000000001
 43
0.0000000001
 40
0.0
 40
0.0
 40
0.0
 40
0.0
 40
0.0656174650461829
 40
0.2801361417371968
 40
0.5009355013712457
 40
0.7456342681667331
 40
1.0
 40
1.0
 40
1.0
 40
1.0
 10
-316.3093531252901
 20
-263.0621453922749
 30
0.0
 10
-316.3093531252901
 20
-263.031747455666
 30
0.0
 10
-316.3093531252901
 20
-262.9019716303978
 30
0.0
 10
-316.3093531252901
 20
-262.6443689265126
 30
0.0
 10
-316.3093531252901
 20
-262.256069707189
 30
0.0
 10
-316.3093531252901
 20
-261.8111855714334
 30
0.0
 10
-316.3093531252901
 20
-261.491171213405
 30
0.0
 10
-316.3093531252901
 20
-261.3280646678568
 30
0.0
  0
LINE
  5
940
330
6B
100
AcDbEntity
  8
0
 62
     3
100
AcDbLine
 10
-314.8093528794209
 20
-269.8343366560102
 30
0.0
 11
-314.8093528794209
 21
-281.8343367603183
 31
0.0
  0
LINE
  5
941
330
6B
100
AcDbEntity
  8
0
 62
     7
100
AcDbLine
 10
-314.3093527974646
 20
-289.7192228761078
 30
0.0
 11
-314.3093527974646
 21
-311.3343378704548
 31
0.0
  0
LINE
  5
942
330
6B
100
AcDbEntity
  8
0
 62
     7
100
AcDbLine
 10
-314.3093527974646
 20
-240.3343355458737
 30
0.0
 11
-314.3093527974646
 21
-261.9494505402208
 31
0.0
  0
LINE
  5
943
330
6B
100
AcDbEntity
  8
0
 62
     3
100
AcDbLine
 10
-316.3093531252901
 20
-301.5719836753368
 30
0.0
 11
-316.3093531252901
 21
-290.3406087484718
 31
0.0
  0
LINE
  5
944
330
6B
100
AcDbEntity
  8
0
 62
     3
100
AcDbLine
 10
-316.3093531252901
 20
-303.2843040477991
 30
0.0
 11
-316.3093531252901
 21
-301.5719836753368
 31
0.0
  0
LINE
  5
945
330
6B
100
AcDbEntity
  8
0
 62
     3
100
AcDbLine
 10
-316.3093531252901
 20
-261.3280646678568
 30
0.0
 11
-316.3093531252901
 21
-250.0966897409916
 31
0.0
  0
LINE
  5
946
330
6B
100
AcDbEntity
  8
0
 62
     3
100
AcDbLine
 10
-316.3093531252901
 20
-250.0966897409916
 30
0.0
 11
-316.3093531252901
 21
-248.3843693685293
 31
0.0
  0
LINE
  5
947
330
6B
100
AcDbEntity
  8
0
 62
     3
100
AcDbLine
 10
-316.3093531252901
 20
-288.6065280240536
 30
0.0
 11
-316.3093531252901
 21
-282.9556570563972
 31
0.0
  0
LINE
  5
948
330
6B
100
AcDbEntity
  8
0
 62
     3
100
AcDbLine
 10
-316.3093531252901
 20
-268.7130163599313
 30
0.0
 11
-316.3093531252901
 21
-263.0621453922749
 31
0.0
  0
LINE
  5
949
330
6B
100
AcDbEntity
  8
0
 62
     3
100
AcDbLine
 10
-316.3093531252901
 20
-308.7130150002003
 30
0.0
 11
-316.3093531252901
 21
-303.2843040477991
 31
0.0
  0
LINE
  5
94A
330
6B
100
AcDbEntity
  8
0
 62
     3
100
AcDbLine
 10
-316.3093531252901
 20
-248.3843693685293
 30
0.0
 11
-316.3093531252901
 21
-242.9556584161281
 31
0.0
  0
LINE
  5
94B
330
6B
100
AcDbEntity
  8
0
 62
     3
100
AcDbLine
 10
-304.8093531029384
 20
-301.4885911893606
 30
0.0
 11
-305.1315149564846
 21
-301.5009684663773
 31
0.0
  0
LINE
  5
94C
330
6B
100
AcDbEntity
  8
0
 62
     3
100
AcDbLine
 10
-293.8093531625429
 20
-264.8343367677689
 30
0.0
 11
-293.8093531029384
 21
-301.1343367081642
 31
0.0
  0
LINE
  5
94D
330
6B
100
AcDbEntity
  8
0
 62
     3
100
AcDbLine
 10
-294.3093532444994
 20
-301.6343375843526
 30
0.0
 11
-304.8093531029384
 21
-301.6343375843526
 31
0.0
  0
ARC
  5
94E
330
6B
100
AcDbEntity
  8
0
 62
     3
100
AcDbCircle
 10
-294.3093531029384
 20
-301.1343367081642
 30
0.0
 40
0.5
100
AcDbArc
 50
270.0
 51
0.0
  0
LINE
  5
94F
330
6B
100
AcDbEntity
  8
0
 62
     3
100
AcDbLine
 10
-293.6093535022894
 20
-261.3343371253969
 30
0.0
 11
-294.3093532444994
 21
-261.3343371253969
 31
0.0
  0
LINE
  5
950
330
6B
100
AcDbEntity
  8
0
 62
     3
100
AcDbLine
 10
-293.6093535022894
 20
-264.3343366858125
 30
0.0
 11
-294.3093532444994
 21
-264.3343366858125
 31
0.0
  0
LINE
  5
951
330
6B
100
AcDbEntity
  8
0
 62
     3
100
AcDbLine
 10
-293.6093535022894
 20
-264.3343366858125
 30
0.0
 11
-293.6093535022894
 21
-264.8343367677689
 31
0.0
  0
LINE
  5
952
330
6B
100
AcDbEntity
  8
0
 62
     3
100
AcDbLine
 10
-293.6093535022894
 20
-264.8343367677689
 30
0.0
 11
-294.3093532444994
 21
-264.8343367677689
 31
0.0
  0
LINE
  5
953
330
6B
100
AcDbEntity
  8
0
 62
     3
100
AcDbLine
 10
-304.8093531029384
 20
-301.6343375843525
 30
0.0
 11
-304.8093531029384
 21
-280.3343365144493
 31
0.0
  0
LINE
  5
954
330
6B
100
AcDbEntity
  8
0
 62
     3
100
AcDbLine
 10
-304.8093531029384
 20
-280.3343365144493
 30
0.0
 11
-298.3093529688279
 21
-280.3343365144493
 31
0.0
  0
ARC
  5
955
330
6B
100
AcDbEntity
  8
0
 62
     3
100
AcDbCircle
 10
-298.3093531029384
 20
-279.3343367081643
 30
0.0
 40
1.0
100
AcDbArc
 50
270.0
 51
0.0
  0
LINE
  5
956
330
6B
100
AcDbEntity
  8
0
 62
     3
100
AcDbLine
 10
-297.3093532705763
 20
-279.3343368161977
 30
0.0
 11
-297.3093532705763
 21
-272.3343366001308
 31
0.0
  0
ARC
  5
957
330
6B
100
AcDbEntity
  8
0
 62
     3
100
AcDbCircle
 10
-298.3093531029384
 20
-272.3343367081644
 30
0.0
 40
1.0
100
AcDbArc
 50
0.0
 51
90.0
  0
LINE
  5
958
330
6B
100
AcDbEntity
  8
0
 62
     3
100
AcDbLine
 10
-298.3093529688279
 20
-271.3343369018793
 30
0.0
 11
-304.8093531029384
 21
-271.3343369018793
 31
0.0
  0
LINE
  5
959
330
6B
100
AcDbEntity
  8
0
 62
     3
100
AcDbLine
 10
-304.8093531029384
 20
-271.3343369018793
 30
0.0
 11
-304.8093531029384
 21
-250.034335831976
 31
0.0
  0
LINE
  5
95A
330
6B
100
AcDbEntity
  8
0
 62
     3
100
AcDbLine
 10
-293.6093535022894
 20
-260.8343370434404
 30
0.0
 11
-294.3093532444994
 21
-260.8343370434404
 31
0.0
  0
LINE
  5
95B
330
6B
100
AcDbEntity
  8
0
 62
     3
100
AcDbLine
 10
-293.6093535022894
 20
-260.8343370434404
 30
0.0
 11
-293.6093535022894
 21
-261.3343371253969
 31
0.0
  0
LINE
  5
95C
330
6B
100
AcDbEntity
  8
0
 62
     3
100
AcDbLine
 10
-293.8093531029384
 20
-250.5343367081643
 30
0.0
 11
-293.8093531625429
 21
-260.8343370434404
 31
0.0
  0
LINE
  5
95D
330
6B
100
AcDbEntity
  8
0
 62
     3
100
AcDbLine
 10
-293.8093531625429
 20
-261.3343371253969
 30
0.0
 11
-293.8093531625429
 21
-264.3343366858125
 31
0.0
  0
LINE
  5
95E
330
6B
100
AcDbEntity
  8
0
 62
     3
100
AcDbLine
 10
-304.8093531029384
 20
-250.034335831976
 30
0.0
 11
-294.3093532444994
 21
-250.034335831976
 31
0.0
  0
ARC
  5
95F
330
6B
100
AcDbEntity
  8
0
 62
     3
100
AcDbCircle
 10
-294.3093531029384
 20
-250.5343367081643
 30
0.0
 40
0.5
100
AcDbArc
 50
0.0
 51
90.0
  0
LINE
  5
960
330
6B
100
AcDbEntity
  8
0
 62
     3
100
AcDbLine
 10
-291.8093528347173
 20
-269.8343366560102
 30
0.0
 11
-291.8093528347173
 21
-281.8343367603183
 31
0.0
  0
LINE
  5
961
330
6B
100
AcDbEntity
  8
0
 62
     3
100
AcDbLine
 10
-293.6093535022894
 20
-262.0843367826702
 30
0.0
 11
-293.8093531625429
 21
-262.0843367826702
 31
0.0
  0
LINE
  5
962
330
6B
100
AcDbEntity
  8
0
 62
     3
100
AcDbLine
 10
-293.6093535022894
 20
-261.3343371253969
 30
0.0
 11
-293.6093535022894
 21
-262.0843367826702
 31
0.0
  0
LINE
  5
963
330
6B
100
AcDbEntity
  8
0
 62
     3
100
AcDbLine
 10
-293.6093535022894
 20
-263.5843370285392
 30
0.0
 11
-293.8093531625429
 21
-263.5843370285392
 31
0.0
  0
LINE
  5
964
330
6B
100
AcDbEntity
  8
0
 62
     3
100
AcDbLine
 10
-293.6093535022894
 20
-263.5843370285392
 30
0.0
 11
-293.6093535022894
 21
-264.3343366858125
 31
0.0
  0
ARC
  5
965
330
6B
100
AcDbEntity
  8
0
 62
     3
100
AcDbCircle
 10
-297.4516480008476
 20
-249.8343367081643
 30
0.0
 40
0.2000000000000216
100
AcDbArc
 50
270.0
 51
69.50000000000057
  0
LINE
  5
966
330
6B
100
AcDbEntity
  8
0
 62
     3
100
AcDbLine
 10
-306.241733043463
 20
-246.3343365293503
 30
0.0
 11
-297.3816066728988
 21
-249.6470024984836
 31
0.0
  0
LINE
  5
967
330
6B
100
AcDbEntity
  8
0
 62
     3
100
AcDbLine
 10
-311.3093532370488
 20
-246.3343365293503
 30
0.0
 11
-306.241733043463
 21
-246.3343365293503
 31
0.0
  0
LINE
  5
968
330
6B
100
AcDbEntity
  8
0
 62
     3
100
AcDbLine
 10
-310.4093529032628
 20
-244.1343365412712
 30
0.0
 11
-311.3093532370488
 21
-244.9593374681235
 31
0.0
  0
LINE
  5
969
330
6B
100
AcDbEntity
  8
0
 62
     3
100
AcDbLine
 10
-310.4093529032628
 20
-243.5343375605107
 30
0.0
 11
-310.4093529032628
 21
-244.1343365412712
 31
0.0
  0
LINE
  5
96A
330
6B
100
AcDbEntity
  8
0
 62
     3
100
AcDbLine
 10
-309.3093529092231
 20
-243.5343375605107
 30
0.0
 11
-310.4093529032628
 21
-243.5343375605107
 31
0.0
  0
LINE
  5
96B
330
6B
100
AcDbEntity
  8
0
 62
     3
100
AcDbLine
 10
-309.3093529092231
 20
-242.8343368869781
 30
0.0
 11
-309.3093529092231
 21
-243.5343375605107
 31
0.0
  0
LINE
  5
96C
330
6B
100
AcDbEntity
  8
0
 62
     3
100
AcDbLine
 10
-308.1019490705886
 20
-243.5036113661289
 30
0.0
 11
-309.3093529092231
 21
-242.8343368869781
 31
0.0
  0
LINE
  5
96D
330
6B
100
AcDbEntity
  8
0
 62
     3
100
AcDbLine
 10
-293.6342496173541
 20
-248.9128632646561
 30
0.0
 11
-308.1019490705886
 21
-243.5036113661289
 31
0.0
  0
LINE
  5
96E
330
6B
100
AcDbEntity
  8
0
 62
     3
100
AcDbLine
 10
-293.3093530805865
 20
-251.7843375158071
 30
0.0
 11
-293.3093530805865
 21
-249.3811993103981
 31
0.0
  0
ARC
  5
96F
330
6B
100
AcDbEntity
  8
0
 62
     3
100
AcDbCircle
 10
-293.8093531029384
 20
-249.3811990502938
 30
0.0
 40
0.5000000000000007
100
AcDbArc
 50
0.0
 51
69.50000000000057
  0
LINE
  5
970
330
6B
100
AcDbEntity
  8
0
 62
     3
100
AcDbLine
 10
-293.8093531625429
 20
-251.7843375158071
 30
0.0
 11
-293.3093530805865
 21
-251.7843375158071
 31
0.0
  0
LINE
  5
971
330
6B
100
AcDbEntity
  8
0
 62
     3
100
AcDbLine
 10
-308.1019490705886
 20
-308.1650620501997
 30
0.0
 11
-309.3093529092231
 21
-308.8343365293503
 31
0.0
  0
LINE
  5
972
330
6B
100
AcDbEntity
  8
0
 62
     3
100
AcDbLine
 10
-309.3093529092231
 20
-308.8343365293503
 30
0.0
 11
-309.3093529092231
 21
-308.1343358558178
 31
0.0
  0
LINE
  5
973
330
6B
100
AcDbEntity
  8
0
 62
     3
100
AcDbLine
 10
-309.3093529092231
 20
-308.1343358558178
 30
0.0
 11
-310.4093529032628
 21
-308.1343358558178
 31
0.0
  0
LINE
  5
974
330
6B
100
AcDbEntity
  8
0
 62
     3
100
AcDbLine
 10
-310.4093529032628
 20
-308.1343358558178
 30
0.0
 11
-310.4093529032628
 21
-307.5343368750572
 31
0.0
  0
LINE
  5
975
330
6B
100
AcDbEntity
  8
0
 62
     3
100
AcDbLine
 10
-310.4093529032628
 20
-307.5343368750572
 30
0.0
 11
-311.3093532370488
 21
-306.7093359482051
 31
0.0
  0
LINE
  5
976
330
6B
100
AcDbEntity
  8
0
 62
     3
100
AcDbLine
 10
-311.3093532370488
 20
-305.3343368869781
 30
0.0
 11
-306.241733043463
 21
-305.3343368869781
 31
0.0
  0
LINE
  5
977
330
6B
100
AcDbEntity
  8
0
 62
     3
100
AcDbLine
 10
-306.241733043463
 20
-305.3343368869781
 30
0.0
 11
-297.3816066728988
 21
-302.0216709178448
 31
0.0
  0
ARC
  5
978
330
6B
100
AcDbEntity
  8
0
 62
     3
100
AcDbCircle
 10
-297.4516480008476
 20
-301.8343367081643
 30
0.0
 40
0.2000000000000083
100
AcDbArc
 50
290.4999999999994
 51
90.0
  0
LINE
  5
979
330
6B
100
AcDbEntity
  8
0
 62
     3
100
AcDbLine
 10
-293.6342496173541
 20
-302.7558101516725
 30
0.0
 11
-308.1019490705886
 21
-308.1650620501997
 31
0.0
  0
ARC
  5
97A
330
6B
100
AcDbEntity
  8
0
 62
     3
100
AcDbCircle
 10
-293.8093531029384
 20
-302.2874743660348
 30
0.0
 40
0.5000000000000142
100
AcDbArc
 50
290.4999999999994
 51
0.0
  0
LINE
  5
97B
330
6B
100
AcDbEntity
  8
0
 62
     3
100
AcDbLine
 10
-293.3093530805865
 20
-299.8843359005213
 30
0.0
 11
-293.3093530805865
 21
-302.2874741059303
 31
0.0
  0
LINE
  5
97C
330
6B
100
AcDbEntity
  8
0
 62
     3
100
AcDbLine
 10
-293.8093531625429
 20
-299.8843359005213
 30
0.0
 11
-293.3093530805865
 21
-299.8843359005213
 31
0.0
  0
LINE
  5
97D
330
6B
100
AcDbEntity
  8
0
 62
     7
100
AcDbLine
 10
-297.3093532705763
 20
-279.0280807007611
 30
0.0
 11
-302.3093531588177
 21
-279.0280807007611
 31
0.0
  0
LINE
  5
97E
330
6B
100
AcDbEntity
  8
0
 62
     7
100
AcDbLine
 10
-302.3093531588177
 20
-272.6405927155674
 30
0.0
 11
-297.3093532705763
 21
-272.6405927155674
 31
0.0
  0
LINE
  5
97F
330
6B
100
AcDbEntity
  8
0
 62
     3
100
AcDbLine
 10
-219.3859675292195
 20
-301.7382955354215
 30
0.0
 11
-219.5865809310497
 21
-301.7382955354215
 31
0.0
  0
LINE
  5
980
330
6B
100
AcDbEntity
  8
0
 62
     3
100
AcDbLine
 10
-249.1865809399904
 20
-301.834337244606
 30
0.0
 11
-244.886580793959
 21
-301.834337244606
 31
0.0
  0
LINE
  5
981
330
6B
100
AcDbEntity
  8
0
 62
     3
100
AcDbLine
 10
-238.886580741805
 20
-301.834337244606
 30
0.0
 11
-229.8865811292352
 21
-301.834337244606
 31
0.0
  0
LINE
  5
982
330
6B
100
AcDbEntity
  8
0
 62
     3
100
AcDbLine
 10
-223.8865810770811
 20
-301.834337244606
 30
0.0
 11
-219.5865809310497
 21
-301.834337244606
 31
0.0
  0
LINE
  5
983
330
6B
100
AcDbEntity
  8
0
 62
     3
100
AcDbLine
 10
-249.1865809399904
 20
-301.7382955354215
 30
0.0
 11
-249.3871943418206
 21
-301.7382955354215
 31
0.0
  0
LINE
  5
984
330
6B
100
AcDbEntity
  8
0
 62
     3
100
AcDbLine
 10
-218.7226479266108
 20
-300.5012532871723
 30
0.0
 11
-218.7705784429134
 21
-300.75104331491
 31
0.0
  0
LINE
  5
985
330
6B
100
AcDbEntity
  8
0
 62
     3
100
AcDbLine
 10
-218.7693081189216
 20
-250.9170266043902
 30
0.0
 11
-218.7214297566832
 21
-251.166557724452
 31
0.0
  0
LINE
  5
986
330
6B
100
AcDbEntity
  8
0
 62
     3
100
AcDbLine
 10
-218.7214297566832
 20
-251.166557724452
 30
0.0
 11
-218.7214297566832
 21
-271.4343367320061
 31
0.0
  0
LINE
  5
987
330
6B
100
AcDbEntity
  8
0
 62
     3
100
AcDbLine
 10
-218.7226479266108
 20
-280.2343366843224
 30
0.0
 11
-218.7226479266108
 21
-300.5012532871723
 31
0.0
  0
LINE
  5
988
330
6B
100
AcDbEntity
  8
0
 62
     3
100
AcDbLine
 10
-250.0038565460862
 20
-300.7516412240028
 30
0.0
 11
-250.0517321143569
 21
-300.5021156918764
 31
0.0
  0
LINE
  5
989
330
6B
100
AcDbEntity
  8
0
 62
     3
100
AcDbLine
 10
-250.0517321143569
 20
-251.166557724452
 30
0.0
 11
-250.0038639966668
 21
-250.9170713078737
 31
0.0
  0
LINE
  5
98A
330
6B
100
AcDbEntity
  8
0
 62
     3
100
AcDbLine
 10
-250.0517321143569
 20
-271.4343367320061
 30
0.0
 11
-250.0517321143569
 21
-251.166557724452
 31
0.0
  0
LINE
  5
98B
330
6B
100
AcDbEntity
  8
0
 62
     3
100
AcDbLine
 10
-250.0517321143569
 20
-300.5021156918764
 30
0.0
 11
-250.0517321143569
 21
-280.2343366843224
 31
0.0
  0
LINE
  5
98C
330
6B
100
AcDbEntity
  8
0
 62
     3
100
AcDbLine
 10
-218.3865801755608
 20
-250.9290369403124
 30
0.0
 11
-218.3865801755608
 21
-300.7396364760162
 31
0.0
  0
LINE
  5
98D
330
6B
100
AcDbEntity
  8
0
 62
     3
100
AcDbLine
 10
-218.7214297566832
 20
-271.4343367320061
 30
0.0
 11
-218.736580512327
 21
-271.4343367320061
 31
0.0
  0
LINE
  5
98E
330
6B
100
AcDbEntity
  8
0
 62
     3
100
AcDbLine
 10
-218.736580512327
 20
-280.2343366843224
 30
0.0
 11
-218.7226479266108
 21
-280.2343366843224
 31
0.0
  0
LINE
  5
98F
330
6B
100
AcDbEntity
  8
0
 62
     3
100
AcDbLine
 10
-250.3865816954793
 20
-300.7396364760162
 30
0.0
 11
-250.3865816954793
 21
-250.9290369403124
 31
0.0
  0
LINE
  5
990
330
6B
100
AcDbEntity
  8
0
 62
     3
100
AcDbLine
 10
-250.036581358713
 20
-271.4343367320061
 30
0.0
 11
-250.0517321143569
 21
-271.4343367320061
 31
0.0
  0
LINE
  5
991
330
6B
100
AcDbEntity
  8
0
 62
     3
100
AcDbLine
 10
-250.0517321143569
 20
-280.2343366843224
 30
0.0
 11
-250.036581358713
 21
-280.2343366843224
 31
0.0
  0
ELLIPSE
  5
992
330
6B
100
AcDbEntity
  8
0
 62
     3
100
AcDbEllipse
 10
-219.3880464096656
 20
-300.7375587684248
 30
0.0
 11
0.8174356048783126
 21
-0.5798343957040971
 31
0.0
210
0.0
220
0.0
230
1.0
 40
0.9978028154207276
 41
5.33038992101163
 42
6.899110279166846
  0
ELLIPSE
  5
993
330
6B
100
AcDbEntity
  8
0
 62
     3
100
AcDbEllipse
 10
-219.3880464096656
 20
-250.9311146479036
 30
0.0
 11
0.8174356048783121
 21
0.5798343957040686
 31
0.0
210
0.0
220
0.0
230
0.9999999999999998
 40
0.9978028154207228
 41
5.667260335192357
 42
7.235980693347577
  0
ELLIPSE
  5
994
330
6B
100
AcDbEntity
  8
0
 62
     3
100
AcDbEllipse
 10
-249.3851154613745
 20
-250.9311146479036
 30
0.0
 11
-0.8174356048782557
 21
0.5798343957040971
 31
0.0
210
0.0
220
0.0
230
1.0
 40
0.9978028154207624
 41
5.330389921011622
 42
6.899110279166861
  0
ELLIPSE
  5
995
330
6B
100
AcDbEntity
  8
0
 62
     3
100
AcDbEllipse
 10
-249.3851154613745
 20
-300.7375587684248
 30
0.0
 11
-0.8174356048782557
 21
-0.5798343957040971
 31
0.0
210
0.0
220
0.0
230
1.0
 40
0.9978028154207528
 41
5.667260335192318
 42
7.235980693347507
  0
LINE
  5
996
330
6B
100
AcDbEntity
  8
0
 62
     3
100
AcDbLine
 10
-249.3871943418206
 20
-249.930377880907
 30
0.0
 11
-249.1865809399904
 21
-249.930377880907
 31
0.0
  0
LINE
  5
997
330
6B
100
AcDbEntity
  8
0
 62
     3
100
AcDbLine
 10
-219.5865809310497
 20
-249.8343361717224
 30
0.0
 11
-223.8865810770811
 21
-249.8343361717224
 31
0.0
  0
LINE
  5
998
330
6B
100
AcDbEntity
  8
0
 62
     3
100
AcDbLine
 10
-229.8865811292352
 20
-249.8343361717224
 30
0.0
 11
-238.886580741805
 21
-249.8343361717224
 31
0.0
  0
LINE
  5
999
330
6B
100
AcDbEntity
  8
0
 62
     3
100
AcDbLine
 10
-244.886580793959
 20
-249.8343361717224
 30
0.0
 11
-249.1865809399904
 21
-249.8343361717224
 31
0.0
  0
LINE
  5
99A
330
6B
100
AcDbEntity
  8
0
 62
     3
100
AcDbLine
 10
-219.5865809310497
 20
-249.930377880907
 30
0.0
 11
-219.3859675292195
 21
-249.930377880907
 31
0.0
  0
LINE
  5
99B
330
6B
100
AcDbEntity
  8
0
 62
     3
100
AcDbLine
 10
-249.1865809399904
 20
-302.7864748787641
 30
0.0
 11
-249.1865809399904
 21
-301.7382955354215
 31
0.0
  0
ARC
  5
99C
330
6B
100
AcDbEntity
  8
0
 62
     3
100
AcDbCircle
 10
-234.3865809355201
 20
-289.3343367081643
 30
0.0
 40
19.99999999999999
100
AcDbArc
 50
301.6682432535402
 51
317.7314155704274
  0
ARC
  5
99D
330
6B
100
AcDbEntity
  8
0
 62
     3
100
AcDbCircle
 10
-234.3865809355201
 20
-289.3343367081643
 30
0.0
 40
19.99999999999999
100
AcDbArc
 50
256.9971218370914
 51
283.0028781629149
  0
ARC
  5
99E
330
6B
100
AcDbEntity
  8
0
 62
     3
100
AcDbCircle
 10
-234.3865809355201
 20
-289.3343367081643
 30
0.0
 40
19.99999999999999
100
AcDbArc
 50
222.2685844295726
 51
238.3317567464599
  0
LINE
  5
99F
330
6B
100
AcDbEntity
  8
0
 62
     3
100
AcDbLine
 10
-219.5865809310497
 20
-301.7382955354215
 30
0.0
 11
-219.5865809310497
 21
-302.7864748787641
 31
0.0
  0
LINE
  5
9A0
330
6B
100
AcDbEntity
  8
0
 62
     3
100
AcDbLine
 10
-219.5865809310497
 20
-248.8821985375643
 30
0.0
 11
-219.5865809310497
 21
-249.930377880907
 31
0.0
  0
ARC
  5
9A1
330
6B
100
AcDbEntity
  8
0
 62
     3
100
AcDbCircle
 10
-234.3865809355201
 20
-262.3343367081643
 30
0.0
 40
19.99999999999996
100
AcDbArc
 50
121.6682432535401
 51
137.7314155704274
  0
ARC
  5
9A2
330
6B
100
AcDbEntity
  8
0
 62
     3
100
AcDbCircle
 10
-234.3865809355201
 20
-262.3343367081643
 30
0.0
 40
19.99999999999999
100
AcDbArc
 50
76.99712183709142
 51
103.0028781629086
  0
ARC
  5
9A3
330
6B
100
AcDbEntity
  8
0
 62
     3
100
AcDbCircle
 10
-234.3865809355201
 20
-262.3343367081643
 30
0.0
 40
19.99999999999999
100
AcDbArc
 50
42.26858442957253
 51
58.33175674645985
  0
LINE
  5
9A4
330
6B
100
AcDbEntity
  8
0
 62
     3
100
AcDbLine
 10
-249.1865809399904
 20
-249.930377880907
 30
0.0
 11
-249.1865809399904
 21
-248.8821985375643
 31
0.0
  0
ARC
  5
9A5
330
6B
100
AcDbEntity
  8
0
 62
     3
100
AcDbCircle
 10
-246.1865809355201
 20
-250.0966898755416
 30
0.0
 40
5.000000000000056
100
AcDbArc
 50
133.9569467237703
 51
180.0
  0
ARC
  5
9A6
330
6B
100
AcDbEntity
  8
0
 62
     3
100
AcDbCircle
 10
-234.3865809355201
 20
-262.3343367081643
 30
0.0
 40
21.99999999999997
100
AcDbArc
 50
118.5074305093574
 51
133.9569467237703
  0
ARC
  5
9A7
330
6B
100
AcDbEntity
  8
0
 62
     3
100
AcDbCircle
 10
-234.3865809355201
 20
-262.3343367081643
 30
0.0
 40
21.99999999999999
100
AcDbArc
 50
62.41980079640818
 51
117.5801992035918
  0
ARC
  5
9A8
330
6B
100
AcDbEntity
  8
0
 62
     3
100
AcDbCircle
 10
-234.3865809355201
 20
-262.3343367081643
 30
0.0
 40
22.0
100
AcDbArc
 50
46.04305327622964
 51
61.49256949064254
  0
ARC
  5
9A9
330
6B
100
AcDbEntity
  8
0
 62
     3
100
AcDbCircle
 10
-222.58658093552
 20
-250.0966898755416
 30
0.0
 40
5.000000000000006
100
AcDbArc
 50
0.0
 51
46.04305327622964
  0
LINE
  5
9AA
330
6B
100
AcDbEntity
  8
0
 62
     3
100
AcDbLine
 10
-217.5865815345467
 20
-250.0966897409916
 30
0.0
 11
-217.5865815345467
 21
-301.5719836753368
 31
0.0
  0
ARC
  5
9AB
330
6B
100
AcDbEntity
  8
0
 62
     3
100
AcDbCircle
 10
-222.58658093552
 20
-301.571983540787
 30
0.0
 40
5.000000000000015
100
AcDbArc
 50
313.9569467237704
 51
0.0
  0
ARC
  5
9AC
330
6B
100
AcDbEntity
  8
0
 62
     3
100
AcDbCircle
 10
-234.3865809355201
 20
-289.3343367081643
 30
0.0
 40
22.00000000000001
100
AcDbArc
 50
298.5074305093574
 51
313.9569467237704
  0
ARC
  5
9AD
330
6B
100
AcDbEntity
  8
0
 62
     3
100
AcDbCircle
 10
-234.3865809355201
 20
-289.3343367081643
 30
0.0
 40
22.00000000000002
100
AcDbArc
 50
242.4198007964081
 51
297.5801992035918
  0
ARC
  5
9AE
330
6B
100
AcDbEntity
  8
0
 62
     3
100
AcDbCircle
 10
-234.3865809355201
 20
-289.3343367081643
 30
0.0
 40
22.00000000000001
100
AcDbArc
 50
226.0430532762296
 51
241.4925694906425
  0
ARC
  5
9AF
330
6B
100
AcDbEntity
  8
0
 62
     3
100
AcDbCircle
 10
-246.1865809355201
 20
-301.571983540787
 30
0.0
 40
5.000000000000015
100
AcDbArc
 50
180.0
 51
226.0430532762296
  0
LINE
  5
9B0
330
6B
100
AcDbEntity
  8
0
 62
     3
100
AcDbLine
 10
-251.1865803364934
 20
-301.5719836753368
 30
0.0
 11
-251.1865803364934
 21
-250.0966897409916
 31
0.0
  0
CIRCLE
  5
9B1
330
6B
100
AcDbEntity
  8
0
 62
     3
100
AcDbCircle
 10
-224.9365809355201
 20
-275.8343367081642
 30
0.0
 40
4.5
  0
CIRCLE
  5
9B2
330
6B
100
AcDbEntity
  8
0
 62
     3
100
AcDbCircle
 10
-224.9365809355201
 20
-275.8343367081642
 30
0.0
 40
6.000000000000056
  0
CIRCLE
  5
9B3
330
6B
100
AcDbEntity
  8
0
 62
     3
100
AcDbCircle
 10
-243.83658093552
 20
-275.8343367081642
 30
0.0
 40
4.5
  0
CIRCLE
  5
9B4
330
6B
100
AcDbEntity
  8
0
 62
     3
100
AcDbCircle
 10
-243.83658093552
 20
-275.8343367081642
 30
0.0
 40
6.0
  0
LINE
  5
9B5
330
6B
100
AcDbEntity
  8
0
 62
     3
100
AcDbLine
 10
-223.8865810770811
 20
-299.8843359005213
 30
0.0
 11
-229.8865811292352
 21
-299.8843359005213
 31
0.0
  0
LINE
  5
9B6
330
6B
100
AcDbEntity
  8
0
 62
     3
100
AcDbLine
 10
-223.8865810770811
 20
-299.8843359005213
 30
0.0
 11
-223.8865810770811
 21
-302.2874741059303
 31
0.0
  0
LINE
  5
9B7
330
6B
100
AcDbEntity
  8
0
 62
     3
100
AcDbLine
 10
-229.8865811292352
 20
-299.8843359005213
 30
0.0
 11
-229.8865811292352
 21
-302.2874741059303
 31
0.0
  0
LINE
  5
9B8
330
6B
100
AcDbEntity
  8
0
 62
     3
100
AcDbLine
 10
-229.8865811292352
 20
-302.7558101516725
 30
0.0
 11
-229.8865811292352
 21
-302.2874741059303
 31
0.0
  0
LINE
  5
9B9
330
6B
100
AcDbEntity
  8
0
 62
     3
100
AcDbLine
 10
-223.8865810770811
 20
-302.2874741059303
 30
0.0
 11
-223.8865810770811
 21
-302.7558101516725
 31
0.0
  0
LINE
  5
9BA
330
6B
100
AcDbEntity
  8
0
 62
     3
100
AcDbLine
 10
-229.8865811292352
 20
-249.3811993103981
 30
0.0
 11
-229.8865811292352
 21
-248.9128632646561
 31
0.0
  0
LINE
  5
9BB
330
6B
100
AcDbEntity
  8
0
 62
     3
100
AcDbLine
 10
-223.8865810770811
 20
-248.9128632646561
 30
0.0
 11
-223.8865810770811
 21
-249.3811993103981
 31
0.0
  0
LINE
  5
9BC
330
6B
100
AcDbEntity
  8
0
 62
     3
100
AcDbLine
 10
-229.8865811292352
 20
-251.7843375158071
 30
0.0
 11
-229.8865811292352
 21
-249.3811993103981
 31
0.0
  0
LINE
  5
9BD
330
6B
100
AcDbEntity
  8
0
 62
     3
100
AcDbLine
 10
-223.8865810770811
 20
-251.7843375158071
 30
0.0
 11
-223.8865810770811
 21
-249.3811993103981
 31
0.0
  0
LINE
  5
9BE
330
6B
100
AcDbEntity
  8
0
 62
     3
100
AcDbLine
 10
-223.8865810770811
 20
-251.7843375158071
 30
0.0
 11
-229.8865811292352
 21
-251.7843375158071
 31
0.0
  0
LINE
  5
9BF
330
6B
100
AcDbEntity
  8
0
 62
     3
100
AcDbLine
 10
-244.886580793959
 20
-302.7558101516725
 30
0.0
 11
-244.886580793959
 21
-302.2874741059303
 31
0.0
  0
LINE
  5
9C0
330
6B
100
AcDbEntity
  8
0
 62
     3
100
AcDbLine
 10
-238.886580741805
 20
-302.2874741059303
 30
0.0
 11
-238.886580741805
 21
-302.7558101516725
 31
0.0
  0
LINE
  5
9C1
330
6B
100
AcDbEntity
  8
0
 62
     3
100
AcDbLine
 10
-244.886580793959
 20
-299.8843359005213
 30
0.0
 11
-238.886580741805
 21
-299.8843359005213
 31
0.0
  0
LINE
  5
9C2
330
6B
100
AcDbEntity
  8
0
 62
     3
100
AcDbLine
 10
-244.886580793959
 20
-299.8843359005213
 30
0.0
 11
-244.886580793959
 21
-302.2874741059303
 31
0.0
  0
LINE
  5
9C3
330
6B
100
AcDbEntity
  8
0
 62
     3
100
AcDbLine
 10
-238.886580741805
 20
-299.8843359005213
 30
0.0
 11
-238.886580741805
 21
-302.2874741059303
 31
0.0
  0
LINE
  5
9C4
330
6B
100
AcDbEntity
  8
0
 62
     3
100
AcDbLine
 10
-244.886580793959
 20
-251.7843375158071
 30
0.0
 11
-238.886580741805
 21
-251.7843375158071
 31
0.0
  0
LINE
  5
9C5
330
6B
100
AcDbEntity
  8
0
 62
     3
100
AcDbLine
 10
-244.886580793959
 20
-251.7843375158071
 30
0.0
 11
-244.886580793959
 21
-249.3811993103981
 31
0.0
  0
LINE
  5
9C6
330
6B
100
AcDbEntity
  8
0
 62
     3
100
AcDbLine
 10
-238.886580741805
 20
-251.7843375158071
 30
0.0
 11
-238.886580741805
 21
-249.3811993103981
 31
0.0
  0
LINE
  5
9C7
330
6B
100
AcDbEntity
  8
0
 62
     3
100
AcDbLine
 10
-238.886580741805
 20
-248.9128632646561
 30
0.0
 11
-238.886580741805
 21
-249.3811993103981
 31
0.0
  0
LINE
  5
9C8
330
6B
100
AcDbEntity
  8
0
 62
     3
100
AcDbLine
 10
-244.886580793959
 20
-249.3811993103981
 30
0.0
 11
-244.886580793959
 21
-248.9128632646561
 31
0.0
  0
LINE
  5
9C9
330
6B
100
AcDbEntity
  8
0
 62
     7
100
AcDbLine
 10
-246.2865812097014
 20
-260.8343370434404
 30
0.0
 11
-250.036581358713
 21
-260.8343370434404
 31
0.0
  0
LINE
  5
9CA
330
6B
100
AcDbEntity
  8
0
 62
     7
100
AcDbLine
 10
-246.2865812097014
 20
-261.5843367007138
 30
0.0
 11
-246.2865812097014
 21
-260.8343370434404
 31
0.0
  0
LINE
  5
9CB
330
6B
100
AcDbEntity
  8
0
 62
     7
100
AcDbLine
 10
-234.5365809426447
 20
-261.5843367007138
 30
0.0
 11
-246.2865812097014
 21
-261.5843367007138
 31
0.0
  0
LINE
  5
9CC
330
6B
100
AcDbEntity
  8
0
 62
     7
100
AcDbLine
 10
-246.7865812916578
 20
-261.3343371253969
 30
0.0
 11
-246.7865812916578
 21
-262.0843367826702
 31
0.0
  0
LINE
  5
9CD
330
6B
100
AcDbEntity
  8
0
 62
     7
100
AcDbLine
 10
-250.036581358713
 20
-261.3343371253969
 30
0.0
 11
-246.7865812916578
 21
-261.3343371253969
 31
0.0
  0
LINE
  5
9CE
330
6B
100
AcDbEntity
  8
0
 62
     3
100
AcDbLine
 10
-250.036581358713
 20
-260.8343370434404
 30
0.0
 11
-250.036581358713
 21
-261.3343371253969
 31
0.0
  0
LINE
  5
9CF
330
6B
100
AcDbEntity
  8
0
 62
     7
100
AcDbLine
 10
-246.7865812916578
 20
-262.0843367826702
 30
0.0
 11
-234.5365809426447
 21
-262.0843367826702
 31
0.0
  0
LINE
  5
9D0
330
6B
100
AcDbEntity
  8
0
 62
     7
100
AcDbLine
 10
-234.5365809426447
 20
-262.0843367826702
 30
0.0
 11
-234.5365809426447
 21
-261.5843367007138
 31
0.0
  0
LINE
  5
9D1
330
6B
100
AcDbEntity
  8
0
 62
     7
100
AcDbLine
 10
-246.7865812916578
 20
-264.3343366858125
 30
0.0
 11
-250.036581358713
 21
-264.3343366858125
 31
0.0
  0
LINE
  5
9D2
330
6B
100
AcDbEntity
  8
0
 62
     7
100
AcDbLine
 10
-246.7865812916578
 20
-263.5843370285392
 30
0.0
 11
-246.7865812916578
 21
-264.3343366858125
 31
0.0
  0
LINE
  5
9D3
330
6B
100
AcDbEntity
  8
0
 62
     7
100
AcDbLine
 10
-234.5365809426447
 20
-263.5843370285392
 30
0.0
 11
-246.7865812916578
 21
-263.5843370285392
 31
0.0
  0
LINE
  5
9D4
330
6B
100
AcDbEntity
  8
0
 62
     7
100
AcDbLine
 10
-246.2865812097014
 20
-264.8343367677689
 30
0.0
 11
-246.2865812097014
 21
-264.0843371104956
 31
0.0
  0
LINE
  5
9D5
330
6B
100
AcDbEntity
  8
0
 62
     7
100
AcDbLine
 10
-250.036581358713
 20
-264.8343367677689
 30
0.0
 11
-246.2865812097014
 21
-264.8343367677689
 31
0.0
  0
LINE
  5
9D6
330
6B
100
AcDbEntity
  8
0
 62
     3
100
AcDbLine
 10
-250.036581358713
 20
-264.3343366858125
 30
0.0
 11
-250.036581358713
 21
-264.8343367677689
 31
0.0
  0
LINE
  5
9D7
330
6B
100
AcDbEntity
  8
0
 62
     7
100
AcDbLine
 10
-234.5365809426447
 20
-264.0843371104956
 30
0.0
 11
-234.5365809426447
 21
-263.5843370285392
 31
0.0
  0
LINE
  5
9D8
330
6B
100
AcDbEntity
  8
0
 62
     7
100
AcDbLine
 10
-246.2865812097014
 20
-264.0843371104956
 30
0.0
 11
-234.5365809426447
 21
-264.0843371104956
 31
0.0
  0
LINE
  5
9D9
330
6B
100
AcDbEntity
  8
0
 62
     3
100
AcDbLine
 10
-223.8865810770811
 20
-243.5036113661289
 30
0.0
 11
-229.8865811292352
 21
-243.5036113661289
 31
0.0
  0
LINE
  5
9DA
330
6B
100
AcDbEntity
  8
0
 62
     3
100
AcDbLine
 10
-229.8865811292352
 20
-248.9128632646561
 30
0.0
 11
-229.8865811292352
 21
-243.5036113661289
 31
0.0
  0
LINE
  5
9DB
330
6B
100
AcDbEntity
  8
0
 62
     3
100
AcDbLine
 10
-223.8865810770811
 20
-248.9128632646561
 30
0.0
 11
-223.8865810770811
 21
-243.5036113661289
 31
0.0
  0
LINE
  5
9DC
330
6B
100
AcDbEntity
  8
0
 62
     3
100
AcDbLine
 10
-223.8865810770811
 20
-308.1650620501997
 30
0.0
 11
-229.8865811292352
 21
-308.1650620501997
 31
0.0
  0
LINE
  5
9DD
330
6B
100
AcDbEntity
  8
0
 62
     3
100
AcDbLine
 10
-229.8865811292352
 20
-302.7558101516725
 30
0.0
 11
-229.8865811292352
 21
-308.1650620501997
 31
0.0
  0
LINE
  5
9DE
330
6B
100
AcDbEntity
  8
0
 62
     3
100
AcDbLine
 10
-223.8865810770811
 20
-302.7558101516725
 30
0.0
 11
-223.8865810770811
 21
-308.1650620501997
 31
0.0
  0
LINE
  5
9DF
330
6B
100
AcDbEntity
  8
0
 62
     3
100
AcDbLine
 10
-244.886580793959
 20
-308.1650620501997
 30
0.0
 11
-238.886580741805
 21
-308.1650620501997
 31
0.0
  0
LINE
  5
9E0
330
6B
100
AcDbEntity
  8
0
 62
     3
100
AcDbLine
 10
-244.886580793959
 20
-302.7558101516725
 30
0.0
 11
-244.886580793959
 21
-308.1650620501997
 31
0.0
  0
LINE
  5
9E1
330
6B
100
AcDbEntity
  8
0
 62
     3
100
AcDbLine
 10
-238.886580741805
 20
-302.7558101516725
 30
0.0
 11
-238.886580741805
 21
-308.1650620501997
 31
0.0
  0
LINE
  5
9E2
330
6B
100
AcDbEntity
  8
0
 62
     3
100
AcDbLine
 10
-244.886580793959
 20
-243.5036113661289
 30
0.0
 11
-238.886580741805
 21
-243.5036113661289
 31
0.0
  0
LINE
  5
9E3
330
6B
100
AcDbEntity
  8
0
 62
     3
100
AcDbLine
 10
-244.886580793959
 20
-248.9128632646561
 30
0.0
 11
-244.886580793959
 21
-243.5036113661289
 31
0.0
  0
LINE
  5
9E4
330
6B
100
AcDbEntity
  8
0
 62
     3
100
AcDbLine
 10
-238.886580741805
 20
-248.9128632646561
 30
0.0
 11
-238.886580741805
 21
-243.5036113661289
 31
0.0
  0
SPLINE
  5
9E5
330
6B
100
AcDbEntity
  8
0
 62
     3
100
AcDbSpline
210
0.0
220
0.0
230
1.0
 70
    24
 71
     3
 72
    14
 73
    10
 74
     0
 42
0.0000000001
 43
0.0000000001
 40
0.0
 40
0.0
 40
0.0
 40
0.0
 40
0.2499999999999999
 40
0.2499999999999999
 40
0.5
 40
0.5
 40
0.75
 40
0.75
 40
1.0
 40
1.0
 40
1.0
 40
1.0
 10
-218.7365809355201
 20
-273.9608373086448
 30
0.0
 10
-218.7365809355201
 20
-274.2737523541864
 30
0.0
 10
-218.7365809355201
 20
-274.5856982517686
 30
0.0
 10
-218.7365809355201
 20
-275.2092032710339
 30
0.0
 10
-218.7365809355201
 20
-275.5211234702845
 30
0.0
 10
-218.7365809355201
 20
-276.1472065531781
 30
0.0
 10
-218.7365809355201
 20
-276.4593334485563
 30
0.0
 10
-218.7365809355201
 20
-277.082958452033
 30
0.0
 10
-218.7365809355201
 20
-277.3946514644991
 30
0.0
 10
-218.7365809355201
 20
-277.7078361076838
 30
0.0
  0
LINE
  5
9E6
330
6B
100
AcDbEntity
  8
0
 62
     3
100
AcDbLine
 10
-218.736580512327
 20
-277.7078360727564
 30
0.0
 11
-218.736580512327
 21
-300.6343374204397
 31
0.0
  0
ARC
  5
9E7
330
6B
100
AcDbEntity
  8
0
 62
     3
100
AcDbCircle
 10
-219.7365809355201
 20
-300.6343367081643
 30
0.0
 40
1.0
100
AcDbArc
 50
270.0
 51
0.0
  0
LINE
  5
9E8
330
6B
100
AcDbEntity
  8
0
 62
     3
100
AcDbLine
 10
-218.736580512327
 20
-251.0343359958887
 30
0.0
 11
-218.736580512327
 21
-273.9608373435721
 31
0.0
  0
ARC
  5
9E9
330
6B
100
AcDbEntity
  8
0
 62
     3
100
AcDbCircle
 10
-219.7365809355201
 20
-251.0343367081643
 30
0.0
 40
1.0
100
AcDbArc
 50
0.0
 51
90.0
  0
LINE
  5
9EA
330
6B
100
AcDbEntity
  8
0
 62
     3
100
AcDbLine
 10
-219.7365806762399
 20
-301.6343375843526
 30
0.0
 11
-223.8865810770811
 21
-301.6343375843526
 31
0.0
  0
LINE
  5
9EB
330
6B
100
AcDbEntity
  8
0
 62
     3
100
AcDbLine
 10
-223.8865810770811
 20
-250.034335831976
 30
0.0
 11
-219.7365806762399
 21
-250.034335831976
 31
0.0
  0
LINE
  5
9EC
330
6B
100
AcDbEntity
  8
0
 62
     3
100
AcDbLine
 10
-229.8865811292352
 20
-301.6343375843526
 30
0.0
 11
-238.886580741805
 21
-301.6343375843526
 31
0.0
  0
LINE
  5
9ED
330
6B
100
AcDbEntity
  8
0
 62
     3
100
AcDbLine
 10
-238.886580741805
 20
-250.034335831976
 30
0.0
 11
-229.8865811292352
 21
-250.034335831976
 31
0.0
  0
LINE
  5
9EE
330
6B
100
AcDbEntity
  8
0
 62
     3
100
AcDbLine
 10
-244.886580793959
 20
-301.6343375843526
 30
0.0
 11
-249.0365811948003
 21
-301.6343375843526
 31
0.0
  0
LINE
  5
9EF
330
6B
100
AcDbEntity
  8
0
 62
     3
100
AcDbLine
 10
-249.0365811948003
 20
-250.034335831976
 30
0.0
 11
-244.886580793959
 21
-250.034335831976
 31
0.0
  0
ARC
  5
9F0
330
6B
100
AcDbEntity
  8
0
 62
     3
100
AcDbCircle
 10
-249.0365809355201
 20
-300.6343367081643
 30
0.0
 40
1.0
100
AcDbArc
 50
180.0
 51
270.0
  0
ARC
  5
9F1
330
6B
100
AcDbEntity
  8
0
 62
     3
100
AcDbCircle
 10
-249.0365809355201
 20
-251.0343367081643
 30
0.0
 40
1.0
100
AcDbArc
 50
90.0
 51
180.0
  0
LINE
  5
9F2
330
6B
100
AcDbEntity
  8
0
 62
     3
100
AcDbLine
 10
-250.036581358713
 20
-273.9608373435721
 30
0.0
 11
-250.036581358713
 21
-264.8343367677689
 31
0.0
  0
LINE
  5
9F3
330
6B
100
AcDbEntity
  8
0
 62
     3
100
AcDbLine
 10
-250.036581358713
 20
-260.8343370434404
 30
0.0
 11
-250.036581358713
 21
-251.0343359958887
 31
0.0
  0
LINE
  5
9F4
330
6B
100
AcDbEntity
  8
0
 62
     3
100
AcDbLine
 10
-250.036581358713
 20
-300.6343374204397
 30
0.0
 11
-250.036581358713
 21
-277.7078360727564
 31
0.0
  0
SPLINE
  5
9F5
330
6B
100
AcDbEntity
  8
0
 62
     3
100
AcDbSpline
210
0.0
220
0.0
230
1.0
 70
    24
 71
     3
 72
    14
 73
    10
 74
     0
 42
0.0000000001
 43
0.0000000001
 40
0.0
 40
0.0
 40
0.0
 40
0.0
 40
0.25
 40
0.25
 40
0.5
 40
0.5
 40
0.75
 40
0.75
 40
1.0
 40
1.0
 40
1.0
 40
1.0
 10
-250.0365809355201
 20
-277.7078361076838
 30
0.0
 10
-250.0365809355201
 20
-277.3949210621422
 30
0.0
 10
-250.0365809355201
 20
-277.0829751645599
 30
0.0
 10
-250.0365809355201
 20
-276.4594701452945
 30
0.0
 10
-250.0365809355201
 20
-276.147549946044
 30
0.0
 10
-250.0365809355201
 20
-275.5214668631505
 30
0.0
 10
-250.0365809355201
 20
-275.2093399677723
 30
0.0
 10
-250.0365809355201
 20
-274.5857149642954
 30
0.0
 10
-250.0365809355201
 20
-274.2740219518295
 30
0.0
 10
-250.0365809355201
 20
-273.9608373086448
 30
0.0
  0
LINE
  5
9F6
330
6B
100
AcDbEntity
  8
0
 62
     3
100
AcDbLine
 10
-250.036581358713
 20
-264.3343366858125
 30
0.0
 11
-250.036581358713
 21
-261.3343371253969
 31
0.0
  0
LINE
  5
9F7
330
6B
100
AcDbEntity
  8
0
 62
     3
100
AcDbLine
 10
-223.8865810770811
 20
-308.8343365293503
 30
0.0
 11
-229.8865811292352
 21
-308.8343365293503
 31
0.0
  0
LINE
  5
9F8
330
6B
100
AcDbEntity
  8
0
 62
     3
100
AcDbLine
 10
-229.8865811292352
 20
-308.1650620501997
 30
0.0
 11
-229.8865811292352
 21
-308.8343365293503
 31
0.0
  0
LINE
  5
9F9
330
6B
100
AcDbEntity
  8
0
 62
     3
100
AcDbLine
 10
-223.8865810770811
 20
-308.1650620501997
 30
0.0
 11
-223.8865810770811
 21
-308.8343365293503
 31
0.0
  0
LINE
  5
9FA
330
6B
100
AcDbEntity
  8
0
 62
     3
100
AcDbLine
 10
-223.8865810770811
 20
-242.8343368869781
 30
0.0
 11
-229.8865811292352
 21
-242.8343368869781
 31
0.0
  0
LINE
  5
9FB
330
6B
100
AcDbEntity
  8
0
 62
     3
100
AcDbLine
 10
-229.8865811292352
 20
-243.5036113661289
 30
0.0
 11
-229.8865811292352
 21
-242.8343368869781
 31
0.0
  0
LINE
  5
9FC
330
6B
100
AcDbEntity
  8
0
 62
     3
100
AcDbLine
 10
-223.8865810770811
 20
-243.5036113661289
 30
0.0
 11
-223.8865810770811
 21
-242.8343368869781
 31
0.0
  0
LINE
  5
9FD
330
6B
100
AcDbEntity
  8
0
 62
     3
100
AcDbLine
 10
-244.886580793959
 20
-242.8343368869781
 30
0.0
 11
-238.886580741805
 21
-242.8343368869781
 31
0.0
  0
LINE
  5
9FE
330
6B
100
AcDbEntity
  8
0
 62
     3
100
AcDbLine
 10
-244.886580793959
 20
-243.5036113661289
 30
0.0
 11
-244.886580793959
 21
-242.8343368869781
 31
0.0
  0
LINE
  5
9FF
330
6B
100
AcDbEntity
  8
0
 62
     3
100
AcDbLine
 10
-238.886580741805
 20
-243.5036113661289
 30
0.0
 11
-238.886580741805
 21
-242.8343368869781
 31
0.0
  0
LINE
  5
A00
330
6B
100
AcDbEntity
  8
0
 62
     3
100
AcDbLine
 10
-244.886580793959
 20
-308.8343365293503
 30
0.0
 11
-238.886580741805
 21
-308.8343365293503
 31
0.0
  0
LINE
  5
A01
330
6B
100
AcDbEntity
  8
0
 62
     3
100
AcDbLine
 10
-244.886580793959
 20
-308.1650620501997
 30
0.0
 11
-244.886580793959
 21
-308.8343365293503
 31
0.0
  0
LINE
  5
A02
330
6B
100
AcDbEntity
  8
0
 62
     3
100
AcDbLine
 10
-238.886580741805
 20
-308.1650620501997
 30
0.0
 11
-238.886580741805
 21
-308.8343365293503
 31
0.0
  0
LINE
  5
A03
330
6B
100
AcDbEntity
  8
0
 62
     7
100
AcDbLine
 10
-379.0136158847872
 20
-275.0843367081643
 30
0.0
 11
-379.0136158847872
 21
-274.3343367081644
 31
0.0
  0
LINE
  5
A04
330
6B
100
AcDbEntity
  8
0
 62
     7
100
AcDbLine
 10
-378.0136158847872
 20
-274.3343367081644
 30
0.0
 11
-379.0136158847872
 21
-274.3343367081644
 31
0.0
  0
LINE
  5
A05
330
6B
100
AcDbEntity
  8
0
 62
     7
100
AcDbLine
 10
-378.0136158847872
 20
-275.0843367081643
 30
0.0
 11
-378.0136158847872
 21
-274.3343367081644
 31
0.0
  0
CIRCLE
  5
A06
330
6B
100
AcDbEntity
  8
0
 62
     7
100
AcDbCircle
 10
-378.5136158847872
 20
-275.8343367081644
 30
0.0
 40
2.85
  0
LINE
  5
A07
330
6B
100
AcDbEntity
  8
0
 62
     7
100
AcDbLine
 10
-377.7636158847872
 20
-276.3343367081644
 30
0.0
 11
-377.0136158847872
 21
-276.3343367081644
 31
0.0
  0
ARC
  5
A08
330
6B
100
AcDbEntity
  8
0
 62
     7
100
AcDbCircle
 10
-377.7636158847872
 20
-276.5843367081644
 30
0.0
 40
0.25
100
AcDbArc
 50
90.0
 51
180.0
  0
LINE
  5
A09
330
6B
100
AcDbEntity
  8
0
 62
     7
100
AcDbLine
 10
-378.0136158847872
 20
-276.5843367081644
 30
0.0
 11
-378.0136158847872
 21
-277.3343367081643
 31
0.0
  0
LINE
  5
A0A
330
6B
100
AcDbEntity
  8
0
 62
     7
100
AcDbLine
 10
-378.0136158847872
 20
-277.3343367081643
 30
0.0
 11
-379.0136158847872
 21
-277.3343367081643
 31
0.0
  0
LINE
  5
A0B
330
6B
100
AcDbEntity
  8
0
 62
     7
100
AcDbLine
 10
-379.0136158847872
 20
-276.5843367081644
 30
0.0
 11
-379.0136158847872
 21
-277.3343367081643
 31
0.0
  0
ARC
  5
A0C
330
6B
100
AcDbEntity
  8
0
 62
     7
100
AcDbCircle
 10
-379.2636158847872
 20
-276.5843367081644
 30
0.0
 40
0.25
100
AcDbArc
 50
0.0
 51
90.0
  0
LINE
  5
A0D
330
6B
100
AcDbEntity
  8
0
 62
     7
100
AcDbLine
 10
-379.2636158847872
 20
-276.3343367081644
 30
0.0
 11
-380.0136158847872
 21
-276.3343367081644
 31
0.0
  0
LINE
  5
A0E
330
6B
100
AcDbEntity
  8
0
 62
     7
100
AcDbLine
 10
-380.0136158847872
 20
-276.3343367081644
 30
0.0
 11
-380.0136158847872
 21
-275.3343367081644
 31
0.0
  0
LINE
  5
A0F
330
6B
100
AcDbEntity
  8
0
 62
     7
100
AcDbLine
 10
-379.2636158847872
 20
-275.3343367081644
 30
0.0
 11
-380.0136158847872
 21
-275.3343367081644
 31
0.0
  0
ARC
  5
A10
330
6B
100
AcDbEntity
  8
0
 62
     7
100
AcDbCircle
 10
-379.2636158847872
 20
-275.0843367081643
 30
0.0
 40
0.25
100
AcDbArc
 50
270.0
 51
0.0
  0
ARC
  5
A11
330
6B
100
AcDbEntity
  8
0
 62
     7
100
AcDbCircle
 10
-377.7636158847872
 20
-275.0843367081643
 30
0.0
 40
0.25
100
AcDbArc
 50
180.0
 51
270.0
  0
LINE
  5
A12
330
6B
100
AcDbEntity
  8
0
 62
     7
100
AcDbLine
 10
-377.7636158847872
 20
-275.3343367081644
 30
0.0
 11
-377.0136158847872
 21
-275.3343367081644
 31
0.0
  0
LINE
  5
A13
330
6B
100
AcDbEntity
  8
0
 62
     7
100
AcDbLine
 10
-377.0136158847872
 20
-276.3343367081644
 30
0.0
 11
-377.0136158847872
 21
-275.3343367081644
 31
0.0
  0
ARC
  5
A1A
330
6B
100
AcDbEntity
  8
0
 62
     7
100
AcDbCircle
 10
-243.83658093552
 20
-275.8343367081642
 30
0.0
 40
2.5
100
AcDbArc
 50
258.4630410000031
 51
281.5369589999968
  0
LINE
  5
A1B
330
6B
100
AcDbEntity
  8
0
 62
     7
100
AcDbLine
 10
-244.83658093552
 20
-276.3343367081642
 30
0.0
 11
-246.28607093552
 21
-276.3343367081642
 31
0.0
  0
ARC
  5
A1C
330
6B
100
AcDbEntity
  8
0
 62
     7
100
AcDbCircle
 10
-244.83658093552
 20
-276.8343367081643
 30
0.0
 40
0.5
100
AcDbArc
 50
0.0
 51
90.0
  0
LINE
  5
A1D
330
6B
100
AcDbEntity
  8
0
 62
     7
100
AcDbLine
 10
-244.33658093552
 20
-276.8343367081643
 30
0.0
 11
-244.33658093552
 21
-278.2838267081643
 31
0.0
  0
LINE
  5
A1E
330
6B
100
AcDbEntity
  8
0
 62
     7
100
AcDbLine
 10
-243.33658093552
 20
-276.8343367081643
 30
0.0
 11
-243.33658093552
 21
-278.2838267081643
 31
0.0
  0
ARC
  5
A1F
330
6B
100
AcDbEntity
  8
0
 62
     7
100
AcDbCircle
 10
-242.83658093552
 20
-276.8343367081643
 30
0.0
 40
0.5
100
AcDbArc
 50
90.0
 51
180.0
  0
LINE
  5
A20
330
6B
100
AcDbEntity
  8
0
 62
     7
100
AcDbLine
 10
-242.83658093552
 20
-276.3343367081642
 30
0.0
 11
-241.3870909355201
 21
-276.3343367081642
 31
0.0
  0
LINE
  5
A21
330
6B
100
AcDbEntity
  8
0
 62
     7
100
AcDbLine
 10
-242.83658093552
 20
-275.3343367081644
 30
0.0
 11
-241.3870909355201
 21
-275.3343367081644
 31
0.0
  0
ARC
  5
A22
330
6B
100
AcDbEntity
  8
0
 62
     7
100
AcDbCircle
 10
-242.83658093552
 20
-274.8343367081643
 30
0.0
 40
0.5
100
AcDbArc
 50
180.0
 51
270.0
  0
LINE
  5
A23
330
6B
100
AcDbEntity
  8
0
 62
     7
100
AcDbLine
 10
-243.33658093552
 20
-274.8343367081643
 30
0.0
 11
-243.33658093552
 21
-273.3848467081644
 31
0.0
  0
ARC
  5
A24
330
6B
100
AcDbEntity
  8
0
 62
     7
100
AcDbCircle
 10
-243.83658093552
 20
-275.8343367081642
 30
0.0
 40
2.5
100
AcDbArc
 50
78.46304099999679
 51
101.5369589999961
  0
LINE
  5
A25
330
6B
100
AcDbEntity
  8
0
 62
     7
100
AcDbLine
 10
-244.33658093552
 20
-274.8343367081643
 30
0.0
 11
-244.33658093552
 21
-273.3848467081644
 31
0.0
  0
ARC
  5
A26
330
6B
100
AcDbEntity
  8
0
 62
     7
100
AcDbCircle
 10
-244.83658093552
 20
-274.8343367081643
 30
0.0
 40
0.5
100
AcDbArc
 50
270.0
 51
0.0
  0
LINE
  5
A27
330
6B
100
AcDbEntity
  8
0
 62
     7
100
AcDbLine
 10
-244.83658093552
 20
-275.3343367081644
 30
0.0
 11
-246.28607093552
 21
-275.3343367081644
 31
0.0
  0
ARC
  5
A28
330
6B
100
AcDbEntity
  8
0
 62
     7
100
AcDbCircle
 10
-243.83658093552
 20
-275.8343367081642
 30
0.0
 40
2.5
100
AcDbArc
 50
168.463041
 51
191.536959
  0
ARC
  5
A29
330
6B
100
AcDbEntity
  8
0
 62
     7
100
AcDbCircle
 10
-243.83658093552
 20
-275.8343367081642
 30
0.0
 40
2.5
100
AcDbArc
 50
348.463041
 51
11.53695900000002
  0
CIRCLE
  5
A2A
330
6B
100
AcDbEntity
  8
0
 62
     7
100
AcDbCircle
 10
-243.83658093552
 20
-275.8343367081642
 30
0.0
 40
3.35
  0
ARC
  5
A2B
330
6B
100
AcDbEntity
  8
0
 62
     7
100
AcDbCircle
 10
-224.9365809355201
 20
-275.8343367081642
 30
0.0
 40
2.5
100
AcDbArc
 50
258.4630410000031
 51
281.5369589999968
  0
LINE
  5
A2C
330
6B
100
AcDbEntity
  8
0
 62
     7
100
AcDbLine
 10
-225.9365809355201
 20
-276.3343367081642
 30
0.0
 11
-227.3860709355201
 21
-276.3343367081642
 31
0.0
  0
ARC
  5
A2D
330
6B
100
AcDbEntity
  8
0
 62
     7
100
AcDbCircle
 10
-225.9365809355201
 20
-276.8343367081643
 30
0.0
 40
0.5
100
AcDbArc
 50
0.0
 51
90.0
  0
LINE
  5
A2E
330
6B
100
AcDbEntity
  8
0
 62
     7
100
AcDbLine
 10
-225.4365809355201
 20
-276.8343367081643
 30
0.0
 11
-225.4365809355201
 21
-278.2838267081643
 31
0.0
  0
LINE
  5
A2F
330
6B
100
AcDbEntity
  8
0
 62
     7
100
AcDbLine
 10
-224.4365809355202
 20
-276.8343367081643
 30
0.0
 11
-224.4365809355202
 21
-278.2838267081643
 31
0.0
  0
ARC
  5
A30
330
6B
100
AcDbEntity
  8
0
 62
     7
100
AcDbCircle
 10
-223.9365809355201
 20
-276.8343367081643
 30
0.0
 40
0.5
100
AcDbArc
 50
90.0
 51
180.0
  0
LINE
  5
A31
330
6B
100
AcDbEntity
  8
0
 62
     7
100
AcDbLine
 10
-223.9365809355201
 20
-276.3343367081642
 30
0.0
 11
-222.4870909355202
 21
-276.3343367081642
 31
0.0
  0
LINE
  5
A32
330
6B
100
AcDbEntity
  8
0
 62
     7
100
AcDbLine
 10
-223.9365809355201
 20
-275.3343367081644
 30
0.0
 11
-222.4870909355202
 21
-275.3343367081644
 31
0.0
  0
ARC
  5
A33
330
6B
100
AcDbEntity
  8
0
 62
     7
100
AcDbCircle
 10
-223.9365809355201
 20
-274.8343367081643
 30
0.0
 40
0.5
100
AcDbArc
 50
180.0
 51
270.0
  0
LINE
  5
A34
330
6B
100
AcDbEntity
  8
0
 62
     7
100
AcDbLine
 10
-224.4365809355202
 20
-274.8343367081643
 30
0.0
 11
-224.4365809355202
 21
-273.3848467081644
 31
0.0
  0
ARC
  5
A35
330
6B
100
AcDbEntity
  8
0
 62
     7
100
AcDbCircle
 10
-224.9365809355201
 20
-275.8343367081642
 30
0.0
 40
2.5
100
AcDbArc
 50
78.46304099999679
 51
101.5369589999961
  0
LINE
  5
A36
330
6B
100
AcDbEntity
  8
0
 62
     7
100
AcDbLine
 10
-225.4365809355201
 20
-274.8343367081643
 30
0.0
 11
-225.4365809355201
 21
-273.3848467081644
 31
0.0
  0
ARC
  5
A37
330
6B
100
AcDbEntity
  8
0
 62
     7
100
AcDbCircle
 10
-225.9365809355201
 20
-274.8343367081643
 30
0.0
 40
0.5
100
AcDbArc
 50
270.0
 51
0.0
  0
LINE
  5
A38
330
6B
100
AcDbEntity
  8
0
 62
     7
100
AcDbLine
 10
-225.9365809355201
 20
-275.3343367081644
 30
0.0
 11
-227.3860709355201
 21
-275.3343367081644
 31
0.0
  0
ARC
  5
A39
330
6B
100
AcDbEntity
  8
0
 62
     7
100
AcDbCircle
 10
-224.9365809355201
 20
-275.8343367081642
 30
0.0
 40
2.5
100
AcDbArc
 50
168.463041
 51
191.536959
  0
ARC
  5
A3A
330
6B
100
AcDbEntity
  8
0
 62
     7
100
AcDbCircle
 10
-224.9365809355201
 20
-275.8343367081642
 30
0.0
 40
2.5
100
AcDbArc
 50
348.463041
 51
11.53695900000002
  0
CIRCLE
  5
A3B
330
6B
100
AcDbEntity
  8
0
 62
     7
100
AcDbCircle
 10
-224.9365809355201
 20
-275.8343367081642
 30
0.0
 40
3.35
  0
TEXT
  5
A3C
330
6B
100
AcDbEntity
  8
0
 62
     7
100
AcDbText
 10
-226.0691609355201
 20
-268.6966037081643
 30
0.0
 40
2.740499999999998
  1
N
100
AcDbText
  0
TEXT
  5
A3D
330
6B
100
AcDbEntity
  8
0
 62
     7
100
AcDbText
 10
-245.947043547925
 20
-266.2460789878306
 30
0.0
 40
1.6
  1
ストリップゲージ
 41
0.833333
100
AcDbText
  0
LINE
  5
A3F
330
6B
100
AcDbEntity
  8
0
 62
     7
100
AcDbLine
 10
-222.7597939355201
 20
-275.3343367081644
 30
0.0
 11
-213.1367489355202
 21
-264.4737097081643
 31
0.0
  0
LINE
  5
A40
330
6B
100
AcDbEntity
  8
0
 62
     7
100
AcDbLine
 10
-213.1367489355202
 20
-264.4737097081643
 30
0.0
 11
-193.8867489355201
 21
-264.4737097081643
 31
0.0
  0
TEXT
  5
A41
330
6B
100
AcDbEntity
  8
0
 62
     4
100
AcDbText
 10
-210.3867489355202
 20
-263.4737097081643
 30
0.0
 40
3.2
  1
線止めねじ
 41
0.716146
100
AcDbText
  0
TEXT
  5
A42
330
6B
100
AcDbEntity
  8
0
 62
     3
100
AcDbText
 10
-274.640695338737
 20
-334.2514519931323
 30
0.0
 40
3.2
  1
材質：ABS樹脂 耐熱グレード(白色)
  7
高3.2
100
AcDbText
  0
LINE
  5
A43
330
6B
100
AcDbEntity
  8
0
 62
     7
100
AcDbLine
 10
-274.640695338737
 20
-335.2568956337259
 30
0.0
 11
-209.5713485643225
 21
-335.2568956337259
 31
0.0
  0
LINE
  5
B82
330
6B
100
AcDbEntity
  8
0
 62
     7
100
AcDbLine
 10
-221.8345439355202
 20
-273.4820147081644
 30
0.0
 11
-222.7597939355201
 21
-275.3343367081644
 31
0.0
  0
LINE
  5
B85
330
6B
100
AcDbEntity
  8
0
 62
     7
100
AcDbLine
 10
-222.7597939355201
 20
-275.3343367081644
 30
0.0
 11
-221.0323419355202
 21
-274.1928037081645
 31
0.0
  0
LINE
  5
B88
330
6B
100
AcDbEntity
  8
0
  6
Continuous
100
AcDbLine
 10
-249.4365809399904
 20
-249.8343361717224
 30
0.0
 11
-257.8688661086979
 21
-249.8343361717224
 31
0.0
  0
LINE
  5
B89
330
6B
100
AcDbEntity
  8
0
  6
Continuous
100
AcDbLine
 10
-249.4365809399904
 20
-301.834337244606
 30
0.0
 11
-257.8688661086979
 21
-301.834337244606
 31
0.0
  0
LINE
  5
B8A
330
6B
100
AcDbEntity
  8
0
  6
Continuous
100
AcDbLine
 10
-256.6188661086979
 20
-252.3343361717224
 30
0.0
 11
-256.6188661086979
 21
-299.334337244606
 31
0.0
  0
LINE
  5
B8E
330
6B
100
AcDbEntity
  8
0
  6
Continuous
100
AcDbLine
 10
-218.3865801755608
 20
-250.6790369403124
 30
0.0
 11
-218.3865801755608
 21
-235.1811960129602
 31
0.0
  0
LINE
  5
B8F
330
6B
100
AcDbEntity
  8
0
  6
Continuous
100
AcDbLine
 10
-250.3865816954793
 20
-250.6790369403124
 30
0.0
 11
-250.3865816954793
 21
-235.1811960129602
 31
0.0
  0
LINE
  5
B90
330
6B
100
AcDbEntity
  8
0
  6
Continuous
100
AcDbLine
 10
-220.8865801755608
 20
-236.4311960129602
 30
0.0
 11
-247.8865816954793
 21
-236.4311960129602
 31
0.0
  0
LINE
  5
B94
330
6B
100
AcDbEntity
  8
0
  6
Continuous
100
AcDbLine
 10
-395.3136152857605
 20
-249.8466897409916
 30
0.0
 11
-395.3136152857605
 21
-229.6484452348337
 31
0.0
  0
LINE
  5
B95
330
6B
100
AcDbEntity
  8
0
  6
Continuous
100
AcDbLine
 10
-361.7136164838139
 20
-249.8466897409916
 30
0.0
 11
-361.7136164838139
 21
-229.6484452348337
 31
0.0
  0
LINE
  5
B96
330
6B
100
AcDbEntity
  8
0
  6
Continuous
100
AcDbLine
 10
-392.8136152857605
 20
-230.8984452348337
 30
0.0
 11
-364.2136164838138
 21
-230.8984452348337
 31
0.0
  0
LINE
  5
B9A
330
6B
100
AcDbEntity
  8
0
  6
Continuous
100
AcDbLine
 10
-311.3093532370488
 20
-240.0843355458737
 30
0.0
 11
-311.3093532370488
 21
-233.4801385456669
 31
0.0
  0
LINE
  5
B9B
330
6B
100
AcDbEntity
  8
0
  6
Continuous
100
AcDbLine
 10
-293.8093531029384
 20
-250.2843367081643
 30
0.0
 11
-293.8093531029384
 21
-233.4801385456669
 31
0.0
  0
LINE
  5
B9C
330
6B
100
AcDbEntity
  8
0
  6
Continuous
100
AcDbLine
 10
-308.8093532370488
 20
-234.7301385456669
 30
0.0
 11
-296.3093531029384
 21
-234.7301385456669
 31
0.0
  0
LINE
  5
BA0
330
6B
100
AcDbEntity
  8
0
  6
Continuous
100
AcDbLine
 10
-316.3093531252901
 20
-242.7056584161281
 30
0.0
 11
-316.3093531252901
 21
-228.0500402978837
 31
0.0
  0
LINE
  5
BA1
330
6B
100
AcDbEntity
  8
0
  6
Continuous
100
AcDbLine
 10
-293.8093531029384
 20
-250.2843367081643
 30
0.0
 11
-293.8093531029384
 21
-228.0500402978837
 31
0.0
  0
LINE
  5
BA2
330
6B
100
AcDbEntity
  8
0
  6
Continuous
100
AcDbLine
 10
-313.8093531252901
 20
-229.3000402978837
 30
0.0
 11
-296.3093531029384
 21
-229.3000402978837
 31
0.0
  0
LINE
  5
BA6
330
6B
100
AcDbEntity
  8
0
  6
Continuous
100
AcDbLine
 10
-378.7636158847872
 20
-240.3343367081642
 30
0.0
 11
-407.056896509019
 21
-240.3343367081642
 31
0.0
  0
LINE
  5
BA7
330
6B
100
AcDbEntity
  8
0
  6
Continuous
100
AcDbLine
 10
-378.7636158847872
 20
-311.3343367081642
 30
0.0
 11
-407.056896509019
 21
-311.3343367081641
 31
0.0
  0
LINE
  5
BA8
330
6B
100
AcDbEntity
  8
0
  6
Continuous
100
AcDbLine
 10
-405.806896509019
 20
-242.8343367081642
 30
0.0
 11
-405.806896509019
 21
-308.8343367081642
 31
0.0
  0
LINE
  5
BAC
330
6B
100
AcDbEntity
  8
0
 62
     3
100
AcDbLine
 10
-371.850062002397
 20
-295.1209822845221
 30
0.0
 11
-371.8588308700982
 21
-295.3343371104956
 31
0.0
  0
LINE
  5
BAD
330
6B
100
AcDbEntity
  8
0
 62
     3
100
AcDbLine
 10
-371.8588308700982
 20
-295.3343371104956
 30
0.0
 11
-371.850062002397
 21
-295.5476919364691
 31
0.0
  0
LINE
  5
BAE
330
6B
100
AcDbEntity
  8
0
 62
     3
100
AcDbLine
 10
-371.850062002397
 20
-256.1209814798593
 30
0.0
 11
-371.8588308700982
 21
-256.3343363058329
 31
0.0
  0
LINE
  5
BAF
330
6B
100
AcDbEntity
  8
0
 62
     3
100
AcDbLine
 10
-371.8588308700982
 20
-256.3343363058329
 30
0.0
 11
-371.850062002397
 21
-256.5476911318064
 31
0.0
  0
LINE
  5
BB0
330
6B
100
AcDbEntity
  8
0
 62
     3
100
AcDbLine
 10
-305.7577084587369
 20
-203.2847907535418
 30
0.0
 11
-305.7763359887369
 21
-203.1655229935417
 31
0.0
  0
LINE
  5
BB1
330
6B
100
AcDbEntity
  8
0
 62
     3
100
AcDbLine
 10
-305.7763359887369
 20
-203.1655229935417
 30
0.0
 11
-305.7987071687369
 21
-203.0513182135416
 31
0.0
  0
LINE
  5
BB2
330
6B
100
AcDbEntity
  8
0
 62
     3
100
AcDbLine
 10
-305.7987071687369
 20
-203.0513182135416
 30
0.0
 11
-305.8246490987369
 21
-202.9430591535418
 31
0.0
  0
LINE
  5
BB3
330
6B
100
AcDbEntity
  8
0
 62
     3
100
AcDbLine
 10
-305.8246490987369
 20
-202.9430591535418
 30
0.0
 11
-305.8539612387369
 21
-202.8415826035416
 31
0.0
  0
LINE
  5
BB4
330
6B
100
AcDbEntity
  8
0
 62
     3
100
AcDbLine
 10
-305.8539612387369
 20
-202.8415826035416
 30
0.0
 11
-305.8864170487368
 21
-202.7476729235416
 31
0.0
  0
LINE
  5
BB5
330
6B
100
AcDbEntity
  8
0
 62
     3
100
AcDbLine
 10
-305.8864170487368
 20
-202.7476729235416
 30
0.0
 11
-305.9217656387369
 21
-202.6620559835417
 31
0.0
  0
LINE
  5
BB6
330
6B
100
AcDbEntity
  8
0
 62
     3
100
AcDbLine
 10
-305.9217656387369
 20
-202.6620559835417
 30
0.0
 11
-305.9597337887368
 21
-202.5853935635417
 31
0.0
  0
LINE
  5
BB7
330
6B
100
AcDbEntity
  8
0
 62
     3
100
AcDbLine
 10
-305.9597337887368
 20
-202.5853935635417
 30
0.0
 11
-306.0000280387369
 21
-202.5182782335418
 31
0.0
  0
LINE
  5
BB8
330
6B
100
AcDbEntity
  8
0
 62
     3
100
AcDbLine
 10
-306.0000280387369
 20
-202.5182782335418
 30
0.0
 11
-306.0423369087368
 21
-202.4612287435417
 31
0.0
  0
LINE
  5
BB9
330
6B
100
AcDbEntity
  8
0
 62
     3
100
AcDbLine
 10
-306.0423369087368
 20
-202.4612287435417
 30
0.0
 11
-306.0863333987369
 21
-202.4146860635418
 31
0.0
  0
LINE
  5
BBA
330
6B
100
AcDbEntity
  8
0
 62
     3
100
AcDbLine
 10
-306.0863333987369
 20
-202.4146860635418
 30
0.0
 11
-306.1316774187369
 21
-202.3790099535418
 31
0.0
  0
LINE
  5
BBB
330
6B
100
AcDbEntity
  8
0
 62
     3
100
AcDbLine
 10
-306.1316774187369
 20
-202.3790099535418
 30
0.0
 11
-306.1780184887368
 21
-202.3544761535416
 31
0.0
  0
LINE
  5
BBC
330
6B
100
AcDbEntity
  8
0
 62
     3
100
AcDbLine
 10
-306.1780184887368
 20
-202.3544761535416
 30
0.0
 11
-306.2249984287368
 21
-202.3412743135418
 31
0.0
  0
LINE
  5
BBD
330
6B
100
AcDbEntity
  8
0
 62
     3
100
AcDbLine
 10
-306.2249984287368
 20
-202.3412743135418
 30
0.0
 11
-306.2722540887369
 21
-202.3395064735416
 31
0.0
  0
LINE
  5
BBE
330
6B
100
AcDbEntity
  8
0
 62
     3
100
AcDbLine
 10
-306.2722540887369
 20
-202.3395064735416
 30
0.0
 11
-306.3194202187369
 21
-202.3491862835416
 31
0.0
  0
LINE
  5
BBF
330
6B
100
AcDbEntity
  8
0
 62
     3
100
AcDbLine
 10
-306.3194202187369
 20
-202.3491862835416
 30
0.0
 11
-306.3661322487369
 21
-202.3702389435416
 31
0.0
  0
LINE
  5
BC0
330
6B
100
AcDbEntity
  8
0
 62
     3
100
AcDbLine
 10
-306.3661322487369
 20
-202.3702389435416
 30
0.0
 11
-306.4120291087369
 21
-202.4025017135417
 31
0.0
  0
LINE
  5
BC1
330
6B
100
AcDbEntity
  8
0
 62
     3
100
AcDbLine
 10
-306.4120291087369
 20
-202.4025017135417
 30
0.0
 11
-306.4567560487369
 21
-202.4457252235416
 31
0.0
  0
LINE
  5
BC2
330
6B
100
AcDbEntity
  8
0
 62
     3
100
AcDbLine
 10
-306.4567560487369
 20
-202.4457252235416
 30
0.0
 11
-306.499967358737
 21
-202.4995753835416
 31
0.0
  0
LINE
  5
BC3
330
6B
100
AcDbEntity
  8
0
 62
     3
100
AcDbLine
 10
-306.499967358737
 20
-202.4995753835416
 30
0.0
 11
-306.5413290187369
 21
-202.5636359535416
 31
0.0
  0
LINE
  5
BC4
330
6B
100
AcDbEntity
  8
0
 62
     3
100
AcDbLine
 10
-306.5413290187369
 20
-202.5636359535416
 30
0.0
 11
-306.5805213387368
 21
-202.6374117735417
 31
0.0
  0
LINE
  5
BC5
330
6B
100
AcDbEntity
  8
0
 62
     3
100
AcDbLine
 10
-306.5805213387368
 20
-202.6374117735417
 30
0.0
 11
-306.6172413787369
 21
-202.7203326035417
 31
0.0
  0
LINE
  5
BC6
330
6B
100
AcDbEntity
  8
0
 62
     3
100
AcDbLine
 10
-306.6172413787369
 20
-202.7203326035417
 30
0.0
 11
-306.6512053087369
 21
-202.8117575035417
 31
0.0
  0
LINE
  5
BC7
330
6B
100
AcDbEntity
  8
0
 62
     3
100
AcDbLine
 10
-306.6512053087369
 20
-202.8117575035417
 30
0.0
 11
-306.6821506087369
 21
-202.9109798135416
 31
0.0
  0
LINE
  5
BC8
330
6B
100
AcDbEntity
  8
0
 62
     3
100
AcDbLine
 10
-306.6821506087369
 20
-202.9109798135416
 30
0.0
 11
-306.7098380887369
 21
-203.0172325835416
 31
0.0
  0
LINE
  5
BC9
330
6B
100
AcDbEntity
  8
0
 62
     3
100
AcDbLine
 10
-306.7098380887369
 20
-203.0172325835416
 30
0.0
 11
-306.7340537387369
 21
-203.1296945435418
 31
0.0
  0
LINE
  5
BCA
330
6B
100
AcDbEntity
  8
0
 62
     3
100
AcDbLine
 10
-306.7340537387369
 20
-203.1296945435418
 30
0.0
 11
-306.7546103787369
 21
-203.2474964235417
 31
0.0
  0
LINE
  5
BCB
330
6B
100
AcDbEntity
  8
0
 62
     3
100
AcDbLine
 10
-306.7546103787369
 20
-203.2474964235417
 30
0.0
 11
-306.7713491187368
 21
-203.3697276635416
 31
0.0
  0
LINE
  5
BCC
330
6B
100
AcDbEntity
  8
0
 62
     3
100
AcDbLine
 10
-306.7713491187368
 20
-203.3697276635416
 30
0.0
 11
-306.7841405787369
 21
-203.4954434835417
 31
0.0
  0
LINE
  5
BCD
330
6B
100
AcDbEntity
  8
0
 62
     3
100
AcDbLine
 10
-306.7841405787369
 20
-203.4954434835417
 30
0.0
 11
-306.7928858887368
 21
-203.6236721635418
 31
0.0
  0
LINE
  5
BCE
330
6B
100
AcDbEntity
  8
0
 62
     3
100
AcDbLine
 10
-306.7928858887368
 20
-203.6236721635418
 30
0.0
 11
-306.7975174487369
 21
-203.7534225735418
 31
0.0
  0
LINE
  5
BCF
330
6B
100
AcDbEntity
  8
0
 62
     3
100
AcDbLine
 10
-306.7975174487369
 20
-203.7534225735418
 30
0.0
 11
-306.797999458737
 21
-203.8836917935418
 31
0.0
  0
LINE
  5
BD0
330
6B
100
AcDbEntity
  8
0
 62
     3
100
AcDbLine
 10
-306.797999458737
 20
-203.8836917935418
 30
0.0
 11
-306.7943281987368
 21
-204.0134729235418
 31
0.0
  0
LINE
  5
BD1
330
6B
100
AcDbEntity
  8
0
 62
     3
100
AcDbLine
 10
-306.7943281987368
 20
-204.0134729235418
 30
0.0
 11
-306.7865320387368
 21
-204.1417628135417
 31
0.0
  0
LINE
  5
BD2
330
6B
100
AcDbEntity
  8
0
 62
     3
100
AcDbLine
 10
-306.7865320387368
 20
-204.1417628135417
 30
0.0
 11
-306.7746712387369
 21
-204.2675698535418
 31
0.0
  0
LINE
  5
BD3
330
6B
100
AcDbEntity
  8
0
 62
     3
100
AcDbLine
 10
-306.7746712387369
 20
-204.2675698535418
 30
0.0
 11
-306.7588374887368
 21
-204.3899216135416
 31
0.0
  0
LINE
  5
BD4
330
6B
100
AcDbEntity
  8
0
 62
     3
100
AcDbLine
 10
-306.7588374887368
 20
-204.3899216135416
 30
0.0
 11
-306.7391531587368
 21
-204.5078723835417
 31
0.0
  0
LINE
  5
BD5
330
6B
100
AcDbEntity
  8
0
 62
     3
100
AcDbLine
 10
-306.7391531587368
 20
-204.5078723835417
 30
0.0
 11
-306.7157704087369
 21
-204.6205104635416
 31
0.0
  0
LINE
  5
BD6
330
6B
100
AcDbEntity
  8
0
 62
     3
100
AcDbLine
 10
-306.7157704087369
 20
-204.6205104635416
 30
0.0
 11
-306.6888699687368
 21
-204.7269652235418
 31
0.0
  0
LINE
  5
BD7
330
6B
100
AcDbEntity
  8
0
 62
     3
100
AcDbLine
 10
-306.6888699687368
 20
-204.7269652235418
 30
0.0
 11
-306.6586597687369
 21
-204.8264138035416
 31
0.0
  0
LINE
  5
BD8
330
6B
100
AcDbEntity
  8
0
 62
     3
100
AcDbLine
 10
-306.6586597687369
 20
-204.8264138035416
 30
0.0
 11
-306.6253733287369
 21
-204.9180875435416
 31
0.0
  0
LINE
  5
BD9
330
6B
100
AcDbEntity
  8
0
 62
     3
100
AcDbLine
 10
-306.6253733287369
 20
-204.9180875435416
 30
0.0
 11
-306.5892679187368
 21
-205.0012778335417
 31
0.0
  0
LINE
  5
BDA
330
6B
100
AcDbEntity
  8
0
 62
     3
100
AcDbLine
 10
-306.5892679187368
 20
-205.0012778335417
 30
0.0
 11
-306.5506226187369
 21
-205.0753416735417
 31
0.0
  0
LINE
  5
BDB
330
6B
100
AcDbEntity
  8
0
 62
     3
100
AcDbLine
 10
-306.5506226187369
 20
-205.0753416735417
 30
0.0
 11
-306.5097361387369
 21
-205.1397065635418
 31
0.0
  0
LINE
  5
BDC
330
6B
100
AcDbEntity
  8
0
 62
     3
100
AcDbLine
 10
-306.5097361387369
 20
-205.1397065635418
 30
0.0
 11
-306.4669245187369
 21
-205.1938750135418
 31
0.0
  0
LINE
  5
BDD
330
6B
100
AcDbEntity
  8
0
 62
     3
100
AcDbLine
 10
-306.4669245187369
 20
-205.1938750135418
 30
0.0
 11
-306.4225186687369
 21
-205.2374283335417
 31
0.0
  0
LINE
  5
BDE
330
6B
100
AcDbEntity
  8
0
 62
     3
100
AcDbLine
 10
-306.4225186687369
 20
-205.2374283335417
 30
0.0
 11
-306.376861808737
 21
-205.2700298635417
 31
0.0
  0
LINE
  5
BDF
330
6B
100
AcDbEntity
  8
0
 62
     3
100
AcDbLine
 10
-306.376861808737
 20
-205.2700298635417
 30
0.0
 11
-306.3303068487368
 21
-205.2914276135417
 31
0.0
  0
LINE
  5
BE0
330
6B
100
AcDbEntity
  8
0
 62
     3
100
AcDbLine
 10
-306.3303068487368
 20
-205.2914276135417
 30
0.0
 11
-306.2832136487368
 21
-205.3014562035417
 31
0.0
  0
LINE
  5
BE1
330
6B
100
AcDbEntity
  8
0
 62
     3
100
AcDbLine
 10
-306.2832136487368
 20
-205.3014562035417
 30
0.0
 11
-306.2359461887368
 21
-205.3000381035418
 31
0.0
  0
LINE
  5
BE2
330
6B
100
AcDbEntity
  8
0
 62
     3
100
AcDbLine
 10
-306.2359461887368
 20
-205.3000381035418
 30
0.0
 11
-306.1888698487369
 21
-205.2871842835418
 31
0.0
  0
LINE
  5
BE3
330
6B
100
AcDbEntity
  8
0
 62
     3
100
AcDbLine
 10
-306.1888698487369
 20
-205.2871842835418
 30
0.0
 11
-306.1423484887368
 21
-205.2629940835418
 31
0.0
  0
LINE
  5
BE4
330
6B
100
AcDbEntity
  8
0
 62
     3
100
AcDbLine
 10
-306.1423484887368
 20
-205.2629940835418
 30
0.0
 11
-306.0967416987369
 21
-205.2276545035418
 31
0.0
  0
LINE
  5
BE5
330
6B
100
AcDbEntity
  8
0
 62
     3
100
AcDbLine
 10
-306.0967416987369
 20
-205.2276545035418
 30
0.0
 11
-306.0524019987369
 21
-205.1814386735418
 31
0.0
  0
LINE
  5
BE6
330
6B
100
AcDbEntity
  8
0
 62
     3
100
AcDbLine
 10
-306.0524019987369
 20
-205.1814386735418
 30
0.0
 11
-306.0096721087368
 21
-205.1247038435418
 31
0.0
  0
LINE
  5
BE7
330
6B
100
AcDbEntity
  8
0
 62
     3
100
AcDbLine
 10
-306.0096721087368
 20
-205.1247038435418
 30
0.0
 11
-305.9688823087368
 21
-205.0578885235418
 31
0.0
  0
LINE
  5
BE8
330
6B
100
AcDbEntity
  8
0
 62
     3
100
AcDbLine
 10
-305.9688823087368
 20
-205.0578885235418
 30
0.0
 11
-305.9303478787369
 21
-204.9815091835416
 31
0.0
  0
LINE
  5
BE9
330
6B
100
AcDbEntity
  8
0
 62
     3
100
AcDbLine
 10
-305.9303478787369
 20
-204.9815091835416
 30
0.0
 11
-305.8943666787369
 21
-204.8961561735417
 31
0.0
  0
LINE
  5
BEA
330
6B
100
AcDbEntity
  8
0
 62
     3
100
AcDbLine
 10
-305.8943666787369
 20
-204.8961561735417
 30
0.0
 11
-305.8612168187369
 21
-204.8024892435418
 31
0.0
  0
LINE
  5
BEB
330
6B
100
AcDbEntity
  8
0
 62
     3
100
AcDbLine
 10
-305.8612168187369
 20
-204.8024892435418
 30
0.0
 11
-305.8311545387369
 21
-204.7012323835418
 31
0.0
  0
LINE
  5
BEC
330
6B
100
AcDbEntity
  8
0
 62
     3
100
AcDbLine
 10
-305.8311545387369
 20
-204.7012323835418
 30
0.0
 11
-305.8044121887369
 21
-204.5931682635418
 31
0.0
  0
LINE
  5
BED
330
6B
100
AcDbEntity
  8
0
 62
     3
100
AcDbLine
 10
-305.8044121887369
 20
-204.5931682635418
 30
0.0
 11
-305.7811964887369
 21
-204.4791321535418
 31
0.0
  0
LINE
  5
BEE
330
6B
100
AcDbEntity
  8
0
 62
     3
100
AcDbLine
 10
-305.7811964887369
 20
-204.4791321535418
 30
0.0
 11
-305.7616868787369
 21
-204.3600055035418
 31
0.0
  0
TEXT
  5
BEF
330
6B
100
AcDbEntity
  8
0
  6
Continuous
 62
     4
100
AcDbText
 10
-257.2438661086978
 20
-278.3343367081644
 30
0.0
 40
3.0
  1
52
 50
90.0
100
AcDbText
  0
LINE
  5
BF0
330
6B
100
AcDbEntity
  8
0
  6
ByBlock
 62
     0
370
    -2
100
AcDbLine
 10
-255.9489936086979
 20
-299.334337244606
 30
0.0
 11
-256.6188661086979
 21
-301.834337244606
 31
0.0
  0
LINE
  5
BF1
330
6B
100
AcDbEntity
  8
0
  6
ByBlock
 62
     0
370
    -2
100
AcDbLine
 10
-256.6188661086979
 20
-301.834337244606
 30
0.0
 11
-257.2887386086979
 21
-299.334337244606
 31
0.0
  0
LINE
  5
BF2
330
6B
100
AcDbEntity
  8
0
  6
ByBlock
 62
     0
370
    -2
100
AcDbLine
 10
-256.6188661086979
 20
-301.834337244606
 30
0.0
 11
-256.6188661086979
 21
-299.334337244606
 31
0.0
  0
LINE
  5
BF3
330
6B
100
AcDbEntity
  8
0
  6
ByBlock
 62
     0
370
    -2
100
AcDbLine
 10
-257.2887386086979
 20
-252.3343361717224
 30
0.0
 11
-256.6188661086979
 21
-249.8343361717224
 31
0.0
  0
LINE
  5
BF4
330
6B
100
AcDbEntity
  8
0
  6
ByBlock
 62
     0
370
    -2
100
AcDbLine
 10
-256.6188661086979
 20
-249.8343361717224
 30
0.0
 11
-255.9489936086979
 21
-252.3343361717224
 31
0.0
  0
LINE
  5
BF5
330
6B
100
AcDbEntity
  8
0
  6
ByBlock
 62
     0
370
    -2
100
AcDbLine
 10
-256.6188661086979
 20
-249.8343361717224
 30
0.0
 11
-256.6188661086979
 21
-252.3343361717224
 31
0.0
  0
TEXT
  5
BF6
330
6B
100
AcDbEntity
  8
0
  6
Continuous
 62
     4
100
AcDbText
 10
-237.366579422065
 20
-235.8061960129602
 30
0.0
 40
3.0
  1
32
100
AcDbText
  0
LINE
  5
BF7
330
6B
100
AcDbEntity
  8
0
  6
ByBlock
 62
     0
370
    -2
100
AcDbLine
 10
-247.8865816954793
 20
-237.1010685129602
 30
0.0
 11
-250.3865816954793
 21
-236.4311960129602
 31
0.0
  0
LINE
  5
BF8
330
6B
100
AcDbEntity
  8
0
  6
ByBlock
 62
     0
370
    -2
100
AcDbLine
 10
-250.3865816954793
 20
-236.4311960129602
 30
0.0
 11
-247.8865816954793
 21
-235.7613235129602
 31
0.0
  0
LINE
  5
BF9
330
6B
100
AcDbEntity
  8
0
  6
ByBlock
 62
     0
370
    -2
100
AcDbLine
 10
-250.3865816954793
 20
-236.4311960129602
 30
0.0
 11
-247.8865816954793
 21
-236.4311960129602
 31
0.0
  0
LINE
  5
BFA
330
6B
100
AcDbEntity
  8
0
  6
ByBlock
 62
     0
370
    -2
100
AcDbLine
 10
-220.8865801755608
 20
-235.7613235129602
 30
0.0
 11
-218.3865801755608
 21
-236.4311960129602
 31
0.0
  0
LINE
  5
BFB
330
6B
100
AcDbEntity
  8
0
  6
ByBlock
 62
     0
370
    -2
100
AcDbLine
 10
-218.3865801755608
 20
-236.4311960129602
 30
0.0
 11
-220.8865801755608
 21
-237.1010685129602
 31
0.0
  0
LINE
  5
BFC
330
6B
100
AcDbEntity
  8
0
  6
ByBlock
 62
     0
370
    -2
100
AcDbLine
 10
-218.3865801755608
 20
-236.4311960129602
 30
0.0
 11
-220.8865801755608
 21
-236.4311960129602
 31
0.0
  0
TEXT
  5
BFD
330
6B
100
AcDbEntity
  8
0
  6
Continuous
 62
     4
100
AcDbText
 10
-382.8500714664312
 20
-230.2734452348337
 30
0.0
 40
3.0
  1
33.6
100
AcDbText
  0
LINE
  5
BFE
330
6B
100
AcDbEntity
  8
0
  6
ByBlock
 62
     0
370
    -2
100
AcDbLine
 10
-364.2136164838138
 20
-230.2285727348337
 30
0.0
 11
-361.7136164838139
 21
-230.8984452348337
 31
0.0
  0
LINE
  5
BFF
330
6B
100
AcDbEntity
  8
0
  6
ByBlock
 62
     0
370
    -2
100
AcDbLine
 10
-361.7136164838139
 20
-230.8984452348337
 30
0.0
 11
-364.2136164838138
 21
-231.5683177348337
 31
0.0
  0
LINE
  5
C00
330
6B
100
AcDbEntity
  8
0
  6
ByBlock
 62
     0
370
    -2
100
AcDbLine
 10
-361.7136164838139
 20
-230.8984452348337
 30
0.0
 11
-364.2136164838138
 21
-230.8984452348337
 31
0.0
  0
LINE
  5
C01
330
6B
100
AcDbEntity
  8
0
  6
ByBlock
 62
     0
370
    -2
100
AcDbLine
 10
-392.8136152857605
 20
-231.5683177348337
 30
0.0
 11
-395.3136152857605
 21
-230.8984452348337
 31
0.0
  0
LINE
  5
C02
330
6B
100
AcDbEntity
  8
0
  6
ByBlock
 62
     0
370
    -2
100
AcDbLine
 10
-395.3136152857605
 20
-230.8984452348337
 30
0.0
 11
-392.8136152857605
 21
-230.2285727348337
 31
0.0
  0
LINE
  5
C03
330
6B
100
AcDbEntity
  8
0
  6
ByBlock
 62
     0
370
    -2
100
AcDbLine
 10
-395.3136152857605
 20
-230.8984452348337
 30
0.0
 11
-392.8136152857605
 21
-230.8984452348337
 31
0.0
  0
TEXT
  5
C04
330
6B
100
AcDbEntity
  8
0
  6
Continuous
 62
     4
100
AcDbText
 10
-306.8353903790782
 20
-234.1051385456669
 30
0.0
 40
3.0
  1
17.5
100
AcDbText
  0
LINE
  5
C05
330
6B
100
AcDbEntity
  8
0
  6
ByBlock
 62
     0
370
    -2
100
AcDbLine
 10
-296.3093531029384
 20
-234.0602660456669
 30
0.0
 11
-293.8093531029384
 21
-234.7301385456669
 31
0.0
  0
LINE
  5
C06
330
6B
100
AcDbEntity
  8
0
  6
ByBlock
 62
     0
370
    -2
100
AcDbLine
 10
-293.8093531029384
 20
-234.7301385456669
 30
0.0
 11
-296.3093531029384
 21
-235.4000110456669
 31
0.0
  0
LINE
  5
C07
330
6B
100
AcDbEntity
  8
0
  6
ByBlock
 62
     0
370
    -2
100
AcDbLine
 10
-293.8093531029384
 20
-234.7301385456669
 30
0.0
 11
-296.3093531029384
 21
-234.7301385456669
 31
0.0
  0
LINE
  5
C08
330
6B
100
AcDbEntity
  8
0
  6
ByBlock
 62
     0
370
    -2
100
AcDbLine
 10
-308.8093532370488
 20
-235.4000110456669
 30
0.0
 11
-311.3093532370488
 21
-234.7301385456669
 31
0.0
  0
LINE
  5
C09
330
6B
100
AcDbEntity
  8
0
  6
ByBlock
 62
     0
370
    -2
100
AcDbLine
 10
-311.3093532370488
 20
-234.7301385456669
 30
0.0
 11
-308.8093532370488
 21
-234.0602660456669
 31
0.0
  0
LINE
  5
C0A
330
6B
100
AcDbEntity
  8
0
  6
ByBlock
 62
     0
370
    -2
100
AcDbLine
 10
-311.3093532370488
 20
-234.7301385456669
 30
0.0
 11
-308.8093532370488
 21
-234.7301385456669
 31
0.0
  0
TEXT
  5
C0B
330
6B
100
AcDbEntity
  8
0
  6
Continuous
 62
     4
100
AcDbText
 10
-308.8380186947468
 20
-228.6750402978837
 30
0.0
 40
3.0
  1
22.5
100
AcDbText
  0
LINE
  5
C0C
330
6B
100
AcDbEntity
  8
0
  6
ByBlock
 62
     0
370
    -2
100
AcDbLine
 10
-296.3093531029384
 20
-228.6301677978837
 30
0.0
 11
-293.8093531029384
 21
-229.3000402978837
 31
0.0
  0
LINE
  5
C0D
330
6B
100
AcDbEntity
  8
0
  6
ByBlock
 62
     0
370
    -2
100
AcDbLine
 10
-293.8093531029384
 20
-229.3000402978837
 30
0.0
 11
-296.3093531029384
 21
-229.9699127978837
 31
0.0
  0
LINE
  5
C0E
330
6B
100
AcDbEntity
  8
0
  6
ByBlock
 62
     0
370
    -2
100
AcDbLine
 10
-293.8093531029384
 20
-229.3000402978837
 30
0.0
 11
-296.3093531029384
 21
-229.3000402978837
 31
0.0
  0
LINE
  5
C0F
330
6B
100
AcDbEntity
  8
0
  6
ByBlock
 62
     0
370
    -2
100
AcDbLine
 10
-313.8093531252901
 20
-229.9699127978837
 30
0.0
 11
-316.3093531252901
 21
-229.3000402978837
 31
0.0
  0
LINE
  5
C10
330
6B
100
AcDbEntity
  8
0
  6
ByBlock
 62
     0
370
    -2
100
AcDbLine
 10
-316.3093531252901
 20
-229.3000402978837
 30
0.0
 11
-313.8093531252901
 21
-228.6301677978837
 31
0.0
  0
LINE
  5
C11
330
6B
100
AcDbEntity
  8
0
  6
ByBlock
 62
     0
370
    -2
100
AcDbLine
 10
-316.3093531252901
 20
-229.3000402978837
 30
0.0
 11
-313.8093531252901
 21
-229.3000402978837
 31
0.0
  0
TEXT
  5
C12
330
6B
100
AcDbEntity
  8
0
  6
Continuous
 62
     4
100
AcDbText
 10
-406.431896509019
 20
-280.036960665622
 30
0.0
 40
3.0
  1
71
 50
90.0
100
AcDbText
  0
LINE
  5
C13
330
6B
100
AcDbEntity
  8
0
  6
ByBlock
 62
     0
370
    -2
100
AcDbLine
 10
-405.137024009019
 20
-308.8343367081642
 30
0.0
 11
-405.806896509019
 21
-311.3343367081641
 31
0.0
  0
LINE
  5
C14
330
6B
100
AcDbEntity
  8
0
  6
ByBlock
 62
     0
370
    -2
100
AcDbLine
 10
-405.806896509019
 20
-311.3343367081641
 30
0.0
 11
-406.4767690090191
 21
-308.8343367081642
 31
0.0
  0
LINE
  5
C15
330
6B
100
AcDbEntity
  8
0
  6
ByBlock
 62
     0
370
    -2
100
AcDbLine
 10
-405.806896509019
 20
-311.3343367081641
 30
0.0
 11
-405.806896509019
 21
-308.8343367081642
 31
0.0
  0
LINE
  5
C16
330
6B
100
AcDbEntity
  8
0
  6
ByBlock
 62
     0
370
    -2
100
AcDbLine
 10
-406.4767690090191
 20
-242.8343367081642
 30
0.0
 11
-405.806896509019
 21
-240.3343367081642
 31
0.0
  0
LINE
  5
C17
330
6B
100
AcDbEntity
  8
0
  6
ByBlock
 62
     0
370
    -2
100
AcDbLine
 10
-405.806896509019
 20
-240.3343367081642
 30
0.0
 11
-405.137024009019
 21
-242.8343367081642
 31
0.0
  0
LINE
  5
C18
330
6B
100
AcDbEntity
  8
0
  6
ByBlock
 62
     0
370
    -2
100
AcDbLine
 10
-405.806896509019
 20
-240.3343367081642
 30
0.0
 11
-405.806896509019
 21
-242.8343367081642
 31
0.0
  0
ENDSEC
  0
SECTION
  2
OBJECTS
  0
DICTIONARY
  5
C
330
0
100
AcDbDictionary
281
     1
  3
ACAD_2007HEADERVARS_RT
350
C1D
  3
ACAD_COLOR
350
62
  3
ACAD_GROUP
350
D
  3
ACAD_LAYOUT
350
61
  3
ACAD_MATERIAL
350
10
  3
ACAD_MLEADERSTYLE
350
65
  3
ACAD_MLINESTYLE
350
5E
  3
ACAD_PLOTSETTINGS
350
60
  3
ACAD_PLOTSTYLENAME
350
E
  3
ACAD_SCALELIST
350
42
  3
ACAD_TABLESTYLE
350
63
  3
ACAD_VISUALSTYLE
350
29
  3
ACDB_RECOMPOSE_DATA
350
C1B
  3
AcDbVariableDictionary
350
AC6
  3
AEC_PROPERTY_SET_DEFS
350
781
  3
DWGPROPS
350
C1C
  0
DICTIONARY
  5
4BB
330
2
100
AcDbDictionary
280
     1
281
     1
  3
ACAD_LAYERSTATES
360
4BC
  0
DICTIONARY
  5
AC4
330
54
100
AcDbDictionary
280
     1
281
     1
  3
ADSK_XREC_LAYER_RECONCILED
360
AC5
  0
DICTIONARY
  5
B86
330
6B
100
AcDbDictionary
280
     1
281
     1
  3
ACAD_SORTENTS
360
B87
  0
DICTIONARY
  5
C1D
102
{ACAD_REACTORS
330
C
102
}
330
C
100
AcDbDictionary
281
     1
  3
DIMARCSYM
350
C1F
  3
DIMFXL
350
C1E
  3
DIMJOGANG
350
C20
  0
DICTIONARY
  5
62
102
{ACAD_REACTORS
330
C
102
}
330
C
100
AcDbDictionary
281
     1
  0
DICTIONARY
  5
D
102
{ACAD_REACTORS
330
C
102
}
330
C
100
AcDbDictionary
281
     1
  0
DICTIONARY
  5
61
102
{ACAD_REACTORS
330
C
102
}
330
C
100
AcDbDictionary
281
     1
  3
Model
350
6E
  3
レイアウト1
350
6A
  0
DICTIONARY
  5
10
102
{ACAD_REACTORS
330
C
102
}
330
C
100
AcDbDictionary
281
     1
  3
ByBlock
350
19
  3
ByLayer
350
11
  3
Global
350
21
  0
DICTIONARY
  5
65
102
{ACAD_REACTORS
330
C
102
}
330
C
100
AcDbDictionary
281
     1
  3
Standard
350
66
  0
DICTIONARY
  5
5E
102
{ACAD_REACTORS
330
C
102
}
330
C
100
AcDbDictionary
281
     1
  3
Standard
350
5F
  0
DICTIONARY
  5
60
102
{ACAD_REACTORS
330
C
102
}
330
C
100
AcDbDictionary
281
     1
  0
ACDBDICTIONARYWDFLT
  5
E
102
{ACAD_REACTORS
330
C
102
}
330
C
100
AcDbDictionary
281
     1
  3
Normal
350
F
100
AcDbDictionaryWithDefault
340
F
  0
DICTIONARY
  5
42
102
{ACAD_REACTORS
330
C
102
}
330
C
100
AcDbDictionary
281
     1
  3
A0
350
43
  3
A1
350
44
  3
A2
350
45
  3
A3
350
46
  3
A4
350
47
  3
A5
350
48
  3
A6
350
49
  3
A7
350
4A
  3
A8
350
4B
  3
A9
350
4C
  3
B0
350
4D
  3
B1
350
4E
  3
B2
350
4F
  3
B3
350
50
  3
B4
350
51
  3
B5
350
52
  3
B6
350
53
  0
DICTIONARY
  5
63
102
{ACAD_REACTORS
330
C
102
}
330
C
100
AcDbDictionary
281
     1
  3
Standard
350
64
  0
DICTIONARY
  5
29
102
{ACAD_REACTORS
330
C
102
}
330
C
100
AcDbDictionary
281
     1
  3
2dWireframe
350
2F
  3
Basic
350
2E
  3
Brighten
350
35
  3
ColorChange
350
39
  3
Conceptual
350
32
  3
Dim
350
34
  3
EdgeColorOff
350
41
  3
Facepattern
350
38
  3
Flat
350
2A
  3
FlatWithEdges
350
2B
  3
Gouraud
350
2C
  3
GouraudWithEdges
350
2D
  3
Hidden
350
31
  3
JitterOff
350
3F
  3
Linepattern
350
37
  3
OverhangOff
350
40
  3
Realistic
350
33
  3
Shaded
350
3E
  3
Shaded with edges
350
3D
  3
Shades of Gray
350
3A
  3
Sketchy
350
3B
  3
Thicken
350
36
  3
Wireframe
350
30
  3
X-Ray
350
3C
  0
XRECORD
  5
C1B
102
{ACAD_REACTORS
330
C
102
}
330
C
100
AcDbXrecord
280
     1
 90
        1
330
64
  0
DICTIONARY
  5
AC6
102
{ACAD_REACTORS
330
C
102
}
330
C
100
AcDbDictionary
281
     1
  3
CANNOSCALE
350
AC9
  3
CMLEADERSTYLE
350
AC8
  3
CTABLESTYLE
350
AC7
  3
DIMASSOC
350
ACC
  3
INDEXCTL
350
ACB
  3
SORTENTS
350
ACA
  3
XCLIPFRAME
350
C19
  0
DICTIONARY
  5
781
102
{ACAD_REACTORS
330
C
102
}
330
C
100
AcDbDictionary
281
     1
  0
XRECORD
  5
C1C
102
{ACAD_REACTORS
330
C
102
}
330
C
100
AcDbXrecord
280
     1
  1
DWGPROPS COOKIE
  2

  3

  4

  6

  7

  8
imamura
  9

300
=
301
=
302
=
303
=
304
=
305
=
306
=
307
=
308
=
309
=
 40
0.0066921064814815
 41
2457240.420952836
 42
2457240.471606829
  1

 90
        0
  0
DICTIONARY
  5
4BC
102
{ACAD_REACTORS
330
4BB
102
}
330
4BB
100
AcDbDictionary
281
     1
  0
XRECORD
  5
AC5
102
{ACAD_REACTORS
330
AC4
102
}
330
AC4
100
AcDbXrecord
280
     1
290
     1
  0
SORTENTSTABLE
  5
B87
102
{ACAD_REACTORS
330
B86
102
}
330
B86
100
AcDbSortentsTable
330
6B
331
B88
  5
BE4
331
9C0
  5
A03
331
8E0
  5
923
331
9D1
  5
A1A
331
809
  5
848
331
8EA
  5
92D
331
81A
  5
859
331
9DB
  5
A24
331
8FB
  5
93E
331
9EC
  5
A35
331
90C
  5
94F
331
83C
  5
87B
331
9FD
  5
B89
331
91D
  5
960
331
A0E
  5
B9A
331
92E
  5
971
331
A2F
  5
C03
331
93F
  5
982
331
86F
  5
8B0
331
BC7
  5
820
331
BB6
  5
80F
331
85E
  5
89F
331
84D
  5
88E
331
82B
  5
86A
331
A11
  5
B9D
331
7F8
  5
7F8
331
950
  5
993
331
BD8
  5
831
331
BE9
  5
842
331
BFA
  5
BDD
331
87A
  5
8BB
331
C0B
  5
BC5
331
96B
  5
9AE
331
88B
  5
8CE
331
97C
  5
9BF
331
89C
  5
8DF
331
98D
  5
9D0
331
8AD
  5
8F0
331
99E
  5
9E1
331
8BE
  5
901
331
9AF
  5
9F2
331
8CF
  5
912
331
7EE
  5
7EE
331
7DD
  5
7DD
331
7CC
  5
7CC
331
7BB
  5
7BB
331
7AA
  5
7AA
331
799
  5
799
331
788
  5
788
331
9B0
  5
9F3
331
8D0
  5
913
331
B89
  5
BE5
331
9C1
  5
A04
331
8E1
  5
924
331
B9A
  5
BC6
331
9D2
  5
A1B
331
80A
  5
849
331
8EB
  5
92E
331
81B
  5
85A
331
9DC
  5
A25
331
8FC
  5
93F
331
9ED
  5
A36
331
90D
  5
950
331
83D
  5
87E
331
BA6
  5
BA0
331
9FE
  5
B8A
331
91E
  5
961
331
A0F
  5
B9B
331
92F
  5
972
331
A30
  5
C04
331
940
  5
983
331
BC8
  5
821
331
BB7
  5
810
331
85F
  5
8A0
331
84E
  5
88F
331
82C
  5
86B
331
A12
  5
B9E
331
7F9
  5
7F9
331
951
  5
994
331
BD9
  5
832
331
BEA
  5
843
331
BFB
  5
BDE
331
87B
  5
8BC
331
C0C
  5
BBF
331
96C
  5
9AF
331
88C
  5
8CF
331
97D
  5
9C0
331
89D
  5
8E0
331
98E
  5
9D1
331
8AE
  5
8F1
331
99F
  5
9E2
331
8BF
  5
902
331
7EF
  5
7EF
331
7DE
  5
7DE
331
7CD
  5
7CD
331
7BC
  5
7BC
331
7AB
  5
7AB
331
79A
  5
79A
331
789
  5
789
331
9A0
  5
9E3
331
8C0
  5
903
331
9B1
  5
9F4
331
8D1
  5
914
331
B8A
  5
BE6
331
9C2
  5
A05
331
8E2
  5
925
331
B9B
  5
BC7
331
9D3
  5
A1C
331
80B
  5
84A
331
8EC
  5
92F
331
81C
  5
85B
331
9DD
  5
A26
331
8FD
  5
940
331
9EE
  5
A37
331
90E
  5
951
331
83E
  5
87F
331
BA7
  5
BA1
331
9FF
  5
B8B
331
91F
  5
962
331
A20
  5
BF4
331
930
  5
973
331
A31
  5
C05
331
941
  5
984
331
BC9
  5
822
331
BB8
  5
811
331
860
  5
8A1
331
84F
  5
890
331
82D
  5
86C
331
A13
  5
B9F
331
7FA
  5
7FA
331
7F0
  5
7F0
331
952
  5
995
331
BDA
  5
833
331
BEB
  5
844
331
BFC
  5
BDF
331
C0D
  5
BC0
331
96D
  5
9B0
331
88D
  5
8D0
331
97E
  5
9C1
331
89E
  5
8E1
331
98F
  5
9D2
331
8AF
  5
8F2
331
7DF
  5
7DF
331
7CE
  5
7CE
331
7BD
  5
7BD
331
7AC
  5
7AC
331
79B
  5
79B
331
78A
  5
78A
331
990
  5
9D3
331
8B0
  5
8F3
331
9A1
  5
9E4
331
8C1
  5
904
331
9B2
  5
9F5
331
8D2
  5
915
331
9C3
  5
A06
331
8E3
  5
926
331
B9C
  5
BC8
331
9D4
  5
A1D
331
80C
  5
84B
331
8ED
  5
930
331
9DE
  5
A27
331
8FE
  5
941
331
9EF
  5
A38
331
90F
  5
952
331
83F
  5
880
331
BA8
  5
BA2
331
A00
  5
B8C
331
920
  5
963
331
A21
  5
BF5
331
931
  5
974
331
A32
  5
C06
331
942
  5
985
331
BCA
  5
823
331
BB9
  5
812
331
861
  5
8A2
331
850
  5
891
331
82E
  5
86D
331
81D
  5
85C
331
7FB
  5
7FB
331
7F1
  5
7F1
331
7E0
  5
7E0
331
953
  5
996
331
BDB
  5
834
331
BEC
  5
845
331
BFD
  5
BD9
331
C0E
  5
BC4
331
96E
  5
9B1
331
88E
  5
8D1
331
97F
  5
9C2
331
89F
  5
8E2
331
7CF
  5
7CF
331
7BE
  5
7BE
331
7AD
  5
7AD
331
79C
  5
79C
331
78B
  5
78B
331
980
  5
9C3
331
8A0
  5
8E3
331
991
  5
9D4
331
8B1
  5
8F4
331
9A2
  5
9E5
331
8C2
  5
905
331
9B3
  5
9F6
331
8D3
  5
916
331
9C4
  5
A07
331
8E4
  5
927
331
9D5
  5
A1E
331
80D
  5
84C
331
8EE
  5
931
331
9DF
  5
A28
331
8FF
  5
942
331
9F0
  5
A39
331
910
  5
953
331
840
  5
881
331
A01
  5
B8D
331
921
  5
964
331
A22
  5
BF6
331
932
  5
975
331
A33
  5
C07
331
943
  5
986
331
BCB
  5
824
331
BBA
  5
813
331
862
  5
8A3
331
851
  5
892
331
82F
  5
86E
331
81E
  5
85D
331
7FC
  5
7FC
331
7F2
  5
7F2
331
7E1
  5
7E1
331
7D0
  5
7D0
331
954
  5
997
331
BDC
  5
835
331
BED
  5
846
331
BFE
  5
BD6
331
87E
  5
8C1
331
C0F
  5
BB9
331
96F
  5
9B2
331
88F
  5
8D2
331
7BF
  5
7BF
331
7AE
  5
7AE
331
79D
  5
79D
331
78C
  5
78C
331
C10
  5
BBA
331
C18
  5
BA8
331
970
  5
9B3
331
890
  5
8D3
331
981
  5
9C4
331
8A1
  5
8E4
331
992
  5
9D5
331
8B2
  5
8F5
331
9A3
  5
9E6
331
8C3
  5
906
331
9B4
  5
9F7
331
8D4
  5
917
331
9C5
  5
A08
331
8E5
  5
928
331
9D6
  5
A1F
331
80E
  5
84D
331
8EF
  5
932
331
9E0
  5
A29
331
900
  5
943
331
9F1
  5
A3A
331
911
  5
954
331
841
  5
882
331
A02
  5
B8E
331
922
  5
965
331
A23
  5
BF7
331
933
  5
976
331
A34
  5
C08
331
944
  5
987
331
BCC
  5
825
331
BBB
  5
814
331
863
  5
8A4
331
852
  5
893
331
830
  5
86F
331
81F
  5
85E
331
7FD
  5
7FD
331
7F3
  5
7F3
331
7E2
  5
7E2
331
7D1
  5
7D1
331
7C0
  5
7C0
331
955
  5
998
331
BDD
  5
836
331
BEE
  5
847
331
BFF
  5
BD7
331
87F
  5
8C2
331
7AF
  5
7AF
331
79E
  5
79E
331
78D
  5
78D
331
C00
  5
BD8
331
960
  5
9A3
331
880
  5
8C3
331
C11
  5
BBE
331
971
  5
9B4
331
891
  5
8D4
331
982
  5
9C5
331
8A2
  5
8E5
331
993
  5
9D6
331
8B3
  5
8F6
331
9A4
  5
9E7
331
8C4
  5
907
331
9B5
  5
9F8
331
8D5
  5
918
331
B8E
  5
BDA
331
9C6
  5
A09
331
8E6
  5
929
331
9D7
  5
A20
331
80F
  5
84E
331
8F0
  5
933
331
9E1
  5
A2A
331
901
  5
944
331
9F2
  5
A3B
331
912
  5
955
331
842
  5
883
331
A03
  5
B8F
331
923
  5
966
331
A24
  5
BF8
331
934
  5
977
331
A35
  5
C09
331
945
  5
988
331
BCD
  5
826
331
BBC
  5
815
331
864
  5
8A5
331
853
  5
894
331
831
  5
870
331
820
  5
85F
331
7FE
  5
7FE
331
7F4
  5
7F4
331
7E3
  5
7E3
331
7D2
  5
7D2
331
7C1
  5
7C1
331
7B0
  5
7B0
331
956
  5
999
331
BDE
  5
837
331
BEF
  5
BED
331
79F
  5
79F
331
78E
  5
78E
331
BF0
  5
BEA
331
870
  5
8B1
331
C01
  5
BD3
331
961
  5
9A4
331
881
  5
8C4
331
C12
  5
BB2
331
972
  5
9B5
331
892
  5
8D5
331
983
  5
9C6
331
8A3
  5
8E6
331
994
  5
9D7
331
8B4
  5
8F7
331
9A5
  5
9E8
331
8C5
  5
908
331
9B6
  5
9F9
331
8D6
  5
919
331
B8F
  5
BDB
331
9C7
  5
A0A
331
8E7
  5
92A
331
8F1
  5
934
331
821
  5
860
331
810
  5
84F
331
9E2
  5
A2B
331
902
  5
945
331
9F3
  5
A3C
331
913
  5
956
331
843
  5
884
331
A04
  5
B90
331
924
  5
967
331
A25
  5
BF9
331
935
  5
978
331
865
  5
8A6
331
A36
  5
C0A
331
946
  5
989
331
BCE
  5
827
331
BBD
  5
816
331
BAC
  5
8BF
331
854
  5
895
331
832
  5
871
331
7FF
  5
7FF
331
7F5
  5
7F5
331
7E4
  5
7E4
331
7D3
  5
7D3
331
7C2
  5
7C2
331
7B1
  5
7B1
331
7A0
  5
7A0
331
957
  5
99A
331
BDF
  5
838
331
78F
  5
78F
331
958
  5
99B
331
BE0
  5
839
331
BF1
  5
BEB
331
871
  5
8B2
331
C02
  5
BD4
331
962
  5
9A5
331
882
  5
8C5
331
C13
  5
BAC
331
973
  5
9B6
331
893
  5
8D6
331
984
  5
9C7
331
8A4
  5
8E7
331
995
  5
9D8
331
8B5
  5
8F8
331
9A6
  5
9E9
331
8C6
  5
909
331
9B7
  5
9FA
331
8D7
  5
91A
331
B90
  5
BDC
331
9C8
  5
A0B
331
8F2
  5
935
331
822
  5
861
331
811
  5
850
331
9E3
  5
A2C
331
903
  5
946
331
9F4
  5
A3D
331
914
  5
957
331
844
  5
885
331
A05
  5
B91
331
925
  5
968
331
A26
  5
BFA
331
936
  5
979
331
866
  5
8A7
331
A37
  5
C0B
331
947
  5
98A
331
BCF
  5
828
331
BBE
  5
817
331
BAD
  5
8C0
331
855
  5
896
331
833
  5
872
331
800
  5
800
331
7F6
  5
7F6
331
7E5
  5
7E5
331
7D4
  5
7D4
331
7C3
  5
7C3
331
7B2
  5
7B2
331
7A1
  5
7A1
331
790
  5
790
331
A38
  5
C0C
331
948
  5
98B
331
A40
  5
C15
331
BD0
  5
829
331
959
  5
99C
331
BE1
  5
83A
331
BF2
  5
BEC
331
872
  5
8B3
331
C03
  5
BD5
331
963
  5
9A6
331
883
  5
8C6
331
C14
  5
BAD
331
974
  5
9B7
331
894
  5
8D7
331
985
  5
9C8
331
8A5
  5
8E8
331
996
  5
9D9
331
8B6
  5
8F9
331
9A7
  5
9EA
331
8C7
  5
90A
331
9B8
  5
9FB
331
8D8
  5
91B
331
9C9
  5
A0C
331
A1A
  5
BEE
331
812
  5
851
331
8F3
  5
936
331
9E4
  5
A2D
331
904
  5
947
331
834
  5
873
331
9F5
  5
A3F
331
915
  5
958
331
A06
  5
B92
331
926
  5
969
331
A27
  5
BFB
331
937
  5
97A
331
867
  5
8A8
331
BBF
  5
818
331
BAE
  5
8BD
331
856
  5
897
331
845
  5
886
331
823
  5
862
331
801
  5
801
331
7F7
  5
7F7
331
7E6
  5
7E6
331
7D5
  5
7D5
331
7C4
  5
7C4
331
7B3
  5
7B3
331
7A2
  5
7A2
331
791
  5
791
331
A28
  5
BFC
331
938
  5
97B
331
868
  5
8A9
331
A39
  5
C0D
331
949
  5
98C
331
BC0
  5
819
331
A41
  5
C16
331
BD1
  5
82A
331
95A
  5
99D
331
BE2
  5
83B
331
BF3
  5
BE7
331
873
  5
8B4
331
C04
  5
BCF
331
964
  5
9A7
331
884
  5
8C7
331
C15
  5
BAE
331
975
  5
9B8
331
895
  5
8D8
331
986
  5
9C9
331
8A6
  5
8E9
331
997
  5
9DA
331
8B7
  5
8FA
331
9A8
  5
9EB
331
8C8
  5
90B
331
9B9
  5
9FC
331
8D9
  5
91C
331
9CA
  5
A0D
331
A1B
  5
BEF
331
813
  5
852
331
8F4
  5
937
331
9E5
  5
A2E
331
905
  5
948
331
835
  5
874
331
9F6
  5
A40
331
916
  5
959
331
A07
  5
B93
331
927
  5
96A
331
BAF
  5
8BE
331
857
  5
898
331
846
  5
887
331
824
  5
863
331
802
  5
802
331
7E7
  5
7E7
331
7D6
  5
7D6
331
7C5
  5
7C5
331
7B4
  5
7B4
331
7A3
  5
7A3
331
792
  5
792
331
A08
  5
B94
331
928
  5
96B
331
858
  5
899
331
A29
  5
BFD
331
939
  5
97C
331
869
  5
8AA
331
BB0
  5
809
331
A3A
  5
C0E
331
94A
  5
98D
331
A42
  5
C17
331
BD2
  5
82B
331
BC1
  5
81A
331
95B
  5
99E
331
BE3
  5
83C
331
BF4
  5
BE8
331
874
  5
8B5
331
C05
  5
BCC
331
965
  5
9A8
331
885
  5
8C8
331
C16
  5
BA6
331
976
  5
9B9
331
896
  5
8D9
331
987
  5
9CA
331
8A7
  5
8EA
331
998
  5
9DB
331
8B8
  5
8FB
331
9A9
  5
9EC
331
8C9
  5
90C
331
B82
  5
C12
331
9BA
  5
9FD
331
8DA
  5
91D
331
9CB
  5
A0E
331
A1C
  5
BF0
331
814
  5
853
331
8F5
  5
938
331
9E6
  5
A2F
331
906
  5
949
331
836
  5
875
331
9F7
  5
A41
331
917
  5
95A
331
847
  5
888
331
825
  5
864
331
803
  5
803
331
7E8
  5
7E8
331
7D7
  5
7D7
331
7C6
  5
7C6
331
7B5
  5
7B5
331
7A4
  5
7A4
331
793
  5
793
331
BA0
  5
BB3
331
9F8
  5
A42
331
918
  5
95B
331
848
  5
889
331
A09
  5
B95
331
929
  5
96C
331
859
  5
89A
331
A2A
  5
BFE
331
93A
  5
97D
331
86A
  5
8AB
331
A3B
  5
C0F
331
94B
  5
98E
331
A43
  5
C18
331
BD3
  5
82C
331
BC2
  5
81B
331
BB1
  5
80A
331
95C
  5
99F
331
BE4
  5
83D
331
BF5
  5
BE9
331
875
  5
8B6
331
C06
  5
BCD
331
966
  5
9A9
331
886
  5
8C9
331
C17
  5
BA7
331
977
  5
9BA
331
897
  5
8DA
331
988
  5
9CB
331
8A8
  5
8EB
331
999
  5
9DC
331
8B9
  5
8FC
331
9AA
  5
9ED
331
8CA
  5
90D
331
9BB
  5
9FE
331
8DB
  5
91E
331
B94
  5
BD0
331
9CC
  5
A0F
331
A1D
  5
BF1
331
815
  5
854
331
8F6
  5
939
331
9E7
  5
A30
331
907
  5
94A
331
837
  5
876
331
826
  5
865
331
804
  5
804
331
7E9
  5
7E9
331
7D8
  5
7D8
331
7C7
  5
7C7
331
7B6
  5
7B6
331
7A5
  5
7A5
331
794
  5
794
331
9E8
  5
A31
331
908
  5
94B
331
838
  5
877
331
BA1
  5
BB4
331
9F9
  5
A43
331
919
  5
95C
331
849
  5
88A
331
A0A
  5
B96
331
92A
  5
96D
331
A2B
  5
BFF
331
93B
  5
97E
331
86B
  5
8AC
331
A3C
  5
C10
331
94C
  5
98F
331
BD4
  5
82D
331
BC3
  5
81C
331
BB2
  5
80B
331
85A
  5
89B
331
95D
  5
9A0
331
BE5
  5
83E
331
BF6
  5
BE3
331
876
  5
8B7
331
C07
  5
BCE
331
967
  5
9AA
331
887
  5
8CA
331
978
  5
9BB
331
898
  5
8DB
331
989
  5
9CC
331
8A9
  5
8EC
331
99A
  5
9DD
331
8BA
  5
8FD
331
9AB
  5
9EE
331
8CB
  5
90E
331
9BC
  5
9FF
331
8DC
  5
91F
331
B95
  5
BD1
331
9CD
  5
A10
331
A1E
  5
BF2
331
816
  5
855
331
8F7
  5
93A
331
827
  5
866
331
805
  5
805
331
7EA
  5
7EA
331
7D9
  5
7D9
331
7C8
  5
7C8
331
7B7
  5
7B7
331
7A6
  5
7A6
331
795
  5
795
331
9D8
  5
A21
331
8F8
  5
93B
331
828
  5
867
331
9E9
  5
A32
331
909
  5
94C
331
839
  5
878
331
BA2
  5
BB8
331
9FA
  5
B82
331
91A
  5
95D
331
A0B
  5
B97
331
92B
  5
96E
331
A2C
  5
C00
331
93C
  5
97F
331
86C
  5
8AD
331
BC4
  5
81D
331
BB3
  5
80C
331
85B
  5
89C
331
84A
  5
88B
331
A3D
  5
C11
331
94D
  5
990
331
BD5
  5
82E
331
95E
  5
9A1
331
BE6
  5
83F
331
BF7
  5
BE0
331
877
  5
8B8
331
C08
  5
BC9
331
968
  5
9AB
331
888
  5
8CB
331
979
  5
9BC
331
899
  5
8DC
331
98A
  5
9CD
331
8AA
  5
8ED
331
99B
  5
9DE
331
8BB
  5
8FE
331
9AC
  5
9EF
331
8CC
  5
90F
331
B85
  5
C13
331
9BD
  5
A00
331
8DD
  5
920
331
B96
  5
BD2
331
9CE
  5
A11
331
A1F
  5
BF3
331
817
  5
856
331
806
  5
806
331
7EB
  5
7EB
331
7DA
  5
7DA
331
7C9
  5
7C9
331
7B8
  5
7B8
331
7A7
  5
7A7
331
796
  5
796
331
785
  5
785
331
8E8
  5
92B
331
818
  5
857
331
9D9
  5
A22
331
8F9
  5
93C
331
829
  5
868
331
9EA
  5
A33
331
90A
  5
94D
331
9FB
  5
B85
331
91B
  5
95E
331
A0C
  5
B98
331
92C
  5
96F
331
A2D
  5
C01
331
93D
  5
980
331
86D
  5
8AE
331
BC5
  5
81E
331
BB4
  5
80D
331
85C
  5
89D
331
84B
  5
88C
331
83A
  5
879
331
94E
  5
991
331
BD6
  5
82F
331
95F
  5
9A2
331
BE7
  5
840
331
BF8
  5
BE1
331
878
  5
8B9
331
C09
  5
BCA
331
969
  5
9AC
331
889
  5
8CC
331
97A
  5
9BD
331
89A
  5
8DD
331
98B
  5
9CE
331
8AB
  5
8EE
331
99C
  5
9DF
331
8BC
  5
8FF
331
9AD
  5
9F0
331
8CD
  5
910
331
9BE
  5
A01
331
8DE
  5
921
331
9CF
  5
A12
331
807
  5
807
331
7EC
  5
7EC
331
7DB
  5
7DB
331
7CA
  5
7CA
331
7B9
  5
7B9
331
7A8
  5
7A8
331
797
  5
797
331
786
  5
786
331
9D0
  5
A13
331
A10
  5
B9C
331
8E9
  5
92C
331
819
  5
858
331
9DA
  5
A23
331
8FA
  5
93D
331
9EB
  5
A34
331
90B
  5
94E
331
83B
  5
87A
331
9FC
  5
B88
331
91C
  5
95F
331
A0D
  5
B99
331
92D
  5
970
331
A2E
  5
C02
331
93E
  5
981
331
86E
  5
8AF
331
BC6
  5
81F
331
BB5
  5
80E
331
85D
  5
89E
331
84C
  5
88D
331
82A
  5
869
331
A3F
  5
C14
331
94F
  5
992
331
BD7
  5
830
331
BE8
  5
841
331
BF9
  5
BE2
331
879
  5
8BA
331
C0A
  5
BCB
331
96A
  5
9AD
331
88A
  5
8CD
331
97B
  5
9BE
331
89B
  5
8DE
331
98C
  5
9CF
331
8AC
  5
8EF
331
99D
  5
9E0
331
8BD
  5
900
331
9AE
  5
9F1
331
8CE
  5
911
331
9BF
  5
A02
331
8DF
  5
922
331
7ED
  5
7ED
331
7DC
  5
7DC
331
7CB
  5
7CB
331
7BA
  5
7BA
331
7A9
  5
7A9
331
798
  5
798
331
787
  5
787
  0
XRECORD
  5
C1F
102
{ACAD_REACTORS
330
C1D
102
}
330
C1D
100
AcDbXrecord
280
     1
 70
     2
  0
XRECORD
  5
C1E
102
{ACAD_REACTORS
330
C1D
102
}
330
C1D
100
AcDbXrecord
280
     1
 40
1.25
  0
XRECORD
  5
C20
102
{ACAD_REACTORS
330
C1D
102
}
330
C1D
100
AcDbXrecord
280
     1
 40
1.570796326794896
  0
LAYOUT
  5
6E
102
{ACAD_XDICTIONARY
360
C54
102
}
102
{ACAD_REACTORS
330
61
102
}
330
61
100
AcDbPlotSettings
  1

  2
FX DP 205
  4

  6

 40
0.0
 41
0.0
 42
0.0
 43
0.0
 44
0.0
 45
0.0
 46
0.0
 47
0.0
 48
0.0
 49
0.0
140
0.0
141
0.0
142
1.0
143
1.0
 70
  1712
 72
     0
 73
     0
 74
     0
  7

 75
     0
147
1.0
148
0.0
149
0.0
100
AcDbLayout
  1
Model
 70
     1
 71
     0
 10
0.0
 20
0.0
 11
12.0
 21
9.0
 12
0.0
 22
0.0
 32
0.0
 14
0.0
 24
0.0
 34
0.0
 15
0.0
 25
0.0
 35
0.0
146
0.0
 13
0.0
 23
0.0
 33
0.0
 16
1.0
 26
0.0
 36
0.0
 17
0.0
 27
1.0
 37
0.0
 76
     0
330
6B
331
8B
  0
LAYOUT
  5
6A
102
{ACAD_XDICTIONARY
360
C52
102
}
102
{ACAD_REACTORS
330
61
102
}
330
61
100
AcDbPlotSettings
  1

  2
FX DP 205
  4

  6

 40
0.0
 41
0.0
 42
0.0
 43
0.0
 44
0.0
 45
0.0
 46
0.0
 47
0.0
 48
0.0
 49
0.0
140
0.0
141
0.0
142
1.0
143
1.0
 70
   688
 72
     0
 73
     0
 74
     5
  7

 75
    16
147
1.0
148
0.0
149
0.0
100
AcDbLayout
  1
レイアウト1
 70
     1
 71
     1
 10
0.0
 20
0.0
 11
12.0
 21
9.0
 12
0.0
 22
0.0
 32
0.0
 14
1.000000000000000E+20
 24
1.000000000000000E+20
 34
1.000000000000000E+20
 15
-1.000000000000000E+20
 25
-1.000000000000000E+20
 35
-1.000000000000000E+20
146
0.0
 13
0.0
 23
0.0
 33
0.0
 16
1.0
 26
0.0
 36
0.0
 17
0.0
 27
1.0
 37
0.0
 76
     0
330
67
  0
MATERIAL
  5
19
102
{ACAD_XDICTIONARY
360
1A
102
}
102
{ACAD_REACTORS
330
10
102
}
330
10
100
AcDbMaterial
  1
ByBlock
 72
     0
 43
0.0208333333333333
 43
0.0
 43
0.0
 43
0.0
 43
0.0
 43
0.0208333333333333
 43
0.0
 43
0.0
 43
0.0
 43
0.0
 43
1.0
 43
0.0
 43
0.0
 43
0.0
 43
0.0
 43
1.0
 77
     0
 47
0.0208333333333333
 47
0.0
 47
0.0
 47
0.0
 47
0.0
 47
0.0208333333333333
 47
0.0
 47
0.0
 47
0.0
 47
0.0
 47
1.0
 47
0.0
 47
0.0
 47
0.0
 47
0.0
 47
1.0
171
     0
 49
0.0208333333333333
 49
0.0
 49
0.0
 49
0.0
 49
0.0
 49
0.0208333333333333
 49
0.0
 49
0.0
 49
0.0
 49
0.0
 49
1.0
 49
0.0
 49
0.0
 49
0.0
 49
0.0
 49
1.0
175
     0
142
0.0208333333333333
142
0.0
142
0.0
142
0.0
142
0.0
142
0.0208333333333333
142
0.0
142
0.0
142
0.0
142
0.0
142
1.0
142
0.0
142
0.0
142
0.0
142
0.0
142
1.0
179
     0
144
0.0208333333333333
144
0.0
144
0.0
144
0.0
144
0.0
144
0.0208333333333333
144
0.0
144
0.0
144
0.0
144
0.0
144
1.0
144
0.0
144
0.0
144
0.0
144
0.0
144
1.0
147
0.0208333333333333
147
0.0
147
0.0
147
0.0
147
0.0
147
0.0208333333333333
147
0.0
147
0.0
147
0.0
147
0.0
147
1.0
147
0.0
147
0.0
147
0.0
147
0.0
147
1.0
  0
MATERIAL
  5
11
102
{ACAD_XDICTIONARY
360
12
102
}
102
{ACAD_REACTORS
330
10
102
}
330
10
100
AcDbMaterial
  1
ByLayer
 72
     0
 43
0.0208333333333333
 43
0.0
 43
0.0
 43
0.0
 43
0.0
 43
0.0208333333333333
 43
0.0
 43
0.0
 43
0.0
 43
0.0
 43
1.0
 43
0.0
 43
0.0
 43
0.0
 43
0.0
 43
1.0
 77
     0
 47
0.0208333333333333
 47
0.0
 47
0.0
 47
0.0
 47
0.0
 47
0.0208333333333333
 47
0.0
 47
0.0
 47
0.0
 47
0.0
 47
1.0
 47
0.0
 47
0.0
 47
0.0
 47
0.0
 47
1.0
171
     0
 49
0.0208333333333333
 49
0.0
 49
0.0
 49
0.0
 49
0.0
 49
0.0208333333333333
 49
0.0
 49
0.0
 49
0.0
 49
0.0
 49
1.0
 49
0.0
 49
0.0
 49
0.0
 49
0.0
 49
1.0
175
     0
142
0.0208333333333333
142
0.0
142
0.0
142
0.0
142
0.0
142
0.0208333333333333
142
0.0
142
0.0
142
0.0
142
0.0
142
1.0
142
0.0
142
0.0
142
0.0
142
0.0
142
1.0
179
     0
144
0.0208333333333333
144
0.0
144
0.0
144
0.0
144
0.0
144
0.0208333333333333
144
0.0
144
0.0
144
0.0
144
0.0
144
1.0
144
0.0
144
0.0
144
0.0
144
0.0
144
1.0
147
0.0208333333333333
147
0.0
147
0.0
147
0.0
147
0.0
147
0.0208333333333333
147
0.0
147
0.0
147
0.0
147
0.0
147
1.0
147
0.0
147
0.0
147
0.0
147
0.0
147
1.0
  0
MATERIAL
  5
21
102
{ACAD_XDICTIONARY
360
22
102
}
102
{ACAD_REACTORS
330
10
102
}
330
10
100
AcDbMaterial
  1
Global
 72
     0
 43
0.0208333333333333
 43
0.0
 43
0.0
 43
0.0
 43
0.0
 43
0.0208333333333333
 43
0.0
 43
0.0
 43
0.0
 43
0.0
 43
1.0
 43
0.0
 43
0.0
 43
0.0
 43
0.0
 43
1.0
 77
     0
 47
0.0208333333333333
 47
0.0
 47
0.0
 47
0.0
 47
0.0
 47
0.0208333333333333
 47
0.0
 47
0.0
 47
0.0
 47
0.0
 47
1.0
 47
0.0
 47
0.0
 47
0.0
 47
0.0
 47
1.0
171
     0
 49
0.0208333333333333
 49
0.0
 49
0.0
 49
0.0
 49
0.0
 49
0.0208333333333333
 49
0.0
 49
0.0
 49
0.0
 49
0.0
 49
1.0
 49
0.0
 49
0.0
 49
0.0
 49
0.0
 49
1.0
175
     0
142
0.0208333333333333
142
0.0
142
0.0
142
0.0
142
0.0
142
0.0208333333333333
142
0.0
142
0.0
142
0.0
142
0.0
142
1.0
142
0.0
142
0.0
142
0.0
142
0.0
142
1.0
179
     0
144
0.0208333333333333
144
0.0
144
0.0
144
0.0
144
0.0
144
0.0208333333333333
144
0.0
144
0.0
144
0.0
144
0.0
144
1.0
144
0.0
144
0.0
144
0.0
144
0.0
144
1.0
147
0.0208333333333333
147
0.0
147
0.0
147
0.0
147
0.0
147
0.0208333333333333
147
0.0
147
0.0
147
0.0
147
0.0
147
1.0
147
0.0
147
0.0
147
0.0
147
0.0
147
1.0
  0
MLEADERSTYLE
  5
66
102
{ACAD_REACTORS
330
65
102
}
330
65
100
AcDbMLeaderStyle
170
     2
171
     1
172
     0
 90
        2
 40
0.0
 41
0.0
173
     1
 91
-1056964608
340
5A
 92
       -2
290
     1
 42
0.09
291
     1
 43
0.36
  3
Standard
 44
0.18
300

342
55
174
     1
178
     6
175
     1
176
     0
 93
-1056964608
 45
0.18
292
     0
297
     0
 46
0.18
 94
-1056964608
 47
1.0
 49
1.0
140
1.0
293
     1
141
0.0
294
     1
177
     0
142
1.0
295
     0
296
     0
143
0.125
1001
ACAD_MLEADERVER
1070
     2
  0
MLINESTYLE
  5
5F
102
{ACAD_REACTORS
330
5E
102
}
330
5E
100
AcDbMlineStyle
  2
STANDARD
 70
     0
  3

 62
   256
 51
90.0
 52
90.0
 71
     2
 49
0.5
 62
   256
  6
BYLAYER
 49
-0.5
 62
   256
  6
BYLAYER
  0
ACDBPLACEHOLDER
  5
F
102
{ACAD_REACTORS
330
E
102
}
330
E
  0
SCALE
  5
43
102
{ACAD_REACTORS
330
42
102
}
330
42
100
AcDbScale
 70
     0
300
1:1
140
1.0
141
1.0
290
     1
  0
SCALE
  5
44
102
{ACAD_REACTORS
330
42
102
}
330
42
100
AcDbScale
 70
     0
300
1/128" = 1'-0"
140
0.0078125
141
12.0
290
     0
  0
SCALE
  5
45
102
{ACAD_REACTORS
330
42
102
}
330
42
100
AcDbScale
 70
     0
300
1/64" = 1'-0"
140
0.015625
141
12.0
290
     0
  0
SCALE
  5
46
102
{ACAD_REACTORS
330
42
102
}
330
42
100
AcDbScale
 70
     0
300
1/32" = 1'-0"
140
0.03125
141
12.0
290
     0
  0
SCALE
  5
47
102
{ACAD_REACTORS
330
42
102
}
330
42
100
AcDbScale
 70
     0
300
1/16" = 1'-0"
140
0.0625
141
12.0
290
     0
  0
SCALE
  5
48
102
{ACAD_REACTORS
330
42
102
}
330
42
100
AcDbScale
 70
     0
300
3/32" = 1'-0"
140
0.09375
141
12.0
290
     0
  0
SCALE
  5
49
102
{ACAD_REACTORS
330
42
102
}
330
42
100
AcDbScale
 70
     0
300
1/8" = 1'-0"
140
0.125
141
12.0
290
     0
  0
SCALE
  5
4A
102
{ACAD_REACTORS
330
42
102
}
330
42
100
AcDbScale
 70
     0
300
3/16" = 1'-0"
140
0.1875
141
12.0
290
     0
  0
SCALE
  5
4B
102
{ACAD_REACTORS
330
42
102
}
330
42
100
AcDbScale
 70
     0
300
1/4" = 1'-0"
140
0.25
141
12.0
290
     0
  0
SCALE
  5
4C
102
{ACAD_REACTORS
330
42
102
}
330
42
100
AcDbScale
 70
     0
300
3/8" = 1'-0"
140
0.375
141
12.0
290
     0
  0
SCALE
  5
4D
102
{ACAD_REACTORS
330
42
102
}
330
42
100
AcDbScale
 70
     0
300
1/2" = 1'-0"
140
0.5
141
12.0
290
     0
  0
SCALE
  5
4E
102
{ACAD_REACTORS
330
42
102
}
330
42
100
AcDbScale
 70
     0
300
3/4" = 1'-0"
140
0.75
141
12.0
290
     0
  0
SCALE
  5
4F
102
{ACAD_REACTORS
330
42
102
}
330
42
100
AcDbScale
 70
     0
300
1" = 1'-0"
140
1.0
141
12.0
290
     0
  0
SCALE
  5
50
102
{ACAD_REACTORS
330
42
102
}
330
42
100
AcDbScale
 70
     0
300
1-1/2" = 1'-0"
140
1.5
141
12.0
290
     0
  0
SCALE
  5
51
102
{ACAD_REACTORS
330
42
102
}
330
42
100
AcDbScale
 70
     0
300
3" = 1'-0"
140
3.0
141
12.0
290
     0
  0
SCALE
  5
52
102
{ACAD_REACTORS
330
42
102
}
330
42
100
AcDbScale
 70
     0
300
6" = 1'-0"
140
6.0
141
12.0
290
     0
  0
SCALE
  5
53
102
{ACAD_REACTORS
330
42
102
}
330
42
100
AcDbScale
 70
     0
300
1'-0" = 1'-0"
140
12.0
141
12.0
290
     0
  0
TABLESTYLE
  5
64
102
{ACAD_XDICTIONARY
360
ACE
102
}
102
{ACAD_REACTORS
330
63
102
}
330
63
100
AcDbTableStyle
  3
Standard
 70
     0
 71
     0
 40
0.06
 41
0.06
280
     0
281
     0
  7
STANDARD
140
0.18
170
     2
 62
     0
 63
     7
283
     0
274
    -2
284
     1
 64
     0
275
    -2
285
     1
 65
     0
276
    -2
286
     1
 66
     0
277
    -2
287
     1
 67
     0
278
    -2
288
     1
 68
     0
279
    -2
289
     1
 69
     0
  7
STANDARD
140
0.25
170
     5
 62
     0
 63
     7
283
     0
274
    -2
284
     1
 64
     0
275
    -2
285
     1
 65
     0
276
    -2
286
     1
 66
     0
277
    -2
287
     1
 67
     0
278
    -2
288
     1
 68
     0
279
    -2
289
     1
 69
     0
  7
STANDARD
140
0.18
170
     5
 62
     0
 63
     7
283
     0
274
    -2
284
     1
 64
     0
275
    -2
285
     1
 65
     0
276
    -2
286
     1
 66
     0
277
    -2
287
     1
 67
     0
278
    -2
288
     1
 68
     0
279
    -2
289
     1
 69
     0
  0
VISUALSTYLE
  5
2F
102
{ACAD_XDICTIONARY
360
C2B
102
}
102
{ACAD_REACTORS
330
29
102
}
330
29
100
AcDbVisualStyle
  2

 70
     4
 71
     0
 72
     2
 73
     0
 90
        0
 40
-0.6
 41
-30.0
 62
     5
 63
     7
 74
     1
 91
        4
 64
     7
 65
   257
 75
     1
175
     1
 42
1.0
 92
        0
 66
   257
 43
1.0
 76
     1
 77
     6
 78
     2
 67
     7
 79
     5
170
     0
171
     0
290
     0
174
     0
 93
        1
 44
0.0
173
     0
291
     0
 45
0.0
1001
ACAD
1000
AcDbSavedByObjectVersion
1070
     0
  0
VISUALSTYLE
  5
2E
102
{ACAD_XDICTIONARY
360
C29
102
}
102
{ACAD_REACTORS
330
29
102
}
330
29
100
AcDbVisualStyle
  2

 70
     7
 71
     1
 72
     0
 73
     1
 90
        0
 40
-0.6
 41
-30.0
 62
     5
 63
     7
 74
     0
 91
        4
 64
     7
 65
   257
 75
     1
175
     1
 42
1.0
 92
        8
 66
     7
 43
1.0
 76
     1
 77
     6
 78
     2
 67
     7
 79
     5
170
     0
171
     0
290
     0
174
     0
 93
        1
 44
0.0
173
     0
291
     1
 45
0.0
1001
ACAD
1000
AcDbSavedByObjectVersion
1070
     0
  0
VISUALSTYLE
  5
35
102
{ACAD_XDICTIONARY
360
C37
102
}
102
{ACAD_REACTORS
330
29
102
}
330
29
100
AcDbVisualStyle
  2

 70
    12
 71
     2
 72
     2
 73
     0
 90
        0
 40
-0.6
 41
-30.0
 62
     5
 63
     7
 74
     1
 91
        4
 64
     7
 65
   257
 75
     1
175
     1
 42
1.0
 92
        8
 66
     7
 43
1.0
 76
     1
 77
     6
 78
     2
 67
     7
 79
     5
170
     0
171
     0
290
     0
174
     0
 93
        1
 44
50.0
173
     0
291
     1
 45
0.0
1001
ACAD
1000
AcDbSavedByObjectVersion
1070
     0
  0
VISUALSTYLE
  5
39
102
{ACAD_XDICTIONARY
360
C3F
102
}
102
{ACAD_REACTORS
330
29
102
}
330
29
100
AcDbVisualStyle
  2

 70
    16
 71
     2
 72
     2
 73
     3
 90
        0
 40
-0.6
 41
-30.0
 62
     5
 63
     8
 74
     1
 91
        4
 64
     7
 65
   257
 75
     1
175
     1
 42
1.0
 92
        8
 66
     8
 43
1.0
 76
     1
 77
     6
 78
     2
 67
     7
 79
     5
170
     0
171
     0
290
     0
174
     0
 93
        1
 44
0.0
173
     0
291
     1
 45
0.0
1001
ACAD
1000
AcDbSavedByObjectVersion
1070
     0
  0
VISUALSTYLE
  5
32
102
{ACAD_XDICTIONARY
360
C31
102
}
102
{ACAD_REACTORS
330
29
102
}
330
29
100
AcDbVisualStyle
  2

 70
     9
 71
     3
 72
     2
 73
     0
 90
        0
 40
-0.6
 41
-30.0
 62
     5
 63
     7
 74
     2
 91
        2
 64
     7
 65
   257
 75
     1
175
     1
 42
179.0
 92
        8
 66
     7
 43
1.0
 76
     1
 77
     6
 78
     2
 67
     7
 79
     3
170
     0
171
     0
290
     0
174
     0
 93
        1
 44
0.0
173
     0
291
     0
 45
0.0
1001
ACAD
1000
AcDbSavedByObjectVersion
1070
     0
  0
VISUALSTYLE
  5
34
102
{ACAD_XDICTIONARY
360
C35
102
}
102
{ACAD_REACTORS
330
29
102
}
330
29
100
AcDbVisualStyle
  2

 70
    11
 71
     2
 72
     2
 73
     0
 90
        0
 40
-0.6
 41
-30.0
 62
     5
 63
     7
 74
     1
 91
        4
 64
     7
 65
   257
 75
     1
175
     1
 42
1.0
 92
        8
 66
     7
 43
1.0
 76
     1
 77
     6
 78
     2
 67
     7
 79
     5
170
     0
171
     0
290
     0
174
     0
 93
        1
 44
-50.0
173
     0
291
     1
 45
0.0
1001
ACAD
1000
AcDbSavedByObjectVersion
1070
     0
  0
VISUALSTYLE
  5
41
102
{ACAD_XDICTIONARY
360
C4F
102
}
102
{ACAD_REACTORS
330
29
102
}
330
29
100
AcDbVisualStyle
  2

 70
    22
 71
     2
 72
     2
 73
     0
 90
        0
 40
-0.6
 41
-30.0
 62
     5
 63
     7
 74
     1
 91
        4
 64
     7
 65
   257
 75
     1
175
     1
 42
1.0
 92
        8
 66
     7
 43
1.0
 76
     1
 77
     6
 78
     2
 67
     7
 79
     5
170
     0
171
     0
290
     0
174
     0
 93
        1
 44
0.0
173
     0
291
     1
 45
0.0
1001
ACAD
1000
AcDbSavedByObjectVersion
1070
     0
  0
VISUALSTYLE
  5
38
102
{ACAD_XDICTIONARY
360
C3D
102
}
102
{ACAD_REACTORS
330
29
102
}
330
29
100
AcDbVisualStyle
  2

 70
    15
 71
     2
 72
     2
 73
     0
 90
        0
 40
-0.6
 41
-30.0
 62
     5
 63
     7
 74
     1
 91
        4
 64
     7
 65
   257
 75
     1
175
     1
 42
1.0
 92
        8
 66
     7
 43
1.0
 76
     1
 77
     6
 78
     2
 67
     7
 79
     5
170
     0
171
     0
290
     0
174
     0
 93
        1
 44
0.0
173
     0
291
     1
 45
0.0
1001
ACAD
1000
AcDbSavedByObjectVersion
1070
     0
  0
VISUALSTYLE
  5
2A
102
{ACAD_XDICTIONARY
360
C21
102
}
102
{ACAD_REACTORS
330
29
102
}
330
29
100
AcDbVisualStyle
  2

 70
     0
 71
     2
 72
     1
 73
     1
 90
        2
 40
-0.6
 41
30.0
 62
     5
 63
     7
 74
     0
 91
        0
 64
     7
 65
   257
 75
     1
175
     1
 42
1.0
 92
        8
 66
     7
 43
1.0
 76
     1
 77
     6
 78
     2
 67
     7
 79
     5
170
     0
171
     0
290
     0
174
     0
 93
       13
 44
0.0
173
     0
291
     1
 45
0.0
1001
ACAD
1000
AcDbSavedByObjectVersion
1070
     0
  0
VISUALSTYLE
  5
2B
102
{ACAD_XDICTIONARY
360
C23
102
}
102
{ACAD_REACTORS
330
29
102
}
330
29
100
AcDbVisualStyle
  2

 70
     1
 71
     2
 72
     1
 73
     1
 90
        2
 40
-0.6
 41
30.0
 62
     5
 63
     7
 74
     1
 91
        0
 64
     7
 65
   257
 75
     1
175
     1
 42
1.0
 92
        0
 66
   257
 43
1.0
 76
     1
 77
     6
 78
     2
 67
     7
 79
     5
170
     0
171
     0
290
     0
174
     0
 93
       13
 44
0.0
173
     0
291
     1
 45
0.0
1001
ACAD
1000
AcDbSavedByObjectVersion
1070
     0
  0
VISUALSTYLE
  5
2C
102
{ACAD_XDICTIONARY
360
C25
102
}
102
{ACAD_REACTORS
330
29
102
}
330
29
100
AcDbVisualStyle
  2

 70
     2
 71
     2
 72
     2
 73
     1
 90
        2
 40
-0.6
 41
30.0
 62
     5
 63
     7
 74
     0
 91
        0
 64
     7
 65
   257
 75
     1
175
     1
 42
1.0
 92
        0
 66
     7
 43
1.0
 76
     1
 77
     6
 78
     2
 67
     7
 79
     5
170
     0
171
     0
290
     0
174
     0
 93
       13
 44
0.0
173
     0
291
     1
 45
0.0
1001
ACAD
1000
AcDbSavedByObjectVersion
1070
     0
  0
VISUALSTYLE
  5
2D
102
{ACAD_XDICTIONARY
360
C27
102
}
102
{ACAD_REACTORS
330
29
102
}
330
29
100
AcDbVisualStyle
  2

 70
     3
 71
     2
 72
     2
 73
     1
 90
        2
 40
-0.6
 41
30.0
 62
     5
 63
     7
 74
     1
 91
        0
 64
     7
 65
   257
 75
     1
175
     1
 42
1.0
 92
        0
 66
   257
 43
1.0
 76
     1
 77
     6
 78
     2
 67
     7
 79
     5
170
     0
171
     0
290
     0
174
     0
 93
       13
 44
0.0
173
     0
291
     1
 45
0.0
1001
ACAD
1000
AcDbSavedByObjectVersion
1070
     0
  0
VISUALSTYLE
  5
31
102
{ACAD_XDICTIONARY
360
C2F
102
}
102
{ACAD_REACTORS
330
29
102
}
330
29
100
AcDbVisualStyle
  2

 70
     6
 71
     1
 72
     2
 73
     2
 90
        0
 40
-0.6
 41
-30.0
 62
     5
 63
     7
 74
     2
 91
        2
 64
     7
 65
   257
 75
     2
175
     1
 42
40.0
 92
        0
 66
   257
 43
1.0
 76
     1
 77
     6
 78
     2
 67
     7
 79
     3
170
     0
171
     0
290
     0
174
     0
 93
        1
 44
0.0
173
     0
291
     0
 45
0.0
1001
ACAD
1000
AcDbSavedByObjectVersion
1070
     0
  0
VISUALSTYLE
  5
3F
102
{ACAD_XDICTIONARY
360
C4B
102
}
102
{ACAD_REACTORS
330
29
102
}
330
29
100
AcDbVisualStyle
  2

 70
    20
 71
     2
 72
     2
 73
     0
 90
        0
 40
-0.6
 41
-30.0
 62
     5
 63
     7
 74
     1
 91
        4
 64
     7
 65
   257
 75
     1
175
     1
 42
1.0
 92
       10
 66
     7
 43
1.0
 76
     1
 77
     6
 78
     2
 67
     7
 79
     5
170
     0
171
     0
290
     0
174
     0
 93
        1
 44
0.0
173
     0
291
     1
 45
0.0
1001
ACAD
1000
AcDbSavedByObjectVersion
1070
     0
  0
VISUALSTYLE
  5
37
102
{ACAD_XDICTIONARY
360
C3B
102
}
102
{ACAD_REACTORS
330
29
102
}
330
29
100
AcDbVisualStyle
  2

 70
    14
 71
     2
 72
     2
 73
     0
 90
        0
 40
-0.6
 41
-30.0
 62
     5
 63
     7
 74
     1
 91
        4
 64
     7
 65
   257
 75
     7
175
     7
 42
1.0
 92
        8
 66
     7
 43
1.0
 76
     1
 77
     6
 78
     2
 67
     7
 79
     5
170
     0
171
     0
290
     0
174
     0
 93
        1
 44
0.0
173
     0
291
     1
 45
0.0
1001
ACAD
1000
AcDbSavedByObjectVersion
1070
     0
  0
VISUALSTYLE
  5
40
102
{ACAD_XDICTIONARY
360
C4D
102
}
102
{ACAD_REACTORS
330
29
102
}
330
29
100
AcDbVisualStyle
  2

 70
    21
 71
     2
 72
     2
 73
     0
 90
        0
 40
-0.6
 41
-30.0
 62
     5
 63
     7
 74
     1
 91
        4
 64
     7
 65
   257
 75
     1
175
     1
 42
1.0
 92
        9
 66
     7
 43
1.0
 76
     1
 77
     6
 78
     2
 67
     7
 79
     5
170
     0
171
     0
290
     0
174
     0
 93
        1
 44
0.0
173
     0
291
     1
 45
0.0
1001
ACAD
1000
AcDbSavedByObjectVersion
1070
     0
  0
VISUALSTYLE
  5
33
102
{ACAD_XDICTIONARY
360
C33
102
}
102
{ACAD_REACTORS
330
29
102
}
330
29
100
AcDbVisualStyle
  2

 70
     8
 71
     2
 72
     3
 73
     0
 90
        2
 40
-0.6
 41
30.0
 62
     5
 63
     7
 74
     0
 91
        0
 64
     7
 65
   257
 75
     1
175
     1
 42
1.0
 92
        8
 66
   257
 43
1.0
 76
     1
 77
     6
 78
     2
 67
     7
 79
     3
170
     0
171
     0
290
     0
174
     0
 93
       13
 44
0.0
173
     0
291
     0
 45
0.0
1001
ACAD
1000
AcDbSavedByObjectVersion
1070
     0
  0
VISUALSTYLE
  5
3E
102
{ACAD_XDICTIONARY
360
C49
102
}
102
{ACAD_REACTORS
330
29
102
}
330
29
100
AcDbVisualStyle
  2

 70
    27
 71
     2
 72
     2
 73
     1
 90
        2
 40
-0.6
 41
30.0
 62
     5
 63
     7
 74
     0
 91
        4
 64
     7
 65
   257
 75
     1
175
     1
 42
1.0
 92
        8
 66
   257
 43
1.0
 76
     1
 77
     6
 78
     2
 67
     8
 79
     3
170
     0
171
     0
290
     0
174
     0
 93
        5
 44
0.0
173
     0
291
     0
 45
0.0
1001
ACAD
1000
AcDbSavedByObjectVersion
1070
     0
  0
VISUALSTYLE
  5
3D
102
{ACAD_XDICTIONARY
360
C47
102
}
102
{ACAD_REACTORS
330
29
102
}
330
29
100
AcDbVisualStyle
  2

 70
    26
 71
     2
 72
     2
 73
     1
 90
        2
 40
-0.6
 41
30.0
 62
     5
 63
     7
 74
     1
 91
       10
 64
     7
 65
   257
 75
     2
175
     1
 42
1.0
 92
        8
 66
   257
 43
1.0
 76
     1
 77
     6
 78
     2
 67
     7
 79
     3
170
     0
171
     0
290
     0
174
     0
 93
        5
 44
0.0
173
     0
291
     0
 45
0.0
1001
ACAD
1000
AcDbSavedByObjectVersion
1070
     0
  0
VISUALSTYLE
  5
3A
102
{ACAD_XDICTIONARY
360
C41
102
}
102
{ACAD_REACTORS
330
29
102
}
330
29
100
AcDbVisualStyle
  2

 70
    23
 71
     2
 72
     2
 73
     3
 90
        0
 40
-0.6
 41
-30.0
 62
     5
 63
     7
 74
     2
 91
        2
 64
     7
 65
     7
 75
     1
175
     1
 42
40.0
 92
        8
 66
     7
 43
1.0
 76
     1
 77
     6
 78
     2
 67
     7
 79
     3
170
     0
171
     0
290
     0
174
     0
 93
        1
 44
0.0
173
     0
291
     0
 45
0.0
1001
ACAD
1000
AcDbSavedByObjectVersion
1070
     0
  0
VISUALSTYLE
  5
3B
102
{ACAD_XDICTIONARY
360
C43
102
}
102
{ACAD_REACTORS
330
29
102
}
330
29
100
AcDbVisualStyle
  2

 70
    24
 71
     1
 72
     2
 73
     2
 90
        0
 40
-0.6
 41
-30.0
 62
     5
 63
     7
 74
     2
 91
        2
 64
     7
 65
     7
 75
     1
175
     1
 42
40.0
 92
       11
 66
     7
 43
1.0
 76
     1
 77
     6
 78
     2
 67
     7
 79
     6
170
     0
171
     0
290
     0
174
     0
 93
        1
 44
0.0
173
     0
291
     0
 45
0.0
1001
ACAD
1000
AcDbSavedByObjectVersion
1070
     0
  0
VISUALSTYLE
  5
36
102
{ACAD_XDICTIONARY
360
C39
102
}
102
{ACAD_REACTORS
330
29
102
}
330
29
100
AcDbVisualStyle
  2

 70
    13
 71
     2
 72
     2
 73
     0
 90
        0
 40
-0.6
 41
-30.0
 62
     5
 63
     7
 74
     1
 91
        4
 64
     7
 65
   257
 75
     1
175
     1
 42
1.0
 92
       12
 66
     7
 43
1.0
 76
     1
 77
     6
 78
     2
 67
     7
 79
     5
170
     0
171
     0
290
     0
174
     0
 93
        1
 44
0.0
173
     0
291
     1
 45
0.0
1001
ACAD
1000
AcDbSavedByObjectVersion
1070
     0
  0
VISUALSTYLE
  5
30
102
{ACAD_XDICTIONARY
360
C2D
102
}
102
{ACAD_REACTORS
330
29
102
}
330
29
100
AcDbVisualStyle
  2

 70
     5
 71
     0
 72
     2
 73
     0
 90
        0
 40
-0.6
 41
-30.0
 62
     5
 63
     7
 74
     1
 91
        4
 64
     7
 65
   257
 75
     1
175
     1
 42
1.0
 92
        0
 66
   257
 43
1.0
 76
     1
 77
     6
 78
     2
 67
     7
 79
     3
170
     0
171
     0
290
     0
174
     0
 93
        1
 44
0.0
173
     0
291
     0
 45
0.0
1001
ACAD
1000
AcDbSavedByObjectVersion
1070
     0
  0
VISUALSTYLE
  5
3C
102
{ACAD_XDICTIONARY
360
C45
102
}
102
{ACAD_REACTORS
330
29
102
}
330
29
100
AcDbVisualStyle
  2

 70
    25
 71
     2
 72
     2
 73
     1
 90
        1
 40
0.5
 41
-30.0
 62
     5
 63
     7
 74
     1
 91
        0
 64
     7
 65
   257
 75
     1
175
     1
 42
1.0
 92
        8
 66
     7
 43
1.0
 76
     1
 77
     6
 78
     2
 67
     7
 79
     3
170
     0
171
     0
290
     0
174
     0
 93
       13
 44
0.0
173
     0
291
     0
 45
0.0
1001
ACAD
1000
AcDbSavedByObjectVersion
1070
     0
  0
DICTIONARYVAR
  5
AC9
102
{ACAD_REACTORS
330
AC6
102
}
330
AC6
100
DictionaryVariables
280
     0
  1
1:1
  0
DICTIONARYVAR
  5
AC8
102
{ACAD_REACTORS
330
AC6
102
}
330
AC6
100
DictionaryVariables
280
     0
  1
STANDARD
  0
DICTIONARYVAR
  5
AC7
102
{ACAD_REACTORS
330
AC6
102
}
330
AC6
100
DictionaryVariables
280
     0
  1
STANDARD
  0
DICTIONARYVAR
  5
ACC
102
{ACAD_REACTORS
330
AC6
102
}
330
AC6
100
DictionaryVariables
280
     0
  1
1
  0
DICTIONARYVAR
  5
ACB
102
{ACAD_REACTORS
330
AC6
102
}
330
AC6
100
DictionaryVariables
280
     0
  1
0
  0
DICTIONARYVAR
  5
ACA
102
{ACAD_REACTORS
330
AC6
102
}
330
AC6
100
DictionaryVariables
280
     0
  1
127
  0
DICTIONARYVAR
  5
C19
102
{ACAD_REACTORS
330
AC6
102
}
330
AC6
100
DictionaryVariables
280
     0
  1
2
  0
DICTIONARY
  5
C54
330
6E
100
AcDbDictionary
280
     1
281
     1
  3
ACAD_XREC_ROUNDTRIP
360
C55
  0
DICTIONARY
  5
C52
330
6A
100
AcDbDictionary
280
     1
281
     1
  3
ACAD_XREC_ROUNDTRIP
360
C53
  0
DICTIONARY
  5
1A
330
19
100
AcDbDictionary
280
     1
281
     1
  3
ACAD_XREC_ROUNDTRIP
360
AD7
  3
BUMPTILE
360
1C
  3
DIFFUSETILE
360
1B
  3
OPACITYTILE
360
1F
  3
REFLECTIONTILE
360
1E
  3
REFRACTIONTILE
360
20
  3
SPECULARTILE
360
1D
  0
DICTIONARY
  5
12
330
11
100
AcDbDictionary
280
     1
281
     1
  3
ACAD_XREC_ROUNDTRIP
360
AD6
  3
BUMPTILE
360
14
  3
DIFFUSETILE
360
13
  3
OPACITYTILE
360
17
  3
REFLECTIONTILE
360
16
  3
REFRACTIONTILE
360
18
  3
SPECULARTILE
360
15
  0
DICTIONARY
  5
22
330
21
100
AcDbDictionary
280
     1
281
     1
  3
ACAD_XREC_ROUNDTRIP
360
AD8
  3
BUMPTILE
360
24
  3
DIFFUSETILE
360
23
  3
OPACITYTILE
360
27
  3
REFLECTIONTILE
360
26
  3
REFRACTIONTILE
360
28
  3
SPECULARTILE
360
25
  0
DICTIONARY
  5
ACE
330
64
100
AcDbDictionary
280
     1
281
     1
  3
ACAD_ROUNDTRIP_2008_TABLESTYLE_CELLSTYLEMAP
360
C1A
  3
ACAD_XREC_ROUNDTRIP
360
C51
  0
DICTIONARY
  5
C2B
330
2F
100
AcDbDictionary
280
     1
281
     1
  3
ACAD_XREC_ROUNDTRIP
360
C2C
  0
DICTIONARY
  5
C29
330
2E
100
AcDbDictionary
280
     1
281
     1
  3
ACAD_XREC_ROUNDTRIP
360
C2A
  0
DICTIONARY
  5
C37
330
35
100
AcDbDictionary
280
     1
281
     1
  3
ACAD_XREC_ROUNDTRIP
360
C38
  0
DICTIONARY
  5
C3F
330
39
100
AcDbDictionary
280
     1
281
     1
  3
ACAD_XREC_ROUNDTRIP
360
C40
  0
DICTIONARY
  5
C31
330
32
100
AcDbDictionary
280
     1
281
     1
  3
ACAD_XREC_ROUNDTRIP
360
C32
  0
DICTIONARY
  5
C35
330
34
100
AcDbDictionary
280
     1
281
     1
  3
ACAD_XREC_ROUNDTRIP
360
C36
  0
DICTIONARY
  5
C4F
330
41
100
AcDbDictionary
280
     1
281
     1
  3
ACAD_XREC_ROUNDTRIP
360
C50
  0
DICTIONARY
  5
C3D
330
38
100
AcDbDictionary
280
     1
281
     1
  3
ACAD_XREC_ROUNDTRIP
360
C3E
  0
DICTIONARY
  5
C21
330
2A
100
AcDbDictionary
280
     1
281
     1
  3
ACAD_XREC_ROUNDTRIP
360
C22
  0
DICTIONARY
  5
C23
330
2B
100
AcDbDictionary
280
     1
281
     1
  3
ACAD_XREC_ROUNDTRIP
360
C24
  0
DICTIONARY
  5
C25
330
2C
100
AcDbDictionary
280
     1
281
     1
  3
ACAD_XREC_ROUNDTRIP
360
C26
  0
DICTIONARY
  5
C27
330
2D
100
AcDbDictionary
280
     1
281
     1
  3
ACAD_XREC_ROUNDTRIP
360
C28
  0
DICTIONARY
  5
C2F
330
31
100
AcDbDictionary
280
     1
281
     1
  3
ACAD_XREC_ROUNDTRIP
360
C30
  0
DICTIONARY
  5
C4B
330
3F
100
AcDbDictionary
280
     1
281
     1
  3
ACAD_XREC_ROUNDTRIP
360
C4C
  0
DICTIONARY
  5
C3B
330
37
100
AcDbDictionary
280
     1
281
     1
  3
ACAD_XREC_ROUNDTRIP
360
C3C
  0
DICTIONARY
  5
C4D
330
40
100
AcDbDictionary
280
     1
281
     1
  3
ACAD_XREC_ROUNDTRIP
360
C4E
  0
DICTIONARY
  5
C33
330
33
100
AcDbDictionary
280
     1
281
     1
  3
ACAD_XREC_ROUNDTRIP
360
C34
  0
DICTIONARY
  5
C49
330
3E
100
AcDbDictionary
280
     1
281
     1
  3
ACAD_XREC_ROUNDTRIP
360
C4A
  0
DICTIONARY
  5
C47
330
3D
100
AcDbDictionary
280
     1
281
     1
  3
ACAD_XREC_ROUNDTRIP
360
C48
  0
DICTIONARY
  5
C41
330
3A
100
AcDbDictionary
280
     1
281
     1
  3
ACAD_XREC_ROUNDTRIP
360
C42
  0
DICTIONARY
  5
C43
330
3B
100
AcDbDictionary
280
     1
281
     1
  3
ACAD_XREC_ROUNDTRIP
360
C44
  0
DICTIONARY
  5
C39
330
36
100
AcDbDictionary
280
     1
281
     1
  3
ACAD_XREC_ROUNDTRIP
360
C3A
  0
DICTIONARY
  5
C2D
330
30
100
AcDbDictionary
280
     1
281
     1
  3
ACAD_XREC_ROUNDTRIP
360
C2E
  0
DICTIONARY
  5
C45
330
3C
100
AcDbDictionary
280
     1
281
     1
  3
ACAD_XREC_ROUNDTRIP
360
C46
  0
XRECORD
  5
C55
102
{ACAD_REACTORS
330
C54
102
}
330
C54
100
AcDbXrecord
280
     1
102
SHADEPLOT
 70
     0
102
SHADEPLOTRESLEVEL
 70
     2
102
SHADEPLOTCUSTOMDPI
 70
   300
  0
XRECORD
  5
C53
102
{ACAD_REACTORS
330
C52
102
}
330
C52
100
AcDbXrecord
280
     1
102
SHADEPLOT
 70
     0
102
SHADEPLOTRESLEVEL
 70
     2
102
SHADEPLOTCUSTOMDPI
 70
   300
  0
XRECORD
  5
AD7
102
{ACAD_REACTORS
330
1A
102
}
330
1A
100
AcDbXrecord
280
     1
102
MATERIAL
148
0.0
149
0.0
149
0.0
 93
        0
 94
      127
282
     0
 72
     0
 77
     0
171
     0
175
     0
179
     0
273
     0
  0
XRECORD
  5
1C
102
{ACAD_REACTORS
330
1A
102
}
330
1A
100
AcDbXrecord
280
     1
270
     1
271
     1
  0
XRECORD
  5
1B
102
{ACAD_REACTORS
330
1A
102
}
330
1A
100
AcDbXrecord
280
     1
270
     1
271
     1
  0
XRECORD
  5
1F
102
{ACAD_REACTORS
330
1A
102
}
330
1A
100
AcDbXrecord
280
     1
270
     1
271
     1
  0
XRECORD
  5
1E
102
{ACAD_REACTORS
330
1A
102
}
330
1A
100
AcDbXrecord
280
     1
270
     1
271
     1
  0
XRECORD
  5
20
102
{ACAD_REACTORS
330
1A
102
}
330
1A
100
AcDbXrecord
280
     1
270
     1
271
     1
  0
XRECORD
  5
1D
102
{ACAD_REACTORS
330
1A
102
}
330
1A
100
AcDbXrecord
280
     1
270
     1
271
     1
  0
XRECORD
  5
AD6
102
{ACAD_REACTORS
330
12
102
}
330
12
100
AcDbXrecord
280
     1
102
MATERIAL
148
0.0
149
0.0
149
0.0
 93
        0
 94
      127
282
     0
 72
     0
 77
     0
171
     0
175
     0
179
     0
273
     0
  0
XRECORD
  5
14
102
{ACAD_REACTORS
330
12
102
}
330
12
100
AcDbXrecord
280
     1
270
     1
271
     1
  0
XRECORD
  5
13
102
{ACAD_REACTORS
330
12
102
}
330
12
100
AcDbXrecord
280
     1
270
     1
271
     1
  0
XRECORD
  5
17
102
{ACAD_REACTORS
330
12
102
}
330
12
100
AcDbXrecord
280
     1
270
     1
271
     1
  0
XRECORD
  5
16
102
{ACAD_REACTORS
330
12
102
}
330
12
100
AcDbXrecord
280
     1
270
     1
271
     1
  0
XRECORD
  5
18
102
{ACAD_REACTORS
330
12
102
}
330
12
100
AcDbXrecord
280
     1
270
     1
271
     1
  0
XRECORD
  5
15
102
{ACAD_REACTORS
330
12
102
}
330
12
100
AcDbXrecord
280
     1
270
     1
271
     1
  0
XRECORD
  5
AD8
102
{ACAD_REACTORS
330
22
102
}
330
22
100
AcDbXrecord
280
     1
102
MATERIAL
148
0.0
149
0.0
149
0.0
 93
        0
 94
      127
282
     0
 72
     0
 77
     0
171
     0
175
     0
179
     0
273
     0
  0
XRECORD
  5
24
102
{ACAD_REACTORS
330
22
102
}
330
22
100
AcDbXrecord
280
     1
270
     1
271
     1
  0
XRECORD
  5
23
102
{ACAD_REACTORS
330
22
102
}
330
22
100
AcDbXrecord
280
     1
270
     1
271
     1
  0
XRECORD
  5
27
102
{ACAD_REACTORS
330
22
102
}
330
22
100
AcDbXrecord
280
     1
270
     1
271
     1
  0
XRECORD
  5
26
102
{ACAD_REACTORS
330
22
102
}
330
22
100
AcDbXrecord
280
     1
270
     1
271
     1
  0
XRECORD
  5
28
102
{ACAD_REACTORS
330
22
102
}
330
22
100
AcDbXrecord
280
     1
270
     1
271
     1
  0
XRECORD
  5
25
102
{ACAD_REACTORS
330
22
102
}
330
22
100
AcDbXrecord
280
     1
270
     1
271
     1
  0
CELLSTYLEMAP
  5
C1A
102
{ACAD_REACTORS
330
ACE
102
}
330
ACE
100
AcDbCellStyleMap
 90
        3
300
CELLSTYLE
  1
TABLEFORMAT_BEGIN
 90
        5
170
     1
 91
        0
 92
    32768
 62
   257
 93
        1
300
CONTENTFORMAT
  1
CONTENTFORMAT_BEGIN
 90
        0
 91
        0
 92
      512
 93
        0
300

 40
0.0
140
1.0
 94
        5
 62
     0
340
55
144
0.25
309
CONTENTFORMAT_END
171
     1
301
MARGIN
  1
CELLMARGIN_BEGIN
 40
0.06
 40
0.06
 40
0.06
 40
0.06
 40
0.18
 40
0.18
309
CELLMARGIN_END
 94
        6
 95
        1
302
GRIDFORMAT
  1
GRIDFORMAT_BEGIN
 90
        0
 91
        1
 62
     0
 92
       -2
340
0
 93
        0
 40
0.045
309
GRIDFORMAT_END
 95
        2
302
GRIDFORMAT
  1
GRIDFORMAT_BEGIN
 90
        0
 91
        1
 62
     0
 92
       -2
340
0
 93
        0
 40
0.045
309
GRIDFORMAT_END
 95
        4
302
GRIDFORMAT
  1
GRIDFORMAT_BEGIN
 90
        0
 91
        1
 62
     0
 92
       -2
340
0
 93
        0
 40
0.045
309
GRIDFORMAT_END
 95
        8
302
GRIDFORMAT
  1
GRIDFORMAT_BEGIN
 90
        0
 91
        1
 62
     0
 92
       -2
340
0
 93
        0
 40
0.045
309
GRIDFORMAT_END
 95
       16
302
GRIDFORMAT
  1
GRIDFORMAT_BEGIN
 90
        0
 91
        1
 62
     0
 92
       -2
340
0
 93
        0
 40
0.045
309
GRIDFORMAT_END
 95
       32
302
GRIDFORMAT
  1
GRIDFORMAT_BEGIN
 90
        0
 91
        1
 62
     0
 92
       -2
340
0
 93
        0
 40
0.045
309
GRIDFORMAT_END
309
TABLEFORMAT_END
  1
CELLSTYLE_BEGIN
 90
        1
 91
        1
300
_TITLE
309
CELLSTYLE_END
300
CELLSTYLE
  1
TABLEFORMAT_BEGIN
 90
        5
170
     1
 91
        0
 92
        0
 62
   257
 93
        1
300
CONTENTFORMAT
  1
CONTENTFORMAT_BEGIN
 90
        0
 91
        0
 92
      512
 93
        0
300

 40
0.0
140
1.0
 94
        5
 62
     0
340
55
144
0.18
309
CONTENTFORMAT_END
171
     1
301
MARGIN
  1
CELLMARGIN_BEGIN
 40
0.06
 40
0.06
 40
0.06
 40
0.06
 40
0.18
 40
0.18
309
CELLMARGIN_END
 94
        6
 95
        1
302
GRIDFORMAT
  1
GRIDFORMAT_BEGIN
 90
        0
 91
        1
 62
     0
 92
       -2
340
0
 93
        0
 40
0.045
309
GRIDFORMAT_END
 95
        2
302
GRIDFORMAT
  1
GRIDFORMAT_BEGIN
 90
        0
 91
        1
 62
     0
 92
       -2
340
0
 93
        0
 40
0.045
309
GRIDFORMAT_END
 95
        4
302
GRIDFORMAT
  1
GRIDFORMAT_BEGIN
 90
        0
 91
        1
 62
     0
 92
       -2
340
0
 93
        0
 40
0.045
309
GRIDFORMAT_END
 95
        8
302
GRIDFORMAT
  1
GRIDFORMAT_BEGIN
 90
        0
 91
        1
 62
     0
 92
       -2
340
0
 93
        0
 40
0.045
309
GRIDFORMAT_END
 95
       16
302
GRIDFORMAT
  1
GRIDFORMAT_BEGIN
 90
        0
 91
        1
 62
     0
 92
       -2
340
0
 93
        0
 40
0.045
309
GRIDFORMAT_END
 95
       32
302
GRIDFORMAT
  1
GRIDFORMAT_BEGIN
 90
        0
 91
        1
 62
     0
 92
       -2
340
0
 93
        0
 40
0.045
309
GRIDFORMAT_END
309
TABLEFORMAT_END
  1
CELLSTYLE_BEGIN
 90
        2
 91
        1
300
_HEADER
309
CELLSTYLE_END
300
CELLSTYLE
  1
TABLEFORMAT_BEGIN
 90
        5
170
     1
 91
        0
 92
        0
 62
   257
 93
        1
300
CONTENTFORMAT
  1
CONTENTFORMAT_BEGIN
 90
        0
 91
        0
 92
      512
 93
        0
300

 40
0.0
140
1.0
 94
        2
 62
     0
340
55
144
0.18
309
CONTENTFORMAT_END
171
     1
301
MARGIN
  1
CELLMARGIN_BEGIN
 40
0.06
 40
0.06
 40
0.06
 40
0.06
 40
0.18
 40
0.18
309
CELLMARGIN_END
 94
        6
 95
        1
302
GRIDFORMAT
  1
GRIDFORMAT_BEGIN
 90
        0
 91
        1
 62
     0
 92
       -2
340
0
 93
        0
 40
0.045
309
GRIDFORMAT_END
 95
        2
302
GRIDFORMAT
  1
GRIDFORMAT_BEGIN
 90
        0
 91
        1
 62
     0
 92
       -2
340
0
 93
        0
 40
0.045
309
GRIDFORMAT_END
 95
        4
302
GRIDFORMAT
  1
GRIDFORMAT_BEGIN
 90
        0
 91
        1
 62
     0
 92
       -2
340
0
 93
        0
 40
0.045
309
GRIDFORMAT_END
 95
        8
302
GRIDFORMAT
  1
GRIDFORMAT_BEGIN
 90
        0
 91
        1
 62
     0
 92
       -2
340
0
 93
        0
 40
0.045
309
GRIDFORMAT_END
 95
       16
302
GRIDFORMAT
  1
GRIDFORMAT_BEGIN
 90
        0
 91
        1
 62
     0
 92
       -2
340
0
 93
        0
 40
0.045
309
GRIDFORMAT_END
 95
       32
302
GRIDFORMAT
  1
GRIDFORMAT_BEGIN
 90
        0
 91
        1
 62
     0
 92
       -2
340
0
 93
        0
 40
0.045
309
GRIDFORMAT_END
309
TABLEFORMAT_END
  1
CELLSTYLE_BEGIN
 90
        3
 91
        2
300
_DATA
309
CELLSTYLE_END
  0
XRECORD
  5
C51
102
{ACAD_REACTORS
330
ACE
102
}
330
ACE
100
AcDbXrecord
280
     1
102
ACAD_ROUNDTRIP_PRE2007_TABLESTYLE
 90
      512
 91
        0
  1

 92
      512
 93
        0
  2

 94
      512
 95
        0
  3

  0
XRECORD
  5
C2C
102
{ACAD_REACTORS
330
C2B
102
}
330
C2B
100
AcDbXrecord
280
     1
102
RTVSPropertyOp0
 70
     1
102
RTVSPropertyOp1
 70
     1
102
RTVSPropertyOp2
 70
     1
102
RTVSPropertyOp3
 70
     1
102
RTVSPropertyOp4
 70
     1
102
RTVSPropertyOp5
 70
     1
102
RTVSPropertyOp6
 70
     1
102
RTVSPropertyOp7
 70
     1
102
RTVSPropertyOp8
 70
     1
102
RTVSPropertyOp9
 70
     1
102
RTVSPropertyOp10
 70
     1
102
RTVSPropertyOp11
 70
     1
102
RTVSPropertyOp12
 70
     1
102
RTVSPropertyOp13
 70
     1
102
RTVSPropertyOp14
 70
     1
102
RTVSPropertyOp15
 70
     1
102
RTVSPropertyOp16
 70
     1
102
RTVSPropertyOp17
 70
     1
102
RTVSPropertyOp18
 70
     1
102
RTVSPropertyOp19
 70
     1
102
RTVSPropertyOp20
 70
     1
102
RTVSPropertyOp21
 70
     1
102
RTVSPropertyOp22
 70
     1
102
RTVSPropertyOp23
 70
     1
102
RTVSPropertyOp24
 70
     1
102
RTVSPropertyOp25
 70
     1
102
RTVSPropertyOp26
 70
     1
102
RTVSPropertyOp27
 70
     1
102
RTVSPropertyOp28
 70
     1
102
RTVSPropertyOp29
 70
     1
102
RTVSPropertyOp30
 70
     1
102
RTVSPropertyOp31
 70
     1
102
RTVSPropertyOp32
 70
     1
  0
XRECORD
  5
C2A
102
{ACAD_REACTORS
330
C29
102
}
330
C29
100
AcDbXrecord
280
     1
102
RTVSPropertyOp0
 70
     1
102
RTVSPropertyOp1
 70
     1
102
RTVSPropertyOp2
 70
     1
102
RTVSPropertyOp3
 70
     1
102
RTVSPropertyOp4
 70
     1
102
RTVSPropertyOp5
 70
     1
102
RTVSPropertyOp6
 70
     1
102
RTVSPropertyOp7
 70
     1
102
RTVSPropertyOp8
 70
     1
102
RTVSPropertyOp9
 70
     1
102
RTVSPropertyOp10
 70
     1
102
RTVSPropertyOp11
 70
     1
102
RTVSPropertyOp12
 70
     1
102
RTVSPropertyOp13
 70
     1
102
RTVSPropertyOp14
 70
     1
102
RTVSPropertyOp15
 70
     1
102
RTVSPropertyOp16
 70
     1
102
RTVSPropertyOp17
 70
     1
102
RTVSPropertyOp18
 70
     1
102
RTVSPropertyOp19
 70
     1
102
RTVSPropertyOp20
 70
     1
102
RTVSPropertyOp21
 70
     1
102
RTVSPropertyOp22
 70
     1
102
RTVSPropertyOp23
 70
     1
102
RTVSPropertyOp24
 70
     1
102
RTVSPropertyOp25
 70
     1
102
RTVSPropertyOp26
 70
     1
102
RTVSPropertyOp27
 70
     1
102
RTVSPropertyOp28
 70
     1
102
RTVSPropertyOp29
 70
     1
102
RTVSPropertyOp30
 70
     1
102
RTVSPropertyOp31
 70
     1
102
RTVSPropertyOp32
 70
     1
  0
XRECORD
  5
C38
102
{ACAD_REACTORS
330
C37
102
}
330
C37
100
AcDbXrecord
280
     1
102
RTVSPropertyOp0
 70
     1
102
RTVSPropertyOp1
 70
     1
102
RTVSPropertyOp2
 70
     1
102
RTVSPropertyOp3
 70
     1
102
RTVSPropertyOp4
 70
     1
102
RTVSPropertyOp5
 70
     1
102
RTVSPropertyOp6
 70
     1
102
RTVSPropertyOp7
 70
     1
102
RTVSPropertyOp8
 70
     1
102
RTVSPropertyOp9
 70
     1
102
RTVSPropertyOp10
 70
     1
102
RTVSPropertyOp11
 70
     1
102
RTVSPropertyOp12
 70
     1
102
RTVSPropertyOp13
 70
     1
102
RTVSPropertyOp14
 70
     1
102
RTVSPropertyOp15
 70
     1
102
RTVSPropertyOp16
 70
     1
102
RTVSPropertyOp17
 70
     1
102
RTVSPropertyOp18
 70
     1
102
RTVSPropertyOp19
 70
     1
102
RTVSPropertyOp20
 70
     1
102
RTVSPropertyOp21
 70
     1
102
RTVSPropertyOp22
 70
     1
102
RTVSPropertyOp23
 70
     1
102
RTVSPropertyOp24
 70
     1
102
RTVSPropertyOp25
 70
     1
102
RTVSPropertyOp26
 70
     1
102
RTVSPropertyOp27
 70
     1
102
RTVSPropertyOp28
 70
     1
102
RTVSPropertyOp29
 70
     1
102
RTVSPropertyOp30
 70
     1
102
RTVSPropertyOp31
 70
     1
102
RTVSPropertyOp32
 70
     1
  0
XRECORD
  5
C40
102
{ACAD_REACTORS
330
C3F
102
}
330
C3F
100
AcDbXrecord
280
     1
102
RTVSPropertyOp0
 70
     1
102
RTVSPropertyOp1
 70
     1
102
RTVSPropertyOp2
 70
     1
102
RTVSPropertyOp3
 70
     1
102
RTVSPropertyOp4
 70
     1
102
RTVSPropertyOp5
 70
     1
102
RTVSPropertyOp6
 70
     1
102
RTVSPropertyOp7
 70
     1
102
RTVSPropertyOp8
 70
     1
102
RTVSPropertyOp9
 70
     1
102
RTVSPropertyOp10
 70
     1
102
RTVSPropertyOp11
 70
     1
102
RTVSPropertyOp12
 70
     1
102
RTVSPropertyOp13
 70
     1
102
RTVSPropertyOp14
 70
     1
102
RTVSPropertyOp15
 70
     1
102
RTVSPropertyOp16
 70
     1
102
RTVSPropertyOp17
 70
     1
102
RTVSPropertyOp18
 70
     1
102
RTVSPropertyOp19
 70
     1
102
RTVSPropertyOp20
 70
     1
102
RTVSPropertyOp21
 70
     1
102
RTVSPropertyOp22
 70
     1
102
RTVSPropertyOp23
 70
     1
102
RTVSPropertyOp24
 70
     1
102
RTVSPropertyOp25
 70
     1
102
RTVSPropertyOp26
 70
     1
102
RTVSPropertyOp27
 70
     1
102
RTVSPropertyOp28
 70
     1
102
RTVSPropertyOp29
 70
     1
102
RTVSPropertyOp30
 70
     1
102
RTVSPropertyOp31
 70
     1
102
RTVSPropertyOp32
 70
     1
  0
XRECORD
  5
C32
102
{ACAD_REACTORS
330
C31
102
}
330
C31
100
AcDbXrecord
280
     1
102
RTVSPropertyOp0
 70
     1
102
RTVSPropertyOp1
 70
     1
102
RTVSPropertyOp2
 70
     1
102
RTVSPropertyOp3
 70
     1
102
RTVSPropertyOp4
 70
     1
102
RTVSPropertyOp5
 70
     1
102
RTVSPropertyOp6
 70
     1
102
RTVSPropertyOp7
 70
     1
102
RTVSPropertyOp8
 70
     1
102
RTVSPropertyOp9
 70
     1
102
RTVSPropertyOp10
 70
     1
102
RTVSPropertyOp11
 70
     1
102
RTVSPropertyOp12
 70
     1
102
RTVSPropertyOp13
 70
     1
102
RTVSPropertyOp14
 70
     1
102
RTVSPropertyOp15
 70
     1
102
RTVSPropertyOp16
 70
     1
102
RTVSPropertyOp17
 70
     1
102
RTVSPropertyOp18
 70
     1
102
RTVSPropertyOp19
 70
     1
102
RTVSPropertyOp20
 70
     1
102
RTVSPropertyOp21
 70
     1
102
RTVSPropertyOp22
 70
     1
102
RTVSPropertyOp23
 70
     1
102
RTVSPropertyOp24
 70
     1
102
RTVSPropertyOp25
 70
     1
102
RTVSPropertyOp26
 70
     1
102
RTVSPropertyOp27
 70
     1
102
RTVSPropertyOp28
 70
     1
102
RTVSPropertyOp29
 70
     1
102
RTVSPropertyOp30
 70
     1
102
RTVSPropertyOp31
 70
     1
102
RTVSPropertyOp32
 70
     1
  0
XRECORD
  5
C36
102
{ACAD_REACTORS
330
C35
102
}
330
C35
100
AcDbXrecord
280
     1
102
RTVSPropertyOp0
 70
     1
102
RTVSPropertyOp1
 70
     1
102
RTVSPropertyOp2
 70
     1
102
RTVSPropertyOp3
 70
     1
102
RTVSPropertyOp4
 70
     1
102
RTVSPropertyOp5
 70
     1
102
RTVSPropertyOp6
 70
     1
102
RTVSPropertyOp7
 70
     1
102
RTVSPropertyOp8
 70
     1
102
RTVSPropertyOp9
 70
     1
102
RTVSPropertyOp10
 70
     1
102
RTVSPropertyOp11
 70
     1
102
RTVSPropertyOp12
 70
     1
102
RTVSPropertyOp13
 70
     1
102
RTVSPropertyOp14
 70
     1
102
RTVSPropertyOp15
 70
     1
102
RTVSPropertyOp16
 70
     1
102
RTVSPropertyOp17
 70
     1
102
RTVSPropertyOp18
 70
     1
102
RTVSPropertyOp19
 70
     1
102
RTVSPropertyOp20
 70
     1
102
RTVSPropertyOp21
 70
     1
102
RTVSPropertyOp22
 70
     1
102
RTVSPropertyOp23
 70
     1
102
RTVSPropertyOp24
 70
     1
102
RTVSPropertyOp25
 70
     1
102
RTVSPropertyOp26
 70
     1
102
RTVSPropertyOp27
 70
     1
102
RTVSPropertyOp28
 70
     1
102
RTVSPropertyOp29
 70
     1
102
RTVSPropertyOp30
 70
     1
102
RTVSPropertyOp31
 70
     1
102
RTVSPropertyOp32
 70
     1
  0
XRECORD
  5
C50
102
{ACAD_REACTORS
330
C4F
102
}
330
C4F
100
AcDbXrecord
280
     1
102
RTVSPropertyOp0
 70
     0
102
RTVSPropertyOp1
 70
     0
102
RTVSPropertyOp2
 70
     0
102
RTVSPropertyOp3
 70
     0
102
RTVSPropertyOp4
 70
     0
102
RTVSPropertyOp5
 70
     0
102
RTVSPropertyOp6
 70
     0
102
RTVSPropertyOp7
 70
     0
102
RTVSPropertyOp8
 70
     0
102
RTVSPropertyOp9
 70
     0
102
RTVSPropertyOp10
 70
     0
102
RTVSPropertyOp11
 70
     0
102
RTVSPropertyOp12
 70
     0
102
RTVSPropertyOp13
 70
     0
102
RTVSPropertyOp14
 70
     2
102
RTVSPropertyOp15
 70
     0
102
RTVSPropertyOp16
 70
     0
102
RTVSPropertyOp17
 70
     0
102
RTVSPropertyOp18
 70
     0
102
RTVSPropertyOp19
 70
     0
102
RTVSPropertyOp20
 70
     0
102
RTVSPropertyOp21
 70
     0
102
RTVSPropertyOp22
 70
     0
102
RTVSPropertyOp23
 70
     0
102
RTVSPropertyOp24
 70
     0
102
RTVSPropertyOp25
 70
     0
102
RTVSPropertyOp26
 70
     0
102
RTVSPropertyOp27
 70
     0
102
RTVSPropertyOp28
 70
     0
102
RTVSPropertyOp29
 70
     0
102
RTVSPropertyOp30
 70
     0
102
RTVSPropertyOp31
 70
     0
102
RTVSPropertyOp32
 70
     0
  0
XRECORD
  5
C3E
102
{ACAD_REACTORS
330
C3D
102
}
330
C3D
100
AcDbXrecord
280
     1
102
RTVSPropertyOp0
 70
     1
102
RTVSPropertyOp1
 70
     1
102
RTVSPropertyOp2
 70
     1
102
RTVSPropertyOp3
 70
     1
102
RTVSPropertyOp4
 70
     1
102
RTVSPropertyOp5
 70
     1
102
RTVSPropertyOp6
 70
     1
102
RTVSPropertyOp7
 70
     1
102
RTVSPropertyOp8
 70
     1
102
RTVSPropertyOp9
 70
     1
102
RTVSPropertyOp10
 70
     1
102
RTVSPropertyOp11
 70
     1
102
RTVSPropertyOp12
 70
     1
102
RTVSPropertyOp13
 70
     1
102
RTVSPropertyOp14
 70
     1
102
RTVSPropertyOp15
 70
     1
102
RTVSPropertyOp16
 70
     1
102
RTVSPropertyOp17
 70
     1
102
RTVSPropertyOp18
 70
     1
102
RTVSPropertyOp19
 70
     1
102
RTVSPropertyOp20
 70
     1
102
RTVSPropertyOp21
 70
     1
102
RTVSPropertyOp22
 70
     1
102
RTVSPropertyOp23
 70
     1
102
RTVSPropertyOp24
 70
     1
102
RTVSPropertyOp25
 70
     1
102
RTVSPropertyOp26
 70
     1
102
RTVSPropertyOp27
 70
     1
102
RTVSPropertyOp28
 70
     1
102
RTVSPropertyOp29
 70
     1
102
RTVSPropertyOp30
 70
     1
102
RTVSPropertyOp31
 70
     1
102
RTVSPropertyOp32
 70
     1
  0
XRECORD
  5
C22
102
{ACAD_REACTORS
330
C21
102
}
330
C21
100
AcDbXrecord
280
     1
102
RTVSPropertyOp0
 70
     1
102
RTVSPropertyOp1
 70
     1
102
RTVSPropertyOp2
 70
     1
102
RTVSPropertyOp3
 70
     1
102
RTVSPropertyOp4
 70
     1
102
RTVSPropertyOp5
 70
     1
102
RTVSPropertyOp6
 70
     1
102
RTVSPropertyOp7
 70
     1
102
RTVSPropertyOp8
 70
     1
102
RTVSPropertyOp9
 70
     1
102
RTVSPropertyOp10
 70
     1
102
RTVSPropertyOp11
 70
     1
102
RTVSPropertyOp12
 70
     1
102
RTVSPropertyOp13
 70
     1
102
RTVSPropertyOp14
 70
     1
102
RTVSPropertyOp15
 70
     1
102
RTVSPropertyOp16
 70
     1
102
RTVSPropertyOp17
 70
     1
102
RTVSPropertyOp18
 70
     1
102
RTVSPropertyOp19
 70
     1
102
RTVSPropertyOp20
 70
     1
102
RTVSPropertyOp21
 70
     1
102
RTVSPropertyOp22
 70
     1
102
RTVSPropertyOp23
 70
     1
102
RTVSPropertyOp24
 70
     1
102
RTVSPropertyOp25
 70
     1
102
RTVSPropertyOp26
 70
     1
102
RTVSPropertyOp27
 70
     1
102
RTVSPropertyOp28
 70
     1
102
RTVSPropertyOp29
 70
     1
102
RTVSPropertyOp30
 70
     1
102
RTVSPropertyOp31
 70
     1
102
RTVSPropertyOp32
 70
     1
  0
XRECORD
  5
C24
102
{ACAD_REACTORS
330
C23
102
}
330
C23
100
AcDbXrecord
280
     1
102
RTVSPropertyOp0
 70
     1
102
RTVSPropertyOp1
 70
     1
102
RTVSPropertyOp2
 70
     1
102
RTVSPropertyOp3
 70
     1
102
RTVSPropertyOp4
 70
     1
102
RTVSPropertyOp5
 70
     1
102
RTVSPropertyOp6
 70
     1
102
RTVSPropertyOp7
 70
     1
102
RTVSPropertyOp8
 70
     1
102
RTVSPropertyOp9
 70
     1
102
RTVSPropertyOp10
 70
     1
102
RTVSPropertyOp11
 70
     1
102
RTVSPropertyOp12
 70
     1
102
RTVSPropertyOp13
 70
     1
102
RTVSPropertyOp14
 70
     1
102
RTVSPropertyOp15
 70
     1
102
RTVSPropertyOp16
 70
     1
102
RTVSPropertyOp17
 70
     1
102
RTVSPropertyOp18
 70
     1
102
RTVSPropertyOp19
 70
     1
102
RTVSPropertyOp20
 70
     1
102
RTVSPropertyOp21
 70
     1
102
RTVSPropertyOp22
 70
     1
102
RTVSPropertyOp23
 70
     1
102
RTVSPropertyOp24
 70
     1
102
RTVSPropertyOp25
 70
     1
102
RTVSPropertyOp26
 70
     1
102
RTVSPropertyOp27
 70
     1
102
RTVSPropertyOp28
 70
     1
102
RTVSPropertyOp29
 70
     1
102
RTVSPropertyOp30
 70
     1
102
RTVSPropertyOp31
 70
     1
102
RTVSPropertyOp32
 70
     1
  0
XRECORD
  5
C26
102
{ACAD_REACTORS
330
C25
102
}
330
C25
100
AcDbXrecord
280
     1
102
RTVSPropertyOp0
 70
     1
102
RTVSPropertyOp1
 70
     1
102
RTVSPropertyOp2
 70
     1
102
RTVSPropertyOp3
 70
     1
102
RTVSPropertyOp4
 70
     1
102
RTVSPropertyOp5
 70
     1
102
RTVSPropertyOp6
 70
     1
102
RTVSPropertyOp7
 70
     1
102
RTVSPropertyOp8
 70
     1
102
RTVSPropertyOp9
 70
     1
102
RTVSPropertyOp10
 70
     1
102
RTVSPropertyOp11
 70
     1
102
RTVSPropertyOp12
 70
     1
102
RTVSPropertyOp13
 70
     1
102
RTVSPropertyOp14
 70
     1
102
RTVSPropertyOp15
 70
     1
102
RTVSPropertyOp16
 70
     1
102
RTVSPropertyOp17
 70
     1
102
RTVSPropertyOp18
 70
     1
102
RTVSPropertyOp19
 70
     1
102
RTVSPropertyOp20
 70
     1
102
RTVSPropertyOp21
 70
     1
102
RTVSPropertyOp22
 70
     1
102
RTVSPropertyOp23
 70
     1
102
RTVSPropertyOp24
 70
     1
102
RTVSPropertyOp25
 70
     1
102
RTVSPropertyOp26
 70
     1
102
RTVSPropertyOp27
 70
     1
102
RTVSPropertyOp28
 70
     1
102
RTVSPropertyOp29
 70
     1
102
RTVSPropertyOp30
 70
     1
102
RTVSPropertyOp31
 70
     1
102
RTVSPropertyOp32
 70
     1
  0
XRECORD
  5
C28
102
{ACAD_REACTORS
330
C27
102
}
330
C27
100
AcDbXrecord
280
     1
102
RTVSPropertyOp0
 70
     1
102
RTVSPropertyOp1
 70
     1
102
RTVSPropertyOp2
 70
     1
102
RTVSPropertyOp3
 70
     1
102
RTVSPropertyOp4
 70
     1
102
RTVSPropertyOp5
 70
     1
102
RTVSPropertyOp6
 70
     1
102
RTVSPropertyOp7
 70
     1
102
RTVSPropertyOp8
 70
     1
102
RTVSPropertyOp9
 70
     1
102
RTVSPropertyOp10
 70
     1
102
RTVSPropertyOp11
 70
     1
102
RTVSPropertyOp12
 70
     1
102
RTVSPropertyOp13
 70
     1
102
RTVSPropertyOp14
 70
     1
102
RTVSPropertyOp15
 70
     1
102
RTVSPropertyOp16
 70
     1
102
RTVSPropertyOp17
 70
     1
102
RTVSPropertyOp18
 70
     1
102
RTVSPropertyOp19
 70
     1
102
RTVSPropertyOp20
 70
     1
102
RTVSPropertyOp21
 70
     1
102
RTVSPropertyOp22
 70
     1
102
RTVSPropertyOp23
 70
     1
102
RTVSPropertyOp24
 70
     1
102
RTVSPropertyOp25
 70
     1
102
RTVSPropertyOp26
 70
     1
102
RTVSPropertyOp27
 70
     1
102
RTVSPropertyOp28
 70
     1
102
RTVSPropertyOp29
 70
     1
102
RTVSPropertyOp30
 70
     1
102
RTVSPropertyOp31
 70
     1
102
RTVSPropertyOp32
 70
     1
  0
XRECORD
  5
C30
102
{ACAD_REACTORS
330
C2F
102
}
330
C2F
100
AcDbXrecord
280
     1
102
RTVSPropertyOp0
 70
     1
102
RTVSPropertyOp1
 70
     1
102
RTVSPropertyOp2
 70
     1
102
RTVSPropertyOp3
 70
     1
102
RTVSPropertyOp4
 70
     1
102
RTVSPropertyOp5
 70
     1
102
RTVSPropertyOp6
 70
     1
102
RTVSPropertyOp7
 70
     1
102
RTVSPropertyOp8
 70
     1
102
RTVSPropertyOp9
 70
     1
102
RTVSPropertyOp10
 70
     1
102
RTVSPropertyOp11
 70
     1
102
RTVSPropertyOp12
 70
     1
102
RTVSPropertyOp13
 70
     1
102
RTVSPropertyOp14
 70
     1
102
RTVSPropertyOp15
 70
     1
102
RTVSPropertyOp16
 70
     1
102
RTVSPropertyOp17
 70
     1
102
RTVSPropertyOp18
 70
     1
102
RTVSPropertyOp19
 70
     1
102
RTVSPropertyOp20
 70
     1
102
RTVSPropertyOp21
 70
     1
102
RTVSPropertyOp22
 70
     1
102
RTVSPropertyOp23
 70
     1
102
RTVSPropertyOp24
 70
     1
102
RTVSPropertyOp25
 70
     1
102
RTVSPropertyOp26
 70
     1
102
RTVSPropertyOp27
 70
     1
102
RTVSPropertyOp28
 70
     1
102
RTVSPropertyOp29
 70
     1
102
RTVSPropertyOp30
 70
     1
102
RTVSPropertyOp31
 70
     1
102
RTVSPropertyOp32
 70
     1
  0
XRECORD
  5
C4C
102
{ACAD_REACTORS
330
C4B
102
}
330
C4B
100
AcDbXrecord
280
     1
102
RTVSPropertyOp0
 70
     0
102
RTVSPropertyOp1
 70
     0
102
RTVSPropertyOp2
 70
     0
102
RTVSPropertyOp3
 70
     0
102
RTVSPropertyOp4
 70
     0
102
RTVSPropertyOp5
 70
     0
102
RTVSPropertyOp6
 70
     0
102
RTVSPropertyOp7
 70
     0
102
RTVSPropertyOp8
 70
     0
102
RTVSPropertyOp9
 70
     0
102
RTVSPropertyOp10
 70
     0
102
RTVSPropertyOp11
 70
     0
102
RTVSPropertyOp12
 70
     0
102
RTVSPropertyOp13
 70
     0
102
RTVSPropertyOp14
 70
     2
102
RTVSPropertyOp15
 70
     0
102
RTVSPropertyOp16
 70
     0
102
RTVSPropertyOp17
 70
     0
102
RTVSPropertyOp18
 70
     0
102
RTVSPropertyOp19
 70
     0
102
RTVSPropertyOp20
 70
     0
102
RTVSPropertyOp21
 70
     0
102
RTVSPropertyOp22
 70
     0
102
RTVSPropertyOp23
 70
     0
102
RTVSPropertyOp24
 70
     0
102
RTVSPropertyOp25
 70
     0
102
RTVSPropertyOp26
 70
     0
102
RTVSPropertyOp27
 70
     0
102
RTVSPropertyOp28
 70
     0
102
RTVSPropertyOp29
 70
     0
102
RTVSPropertyOp30
 70
     0
102
RTVSPropertyOp31
 70
     0
102
RTVSPropertyOp32
 70
     0
  0
XRECORD
  5
C3C
102
{ACAD_REACTORS
330
C3B
102
}
330
C3B
100
AcDbXrecord
280
     1
102
RTVSPropertyOp0
 70
     1
102
RTVSPropertyOp1
 70
     1
102
RTVSPropertyOp2
 70
     1
102
RTVSPropertyOp3
 70
     1
102
RTVSPropertyOp4
 70
     1
102
RTVSPropertyOp5
 70
     1
102
RTVSPropertyOp6
 70
     1
102
RTVSPropertyOp7
 70
     1
102
RTVSPropertyOp8
 70
     1
102
RTVSPropertyOp9
 70
     1
102
RTVSPropertyOp10
 70
     1
102
RTVSPropertyOp11
 70
     1
102
RTVSPropertyOp12
 70
     1
102
RTVSPropertyOp13
 70
     1
102
RTVSPropertyOp14
 70
     1
102
RTVSPropertyOp15
 70
     1
102
RTVSPropertyOp16
 70
     1
102
RTVSPropertyOp17
 70
     1
102
RTVSPropertyOp18
 70
     1
102
RTVSPropertyOp19
 70
     1
102
RTVSPropertyOp20
 70
     1
102
RTVSPropertyOp21
 70
     1
102
RTVSPropertyOp22
 70
     1
102
RTVSPropertyOp23
 70
     1
102
RTVSPropertyOp24
 70
     1
102
RTVSPropertyOp25
 70
     1
102
RTVSPropertyOp26
 70
     1
102
RTVSPropertyOp27
 70
     1
102
RTVSPropertyOp28
 70
     1
102
RTVSPropertyOp29
 70
     1
102
RTVSPropertyOp30
 70
     1
102
RTVSPropertyOp31
 70
     1
102
RTVSPropertyOp32
 70
     1
  0
XRECORD
  5
C4E
102
{ACAD_REACTORS
330
C4D
102
}
330
C4D
100
AcDbXrecord
280
     1
102
RTVSPropertyOp0
 70
     0
102
RTVSPropertyOp1
 70
     0
102
RTVSPropertyOp2
 70
     0
102
RTVSPropertyOp3
 70
     0
102
RTVSPropertyOp4
 70
     0
102
RTVSPropertyOp5
 70
     0
102
RTVSPropertyOp6
 70
     0
102
RTVSPropertyOp7
 70
     0
102
RTVSPropertyOp8
 70
     0
102
RTVSPropertyOp9
 70
     0
102
RTVSPropertyOp10
 70
     0
102
RTVSPropertyOp11
 70
     0
102
RTVSPropertyOp12
 70
     0
102
RTVSPropertyOp13
 70
     0
102
RTVSPropertyOp14
 70
     2
102
RTVSPropertyOp15
 70
     0
102
RTVSPropertyOp16
 70
     0
102
RTVSPropertyOp17
 70
     0
102
RTVSPropertyOp18
 70
     0
102
RTVSPropertyOp19
 70
     0
102
RTVSPropertyOp20
 70
     0
102
RTVSPropertyOp21
 70
     0
102
RTVSPropertyOp22
 70
     0
102
RTVSPropertyOp23
 70
     0
102
RTVSPropertyOp24
 70
     0
102
RTVSPropertyOp25
 70
     0
102
RTVSPropertyOp26
 70
     0
102
RTVSPropertyOp27
 70
     0
102
RTVSPropertyOp28
 70
     0
102
RTVSPropertyOp29
 70
     0
102
RTVSPropertyOp30
 70
     0
102
RTVSPropertyOp31
 70
     0
102
RTVSPropertyOp32
 70
     0
  0
XRECORD
  5
C34
102
{ACAD_REACTORS
330
C33
102
}
330
C33
100
AcDbXrecord
280
     1
102
RTVSPropertyOp0
 70
     1
102
RTVSPropertyOp1
 70
     1
102
RTVSPropertyOp2
 70
     1
102
RTVSPropertyOp3
 70
     1
102
RTVSPropertyOp4
 70
     1
102
RTVSPropertyOp5
 70
     1
102
RTVSPropertyOp6
 70
     1
102
RTVSPropertyOp7
 70
     1
102
RTVSPropertyOp8
 70
     1
102
RTVSPropertyOp9
 70
     1
102
RTVSPropertyOp10
 70
     1
102
RTVSPropertyOp11
 70
     1
102
RTVSPropertyOp12
 70
     1
102
RTVSPropertyOp13
 70
     1
102
RTVSPropertyOp14
 70
     1
102
RTVSPropertyOp15
 70
     1
102
RTVSPropertyOp16
 70
     1
102
RTVSPropertyOp17
 70
     1
102
RTVSPropertyOp18
 70
     1
102
RTVSPropertyOp19
 70
     1
102
RTVSPropertyOp20
 70
     1
102
RTVSPropertyOp21
 70
     1
102
RTVSPropertyOp22
 70
     1
102
RTVSPropertyOp23
 70
     1
102
RTVSPropertyOp24
 70
     1
102
RTVSPropertyOp25
 70
     1
102
RTVSPropertyOp26
 70
     1
102
RTVSPropertyOp27
 70
     1
102
RTVSPropertyOp28
 70
     1
102
RTVSPropertyOp29
 70
     1
102
RTVSPropertyOp30
 70
     1
102
RTVSPropertyOp31
 70
     1
102
RTVSPropertyOp32
 70
     1
  0
XRECORD
  5
C4A
102
{ACAD_REACTORS
330
C49
102
}
330
C49
100
AcDbXrecord
280
     1
102
RTVSPropertyOp0
 70
     1
102
RTVSPropertyOp1
 70
     1
102
RTVSPropertyOp2
 70
     1
102
RTVSPropertyOp3
 70
     1
102
RTVSPropertyOp4
 70
     1
102
RTVSPropertyOp5
 70
     1
102
RTVSPropertyOp6
 70
     1
102
RTVSPropertyOp7
 70
     1
102
RTVSPropertyOp8
 70
     1
102
RTVSPropertyOp9
 70
     1
102
RTVSPropertyOp10
 70
     1
102
RTVSPropertyOp11
 70
     1
102
RTVSPropertyOp12
 70
     1
102
RTVSPropertyOp13
 70
     1
102
RTVSPropertyOp14
 70
     1
102
RTVSPropertyOp15
 70
     1
102
RTVSPropertyOp16
 70
     1
102
RTVSPropertyOp17
 70
     1
102
RTVSPropertyOp18
 70
     1
102
RTVSPropertyOp19
 70
     1
102
RTVSPropertyOp20
 70
     1
102
RTVSPropertyOp21
 70
     1
102
RTVSPropertyOp22
 70
     1
102
RTVSPropertyOp23
 70
     1
102
RTVSPropertyOp24
 70
     1
102
RTVSPropertyOp25
 70
     1
102
RTVSPropertyOp26
 70
     1
102
RTVSPropertyOp27
 70
     1
102
RTVSPropertyOp28
 70
     1
102
RTVSPropertyOp29
 70
     1
102
RTVSPropertyOp30
 70
     1
102
RTVSPropertyOp31
 70
     1
102
RTVSPropertyOp32
 70
     1
  0
XRECORD
  5
C48
102
{ACAD_REACTORS
330
C47
102
}
330
C47
100
AcDbXrecord
280
     1
102
RTVSPropertyOp0
 70
     1
102
RTVSPropertyOp1
 70
     1
102
RTVSPropertyOp2
 70
     1
102
RTVSPropertyOp3
 70
     1
102
RTVSPropertyOp4
 70
     1
102
RTVSPropertyOp5
 70
     1
102
RTVSPropertyOp6
 70
     1
102
RTVSPropertyOp7
 70
     1
102
RTVSPropertyOp8
 70
     1
102
RTVSPropertyOp9
 70
     1
102
RTVSPropertyOp10
 70
     1
102
RTVSPropertyOp11
 70
     1
102
RTVSPropertyOp12
 70
     1
102
RTVSPropertyOp13
 70
     1
102
RTVSPropertyOp14
 70
     1
102
RTVSPropertyOp15
 70
     1
102
RTVSPropertyOp16
 70
     1
102
RTVSPropertyOp17
 70
     1
102
RTVSPropertyOp18
 70
     1
102
RTVSPropertyOp19
 70
     1
102
RTVSPropertyOp20
 70
     1
102
RTVSPropertyOp21
 70
     1
102
RTVSPropertyOp22
 70
     1
102
RTVSPropertyOp23
 70
     1
102
RTVSPropertyOp24
 70
     1
102
RTVSPropertyOp25
 70
     1
102
RTVSPropertyOp26
 70
     1
102
RTVSPropertyOp27
 70
     1
102
RTVSPropertyOp28
 70
     1
102
RTVSPropertyOp29
 70
     1
102
RTVSPropertyOp30
 70
     1
102
RTVSPropertyOp31
 70
     1
102
RTVSPropertyOp32
 70
     1
  0
XRECORD
  5
C42
102
{ACAD_REACTORS
330
C41
102
}
330
C41
100
AcDbXrecord
280
     1
102
RTVSPropertyOp0
 70
     1
102
RTVSPropertyOp1
 70
     1
102
RTVSPropertyOp2
 70
     1
102
RTVSPropertyOp3
 70
     1
102
RTVSPropertyOp4
 70
     1
102
RTVSPropertyOp5
 70
     1
102
RTVSPropertyOp6
 70
     1
102
RTVSPropertyOp7
 70
     1
102
RTVSPropertyOp8
 70
     1
102
RTVSPropertyOp9
 70
     1
102
RTVSPropertyOp10
 70
     1
102
RTVSPropertyOp11
 70
     1
102
RTVSPropertyOp12
 70
     1
102
RTVSPropertyOp13
 70
     1
102
RTVSPropertyOp14
 70
     1
102
RTVSPropertyOp15
 70
     1
102
RTVSPropertyOp16
 70
     1
102
RTVSPropertyOp17
 70
     1
102
RTVSPropertyOp18
 70
     1
102
RTVSPropertyOp19
 70
     1
102
RTVSPropertyOp20
 70
     1
102
RTVSPropertyOp21
 70
     1
102
RTVSPropertyOp22
 70
     1
102
RTVSPropertyOp23
 70
     1
102
RTVSPropertyOp24
 70
     1
102
RTVSPropertyOp25
 70
     1
102
RTVSPropertyOp26
 70
     1
102
RTVSPropertyOp27
 70
     1
102
RTVSPropertyOp28
 70
     1
102
RTVSPropertyOp29
 70
     1
102
RTVSPropertyOp30
 70
     1
102
RTVSPropertyOp31
 70
     1
102
RTVSPropertyOp32
 70
     1
  0
XRECORD
  5
C44
102
{ACAD_REACTORS
330
C43
102
}
330
C43
100
AcDbXrecord
280
     1
102
RTVSPropertyOp0
 70
     1
102
RTVSPropertyOp1
 70
     1
102
RTVSPropertyOp2
 70
     1
102
RTVSPropertyOp3
 70
     1
102
RTVSPropertyOp4
 70
     1
102
RTVSPropertyOp5
 70
     1
102
RTVSPropertyOp6
 70
     1
102
RTVSPropertyOp7
 70
     1
102
RTVSPropertyOp8
 70
     1
102
RTVSPropertyOp9
 70
     1
102
RTVSPropertyOp10
 70
     1
102
RTVSPropertyOp11
 70
     1
102
RTVSPropertyOp12
 70
     1
102
RTVSPropertyOp13
 70
     1
102
RTVSPropertyOp14
 70
     1
102
RTVSPropertyOp15
 70
     1
102
RTVSPropertyOp16
 70
     1
102
RTVSPropertyOp17
 70
     1
102
RTVSPropertyOp18
 70
     1
102
RTVSPropertyOp19
 70
     1
102
RTVSPropertyOp20
 70
     1
102
RTVSPropertyOp21
 70
     1
102
RTVSPropertyOp22
 70
     1
102
RTVSPropertyOp23
 70
     1
102
RTVSPropertyOp24
 70
     1
102
RTVSPropertyOp25
 70
     1
102
RTVSPropertyOp26
 70
     1
102
RTVSPropertyOp27
 70
     1
102
RTVSPropertyOp28
 70
     1
102
RTVSPropertyOp29
 70
     1
102
RTVSPropertyOp30
 70
     1
102
RTVSPropertyOp31
 70
     1
102
RTVSPropertyOp32
 70
     1
  0
XRECORD
  5
C3A
102
{ACAD_REACTORS
330
C39
102
}
330
C39
100
AcDbXrecord
280
     1
102
RTVSPropertyOp0
 70
     1
102
RTVSPropertyOp1
 70
     1
102
RTVSPropertyOp2
 70
     1
102
RTVSPropertyOp3
 70
     1
102
RTVSPropertyOp4
 70
     1
102
RTVSPropertyOp5
 70
     1
102
RTVSPropertyOp6
 70
     1
102
RTVSPropertyOp7
 70
     1
102
RTVSPropertyOp8
 70
     1
102
RTVSPropertyOp9
 70
     1
102
RTVSPropertyOp10
 70
     1
102
RTVSPropertyOp11
 70
     1
102
RTVSPropertyOp12
 70
     1
102
RTVSPropertyOp13
 70
     1
102
RTVSPropertyOp14
 70
     1
102
RTVSPropertyOp15
 70
     1
102
RTVSPropertyOp16
 70
     1
102
RTVSPropertyOp17
 70
     1
102
RTVSPropertyOp18
 70
     1
102
RTVSPropertyOp19
 70
     1
102
RTVSPropertyOp20
 70
     1
102
RTVSPropertyOp21
 70
     1
102
RTVSPropertyOp22
 70
     1
102
RTVSPropertyOp23
 70
     1
102
RTVSPropertyOp24
 70
     1
102
RTVSPropertyOp25
 70
     1
102
RTVSPropertyOp26
 70
     1
102
RTVSPropertyOp27
 70
     1
102
RTVSPropertyOp28
 70
     1
102
RTVSPropertyOp29
 70
     1
102
RTVSPropertyOp30
 70
     1
102
RTVSPropertyOp31
 70
     1
102
RTVSPropertyOp32
 70
     1
  0
XRECORD
  5
C2E
102
{ACAD_REACTORS
330
C2D
102
}
330
C2D
100
AcDbXrecord
280
     1
102
RTVSPropertyOp0
 70
     1
102
RTVSPropertyOp1
 70
     1
102
RTVSPropertyOp2
 70
     1
102
RTVSPropertyOp3
 70
     1
102
RTVSPropertyOp4
 70
     1
102
RTVSPropertyOp5
 70
     1
102
RTVSPropertyOp6
 70
     1
102
RTVSPropertyOp7
 70
     1
102
RTVSPropertyOp8
 70
     1
102
RTVSPropertyOp9
 70
     1
102
RTVSPropertyOp10
 70
     1
102
RTVSPropertyOp11
 70
     1
102
RTVSPropertyOp12
 70
     1
102
RTVSPropertyOp13
 70
     1
102
RTVSPropertyOp14
 70
     1
102
RTVSPropertyOp15
 70
     1
102
RTVSPropertyOp16
 70
     1
102
RTVSPropertyOp17
 70
     1
102
RTVSPropertyOp18
 70
     1
102
RTVSPropertyOp19
 70
     1
102
RTVSPropertyOp20
 70
     1
102
RTVSPropertyOp21
 70
     1
102
RTVSPropertyOp22
 70
     1
102
RTVSPropertyOp23
 70
     1
102
RTVSPropertyOp24
 70
     1
102
RTVSPropertyOp25
 70
     1
102
RTVSPropertyOp26
 70
     1
102
RTVSPropertyOp27
 70
     1
102
RTVSPropertyOp28
 70
     1
102
RTVSPropertyOp29
 70
     1
102
RTVSPropertyOp30
 70
     1
102
RTVSPropertyOp31
 70
     1
102
RTVSPropertyOp32
 70
     1
  0
XRECORD
  5
C46
102
{ACAD_REACTORS
330
C45
102
}
330
C45
100
AcDbXrecord
280
     1
102
RTVSPropertyOp0
 70
     1
102
RTVSPropertyOp1
 70
     1
102
RTVSPropertyOp2
 70
     1
102
RTVSPropertyOp3
 70
     1
102
RTVSPropertyOp4
 70
     1
102
RTVSPropertyOp5
 70
     1
102
RTVSPropertyOp6
 70
     1
102
RTVSPropertyOp7
 70
     1
102
RTVSPropertyOp8
 70
     1
102
RTVSPropertyOp9
 70
     1
102
RTVSPropertyOp10
 70
     1
102
RTVSPropertyOp11
 70
     1
102
RTVSPropertyOp12
 70
     1
102
RTVSPropertyOp13
 70
     1
102
RTVSPropertyOp14
 70
     1
102
RTVSPropertyOp15
 70
     1
102
RTVSPropertyOp16
 70
     1
102
RTVSPropertyOp17
 70
     1
102
RTVSPropertyOp18
 70
     1
102
RTVSPropertyOp19
 70
     1
102
RTVSPropertyOp20
 70
     1
102
RTVSPropertyOp21
 70
     1
102
RTVSPropertyOp22
 70
     1
102
RTVSPropertyOp23
 70
     1
102
RTVSPropertyOp24
 70
     1
102
RTVSPropertyOp25
 70
     1
102
RTVSPropertyOp26
 70
     1
102
RTVSPropertyOp27
 70
     1
102
RTVSPropertyOp28
 70
     1
102
RTVSPropertyOp29
 70
     1
102
RTVSPropertyOp30
 70
     1
102
RTVSPropertyOp31
 70
     1
102
RTVSPropertyOp32
 70
     1
  0
ENDSEC
  0
EOF
