  0
SECTION
  2
HEADER
  9
$ACADVER
  1
AC1015
  9
$ACADMAINTVER
 70
    20
  9
$DWGCODEPAGE
  3
ANSI_932
  9
$INSBASE
 10
0.0
 20
0.0
 30
0.0
  9
$EXTMIN
 10
-72.01348682778735
 20
-385.2172340313176
 30
0.0
  9
$EXTMAX
 10
204.9865131722127
 20
-196.7446167313176
 30
0.0
  9
$LIMMIN
 10
333.613624
 20
-387.063012
  9
$LIMMAX
 10
610.625023
 20
-198.588386
  9
$ORTHOMODE
 70
     1
  9
$REGENMODE
 70
     1
  9
$FILLMODE
 70
     1
  9
$QTEXTMODE
 70
     0
  9
$MIRRTEXT
 70
     0
  9
$LTSCALE
 40
4.616823
  9
$ATTMODE
 70
     1
  9
$TEXTSIZE
 40
3.2
  9
$TRACEWID
 40
0.05
  9
$TEXTSTYLE
  7
高3.2
  9
$CLAYER
  8
0
  9
$CELTYPE
  6
CONTINUOUS
  9
$CECOLOR
 62
   256
  9
$CELTSCALE
 40
1.0
  9
$DISPSILH
 70
     0
  9
$DIMSCALE
 40
1.0
  9
$DIMASZ
 40
2.5
  9
$DIMEXO
 40
0.25
  9
$DIMDLI
 40
0.2
  9
$DIMRND
 40
0.0
  9
$DIMDLE
 40
0.0
  9
$DIMEXE
 40
1.25
  9
$DIMTP
 40
0.0
  9
$DIMTM
 40
0.0
  9
$DIMTXT
 40
3.0
  9
$DIMCEN
 40
0.0
  9
$DIMTSZ
 40
0.0
  9
$DIMTOL
 70
     0
  9
$DIMLIM
 70
     0
  9
$DIMTIH
 70
     0
  9
$DIMTOH
 70
     0
  9
$DIMSE1
 70
     0
  9
$DIMSE2
 70
     0
  9
$DIMTAD
 70
     3
  9
$DIMZIN
 70
     8
  9
$DIMBLK
  1
Open30
  9
$DIMASO
 70
     1
  9
$DIMSHO
 70
     1
  9
$DIMPOST
  1

  9
$DIMAPOST
  1

  9
$DIMALT
 70
     0
  9
$DIMALTD
 70
     3
  9
$DIMALTF
 40
0.03937007874016
  9
$DIMLFAC
 40
1.0
  9
$DIMTOFL
 70
     1
  9
$DIMTVP
 40
0.0
  9
$DIMTIX
 70
     0
  9
$DIMSOXD
 70
     0
  9
$DIMSAH
 70
     0
  9
$DIMBLK1
  1

  9
$DIMBLK2
  1

  9
$DIMSTYLE
  2
1：1
  9
$DIMCLRD
 70
     0
  9
$DIMCLRE
 70
     0
  9
$DIMCLRT
 70
     4
  9
$DIMTFAC
 40
1.0
  9
$DIMGAP
 40
0.625
  9
$DIMJUST
 70
     0
  9
$DIMSD1
 70
     0
  9
$DIMSD2
 70
     0
  9
$DIMTOLJ
 70
     0
  9
$DIMTZIN
 70
     8
  9
$DIMALTZ
 70
     0
  9
$DIMALTTZ
 70
     0
  9
$DIMUPT
 70
     1
  9
$DIMDEC
 70
     2
  9
$DIMTDEC
 70
     2
  9
$DIMALTU
 70
     2
  9
$DIMALTTD
 70
     3
  9
$DIMTXSTY
  7
STANDARD
  9
$DIMAUNIT
 70
     0
  9
$DIMADEC
 70
     1
  9
$DIMALTRND
 40
0.0
  9
$DIMAZIN
 70
     2
  9
$DIMDSEP
 70
    46
  9
$DIMATFIT
 70
     0
  9
$DIMFRAC
 70
     0
  9
$DIMLDRBLK
  1
Open30
  9
$DIMLUNIT
 70
     2
  9
$DIMLWD
 70
    -2
  9
$DIMLWE
 70
    -2
  9
$DIMTMOVE
 70
     0
  9
$LUNITS
 70
     2
  9
$LUPREC
 70
     4
  9
$SKETCHINC
 40
0.1
  9
$FILLETRAD
 40
0.0
  9
$AUNITS
 70
     0
  9
$AUPREC
 70
     0
  9
$MENU
  1
.
  9
$ELEVATION
 40
0.0
  9
$PELEVATION
 40
0.0
  9
$THICKNESS
 40
0.0
  9
$LIMCHECK
 70
     0
  9
$CHAMFERA
 40
0.0
  9
$CHAMFERB
 40
0.0
  9
$CHAMFERC
 40
0.0
  9
$CHAMFERD
 40
0.0
  9
$SKPOLY
 70
     0
  9
$TDCREATE
 40
2457240.374555579
  9
$TDUCREATE
 40
2457239.999555579
  9
$TDUPDATE
 40
2457240.471178704
  9
$TDUUPDATE
 40
2457240.096178704
  9
$TDINDWG
 40
0.0528851620
  9
$TDUSRTIMER
 40
0.0528851620
  9
$USRTIMER
 70
     1
  9
$ANGBASE
 50
0.0
  9
$ANGDIR
 70
     0
  9
$PDMODE
 70
     0
  9
$PDSIZE
 40
0.0
  9
$PLINEWID
 40
0.0
  9
$SPLFRAME
 70
     0
  9
$SPLINETYPE
 70
     6
  9
$SPLINESEGS
 70
     8
  9
$HANDSEED
  5
E42
  9
$SURFTAB1
 70
     6
  9
$SURFTAB2
 70
     6
  9
$SURFTYPE
 70
     6
  9
$SURFU
 70
     6
  9
$SURFV
 70
     6
  9
$UCSBASE
  2

  9
$UCSNAME
  2

  9
$UCSORG
 10
0.0
 20
0.0
 30
0.0
  9
$UCSXDIR
 10
1.0
 20
0.0
 30
0.0
  9
$UCSYDIR
 10
0.0
 20
1.0
 30
0.0
  9
$UCSORTHOREF
  2

  9
$UCSORTHOVIEW
 70
     0
  9
$UCSORGTOP
 10
0.0
 20
0.0
 30
0.0
  9
$UCSORGBOTTOM
 10
0.0
 20
0.0
 30
0.0
  9
$UCSORGLEFT
 10
0.0
 20
0.0
 30
0.0
  9
$UCSORGRIGHT
 10
0.0
 20
0.0
 30
0.0
  9
$UCSORGFRONT
 10
0.0
 20
0.0
 30
0.0
  9
$UCSORGBACK
 10
0.0
 20
0.0
 30
0.0
  9
$PUCSBASE
  2

  9
$PUCSNAME
  2

  9
$PUCSORG
 10
0.0
 20
0.0
 30
0.0
  9
$PUCSXDIR
 10
1.0
 20
0.0
 30
0.0
  9
$PUCSYDIR
 10
0.0
 20
1.0
 30
0.0
  9
$PUCSORTHOREF
  2

  9
$PUCSORTHOVIEW
 70
     0
  9
$PUCSORGTOP
 10
0.0
 20
0.0
 30
0.0
  9
$PUCSORGBOTTOM
 10
0.0
 20
0.0
 30
0.0
  9
$PUCSORGLEFT
 10
0.0
 20
0.0
 30
0.0
  9
$PUCSORGRIGHT
 10
0.0
 20
0.0
 30
0.0
  9
$PUCSORGFRONT
 10
0.0
 20
0.0
 30
0.0
  9
$PUCSORGBACK
 10
0.0
 20
0.0
 30
0.0
  9
$USERI1
 70
     0
  9
$USERI2
 70
     0
  9
$USERI3
 70
     0
  9
$USERI4
 70
     0
  9
$USERI5
 70
     0
  9
$USERR1
 40
0.0
  9
$USERR2
 40
0.0
  9
$USERR3
 40
0.0
  9
$USERR4
 40
0.0
  9
$USERR5
 40
0.0
  9
$WORLDVIEW
 70
     1
  9
$SHADEDGE
 70
     3
  9
$SHADEDIF
 70
    70
  9
$TILEMODE
 70
     1
  9
$MAXACTVP
 70
    64
  9
$PINSBASE
 10
0.0
 20
0.0
 30
0.0
  9
$PLIMCHECK
 70
     0
  9
$PEXTMIN
 10
1.000000000000000E+20
 20
1.000000000000000E+20
 30
1.000000000000000E+20
  9
$PEXTMAX
 10
-1.000000000000000E+20
 20
-1.000000000000000E+20
 30
-1.000000000000000E+20
  9
$PLIMMIN
 10
0.0
 20
0.0
  9
$PLIMMAX
 10
12.0
 20
9.0
  9
$UNITMODE
 70
     0
  9
$VISRETAIN
 70
     1
  9
$PLINEGEN
 70
     0
  9
$PSLTSCALE
 70
     1
  9
$TREEDEPTH
 70
  3020
  9
$CMLSTYLE
  2
Standard
  9
$CMLJUST
 70
     0
  9
$CMLSCALE
 40
1.0
  9
$PROXYGRAPHICS
 70
     1
  9
$MEASUREMENT
 70
     0
  9
$CELWEIGHT
370
    -1
  9
$ENDCAPS
280
     0
  9
$JOINSTYLE
280
     0
  9
$LWDISPLAY
290
     0
  9
$INSUNITS
 70
     0
  9
$HYPERLINKBASE
  1

  9
$STYLESHEET
  1

  9
$XEDIT
290
     1
  9
$CEPSNTYPE
380
     0
  9
$PSTYLEMODE
290
     1
  9
$FINGERPRINTGUID
  2
{FF5D0FA1-23A5-42AF-A1F9-A2AC81028A2C}
  9
$VERSIONGUID
  2
{CCE563F0-CCF5-452E-AF69-013B7897AFD8}
  9
$EXTNAMES
290
     1
  9
$PSVPSCALE
 40
0.0
  9
$OLESTARTUP
290
     0
  0
ENDSEC
  0
SECTION
  2
CLASSES
  0
CLASS
  1
ACDBDICTIONARYWDFLT
  2
AcDbDictionaryWithDefault
  3
ObjectDBX Classes
 90
        0
280
     0
281
     0
  0
CLASS
  1
MATERIAL
  2
AcDbMaterial
  3
ObjectDBX Classes
 90
     1153
280
     0
281
     0
  0
CLASS
  1
VISUALSTYLE
  2
AcDbVisualStyle
  3
ObjectDBX Classes
 90
     4095
280
     0
281
     0
  0
CLASS
  1
SCALE
  2
AcDbScale
  3
ObjectDBX Classes
 90
     1153
280
     0
281
     0
  0
CLASS
  1
TABLESTYLE
  2
AcDbTableStyle
  3
ObjectDBX Classes
 90
     4095
280
     0
281
     0
  0
CLASS
  1
MLEADERSTYLE
  2
AcDbMLeaderStyle
  3
ACDB_MLEADERSTYLE_CLASS
 90
     4095
280
     0
281
     0
  0
CLASS
  1
SORTENTSTABLE
  2
AcDbSortentsTable
  3
ObjectDBX Classes
 90
        0
280
     0
281
     0
  0
CLASS
  1
DICTIONARYVAR
  2
AcDbDictionaryVar
  3
ObjectDBX Classes
 90
        0
280
     0
281
     0
  0
CLASS
  1
AEC_REFEDIT_STATUS_TRACKER
  2
AecDbRefEditStatusTracker
  3
AecArchBase60|Product Desc: Autodesk Architectural Desktop 2007 |Company: Autodesk,Inc. |WEB Address: www.autodesk.com
 90
      129
280
     0
281
     0
  0
CLASS
  1
NPOCOLLECTION
  2
AcDbImpNonPersistentObjectsCollection
  3
ObjectDBX Classes
 90
     1153
280
     0
281
     0
  0
CLASS
  1
CELLSTYLEMAP
  2
AcDbCellStyleMap
  3
ObjectDBX Classes
 90
     1152
280
     0
281
     0
  0
CLASS
  1
ACDBPLACEHOLDER
  2
AcDbPlaceHolder
  3
ObjectDBX Classes
 90
        0
280
     0
281
     0
  0
CLASS
  1
LAYOUT
  2
AcDbLayout
  3
ObjectDBX Classes
 90
        0
280
     0
281
     0
  0
ENDSEC
  0
SECTION
  2
TABLES
  0
TABLE
  2
VPORT
  5
8
330
0
100
AcDbSymbolTable
 70
     1
  0
VPORT
  5
8B
330
8
100
AcDbSymbolTableRecord
100
AcDbViewportTableRecord
  2
*Active
 70
     0
 10
0.0
 20
0.0
 11
1.0
 21
1.0
 12
282.3142288670596
 22
-300.5705292854151
 13
0.0
 23
0.0
 14
1.0
 24
1.0
 15
0.0
 25
0.0
 16
0.0
 26
0.0
 36
1.0
 17
0.0
 27
0.0
 37
0.0
 40
527.8130335103038
 41
2.006711409395973
 42
50.0
 43
0.0
 44
0.0
 50
0.0
 51
0.0
 71
     0
 72
   100
 73
     1
 74
     1
 75
     0
 76
     0
 77
     0
 78
     0
281
     0
 65
     1
110
0.0
120
0.0
130
0.0
111
1.0
121
0.0
131
0.0
112
0.0
122
1.0
132
0.0
 79
     0
146
0.0
  0
ENDTAB
  0
TABLE
  2
LTYPE
  5
5
330
0
100
AcDbSymbolTable
 70
     3
  0
LTYPE
  5
5A
330
5
100
AcDbSymbolTableRecord
100
AcDbLinetypeTableRecord
  2
ByBlock
 70
     0
  3

 72
    65
 73
     0
 40
0.0
  0
LTYPE
  5
5B
330
5
100
AcDbSymbolTableRecord
100
AcDbLinetypeTableRecord
  2
ByLayer
 70
     0
  3

 72
    65
 73
     0
 40
0.0
  0
LTYPE
  5
5C
330
5
100
AcDbSymbolTableRecord
100
AcDbLinetypeTableRecord
  2
CONTINUOUS
 70
     0
  3
Solid-line
 72
    65
 73
     0
 40
0.0
  0
LTYPE
  5
72
330
5
100
AcDbSymbolTableRecord
100
AcDbLinetypeTableRecord
  2
CENTER
 70
     0
  3
CENTER
 72
    65
 73
     4
 40
2.0
 49
1.25
 74
     0
 49
-0.25
 74
     0
 49
0.25
 74
     0
 49
-0.25
 74
     0
  0
LTYPE
  5
78
330
5
100
AcDbSymbolTableRecord
100
AcDbLinetypeTableRecord
  2
DASHED
 70
     0
  3
DASHED
 72
    65
 73
     2
 40
0.75
 49
0.5
 74
     0
 49
-0.25
 74
     0
  0
ENDTAB
  0
TABLE
  2
LAYER
  5
2
102
{ACAD_XDICTIONARY
360
53A
102
}
330
0
100
AcDbSymbolTable
 70
     2
  0
LAYER
  5
54
102
{ACAD_XDICTIONARY
360
BAC
102
}
330
2
100
AcDbSymbolTableRecord
100
AcDbLayerTableRecord
  2
0
 70
     0
 62
     7
  6
CONTINUOUS
370
    -3
390
F
  0
LAYER
  5
5D6
330
2
100
AcDbSymbolTableRecord
100
AcDbLayerTableRecord
  2
Defpoints
 70
     0
 62
     7
  6
CONTINUOUS
290
     0
370
    -3
390
F
  0
ENDTAB
  0
TABLE
  2
STYLE
  5
3
330
0
100
AcDbSymbolTable
 70
     6
  0
STYLE
  5
55
330
3
100
AcDbSymbolTableRecord
100
AcDbTextStyleTableRecord
  2
STANDARD
 70
     0
 40
0.0
 41
1.0
 50
0.0
 71
     0
 42
0.2
  3
TXT
  4
BIGFONT
  0
STYLE
  5
533
330
3
100
AcDbSymbolTableRecord
100
AcDbTextStyleTableRecord
  2
高3.2
 70
     0
 40
3.2
 41
1.0
 50
0.0
 71
     0
 42
3.2
  3
txt.shx
  4
bigfont.shx
  0
STYLE
  5
534
330
3
100
AcDbSymbolTableRecord
100
AcDbTextStyleTableRecord
  2
高6.3
 70
     0
 40
6.299999999999998
 41
1.0
 50
0.0
 71
     0
 42
6.299999999999998
  3
txt.shx
  4
bigfont.shx
  0
STYLE
  5
535
330
3
100
AcDbSymbolTableRecord
100
AcDbTextStyleTableRecord
  2
高2.5
 70
     0
 40
2.5
 41
1.0
 50
0.0
 71
     0
 42
0.2
  3
txt.shx
  4
bigfont.shx
  0
STYLE
  5
536
330
3
100
AcDbSymbolTableRecord
100
AcDbTextStyleTableRecord
  2
高4.5
 70
     0
 40
4.5
 41
1.0
 50
0.0
 71
     0
 42
6.299999999999998
  3
txt.shx
  4
bigfont.shx
  0
STYLE
  5
537
330
3
100
AcDbSymbolTableRecord
100
AcDbTextStyleTableRecord
  2
高2
 70
     0
 40
2.0
 41
1.0
 50
0.0
 71
     0
 42
6.299999999999998
  3
txt.shx
  4
bigfont.shx
  0
ENDTAB
  0
TABLE
  2
VIEW
  5
6
330
0
100
AcDbSymbolTable
 70
     0
  0
ENDTAB
  0
TABLE
  2
UCS
  5
7
330
0
100
AcDbSymbolTable
 70
     0
  0
ENDTAB
  0
TABLE
  2
APPID
  5
9
330
0
100
AcDbSymbolTable
 70
    10
  0
APPID
  5
56
330
9
100
AcDbSymbolTableRecord
100
AcDbRegAppTableRecord
  2
ACAD
 70
     0
  0
APPID
  5
5D
330
9
100
AcDbSymbolTableRecord
100
AcDbRegAppTableRecord
  2
AcadAnnotative
 70
     0
  0
APPID
  5
539
330
9
100
AcDbSymbolTableRecord
100
AcDbRegAppTableRecord
  2
ACAD_DSTYLE_DIMJOGGED_JOGANGLE_SYMBOL
 70
     0
  0
APPID
  5
5E0
330
9
100
AcDbSymbolTableRecord
100
AcDbRegAppTableRecord
  2
ACAD_DSTYLE_DIMJAG
 70
     0
  0
APPID
  5
5E1
330
9
100
AcDbSymbolTableRecord
100
AcDbRegAppTableRecord
  2
ACAD_DSTYLE_DIMBREAK
 70
     0
  0
APPID
  5
5E2
330
9
100
AcDbSymbolTableRecord
100
AcDbRegAppTableRecord
  2
ACAD_DSTYLE_DIMTALN
 70
     0
  0
APPID
  5
A4A
330
9
100
AcDbSymbolTableRecord
100
AcDbRegAppTableRecord
  2
ACAD_EXEMPT_FROM_CAD_STANDARDS
 70
     0
  0
APPID
  5
C37
330
9
100
AcDbSymbolTableRecord
100
AcDbRegAppTableRecord
  2
ACAD_MLEADERVER
 70
     0
  0
APPID
  5
C3C
330
9
100
AcDbSymbolTableRecord
100
AcDbRegAppTableRecord
  2
ACAD_DSTYLE_DIMARC_LENGTH_SYMBOL
 70
     0
  0
APPID
  5
C3D
330
9
100
AcDbSymbolTableRecord
100
AcDbRegAppTableRecord
  2
ACAD_DSTYLE_DIMEXT_LENGTH
 70
     0
  0
ENDTAB
  0
TABLE
  2
DIMSTYLE
  5
A
330
0
100
AcDbSymbolTable
 70
    11
100
AcDbDimStyleTable
 71
     1
340
538
  0
DIMSTYLE
105
57
330
A
100
AcDbSymbolTableRecord
100
AcDbDimStyleTableRecord
  2
Standard
 70
     0
340
55
  0
DIMSTYLE
105
538
330
A
100
AcDbSymbolTableRecord
100
AcDbDimStyleTableRecord
  2
1：1
 70
     0
 41
2.5
 42
0.25
 43
0.2
 44
1.25
 73
     0
 74
     0
 77
     3
 78
     8
 79
     2
140
3.0
141
0.0
143
0.03937007874016
147
0.625
171
     3
172
     1
178
     4
179
     1
271
     2
272
     2
274
     3
283
     0
284
     8
288
     1
289
     0
340
55
341
45D
342
45D
1001
ACAD_DSTYLE_DIMARC_LENGTH_SYMBOL
1070
   379
1070
     2
1001
ACAD_DSTYLE_DIMEXT_LENGTH
1070
   378
1040
1.25
1001
ACAD_DSTYLE_DIMJOGGED_JOGANGLE_SYMBOL
1070
   384
1040
1.570796326794896
  0
DIMSTYLE
105
5D7
330
A
100
AcDbSymbolTableRecord
100
AcDbDimStyleTableRecord
  2
2：1
 70
     0
 41
2.5
 42
0.25
 43
0.2
 44
1.25
 73
     0
 74
     0
 77
     3
 78
     8
 79
     2
140
3.0
141
0.0
143
0.03937007874016
144
0.5
147
0.625
171
     3
172
     1
178
     4
179
     1
271
     2
272
     2
274
     3
283
     0
284
     8
288
     1
289
     0
340
55
341
45D
342
45D
1001
ACAD_DSTYLE_DIMARC_LENGTH_SYMBOL
1070
   379
1070
     2
1001
ACAD_DSTYLE_DIMEXT_LENGTH
1070
   378
1040
1.25
1001
ACAD_DSTYLE_DIMJOGGED_JOGANGLE_SYMBOL
1070
   384
1040
1.570796326794896
  0
DIMSTYLE
105
5D8
330
A
100
AcDbSymbolTableRecord
100
AcDbDimStyleTableRecord
  2
5：1
 70
     0
 41
2.5
 42
0.25
 43
0.2
 44
1.25
 73
     0
 74
     0
 77
     3
 78
     8
 79
     2
140
3.0
141
0.0
143
0.03937007874016
144
0.2
147
0.625
171
     3
172
     1
178
     4
179
     1
271
     2
272
     2
274
     3
283
     0
284
     8
288
     1
289
     0
340
55
341
45D
342
45D
1001
ACAD_DSTYLE_DIMARC_LENGTH_SYMBOL
1070
   379
1070
     2
1001
ACAD_DSTYLE_DIMEXT_LENGTH
1070
   378
1040
1.25
1001
ACAD_DSTYLE_DIMJOGGED_JOGANGLE_SYMBOL
1070
   384
1040
1.570796326794896
  0
DIMSTYLE
105
5D9
330
A
100
AcDbSymbolTableRecord
100
AcDbDimStyleTableRecord
  2
10：1
 70
     0
 41
2.5
 42
0.25
 43
0.2
 44
1.25
 73
     0
 74
     0
 77
     3
 78
     8
 79
     2
140
3.0
141
0.0
143
0.03937007874016
144
0.1
147
0.625
171
     3
172
     1
178
     4
179
     1
271
     2
272
     2
274
     3
283
     0
284
     8
288
     1
289
     0
340
55
341
45D
342
45D
1001
ACAD_DSTYLE_DIMARC_LENGTH_SYMBOL
1070
   379
1070
     2
1001
ACAD_DSTYLE_DIMEXT_LENGTH
1070
   378
1040
1.25
1001
ACAD_DSTYLE_DIMJOGGED_JOGANGLE_SYMBOL
1070
   384
1040
1.570796326794896
  0
DIMSTYLE
105
5DA
330
A
100
AcDbSymbolTableRecord
100
AcDbDimStyleTableRecord
  2
1／2
 70
     0
 41
2.5
 42
0.25
 43
0.2
 44
1.25
 73
     0
 74
     0
 77
     3
 78
     8
 79
     2
140
3.0
141
0.0
143
0.03937007874016
144
2.0
147
0.625
171
     3
172
     1
178
     4
179
     1
271
     2
272
     2
274
     3
283
     0
284
     8
288
     1
289
     0
340
55
341
45D
342
45D
1001
ACAD_DSTYLE_DIMARC_LENGTH_SYMBOL
1070
   379
1070
     2
1001
ACAD_DSTYLE_DIMEXT_LENGTH
1070
   378
1040
1.25
1001
ACAD_DSTYLE_DIMJOGGED_JOGANGLE_SYMBOL
1070
   384
1040
1.570796326794896
  0
DIMSTYLE
105
5DB
330
A
100
AcDbSymbolTableRecord
100
AcDbDimStyleTableRecord
  2
1／5
 70
     0
 41
2.5
 42
0.25
 43
0.2
 44
1.25
 73
     0
 74
     0
 77
     3
 78
     8
 79
     2
140
3.0
141
0.0
143
0.03937007874016
144
5.0
147
0.625
171
     3
172
     1
178
     4
179
     1
271
     2
272
     2
274
     3
283
     0
284
     8
288
     1
289
     0
340
55
341
45D
342
45D
1001
ACAD_DSTYLE_DIMARC_LENGTH_SYMBOL
1070
   379
1070
     2
1001
ACAD_DSTYLE_DIMEXT_LENGTH
1070
   378
1040
1.25
1001
ACAD_DSTYLE_DIMJOGGED_JOGANGLE_SYMBOL
1070
   384
1040
1.570796326794896
  0
DIMSTYLE
105
5DC
330
A
100
AcDbSymbolTableRecord
100
AcDbDimStyleTableRecord
  2
1／10
 70
     0
 41
2.5
 42
0.25
 43
0.2
 44
1.25
 73
     0
 74
     0
 77
     3
 78
     8
 79
     2
140
3.0
141
0.0
143
0.03937007874016
144
10.0
147
0.625
171
     3
172
     1
178
     4
179
     1
271
     2
272
     2
274
     3
283
     0
284
     8
288
     1
289
     0
340
55
341
45D
342
45D
1001
ACAD_DSTYLE_DIMARC_LENGTH_SYMBOL
1070
   379
1070
     2
1001
ACAD_DSTYLE_DIMEXT_LENGTH
1070
   378
1040
1.25
1001
ACAD_DSTYLE_DIMJOGGED_JOGANGLE_SYMBOL
1070
   384
1040
1.570796326794896
  0
DIMSTYLE
105
5DD
330
A
100
AcDbSymbolTableRecord
100
AcDbDimStyleTableRecord
  2
1／4
 70
     0
 41
2.5
 42
0.25
 43
0.2
 44
1.25
 73
     0
 74
     0
 77
     3
 78
     8
 79
     2
140
3.0
141
0.0
143
0.03937007874016
144
4.0
147
0.625
171
     3
172
     1
178
     4
179
     1
271
     2
272
     2
274
     3
283
     0
284
     8
288
     1
289
     0
340
55
341
45D
342
45D
1001
ACAD_DSTYLE_DIMARC_LENGTH_SYMBOL
1070
   379
1070
     2
1001
ACAD_DSTYLE_DIMEXT_LENGTH
1070
   378
1040
1.25
1001
ACAD_DSTYLE_DIMJOGGED_JOGANGLE_SYMBOL
1070
   384
1040
1.570796326794896
  0
DIMSTYLE
105
5DE
330
A
100
AcDbSymbolTableRecord
100
AcDbDimStyleTableRecord
  2
1／3
 70
     0
 41
2.5
 42
0.25
 43
0.2
 44
1.25
 73
     0
 74
     0
 77
     3
 78
     8
 79
     2
140
3.0
141
0.0
143
0.03937007874016
144
3.0
147
0.625
171
     3
172
     1
178
     4
179
     1
271
     2
272
     2
274
     3
283
     0
284
     8
288
     1
289
     0
340
55
341
45D
342
45D
1001
ACAD_DSTYLE_DIMARC_LENGTH_SYMBOL
1070
   379
1070
     2
1001
ACAD_DSTYLE_DIMEXT_LENGTH
1070
   378
1040
1.25
1001
ACAD_DSTYLE_DIMJOGGED_JOGANGLE_SYMBOL
1070
   384
1040
1.570796326794896
  0
DIMSTYLE
105
5DF
330
A
100
AcDbSymbolTableRecord
100
AcDbDimStyleTableRecord
  2
FREE
 70
     0
 41
2.5
 42
0.25
 43
0.2
 44
1.25
 73
     0
 74
     0
 77
     3
 78
     8
 79
     2
140
3.0
141
0.0
143
0.03937007874016
147
0.625
171
     3
172
     1
178
     4
179
     1
271
     2
272
     2
274
     3
283
     0
284
     8
288
     1
289
     0
340
55
341
45D
342
45D
1001
ACAD_DSTYLE_DIMBREAK
1070
   391
1040
3.75
1001
ACAD_DSTYLE_DIMJAG
1070
   388
1040
1.5
1001
ACAD_DSTYLE_DIMTALN
1070
   392
1070
     0
1001
ACAD_DSTYLE_DIMARC_LENGTH_SYMBOL
1070
   379
1070
     2
1001
ACAD_DSTYLE_DIMEXT_LENGTH
1070
   378
1040
1.25
1001
ACAD_DSTYLE_DIMJOGGED_JOGANGLE_SYMBOL
1070
   384
1040
1.570796326794896
  0
ENDTAB
  0
TABLE
  2
BLOCK_RECORD
  5
1
330
0
100
AcDbSymbolTable
 70
    21
  0
BLOCK_RECORD
  5
6B
102
{ACAD_XDICTIONARY
360
B1F
102
}
330
1
100
AcDbSymbolTableRecord
100
AcDbBlockTableRecord
  2
*Model_Space
340
6E
  0
BLOCK_RECORD
  5
67
330
1
100
AcDbSymbolTableRecord
100
AcDbBlockTableRecord
  2
*Paper_Space
340
6A
  0
BLOCK_RECORD
  5
45D
330
1
100
AcDbSymbolTableRecord
100
AcDbBlockTableRecord
  2
_Open30
340
0
102
{BLKREFS
331
692
331
693
331
69D
331
69E
331
6A8
331
6A9
331
6B3
331
6B4
331
6BE
331
6BF
331
6C9
331
6CA
331
6D4
331
6D5
331
6DF
331
6E0
331
6EA
331
6EB
331
6F3
331
6F4
331
CA3
331
CA4
331
CAC
331
CAD
331
CB5
331
CB6
331
CBE
331
CBF
331
CC9
331
CCA
331
CD2
331
CD3
331
CDB
331
CDC
331
CE4
331
CE5
331
CED
331
CEE
331
CF6
331
CF7
102
}
  0
BLOCK_RECORD
  5
603
330
1
100
AcDbSymbolTableRecord
100
AcDbBlockTableRecord
  2
*D1
340
0
  0
BLOCK_RECORD
  5
611
330
1
100
AcDbSymbolTableRecord
100
AcDbBlockTableRecord
  2
*D2
340
0
  0
BLOCK_RECORD
  5
61F
330
1
100
AcDbSymbolTableRecord
100
AcDbBlockTableRecord
  2
*D3
340
0
  0
BLOCK_RECORD
  5
62D
330
1
100
AcDbSymbolTableRecord
100
AcDbBlockTableRecord
  2
*D4
340
0
  0
BLOCK_RECORD
  5
63B
330
1
100
AcDbSymbolTableRecord
100
AcDbBlockTableRecord
  2
*D5
340
0
  0
BLOCK_RECORD
  5
649
330
1
100
AcDbSymbolTableRecord
100
AcDbBlockTableRecord
  2
*D6
340
0
  0
BLOCK_RECORD
  5
657
330
1
100
AcDbSymbolTableRecord
100
AcDbBlockTableRecord
  2
*D7
340
0
  0
BLOCK_RECORD
  5
665
330
1
100
AcDbSymbolTableRecord
100
AcDbBlockTableRecord
  2
*D8
340
0
  0
BLOCK_RECORD
  5
673
330
1
100
AcDbSymbolTableRecord
100
AcDbBlockTableRecord
  2
*D9
340
0
  0
BLOCK_RECORD
  5
681
330
1
100
AcDbSymbolTableRecord
100
AcDbBlockTableRecord
  2
*D10
340
0
  0
BLOCK_RECORD
  5
896
330
1
100
AcDbSymbolTableRecord
100
AcDbBlockTableRecord
  2
*D11
340
0
  0
BLOCK_RECORD
  5
8A3
330
1
100
AcDbSymbolTableRecord
100
AcDbBlockTableRecord
  2
*D12
340
0
  0
BLOCK_RECORD
  5
8B0
330
1
100
AcDbSymbolTableRecord
100
AcDbBlockTableRecord
  2
*D13
340
0
  0
BLOCK_RECORD
  5
8BD
330
1
100
AcDbSymbolTableRecord
100
AcDbBlockTableRecord
  2
*D14
340
0
  0
BLOCK_RECORD
  5
8CA
330
1
100
AcDbSymbolTableRecord
100
AcDbBlockTableRecord
  2
*D15
340
0
  0
BLOCK_RECORD
  5
8D7
330
1
100
AcDbSymbolTableRecord
100
AcDbBlockTableRecord
  2
*D16
340
0
  0
BLOCK_RECORD
  5
8E4
330
1
100
AcDbSymbolTableRecord
100
AcDbBlockTableRecord
  2
*D17
340
0
  0
BLOCK_RECORD
  5
8F1
330
1
100
AcDbSymbolTableRecord
100
AcDbBlockTableRecord
  2
*D18
340
0
  0
BLOCK_RECORD
  5
8FE
330
1
100
AcDbSymbolTableRecord
100
AcDbBlockTableRecord
  2
*D19
340
0
  0
BLOCK_RECORD
  5
90B
330
1
100
AcDbSymbolTableRecord
100
AcDbBlockTableRecord
  2
*D20
340
0
  0
ENDTAB
  0
ENDSEC
  0
SECTION
  2
BLOCKS
  0
BLOCK
  5
6C
330
6B
100
AcDbEntity
  8
0
100
AcDbBlockBegin
  2
*Model_Space
 70
     0
 10
0.0
 20
0.0
 30
0.0
  3
*Model_Space
  1

  0
ENDBLK
  5
6D
330
6B
100
AcDbEntity
  8
0
100
AcDbBlockEnd
  0
BLOCK
  5
68
330
67
100
AcDbEntity
 67
     1
  8
0
100
AcDbBlockBegin
  2
*Paper_Space
 70
     0
 10
0.0
 20
0.0
 30
0.0
  3
*Paper_Space
  1

  0
ENDBLK
  5
69
330
67
100
AcDbEntity
 67
     1
  8
0
100
AcDbBlockEnd
  0
BLOCK
  5
45E
330
45D
100
AcDbEntity
  8
0
100
AcDbBlockBegin
  2
_Open30
 70
     0
 10
0.0
 20
0.0
 30
0.0
  3
_Open30
  1

  0
LINE
  5
45F
330
45D
100
AcDbEntity
  8
0
  6
ByBlock
 62
     0
370
    -2
100
AcDbLine
 10
-1.0
 20
0.267949
 30
0.0
 11
0.0
 21
0.0
 31
0.0
  0
LINE
  5
460
330
45D
100
AcDbEntity
  8
0
  6
ByBlock
 62
     0
370
    -2
100
AcDbLine
 10
0.0
 20
0.0
 30
0.0
 11
-1.0
 21
-0.267949
 31
0.0
  0
LINE
  5
461
330
45D
100
AcDbEntity
  8
0
  6
ByBlock
 62
     0
370
    -2
100
AcDbLine
 10
0.0
 20
0.0
 30
0.0
 11
-1.0
 21
0.0
 31
0.0
  0
ENDBLK
  5
462
330
45D
100
AcDbEntity
  8
0
100
AcDbBlockEnd
  0
BLOCK
  5
604
330
603
100
AcDbEntity
  8
0
100
AcDbBlockBegin
  2
*D1
 70
     1
 10
0.0
 20
0.0
 30
0.0
  3
*D1
  1

  0
LINE
  5
68D
330
603
100
AcDbEntity
  8
0
 62
     0
370
    -2
100
AcDbLine
 10
247.8341694952811
 20
-136.958242285573
 30
0.0
 11
247.8341694952811
 21
-139.8678737075819
 31
0.0
  0
LINE
  5
68E
330
603
100
AcDbEntity
  8
0
 62
     0
370
    -2
100
AcDbLine
 10
245.3769824411608
 20
-136.958242285573
 30
0.0
 11
245.3769824411608
 21
-139.8678737075819
 31
0.0
  0
LINE
  5
68F
330
603
100
AcDbEntity
  8
0
 62
     0
370
    -2
100
AcDbLine
 10
250.3341694952811
 20
-138.6178737075819
 30
0.0
 11
252.8341694952811
 21
-138.6178737075819
 31
0.0
  0
LINE
  5
690
330
603
100
AcDbEntity
  8
0
 62
     0
370
    -2
100
AcDbLine
 10
242.8769824411607
 20
-138.6178737075819
 30
0.0
 11
230.1269824411607
 21
-138.6178737075819
 31
0.0
  0
LINE
  5
691
330
603
100
AcDbEntity
  8
0
 62
     0
370
    -2
100
AcDbLine
 10
247.8341694952811
 20
-138.6178737075819
 30
0.0
 11
245.3769824411608
 21
-138.6178737075819
 31
0.0
  0
INSERT
  5
692
330
603
100
AcDbEntity
  8
0
 62
     0
370
    -2
100
AcDbBlockReference
  2
_Open30
 10
247.8341694952811
 20
-138.6178737075819
 30
0.0
 41
2.5
 42
2.5
 43
2.5
 50
180.0
  0
INSERT
  5
693
330
603
100
AcDbEntity
  8
0
 62
     0
370
    -2
100
AcDbBlockReference
  2
_Open30
 10
245.3769824411608
 20
-138.6178737075819
 30
0.0
 41
2.5
 42
2.5
 43
2.5
  0
MTEXT
  5
694
330
603
100
AcDbEntity
  8
0
 62
     4
100
AcDbMText
 10
235.2519824411607
 20
-136.4928737075819
 30
0.0
 40
3.0
 41
0.0
 71
     5
 72
     1
  1
2.46
 73
     1
 44
1.0
1001
ACAD
1000
MTEXTBEGIN
1070
    73
1070
     1
1070
    44
1040
1.0
1070
    74
1070
     0
1000
MTEXTEND
  0
POINT
  5
695
330
603
100
AcDbEntity
  8
Defpoints
 62
     0
100
AcDbPoint
 10
247.8341694952811
 20
-136.7082422855731
 30
0.0
  0
POINT
  5
696
330
603
100
AcDbEntity
  8
Defpoints
 62
     0
100
AcDbPoint
 10
245.3769824411608
 20
-136.7082422855731
 30
0.0
  0
POINT
  5
697
330
603
100
AcDbEntity
  8
Defpoints
 62
     0
100
AcDbPoint
 10
245.3769824411608
 20
-138.6178737075819
 30
0.0
  0
ENDBLK
  5
605
330
603
100
AcDbEntity
  8
0
100
AcDbBlockEnd
  0
BLOCK
  5
612
330
611
100
AcDbEntity
  8
0
100
AcDbBlockBegin
  2
*D2
 70
     1
 10
0.0
 20
0.0
 30
0.0
  3
*D2
  1

  0
LINE
  5
698
330
611
100
AcDbEntity
  8
0
 62
     0
370
    -2
100
AcDbLine
 10
249.4722944013542
 20
-142.4143318583354
 30
0.0
 11
249.4722944013542
 21
-144.9602239277988
 31
0.0
  0
LINE
  5
699
330
611
100
AcDbEntity
  8
0
 62
     0
370
    -2
100
AcDbLine
 10
246.3780586032113
 20
-142.4143318583354
 30
0.0
 11
246.3780586032113
 21
-144.9602239277988
 31
0.0
  0
LINE
  5
69A
330
611
100
AcDbEntity
  8
0
 62
     0
370
    -2
100
AcDbLine
 10
251.9722944013543
 20
-143.7102239277987
 30
0.0
 11
254.4722944013543
 21
-143.7102239277987
 31
0.0
  0
LINE
  5
69B
330
611
100
AcDbEntity
  8
0
 62
     0
370
    -2
100
AcDbLine
 10
243.8780586032113
 20
-143.7102239277987
 30
0.0
 11
230.044725269878
 21
-143.7102239277987
 31
0.0
  0
LINE
  5
69C
330
611
100
AcDbEntity
  8
0
 62
     0
370
    -2
100
AcDbLine
 10
249.4722944013542
 20
-143.7102239277987
 30
0.0
 11
246.3780586032113
 21
-143.7102239277987
 31
0.0
  0
INSERT
  5
69D
330
611
100
AcDbEntity
  8
0
 62
     0
370
    -2
100
AcDbBlockReference
  2
_Open30
 10
249.4722944013542
 20
-143.7102239277987
 30
0.0
 41
2.5
 42
2.5
 43
2.5
 50
180.0
  0
INSERT
  5
69E
330
611
100
AcDbEntity
  8
0
 62
     0
370
    -2
100
AcDbBlockReference
  2
_Open30
 10
246.3780586032113
 20
-143.7102239277987
 30
0.0
 41
2.5
 42
2.5
 43
2.5
  0
MTEXT
  5
69F
330
611
100
AcDbEntity
  8
0
 62
     4
100
AcDbMText
 10
235.2530586032113
 20
-141.8352239277988
 30
0.0
 40
2.5
 41
0.0
 71
     5
 72
     1
  1
15.47
  7
高2.5
 73
     1
 44
1.0
1001
ACAD
1000
MTEXTBEGIN
1070
    73
1070
     1
1070
    44
1040
1.0
1070
    74
1070
     0
1000
MTEXTEND
  0
POINT
  5
6A0
330
611
100
AcDbEntity
  8
Defpoints
 62
     0
100
AcDbPoint
 10
249.4722944013542
 20
-142.1643318583354
 30
0.0
  0
POINT
  5
6A1
330
611
100
AcDbEntity
  8
Defpoints
 62
     0
100
AcDbPoint
 10
246.3780586032113
 20
-142.1643318583354
 30
0.0
  0
POINT
  5
6A2
330
611
100
AcDbEntity
  8
Defpoints
 62
     0
100
AcDbPoint
 10
246.3780586032113
 20
-143.7102239277987
 30
0.0
  0
ENDBLK
  5
613
330
611
100
AcDbEntity
  8
0
100
AcDbBlockEnd
  0
BLOCK
  5
620
330
61F
100
AcDbEntity
  8
0
100
AcDbBlockBegin
  2
*D3
 70
     1
 10
0.0
 20
0.0
 30
0.0
  3
*D3
  1

  0
LINE
  5
6A3
330
61F
100
AcDbEntity
  8
0
 62
     0
370
    -2
100
AcDbLine
 10
251.2014260094397
 20
-147.8704215741819
 30
0.0
 11
251.2014260094397
 21
-150.1435092365492
 31
0.0
  0
LINE
  5
6A4
330
61F
100
AcDbEntity
  8
0
 62
     0
370
    -2
100
AcDbLine
 10
247.1971210562479
 20
-147.8704215741819
 30
0.0
 11
247.1971210562479
 21
-150.1435092365492
 31
0.0
  0
LINE
  5
6A5
330
61F
100
AcDbEntity
  8
0
 62
     0
370
    -2
100
AcDbLine
 10
253.7014260094397
 20
-148.8935092365492
 30
0.0
 11
256.2014260094397
 21
-148.8935092365492
 31
0.0
  0
LINE
  5
6A6
330
61F
100
AcDbEntity
  8
0
 62
     0
370
    -2
100
AcDbLine
 10
244.6971210562479
 20
-148.8935092365492
 30
0.0
 11
232.9471210562479
 21
-148.8935092365492
 31
0.0
  0
LINE
  5
6A7
330
61F
100
AcDbEntity
  8
0
 62
     0
370
    -2
100
AcDbLine
 10
251.2014260094397
 20
-148.8935092365492
 30
0.0
 11
247.1971210562479
 21
-148.8935092365492
 31
0.0
  0
INSERT
  5
6A8
330
61F
100
AcDbEntity
  8
0
 62
     0
370
    -2
100
AcDbBlockReference
  2
_Open30
 10
251.2014260094397
 20
-148.8935092365492
 30
0.0
 41
2.5
 42
2.5
 43
2.5
 50
180.0
  0
INSERT
  5
6A9
330
61F
100
AcDbEntity
  8
0
 62
     0
370
    -2
100
AcDbBlockReference
  2
_Open30
 10
247.1971210562479
 20
-148.8935092365492
 30
0.0
 41
2.5
 42
2.5
 43
2.5
  0
MTEXT
  5
6AA
330
61F
100
AcDbEntity
  8
0
 62
     4
100
AcDbMText
 10
237.5721210562479
 20
-146.6685092365492
 30
0.0
 40
3.2
 41
0.0
 71
     5
 72
     1
  1
8.01
  7
高3.2
 73
     1
 44
1.0
1001
ACAD
1000
MTEXTBEGIN
1070
    73
1070
     1
1070
    44
1040
1.0
1070
    74
1070
     0
1000
MTEXTEND
  0
POINT
  5
6AB
330
61F
100
AcDbEntity
  8
Defpoints
 62
     0
100
AcDbPoint
 10
251.2014260094397
 20
-147.6204215741819
 30
0.0
  0
POINT
  5
6AC
330
61F
100
AcDbEntity
  8
Defpoints
 62
     0
100
AcDbPoint
 10
247.1971210562479
 20
-147.6204215741819
 30
0.0
  0
POINT
  5
6AD
330
61F
100
AcDbEntity
  8
Defpoints
 62
     0
100
AcDbPoint
 10
247.1971210562479
 20
-148.8935092365492
 30
0.0
  0
ENDBLK
  5
621
330
61F
100
AcDbEntity
  8
0
100
AcDbBlockEnd
  0
BLOCK
  5
62E
330
62D
100
AcDbEntity
  8
0
100
AcDbBlockBegin
  2
*D4
 70
     1
 10
0.0
 20
0.0
 30
0.0
  3
*D4
  1

  0
LINE
  5
6AE
330
62D
100
AcDbEntity
  8
0
 62
     0
370
    -2
100
AcDbLine
 10
251.1104193074274
 20
-153.1446415422135
 30
0.0
 11
251.1104193074274
 21
-154.9630550496699
 31
0.0
  0
LINE
  5
6AF
330
62D
100
AcDbEntity
  8
0
 62
     0
370
    -2
100
AcDbLine
 10
246.3780586032113
 20
-153.1446415422135
 30
0.0
 11
246.3780586032113
 21
-154.9630550496699
 31
0.0
  0
LINE
  5
6B0
330
62D
100
AcDbEntity
  8
0
 62
     0
370
    -2
100
AcDbLine
 10
253.6104193074274
 20
-153.7130550496699
 30
0.0
 11
256.1104193074275
 21
-153.7130550496699
 31
0.0
  0
LINE
  5
6B1
330
62D
100
AcDbEntity
  8
0
 62
     0
370
    -2
100
AcDbLine
 10
243.8780586032113
 20
-153.7130550496699
 30
0.0
 11
222.1280586032114
 21
-153.7130550496699
 31
0.0
  0
LINE
  5
6B2
330
62D
100
AcDbEntity
  8
0
 62
     0
370
    -2
100
AcDbLine
 10
251.1104193074274
 20
-153.7130550496699
 30
0.0
 11
246.3780586032113
 21
-153.7130550496699
 31
0.0
  0
INSERT
  5
6B3
330
62D
100
AcDbEntity
  8
0
 62
     0
370
    -2
100
AcDbBlockReference
  2
_Open30
 10
251.1104193074274
 20
-153.7130550496699
 30
0.0
 41
2.5
 42
2.5
 43
2.5
 50
180.0
  0
INSERT
  5
6B4
330
62D
100
AcDbEntity
  8
0
 62
     0
370
    -2
100
AcDbBlockReference
  2
_Open30
 10
246.3780586032113
 20
-153.7130550496699
 30
0.0
 41
2.5
 42
2.5
 43
2.5
  0
MTEXT
  5
6B5
330
62D
100
AcDbEntity
  8
0
 62
     4
100
AcDbMText
 10
231.7530586032114
 20
-150.8380550496699
 30
0.0
 40
4.5
 41
0.0
 71
     5
 72
     1
  1
47.32
  7
高4.5
 73
     1
 44
1.0
1001
ACAD
1000
MTEXTBEGIN
1070
    73
1070
     1
1070
    44
1040
1.0
1070
    74
1070
     0
1000
MTEXTEND
  0
POINT
  5
6B6
330
62D
100
AcDbEntity
  8
Defpoints
 62
     0
100
AcDbPoint
 10
251.1104193074274
 20
-152.8946415422135
 30
0.0
  0
POINT
  5
6B7
330
62D
100
AcDbEntity
  8
Defpoints
 62
     0
100
AcDbPoint
 10
246.3780586032113
 20
-152.8946415422135
 30
0.0
  0
POINT
  5
6B8
330
62D
100
AcDbEntity
  8
Defpoints
 62
     0
100
AcDbPoint
 10
246.3780586032113
 20
-153.7130550496699
 30
0.0
  0
ENDBLK
  5
62F
330
62D
100
AcDbEntity
  8
0
100
AcDbBlockEnd
  0
BLOCK
  5
63C
330
63B
100
AcDbEntity
  8
0
100
AcDbBlockBegin
  2
*D5
 70
     1
 10
0.0
 20
0.0
 30
0.0
  3
*D5
  1

  0
LINE
  5
6B9
330
63B
100
AcDbEntity
  8
0
 62
     0
370
    -2
100
AcDbLine
 10
272.5880555754349
 20
-136.958242285573
 30
0.0
 11
272.5880555754349
 21
-139.8678737075819
 31
0.0
  0
LINE
  5
6BA
330
63B
100
AcDbEntity
  8
0
 62
     0
370
    -2
100
AcDbLine
 10
270.1308685213146
 20
-136.958242285573
 30
0.0
 11
270.1308685213146
 21
-139.8678737075819
 31
0.0
  0
LINE
  5
6BB
330
63B
100
AcDbEntity
  8
0
 62
     0
370
    -2
100
AcDbLine
 10
275.0880555754349
 20
-138.6178737075819
 30
0.0
 11
277.5880555754349
 21
-138.6178737075819
 31
0.0
  0
LINE
  5
6BC
330
63B
100
AcDbEntity
  8
0
 62
     0
370
    -2
100
AcDbLine
 10
267.6308685213146
 20
-138.6178737075819
 30
0.0
 11
246.0308685213146
 21
-138.6178737075819
 31
0.0
  0
LINE
  5
6BD
330
63B
100
AcDbEntity
  8
0
 62
     0
370
    -2
100
AcDbLine
 10
272.5880555754349
 20
-138.6178737075819
 30
0.0
 11
270.1308685213146
 21
-138.6178737075819
 31
0.0
  0
INSERT
  5
6BE
330
63B
100
AcDbEntity
  8
0
 62
     0
370
    -2
100
AcDbBlockReference
  2
_Open30
 10
272.5880555754349
 20
-138.6178737075819
 30
0.0
 41
2.5
 42
2.5
 43
2.5
 50
180.0
  0
INSERT
  5
6BF
330
63B
100
AcDbEntity
  8
0
 62
     0
370
    -2
100
AcDbBlockReference
  2
_Open30
 10
270.1308685213146
 20
-138.6178737075819
 30
0.0
 41
2.5
 42
2.5
 43
2.5
  0
MTEXT
  5
6C0
330
63B
100
AcDbEntity
  8
0
 62
     4
100
AcDbMText
 10
255.5808685213146
 20
-134.8428737075819
 30
0.0
 40
6.299999999999998
 41
0.0
 71
     5
 72
     1
  1
0.25
  7
高6.3
 73
     1
 44
1.0
1001
ACAD
1000
MTEXTBEGIN
1070
    73
1070
     1
1070
    44
1040
1.0
1070
    74
1070
     0
1000
MTEXTEND
  0
POINT
  5
6C1
330
63B
100
AcDbEntity
  8
Defpoints
 62
     0
100
AcDbPoint
 10
272.5880555754349
 20
-136.7082422855731
 30
0.0
  0
POINT
  5
6C2
330
63B
100
AcDbEntity
  8
Defpoints
 62
     0
100
AcDbPoint
 10
270.1308685213146
 20
-136.7082422855731
 30
0.0
  0
POINT
  5
6C3
330
63B
100
AcDbEntity
  8
Defpoints
 62
     0
100
AcDbPoint
 10
270.1308685213146
 20
-138.6178737075819
 30
0.0
  0
ENDBLK
  5
63D
330
63B
100
AcDbEntity
  8
0
100
AcDbBlockEnd
  0
BLOCK
  5
64A
330
649
100
AcDbEntity
  8
0
100
AcDbBlockBegin
  2
*D6
 70
     1
 10
0.0
 20
0.0
 30
0.0
  3
*D6
  1

  0
LINE
  5
6C4
330
649
100
AcDbEntity
  8
0
 62
     0
370
    -2
100
AcDbLine
 10
274.2261804815081
 20
-142.4143318583354
 30
0.0
 11
274.2261804815081
 21
-144.9602239277988
 31
0.0
  0
LINE
  5
6C5
330
649
100
AcDbEntity
  8
0
 62
     0
370
    -2
100
AcDbLine
 10
271.1319446833652
 20
-142.4143318583354
 30
0.0
 11
271.1319446833652
 21
-144.9602239277988
 31
0.0
  0
LINE
  5
6C6
330
649
100
AcDbEntity
  8
0
 62
     0
370
    -2
100
AcDbLine
 10
276.7261804815081
 20
-143.7102239277987
 30
0.0
 11
279.2261804815081
 21
-143.7102239277987
 31
0.0
  0
LINE
  5
6C7
330
649
100
AcDbEntity
  8
0
 62
     0
370
    -2
100
AcDbLine
 10
268.6319446833652
 20
-143.7102239277987
 30
0.0
 11
256.6319446833652
 21
-143.7102239277987
 31
0.0
  0
LINE
  5
6C8
330
649
100
AcDbEntity
  8
0
 62
     0
370
    -2
100
AcDbLine
 10
274.2261804815081
 20
-143.7102239277987
 30
0.0
 11
271.1319446833652
 21
-143.7102239277987
 31
0.0
  0
INSERT
  5
6C9
330
649
100
AcDbEntity
  8
0
 62
     0
370
    -2
100
AcDbBlockReference
  2
_Open30
 10
274.2261804815081
 20
-143.7102239277987
 30
0.0
 41
2.5
 42
2.5
 43
2.5
 50
180.0
  0
INSERT
  5
6CA
330
649
100
AcDbEntity
  8
0
 62
     0
370
    -2
100
AcDbBlockReference
  2
_Open30
 10
271.1319446833652
 20
-143.7102239277987
 30
0.0
 41
2.5
 42
2.5
 43
2.5
  0
MTEXT
  5
6CB
330
649
100
AcDbEntity
  8
0
 62
     4
100
AcDbMText
 10
261.2569446833652
 20
-141.5852239277987
 30
0.0
 40
3.0
 41
0.0
 71
     5
 72
     1
  1
1.55
 73
     1
 44
1.0
1001
ACAD
1000
MTEXTBEGIN
1070
    73
1070
     1
1070
    44
1040
1.0
1070
    74
1070
     0
1000
MTEXTEND
  0
POINT
  5
6CC
330
649
100
AcDbEntity
  8
Defpoints
 62
     0
100
AcDbPoint
 10
274.2261804815081
 20
-142.1643318583354
 30
0.0
  0
POINT
  5
6CD
330
649
100
AcDbEntity
  8
Defpoints
 62
     0
100
AcDbPoint
 10
271.1319446833652
 20
-142.1643318583354
 30
0.0
  0
POINT
  5
6CE
330
649
100
AcDbEntity
  8
Defpoints
 62
     0
100
AcDbPoint
 10
271.1319446833652
 20
-143.7102239277987
 30
0.0
  0
ENDBLK
  5
64B
330
649
100
AcDbEntity
  8
0
100
AcDbBlockEnd
  0
BLOCK
  5
658
330
657
100
AcDbEntity
  8
0
100
AcDbBlockBegin
  2
*D7
 70
     1
 10
0.0
 20
0.0
 30
0.0
  3
*D7
  1

  0
LINE
  5
6CF
330
657
100
AcDbEntity
  8
0
 62
     0
370
    -2
100
AcDbLine
 10
275.9553120895936
 20
-147.8704215741819
 30
0.0
 11
275.9553120895936
 21
-150.1435092365492
 31
0.0
  0
LINE
  5
6D0
330
657
100
AcDbEntity
  8
0
 62
     0
370
    -2
100
AcDbLine
 10
271.9510071364017
 20
-147.8704215741819
 30
0.0
 11
271.9510071364017
 21
-150.1435092365492
 31
0.0
  0
LINE
  5
6D1
330
657
100
AcDbEntity
  8
0
 62
     0
370
    -2
100
AcDbLine
 10
278.4553120895936
 20
-148.8935092365492
 30
0.0
 11
280.9553120895936
 21
-148.8935092365492
 31
0.0
  0
LINE
  5
6D2
330
657
100
AcDbEntity
  8
0
 62
     0
370
    -2
100
AcDbLine
 10
269.4510071364017
 20
-148.8935092365492
 30
0.0
 11
261.1176738030684
 21
-148.8935092365492
 31
0.0
  0
LINE
  5
6D3
330
657
100
AcDbEntity
  8
0
 62
     0
370
    -2
100
AcDbLine
 10
275.9553120895936
 20
-148.8935092365492
 30
0.0
 11
271.9510071364017
 21
-148.8935092365492
 31
0.0
  0
INSERT
  5
6D4
330
657
100
AcDbEntity
  8
0
 62
     0
370
    -2
100
AcDbBlockReference
  2
_Open30
 10
275.9553120895936
 20
-148.8935092365492
 30
0.0
 41
2.5
 42
2.5
 43
2.5
 50
180.0
  0
INSERT
  5
6D5
330
657
100
AcDbEntity
  8
0
 62
     0
370
    -2
100
AcDbBlockReference
  2
_Open30
 10
271.9510071364017
 20
-148.8935092365492
 30
0.0
 41
2.5
 42
2.5
 43
2.5
  0
MTEXT
  5
6D6
330
657
100
AcDbEntity
  8
0
 62
     4
100
AcDbMText
 10
263.5760071364018
 20
-147.2685092365492
 30
0.0
 40
2.0
 41
0.0
 71
     5
 72
     1
  1
0.8
  7
高2
 73
     1
 44
1.0
1001
ACAD
1000
MTEXTBEGIN
1070
    73
1070
     1
1070
    44
1040
1.0
1070
    74
1070
     0
1000
MTEXTEND
  0
POINT
  5
6D7
330
657
100
AcDbEntity
  8
Defpoints
 62
     0
100
AcDbPoint
 10
275.9553120895936
 20
-147.6204215741819
 30
0.0
  0
POINT
  5
6D8
330
657
100
AcDbEntity
  8
Defpoints
 62
     0
100
AcDbPoint
 10
271.9510071364017
 20
-147.6204215741819
 30
0.0
  0
POINT
  5
6D9
330
657
100
AcDbEntity
  8
Defpoints
 62
     0
100
AcDbPoint
 10
271.9510071364017
 20
-148.8935092365492
 30
0.0
  0
ENDBLK
  5
659
330
657
100
AcDbEntity
  8
0
100
AcDbBlockEnd
  0
BLOCK
  5
666
330
665
100
AcDbEntity
  8
0
100
AcDbBlockBegin
  2
*D8
 70
     1
 10
0.0
 20
0.0
 30
0.0
  3
*D8
  1

  0
LINE
  5
6DA
330
665
100
AcDbEntity
  8
0
 62
     0
370
    -2
100
AcDbLine
 10
275.8643053875813
 20
-153.1446415422135
 30
0.0
 11
275.8643053875813
 21
-154.9630550496699
 31
0.0
  0
LINE
  5
6DB
330
665
100
AcDbEntity
  8
0
 62
     0
370
    -2
100
AcDbLine
 10
271.1319446833652
 20
-153.1446415422135
 30
0.0
 11
271.1319446833652
 21
-154.9630550496699
 31
0.0
  0
LINE
  5
6DC
330
665
100
AcDbEntity
  8
0
 62
     0
370
    -2
100
AcDbLine
 10
278.3643053875813
 20
-153.7130550496699
 30
0.0
 11
280.8643053875814
 21
-153.7130550496699
 31
0.0
  0
LINE
  5
6DD
330
665
100
AcDbEntity
  8
0
 62
     0
370
    -2
100
AcDbLine
 10
268.6319446833652
 20
-153.7130550496699
 30
0.0
 11
253.8819446833652
 21
-153.7130550496699
 31
0.0
  0
LINE
  5
6DE
330
665
100
AcDbEntity
  8
0
 62
     0
370
    -2
100
AcDbLine
 10
275.8643053875813
 20
-153.7130550496699
 30
0.0
 11
271.1319446833652
 21
-153.7130550496699
 31
0.0
  0
INSERT
  5
6DF
330
665
100
AcDbEntity
  8
0
 62
     0
370
    -2
100
AcDbBlockReference
  2
_Open30
 10
275.8643053875813
 20
-153.7130550496699
 30
0.0
 41
2.5
 42
2.5
 43
2.5
 50
180.0
  0
INSERT
  5
6E0
330
665
100
AcDbEntity
  8
0
 62
     0
370
    -2
100
AcDbBlockReference
  2
_Open30
 10
271.1319446833652
 20
-153.7130550496699
 30
0.0
 41
2.5
 42
2.5
 43
2.5
  0
MTEXT
  5
6E1
330
665
100
AcDbEntity
  8
0
 62
     4
100
AcDbMText
 10
260.0069446833652
 20
-151.5880550496699
 30
0.0
 40
3.0
 41
0.0
 71
     5
 72
     1
  1
18.93
 73
     1
 44
1.0
1001
ACAD
1000
MTEXTBEGIN
1070
    73
1070
     1
1070
    44
1040
1.0
1070
    74
1070
     0
1000
MTEXTEND
  0
POINT
  5
6E2
330
665
100
AcDbEntity
  8
Defpoints
 62
     0
100
AcDbPoint
 10
275.8643053875813
 20
-152.8946415422135
 30
0.0
  0
POINT
  5
6E3
330
665
100
AcDbEntity
  8
Defpoints
 62
     0
100
AcDbPoint
 10
271.1319446833652
 20
-152.8946415422135
 30
0.0
  0
POINT
  5
6E4
330
665
100
AcDbEntity
  8
Defpoints
 62
     0
100
AcDbPoint
 10
271.1319446833652
 20
-153.7130550496699
 30
0.0
  0
ENDBLK
  5
667
330
665
100
AcDbEntity
  8
0
100
AcDbBlockEnd
  0
BLOCK
  5
674
330
673
100
AcDbEntity
  8
0
100
AcDbBlockBegin
  2
*D9
 70
     1
 10
0.0
 20
0.0
 30
0.0
  3
*D9
  1

  0
LINE
  5
6E5
330
673
100
AcDbEntity
  8
0
 62
     0
370
    -2
100
AcDbLine
 10
273.059878536443
 20
-158.2004817488033
 30
0.0
 11
273.059878536443
 21
-160.5104028256788
 31
0.0
  0
LINE
  5
6E6
330
673
100
AcDbEntity
  8
0
 62
     0
370
    -2
100
AcDbLine
 10
268.4712033342951
 20
-158.2004817488033
 30
0.0
 11
268.4712033342951
 21
-160.5104028256788
 31
0.0
  0
LINE
  5
6E7
330
673
100
AcDbEntity
  8
0
 62
     0
370
    -2
100
AcDbLine
 10
275.559878536443
 20
-159.2604028256788
 30
0.0
 11
278.059878536443
 21
-159.2604028256788
 31
0.0
  0
LINE
  5
6E8
330
673
100
AcDbEntity
  8
0
 62
     0
370
    -2
100
AcDbLine
 10
265.9712033342951
 20
-159.2604028256788
 30
0.0
 11
251.2212033342951
 21
-159.2604028256788
 31
0.0
  0
LINE
  5
6E9
330
673
100
AcDbEntity
  8
0
 62
     0
370
    -2
100
AcDbLine
 10
273.059878536443
 20
-159.2604028256788
 30
0.0
 11
268.4712033342951
 21
-159.2604028256788
 31
0.0
  0
INSERT
  5
6EA
330
673
100
AcDbEntity
  8
0
 62
     0
370
    -2
100
AcDbBlockReference
  2
_Open30
 10
273.059878536443
 20
-159.2604028256788
 30
0.0
 41
2.5
 42
2.5
 43
2.5
 50
180.0
  0
INSERT
  5
6EB
330
673
100
AcDbEntity
  8
0
 62
     0
370
    -2
100
AcDbBlockReference
  2
_Open30
 10
268.4712033342951
 20
-159.2604028256788
 30
0.0
 41
2.5
 42
2.5
 43
2.5
  0
MTEXT
  5
6EC
330
673
100
AcDbEntity
  8
0
 62
     4
100
AcDbMText
 10
257.3462033342951
 20
-157.1354028256788
 30
0.0
 40
3.0
 41
0.0
 71
     5
 72
     1
  1
13.77
 73
     1
 44
1.0
1001
ACAD
1000
MTEXTBEGIN
1070
    73
1070
     1
1070
    44
1040
1.0
1070
    74
1070
     0
1000
MTEXTEND
  0
POINT
  5
6ED
330
673
100
AcDbEntity
  8
Defpoints
 62
     0
100
AcDbPoint
 10
273.059878536443
 20
-157.9504817488033
 30
0.0
  0
POINT
  5
6EE
330
673
100
AcDbEntity
  8
Defpoints
 62
     0
100
AcDbPoint
 10
268.4712033342951
 20
-157.9504817488033
 30
0.0
  0
POINT
  5
6EF
330
673
100
AcDbEntity
  8
Defpoints
 62
     0
100
AcDbPoint
 10
268.4712033342951
 20
-159.2604028256788
 30
0.0
  0
ENDBLK
  5
675
330
673
100
AcDbEntity
  8
0
100
AcDbBlockEnd
  0
BLOCK
  5
682
330
681
100
AcDbEntity
  8
0
100
AcDbBlockBegin
  2
*D10
 70
     1
 10
0.0
 20
0.0
 30
0.0
  3
*D10
  1

  0
LINE
  5
6F0
330
681
100
AcDbEntity
  8
0
 62
     0
370
    -2
100
AcDbLine
 10
265.9635957032926
 20
-127.2709904305289
 30
0.0
 11
265.9635957032926
 21
-119.8744569525912
 31
0.0
  0
LINE
  5
6F1
330
681
100
AcDbEntity
  8
0
 62
     0
370
    -2
100
AcDbLine
 10
256.0251213338026
 20
-127.2709904305289
 30
0.0
 11
256.0251213338026
 21
-119.8744569525912
 31
0.0
  0
LINE
  5
6F2
330
681
100
AcDbEntity
  8
0
 62
     0
370
    -2
100
AcDbLine
 10
263.4635957032926
 20
-121.1244569525912
 30
0.0
 11
258.5251213338026
 21
-121.1244569525912
 31
0.0
  0
INSERT
  5
6F3
330
681
100
AcDbEntity
  8
0
 62
     0
370
    -2
100
AcDbBlockReference
  2
_Open30
 10
265.9635957032926
 20
-121.1244569525912
 30
0.0
 41
2.5
 42
2.5
 43
2.5
  0
INSERT
  5
6F4
330
681
100
AcDbEntity
  8
0
 62
     0
370
    -2
100
AcDbBlockReference
  2
_Open30
 10
256.0251213338026
 20
-121.1244569525912
 30
0.0
 41
2.5
 42
2.5
 43
2.5
 50
180.0
  0
MTEXT
  5
6F5
330
681
100
AcDbEntity
  8
0
 62
     4
100
AcDbMText
 10
260.9943585185476
 20
-118.0494569525912
 30
0.0
 40
3.0
 41
0.0
 71
     5
 72
     1
  1
9.94\H0.7X;\S+0^ -0.02;
 73
     1
 44
1.0
1001
ACAD
1000
MTEXTBEGIN
1070
    73
1070
     1
1070
    44
1040
1.0
1070
    74
1070
     0
1000
MTEXTEND
  0
POINT
  5
6F6
330
681
100
AcDbEntity
  8
Defpoints
 62
     0
100
AcDbPoint
 10
265.9635957032926
 20
-127.520990430529
 30
0.0
  0
POINT
  5
6F7
330
681
100
AcDbEntity
  8
Defpoints
 62
     0
100
AcDbPoint
 10
256.0251213338026
 20
-127.520990430529
 30
0.0
  0
POINT
  5
6F8
330
681
100
AcDbEntity
  8
Defpoints
 62
     0
100
AcDbPoint
 10
256.0251213338026
 20
-121.1244569525912
 30
0.0
  0
ENDBLK
  5
683
330
681
100
AcDbEntity
  8
0
100
AcDbBlockEnd
  0
BLOCK
  5
897
330
896
100
AcDbEntity
  8
0
100
AcDbBlockBegin
  2
*D11
 70
     1
 10
0.0
 20
0.0
 30
0.0
  3
*D11
  1

  0
LINE
  5
CA0
330
896
100
AcDbEntity
  8
0
 62
     0
370
    -2
100
AcDbLine
 10
37.186014952714
 20
-227.8070155205726
 30
0.0
 11
37.186014952714
 21
-220.3257475205726
 31
0.0
  0
LINE
  5
CA1
330
896
100
AcDbEntity
  8
0
 62
     0
370
    -2
100
AcDbLine
 10
45.186014952714
 20
-227.8070155205726
 30
0.0
 11
45.186014952714
 21
-220.3257475205726
 31
0.0
  0
LINE
  5
CA2
330
896
100
AcDbEntity
  8
0
 62
     0
370
    -2
100
AcDbLine
 10
39.686014952714
 20
-221.5757475205726
 30
0.0
 11
42.686014952714
 21
-221.5757475205726
 31
0.0
  0
INSERT
  5
CA3
330
896
100
AcDbEntity
  8
0
 62
     0
370
    -2
100
AcDbBlockReference
  2
_Open30
 10
37.186014952714
 20
-221.5757475205726
 30
0.0
 41
2.5
 42
2.5
 43
2.5
 50
180.0
  0
INSERT
  5
CA4
330
896
100
AcDbEntity
  8
0
 62
     0
370
    -2
100
AcDbBlockReference
  2
_Open30
 10
45.186014952714
 20
-221.5757475205726
 30
0.0
 41
2.5
 42
2.5
 43
2.5
  0
MTEXT
  5
CA5
330
896
100
AcDbEntity
  8
0
 62
     4
100
AcDbMText
 10
41.186014952714
 20
-219.4507475205726
 30
0.0
 40
3.0
 41
0.0
 71
     5
 72
     1
  1
8
 73
     1
 44
1.0
1001
ACAD
1000
MTEXTBEGIN
1070
    73
1070
     1
1070
    44
1040
1.0
1070
    74
1070
     0
1000
MTEXTEND
  0
POINT
  5
CA6
330
896
100
AcDbEntity
  8
Defpoints
 62
     0
100
AcDbPoint
 10
37.186014952714
 20
-228.0570155205726
 30
0.0
  0
POINT
  5
CA7
330
896
100
AcDbEntity
  8
Defpoints
 62
     0
100
AcDbPoint
 10
45.186014952714
 20
-228.0570155205726
 30
0.0
  0
POINT
  5
CA8
330
896
100
AcDbEntity
  8
Defpoints
 62
     0
100
AcDbPoint
 10
45.186014952714
 20
-221.5757475205726
 30
0.0
  0
ENDBLK
  5
898
330
896
100
AcDbEntity
  8
0
100
AcDbBlockEnd
  0
BLOCK
  5
8A4
330
8A3
100
AcDbEntity
  8
0
100
AcDbBlockBegin
  2
*D12
 70
     1
 10
0.0
 20
0.0
 30
0.0
  3
*D12
  1

  0
LINE
  5
CA9
330
8A3
100
AcDbEntity
  8
0
 62
     0
370
    -2
100
AcDbLine
 10
32.186014952714
 20
-310.8070155205727
 30
0.0
 11
32.186014952714
 21
-333.7456095205725
 31
0.0
  0
LINE
  5
CAA
330
8A3
100
AcDbEntity
  8
0
 62
     0
370
    -2
100
AcDbLine
 10
52.88601495271404
 20
-310.8070155205727
 30
0.0
 11
52.88601495271404
 21
-333.7456095205725
 31
0.0
  0
LINE
  5
CAB
330
8A3
100
AcDbEntity
  8
0
 62
     0
370
    -2
100
AcDbLine
 10
34.686014952714
 20
-332.4956095205725
 30
0.0
 11
50.38601495271404
 21
-332.4956095205725
 31
0.0
  0
INSERT
  5
CAC
330
8A3
100
AcDbEntity
  8
0
 62
     0
370
    -2
100
AcDbBlockReference
  2
_Open30
 10
32.186014952714
 20
-332.4956095205725
 30
0.0
 41
2.5
 42
2.5
 43
2.5
 50
180.0
  0
INSERT
  5
CAD
330
8A3
100
AcDbEntity
  8
0
 62
     0
370
    -2
100
AcDbBlockReference
  2
_Open30
 10
52.88601495271404
 20
-332.4956095205725
 30
0.0
 41
2.5
 42
2.5
 43
2.5
  0
MTEXT
  5
CAE
330
8A3
100
AcDbEntity
  8
0
 62
     4
100
AcDbMText
 10
42.53601495271402
 20
-330.3706095205725
 30
0.0
 40
3.0
 41
0.0
 71
     5
 72
     1
  1
20.7
 73
     1
 44
1.0
1001
ACAD
1000
MTEXTBEGIN
1070
    73
1070
     1
1070
    44
1040
1.0
1070
    74
1070
     0
1000
MTEXTEND
  0
POINT
  5
CAF
330
8A3
100
AcDbEntity
  8
Defpoints
 62
     0
100
AcDbPoint
 10
32.186014952714
 20
-310.5570155205726
 30
0.0
  0
POINT
  5
CB0
330
8A3
100
AcDbEntity
  8
Defpoints
 62
     0
100
AcDbPoint
 10
52.88601495271404
 20
-310.5570155205726
 30
0.0
  0
POINT
  5
CB1
330
8A3
100
AcDbEntity
  8
Defpoints
 62
     0
100
AcDbPoint
 10
52.88601495271404
 20
-332.4956095205725
 30
0.0
  0
ENDBLK
  5
8A5
330
8A3
100
AcDbEntity
  8
0
100
AcDbBlockEnd
  0
BLOCK
  5
8B1
330
8B0
100
AcDbEntity
  8
0
100
AcDbBlockBegin
  2
*D13
 70
     1
 10
0.0
 20
0.0
 30
0.0
  3
*D13
  1

  0
LINE
  5
CB2
330
8B0
100
AcDbEntity
  8
0
 62
     0
370
    -2
100
AcDbLine
 10
31.936014952714
 20
-310.5570155205726
 30
0.0
 11
23.51405495271399
 21
-310.5570155205726
 31
0.0
  0
LINE
  5
CB3
330
8B0
100
AcDbEntity
  8
0
 62
     0
370
    -2
100
AcDbLine
 10
31.936014952714
 20
-283.0570155205726
 30
0.0
 11
23.51405495271399
 21
-283.0570155205726
 31
0.0
  0
LINE
  5
CB4
330
8B0
100
AcDbEntity
  8
0
 62
     0
370
    -2
100
AcDbLine
 10
24.76405495271399
 20
-308.0570155205726
 30
0.0
 11
24.76405495271399
 21
-285.5570155205726
 31
0.0
  0
INSERT
  5
CB5
330
8B0
100
AcDbEntity
  8
0
 62
     0
370
    -2
100
AcDbBlockReference
  2
_Open30
 10
24.76405495271399
 20
-310.5570155205726
 30
0.0
 41
2.5
 42
2.5
 43
2.5
 50
270.0
  0
INSERT
  5
CB6
330
8B0
100
AcDbEntity
  8
0
 62
     0
370
    -2
100
AcDbBlockReference
  2
_Open30
 10
24.76405495271399
 20
-283.0570155205726
 30
0.0
 41
2.5
 42
2.5
 43
2.5
 50
90.0
  0
MTEXT
  5
CB7
330
8B0
100
AcDbEntity
  8
0
 62
     4
100
AcDbMText
 10
22.63905495271404
 20
-296.8070155205726
 30
0.0
 40
3.0
 41
0.0
 71
     5
 72
     1
  1
27.5
 11
0.0000000000000001
 21
1.0
 31
0.0
 73
     1
 44
1.0
1001
ACAD
1000
MTEXTBEGIN
1070
    73
1070
     1
1070
    44
1040
1.0
1070
    74
1070
     0
1000
MTEXTEND
  0
POINT
  5
CB8
330
8B0
100
AcDbEntity
  8
Defpoints
 62
     0
100
AcDbPoint
 10
32.186014952714
 20
-310.5570155205726
 30
0.0
  0
POINT
  5
CB9
330
8B0
100
AcDbEntity
  8
Defpoints
 62
     0
100
AcDbPoint
 10
32.186014952714
 20
-283.0570155205726
 30
0.0
  0
POINT
  5
CBA
330
8B0
100
AcDbEntity
  8
Defpoints
 62
     0
100
AcDbPoint
 10
24.76405495271399
 20
-283.0570155205726
 30
0.0
  0
ENDBLK
  5
8B2
330
8B0
100
AcDbEntity
  8
0
100
AcDbBlockEnd
  0
BLOCK
  5
8BE
330
8BD
100
AcDbEntity
  8
0
100
AcDbBlockBegin
  2
*D14
 70
     1
 10
0.0
 20
0.0
 30
0.0
  3
*D14
  1

  0
LINE
  5
CBB
330
8BD
100
AcDbEntity
  8
0
 62
     0
370
    -2
100
AcDbLine
 10
100.062462952714
 20
-319.0570155205727
 30
0.0
 11
129.179986952714
 21
-319.0570155205727
 31
0.0
  0
LINE
  5
CBC
330
8BD
100
AcDbEntity
  8
0
 62
     0
370
    -2
100
AcDbLine
 10
100.062462952714
 20
-235.5570155205726
 30
0.0
 11
129.179986952714
 21
-235.5570155205726
 31
0.0
  0
LINE
  5
CBD
330
8BD
100
AcDbEntity
  8
0
 62
     0
370
    -2
100
AcDbLine
 10
127.929986952714
 20
-316.5570155205726
 30
0.0
 11
127.929986952714
 21
-238.0570155205726
 31
0.0
  0
INSERT
  5
CBE
330
8BD
100
AcDbEntity
  8
0
 62
     0
370
    -2
100
AcDbBlockReference
  2
_Open30
 10
127.929986952714
 20
-319.0570155205727
 30
0.0
 41
2.5
 42
2.5
 43
2.5
 50
270.0
  0
INSERT
  5
CBF
330
8BD
100
AcDbEntity
  8
0
 62
     0
370
    -2
100
AcDbBlockReference
  2
_Open30
 10
127.929986952714
 20
-235.5570155205726
 30
0.0
 41
2.5
 42
2.5
 43
2.5
 50
90.0
  0
MTEXT
  5
CC0
330
8BD
100
AcDbEntity
  8
0
 62
     4
100
AcDbMText
 10
125.804986952714
 20
-277.3070155205726
 30
0.0
 40
3.0
 41
0.0
 71
     5
 72
     1
  1
83.5
 11
0.0000000000000001
 21
1.0
 31
0.0
 73
     1
 44
1.0
1001
ACAD
1000
MTEXTBEGIN
1070
    73
1070
     1
1070
    44
1040
1.0
1070
    74
1070
     0
1000
MTEXTEND
  0
POINT
  5
CC1
330
8BD
100
AcDbEntity
  8
Defpoints
 62
     0
100
AcDbPoint
 10
99.81246295271398
 20
-319.0570155205727
 30
0.0
  0
POINT
  5
CC2
330
8BD
100
AcDbEntity
  8
Defpoints
 62
     0
100
AcDbPoint
 10
99.81246295271398
 20
-235.5570155205726
 30
0.0
  0
POINT
  5
CC3
330
8BD
100
AcDbEntity
  8
Defpoints
 62
     0
100
AcDbPoint
 10
127.929986952714
 20
-235.5570155205726
 30
0.0
  0
ENDBLK
  5
8BF
330
8BD
100
AcDbEntity
  8
0
100
AcDbBlockEnd
  0
BLOCK
  5
8CB
330
8CA
100
AcDbEntity
  8
0
100
AcDbBlockBegin
  2
*D15
 70
     1
 10
0.0
 20
0.0
 30
0.0
  3
*D15
  1

  0
LINE
  5
CC4
330
8CA
100
AcDbEntity
  8
0
 62
     0
370
    -2
100
AcDbLine
 10
32.186014952714
 20
-243.8070155205726
 30
0.0
 11
32.186014952714
 21
-220.3257475205726
 31
0.0
  0
LINE
  5
CC5
330
8CA
100
AcDbEntity
  8
0
 62
     0
370
    -2
100
AcDbLine
 10
37.186014952714
 20
-227.8070155205726
 30
0.0
 11
37.186014952714
 21
-220.3257475205726
 31
0.0
  0
LINE
  5
CC6
330
8CA
100
AcDbEntity
  8
0
 62
     0
370
    -2
100
AcDbLine
 10
39.686014952714
 20
-221.5757475205726
 30
0.0
 11
42.18601495271399
 21
-221.5757475205726
 31
0.0
  0
LINE
  5
CC7
330
8CA
100
AcDbEntity
  8
0
 62
     0
370
    -2
100
AcDbLine
 10
29.686014952714
 20
-221.5757475205726
 30
0.0
 11
23.936014952714
 21
-221.5757475205726
 31
0.0
  0
LINE
  5
CC8
330
8CA
100
AcDbEntity
  8
0
 62
     0
370
    -2
100
AcDbLine
 10
37.186014952714
 20
-221.5757475205726
 30
0.0
 11
32.186014952714
 21
-221.5757475205726
 31
0.0
  0
INSERT
  5
CC9
330
8CA
100
AcDbEntity
  8
0
 62
     0
370
    -2
100
AcDbBlockReference
  2
_Open30
 10
37.186014952714
 20
-221.5757475205726
 30
0.0
 41
2.5
 42
2.5
 43
2.5
 50
180.0
  0
INSERT
  5
CCA
330
8CA
100
AcDbEntity
  8
0
 62
     0
370
    -2
100
AcDbBlockReference
  2
_Open30
 10
32.186014952714
 20
-221.5757475205726
 30
0.0
 41
2.5
 42
2.5
 43
2.5
  0
MTEXT
  5
CCB
330
8CA
100
AcDbEntity
  8
0
 62
     4
100
AcDbMText
 10
25.561014952714
 20
-219.4507475205726
 30
0.0
 40
3.0
 41
0.0
 71
     5
 72
     1
  1
5
 73
     1
 44
1.0
1001
ACAD
1000
MTEXTBEGIN
1070
    73
1070
     1
1070
    44
1040
1.0
1070
    74
1070
     0
1000
MTEXTEND
  0
POINT
  5
CCC
330
8CA
100
AcDbEntity
  8
Defpoints
 62
     0
100
AcDbPoint
 10
32.186014952714
 20
-244.0570155205726
 30
0.0
  0
POINT
  5
CCD
330
8CA
100
AcDbEntity
  8
Defpoints
 62
     0
100
AcDbPoint
 10
37.186014952714
 20
-228.0570155205726
 30
0.0
  0
POINT
  5
CCE
330
8CA
100
AcDbEntity
  8
Defpoints
 62
     0
100
AcDbPoint
 10
37.186014952714
 20
-221.5757475205726
 30
0.0
  0
ENDBLK
  5
8CC
330
8CA
100
AcDbEntity
  8
0
100
AcDbBlockEnd
  0
BLOCK
  5
8D8
330
8D7
100
AcDbEntity
  8
0
100
AcDbBlockBegin
  2
*D16
 70
     1
 10
0.0
 20
0.0
 30
0.0
  3
*D16
  1

  0
LINE
  5
CCF
330
8D7
100
AcDbEntity
  8
0
 62
     0
370
    -2
100
AcDbLine
 10
-37.36204204728597
 20
-245.8070155205726
 30
0.0
 11
-37.36204204728597
 21
-220.3257475205726
 31
0.0
  0
LINE
  5
CD0
330
8D7
100
AcDbEntity
  8
0
 62
     0
370
    -2
100
AcDbLine
 10
-3.362042047285966
 20
-245.8070155205726
 30
0.0
 11
-3.362042047285965
 21
-220.3257475205726
 31
0.0
  0
LINE
  5
CD1
330
8D7
100
AcDbEntity
  8
0
 62
     0
370
    -2
100
AcDbLine
 10
-34.86204204728597
 20
-221.5757475205726
 30
0.0
 11
-5.862042047285966
 21
-221.5757475205726
 31
0.0
  0
INSERT
  5
CD2
330
8D7
100
AcDbEntity
  8
0
 62
     0
370
    -2
100
AcDbBlockReference
  2
_Open30
 10
-37.36204204728597
 20
-221.5757475205726
 30
0.0
 41
2.5
 42
2.5
 43
2.5
 50
180.0
  0
INSERT
  5
CD3
330
8D7
100
AcDbEntity
  8
0
 62
     0
370
    -2
100
AcDbBlockReference
  2
_Open30
 10
-3.362042047285965
 20
-221.5757475205726
 30
0.0
 41
2.5
 42
2.5
 43
2.5
  0
MTEXT
  5
CD4
330
8D7
100
AcDbEntity
  8
0
 62
     4
100
AcDbMText
 10
-20.36204204728597
 20
-219.4507475205726
 30
0.0
 40
3.0
 41
0.0
 71
     5
 72
     1
  1
34
 73
     1
 44
1.0
1001
ACAD
1000
MTEXTBEGIN
1070
    73
1070
     1
1070
    44
1040
1.0
1070
    74
1070
     0
1000
MTEXTEND
  0
POINT
  5
CD5
330
8D7
100
AcDbEntity
  8
Defpoints
 62
     0
100
AcDbPoint
 10
-37.36204204728597
 20
-246.0570155205726
 30
0.0
  0
POINT
  5
CD6
330
8D7
100
AcDbEntity
  8
Defpoints
 62
     0
100
AcDbPoint
 10
-3.362042047285966
 20
-246.0570155205726
 30
0.0
  0
POINT
  5
CD7
330
8D7
100
AcDbEntity
  8
Defpoints
 62
     0
100
AcDbPoint
 10
-3.362042047285965
 20
-221.5757475205726
 30
0.0
  0
ENDBLK
  5
8D9
330
8D7
100
AcDbEntity
  8
0
100
AcDbBlockEnd
  0
BLOCK
  5
8E5
330
8E4
100
AcDbEntity
  8
0
100
AcDbBlockBegin
  2
*D17
 70
     1
 10
0.0
 20
0.0
 30
0.0
  3
*D17
  1

  0
LINE
  5
CD8
330
8E4
100
AcDbEntity
  8
0
 62
     0
370
    -2
100
AcDbLine
 10
92.31246295271398
 20
-235.3070155205726
 30
0.0
 11
92.31246295271398
 21
-220.3257475205726
 31
0.0
  0
LINE
  5
CD9
330
8E4
100
AcDbEntity
  8
0
 62
     0
370
    -2
100
AcDbLine
 10
107.312462952714
 20
-235.3070155205726
 30
0.0
 11
107.312462952714
 21
-220.3257475205726
 31
0.0
  0
LINE
  5
CDA
330
8E4
100
AcDbEntity
  8
0
 62
     0
370
    -2
100
AcDbLine
 10
94.81246295271398
 20
-221.5757475205726
 30
0.0
 11
104.812462952714
 21
-221.5757475205726
 31
0.0
  0
INSERT
  5
CDB
330
8E4
100
AcDbEntity
  8
0
 62
     0
370
    -2
100
AcDbBlockReference
  2
_Open30
 10
92.31246295271398
 20
-221.5757475205726
 30
0.0
 41
2.5
 42
2.5
 43
2.5
 50
180.0
  0
INSERT
  5
CDC
330
8E4
100
AcDbEntity
  8
0
 62
     0
370
    -2
100
AcDbBlockReference
  2
_Open30
 10
107.312462952714
 20
-221.5757475205726
 30
0.0
 41
2.5
 42
2.5
 43
2.5
  0
MTEXT
  5
CDD
330
8E4
100
AcDbEntity
  8
0
 62
     4
100
AcDbMText
 10
99.81246295271398
 20
-219.4507475205726
 30
0.0
 40
3.0
 41
0.0
 71
     5
 72
     1
  1
15
 73
     1
 44
1.0
1001
ACAD
1000
MTEXTBEGIN
1070
    73
1070
     1
1070
    44
1040
1.0
1070
    74
1070
     0
1000
MTEXTEND
  0
POINT
  5
CDE
330
8E4
100
AcDbEntity
  8
Defpoints
 62
     0
100
AcDbPoint
 10
92.31246295271398
 20
-235.5570155205726
 30
0.0
  0
POINT
  5
CDF
330
8E4
100
AcDbEntity
  8
Defpoints
 62
     0
100
AcDbPoint
 10
107.312462952714
 20
-235.5570155205726
 30
0.0
  0
POINT
  5
CE0
330
8E4
100
AcDbEntity
  8
Defpoints
 62
     0
100
AcDbPoint
 10
107.312462952714
 20
-221.5757475205726
 30
0.0
  0
ENDBLK
  5
8E6
330
8E4
100
AcDbEntity
  8
0
100
AcDbBlockEnd
  0
BLOCK
  5
8F2
330
8F1
100
AcDbEntity
  8
0
100
AcDbBlockBegin
  2
*D18
 70
     1
 10
0.0
 20
0.0
 30
0.0
  3
*D18
  1

  0
LINE
  5
CE1
330
8F1
100
AcDbEntity
  8
0
 62
     0
370
    -2
100
AcDbLine
 10
-20.61204204728597
 20
-326.5570155205726
 30
0.0
 11
-56.27213504728606
 21
-326.5570155205726
 31
0.0
  0
LINE
  5
CE2
330
8F1
100
AcDbEntity
  8
0
 62
     0
370
    -2
100
AcDbLine
 10
-20.61204204728597
 20
-228.0570155205726
 30
0.0
 11
-56.27213504728604
 21
-228.0570155205726
 31
0.0
  0
LINE
  5
CE3
330
8F1
100
AcDbEntity
  8
0
 62
     0
370
    -2
100
AcDbLine
 10
-55.02213504728606
 20
-324.0570155205726
 30
0.0
 11
-55.02213504728604
 21
-230.5570155205726
 31
0.0
  0
INSERT
  5
CE4
330
8F1
100
AcDbEntity
  8
0
 62
     0
370
    -2
100
AcDbBlockReference
  2
_Open30
 10
-55.02213504728606
 20
-326.5570155205726
 30
0.0
 41
2.5
 42
2.5
 43
2.5
 50
270.0
  0
INSERT
  5
CE5
330
8F1
100
AcDbEntity
  8
0
 62
     0
370
    -2
100
AcDbBlockReference
  2
_Open30
 10
-55.02213504728604
 20
-228.0570155205726
 30
0.0
 41
2.5
 42
2.5
 43
2.5
 50
90.0
  0
MTEXT
  5
CE6
330
8F1
100
AcDbEntity
  8
0
 62
     4
100
AcDbMText
 10
-57.147135047286
 20
-277.3070155205726
 30
0.0
 40
3.0
 41
0.0
 71
     5
 72
     1
  1
98.5
 11
0.0000000000000001
 21
1.0
 31
0.0
 73
     1
 44
1.0
1001
ACAD
1000
MTEXTBEGIN
1070
    73
1070
     1
1070
    44
1040
1.0
1070
    74
1070
     0
1000
MTEXTEND
  0
POINT
  5
CE7
330
8F1
100
AcDbEntity
  8
Defpoints
 62
     0
100
AcDbPoint
 10
-20.36204204728597
 20
-326.5570155205726
 30
0.0
  0
POINT
  5
CE8
330
8F1
100
AcDbEntity
  8
Defpoints
 62
     0
100
AcDbPoint
 10
-20.36204204728597
 20
-228.0570155205726
 30
0.0
  0
POINT
  5
CE9
330
8F1
100
AcDbEntity
  8
Defpoints
 62
     0
100
AcDbPoint
 10
-55.02213504728604
 20
-228.0570155205726
 30
0.0
  0
ENDBLK
  5
8F3
330
8F1
100
AcDbEntity
  8
0
100
AcDbBlockEnd
  0
BLOCK
  5
8FF
330
8FE
100
AcDbEntity
  8
0
100
AcDbBlockBegin
  2
*D19
 70
     1
 10
0.0
 20
0.0
 30
0.0
  3
*D19
  1

  0
LINE
  5
CEA
330
8FE
100
AcDbEntity
  8
0
 62
     0
370
    -2
100
AcDbLine
 10
-35.61204204728597
 20
-310.5570155205726
 30
0.0
 11
-48.62642804728604
 21
-310.5570155205726
 31
0.0
  0
LINE
  5
CEB
330
8FE
100
AcDbEntity
  8
0
 62
     0
370
    -2
100
AcDbLine
 10
-35.61204204728597
 20
-244.0570155205726
 30
0.0
 11
-48.62642804728602
 21
-244.0570155205726
 31
0.0
  0
LINE
  5
CEC
330
8FE
100
AcDbEntity
  8
0
 62
     0
370
    -2
100
AcDbLine
 10
-47.37642804728603
 20
-308.0570155205726
 30
0.0
 11
-47.37642804728602
 21
-246.5570155205726
 31
0.0
  0
INSERT
  5
CED
330
8FE
100
AcDbEntity
  8
0
 62
     0
370
    -2
100
AcDbBlockReference
  2
_Open30
 10
-47.37642804728603
 20
-310.5570155205726
 30
0.0
 41
2.5
 42
2.5
 43
2.5
 50
270.0
  0
INSERT
  5
CEE
330
8FE
100
AcDbEntity
  8
0
 62
     0
370
    -2
100
AcDbBlockReference
  2
_Open30
 10
-47.37642804728602
 20
-244.0570155205726
 30
0.0
 41
2.5
 42
2.5
 43
2.5
 50
90.0
  0
MTEXT
  5
CEF
330
8FE
100
AcDbEntity
  8
0
 62
     4
100
AcDbMText
 10
-49.50142804728598
 20
-277.3070155205726
 30
0.0
 40
3.0
 41
0.0
 71
     5
 72
     1
  1
66.5
 11
0.0000000000000001
 21
1.0
 31
0.0
 73
     1
 44
1.0
1001
ACAD
1000
MTEXTBEGIN
1070
    73
1070
     1
1070
    44
1040
1.0
1070
    74
1070
     0
1000
MTEXTEND
  0
POINT
  5
CF0
330
8FE
100
AcDbEntity
  8
Defpoints
 62
     0
100
AcDbPoint
 10
-35.36204204728597
 20
-310.5570155205726
 30
0.0
  0
POINT
  5
CF1
330
8FE
100
AcDbEntity
  8
Defpoints
 62
     0
100
AcDbPoint
 10
-35.36204204728597
 20
-244.0570155205726
 30
0.0
  0
POINT
  5
CF2
330
8FE
100
AcDbEntity
  8
Defpoints
 62
     0
100
AcDbPoint
 10
-47.37642804728602
 20
-244.0570155205726
 30
0.0
  0
ENDBLK
  5
900
330
8FE
100
AcDbEntity
  8
0
100
AcDbBlockEnd
  0
BLOCK
  5
90C
330
90B
100
AcDbEntity
  8
0
100
AcDbBlockBegin
  2
*D20
 70
     1
 10
0.0
 20
0.0
 30
0.0
  3
*D20
  1

  0
LINE
  5
CF3
330
90B
100
AcDbEntity
  8
0
 62
     0
370
    -2
100
AcDbLine
 10
31.936014952714
 20
-271.5570155205726
 30
0.0
 11
23.51405495271398
 21
-271.5570155205726
 31
0.0
  0
LINE
  5
CF4
330
90B
100
AcDbEntity
  8
0
 62
     0
370
    -2
100
AcDbLine
 10
31.936014952714
 20
-244.0570155205726
 30
0.0
 11
23.51405495271399
 21
-244.0570155205726
 31
0.0
  0
LINE
  5
CF5
330
90B
100
AcDbEntity
  8
0
 62
     0
370
    -2
100
AcDbLine
 10
24.76405495271399
 20
-269.0570155205726
 30
0.0
 11
24.76405495271399
 21
-246.5570155205726
 31
0.0
  0
INSERT
  5
CF6
330
90B
100
AcDbEntity
  8
0
 62
     0
370
    -2
100
AcDbBlockReference
  2
_Open30
 10
24.76405495271399
 20
-271.5570155205726
 30
0.0
 41
2.5
 42
2.5
 43
2.5
 50
270.0
  0
INSERT
  5
CF7
330
90B
100
AcDbEntity
  8
0
 62
     0
370
    -2
100
AcDbBlockReference
  2
_Open30
 10
24.76405495271399
 20
-244.0570155205726
 30
0.0
 41
2.5
 42
2.5
 43
2.5
 50
90.0
  0
MTEXT
  5
CF8
330
90B
100
AcDbEntity
  8
0
 62
     4
100
AcDbMText
 10
22.63905495271403
 20
-257.8070155205726
 30
0.0
 40
3.0
 41
0.0
 71
     5
 72
     1
  1
27.5
 11
0.0000000000000001
 21
1.0
 31
0.0
 73
     1
 44
1.0
1001
ACAD
1000
MTEXTBEGIN
1070
    73
1070
     1
1070
    44
1040
1.0
1070
    74
1070
     0
1000
MTEXTEND
  0
POINT
  5
CF9
330
90B
100
AcDbEntity
  8
Defpoints
 62
     0
100
AcDbPoint
 10
32.186014952714
 20
-271.5570155205726
 30
0.0
  0
POINT
  5
CFA
330
90B
100
AcDbEntity
  8
Defpoints
 62
     0
100
AcDbPoint
 10
32.186014952714
 20
-244.0570155205726
 30
0.0
  0
POINT
  5
CFB
330
90B
100
AcDbEntity
  8
Defpoints
 62
     0
100
AcDbPoint
 10
24.76405495271399
 20
-244.0570155205726
 30
0.0
  0
ENDBLK
  5
90D
330
90B
100
AcDbEntity
  8
0
100
AcDbBlockEnd
  0
ENDSEC
  0
SECTION
  2
ENTITIES
  0
LINE
  5
3B0
330
6B
100
AcDbEntity
  8
0
 62
     3
100
AcDbLine
 10
178.9865131722126
 20
-345.2172340313176
 30
0.0
 11
178.9865131722126
 21
-339.2172340313176
 31
0.0
  0
LINE
  5
3B1
330
6B
100
AcDbEntity
  8
0
 62
     3
100
AcDbLine
 10
152.9865131722126
 20
-345.2172340313176
 30
0.0
 11
152.9865131722126
 21
-339.2172340313176
 31
0.0
  0
LINE
  5
3B2
330
6B
100
AcDbEntity
  8
0
 62
     3
100
AcDbLine
 10
204.9865131722127
 20
-339.2172340313176
 30
0.0
 11
152.9865131722126
 21
-339.2172340313176
 31
0.0
  0
TEXT
  5
3BD
330
6B
100
AcDbEntity
  8
0
 62
     3
100
AcDbText
 10
158.2937036765652
 20
-344.5360710313176
 30
0.0
 40
4.5
  1
コード
  7
高4.5
100
AcDbText
  0
TEXT
  5
3F6
330
6B
100
AcDbEntity
  8
0
 62
     3
100
AcDbText
 10
181.6523091722126
 20
-344.5360710313176
 30
0.0
 40
4.5
  1
51430
  7
高4.5
100
AcDbText
  0
LINE
  5
703
330
6B
100
AcDbEntity
  8
0
 62
     3
100
AcDbLine
 10
96.812462952714
 20
-258.3070155205726
 30
0.0
 11
96.812462952714
 21
-260.3070155205726
 31
0.0
  0
LINE
  5
704
330
6B
100
AcDbEntity
  8
0
 62
     3
100
AcDbLine
 10
82.71246295271408
 20
-277.3070155205726
 30
0.0
 11
82.71246295271408
 21
-276.0570155205726
 31
0.0
  0
ARC
  5
705
330
6B
100
AcDbEntity
  8
0
 62
     3
100
AcDbCircle
 10
83.01246295271402
 20
-276.0570155205726
 30
0.0
 40
0.3
100
AcDbArc
 50
90.0
 51
180.0
  0
LINE
  5
706
330
6B
100
AcDbEntity
  8
0
 62
     3
100
AcDbLine
 10
83.01246295271402
 20
-275.7570155205726
 30
0.0
 11
83.81246295271399
 21
-275.7570155205726
 31
0.0
  0
LINE
  5
707
330
6B
100
AcDbEntity
  8
0
 62
     3
100
AcDbLine
 10
116.912462952714
 20
-277.3070155205726
 30
0.0
 11
116.912462952714
 21
-276.0570155205726
 31
0.0
  0
ARC
  5
708
330
6B
100
AcDbEntity
  8
0
 62
     3
100
AcDbCircle
 10
116.612462952714
 20
-276.0570155205726
 30
0.0
 40
0.3
100
AcDbArc
 50
0.0
 51
90.0
  0
LINE
  5
709
330
6B
100
AcDbEntity
  8
0
 62
     3
100
AcDbLine
 10
116.612462952714
 20
-275.7570155205726
 30
0.0
 11
115.812462952714
 21
-275.7570155205726
 31
0.0
  0
ARC
  5
70A
330
6B
100
AcDbEntity
  8
0
 62
     3
100
AcDbCircle
 10
-20.36204204728597
 20
-296.8070155205726
 30
0.0
 40
16.75
100
AcDbArc
 50
304.8254599999996
 51
55.17454000000036
  0
ARC
  5
70B
330
6B
100
AcDbEntity
  8
0
 62
     3
100
AcDbCircle
 10
-20.36204204728597
 20
-296.8070155205726
 30
0.0
 40
16.75
100
AcDbArc
 50
124.8254599999996
 51
235.1745400000003
  0
LINE
  5
70C
330
6B
100
AcDbEntity
  8
0
 62
     7
100
AcDbLine
 10
-25.11204204728597
 20
-301.6570155205725
 30
0.0
 11
-28.31204204728602
 21
-301.6570155205725
 31
0.0
  0
LINE
  5
70D
330
6B
100
AcDbEntity
  8
0
 62
     7
100
AcDbLine
 10
-28.31204204728602
 20
-301.6570155205725
 30
0.0
 11
-28.31204204728602
 21
-291.9570155205725
 31
0.0
  0
LINE
  5
70E
330
6B
100
AcDbEntity
  8
0
 62
     7
100
AcDbLine
 10
-25.11204204728597
 20
-252.9570155205726
 30
0.0
 11
-25.11204204728597
 21
-262.6570155205726
 31
0.0
  0
LINE
  5
70F
330
6B
100
AcDbEntity
  8
0
 62
     7
100
AcDbLine
 10
-28.31204204728602
 20
-252.9570155205726
 30
0.0
 11
-28.31204204728602
 21
-262.6570155205726
 31
0.0
  0
LINE
  5
710
330
6B
100
AcDbEntity
  8
0
 62
     7
100
AcDbLine
 10
-25.11204204728597
 20
-262.6570155205726
 30
0.0
 11
-28.31204204728602
 21
-262.6570155205726
 31
0.0
  0
LINE
  5
711
330
6B
100
AcDbEntity
  8
0
 62
     7
100
AcDbLine
 10
-25.11204204728597
 20
-252.9570155205726
 30
0.0
 11
-28.31204204728602
 21
-252.9570155205726
 31
0.0
  0
LINE
  5
712
330
6B
100
AcDbEntity
  8
0
 62
     3
100
AcDbLine
 10
-30.36204204728597
 20
-303.3070155205726
 30
0.0
 11
-30.36204204728597
 21
-290.3070155205726
 31
0.0
  0
LINE
  5
713
330
6B
100
AcDbEntity
  8
0
 62
     3
100
AcDbLine
 10
-23.06204204728601
 20
-290.3070155205726
 30
0.0
 11
-23.06204204728601
 21
-303.3070155205726
 31
0.0
  0
LINE
  5
714
330
6B
100
AcDbEntity
  8
0
 62
     3
100
AcDbLine
 10
-24.06204204728601
 20
-289.3070155205726
 30
0.0
 11
-29.36204204728597
 21
-289.3070155205726
 31
0.0
  0
LINE
  5
715
330
6B
100
AcDbEntity
  8
0
 62
     3
100
AcDbLine
 10
-24.06204204728601
 20
-304.3070155205726
 30
0.0
 11
-29.36204204728597
 21
-304.3070155205726
 31
0.0
  0
ARC
  5
716
330
6B
100
AcDbEntity
  8
0
 62
     3
100
AcDbCircle
 10
-29.36204204728597
 20
-290.3070155205726
 30
0.0
 40
1.0
100
AcDbArc
 50
90.0
 51
180.0
  0
ARC
  5
717
330
6B
100
AcDbEntity
  8
0
 62
     3
100
AcDbCircle
 10
-29.36204204728597
 20
-303.3070155205726
 30
0.0
 40
1.0
100
AcDbArc
 50
180.0
 51
270.0
  0
ARC
  5
718
330
6B
100
AcDbEntity
  8
0
 62
     3
100
AcDbCircle
 10
-24.06204204728601
 20
-303.3070155205726
 30
0.0
 40
1.0
100
AcDbArc
 50
270.0
 51
0.0
  0
ARC
  5
719
330
6B
100
AcDbEntity
  8
0
 62
     3
100
AcDbCircle
 10
-24.06204204728601
 20
-290.3070155205726
 30
0.0
 40
1.0
100
AcDbArc
 50
0.0
 51
90.0
  0
LINE
  5
71A
330
6B
100
AcDbEntity
  8
0
 62
     3
100
AcDbLine
 10
-10.36204204728597
 20
-303.3070155205726
 30
0.0
 11
-10.36204204728597
 21
-290.3070155205726
 31
0.0
  0
LINE
  5
71B
330
6B
100
AcDbEntity
  8
0
 62
     3
100
AcDbLine
 10
-17.66204204728603
 20
-290.3070155205726
 30
0.0
 11
-17.66204204728603
 21
-303.3070155205726
 31
0.0
  0
LINE
  5
71C
330
6B
100
AcDbEntity
  8
0
 62
     3
100
AcDbLine
 10
-16.66204204728603
 20
-289.3070155205726
 30
0.0
 11
-11.36204204728596
 21
-289.3070155205726
 31
0.0
  0
ARC
  5
71D
330
6B
100
AcDbEntity
  8
0
 62
     3
100
AcDbCircle
 10
-11.36204204728596
 20
-290.3070155205726
 30
0.0
 40
1.0
100
AcDbArc
 50
0.0
 51
90.0
  0
ARC
  5
71E
330
6B
100
AcDbEntity
  8
0
 62
     3
100
AcDbCircle
 10
-16.66204204728603
 20
-290.3070155205726
 30
0.0
 40
1.0
100
AcDbArc
 50
90.0
 51
180.0
  0
ARC
  5
71F
330
6B
100
AcDbEntity
  8
0
 62
     3
100
AcDbCircle
 10
-16.66204204728603
 20
-303.3070155205726
 30
0.0
 40
1.0
100
AcDbArc
 50
180.0
 51
270.0
  0
LINE
  5
720
330
6B
100
AcDbEntity
  8
0
 62
     3
100
AcDbLine
 10
-16.66204204728603
 20
-304.3070155205726
 30
0.0
 11
-11.36204204728596
 21
-304.3070155205726
 31
0.0
  0
ARC
  5
721
330
6B
100
AcDbEntity
  8
0
 62
     3
100
AcDbCircle
 10
-11.36204204728596
 20
-303.3070155205726
 30
0.0
 40
1.0
100
AcDbArc
 50
270.0
 51
0.0
  0
LINE
  5
722
330
6B
100
AcDbEntity
  8
0
 62
     3
100
AcDbLine
 10
-10.36204204728597
 20
-251.3070155205726
 30
0.0
 11
-10.36204204728597
 21
-264.3070155205726
 31
0.0
  0
LINE
  5
723
330
6B
100
AcDbEntity
  8
0
 62
     3
100
AcDbLine
 10
-17.66204204728603
 20
-264.3070155205726
 30
0.0
 11
-17.66204204728603
 21
-251.3070155205726
 31
0.0
  0
LINE
  5
724
330
6B
100
AcDbEntity
  8
0
 62
     3
100
AcDbLine
 10
-16.66204204728603
 20
-265.3070155205726
 30
0.0
 11
-11.36204204728596
 21
-265.3070155205726
 31
0.0
  0
ARC
  5
725
330
6B
100
AcDbEntity
  8
0
 62
     3
100
AcDbCircle
 10
-11.36204204728596
 20
-264.3070155205726
 30
0.0
 40
1.0
100
AcDbArc
 50
270.0
 51
0.0
  0
ARC
  5
726
330
6B
100
AcDbEntity
  8
0
 62
     3
100
AcDbCircle
 10
-16.66204204728603
 20
-264.3070155205726
 30
0.0
 40
1.0
100
AcDbArc
 50
180.0
 51
270.0
  0
ARC
  5
727
330
6B
100
AcDbEntity
  8
0
 62
     3
100
AcDbCircle
 10
-16.66204204728603
 20
-251.3070155205726
 30
0.0
 40
1.0
100
AcDbArc
 50
90.0
 51
180.0
  0
LINE
  5
728
330
6B
100
AcDbEntity
  8
0
 62
     3
100
AcDbLine
 10
-16.66204204728603
 20
-250.3070155205726
 30
0.0
 11
-11.36204204728596
 21
-250.3070155205726
 31
0.0
  0
ARC
  5
729
330
6B
100
AcDbEntity
  8
0
 62
     3
100
AcDbCircle
 10
-11.36204204728596
 20
-251.3070155205726
 30
0.0
 40
1.0
100
AcDbArc
 50
0.0
 51
90.0
  0
LINE
  5
72A
330
6B
100
AcDbEntity
  8
0
 62
     3
100
AcDbLine
 10
-30.36204204728597
 20
-251.3070155205726
 30
0.0
 11
-30.36204204728597
 21
-264.3070155205726
 31
0.0
  0
LINE
  5
72B
330
6B
100
AcDbEntity
  8
0
 62
     3
100
AcDbLine
 10
-23.06204204728601
 20
-264.3070155205726
 30
0.0
 11
-23.06204204728601
 21
-251.3070155205726
 31
0.0
  0
LINE
  5
72C
330
6B
100
AcDbEntity
  8
0
 62
     3
100
AcDbLine
 10
-24.06204204728601
 20
-265.3070155205726
 30
0.0
 11
-29.36204204728597
 21
-265.3070155205726
 31
0.0
  0
ARC
  5
72D
330
6B
100
AcDbEntity
  8
0
 62
     3
100
AcDbCircle
 10
-29.36204204728597
 20
-264.3070155205726
 30
0.0
 40
1.0
100
AcDbArc
 50
180.0
 51
270.0
  0
ARC
  5
72E
330
6B
100
AcDbEntity
  8
0
 62
     3
100
AcDbCircle
 10
-24.06204204728601
 20
-264.3070155205726
 30
0.0
 40
1.0
100
AcDbArc
 50
270.0
 51
0.0
  0
ARC
  5
72F
330
6B
100
AcDbEntity
  8
0
 62
     3
100
AcDbCircle
 10
-24.06204204728601
 20
-251.3070155205726
 30
0.0
 40
1.0
100
AcDbArc
 50
0.0
 51
90.0
  0
LINE
  5
730
330
6B
100
AcDbEntity
  8
0
 62
     3
100
AcDbLine
 10
-24.06204204728601
 20
-250.3070155205726
 30
0.0
 11
-29.36204204728597
 21
-250.3070155205726
 31
0.0
  0
ARC
  5
731
330
6B
100
AcDbEntity
  8
0
 62
     3
100
AcDbCircle
 10
-29.36204204728597
 20
-251.3070155205726
 30
0.0
 40
1.0
100
AcDbArc
 50
90.0
 51
180.0
  0
LINE
  5
732
330
6B
100
AcDbEntity
  8
0
 62
     7
100
AcDbLine
 10
-12.41204204728603
 20
-292.8070155205726
 30
0.0
 11
-12.41204204728603
 21
-300.8070155205726
 31
0.0
  0
LINE
  5
733
330
6B
100
AcDbEntity
  8
0
 62
     7
100
AcDbLine
 10
-15.61204204728596
 20
-261.8070155205726
 30
0.0
 11
-12.41204204728603
 21
-261.8070155205726
 31
0.0
  0
LINE
  5
734
330
6B
100
AcDbEntity
  8
0
 62
     7
100
AcDbLine
 10
-15.61204204728596
 20
-253.8070155205726
 30
0.0
 11
-15.61204204728596
 21
-261.8070155205726
 31
0.0
  0
LINE
  5
735
330
6B
100
AcDbEntity
  8
0
 62
     7
100
AcDbLine
 10
-12.41204204728603
 20
-261.8070155205726
 30
0.0
 11
-12.41204204728603
 21
-253.8070155205726
 31
0.0
  0
LINE
  5
736
330
6B
100
AcDbEntity
  8
0
 62
     7
100
AcDbLine
 10
-15.61204204728596
 20
-253.8070155205726
 30
0.0
 11
-12.41204204728603
 21
-253.8070155205726
 31
0.0
  0
LINE
  5
737
330
6B
100
AcDbEntity
  8
0
 62
     3
100
AcDbLine
 10
-12.86204204728597
 20
-242.0570155205726
 30
0.0
 11
-27.86204204728597
 21
-242.0570155205726
 31
0.0
  0
LINE
  5
738
330
6B
100
AcDbEntity
  8
0
 62
     3
100
AcDbLine
 10
-12.86204204728597
 20
-312.5570155205726
 30
0.0
 11
-27.86204204728597
 21
-312.5570155205726
 31
0.0
  0
ARC
  5
739
330
6B
100
AcDbEntity
  8
0
 62
     3
100
AcDbCircle
 10
-35.36204204728597
 20
-246.0570155205726
 30
0.0
 40
2.0
100
AcDbArc
 50
90.0
 51
180.0
  0
LINE
  5
73A
330
6B
100
AcDbEntity
  8
0
 62
     3
100
AcDbLine
 10
-5.362042047285966
 20
-310.5570155205726
 30
0.0
 11
-35.36204204728597
 21
-310.5570155205726
 31
0.0
  0
ARC
  5
73B
330
6B
100
AcDbEntity
  8
0
 62
     3
100
AcDbCircle
 10
-5.362042047285966
 20
-308.5570155205726
 30
0.0
 40
2.0
100
AcDbArc
 50
270.0
 51
0.0
  0
LINE
  5
73C
330
6B
100
AcDbEntity
  8
0
 62
     3
100
AcDbLine
 10
-12.86204204728597
 20
-241.5570155205726
 30
0.0
 11
-12.86204204728597
 21
-244.0570155205726
 31
0.0
  0
LINE
  5
73D
330
6B
100
AcDbEntity
  8
0
 62
     3
100
AcDbLine
 10
-27.86204204728597
 20
-241.5570155205726
 30
0.0
 11
-12.86204204728597
 21
-241.5570155205726
 31
0.0
  0
LINE
  5
73E
330
6B
100
AcDbEntity
  8
0
 62
     3
100
AcDbLine
 10
-27.86204204728597
 20
-241.5570155205726
 30
0.0
 11
-27.86204204728597
 21
-244.0570155205726
 31
0.0
  0
LINE
  5
73F
330
6B
100
AcDbEntity
  8
0
 62
     3
100
AcDbLine
 10
-15.11204204728597
 20
-293.3070155205726
 30
0.0
 11
-15.11204204728597
 21
-300.3070155205727
 31
0.0
  0
LINE
  5
740
330
6B
100
AcDbEntity
  8
0
 62
     3
100
AcDbLine
 10
-12.91204204728603
 20
-293.3070155205726
 30
0.0
 11
-15.11204204728597
 21
-293.3070155205726
 31
0.0
  0
LINE
  5
741
330
6B
100
AcDbEntity
  8
0
 62
     3
100
AcDbLine
 10
-12.91204204728603
 20
-300.3070155205727
 30
0.0
 11
-15.11204204728597
 21
-300.3070155205727
 31
0.0
  0
LINE
  5
742
330
6B
100
AcDbEntity
  8
0
 62
     3
100
AcDbLine
 10
-12.91204204728603
 20
-300.3070155205727
 30
0.0
 11
-12.91204204728603
 21
-293.3070155205726
 31
0.0
  0
LINE
  5
743
330
6B
100
AcDbEntity
  8
0
 62
     3
100
AcDbLine
 10
-25.61204204728597
 20
-292.4570155205726
 30
0.0
 11
-27.81204204728601
 21
-292.4570155205726
 31
0.0
  0
LINE
  5
744
330
6B
100
AcDbEntity
  8
0
 62
     3
100
AcDbLine
 10
-27.81204204728601
 20
-292.4570155205726
 30
0.0
 11
-27.81204204728601
 21
-301.1570155205725
 31
0.0
  0
LINE
  5
745
330
6B
100
AcDbEntity
  8
0
 62
     3
100
AcDbLine
 10
-25.61204204728597
 20
-301.1570155205725
 30
0.0
 11
-25.61204204728597
 21
-292.4570155205726
 31
0.0
  0
LINE
  5
746
330
6B
100
AcDbEntity
  8
0
 62
     3
100
AcDbLine
 10
-25.61204204728597
 20
-301.1570155205725
 30
0.0
 11
-27.81204204728601
 21
-301.1570155205725
 31
0.0
  0
LINE
  5
747
330
6B
100
AcDbEntity
  8
0
 62
     3
100
AcDbLine
 10
-25.61204204728597
 20
-253.4570155205726
 30
0.0
 11
-27.81204204728601
 21
-253.4570155205726
 31
0.0
  0
LINE
  5
748
330
6B
100
AcDbEntity
  8
0
 62
     3
100
AcDbLine
 10
-27.81204204728601
 20
-262.1570155205725
 30
0.0
 11
-27.81204204728601
 21
-253.4570155205726
 31
0.0
  0
LINE
  5
749
330
6B
100
AcDbEntity
  8
0
 62
     3
100
AcDbLine
 10
-25.61204204728597
 20
-253.4570155205726
 30
0.0
 11
-25.61204204728597
 21
-262.1570155205725
 31
0.0
  0
LINE
  5
74A
330
6B
100
AcDbEntity
  8
0
 62
     3
100
AcDbLine
 10
-25.61204204728597
 20
-262.1570155205725
 30
0.0
 11
-27.81204204728601
 21
-262.1570155205725
 31
0.0
  0
LINE
  5
74B
330
6B
100
AcDbEntity
  8
0
 62
     3
100
AcDbLine
 10
-12.91204204728603
 20
-261.3070155205726
 30
0.0
 11
-15.11204204728597
 21
-261.3070155205726
 31
0.0
  0
LINE
  5
74C
330
6B
100
AcDbEntity
  8
0
 62
     3
100
AcDbLine
 10
-15.11204204728597
 20
-261.3070155205726
 30
0.0
 11
-15.11204204728597
 21
-254.3070155205726
 31
0.0
  0
LINE
  5
74D
330
6B
100
AcDbEntity
  8
0
 62
     3
100
AcDbLine
 10
-12.91204204728603
 20
-254.3070155205726
 30
0.0
 11
-12.91204204728603
 21
-261.3070155205726
 31
0.0
  0
LINE
  5
74E
330
6B
100
AcDbEntity
  8
0
 62
     3
100
AcDbLine
 10
-12.91204204728603
 20
-254.3070155205726
 30
0.0
 11
-15.11204204728597
 21
-254.3070155205726
 31
0.0
  0
CIRCLE
  5
74F
330
6B
100
AcDbEntity
  8
0
 62
     3
100
AcDbCircle
 10
-20.36204204728597
 20
-277.3070155205726
 30
0.0
 40
3.25
  0
CIRCLE
  5
750
330
6B
100
AcDbEntity
  8
0
 62
     3
100
AcDbCircle
 10
-20.36204204728597
 20
-277.3070155205726
 30
0.0
 40
1.649999999999999
  0
LINE
  5
751
330
6B
100
AcDbEntity
  8
0
 62
     3
100
AcDbLine
 10
-29.92760504728608
 20
-271.5570155205726
 30
0.0
 11
-10.79647804728597
 21
-271.5570155205726
 31
0.0
  0
ARC
  5
752
330
6B
100
AcDbEntity
  8
0
 62
     3
100
AcDbCircle
 10
-20.36204204728597
 20
-257.8070155205726
 30
0.0
 40
16.75
100
AcDbArc
 50
124.8254599999996
 51
235.1745400000003
  0
ARC
  5
753
330
6B
100
AcDbEntity
  8
0
 62
     3
100
AcDbCircle
 10
-20.36204204728597
 20
-257.8070155205726
 30
0.0
 40
16.75
100
AcDbArc
 50
304.8254599999996
 51
55.17454000000036
  0
LINE
  5
754
330
6B
100
AcDbEntity
  8
0
 62
     3
100
AcDbLine
 10
-29.92760504728608
 20
-283.0570155205726
 30
0.0
 11
-10.79647804728597
 21
-283.0570155205726
 31
0.0
  0
LINE
  5
755
330
6B
100
AcDbEntity
  8
0
 62
     7
100
AcDbLine
 10
-15.61204204728596
 20
-261.8070155205726
 30
0.0
 11
-15.11204204728597
 21
-261.3070155205726
 31
0.0
  0
LINE
  5
756
330
6B
100
AcDbEntity
  8
0
 62
     7
100
AcDbLine
 10
-12.41204204728603
 20
-261.8070155205726
 30
0.0
 11
-12.91204204728603
 21
-261.3070155205726
 31
0.0
  0
LINE
  5
757
330
6B
100
AcDbEntity
  8
0
 62
     7
100
AcDbLine
 10
-12.91204204728603
 20
-254.3070155205726
 30
0.0
 11
-12.41204204728603
 21
-253.8070155205726
 31
0.0
  0
LINE
  5
758
330
6B
100
AcDbEntity
  8
0
 62
     7
100
AcDbLine
 10
-15.11204204728597
 20
-254.3070155205726
 30
0.0
 11
-15.61204204728596
 21
-253.8070155205726
 31
0.0
  0
LINE
  5
759
330
6B
100
AcDbEntity
  8
0
 62
     7
100
AcDbLine
 10
-25.61204204728597
 20
-253.4570155205726
 30
0.0
 11
-25.11204204728597
 21
-252.9570155205726
 31
0.0
  0
LINE
  5
75A
330
6B
100
AcDbEntity
  8
0
 62
     7
100
AcDbLine
 10
-27.81204204728601
 20
-253.4570155205726
 30
0.0
 11
-28.31204204728602
 21
-252.9570155205726
 31
0.0
  0
LINE
  5
75B
330
6B
100
AcDbEntity
  8
0
 62
     7
100
AcDbLine
 10
-28.31204204728602
 20
-262.6570155205726
 30
0.0
 11
-27.81204204728601
 21
-262.1570155205725
 31
0.0
  0
LINE
  5
75C
330
6B
100
AcDbEntity
  8
0
 62
     7
100
AcDbLine
 10
-25.11204204728597
 20
-262.6570155205726
 30
0.0
 11
-25.61204204728597
 21
-262.1570155205725
 31
0.0
  0
LINE
  5
75D
330
6B
100
AcDbEntity
  8
0
 62
     7
100
AcDbLine
 10
-28.31204204728602
 20
-291.9570155205725
 30
0.0
 11
-27.81204204728601
 21
-292.4570155205726
 31
0.0
  0
LINE
  5
75E
330
6B
100
AcDbEntity
  8
0
 62
     7
100
AcDbLine
 10
-25.11204204728597
 20
-291.9570155205725
 30
0.0
 11
-25.61204204728597
 21
-292.4570155205726
 31
0.0
  0
LINE
  5
75F
330
6B
100
AcDbEntity
  8
0
 62
     7
100
AcDbLine
 10
-25.11204204728597
 20
-291.9570155205725
 30
0.0
 11
-28.31204204728602
 21
-291.9570155205725
 31
0.0
  0
LINE
  5
760
330
6B
100
AcDbEntity
  8
0
 62
     7
100
AcDbLine
 10
-25.11204204728597
 20
-301.6570155205725
 30
0.0
 11
-25.11204204728597
 21
-291.9570155205725
 31
0.0
  0
LINE
  5
761
330
6B
100
AcDbEntity
  8
0
 62
     7
100
AcDbLine
 10
-27.81204204728601
 20
-301.1570155205725
 30
0.0
 11
-28.31204204728602
 21
-301.6570155205725
 31
0.0
  0
LINE
  5
762
330
6B
100
AcDbEntity
  8
0
 62
     7
100
AcDbLine
 10
-25.61204204728597
 20
-301.1570155205725
 30
0.0
 11
-25.11204204728597
 21
-301.6570155205725
 31
0.0
  0
LINE
  5
763
330
6B
100
AcDbEntity
  8
0
 62
     7
100
AcDbLine
 10
-15.11204204728597
 20
-300.3070155205727
 30
0.0
 11
-15.61204204728596
 21
-300.8070155205726
 31
0.0
  0
LINE
  5
764
330
6B
100
AcDbEntity
  8
0
 62
     7
100
AcDbLine
 10
-15.61204204728596
 20
-300.8070155205726
 30
0.0
 11
-12.41204204728603
 21
-300.8070155205726
 31
0.0
  0
LINE
  5
765
330
6B
100
AcDbEntity
  8
0
 62
     7
100
AcDbLine
 10
-12.91204204728603
 20
-300.3070155205727
 30
0.0
 11
-12.41204204728603
 21
-300.8070155205726
 31
0.0
  0
LINE
  5
766
330
6B
100
AcDbEntity
  8
0
 62
     7
100
AcDbLine
 10
-12.41204204728603
 20
-292.8070155205726
 30
0.0
 11
-12.91204204728603
 21
-293.3070155205726
 31
0.0
  0
LINE
  5
767
330
6B
100
AcDbEntity
  8
0
 62
     7
100
AcDbLine
 10
-15.61204204728596
 20
-292.8070155205726
 30
0.0
 11
-15.11204204728597
 21
-293.3070155205726
 31
0.0
  0
LINE
  5
768
330
6B
100
AcDbEntity
  8
0
 62
     7
100
AcDbLine
 10
-15.61204204728596
 20
-292.8070155205726
 30
0.0
 11
-12.41204204728603
 21
-292.8070155205726
 31
0.0
  0
LINE
  5
769
330
6B
100
AcDbEntity
  8
0
 62
     7
100
AcDbLine
 10
-15.61204204728596
 20
-300.8070155205726
 30
0.0
 11
-15.61204204728596
 21
-292.8070155205726
 31
0.0
  0
ARC
  5
76A
330
6B
100
AcDbEntity
  8
0
 62
     3
100
AcDbCircle
 10
-5.362042047285966
 20
-246.0570155205726
 30
0.0
 40
2.0
100
AcDbArc
 50
0.0
 51
90.0
  0
LINE
  5
76B
330
6B
100
AcDbEntity
  8
0
 62
     3
100
AcDbLine
 10
-5.362042047285966
 20
-244.0570155205726
 30
0.0
 11
-35.36204204728597
 21
-244.0570155205726
 31
0.0
  0
LINE
  5
76C
330
6B
100
AcDbEntity
  8
0
 62
     3
100
AcDbLine
 10
-3.362042047285966
 20
-246.0570155205726
 30
0.0
 11
-3.362042047285966
 21
-308.5570155205726
 31
0.0
  0
LINE
  5
76D
330
6B
100
AcDbEntity
  8
0
 62
     3
100
AcDbLine
 10
-27.86204204728597
 20
-313.0570155205727
 30
0.0
 11
-27.86204204728597
 21
-310.5570155205726
 31
0.0
  0
LINE
  5
76E
330
6B
100
AcDbEntity
  8
0
 62
     3
100
AcDbLine
 10
-27.86204204728597
 20
-313.0570155205727
 30
0.0
 11
-12.86204204728597
 21
-313.0570155205727
 31
0.0
  0
LINE
  5
76F
330
6B
100
AcDbEntity
  8
0
 62
     3
100
AcDbLine
 10
-12.86204204728597
 20
-313.0570155205727
 30
0.0
 11
-12.86204204728597
 21
-310.5570155205726
 31
0.0
  0
ARC
  5
770
330
6B
100
AcDbEntity
  8
0
 62
     3
100
AcDbCircle
 10
-35.36204204728597
 20
-308.5570155205726
 30
0.0
 40
2.0
100
AcDbArc
 50
180.0
 51
270.0
  0
LINE
  5
771
330
6B
100
AcDbEntity
  8
0
 62
     3
100
AcDbLine
 10
-37.36204204728597
 20
-308.5570155205726
 30
0.0
 11
-37.36204204728597
 21
-246.0570155205726
 31
0.0
  0
TEXT
  5
772
330
6B
100
AcDbEntity
  8
0
 62
     7
100
AcDbText
 10
-34.11273804728604
 20
-258.8809065205726
 30
0.0
 40
2.740499999999998
  1
N
100
AcDbText
  0
LINE
  5
773
330
6B
100
AcDbEntity
  8
0
 62
     3
100
AcDbLine
 10
-18.40881104728601
 20
-246.5898545205726
 30
0.0
 11
-18.52081104728609
 21
-246.5898545205726
 31
0.0
  0
ARC
  5
774
330
6B
100
AcDbEntity
  8
0
 62
     3
100
AcDbCircle
 10
-18.40881104728601
 20
-246.7365745205726
 30
0.0
 40
0.14672
100
AcDbArc
 50
0.0
 51
90.0
  0
LINE
  5
775
330
6B
100
AcDbEntity
  8
0
 62
     3
100
AcDbLine
 10
-18.26209104728605
 20
-246.7365745205726
 30
0.0
 11
-18.26209104728605
 21
-248.2888945205726
 31
0.0
  0
LINE
  5
776
330
6B
100
AcDbEntity
  8
0
 62
     3
100
AcDbLine
 10
-17.17569104728602
 20
-248.7458545205726
 30
0.0
 11
-18.52081104728609
 21
-248.7458545205726
 31
0.0
  0
LINE
  5
777
330
6B
100
AcDbEntity
  8
0
 62
     3
100
AcDbLine
 10
-17.17569104728602
 20
-248.4356145205726
 30
0.0
 11
-17.17569104728602
 21
-248.7458545205726
 31
0.0
  0
LINE
  5
778
330
6B
100
AcDbEntity
  8
0
 62
     3
100
AcDbLine
 10
-17.28769104728599
 20
-248.4356145205726
 30
0.0
 11
-17.17569104728602
 21
-248.4356145205726
 31
0.0
  0
ARC
  5
779
330
6B
100
AcDbEntity
  8
0
 62
     3
100
AcDbCircle
 10
-17.28769104728599
 20
-248.2888945205726
 30
0.0
 40
0.14672
100
AcDbArc
 50
180.0
 51
270.0
  0
LINE
  5
77A
330
6B
100
AcDbEntity
  8
0
 62
     3
100
AcDbLine
 10
-28.6911970472861
 20
-248.4356145205726
 30
0.0
 11
-28.6911970472861
 21
-248.7458545205726
 31
0.0
  0
LINE
  5
77B
330
6B
100
AcDbEntity
  8
0
 62
     3
100
AcDbLine
 10
-28.57919704728601
 20
-248.4356145205726
 30
0.0
 11
-28.6911970472861
 21
-248.4356145205726
 31
0.0
  0
LINE
  5
77C
330
6B
100
AcDbEntity
  8
0
 62
     3
100
AcDbLine
 10
-28.43247704728606
 20
-246.7365745205726
 30
0.0
 11
-28.43247704728606
 21
-248.2888945205726
 31
0.0
  0
ARC
  5
77D
330
6B
100
AcDbEntity
  8
0
 62
     3
100
AcDbCircle
 10
-28.57919704728601
 20
-248.2888945205726
 30
0.0
 40
0.14672
100
AcDbArc
 50
270.0
 51
0.0
  0
LINE
  5
77E
330
6B
100
AcDbEntity
  8
0
 62
     3
100
AcDbLine
 10
-24.72965704728608
 20
-246.7365815205726
 30
0.0
 11
-24.72968404728602
 21
-248.2889015205726
 31
0.0
  0
LINE
  5
77F
330
6B
100
AcDbEntity
  8
0
 62
     3
100
AcDbLine
 10
-24.58296704728605
 20
-248.4356245205726
 30
0.0
 11
-24.47096704728597
 21
-248.4356265205726
 31
0.0
  0
ARC
  5
780
330
6B
100
AcDbEntity
  8
0
 62
     3
100
AcDbCircle
 10
-24.58296404728605
 20
-248.2889045205726
 30
0.0
 40
0.14672
100
AcDbArc
 50
179.999
 51
269.998999999997
  0
LINE
  5
781
330
6B
100
AcDbEntity
  8
0
 62
     3
100
AcDbLine
 10
-24.47096704728597
 20
-248.4356265205726
 30
0.0
 11
-24.47097204728607
 21
-248.7458665205726
 31
0.0
  0
LINE
  5
782
330
6B
100
AcDbEntity
  8
0
 62
     3
100
AcDbLine
 10
-25.81609204728602
 20
-248.7458425205726
 30
0.0
 11
-24.47097204728607
 21
-248.7458665205726
 31
0.0
  0
LINE
  5
783
330
6B
100
AcDbEntity
  8
0
 62
     3
100
AcDbLine
 10
-28.03599704728606
 20
-247.2995755205726
 30
0.0
 11
-28.03599704728606
 21
-248.2888945205726
 31
0.0
  0
ARC
  5
784
330
6B
100
AcDbEntity
  8
0
 62
     3
100
AcDbCircle
 10
-27.88927704728599
 20
-248.2888945205726
 30
0.0
 40
0.14672
100
AcDbArc
 50
180.0
 51
270.0
  0
LINE
  5
785
330
6B
100
AcDbEntity
  8
0
 62
     3
100
AcDbLine
 10
-28.6911970472861
 20
-248.7458545205726
 30
0.0
 11
-27.77727704728602
 21
-248.7458545205726
 31
0.0
  0
LINE
  5
786
330
6B
100
AcDbEntity
  8
0
 62
     3
100
AcDbLine
 10
-21.46580204728605
 20
-248.2889535205726
 30
0.0
 11
-21.46580204728605
 21
-246.7366335205726
 31
0.0
  0
LINE
  5
787
330
6B
100
AcDbEntity
  8
0
 62
     3
100
AcDbLine
 10
-21.56940204728607
 20
-246.6330335205726
 30
0.0
 11
-21.68140204728604
 21
-246.6330335205726
 31
0.0
  0
LINE
  5
788
330
6B
100
AcDbEntity
  8
0
 62
     3
100
AcDbLine
 10
-21.68140204728604
 20
-246.6330335205726
 30
0.0
 11
-21.68140204728604
 21
-246.2796735205726
 31
0.0
  0
LINE
  5
789
330
6B
100
AcDbEntity
  8
0
 62
     3
100
AcDbLine
 10
-21.68140204728604
 20
-246.2796735205726
 30
0.0
 11
-20.42252204728606
 21
-246.2796735205726
 31
0.0
  0
LINE
  5
78A
330
6B
100
AcDbEntity
  8
0
 62
     3
100
AcDbLine
 10
-20.51585504728598
 20
-246.5919655205726
 30
0.0
 11
-20.42252204728606
 21
-246.5919655205726
 31
0.0
  0
ARC
  5
78B
330
6B
100
AcDbEntity
  8
0
 62
     3
100
AcDbCircle
 10
-20.4914020472861
 20
-246.7366335205726
 30
0.0
 40
0.14672
100
AcDbArc
 50
99.59406800000211
 51
180.0
  0
LINE
  5
78C
330
6B
100
AcDbEntity
  8
0
 62
     3
100
AcDbLine
 10
-20.63812204728606
 20
-247.3145535205726
 30
0.0
 11
-20.63812204728606
 21
-246.7366335205726
 31
0.0
  0
LINE
  5
78D
330
6B
100
AcDbEntity
  8
0
 62
     3
100
AcDbLine
 10
-20.0859620472861
 20
-247.3145535205726
 30
0.0
 11
-20.63812204728606
 21
-247.3145535205726
 31
0.0
  0
LINE
  5
78E
330
6B
100
AcDbEntity
  8
0
 62
     3
100
AcDbLine
 10
-20.0859620472861
 20
-247.3145535205726
 30
0.0
 11
-20.0859620472861
 21
-246.7366335205726
 31
0.0
  0
ARC
  5
78F
330
6B
100
AcDbEntity
  8
0
 62
     3
100
AcDbCircle
 10
-20.23268204728606
 20
-246.7366335205726
 30
0.0
 40
0.14672
100
AcDbArc
 50
0.0
 51
80.40593199999788
  0
LINE
  5
790
330
6B
100
AcDbEntity
  8
0
 62
     3
100
AcDbLine
 10
-20.20822804728596
 20
-246.5919655205726
 30
0.0
 11
-20.3015620472861
 21
-246.5919655205726
 31
0.0
  0
LINE
  5
791
330
6B
100
AcDbEntity
  8
0
 62
     3
100
AcDbLine
 10
-19.04268204728601
 20
-246.2796735205726
 30
0.0
 11
-20.3015620472861
 21
-246.2796735205726
 31
0.0
  0
LINE
  5
792
330
6B
100
AcDbEntity
  8
0
 62
     3
100
AcDbLine
 10
-19.04268204728601
 20
-246.2796735205726
 30
0.0
 11
-19.04268204728601
 21
-246.5919655205726
 31
0.0
  0
LINE
  5
793
330
6B
100
AcDbEntity
  8
0
 62
     3
100
AcDbLine
 10
-19.13601504728603
 20
-246.5919655205726
 30
0.0
 11
-19.04268204728601
 21
-246.5919655205726
 31
0.0
  0
ARC
  5
794
330
6B
100
AcDbEntity
  8
0
 62
     3
100
AcDbCircle
 10
-19.11156204728604
 20
-246.7366335205726
 30
0.0
 40
0.14672
100
AcDbArc
 50
99.59406800000211
 51
180.0
  0
LINE
  5
795
330
6B
100
AcDbEntity
  8
0
 62
     3
100
AcDbLine
 10
-19.258282047286
 20
-246.7366335205726
 30
0.0
 11
-19.258282047286
 21
-248.2889535205726
 31
0.0
  0
ARC
  5
796
330
6B
100
AcDbEntity
  8
0
 62
     3
100
AcDbCircle
 10
-19.11156204728604
 20
-248.2889535205726
 30
0.0
 40
0.14672
100
AcDbArc
 50
180.0
 51
260.4059319999979
  0
LINE
  5
797
330
6B
100
AcDbEntity
  8
0
 62
     3
100
AcDbLine
 10
-19.13601504728603
 20
-248.4336215205726
 30
0.0
 11
-19.04268204728601
 21
-248.4336215205726
 31
0.0
  0
LINE
  5
798
330
6B
100
AcDbEntity
  8
0
 62
     3
100
AcDbLine
 10
-19.04268204728601
 20
-248.4336215205726
 30
0.0
 11
-19.04268204728601
 21
-248.7459135205726
 31
0.0
  0
LINE
  5
799
330
6B
100
AcDbEntity
  8
0
 62
     3
100
AcDbLine
 10
-19.04268204728601
 20
-248.7459135205726
 30
0.0
 11
-20.3015620472861
 21
-248.7459135205726
 31
0.0
  0
LINE
  5
79A
330
6B
100
AcDbEntity
  8
0
 62
     3
100
AcDbLine
 10
-20.20822804728596
 20
-248.4336215205726
 30
0.0
 11
-20.3015620472861
 21
-248.4336215205726
 31
0.0
  0
ARC
  5
79B
330
6B
100
AcDbEntity
  8
0
 62
     3
100
AcDbCircle
 10
-20.23268204728606
 20
-248.2889535205726
 30
0.0
 40
0.14672
100
AcDbArc
 50
279.5940680000021
 51
0.0
  0
LINE
  5
79C
330
6B
100
AcDbEntity
  8
0
 62
     3
100
AcDbLine
 10
-20.0859620472861
 20
-248.2889535205726
 30
0.0
 11
-20.0859620472861
 21
-247.7110335205726
 31
0.0
  0
LINE
  5
79D
330
6B
100
AcDbEntity
  8
0
 62
     3
100
AcDbLine
 10
-20.0859620472861
 20
-247.7110335205726
 30
0.0
 11
-20.63812204728606
 21
-247.7110335205726
 31
0.0
  0
LINE
  5
79E
330
6B
100
AcDbEntity
  8
0
 62
     3
100
AcDbLine
 10
-21.68140204728604
 20
-248.7459135205726
 30
0.0
 11
-21.68140204728604
 21
-248.3925535205726
 31
0.0
  0
LINE
  5
79F
330
6B
100
AcDbEntity
  8
0
 62
     3
100
AcDbLine
 10
-21.56940204728607
 20
-248.3925535205726
 30
0.0
 11
-21.68140204728604
 21
-248.3925535205726
 31
0.0
  0
ARC
  5
7A0
330
6B
100
AcDbEntity
  8
0
 62
     3
100
AcDbCircle
 10
-21.56940204728607
 20
-248.2889535205726
 30
0.0
 40
0.1036
100
AcDbArc
 50
270.0
 51
0.0
  0
ARC
  5
7A1
330
6B
100
AcDbEntity
  8
0
 62
     3
100
AcDbCircle
 10
-17.28769104728599
 20
-246.7365745205726
 30
0.0
 40
0.14672
100
AcDbArc
 50
90.0
 51
180.0
  0
LINE
  5
7A2
330
6B
100
AcDbEntity
  8
0
 62
     3
100
AcDbLine
 10
-17.43441104728595
 20
-246.7365745205726
 30
0.0
 11
-17.43441104728595
 21
-248.2888945205726
 31
0.0
  0
LINE
  5
7A3
330
6B
100
AcDbEntity
  8
0
 62
     3
100
AcDbLine
 10
-17.17569104728602
 20
-246.2796145205726
 30
0.0
 11
-17.17569104728602
 21
-246.5898545205726
 31
0.0
  0
LINE
  5
7A4
330
6B
100
AcDbEntity
  8
0
 62
     3
100
AcDbLine
 10
-17.28769104728599
 20
-246.5898545205726
 30
0.0
 11
-17.17569104728602
 21
-246.5898545205726
 31
0.0
  0
LINE
  5
7A5
330
6B
100
AcDbEntity
  8
0
 62
     3
100
AcDbLine
 10
-17.17569104728602
 20
-246.2796145205726
 30
0.0
 11
-18.52081104728609
 21
-246.2796145205726
 31
0.0
  0
LINE
  5
7A6
330
6B
100
AcDbEntity
  8
0
 62
     3
100
AcDbLine
 10
-18.52081104728609
 20
-246.2796145205726
 30
0.0
 11
-18.52081104728609
 21
-246.5898545205726
 31
0.0
  0
LINE
  5
7A7
330
6B
100
AcDbEntity
  8
0
 62
     3
100
AcDbLine
 10
-16.67436404728596
 20
-248.4356145205726
 30
0.0
 11
-16.67436404728596
 21
-248.7458545205726
 31
0.0
  0
ARC
  5
7A8
330
6B
100
AcDbEntity
  8
0
 62
     3
100
AcDbCircle
 10
-16.56236404728611
 20
-248.2888945205726
 30
0.0
 40
0.14672
100
AcDbArc
 50
270.0
 51
0.0
  0
LINE
  5
7A9
330
6B
100
AcDbEntity
  8
0
 62
     3
100
AcDbLine
 10
-16.56236404728611
 20
-248.4356145205726
 30
0.0
 11
-16.67436404728596
 21
-248.4356145205726
 31
0.0
  0
LINE
  5
7AA
330
6B
100
AcDbEntity
  8
0
 62
     3
100
AcDbLine
 10
-15.22190304728599
 20
-248.7458545205726
 30
0.0
 11
-16.67436404728596
 21
-248.7458545205726
 31
0.0
  0
LINE
  5
7AB
330
6B
100
AcDbEntity
  8
0
 62
     3
100
AcDbLine
 10
-16.41564404728604
 20
-246.7365745205726
 30
0.0
 11
-16.41564404728604
 21
-248.2888945205726
 31
0.0
  0
LINE
  5
7AC
330
6B
100
AcDbEntity
  8
0
 62
     3
100
AcDbLine
 10
-15.58796404728605
 20
-246.6760945205726
 30
0.0
 11
-15.58796404728605
 21
-248.3493745205726
 31
0.0
  0
LINE
  5
7AD
330
6B
100
AcDbEntity
  8
0
 62
     3
100
AcDbLine
 10
-15.58796404728605
 20
-248.3493745205726
 30
0.0
 11
-15.47512504728604
 21
-248.3493745205726
 31
0.0
  0
LINE
  5
7AE
330
6B
100
AcDbEntity
  8
0
  6
CENTER
 62
     7
100
AcDbLine
 10
-23.00339604728605
 20
-246.0074595205726
 30
0.0
 11
-23.00339604728605
 21
-246.0719985205726
 31
0.0
  0
ARC
  5
7AF
330
6B
100
AcDbEntity
  8
0
 62
     3
100
AcDbCircle
 10
-23.00339504728606
 20
-247.5127345205726
 30
0.0
 40
1.233119999999998
100
AcDbArc
 50
46.75288000000072
 51
312.8231200000007
  0
ARC
  5
7B0
330
6B
100
AcDbEntity
  8
0
 62
     3
100
AcDbCircle
 10
-30.85118104728599
 20
-247.4836965205726
 30
0.0
 40
8.736
100
AcDbArc
 50
353.8660060000001
 51
357.6940340000001
  0
LINE
  5
7B1
330
6B
100
AcDbEntity
  8
0
 62
     3
100
AcDbLine
 10
-22.707130047286
 20
-247.8330335205726
 30
0.0
 11
-22.1222560472861
 21
-247.8351975205726
 31
0.0
  0
LINE
  5
7B3
330
6B
100
AcDbEntity
  8
0
 62
     3
100
AcDbLine
 10
-22.70476704728594
 20
-247.1946375205726
 30
0.0
 11
-22.11989404728604
 21
-247.1968015205726
 31
0.0
  0
ARC
  5
7B4
330
6B
100
AcDbEntity
  8
0
 62
     3
100
AcDbCircle
 10
-30.85118104728599
 20
-247.4836965205726
 30
0.0
 40
8.736
100
AcDbArc
 50
1.881965999999995
 51
5.709993999999952
  0
ARC
  5
7B5
330
6B
100
AcDbEntity
  8
0
 62
     3
100
AcDbCircle
 10
-24.58293704728613
 20
-246.7365845205726
 30
0.0
 40
0.14672
100
AcDbArc
 50
89.99902800000375
 51
179.999
  0
LINE
  5
7B6
330
6B
100
AcDbEntity
  8
0
 62
     3
100
AcDbLine
 10
-24.47092904728606
 20
-246.2796265205726
 30
0.0
 11
-24.47093504728605
 21
-246.5898665205726
 31
0.0
  0
LINE
  5
7B7
330
6B
100
AcDbEntity
  8
0
 62
     3
100
AcDbLine
 10
-25.81604904728602
 20
-246.2796025205726
 30
0.0
 11
-24.47092904728606
 21
-246.2796265205726
 31
0.0
  0
LINE
  5
7B8
330
6B
100
AcDbEntity
  8
0
 62
     3
100
AcDbLine
 10
-24.58293504728601
 20
-246.5898645205726
 30
0.0
 11
-24.47093504728605
 21
-246.5898665205726
 31
0.0
  0
ARC
  5
7B9
330
6B
100
AcDbEntity
  8
0
 62
     3
100
AcDbCircle
 10
-25.704068047286
 20
-246.7365725205726
 30
0.0
 40
0.14672
100
AcDbArc
 50
359.999803
 51
89.99977399999549
  0
LINE
  5
7BA
330
6B
100
AcDbEntity
  8
0
 62
     3
100
AcDbLine
 10
-25.55734804728604
 20
-246.7365735205726
 30
0.0
 11
-25.55735304728603
 21
-248.2888935205726
 31
0.0
  0
ARC
  5
7BB
330
6B
100
AcDbEntity
  8
0
 62
     3
100
AcDbCircle
 10
-25.70408404728596
 20
-248.2888845205726
 30
0.0
 40
0.14672
100
AcDbArc
 50
269.998999999997
 51
359.999
  0
LINE
  5
7BC
330
6B
100
AcDbEntity
  8
0
 62
     3
100
AcDbLine
 10
-25.81608704728604
 20
-248.4356025205726
 30
0.0
 11
-25.81609204728602
 21
-248.7458425205726
 31
0.0
  0
LINE
  5
7BD
330
6B
100
AcDbEntity
  8
0
 62
     3
100
AcDbLine
 10
-25.70408704728607
 20
-248.4356045205726
 30
0.0
 11
-25.81608704728604
 21
-248.4356025205726
 31
0.0
  0
LINE
  5
7BE
330
6B
100
AcDbEntity
  8
0
 62
     3
100
AcDbLine
 10
-25.81604904728602
 20
-246.2796025205726
 30
0.0
 11
-25.816055047286
 21
-246.5898425205726
 31
0.0
  0
LINE
  5
7BF
330
6B
100
AcDbEntity
  8
0
 62
     3
100
AcDbLine
 10
-25.70405504728603
 20
-246.5898445205726
 30
0.0
 11
-25.816055047286
 21
-246.5898425205726
 31
0.0
  0
LINE
  5
7C0
330
6B
100
AcDbEntity
  8
0
 62
     3
100
AcDbLine
 10
-20.3015620472861
 20
-246.5919655205726
 30
0.0
 11
-20.3015620472861
 21
-246.2796735205726
 31
0.0
  0
LINE
  5
7C1
330
6B
100
AcDbEntity
  8
0
 62
     3
100
AcDbLine
 10
-20.3015620472861
 20
-248.4336215205726
 30
0.0
 11
-20.3015620472861
 21
-248.7459135205726
 31
0.0
  0
LINE
  5
7C2
330
6B
100
AcDbEntity
  8
0
 62
     3
100
AcDbLine
 10
-20.63812204728606
 20
-248.2889535205726
 30
0.0
 11
-20.63812204728606
 21
-247.7110335205726
 31
0.0
  0
ARC
  5
7C3
330
6B
100
AcDbEntity
  8
0
 62
     3
100
AcDbCircle
 10
-20.4914020472861
 20
-248.2889535205726
 30
0.0
 40
0.14672
100
AcDbArc
 50
180.0
 51
260.4059319999979
  0
LINE
  5
7C4
330
6B
100
AcDbEntity
  8
0
 62
     3
100
AcDbLine
 10
-20.51585504728598
 20
-248.4336215205726
 30
0.0
 11
-20.42252204728606
 21
-248.4336215205726
 31
0.0
  0
LINE
  5
7C5
330
6B
100
AcDbEntity
  8
0
 62
     3
100
AcDbLine
 10
-20.42252204728606
 20
-248.4336215205726
 30
0.0
 11
-20.42252204728606
 21
-248.7459135205726
 31
0.0
  0
LINE
  5
7C6
330
6B
100
AcDbEntity
  8
0
 62
     3
100
AcDbLine
 10
-21.68140204728604
 20
-248.7459135205726
 30
0.0
 11
-20.42252204728606
 21
-248.7459135205726
 31
0.0
  0
ARC
  5
7C7
330
6B
100
AcDbEntity
  8
0
 62
     3
100
AcDbCircle
 10
-21.56940204728607
 20
-246.7366335205726
 30
0.0
 40
0.1036
100
AcDbArc
 50
0.0
 51
90.0
  0
LINE
  5
7C8
330
6B
100
AcDbEntity
  8
0
 62
     3
100
AcDbLine
 10
-20.42252204728606
 20
-246.5919655205726
 30
0.0
 11
-20.42252204728606
 21
-246.2796735205726
 31
0.0
  0
ARC
  5
7C9
330
6B
100
AcDbEntity
  8
0
 62
     3
100
AcDbCircle
 10
-16.05211104728596
 20
-247.5127345205726
 30
0.0
 40
1.016307
100
AcDbArc
 50
304.5919550000008
 51
55.40804499999918
  0
ARC
  5
7CA
330
6B
100
AcDbEntity
  8
0
 62
     3
100
AcDbCircle
 10
-15.22190304728599
 20
-247.7714545205726
 30
0.0
 40
0.9743999999999999
100
AcDbArc
 50
270.0
 51
342.6912510000007
  0
ARC
  5
7CB
330
6B
100
AcDbEntity
  8
0
 62
     3
100
AcDbCircle
 10
-15.22190304728599
 20
-247.2540145205726
 30
0.0
 40
0.9743999999999999
100
AcDbArc
 50
17.30874899999917
 51
90.0
  0
ARC
  5
7CC
330
6B
100
AcDbEntity
  8
0
 62
     3
100
AcDbCircle
 10
-16.05211104728596
 20
-247.5127345205726
 30
0.0
 40
1.843986999999999
100
AcDbArc
 50
342.6912510000007
 51
17.30856600000092
  0
LINE
  5
7CD
330
6B
100
AcDbEntity
  8
0
 62
     3
100
AcDbLine
 10
-15.22190304728599
 20
-246.2796145205726
 30
0.0
 11
-16.67436404728596
 21
-246.2796145205726
 31
0.0
  0
LINE
  5
7CE
330
6B
100
AcDbEntity
  8
0
 62
     3
100
AcDbLine
 10
-16.67436404728596
 20
-246.2796145205726
 30
0.0
 11
-16.67436404728596
 21
-246.5898545205726
 31
0.0
  0
LINE
  5
7CF
330
6B
100
AcDbEntity
  8
0
 62
     3
100
AcDbLine
 10
-16.56236404728611
 20
-246.5898545205726
 30
0.0
 11
-16.67436404728596
 21
-246.5898545205726
 31
0.0
  0
ARC
  5
7D0
330
6B
100
AcDbEntity
  8
0
 62
     3
100
AcDbCircle
 10
-16.56236404728611
 20
-246.7365745205726
 30
0.0
 40
0.14672
100
AcDbArc
 50
0.0
 51
90.0
  0
ARC
  5
7D1
330
6B
100
AcDbEntity
  8
0
 62
     3
100
AcDbCircle
 10
-18.40881104728601
 20
-248.2888945205726
 30
0.0
 40
0.14672
100
AcDbArc
 50
270.0
 51
0.0
  0
LINE
  5
7D2
330
6B
100
AcDbEntity
  8
0
 62
     3
100
AcDbLine
 10
-18.40881104728601
 20
-248.4356145205726
 30
0.0
 11
-18.52081104728609
 21
-248.4356145205726
 31
0.0
  0
LINE
  5
7D3
330
6B
100
AcDbEntity
  8
0
 62
     3
100
AcDbLine
 10
-18.52081104728609
 20
-248.4356145205726
 30
0.0
 11
-18.52081104728609
 21
-248.7458545205726
 31
0.0
  0
ARC
  5
7D4
330
6B
100
AcDbEntity
  8
0
 62
     3
100
AcDbCircle
 10
-12.89338704728607
 20
-247.5083695205726
 30
0.0
 40
1.233119999999998
100
AcDbArc
 50
210.35784
 51
143.0080789999992
  0
ARC
  5
7D5
330
6B
100
AcDbEntity
  8
0
 62
     3
100
AcDbCircle
 10
-15.52535904728597
 20
-247.3558255205726
 30
0.0
 40
1.749347
100
AcDbArc
 50
333.6752840000008
 51
19.69063500000045
  0
ARC
  5
7D6
330
6B
100
AcDbEntity
  8
0
 62
     3
100
AcDbCircle
 10
-11.53436504728597
 20
-247.5317695205726
 30
0.0
 40
1.636274999999999
100
AcDbArc
 50
149.3344129999988
 51
209.3614669999984
  0
ARC
  5
7D7
330
6B
100
AcDbEntity
  8
0
 62
     3
100
AcDbCircle
 10
-14.25240804728605
 20
-247.5317705205726
 30
0.0
 40
1.636274999999999
100
AcDbArc
 50
330.3722729999987
 51
30.84052499999998
  0
ARC
  5
7D8
330
6B
100
AcDbEntity
  8
0
 62
     3
100
AcDbCircle
 10
-12.89259004728603
 20
-246.7406455205726
 30
0.0
 40
0.065643
100
AcDbArc
 50
46.62177099999889
 51
138.5892690000017
  0
ARC
  5
7D9
330
6B
100
AcDbEntity
  8
0
 62
     3
100
AcDbCircle
 10
-12.89259004728603
 20
-248.2848235205726
 30
0.0
 40
0.083843
100
AcDbArc
 50
215.9651229999988
 51
318.2218159999997
  0
LINE
  5
7DA
330
6B
100
AcDbEntity
  8
0
 62
     3
100
AcDbLine
 10
-27.77727704728602
 20
-248.4356145205726
 30
0.0
 11
-27.77727704728602
 21
-248.7458545205726
 31
0.0
  0
LINE
  5
7DB
330
6B
100
AcDbEntity
  8
0
 62
     3
100
AcDbLine
 10
-27.88927704728599
 20
-248.4356145205726
 30
0.0
 11
-27.77727704728602
 21
-248.4356145205726
 31
0.0
  0
LINE
  5
7DC
330
6B
100
AcDbEntity
  8
0
 62
     3
100
AcDbLine
 10
-28.03599704728606
 20
-247.2995755205726
 30
0.0
 11
-27.13207304728598
 21
-248.7458545205726
 31
0.0
  0
LINE
  5
7DD
330
6B
100
AcDbEntity
  8
0
 62
     3
100
AcDbLine
 10
-27.13207304728598
 20
-248.7458545205726
 30
0.0
 11
-26.52679704728598
 21
-248.7458545205726
 31
0.0
  0
LINE
  5
7DE
330
6B
100
AcDbEntity
  8
0
 62
     3
100
AcDbLine
 10
-26.52679704728598
 20
-246.8228145205726
 30
0.0
 11
-26.52679704728598
 21
-248.7458545205726
 31
0.0
  0
ARC
  5
7DF
330
6B
100
AcDbEntity
  8
0
 62
     3
100
AcDbCircle
 10
-26.29383704728605
 20
-246.8228145205726
 30
0.0
 40
0.23296
100
AcDbArc
 50
83.65142599999906
 51
180.0
  0
LINE
  5
7E0
330
6B
100
AcDbEntity
  8
0
 62
     3
100
AcDbLine
 10
-26.26807704728606
 20
-246.2796145205726
 30
0.0
 11
-26.26807704728606
 21
-246.5912835205726
 31
0.0
  0
LINE
  5
7E1
330
6B
100
AcDbEntity
  8
0
 62
     3
100
AcDbLine
 10
-27.18199704728613
 20
-246.2796145205726
 30
0.0
 11
-26.26807704728606
 21
-246.2796145205726
 31
0.0
  0
LINE
  5
7E2
330
6B
100
AcDbEntity
  8
0
 62
     3
100
AcDbLine
 10
-27.18199704728613
 20
-246.2796145205726
 30
0.0
 11
-27.18199704728613
 21
-246.5898545205726
 31
0.0
  0
LINE
  5
7E3
330
6B
100
AcDbEntity
  8
0
 62
     3
100
AcDbLine
 10
-27.18199704728613
 20
-246.5898545205726
 30
0.0
 11
-27.06999704728605
 21
-246.5898545205726
 31
0.0
  0
ARC
  5
7E4
330
6B
100
AcDbEntity
  8
0
 62
     3
100
AcDbCircle
 10
-27.06999704728605
 20
-246.7365745205726
 30
0.0
 40
0.14672
100
AcDbArc
 50
0.0
 51
90.0
  0
LINE
  5
7E5
330
6B
100
AcDbEntity
  8
0
 62
     3
100
AcDbLine
 10
-26.92327704728609
 20
-247.3966525205726
 30
0.0
 11
-26.92327704728609
 21
-246.7365745205726
 31
0.0
  0
LINE
  5
7E6
330
6B
100
AcDbEntity
  8
0
 62
     3
100
AcDbLine
 10
-26.92327704728609
 20
-247.3966525205726
 30
0.0
 11
-27.65633404728601
 21
-246.2796145205726
 31
0.0
  0
LINE
  5
7E7
330
6B
100
AcDbEntity
  8
0
 62
     3
100
AcDbLine
 10
-28.6911970472861
 20
-246.2796145205726
 30
0.0
 11
-27.65633404728601
 21
-246.2796145205726
 31
0.0
  0
LINE
  5
7E8
330
6B
100
AcDbEntity
  8
0
 62
     3
100
AcDbLine
 10
-28.6911970472861
 20
-246.2796145205726
 30
0.0
 11
-28.6911970472861
 21
-246.5898545205726
 31
0.0
  0
LINE
  5
7E9
330
6B
100
AcDbEntity
  8
0
 62
     3
100
AcDbLine
 10
-28.57919704728601
 20
-246.5898545205726
 30
0.0
 11
-28.6911970472861
 21
-246.5898545205726
 31
0.0
  0
ARC
  5
7EA
330
6B
100
AcDbEntity
  8
0
 62
     3
100
AcDbCircle
 10
-28.57919704728601
 20
-246.7365745205726
 30
0.0
 40
0.14672
100
AcDbArc
 50
0.0
 51
90.0
  0
LINE
  5
7EB
330
6B
100
AcDbEntity
  8
0
 62
     3
100
AcDbLine
 10
-15.58796404728605
 20
-246.6760945205726
 30
0.0
 11
-15.47512504728604
 21
-246.6760945205726
 31
0.0
  0
TEXT
  5
7EC
330
6B
100
AcDbEntity
  8
0
 62
     7
100
AcDbText
 10
-34.11273804728604
 20
-297.8809065205727
 30
0.0
 40
2.740499999999998
  1
N
100
AcDbText
  0
TEXT
  5
7ED
330
6B
100
AcDbEntity
  8
0
 62
     7
100
AcDbText
 10
-25.26264304728602
 20
-308.2574965205726
 30
0.0
 40
2.425499999999999
  1
125V 15A
 50
359.999983
 41
0.595513
100
AcDbText
  0
TEXT
  5
7EE
330
6B
100
AcDbEntity
  8
0
 62
     7
100
AcDbText
 10
-31.45200004728599
 20
-288.2733075205726
 30
0.0
 40
2.112
  1
<PS>E JET
 41
1.139240999999999
100
AcDbText
  0
LINE
  5
7EF
330
6B
100
AcDbEntity
  8
0
 62
     7
100
AcDbLine
 10
-11.27119104728603
 20
-286.3895945205726
 30
0.0
 11
-11.27119104728603
 21
-287.3828985205726
 31
0.0
  0
LINE
  5
7F0
330
6B
100
AcDbEntity
  8
0
 62
     7
100
AcDbLine
 10
-11.47119104728608
 20
-286.8828985205725
 30
0.0
 11
-11.47119104728608
 21
-287.8762015205726
 31
0.0
  0
ARC
  5
7F1
330
6B
100
AcDbEntity
  8
0
 62
     7
100
AcDbCircle
 10
-11.37119104728606
 20
-287.1328985205725
 30
0.0
 40
0.75
100
AcDbArc
 50
277.6622579999962
 51
12.60581399999936
  0
ARC
  5
7F2
330
6B
100
AcDbEntity
  8
0
 62
     7
100
AcDbCircle
 10
-11.37119104728606
 20
-287.1328985205725
 30
0.0
 40
0.75
100
AcDbArc
 50
19.5365929999999
 51
82.33774399999694
  0
ARC
  5
7F3
330
6B
100
AcDbEntity
  8
0
 62
     7
100
AcDbCircle
 10
-11.37119104728606
 20
-287.1328985205725
 30
0.0
 40
0.75
100
AcDbArc
 50
97.66225599999662
 51
192.6058139999994
  0
ARC
  5
7F4
330
6B
100
AcDbEntity
  8
0
 62
     7
100
AcDbCircle
 10
-11.37119104728606
 20
-287.1328985205725
 30
0.0
 40
0.75
100
AcDbArc
 50
199.5365929999999
 51
262.3377440000033
  0
ARC
  5
7F5
330
6B
100
AcDbEntity
  8
0
 62
     7
100
AcDbCircle
 10
-11.37119104728606
 20
-287.1328985205725
 30
0.0
 40
0.825
100
AcDbArc
 50
201.42107
 51
17.21822099999994
  0
ARC
  5
7F6
330
6B
100
AcDbEntity
  8
0
 62
     7
100
AcDbCircle
 10
-11.37119104728606
 20
-287.1328985205725
 30
0.0
 40
0.825
100
AcDbArc
 50
21.42107199999901
 51
197.2182209999999
  0
LINE
  5
7F7
330
6B
100
AcDbEntity
  8
0
 62
     7
100
AcDbLine
 10
-10.46248004728602
 20
-286.7154725205726
 30
0.0
 11
-10.60318004728606
 21
-286.8315925205726
 31
0.0
  0
LINE
  5
7F8
330
6B
100
AcDbEntity
  8
0
 62
     7
100
AcDbLine
 10
-10.66437004728607
 20
-286.8820915205726
 30
0.0
 11
-11.27119104728603
 21
-287.3828985205726
 31
0.0
  0
LINE
  5
7F9
330
6B
100
AcDbEntity
  8
0
 62
     7
100
AcDbLine
 10
-10.46248004728602
 20
-286.7154725205726
 30
0.0
 11
-10.58316404728611
 21
-286.8886885205725
 31
0.0
  0
LINE
  5
7FA
330
6B
100
AcDbEntity
  8
0
 62
     7
100
AcDbLine
 10
-10.63927004728612
 20
-286.9692165205726
 30
0.0
 11
-11.27119104728603
 21
-287.8762015205726
 31
0.0
  0
LINE
  5
7FB
330
6B
100
AcDbEntity
  8
0
 62
     7
100
AcDbLine
 10
-11.47119104728608
 20
-286.3895945205726
 30
0.0
 11
-12.103112047286
 21
-287.2965795205726
 31
0.0
  0
LINE
  5
7FC
330
6B
100
AcDbEntity
  8
0
 62
     7
100
AcDbLine
 10
-12.159218047286
 20
-287.3771075205726
 30
0.0
 11
-12.27990204728598
 21
-287.5503235205727
 31
0.0
  0
LINE
  5
7FD
330
6B
100
AcDbEntity
  8
0
 62
     7
100
AcDbLine
 10
-11.47119104728608
 20
-286.8828985205725
 30
0.0
 11
-12.07801204728605
 21
-287.3837045205726
 31
0.0
  0
LINE
  5
7FE
330
6B
100
AcDbEntity
  8
0
 62
     7
100
AcDbLine
 10
-12.13920104728595
 20
-287.4342035205726
 30
0.0
 11
-12.27990204728598
 21
-287.5503235205727
 31
0.0
  0
LINE
  5
7FF
330
6B
100
AcDbEntity
  8
0
 62
     3
100
AcDbLine
 10
39.88601495271405
 20
-241.5570155205726
 30
0.0
 11
41.88601495271405
 21
-242.0570155205726
 31
0.0
  0
LINE
  5
800
330
6B
100
AcDbEntity
  8
0
 62
     3
100
AcDbLine
 10
37.186014952714
 20
-244.0570155205726
 30
0.0
 11
32.186014952714
 21
-244.0570155205726
 31
0.0
  0
LINE
  5
801
330
6B
100
AcDbEntity
  8
0
 62
     3
100
AcDbLine
 10
39.88601495271405
 20
-242.0570155205726
 30
0.0
 11
37.186014952714
 21
-242.0570155205726
 31
0.0
  0
LINE
  5
802
330
6B
100
AcDbEntity
  8
0
 62
     3
100
AcDbLine
 10
32.186014952714
 20
-283.0570155205726
 30
0.0
 11
37.186014952714
 21
-283.0570155205726
 31
0.0
  0
LINE
  5
803
330
6B
100
AcDbEntity
  8
0
 62
     3
100
AcDbLine
 10
37.186014952714
 20
-310.5570155205726
 30
0.0
 11
32.186014952714
 21
-310.5570155205726
 31
0.0
  0
LINE
  5
804
330
6B
100
AcDbEntity
  8
0
 62
     3
100
AcDbLine
 10
32.186014952714
 20
-283.0570155205726
 30
0.0
 11
32.186014952714
 21
-310.5570155205726
 31
0.0
  0
LINE
  5
805
330
6B
100
AcDbEntity
  8
0
 62
     3
100
AcDbLine
 10
32.186014952714
 20
-271.5570155205726
 30
0.0
 11
32.186014952714
 21
-244.0570155205726
 31
0.0
  0
LINE
  5
806
330
6B
100
AcDbEntity
  8
0
 62
     3
100
AcDbLine
 10
32.186014952714
 20
-271.5570155205726
 30
0.0
 11
37.186014952714
 21
-271.5570155205726
 31
0.0
  0
LINE
  5
807
330
6B
100
AcDbEntity
  8
0
 62
     3
100
AcDbLine
 10
39.88601495271405
 20
-312.5570155205726
 30
0.0
 11
37.186014952714
 21
-312.5570155205726
 31
0.0
  0
LINE
  5
808
330
6B
100
AcDbEntity
  8
0
 62
     3
100
AcDbLine
 10
39.88601495271405
 20
-313.0570155205727
 30
0.0
 11
41.88601495271405
 21
-312.5570155205726
 31
0.0
  0
LINE
  5
809
330
6B
100
AcDbEntity
  8
0
 62
     3
100
AcDbLine
 10
39.88601495271405
 20
-313.0570155205727
 30
0.0
 11
39.88601495271405
 21
-312.5570155205726
 31
0.0
  0
LINE
  5
80A
330
6B
100
AcDbEntity
  8
0
 62
     3
100
AcDbLine
 10
39.88601495271405
 20
-241.5570155205726
 30
0.0
 11
39.88601495271405
 21
-242.0570155205726
 31
0.0
  0
LINE
  5
80B
330
6B
100
AcDbEntity
  8
0
 62
     3
100
AcDbLine
 10
52.88601495271404
 20
-283.3070155205726
 30
0.0
 11
54.88601495271404
 21
-283.3070155205726
 31
0.0
  0
LINE
  5
80C
330
6B
100
AcDbEntity
  8
0
 62
     3
100
AcDbLine
 10
52.88601495271404
 20
-271.3070155205726
 30
0.0
 11
54.88601495271404
 21
-271.3070155205726
 31
0.0
  0
ARC
  5
80D
330
6B
100
AcDbEntity
  8
0
 62
     3
100
AcDbCircle
 10
42.18601495271399
 20
-276.1070155205726
 30
0.0
 40
0.3
100
AcDbArc
 50
90.0
 51
180.0
  0
ARC
  5
80E
330
6B
100
AcDbEntity
  8
0
 62
     3
100
AcDbCircle
 10
42.18601495271399
 20
-278.5070155205726
 30
0.0
 40
0.3
100
AcDbArc
 50
180.0
 51
270.0
  0
LINE
  5
80F
330
6B
100
AcDbEntity
  8
0
 62
     3
100
AcDbLine
 10
41.88601495271405
 20
-242.0570155205726
 30
0.0
 11
41.88601495271405
 21
-312.5570155205726
 31
0.0
  0
LINE
  5
810
330
6B
100
AcDbEntity
  8
0
 62
     3
100
AcDbLine
 10
41.88601495271405
 20
-312.5570155205726
 30
0.0
 11
41.88601495271405
 21
-281.8070155205727
 31
0.0
  0
LINE
  5
811
330
6B
100
AcDbEntity
  8
0
 62
     3
100
AcDbLine
 10
41.88601495271405
 20
-242.0570155205726
 30
0.0
 11
41.88601495271405
 21
-272.8070155205726
 31
0.0
  0
LINE
  5
812
330
6B
100
AcDbEntity
  8
0
 62
     3
100
AcDbLine
 10
52.88601495271404
 20
-310.2570155205726
 30
0.0
 11
52.88601495271404
 21
-244.3570155205726
 31
0.0
  0
LINE
  5
813
330
6B
100
AcDbEntity
  8
0
 62
     3
100
AcDbLine
 10
52.58601495271397
 20
-310.5570155205726
 30
0.0
 11
41.88601495271405
 21
-310.5570155205726
 31
0.0
  0
LINE
  5
814
330
6B
100
AcDbEntity
  8
0
 62
     3
100
AcDbLine
 10
52.88601495271404
 20
-271.6453685205725
 30
0.0
 11
41.88601495271405
 21
-271.6453685205725
 31
0.0
  0
LINE
  5
815
330
6B
100
AcDbEntity
  8
0
 62
     3
100
AcDbLine
 10
52.88601495271404
 20
-282.9686635205726
 30
0.0
 11
41.88601495271405
 21
-282.9686635205726
 31
0.0
  0
LINE
  5
816
330
6B
100
AcDbEntity
  8
0
  6
CENTER
 62
     7
100
AcDbLine
 10
55.94183595271396
 20
-277.3070155205726
 30
0.0
 11
34.39333395271399
 21
-277.3070155205726
 31
0.0
  0
LINE
  5
817
330
6B
100
AcDbEntity
  8
0
 62
     3
100
AcDbLine
 10
37.186014952714
 20
-326.5570155205726
 30
0.0
 11
37.186014952714
 21
-228.0570155205726
 31
0.0
  0
LINE
  5
818
330
6B
100
AcDbEntity
  8
0
 62
     3
100
AcDbLine
 10
116.912462952714
 20
-277.3070155205726
 30
0.0
 11
116.912462952714
 21
-278.5570155205726
 31
0.0
  0
ARC
  5
819
330
6B
100
AcDbEntity
  8
0
 62
     3
100
AcDbCircle
 10
116.612462952714
 20
-278.5570155205726
 30
0.0
 40
0.3
100
AcDbArc
 50
270.0
 51
0.0
  0
LINE
  5
81A
330
6B
100
AcDbEntity
  8
0
 62
     3
100
AcDbLine
 10
116.612462952714
 20
-278.8570155205726
 30
0.0
 11
115.812462952714
 21
-278.8570155205726
 31
0.0
  0
LINE
  5
81B
330
6B
100
AcDbEntity
  8
0
 62
     3
100
AcDbLine
 10
82.71246295271408
 20
-277.3070155205726
 30
0.0
 11
82.71246295271408
 21
-278.5570155205726
 31
0.0
  0
ARC
  5
81C
330
6B
100
AcDbEntity
  8
0
 62
     3
100
AcDbCircle
 10
83.01246295271402
 20
-278.5570155205726
 30
0.0
 40
0.3
100
AcDbArc
 50
180.0
 51
270.0
  0
LINE
  5
81D
330
6B
100
AcDbEntity
  8
0
 62
     3
100
AcDbLine
 10
83.01246295271402
 20
-278.8570155205726
 30
0.0
 11
83.81246295271399
 21
-278.8570155205726
 31
0.0
  0
LINE
  5
81E
330
6B
100
AcDbEntity
  8
0
  6
CENTER
 62
     7
100
AcDbLine
 10
99.81246295271398
 20
-329.1116475205726
 30
0.0
 11
99.81246295271398
 21
-225.3574465205726
 31
0.0
  0
LINE
  5
81F
330
6B
100
AcDbEntity
  8
0
 62
     3
100
AcDbLine
 10
107.1910119527139
 20
-275.2355645205726
 30
0.0
 11
111.333912952714
 21
-279.3784665205726
 31
0.0
  0
CIRCLE
  5
820
330
6B
100
AcDbEntity
  8
0
 62
     3
100
AcDbCircle
 10
109.262462952714
 20
-277.3070155205726
 30
0.0
 40
5.5
  0
LINE
  5
821
330
6B
100
AcDbEntity
  8
0
 62
     3
100
AcDbLine
 10
107.1910119527139
 20
-279.3784665205726
 30
0.0
 11
111.333912952714
 21
-275.2355645205726
 31
0.0
  0
CIRCLE
  5
822
330
6B
100
AcDbEntity
  8
0
 62
     7
100
AcDbCircle
 10
109.262462952714
 20
-277.3070155205726
 30
0.0
 40
4.0
  0
CIRCLE
  5
823
330
6B
100
AcDbEntity
  8
0
 62
     7
100
AcDbCircle
 10
109.262462952714
 20
-277.3070155205726
 30
0.0
 40
4.5
  0
CIRCLE
  5
824
330
6B
100
AcDbEntity
  8
0
 62
     7
100
AcDbCircle
 10
109.262462952714
 20
-277.3070155205726
 30
0.0
 40
2.929474
  0
LINE
  5
825
330
6B
100
AcDbEntity
  8
0
 62
     3
100
AcDbLine
 10
92.43391295271408
 20
-275.2355645205726
 30
0.0
 11
88.29101195271391
 21
-279.3784665205726
 31
0.0
  0
CIRCLE
  5
826
330
6B
100
AcDbEntity
  8
0
 62
     3
100
AcDbCircle
 10
90.36246295271395
 20
-277.3070155205726
 30
0.0
 40
5.5
  0
LINE
  5
827
330
6B
100
AcDbEntity
  8
0
 62
     3
100
AcDbLine
 10
92.43391295271408
 20
-279.3784665205726
 30
0.0
 11
88.29101195271391
 21
-275.2355645205726
 31
0.0
  0
CIRCLE
  5
828
330
6B
100
AcDbEntity
  8
0
 62
     7
100
AcDbCircle
 10
90.36246295271395
 20
-277.3070155205726
 30
0.0
 40
4.0
  0
CIRCLE
  5
829
330
6B
100
AcDbEntity
  8
0
 62
     7
100
AcDbCircle
 10
90.36246295271395
 20
-277.3070155205726
 30
0.0
 40
4.5
  0
CIRCLE
  5
82A
330
6B
100
AcDbEntity
  8
0
 62
     7
100
AcDbCircle
 10
90.36246295271395
 20
-277.3070155205726
 30
0.0
 40
2.929474
  0
LINE
  5
82B
330
6B
100
AcDbEntity
  8
0
  6
CENTER
 62
     7
100
AcDbLine
 10
101.412462952714
 20
-319.0570155205727
 30
0.0
 11
98.21246295271407
 21
-319.0570155205727
 31
0.0
  0
LINE
  5
82C
330
6B
100
AcDbEntity
  8
0
  6
CENTER
 62
     7
100
AcDbLine
 10
101.412462952714
 20
-235.5570155205726
 30
0.0
 11
98.21246295271407
 21
-235.5570155205726
 31
0.0
  0
LINE
  5
82E
330
6B
100
AcDbEntity
  8
0
 62
     7
100
AcDbLine
 10
98.248425952714
 20
-235.8943405205726
 30
0.0
 11
85.268731952714
 21
-228.4495445205726
 31
0.0
  0
LINE
  5
82F
330
6B
100
AcDbEntity
  8
0
 62
     7
100
AcDbLine
 10
85.268731952714
 20
-228.4495445205726
 30
0.0
 11
63.268731952714
 21
-228.4495445205726
 31
0.0
  0
TEXT
  5
830
330
6B
100
AcDbEntity
  8
0
 62
     4
100
AcDbText
 10
66.01873195271401
 20
-227.4495445205726
 30
0.0
 40
3.2
  1
2-%%c3.2
 41
0.9667969999999998
100
AcDbText
  0
LINE
  5
831
330
6B
100
AcDbEntity
  8
0
  6
CENTER
 62
     7
100
AcDbLine
 10
-20.36204204728597
 20
-327.6873255205726
 30
0.0
 11
-20.36204204728597
 21
-225.1644225205726
 31
0.0
  0
LINE
  5
832
330
6B
100
AcDbEntity
  8
0
  6
CENTER
 62
     7
100
AcDbLine
 10
35.601316952714
 20
-319.0570155205727
 30
0.0
 11
46.66806295271408
 21
-319.0570155205727
 31
0.0
  0
LINE
  5
833
330
6B
100
AcDbEntity
  8
0
  6
CENTER
 62
     7
100
AcDbLine
 10
33.45590795271391
 20
-235.5570155205726
 30
0.0
 11
48.16099795271395
 21
-235.5570155205726
 31
0.0
  0
LINE
  5
834
330
6B
100
AcDbEntity
  8
0
  6
DASHED
 62
     7
100
AcDbLine
 10
37.186014952714
 20
-237.1570155205726
 30
0.0
 11
45.186014952714
 21
-237.1570155205726
 31
0.0
  0
LINE
  5
835
330
6B
100
AcDbEntity
  8
0
  6
DASHED
 62
     7
100
AcDbLine
 10
37.186014952714
 20
-233.9570155205726
 30
0.0
 11
45.186014952714
 21
-233.9570155205726
 31
0.0
  0
ARC
  5
836
330
6B
100
AcDbEntity
  8
0
 62
     4
100
AcDbCircle
 10
52.58601495271397
 20
-244.3570155205726
 30
0.0
 40
0.3
100
AcDbArc
 50
0.0
 51
90.0
  0
TEXT
  5
837
330
6B
100
AcDbEntity
  8
0
 62
     4
100
AcDbText
 10
85.13354695271392
 20
-262.8413495205726
 30
0.0
 40
1.6
  1
ストリップゲージ
 41
0.833333
100
AcDbText
  0
TEXT
  5
838
330
6B
100
AcDbEntity
  8
0
 62
     4
100
AcDbText
 10
107.595155952714
 20
-268.5566715205726
 30
0.0
 40
3.149999999999999
  1
N
100
AcDbText
  0
ARC
  5
839
330
6B
100
AcDbEntity
  8
0
 62
     3
100
AcDbCircle
 10
99.81246295271398
 20
-235.5570155205726
 30
0.0
 40
5.5
100
AcDbArc
 50
10.4756820000002
 51
79.52431800000012
  0
ARC
  5
83A
330
6B
100
AcDbEntity
  8
0
 62
     3
100
AcDbCircle
 10
99.81246295271398
 20
-235.5570155205726
 30
0.0
 40
4.0
100
AcDbArc
 50
14.47751199999994
 51
75.52248800000173
  0
LINE
  5
83B
330
6B
100
AcDbEntity
  8
0
 62
     3
100
AcDbLine
 10
100.8124629527139
 20
-230.1486885205726
 30
0.0
 11
100.8124629527139
 21
-231.6840325205726
 31
0.0
  0
ARC
  5
83C
330
6B
100
AcDbEntity
  8
0
 62
     3
100
AcDbCircle
 10
99.81246295271398
 20
-235.5570155205726
 30
0.0
 40
4.0
100
AcDbArc
 50
104.4775119999983
 51
165.522488
  0
LINE
  5
83D
330
6B
100
AcDbEntity
  8
0
 62
     3
100
AcDbLine
 10
98.81246295271401
 20
-230.1486885205726
 30
0.0
 11
98.81246295271401
 21
-231.6840325205726
 31
0.0
  0
ARC
  5
83E
330
6B
100
AcDbEntity
  8
0
 62
     3
100
AcDbCircle
 10
99.81246295271398
 20
-235.5570155205726
 30
0.0
 40
5.5
100
AcDbArc
 50
100.4756819999998
 51
169.5243179999996
  0
ARC
  5
83F
330
6B
100
AcDbEntity
  8
0
 62
     3
100
AcDbCircle
 10
99.81246295271398
 20
-235.5570155205726
 30
0.0
 40
7.5
100
AcDbArc
 50
0.0
 51
180.0
  0
LINE
  5
840
330
6B
100
AcDbEntity
  8
0
 62
     3
100
AcDbLine
 10
95.93947895271387
 20
-234.5570155205726
 30
0.0
 11
94.40413595271387
 21
-234.5570155205726
 31
0.0
  0
LINE
  5
841
330
6B
100
AcDbEntity
  8
0
 62
     3
100
AcDbLine
 10
103.6854459527139
 20
-234.5570155205726
 30
0.0
 11
105.220788952714
 21
-234.5570155205726
 31
0.0
  0
CIRCLE
  5
842
330
6B
100
AcDbEntity
  8
0
 62
     3
100
AcDbCircle
 10
99.81246295271398
 20
-235.5570155205726
 30
0.0
 40
1.6
  0
LINE
  5
843
330
6B
100
AcDbEntity
  8
0
 62
     3
100
AcDbLine
 10
103.6854459527139
 20
-236.5570155205726
 30
0.0
 11
105.312462952714
 21
-236.5570155205726
 31
0.0
  0
ARC
  5
844
330
6B
100
AcDbEntity
  8
0
 62
     3
100
AcDbCircle
 10
99.81246295271398
 20
-235.5570155205726
 30
0.0
 40
4.0
100
AcDbArc
 50
194.4775080000008
 51
345.5224880000002
  0
LINE
  5
845
330
6B
100
AcDbEntity
  8
0
 62
     3
100
AcDbLine
 10
105.312462952714
 20
-236.5570155205726
 30
0.0
 11
105.312462952714
 21
-244.0570155205726
 31
0.0
  0
LINE
  5
846
330
6B
100
AcDbEntity
  8
0
 62
     3
100
AcDbLine
 10
107.312462952714
 20
-235.5570155205726
 30
0.0
 11
107.312462952714
 21
-244.0570155205726
 31
0.0
  0
LINE
  5
847
330
6B
100
AcDbEntity
  8
0
 62
     3
100
AcDbLine
 10
95.93947895271387
 20
-236.5570155205726
 30
0.0
 11
94.31246295271398
 21
-236.5570155205726
 31
0.0
  0
LINE
  5
848
330
6B
100
AcDbEntity
  8
0
 62
     3
100
AcDbLine
 10
94.31246295271398
 20
-236.5570155205726
 30
0.0
 11
94.31246295271398
 21
-244.0570155205726
 31
0.0
  0
LINE
  5
849
330
6B
100
AcDbEntity
  8
0
 62
     3
100
AcDbLine
 10
92.31246295271398
 20
-235.5570155205726
 30
0.0
 11
92.31246295271398
 21
-244.0570155205726
 31
0.0
  0
LINE
  5
84A
330
6B
100
AcDbEntity
  8
0
 62
     3
100
AcDbLine
 10
94.31246295271398
 20
-241.0570155205726
 30
0.0
 11
105.312462952714
 21
-241.0570155205726
 31
0.0
  0
LINE
  5
84B
330
6B
100
AcDbEntity
  8
0
 62
     3
100
AcDbLine
 10
84.81246295271398
 20
-244.0570155205726
 30
0.0
 11
114.812462952714
 21
-244.0570155205726
 31
0.0
  0
ARC
  5
84C
330
6B
100
AcDbEntity
  8
0
 62
     3
100
AcDbCircle
 10
84.81246295271398
 20
-246.0570155205726
 30
0.0
 40
2.0
100
AcDbArc
 50
90.0
 51
180.0
  0
LINE
  5
84D
330
6B
100
AcDbEntity
  8
0
 62
     3
100
AcDbLine
 10
82.81246295271399
 20
-270.8070155205726
 30
0.0
 11
82.81246295271399
 21
-246.0570155205726
 31
0.0
  0
ARC
  5
84E
330
6B
100
AcDbEntity
  8
0
 62
     3
100
AcDbCircle
 10
114.812462952714
 20
-246.0570155205726
 30
0.0
 40
2.0
100
AcDbArc
 50
0.0
 51
90.0
  0
LINE
  5
84F
330
6B
100
AcDbEntity
  8
0
 62
     3
100
AcDbLine
 10
116.812462952714
 20
-270.8070155205726
 30
0.0
 11
116.812462952714
 21
-246.0570155205726
 31
0.0
  0
LINE
  5
850
330
6B
100
AcDbEntity
  8
0
 62
     3
100
AcDbLine
 10
84.81246295271398
 20
-258.3070155205726
 30
0.0
 11
96.812462952714
 21
-258.3070155205726
 31
0.0
  0
LINE
  5
851
330
6B
100
AcDbEntity
  8
0
 62
     3
100
AcDbLine
 10
82.81246295271399
 20
-257.3070155205726
 30
0.0
 11
84.81246295271398
 21
-257.3070155205726
 31
0.0
  0
LINE
  5
852
330
6B
100
AcDbEntity
  8
0
 62
     3
100
AcDbLine
 10
84.81246295271398
 20
-258.3070155205726
 30
0.0
 11
84.81246295271398
 21
-257.3070155205726
 31
0.0
  0
LINE
  5
853
330
6B
100
AcDbEntity
  8
0
 62
     3
100
AcDbLine
 10
84.81246295271398
 20
-260.3070155205726
 30
0.0
 11
84.81246295271398
 21
-261.3070155205726
 31
0.0
  0
LINE
  5
854
330
6B
100
AcDbEntity
  8
0
 62
     3
100
AcDbLine
 10
82.81246295271399
 20
-261.3070155205726
 30
0.0
 11
84.81246295271398
 21
-261.3070155205726
 31
0.0
  0
LINE
  5
855
330
6B
100
AcDbEntity
  8
0
 62
     3
100
AcDbLine
 10
84.81246295271398
 20
-260.3070155205726
 30
0.0
 11
96.812462952714
 21
-260.3070155205726
 31
0.0
  0
LINE
  5
856
330
6B
100
AcDbEntity
  8
0
 62
     3
100
AcDbLine
 10
83.81246295271399
 20
-275.7570155205726
 30
0.0
 11
83.81246295271399
 21
-271.8070155205726
 31
0.0
  0
ARC
  5
857
330
6B
100
AcDbEntity
  8
0
 62
     3
100
AcDbCircle
 10
83.81246295271399
 20
-270.8070155205726
 30
0.0
 40
1.0
100
AcDbArc
 50
180.0
 51
270.0
  0
LINE
  5
858
330
6B
100
AcDbEntity
  8
0
 62
     3
100
AcDbLine
 10
115.812462952714
 20
-275.7570155205726
 30
0.0
 11
115.812462952714
 21
-271.8070155205726
 31
0.0
  0
ARC
  5
859
330
6B
100
AcDbEntity
  8
0
 62
     3
100
AcDbCircle
 10
115.812462952714
 20
-270.8070155205726
 30
0.0
 40
1.0
100
AcDbArc
 50
270.0
 51
0.0
  0
ARC
  5
85A
330
6B
100
AcDbEntity
  8
0
 62
     3
100
AcDbCircle
 10
-20.36204204728597
 20
-235.5570155205726
 30
0.0
 40
7.5
100
AcDbArc
 50
0.0
 51
180.0
  0
CIRCLE
  5
85B
330
6B
100
AcDbEntity
  8
0
 62
     3
100
AcDbCircle
 10
-20.36204204728597
 20
-235.5570155205726
 30
0.0
 40
1.6
  0
LINE
  5
85C
330
6B
100
AcDbEntity
  8
0
 62
     3
100
AcDbLine
 10
-12.86204204728597
 20
-235.5570155205726
 30
0.0
 11
-12.86204204728597
 21
-244.0570155205726
 31
0.0
  0
LINE
  5
85D
330
6B
100
AcDbEntity
  8
0
 62
     3
100
AcDbLine
 10
-27.86204204728597
 20
-235.5570155205726
 30
0.0
 11
-27.86204204728597
 21
-244.0570155205726
 31
0.0
  0
LINE
  5
85E
330
6B
100
AcDbEntity
  8
0
 62
     3
100
AcDbLine
 10
-27.86204204728597
 20
-319.0570155205727
 30
0.0
 11
-27.86204204728597
 21
-310.5570155205726
 31
0.0
  0
LINE
  5
85F
330
6B
100
AcDbEntity
  8
0
 62
     3
100
AcDbLine
 10
-12.86204204728597
 20
-319.0570155205727
 30
0.0
 11
-12.86204204728597
 21
-310.5570155205726
 31
0.0
  0
ARC
  5
860
330
6B
100
AcDbEntity
  8
0
 62
     3
100
AcDbCircle
 10
-20.36204204728597
 20
-319.0570155205727
 30
0.0
 40
7.5
100
AcDbArc
 50
180.0
 51
0.0
  0
CIRCLE
  5
861
330
6B
100
AcDbEntity
  8
0
 62
     3
100
AcDbCircle
 10
-20.36204204728597
 20
-319.0570155205727
 30
0.0
 40
1.6
  0
LINE
  5
862
330
6B
100
AcDbEntity
  8
0
 62
     3
100
AcDbLine
 10
54.88601495271404
 20
-283.2070155205725
 30
0.0
 11
54.88601495271404
 21
-283.3070155205726
 31
0.0
  0
ARC
  5
863
330
6B
100
AcDbEntity
  8
0
 62
     3
100
AcDbCircle
 10
50.18601495271401
 20
-315.5570155205726
 30
0.0
 40
5.0
100
AcDbArc
 50
90.0
 51
180.0
  0
LINE
  5
864
330
6B
100
AcDbEntity
  8
0
 62
     3
100
AcDbLine
 10
45.186014952714
 20
-326.5570155205726
 30
0.0
 11
37.186014952714
 21
-326.5570155205726
 31
0.0
  0
LINE
  5
865
330
6B
100
AcDbEntity
  8
0
 62
     3
100
AcDbLine
 10
45.186014952714
 20
-315.0570155205727
 30
0.0
 11
45.186014952714
 21
-326.5570155205726
 31
0.0
  0
LINE
  5
866
330
6B
100
AcDbEntity
  8
0
 62
     3
100
AcDbLine
 10
39.686014952714
 20
-313.2570155205726
 30
0.0
 11
41.88601495271405
 21
-312.5570155205726
 31
0.0
  0
LINE
  5
867
330
6B
100
AcDbEntity
  8
0
 62
     3
100
AcDbLine
 10
39.686014952714
 20
-312.5570155205726
 30
0.0
 11
37.186014952714
 21
-312.5570155205726
 31
0.0
  0
LINE
  5
868
330
6B
100
AcDbEntity
  8
0
 62
     3
100
AcDbLine
 10
39.686014952714
 20
-313.2570155205726
 30
0.0
 11
39.686014952714
 21
-312.5570155205726
 31
0.0
  0
LINE
  5
869
330
6B
100
AcDbEntity
  8
0
 62
     3
100
AcDbLine
 10
41.88601495271405
 20
-281.8070155205727
 30
0.0
 11
47.98601495271396
 21
-281.8070155205727
 31
0.0
  0
LINE
  5
86A
330
6B
100
AcDbEntity
  8
0
 62
     3
100
AcDbLine
 10
54.88601495271404
 20
-283.2070155205725
 30
0.0
 11
54.88601495271404
 21
-271.3070155205726
 31
0.0
  0
LINE
  5
86B
330
6B
100
AcDbEntity
  8
0
 62
     3
100
AcDbLine
 10
41.88601495271405
 20
-272.8070155205726
 30
0.0
 11
47.98601495271396
 21
-272.8070155205726
 31
0.0
  0
LINE
  5
86C
330
6B
100
AcDbEntity
  8
0
 62
     3
100
AcDbLine
 10
42.18601495271399
 20
-275.8070155205726
 30
0.0
 11
47.98601495271396
 21
-275.8070155205726
 31
0.0
  0
LINE
  5
86D
330
6B
100
AcDbEntity
  8
0
 62
     3
100
AcDbLine
 10
41.88601495271405
 20
-276.1070155205726
 30
0.0
 11
41.88601495271405
 21
-277.3070155205726
 31
0.0
  0
LINE
  5
86E
330
6B
100
AcDbEntity
  8
0
 62
     3
100
AcDbLine
 10
42.18601495271399
 20
-278.8070155205726
 30
0.0
 11
47.98601495271396
 21
-278.8070155205726
 31
0.0
  0
ARC
  5
86F
330
6B
100
AcDbEntity
  8
0
 62
     3
100
AcDbCircle
 10
47.98601495271396
 20
-280.3070155205726
 30
0.0
 40
1.5
100
AcDbArc
 50
270.0
 51
90.0
  0
LINE
  5
870
330
6B
100
AcDbEntity
  8
0
 62
     3
100
AcDbLine
 10
41.88601495271405
 20
-278.5070155205726
 30
0.0
 11
41.88601495271405
 21
-277.3070155205726
 31
0.0
  0
LINE
  5
871
330
6B
100
AcDbEntity
  8
0
 62
     3
100
AcDbLine
 10
52.58601495271397
 20
-244.0570155205726
 30
0.0
 11
41.88601495271405
 21
-244.0570155205726
 31
0.0
  0
ARC
  5
872
330
6B
100
AcDbEntity
  8
0
 62
     3
100
AcDbCircle
 10
50.18601495271401
 20
-239.0570155205726
 30
0.0
 40
5.0
100
AcDbArc
 50
180.0
 51
270.0
  0
LINE
  5
873
330
6B
100
AcDbEntity
  8
0
 62
     3
100
AcDbLine
 10
45.186014952714
 20
-239.0570155205726
 30
0.0
 11
45.186014952714
 21
-228.0570155205726
 31
0.0
  0
LINE
  5
874
330
6B
100
AcDbEntity
  8
0
 62
     3
100
AcDbLine
 10
45.186014952714
 20
-228.0570155205726
 30
0.0
 11
37.186014952714
 21
-228.0570155205726
 31
0.0
  0
LINE
  5
875
330
6B
100
AcDbEntity
  8
0
 62
     3
100
AcDbLine
 10
37.186014952714
 20
-242.0570155205726
 30
0.0
 11
39.686014952714
 21
-242.0570155205726
 31
0.0
  0
LINE
  5
876
330
6B
100
AcDbEntity
  8
0
 62
     3
100
AcDbLine
 10
39.686014952714
 20
-241.3570155205726
 30
0.0
 11
41.88601495271405
 21
-242.0570155205726
 31
0.0
  0
LINE
  5
877
330
6B
100
AcDbEntity
  8
0
 62
     3
100
AcDbLine
 10
39.686014952714
 20
-241.3570155205726
 30
0.0
 11
39.686014952714
 21
-242.0570155205726
 31
0.0
  0
ARC
  5
878
330
6B
100
AcDbEntity
  8
0
 62
     3
100
AcDbCircle
 10
47.98601495271396
 20
-274.3070155205726
 30
0.0
 40
1.5
100
AcDbArc
 50
270.0
 51
90.0
  0
LINE
  5
879
330
6B
100
AcDbEntity
  8
0
  6
DASHED
 62
     7
100
AcDbLine
 10
45.186014952714
 20
-317.4570155205726
 30
0.0
 11
37.186014952714
 21
-317.4570155205726
 31
0.0
  0
LINE
  5
87A
330
6B
100
AcDbEntity
  8
0
  6
DASHED
 62
     7
100
AcDbLine
 10
45.186014952714
 20
-320.6570155205725
 30
0.0
 11
37.186014952714
 21
-320.6570155205725
 31
0.0
  0
ARC
  5
87B
330
6B
100
AcDbEntity
  8
0
 62
     3
100
AcDbCircle
 10
99.81246295271398
 20
-319.0570155205727
 30
0.0
 40
5.5
100
AcDbArc
 50
280.475682
 51
349.5243179999998
  0
ARC
  5
87C
330
6B
100
AcDbEntity
  8
0
 62
     3
100
AcDbCircle
 10
99.81246295271398
 20
-319.0570155205727
 30
0.0
 40
4.0
100
AcDbArc
 50
284.4775119999983
 51
345.5224880000002
  0
LINE
  5
87D
330
6B
100
AcDbEntity
  8
0
 62
     3
100
AcDbLine
 10
100.8124629527139
 20
-324.4653425205726
 30
0.0
 11
100.8124629527139
 21
-322.9299985205726
 31
0.0
  0
ARC
  5
87E
330
6B
100
AcDbEntity
  8
0
 62
     3
100
AcDbCircle
 10
99.81246295271398
 20
-319.0570155205727
 30
0.0
 40
4.0
100
AcDbArc
 50
194.4775119999999
 51
255.5224880000018
  0
LINE
  5
87F
330
6B
100
AcDbEntity
  8
0
 62
     3
100
AcDbLine
 10
98.81246295271401
 20
-324.4653425205726
 30
0.0
 11
98.81246295271401
 21
-322.9299985205726
 31
0.0
  0
ARC
  5
880
330
6B
100
AcDbEntity
  8
0
 62
     3
100
AcDbCircle
 10
99.81246295271398
 20
-319.0570155205727
 30
0.0
 40
5.5
100
AcDbArc
 50
190.475682
 51
259.5243180000001
  0
ARC
  5
881
330
6B
100
AcDbEntity
  8
0
 62
     3
100
AcDbCircle
 10
99.81246295271398
 20
-319.0570155205727
 30
0.0
 40
7.5
100
AcDbArc
 50
180.0
 51
0.0
  0
LINE
  5
882
330
6B
100
AcDbEntity
  8
0
 62
     3
100
AcDbLine
 10
95.93947895271387
 20
-320.0570155205726
 30
0.0
 11
94.40413595271387
 21
-320.0570155205726
 31
0.0
  0
LINE
  5
883
330
6B
100
AcDbEntity
  8
0
 62
     3
100
AcDbLine
 10
103.6854459527139
 20
-320.0570155205726
 30
0.0
 11
105.220788952714
 21
-320.0570155205726
 31
0.0
  0
CIRCLE
  5
884
330
6B
100
AcDbEntity
  8
0
 62
     3
100
AcDbCircle
 10
99.81246295271398
 20
-319.0570155205727
 30
0.0
 40
1.6
  0
LINE
  5
885
330
6B
100
AcDbEntity
  8
0
 62
     3
100
AcDbLine
 10
103.6854459527139
 20
-318.0570155205726
 30
0.0
 11
105.312462952714
 21
-318.0570155205726
 31
0.0
  0
ARC
  5
886
330
6B
100
AcDbEntity
  8
0
 62
     3
100
AcDbCircle
 10
99.81246295271398
 20
-319.0570155205727
 30
0.0
 40
4.0
100
AcDbArc
 50
14.47751199999994
 51
165.5224920000008
  0
LINE
  5
887
330
6B
100
AcDbEntity
  8
0
 62
     3
100
AcDbLine
 10
105.312462952714
 20
-318.0570155205726
 30
0.0
 11
105.312462952714
 21
-310.5570155205726
 31
0.0
  0
LINE
  5
888
330
6B
100
AcDbEntity
  8
0
 62
     3
100
AcDbLine
 10
107.312462952714
 20
-319.0570155205727
 30
0.0
 11
107.312462952714
 21
-310.5570155205726
 31
0.0
  0
LINE
  5
889
330
6B
100
AcDbEntity
  8
0
 62
     3
100
AcDbLine
 10
95.93947895271387
 20
-318.0570155205726
 30
0.0
 11
94.31246295271398
 21
-318.0570155205726
 31
0.0
  0
LINE
  5
88A
330
6B
100
AcDbEntity
  8
0
 62
     3
100
AcDbLine
 10
94.31246295271398
 20
-318.0570155205726
 30
0.0
 11
94.31246295271398
 21
-310.5570155205726
 31
0.0
  0
LINE
  5
88B
330
6B
100
AcDbEntity
  8
0
 62
     3
100
AcDbLine
 10
92.31246295271398
 20
-319.0570155205727
 30
0.0
 11
92.31246295271398
 21
-310.5570155205726
 31
0.0
  0
LINE
  5
88C
330
6B
100
AcDbEntity
  8
0
 62
     3
100
AcDbLine
 10
94.31246295271398
 20
-313.5570155205726
 30
0.0
 11
105.312462952714
 21
-313.5570155205726
 31
0.0
  0
LINE
  5
88D
330
6B
100
AcDbEntity
  8
0
 62
     3
100
AcDbLine
 10
84.81246295271398
 20
-310.5570155205726
 30
0.0
 11
114.812462952714
 21
-310.5570155205726
 31
0.0
  0
ARC
  5
88E
330
6B
100
AcDbEntity
  8
0
 62
     3
100
AcDbCircle
 10
84.81246295271398
 20
-308.5570155205726
 30
0.0
 40
2.0
100
AcDbArc
 50
180.0
 51
270.0
  0
LINE
  5
88F
330
6B
100
AcDbEntity
  8
0
 62
     3
100
AcDbLine
 10
82.81246295271399
 20
-283.8070155205727
 30
0.0
 11
82.81246295271399
 21
-308.5570155205726
 31
0.0
  0
ARC
  5
890
330
6B
100
AcDbEntity
  8
0
 62
     3
100
AcDbCircle
 10
114.812462952714
 20
-308.5570155205726
 30
0.0
 40
2.0
100
AcDbArc
 50
270.0
 51
0.0
  0
LINE
  5
891
330
6B
100
AcDbEntity
  8
0
 62
     3
100
AcDbLine
 10
116.812462952714
 20
-283.8070155205727
 30
0.0
 11
116.812462952714
 21
-308.5570155205726
 31
0.0
  0
LINE
  5
892
330
6B
100
AcDbEntity
  8
0
 62
     3
100
AcDbLine
 10
115.812462952714
 20
-278.8570155205726
 30
0.0
 11
115.812462952714
 21
-282.8070155205726
 31
0.0
  0
ARC
  5
893
330
6B
100
AcDbEntity
  8
0
 62
     3
100
AcDbCircle
 10
115.812462952714
 20
-283.8070155205727
 30
0.0
 40
1.0
100
AcDbArc
 50
0.0
 51
90.0
  0
LINE
  5
894
330
6B
100
AcDbEntity
  8
0
 62
     3
100
AcDbLine
 10
83.81246295271399
 20
-278.8570155205726
 30
0.0
 11
83.81246295271399
 21
-282.8070155205726
 31
0.0
  0
ARC
  5
895
330
6B
100
AcDbEntity
  8
0
 62
     3
100
AcDbCircle
 10
83.81246295271399
 20
-283.8070155205727
 30
0.0
 40
1.0
100
AcDbArc
 50
90.0
 51
180.0
  0
TEXT
  5
A52
330
6B
100
AcDbEntity
  8
0
 62
     3
100
AcDbText
 10
94.39135017221264
 20
-334.9980662039703
 30
0.0
 40
3.2
  1
材質：耐熱グレード　ABS樹脂(上白色・下黒色)
  7
高3.2
100
AcDbText
  0
LINE
  5
A53
330
6B
100
AcDbEntity
  8
0
 62
     7
100
AcDbLine
 10
94.09441988152737
 20
-335.97538022901
 30
0.0
 11
181.0938447836261
 21
-335.97538022901
 31
0.0
  0
LINE
  5
A54
330
6B
100
AcDbEntity
  8
0
 62
     3
100
AcDbLine
 10
-72.01348682778735
 20
-205.2172340313176
 30
0.0
 11
-72.01348682778735
 21
-385.2172340313176
 31
0.0
  0
LINE
  5
A55
330
6B
100
AcDbEntity
  8
0
 62
     3
100
AcDbLine
 10
204.9865131722127
 20
-385.2172340313176
 30
0.0
 11
204.9865131722127
 21
-205.2172340313176
 31
0.0
  0
LINE
  5
A56
330
6B
100
AcDbEntity
  8
0
 62
     3
100
AcDbLine
 10
-72.01348682778735
 20
-385.2172340313176
 30
0.0
 11
204.9865131722127
 21
-385.2172340313176
 31
0.0
  0
LINE
  5
A57
330
6B
100
AcDbEntity
  8
0
 62
     3
100
AcDbLine
 10
66.48651317221276
 20
-196.7446167313176
 30
0.0
 11
66.48651317221276
 21
-197.9931758413176
 31
0.0
  0
LINE
  5
A58
330
6B
100
AcDbEntity
  8
0
 62
     3
100
AcDbLine
 10
54.57317445221271
 20
-203.3839063113176
 30
0.0
 11
55.00892236221272
 21
-203.6113744513176
 31
0.0
  0
LINE
  5
A59
330
6B
100
AcDbEntity
  8
0
 62
     3
100
AcDbLine
 10
54.57317445221271
 20
-207.1145367813176
 30
0.0
 11
55.00892236221272
 21
-206.8870686513176
 31
0.0
  0
LINE
  5
A5A
330
6B
100
AcDbEntity
  8
0
 62
     3
100
AcDbLine
 10
55.00892236221272
 20
-203.6113744513176
 30
0.0
 11
55.00892236221272
 21
-206.8870686513176
 31
0.0
  0
LINE
  5
A5B
330
6B
100
AcDbEntity
  8
0
 62
     3
100
AcDbLine
 10
56.11243978221272
 20
-207.1145367813176
 30
0.0
 11
55.67669187221281
 21
-206.8870686513176
 31
0.0
  0
LINE
  5
A5C
330
6B
100
AcDbEntity
  8
0
 62
     3
100
AcDbLine
 10
55.67669187221281
 20
-204.8902098313176
 30
0.0
 11
55.67669187221281
 21
-206.8870686513176
 31
0.0
  0
LINE
  5
A5D
330
6B
100
AcDbEntity
  8
0
 62
     3
100
AcDbLine
 10
58.6543025622127
 20
-203.3839063113176
 30
0.0
 11
58.21855465221279
 21
-203.6113744513176
 31
0.0
  0
LINE
  5
A5E
330
6B
100
AcDbEntity
  8
0
 62
     3
100
AcDbLine
 10
57.11503723221266
 20
-203.3839063113176
 30
0.0
 11
57.55078514221281
 21
-203.6113744513176
 31
0.0
  0
LINE
  5
A5F
330
6B
100
AcDbEntity
  8
0
 62
     3
100
AcDbLine
 10
57.55078514221281
 20
-203.6113744513176
 30
0.0
 11
57.55078514221281
 21
-205.0537115113176
 31
0.0
  0
LINE
  5
A60
330
6B
100
AcDbEntity
  8
0
 62
     3
100
AcDbLine
 10
58.21855465221279
 20
-203.6113744513176
 30
0.0
 11
58.21855465221279
 21
-207.3260979313176
 31
0.0
  0
LINE
  5
A61
330
6B
100
AcDbEntity
  8
0
 62
     3
100
AcDbLine
 10
58.86959976221283
 20
-203.3839089413176
 30
0.0
 11
59.30534610221275
 21
-203.6113800713176
 31
0.0
  0
LINE
  5
A62
330
6B
100
AcDbEntity
  8
0
 62
     3
100
AcDbLine
 10
58.86952179221271
 20
-207.1144868113176
 30
0.0
 11
59.30527764221277
 21
-206.8870338813176
 31
0.0
  0
LINE
  5
A63
330
6B
100
AcDbEntity
  8
0
 62
     3
100
AcDbLine
 10
59.30534610221275
 20
-203.6113800713176
 30
0.0
 11
59.30534610221275
 21
-206.8870338813176
 31
0.0
  0
LINE
  5
A64
330
6B
100
AcDbEntity
  8
0
 62
     3
100
AcDbLine
 10
60.79913616221279
 20
-203.3839326113176
 30
0.0
 11
60.36338506221272
 21
-203.6113946413176
 31
0.0
  0
LINE
  5
A65
330
6B
100
AcDbEntity
  8
0
 62
     3
100
AcDbLine
 10
60.36338506221272
 20
-203.6113946413176
 30
0.0
 11
60.36338506221272
 21
-206.8870484513176
 31
0.0
  0
LINE
  5
A66
330
6B
100
AcDbEntity
  8
0
 62
     3
100
AcDbLine
 10
60.79913616221279
 20
-207.1145104913176
 30
0.0
 11
60.36338506221272
 21
-206.8870484513176
 31
0.0
  0
LINE
  5
A67
330
6B
100
AcDbEntity
  8
0
 62
     3
100
AcDbLine
 10
64.48938960221267
 20
-203.3839736113176
 30
0.0
 11
64.92513672221275
 21
-203.6114432513176
 31
0.0
  0
LINE
  5
A68
330
6B
100
AcDbEntity
  8
0
 62
     3
100
AcDbLine
 10
64.92513672221275
 20
-203.6114432513176
 30
0.0
 11
64.92507955221275
 21
-206.8870970613176
 31
0.0
  0
LINE
  5
A69
330
6B
100
AcDbEntity
  8
0
 62
     3
100
AcDbLine
 10
64.48932448221274
 20
-207.1145514913176
 30
0.0
 11
64.92507955221275
 21
-206.8870970613176
 31
0.0
  0
LINE
  5
A6A
330
6B
100
AcDbEntity
  8
0
 62
     3
100
AcDbLine
 10
66.44165056221277
 20
-203.3839736113176
 30
0.0
 11
66.00590344221267
 21
-203.6114432513176
 31
0.0
  0
LINE
  5
A6B
330
6B
100
AcDbEntity
  8
0
 62
     3
100
AcDbLine
 10
66.4417156722127
 20
-207.1145514913176
 30
0.0
 11
66.00596061221266
 21
-206.8870970613176
 31
0.0
  0
LINE
  5
A6C
330
6B
100
AcDbEntity
  8
0
 62
     3
100
AcDbLine
 10
66.64537842221273
 20
-203.3839736113176
 30
0.0
 11
67.0811255422127
 21
-203.6114432513176
 31
0.0
  0
LINE
  5
A6D
330
6B
100
AcDbEntity
  8
0
 62
     3
100
AcDbLine
 10
66.64531331221269
 20
-207.1145514913176
 30
0.0
 11
67.08106837221271
 21
-206.8870970613176
 31
0.0
  0
LINE
  5
A6E
330
6B
100
AcDbEntity
  8
0
 62
     3
100
AcDbLine
 10
68.59763939221273
 20
-203.3839736113176
 30
0.0
 11
68.16189227221276
 21
-203.6114432513176
 31
0.0
  0
LINE
  5
A6F
330
6B
100
AcDbEntity
  8
0
 62
     3
100
AcDbLine
 10
68.16189227221276
 20
-203.6114432513176
 30
0.0
 11
68.16194944221274
 21
-206.8870970613176
 31
0.0
  0
LINE
  5
A70
330
6B
100
AcDbEntity
  8
0
 62
     3
100
AcDbLine
 10
68.59770450221275
 20
-207.1145514913176
 30
0.0
 11
68.16194944221274
 21
-206.8870970613176
 31
0.0
  0
LINE
  5
A71
330
6B
100
AcDbEntity
  8
0
 62
     3
100
AcDbLine
 10
67.08110064221272
 20
-205.0385763713176
 30
0.0
 11
66.00592835221277
 21
-205.0385763713176
 31
0.0
  0
LINE
  5
A72
330
6B
100
AcDbEntity
  8
0
 62
     3
100
AcDbLine
 10
67.0810932822128
 20
-205.4598667313176
 30
0.0
 11
66.00593570221281
 21
-205.4598667313176
 31
0.0
  0
LINE
  5
A73
330
6B
100
AcDbEntity
  8
0
 62
     3
100
AcDbLine
 10
67.0811255422127
 20
-203.6114432513176
 30
0.0
 11
67.08110064221272
 21
-205.0385763713176
 31
0.0
  0
LINE
  5
A74
330
6B
100
AcDbEntity
  8
0
 62
     3
100
AcDbLine
 10
67.0810932822128
 20
-205.4598667313176
 30
0.0
 11
67.08106837221271
 21
-206.8870970613176
 31
0.0
  0
LINE
  5
A75
330
6B
100
AcDbEntity
  8
0
 62
     3
100
AcDbLine
 10
66.00590344221267
 20
-203.6114432513176
 30
0.0
 11
66.00592835221277
 21
-205.0385763713176
 31
0.0
  0
LINE
  5
A76
330
6B
100
AcDbEntity
  8
0
 62
     3
100
AcDbLine
 10
66.00593570221281
 20
-205.4598667313176
 30
0.0
 11
66.00596061221266
 21
-206.8870970613176
 31
0.0
  0
LINE
  5
A77
330
6B
100
AcDbEntity
  8
0
 62
     3
100
AcDbLine
 10
68.80459851221281
 20
-203.3839736113176
 30
0.0
 11
69.24034563221265
 21
-203.6114432513176
 31
0.0
  0
LINE
  5
A78
330
6B
100
AcDbEntity
  8
0
 62
     3
100
AcDbLine
 10
69.24034563221265
 20
-203.6114432513176
 30
0.0
 11
69.24028846221268
 21
-206.8870970613176
 31
0.0
  0
LINE
  5
A79
330
6B
100
AcDbEntity
  8
0
 62
     3
100
AcDbLine
 10
68.80453340221277
 20
-207.1145514913176
 30
0.0
 11
69.24028846221268
 21
-206.8870970613176
 31
0.0
  0
LINE
  5
A7A
330
6B
100
AcDbEntity
  8
0
 62
     3
100
AcDbLine
 10
70.73410878221273
 20
-203.3839736113176
 30
0.0
 11
70.29836166221276
 21
-203.6114432513176
 31
0.0
  0
LINE
  5
A7B
330
6B
100
AcDbEntity
  8
0
 62
     3
100
AcDbLine
 10
70.29836166221276
 20
-203.6114432513176
 30
0.0
 11
70.29841883221275
 21
-206.8870970613176
 31
0.0
  0
LINE
  5
A7C
330
6B
100
AcDbEntity
  8
0
 62
     3
100
AcDbLine
 10
70.73417389221276
 20
-207.1145514913176
 30
0.0
 11
70.29841883221275
 21
-206.8870970613176
 31
0.0
  0
LINE
  5
A7D
330
6B
100
AcDbEntity
  8
0
 62
     3
100
AcDbLine
 10
70.94846834221266
 20
-203.3839736113176
 30
0.0
 11
71.38421547221276
 21
-203.6114432513176
 31
0.0
  0
LINE
  5
A7E
330
6B
100
AcDbEntity
  8
0
 62
     3
100
AcDbLine
 10
71.38421547221276
 20
-203.6114432513176
 30
0.0
 11
71.38415830221276
 21
-206.8870970613176
 31
0.0
  0
LINE
  5
A7F
330
6B
100
AcDbEntity
  8
0
 62
     3
100
AcDbLine
 10
70.94840323221274
 20
-207.1145514913176
 30
0.0
 11
71.38415830221276
 21
-206.8870970613176
 31
0.0
  0
ARC
  5
A80
330
6B
100
AcDbEntity
  8
0
 62
     3
100
AcDbCircle
 10
63.09747833221274
 20
-205.2398317913176
 30
0.0
 40
2.086285909999999
100
AcDbArc
 50
97.70152350999701
 51
270.0
  0
ARC
  5
A81
330
6B
100
AcDbEntity
  8
0
 62
     3
100
AcDbCircle
 10
75.9780791722128
 20
-205.2607884213176
 30
0.0
 40
2.108943379999999
100
AcDbArc
 50
0.3142502700009098
 51
69.00558244999579
  0
ARC
  5
A82
330
6B
100
AcDbEntity
  8
0
 62
     3
100
AcDbCircle
 10
76.43875449221275
 20
-205.2607884213176
 30
0.0
 40
2.108943379999999
100
AcDbArc
 50
110.9944175499969
 51
148.1166110200019
  0
ARC
  5
A83
330
6B
100
AcDbEntity
  8
0
 62
     3
100
AcDbCircle
 10
75.9780791722128
 20
-205.2376546813176
 30
0.0
 40
2.108943379999999
100
AcDbArc
 50
290.9944175499969
 51
359.6857497299991
  0
ARC
  5
A84
330
6B
100
AcDbEntity
  8
0
 62
     3
100
AcDbCircle
 10
76.43875449221275
 20
-205.2376546813176
 30
0.0
 40
2.108943379999999
100
AcDbArc
 50
211.883388979998
 51
249.0055824499958
  0
ARC
  5
A85
330
6B
100
AcDbEntity
  8
0
 62
     3
100
AcDbCircle
 10
76.20841683221283
 20
-204.3864161513176
 30
0.0
 40
1.214070989999998
100
AcDbArc
 50
64.36517189999924
 51
115.6348281000007
  0
ARC
  5
A86
330
6B
100
AcDbEntity
  8
0
 62
     3
100
AcDbCircle
 10
76.20841683221283
 20
-206.1120269413176
 30
0.0
 40
1.214070989999998
100
AcDbArc
 50
244.3651718999992
 51
295.6348281000007
  0
ARC
  5
A87
330
6B
100
AcDbEntity
  8
0
 62
     3
100
AcDbCircle
 10
76.20841683221283
 20
-204.3633544713176
 30
0.0
 40
0.59585563
100
AcDbArc
 50
19.48660554000204
 51
160.5133944599979
  0
ARC
  5
A88
330
6B
100
AcDbEntity
  8
0
 62
     3
100
AcDbCircle
 10
76.20841683221283
 20
-206.1120269413176
 30
0.0
 40
1.214070989999998
100
AcDbArc
 50
244.3651718999992
 51
295.6348281000007
  0
ARC
  5
A89
330
6B
100
AcDbEntity
  8
0
 62
     3
100
AcDbCircle
 10
76.20841683221283
 20
-206.1350886213176
 30
0.0
 40
0.59585563
100
AcDbArc
 50
199.486605540002
 51
340.5133944599979
  0
ARC
  5
A8A
330
6B
100
AcDbEntity
  8
0
 62
     3
100
AcDbCircle
 10
71.46594433221276
 20
-227.4772813913176
 30
0.0
 40
26.04
100
AcDbArc
 50
69.50571480000154
 51
81.68998807000383
  0
ARC
  5
A8B
330
6B
100
AcDbEntity
  8
0
 62
     3
100
AcDbCircle
 10
71.46594433221276
 20
-183.0211617113176
 30
0.0
 40
26.04
100
AcDbArc
 50
278.3100119299961
 51
290.4942851999985
  0
ARC
  5
A8C
330
6B
100
AcDbEntity
  8
0
 62
     3
100
AcDbCircle
 10
79.7741484522128
 20
-205.2492215513176
 30
0.0
 40
2.31
100
AcDbArc
 50
290.4942851999985
 51
69.50571480000154
  0
ARC
  5
A8D
330
6B
100
AcDbEntity
  8
0
 62
     3
100
AcDbCircle
 10
52.47414845221283
 20
-205.2492215513176
 30
0.0
 40
2.31
100
AcDbArc
 50
110.4942851999985
 51
249.5057147999943
  0
ARC
  5
A8E
330
6B
100
AcDbEntity
  8
0
 62
     3
100
AcDbCircle
 10
60.78235258221275
 20
-227.4772813913176
 30
0.0
 40
26.04
100
AcDbArc
 50
98.31001192999615
 51
110.4942851999985
  0
ARC
  5
A8F
330
6B
100
AcDbEntity
  8
0
 62
     3
100
AcDbCircle
 10
60.78235258221275
 20
-183.0211617113176
 30
0.0
 40
26.04
100
AcDbArc
 50
249.5057147999943
 51
261.6899880699974
  0
ARC
  5
A90
330
6B
100
AcDbEntity
  8
0
 62
     3
100
AcDbCircle
 10
66.1241484522127
 20
-264.0492215513176
 30
0.0
 40
62.99999987
100
AcDbArc
 50
81.68998807000383
 51
98.31001192999615
  0
ARC
  5
A91
330
6B
100
AcDbEntity
  8
0
 62
     3
100
AcDbCircle
 10
66.1241484522127
 20
-146.4492215513176
 30
0.0
 40
62.99999987
100
AcDbArc
 50
261.6899880699974
 51
278.3100119299961
  0
ARC
  5
A92
330
6B
100
AcDbEntity
  8
0
 62
     3
100
AcDbCircle
 10
66.1241484522127
 20
-264.0492215513176
 30
0.0
 40
62.36999987
100
AcDbArc
 50
81.68998807000383
 51
98.31001192999615
  0
ARC
  5
A93
330
6B
100
AcDbEntity
  8
0
 62
     3
100
AcDbCircle
 10
66.1241484522127
 20
-146.4492215513176
 30
0.0
 40
62.36999987
100
AcDbArc
 50
261.6899880699974
 51
278.3100119299961
  0
ARC
  5
A94
330
6B
100
AcDbEntity
  8
0
 62
     3
100
AcDbCircle
 10
71.46594433221276
 20
-183.0211617113176
 30
0.0
 40
25.41
100
AcDbArc
 50
278.3100119299961
 51
290.4942851999985
  0
ARC
  5
A95
330
6B
100
AcDbEntity
  8
0
 62
     3
100
AcDbCircle
 10
71.46594433221276
 20
-227.4772813913176
 30
0.0
 40
25.41
100
AcDbArc
 50
69.50571480000154
 51
81.68998807000383
  0
ARC
  5
A96
330
6B
100
AcDbEntity
  8
0
 62
     3
100
AcDbCircle
 10
79.7741484522128
 20
-205.2492215513176
 30
0.0
 40
1.679999999999999
100
AcDbArc
 50
290.4942851999985
 51
69.50571480000154
  0
ARC
  5
A97
330
6B
100
AcDbEntity
  8
0
 62
     3
100
AcDbCircle
 10
52.47414845221283
 20
-205.2492215513176
 30
0.0
 40
1.679999999999999
100
AcDbArc
 50
110.4942851999985
 51
249.5057147999943
  0
ARC
  5
A98
330
6B
100
AcDbEntity
  8
0
 62
     3
100
AcDbCircle
 10
60.78235258221275
 20
-227.4772813913176
 30
0.0
 40
25.41
100
AcDbArc
 50
98.31001192999615
 51
110.4942851999985
  0
ARC
  5
A99
330
6B
100
AcDbEntity
  8
0
 62
     3
100
AcDbCircle
 10
60.78235258221275
 20
-183.0211617113176
 30
0.0
 40
25.41
100
AcDbArc
 50
249.5057147999943
 51
261.6899880699974
  0
LINE
  5
A9A
330
6B
100
AcDbEntity
  8
0
 62
     3
100
AcDbLine
 10
70.73410956221278
 20
-207.3260979313176
 30
0.0
 11
68.80459773221275
 21
-207.3260979313176
 31
0.0
  0
LINE
  5
A9B
330
6B
100
AcDbEntity
  8
0
 62
     3
100
AcDbLine
 10
70.73410956221278
 20
-207.1145367813176
 30
0.0
 11
70.73410956221278
 21
-207.3260979313176
 31
0.0
  0
LINE
  5
A9C
330
6B
100
AcDbEntity
  8
0
 62
     3
100
AcDbLine
 10
68.59764017221277
 20
-203.1724438813176
 30
0.0
 11
66.64537764221268
 21
-203.1724438813176
 31
0.0
  0
LINE
  5
A9D
330
6B
100
AcDbEntity
  8
0
 62
     3
100
AcDbLine
 10
68.59764017221277
 20
-203.1724438813176
 30
0.0
 11
68.59764017221277
 21
-203.3839063113176
 31
0.0
  0
LINE
  5
A9E
330
6B
100
AcDbEntity
  8
0
 62
     3
100
AcDbLine
 10
68.59764017221277
 20
-207.1145367813176
 30
0.0
 11
68.59764017221277
 21
-207.3261966413176
 31
0.0
  0
LINE
  5
A9F
330
6B
100
AcDbEntity
  8
0
 62
     3
100
AcDbLine
 10
68.59764017221277
 20
-207.3261966413176
 30
0.0
 11
66.64537764221268
 21
-207.3261966413176
 31
0.0
  0
LINE
  5
AA0
330
6B
100
AcDbEntity
  8
0
 62
     3
100
AcDbLine
 10
70.73410956221278
 20
-203.1723451713176
 30
0.0
 11
70.73410956221278
 21
-203.3839063113176
 31
0.0
  0
LINE
  5
AA1
330
6B
100
AcDbEntity
  8
0
 62
     3
100
AcDbLine
 10
70.73410956221278
 20
-203.1723451713176
 30
0.0
 11
68.80459773221275
 21
-203.1723451713176
 31
0.0
  0
LINE
  5
AA2
330
6B
100
AcDbEntity
  8
0
 62
     3
100
AcDbLine
 10
68.80459773221275
 20
-203.1723451713176
 30
0.0
 11
68.80459773221275
 21
-203.3839063113176
 31
0.0
  0
LINE
  5
AA3
330
6B
100
AcDbEntity
  8
0
 62
     3
100
AcDbLine
 10
70.94846756221271
 20
-207.1145367813176
 30
0.0
 11
70.94846756221271
 21
-207.3260979313176
 31
0.0
  0
LINE
  5
AA4
330
6B
100
AcDbEntity
  8
0
 62
     3
100
AcDbLine
 10
72.9327681222128
 20
-207.3260979313176
 30
0.0
 11
70.94846756221271
 21
-207.3260979313176
 31
0.0
  0
LINE
  5
AA5
330
6B
100
AcDbEntity
  8
0
 62
     3
100
AcDbLine
 10
72.44223149221274
 20
-203.8401146913176
 30
0.0
 11
72.44223149221274
 21
-206.6583284113176
 31
0.0
  0
LINE
  5
AA6
330
6B
100
AcDbEntity
  8
0
 62
     3
100
AcDbLine
 10
72.44223149221274
 20
-206.6583284113176
 30
0.0
 11
72.63228046221275
 21
-206.6583284113176
 31
0.0
  0
ARC
  5
AA7
330
6B
100
AcDbEntity
  8
0
 62
     3
100
AcDbCircle
 10
71.66049472221278
 20
-205.2492215513176
 30
0.0
 40
1.71170957
100
AcDbArc
 50
304.5919552700032
 51
55.40804472999678
  0
LINE
  5
AA8
330
6B
100
AcDbEntity
  8
0
 62
     3
100
AcDbLine
 10
72.9327681222128
 20
-203.1723451713176
 30
0.0
 11
70.94846756221271
 21
-203.1723451713176
 31
0.0
  0
LINE
  5
AA9
330
6B
100
AcDbEntity
  8
0
 62
     3
100
AcDbLine
 10
70.94846756221271
 20
-203.1723451713176
 30
0.0
 11
70.94846756221271
 21
-203.3839063113176
 31
0.0
  0
LINE
  5
AAA
330
6B
100
AcDbEntity
  8
0
 62
     3
100
AcDbLine
 10
68.80459773221275
 20
-207.1145367813176
 30
0.0
 11
68.80459773221275
 21
-207.3260979313176
 31
0.0
  0
LINE
  5
AAB
330
6B
100
AcDbEntity
  8
0
 62
     3
100
AcDbLine
 10
72.44223149221274
 20
-203.8401146913176
 30
0.0
 11
72.63228046221275
 21
-203.8401146913176
 31
0.0
  0
LINE
  5
AAC
330
6B
100
AcDbEntity
  8
0
 62
     3
100
AcDbLine
 10
60.7990718322128
 20
-207.1145367813176
 30
0.0
 11
60.79906814221271
 21
-207.3261177013176
 31
0.0
  0
LINE
  5
AAD
330
6B
100
AcDbEntity
  8
0
 62
     3
100
AcDbLine
 10
58.86955630221269
 20
-207.3260781613176
 30
0.0
 11
60.79906814221271
 21
-207.3261118313176
 31
0.0
  0
LINE
  5
AAE
330
6B
100
AcDbEntity
  8
0
 62
     3
100
AcDbLine
 10
54.57317445221271
 20
-207.3260979313176
 30
0.0
 11
56.11243978221272
 21
-207.3260979313176
 31
0.0
  0
ARC
  5
AAF
330
6B
100
AcDbEntity
  8
0
 62
     3
100
AcDbCircle
 10
49.59123177221272
 20
-205.2003149213176
 30
0.0
 40
14.71356563
100
AcDbArc
 50
353.8660061899985
 51
357.6940342600001
  0
LINE
  5
AB0
330
6B
100
AcDbEntity
  8
0
 62
     3
100
AcDbLine
 10
63.30781163221274
 20
-205.7886825813176
 30
0.0
 11
64.29288252221272
 21
-205.7923274513176
 31
0.0
  0
LINE
  5
AB2
330
6B
100
AcDbEntity
  8
0
 62
     3
100
AcDbLine
 10
63.31179005221271
 20
-204.7134678313176
 30
0.0
 11
64.29686093221267
 21
-204.7171127113176
 31
0.0
  0
ARC
  5
AB3
330
6B
100
AcDbEntity
  8
0
 62
     3
100
AcDbCircle
 10
49.59123177221272
 20
-205.2003149213176
 30
0.0
 40
14.71356563
100
AcDbArc
 50
1.881965739998024
 51
5.709993810001115
  0
LINE
  5
AB4
330
6B
100
AcDbEntity
  8
0
 62
     3
100
AcDbLine
 10
60.79914063221281
 20
-203.1723649413176
 30
0.0
 11
60.79913694221271
 21
-203.3839063113176
 31
0.0
  0
LINE
  5
AB5
330
6B
100
AcDbEntity
  8
0
 62
     3
100
AcDbLine
 10
58.86962880221267
 20
-203.1723254013176
 30
0.0
 11
60.79914063221281
 21
-203.1723590713176
 31
0.0
  0
LINE
  5
AB6
330
6B
100
AcDbEntity
  8
0
 62
     3
100
AcDbLine
 10
58.86955999221277
 20
-207.1145367813176
 30
0.0
 11
58.86955630221269
 21
-207.3260781613176
 31
0.0
  0
LINE
  5
AB7
330
6B
100
AcDbEntity
  8
0
 62
     3
100
AcDbLine
 10
58.86962880221267
 20
-203.1723254013176
 30
0.0
 11
58.86962510221271
 21
-203.3839063113176
 31
0.0
  0
LINE
  5
AB8
330
6B
100
AcDbEntity
  8
0
 62
     3
100
AcDbLine
 10
56.11243978221272
 20
-207.1145367813176
 30
0.0
 11
56.11243978221272
 21
-207.3260979313176
 31
0.0
  0
LINE
  5
AB9
330
6B
100
AcDbEntity
  8
0
 62
     3
100
AcDbLine
 10
55.67669187221281
 20
-204.8902098313176
 30
0.0
 11
57.19912193221272
 21
-207.3260979313176
 31
0.0
  0
LINE
  5
ABA
330
6B
100
AcDbEntity
  8
0
 62
     3
100
AcDbLine
 10
57.19912193221272
 20
-207.3260979313176
 30
0.0
 11
58.21855465221279
 21
-207.3260979313176
 31
0.0
  0
LINE
  5
ABB
330
6B
100
AcDbEntity
  8
0
 62
     3
100
AcDbLine
 10
58.6543025622127
 20
-203.1723451713176
 30
0.0
 11
58.6543025622127
 21
-203.3839063113176
 31
0.0
  0
LINE
  5
ABC
330
6B
100
AcDbEntity
  8
0
 62
     3
100
AcDbLine
 10
57.11503723221266
 20
-203.1723451713176
 30
0.0
 11
58.6543025622127
 21
-203.1723451713176
 31
0.0
  0
LINE
  5
ABD
330
6B
100
AcDbEntity
  8
0
 62
     3
100
AcDbLine
 10
57.11503723221266
 20
-203.1723451713176
 30
0.0
 11
57.11503723221266
 21
-203.3839063113176
 31
0.0
  0
LINE
  5
ABE
330
6B
100
AcDbEntity
  8
0
 62
     3
100
AcDbLine
 10
57.55078514221281
 20
-205.0537115113176
 30
0.0
 11
56.31613847221274
 21
-203.1723451713176
 31
0.0
  0
LINE
  5
ABF
330
6B
100
AcDbEntity
  8
0
 62
     3
100
AcDbLine
 10
54.57317445221271
 20
-203.1723451713176
 30
0.0
 11
56.31613847221274
 21
-203.1723451713176
 31
0.0
  0
LINE
  5
AC0
330
6B
100
AcDbEntity
  8
0
 62
     3
100
AcDbLine
 10
64.48938881221271
 20
-203.1724438813176
 30
0.0
 11
66.44165135221283
 21
-203.1724438813176
 31
0.0
  0
LINE
  5
AC1
330
6B
100
AcDbEntity
  8
0
 62
     3
100
AcDbLine
 10
64.48938881221271
 20
-203.3839063113176
 30
0.0
 11
64.48938881221271
 21
-203.1724438813176
 31
0.0
  0
LINE
  5
AC2
330
6B
100
AcDbEntity
  8
0
 62
     3
100
AcDbLine
 10
64.48938881221271
 20
-207.3261966413176
 30
0.0
 11
64.48938881221271
 21
-207.1145367813176
 31
0.0
  0
LINE
  5
AC3
330
6B
100
AcDbEntity
  8
0
 62
     3
100
AcDbLine
 10
64.48938881221271
 20
-207.3261966413176
 30
0.0
 11
66.44165135221283
 21
-207.3261966413176
 31
0.0
  0
LINE
  5
AC4
330
6B
100
AcDbEntity
  8
0
 62
     3
100
AcDbLine
 10
66.64537764221268
 20
-207.1145367813176
 30
0.0
 11
66.64537764221268
 21
-207.3261966413176
 31
0.0
  0
LINE
  5
AC5
330
6B
100
AcDbEntity
  8
0
 62
     3
100
AcDbLine
 10
66.44165135221283
 20
-207.1145367813176
 30
0.0
 11
66.44165135221283
 21
-207.3261966413176
 31
0.0
  0
LINE
  5
AC6
330
6B
100
AcDbEntity
  8
0
 62
     3
100
AcDbLine
 10
66.44165135221283
 20
-203.3839063113176
 30
0.0
 11
66.44165135221283
 21
-203.1724438813176
 31
0.0
  0
LINE
  5
AC7
330
6B
100
AcDbEntity
  8
0
 62
     3
100
AcDbLine
 10
66.64537764221268
 20
-203.3839063113176
 30
0.0
 11
66.64537764221268
 21
-203.1724438813176
 31
0.0
  0
LINE
  5
AC8
330
6B
100
AcDbEntity
  8
0
 62
     3
100
AcDbLine
 10
54.57317445221271
 20
-207.1145367813176
 30
0.0
 11
54.57317445221271
 21
-207.3260979313176
 31
0.0
  0
LINE
  5
AC9
330
6B
100
AcDbEntity
  8
0
 62
     3
100
AcDbLine
 10
54.57317445221271
 20
-203.1723451713176
 30
0.0
 11
54.57317445221271
 21
-203.3839063113176
 31
0.0
  0
ARC
  5
ACA
330
6B
100
AcDbEntity
  8
0
 62
     3
100
AcDbCircle
 10
73.14276812221283
 20
-204.8134736413176
 30
0.0
 40
1.641128469999999
100
AcDbArc
 50
17.3087489800011
 51
23.76507095999693
  0
ARC
  5
ACB
330
6B
100
AcDbEntity
  8
0
 62
     3
100
AcDbCircle
 10
71.74449472221272
 20
-205.2492215513176
 30
0.0
 40
3.105725599999998
100
AcDbArc
 50
342.6912510199989
 51
17.3085664400005
  0
ARC
  5
ACC
330
6B
100
AcDbEntity
  8
0
 62
     3
100
AcDbCircle
 10
73.14276812221283
 20
-205.6849694513176
 30
0.0
 40
1.641128469999999
100
AcDbArc
 50
336.2349290399964
 51
342.6912510199989
  0
ARC
  5
ACD
330
6B
100
AcDbEntity
  8
0
 62
     3
100
AcDbCircle
 10
72.9327681222128
 20
-204.8134736413176
 30
0.0
 40
1.641128469999999
100
AcDbArc
 50
17.3087489800011
 51
90.0
  0
ARC
  5
ACE
330
6B
100
AcDbEntity
  8
0
 62
     3
100
AcDbCircle
 10
71.53449472221268
 20
-205.2492215513176
 30
0.0
 40
3.105725599999998
100
AcDbArc
 50
342.6912510199989
 51
17.3085664400005
  0
ARC
  5
ACF
330
6B
100
AcDbEntity
  8
0
 62
     3
100
AcDbCircle
 10
72.9327681222128
 20
-205.6849694513176
 30
0.0
 40
1.641128469999999
100
AcDbArc
 50
270.0
 51
342.6912510199989
  0
ARC
  5
AD0
330
6B
100
AcDbEntity
  8
0
 62
     3
100
AcDbCircle
 10
62.80882775221265
 20
-205.2492215513176
 30
0.0
 40
2.076876379999998
100
AcDbArc
 50
46.75287961000178
 51
89.74999828999569
  0
ARC
  5
AD1
330
6B
100
AcDbEntity
  8
0
 62
     3
100
AcDbCircle
 10
62.80882775221265
 20
-205.2492215513176
 30
0.0
 40
2.076876379999998
100
AcDbArc
 50
273.976333149997
 51
312.8231203899991
  0
ARC
  5
AD2
330
6B
100
AcDbEntity
  8
0
 62
     3
100
AcDbCircle
 10
74.25063569221276
 20
-205.2812830813176
 30
0.0
 40
2.755888999999998
100
AcDbArc
 50
0.6665840600014321
 51
23.90392827000101
  0
ARC
  5
AD3
330
6B
100
AcDbEntity
  8
0
 62
     3
100
AcDbCircle
 10
78.16619797221278
 20
-205.2812830813176
 30
0.0
 40
2.755888999999998
100
AcDbArc
 50
156.096071729999
 51
179.3334159399985
  0
ARC
  5
AD4
330
6B
100
AcDbEntity
  8
0
 62
     3
100
AcDbCircle
 10
74.25063569221276
 20
-205.2171600213176
 30
0.0
 40
2.755888999999998
100
AcDbArc
 50
336.096071729999
 51
359.3334159399987
  0
ARC
  5
AD5
330
6B
100
AcDbEntity
  8
0
 62
     3
100
AcDbCircle
 10
78.16619797221278
 20
-205.2171600213176
 30
0.0
 40
2.755888999999998
100
AcDbArc
 50
180.6665840599982
 51
203.903928270001
  0
LINE
  5
AD6
330
6B
100
AcDbEntity
  8
0
 62
     3
100
AcDbLine
 10
48.74295799221272
 20
-205.2172340313176
 30
0.0
 11
-72.01348682778735
 21
-205.2172340313176
 31
0.0
  0
LINE
  5
AD7
330
6B
100
AcDbEntity
  8
0
 62
     3
100
AcDbLine
 10
204.9865131722127
 20
-205.2172340313176
 30
0.0
 11
83.54805123221273
 21
-205.2172340313176
 31
0.0
  0
LINE
  5
ADC
330
6B
100
AcDbEntity
  8
0
 62
     3
100
AcDbLine
 10
152.9865131722126
 20
-385.2172340313176
 30
0.0
 11
152.9865131722126
 21
-345.2172340313176
 31
0.0
  0
LINE
  5
ADD
330
6B
100
AcDbEntity
  8
0
 62
     3
100
AcDbLine
 10
165.9865131722126
 20
-375.2172340313176
 30
0.0
 11
165.9865131722126
 21
-345.2172340313176
 31
0.0
  0
LINE
  5
ADE
330
6B
100
AcDbEntity
  8
0
 62
     3
100
AcDbLine
 10
125.9865131722126
 20
-375.2172340313176
 30
0.0
 11
125.9865131722126
 21
-361.2172340313176
 31
0.0
  0
LINE
  5
ADF
330
6B
100
AcDbEntity
  8
0
 62
     3
100
AcDbLine
 10
135.9865131722126
 20
-361.2172340313176
 30
0.0
 11
135.9865131722126
 21
-385.2172340313176
 31
0.0
  0
LINE
  5
AE0
330
6B
100
AcDbEntity
  8
0
 62
     3
100
AcDbLine
 10
106.9865131722126
 20
-345.2172340313176
 30
0.0
 11
106.9865131722126
 21
-368.2172340313176
 31
0.0
  0
LINE
  5
AE1
330
6B
100
AcDbEntity
  8
0
 62
     3
100
AcDbLine
 10
178.9865131722126
 20
-368.2172340313176
 30
0.0
 11
178.9865131722126
 21
-345.2172340313176
 31
0.0
  0
LINE
  5
AE2
330
6B
100
AcDbEntity
  8
0
 62
     3
100
AcDbLine
 10
204.9865131722127
 20
-345.2172340313176
 30
0.0
 11
93.74107853221287
 21
-345.2172340313176
 31
0.0
  0
LINE
  5
AE3
330
6B
100
AcDbEntity
  8
0
 62
     3
100
AcDbLine
 10
204.9865131722127
 20
-354.2172340313176
 30
0.0
 11
93.74107853221266
 21
-354.2172340313176
 31
0.0
  0
LINE
  5
AE4
330
6B
100
AcDbEntity
  8
0
 62
     3
100
AcDbLine
 10
204.9865131722127
 20
-368.2172340313176
 30
0.0
 11
93.74107853221266
 21
-368.2172340313176
 31
0.0
  0
LINE
  5
AE5
330
6B
100
AcDbEntity
  8
0
 62
     3
100
AcDbLine
 10
204.9865131722127
 20
-375.2172340313176
 30
0.0
 11
93.68307067221257
 21
-375.2172340313176
 31
0.0
  0
LINE
  5
AE6
330
6B
100
AcDbEntity
  8
0
 62
     3
100
AcDbLine
 10
191.9865131722126
 20
-368.2172340313176
 30
0.0
 11
191.9865131722126
 21
-345.2172340313176
 31
0.0
  0
LINE
  5
AE7
330
6B
100
AcDbEntity
  8
0
 62
     3
100
AcDbLine
 10
93.74107853221266
 20
-345.2172340313176
 30
0.0
 11
93.74107853221266
 21
-385.2172340313176
 31
0.0
  0
LINE
  5
AE8
330
6B
100
AcDbEntity
  8
0
 62
     3
100
AcDbLine
 10
152.9865131722126
 20
-361.2172340313176
 30
0.0
 11
93.74107853221266
 21
-361.2172340313176
 31
0.0
  0
LINE
  5
AE9
330
6B
100
AcDbEntity
  8
0
 62
     3
100
AcDbLine
 10
136.2648381022127
 20
-380.3843727713176
 30
0.0
 11
152.9865131722126
 21
-380.3843727713176
 31
0.0
  0
TEXT
  5
AEA
330
6B
100
AcDbEntity
  8
0
 62
     3
100
AcDbText
 10
137.1508385855284
 20
-366.1441371779524
 30
0.0
 40
2.5
  1
耐熱グレード
 41
0.8
  7
高2.5
100
AcDbText
  0
TEXT
  5
AEB
330
6B
100
AcDbEntity
  8
0
 62
     3
100
AcDbText
 10
108.1828818674648
 20
-365.9194196263337
 30
0.0
 40
2.5
  1
ABS樹脂
  7
高2.5
100
AcDbText
  0
TEXT
  5
AEC
330
6B
100
AcDbEntity
  8
0
 62
     3
100
AcDbText
 10
108.4477896221624
 20
-352.9049845075597
 30
0.0
 40
4.5
  1
2芯コンセント
  7
高4.5
100
AcDbText
1001
ACAD
1000
ACAD_MTEXT_DEFINED_HEIGHT_BEGIN
1070
    46
1040
0.0
1000
ACAD_MTEXT_DEFINED_HEIGHT_END
  0
TEXT
  5
AED
330
6B
100
AcDbEntity
  8
0
 62
     3
100
AcDbText
 10
195.0521022656866
 20
-348.703541932614
 30
0.0
 40
2.0
  1
DEF
  7
高2
100
AcDbText
  0
TEXT
  5
AEE
330
6B
100
AcDbEntity
  8
0
 62
     3
100
AcDbText
 10
181.1130039119784
 20
-348.7035419326141
 30
0.0
 40
2.0
  1
DESN
  7
高2
100
AcDbText
  0
TEXT
  5
AEF
330
6B
100
AcDbEntity
  8
0
 62
     3
100
AcDbText
 10
154.8586369719783
 20
-348.703541932614
 30
0.0
 40
2.0
  1
APPD
  7
高2
100
AcDbText
  0
TEXT
  5
AF0
330
6B
100
AcDbEntity
  8
0
 62
     3
100
AcDbText
 10
167.9713730722126
 20
-348.703541932614
 30
0.0
 40
2.0
  1
CHCK
  7
高2
100
AcDbText
  0
TEXT
  5
AF1
330
6B
100
AcDbEntity
  8
0
 62
     3
100
AcDbText
 10
126.9136788113653
 20
-371.0488352080869
 30
0.0
 40
2.0
  1
SCALE
 41
0.8
  7
高2
100
AcDbText
  0
TEXT
  5
AF2
330
6B
100
AcDbEntity
  8
0
 62
     3
100
AcDbText
 10
95.42565723525877
 20
-371.0488352080869
 30
0.0
 40
2.0
  1
3AD　ANGLE
 41
1.5
  7
高2
100
AcDbText
  0
TEXT
  5
AF3
330
6B
100
AcDbEntity
  8
0
 62
     3
100
AcDbText
 10
126.1830845022141
 20
-364.2972971391297
 30
0.0
 40
2.0
  1
REMARKS
 41
0.7
  7
高2
100
AcDbText
  0
TEXT
  5
AF4
330
6B
100
AcDbEntity
  8
0
 62
     3
100
AcDbText
 10
95.20874888221261
 20
-364.2172340313176
 30
0.0
 40
2.0
  1
MATERIAL
 41
0.7
  7
高2
100
AcDbText
  0
TEXT
  5
AF5
330
6B
100
AcDbEntity
  8
0
 62
     3
100
AcDbText
 10
95.78523608496677
 20
-357.2172340313176
 30
0.0
 40
2.0
  1
MODEL
  7
高2
100
AcDbText
  0
TEXT
  5
AF6
330
6B
100
AcDbEntity
  8
0
 62
     3
100
AcDbText
 10
95.42215696629794
 20
-348.5102126807186
 30
0.0
 40
2.0
  1
CONPONENTS
 41
0.5
  7
高2
100
AcDbText
  0
TEXT
  5
AF7
330
6B
100
AcDbEntity
  8
0
 62
     3
100
AcDbText
 10
108.1292724374648
 20
-360.1297529035056
 30
0.0
 40
4.5
  1
2PN-WB
  7
高4.5
100
AcDbText
  0
TEXT
  5
AF8
330
6B
100
AcDbEntity
  8
0
 62
     3
100
AcDbText
 10
156.0515589028312
 20
-383.178772635952
 30
0.0
 40
6.299999999999998
  1
2PN-WB
  7
高6.3
100
AcDbText
1001
ACAD
1000
ACAD_MTEXT_DEFINED_HEIGHT_BEGIN
1070
    46
1040
0.0
1000
ACAD_MTEXT_DEFINED_HEIGHT_END
  0
TEXT
  5
AF9
330
6B
100
AcDbEntity
  8
0
 62
     3
100
AcDbText
 10
169.5500229225421
 20
-374.1163448730846
 30
0.0
 40
3.2
  1
1994.4.15
  7
高3.2
100
AcDbText
1001
ACAD
1000
ACAD_MTEXT_DEFINED_HEIGHT_BEGIN
1070
    46
1040
0.0
1000
ACAD_MTEXT_DEFINED_HEIGHT_END
  0
TEXT
  5
AFA
330
6B
100
AcDbEntity
  8
0
 62
     3
100
AcDbText
 10
139.7741110668589
 20
-374.1163170287497
 30
0.0
 40
3.2
  1
1/1
  7
高3.2
100
AcDbText
  0
TEXT
  5
AFB
330
6B
100
AcDbEntity
  8
0
 62
     3
100
AcDbText
 10
136.8514400422127
 20
-384.4003558581816
 30
0.0
 40
3.2
  1
ZK-A4X
 41
0.8
  7
高3.2
100
AcDbText
  0
TEXT
  5
AFC
330
6B
100
AcDbEntity
  8
0
 62
     3
100
AcDbText
 10
94.57177957221256
 20
-378.6926136091298
 30
0.0
 40
2.0
  1
NICHIDO IND.CO.LTD
 41
1.3
  7
高2
100
AcDbText
  0
TEXT
  5
AFD
330
6B
100
AcDbEntity
  8
0
 62
     3
100
AcDbText
 10
95.75330283716994
 20
-353.0767058234326
 30
0.0
 40
3.2
  1
品 名
  7
高3.2
100
AcDbText
1001
ACAD
1000
ACAD_MTEXT_DEFINED_HEIGHT_BEGIN
1070
    46
1040
0.0
1000
ACAD_MTEXT_DEFINED_HEIGHT_END
  0
TEXT
  5
AFE
330
6B
100
AcDbEntity
  8
0
 62
     3
100
AcDbText
 10
95.75330283716994
 20
-360.7172340313176
 30
0.0
 40
3.2
  1
型 式
  7
高3.2
100
AcDbText
1001
ACAD
1000
ACAD_MTEXT_DEFINED_HEIGHT_BEGIN
1070
    46
1040
3.064735913775954
1000
ACAD_MTEXT_DEFINED_HEIGHT_END
  0
TEXT
  5
AFF
330
6B
100
AcDbEntity
  8
0
 62
     3
100
AcDbText
 10
95.75330283716994
 20
-367.7172340313175
 30
0.0
 40
3.2
  1
材 質
  7
高3.2
100
AcDbText
1001
ACAD
1000
ACAD_MTEXT_DEFINED_HEIGHT_BEGIN
1070
    46
1040
0.0
1000
ACAD_MTEXT_DEFINED_HEIGHT_END
  0
TEXT
  5
B00
330
6B
100
AcDbEntity
  8
0
 62
     3
100
AcDbText
 10
95.44826788716978
 20
-374.7497940390713
 30
0.0
 40
3.2
  1
第 三 角 法
  7
高3.2
100
AcDbText
1001
ACAD
1000
ACAD_MTEXT_DEFINED_HEIGHT_BEGIN
1070
    46
1040
0.0
1000
ACAD_MTEXT_DEFINED_HEIGHT_END
  0
TEXT
  5
B01
330
6B
100
AcDbEntity
  8
0
 62
     3
100
AcDbText
 10
93.8548004946988
 20
-384.0767058234326
 30
0.0
 40
3.2
  1
日動工業株式会社
 41
1.199999999999999
  7
高3.2
100
AcDbText
1001
ACAD
1000
ACAD_MTEXT_DEFINED_HEIGHT_BEGIN
1070
    46
1040
0.0
1000
ACAD_MTEXT_DEFINED_HEIGHT_END
  0
TEXT
  5
B02
330
6B
100
AcDbEntity
  8
0
 62
     3
100
AcDbText
 10
127.4904246941771
 20
-367.83265549815
 30
0.0
 40
3.2
  1
備考
  7
高3.2
100
AcDbText
1001
ACAD
1000
ACAD_MTEXT_DEFINED_HEIGHT_BEGIN
1070
    46
1040
0.0
1000
ACAD_MTEXT_DEFINED_HEIGHT_END
  0
TEXT
  5
B03
330
6B
100
AcDbEntity
  8
0
 62
     3
100
AcDbText
 10
137.1394821412127
 20
-379.0710040057473
 30
0.0
 40
2.5
  1
出図コード
  7
高2.5
100
AcDbText
1001
ACAD
1000
ACAD_MTEXT_DEFINED_HEIGHT_BEGIN
1070
    46
1040
0.0
1000
ACAD_MTEXT_DEFINED_HEIGHT_END
  0
TEXT
  5
B04
330
6B
100
AcDbEntity
  8
0
 62
     3
100
AcDbText
 10
127.3316585760897
 20
-374.7639991209047
 30
0.0
 40
3.2
  1
尺度
  7
高3.2
100
AcDbText
1001
ACAD
1000
ACAD_MTEXT_DEFINED_HEIGHT_BEGIN
1070
    46
1040
0.0
1000
ACAD_MTEXT_DEFINED_HEIGHT_END
  0
TEXT
  5
B05
330
6B
100
AcDbEntity
  8
0
 62
     3
100
AcDbText
 10
154.4779200578684
 20
-373.6325206727872
 30
0.0
 40
3.2
  1
作成日
  7
高3.2
100
AcDbText
1001
ACAD
1000
ACAD_MTEXT_DEFINED_HEIGHT_BEGIN
1070
    46
1040
0.0
1000
ACAD_MTEXT_DEFINED_HEIGHT_END
  0
TEXT
  5
B06
330
6B
100
AcDbEntity
  8
0
 62
     3
100
AcDbText
 10
154.3723940647326
 20
-353.0767058234326
 30
0.0
 40
3.2
  1
承 認
  7
高3.2
100
AcDbText
1001
ACAD
1000
ACAD_MTEXT_DEFINED_HEIGHT_BEGIN
1070
    46
1040
0.0
1000
ACAD_MTEXT_DEFINED_HEIGHT_END
  0
TEXT
  5
B07
330
6B
100
AcDbEntity
  8
0
 62
     3
100
AcDbText
 10
167.3723940647323
 20
-353.0767058234326
 30
0.0
 40
3.2
  1
検 図
  7
高3.2
100
AcDbText
1001
ACAD
1000
ACAD_MTEXT_DEFINED_HEIGHT_BEGIN
1070
    46
1040
0.0
1000
ACAD_MTEXT_DEFINED_HEIGHT_END
  0
TEXT
  5
B08
330
6B
100
AcDbEntity
  8
0
 62
     3
100
AcDbText
 10
180.3723940647323
 20
-353.0767058234326
 30
0.0
 40
3.2
  1
設 計
  7
高3.2
100
AcDbText
1001
ACAD
1000
ACAD_MTEXT_DEFINED_HEIGHT_BEGIN
1070
    46
1040
0.0
1000
ACAD_MTEXT_DEFINED_HEIGHT_END
  0
TEXT
  5
B09
330
6B
100
AcDbEntity
  8
0
 62
     3
100
AcDbText
 10
193.6730305847325
 20
-353.0767058234326
 30
0.0
 40
3.2
  1
製 図
  7
高3.2
100
AcDbText
1001
ACAD
1000
ACAD_MTEXT_DEFINED_HEIGHT_BEGIN
1070
    46
1040
0.0
1000
ACAD_MTEXT_DEFINED_HEIGHT_END
  0
TEXT
  5
B0A
330
6B
100
AcDbEntity
  8
0
 62
     3
100
AcDbText
 10
192.4865131722126
 20
-214.7172340313176
 30
0.0
 40
3.2
  1
担　当
  7
高3.2
100
AcDbText
  0
TEXT
  5
B0B
330
6B
100
AcDbEntity
  8
0
 62
     3
100
AcDbText
 10
148.4865131722126
 20
-214.7172340313176
 30
0.0
 40
3.2
  1
変更・追記内容
  7
高3.2
100
AcDbText
  0
TEXT
  5
B0C
330
6B
100
AcDbEntity
  8
0
 62
     3
100
AcDbText
 10
123.6000281725519
 20
-219.3877725412259
 30
0.0
 40
2.0
  1
1
  7
高2
100
AcDbText
  0
TEXT
  5
B0D
330
6B
100
AcDbEntity
  8
0
 62
     3
100
AcDbText
 10
123.2915166957946
 20
-224.5575892534988
 30
0.0
 40
2.0
  1
2
  7
高2
100
AcDbText
  0
TEXT
  5
B0E
330
6B
100
AcDbEntity
  8
0
 62
     3
100
AcDbText
 10
130.4865131722126
 20
-214.7172340313176
 30
0.0
 40
3.2
  1
日　付
  7
高3.2
100
AcDbText
  0
TEXT
  5
B0F
330
6B
100
AcDbEntity
  8
0
 62
     3
100
AcDbText
 10
130.4865131722126
 20
-209.7172340313176
 30
0.0
 40
3.2
  1
図　　　　面　　　　略　　　　歴
  7
高3.2
100
AcDbText
  0
TEXT
  5
B10
330
6B
100
AcDbEntity
  8
0
 62
     3
100
AcDbText
 10
120.4865131722126
 20
-214.7172340313176
 30
0.0
 40
3.2
  1
記号
  7
高3.2
100
AcDbText
  0
LINE
  5
B11
330
6B
100
AcDbEntity
  8
0
 62
     7
100
AcDbLine
 10
123.9865131722126
 20
-221.4263380313175
 30
0.0
 11
122.0865131722127
 21
-224.7172340313176
 31
0.0
  0
LINE
  5
B12
330
6B
100
AcDbEntity
  8
0
 62
     7
100
AcDbLine
 10
123.9865131722126
 20
-221.4263380313175
 30
0.0
 11
125.8865131722126
 21
-224.7172340313176
 31
0.0
  0
LINE
  5
B13
330
6B
100
AcDbEntity
  8
0
 62
     7
100
AcDbLine
 10
122.0865131722127
 20
-224.7172340313176
 30
0.0
 11
125.8865131722126
 21
-224.7172340313176
 31
0.0
  0
LINE
  5
B14
330
6B
100
AcDbEntity
  8
0
 62
     7
100
AcDbLine
 10
123.9865131722126
 20
-216.4263370313175
 30
0.0
 11
122.0865131722127
 21
-219.7172340313176
 31
0.0
  0
LINE
  5
B15
330
6B
100
AcDbEntity
  8
0
 62
     7
100
AcDbLine
 10
123.9865131722126
 20
-216.4263370313175
 30
0.0
 11
125.8865131722126
 21
-219.7172340313176
 31
0.0
  0
LINE
  5
B16
330
6B
100
AcDbEntity
  8
0
 62
     7
100
AcDbLine
 10
122.0865131722127
 20
-219.7172340313176
 30
0.0
 11
125.8865131722126
 21
-219.7172340313176
 31
0.0
  0
LINE
  5
B17
330
6B
100
AcDbEntity
  8
0
 62
     3
100
AcDbLine
 10
118.9865131722126
 20
-210.2172340313176
 30
0.0
 11
204.9865131722127
 21
-210.2172340313176
 31
0.0
  0
LINE
  5
B18
330
6B
100
AcDbEntity
  8
0
 62
     3
100
AcDbLine
 10
118.9865131722126
 20
-215.2172340313176
 30
0.0
 11
204.9865131722127
 21
-215.2172340313176
 31
0.0
  0
LINE
  5
B19
330
6B
100
AcDbEntity
  8
0
 62
     7
100
AcDbLine
 10
118.9865131722126
 20
-220.2172340313176
 30
0.0
 11
204.9865131722127
 21
-220.2172340313176
 31
0.0
  0
LINE
  5
B1A
330
6B
100
AcDbEntity
  8
0
 62
     3
100
AcDbLine
 10
118.9865131722126
 20
-225.2172340313176
 30
0.0
 11
204.9865131722127
 21
-225.2172340313176
 31
0.0
  0
LINE
  5
B1B
330
6B
100
AcDbEntity
  8
0
 62
     7
100
AcDbLine
 10
190.9865131722125
 20
-225.2172340313176
 30
0.0
 11
190.9865131722126
 21
-210.2172340313176
 31
0.0
  0
LINE
  5
B1C
330
6B
100
AcDbEntity
  8
0
 62
     7
100
AcDbLine
 10
146.9865131722126
 20
-225.2172340313176
 30
0.0
 11
146.9865131722126
 21
-210.2172340313176
 31
0.0
  0
LINE
  5
B1D
330
6B
100
AcDbEntity
  8
0
 62
     7
100
AcDbLine
 10
128.9865131722126
 20
-225.2172340313176
 30
0.0
 11
128.9865131722126
 21
-210.2172340313176
 31
0.0
  0
LINE
  5
B1E
330
6B
100
AcDbEntity
  8
0
 62
     3
100
AcDbLine
 10
118.9865131722126
 20
-225.2172340313176
 30
0.0
 11
118.9865131722126
 21
-205.2172340313176
 31
0.0
  0
LINE
  5
B21
330
6B
100
AcDbEntity
  8
0
 62
     3
100
AcDbLine
 10
1.125255573711001
 20
-375.357203
 30
0.0
 11
80.75675057371103
 21
-375.357203
 31
0.0
  0
LINE
  5
B22
330
6B
100
AcDbEntity
  8
0
 62
     3
100
AcDbLine
 10
1.125255573711001
 20
-346.357203
 30
0.0
 11
1.125255573711001
 21
-375.357203
 31
0.0
  0
LINE
  5
B23
330
6B
100
AcDbEntity
  8
0
 62
     7
100
AcDbLine
 10
1.125255573711001
 20
-354.357203
 30
0.0
 11
80.75675057371103
 21
-354.357203
 31
0.0
  0
LINE
  5
B24
330
6B
100
AcDbEntity
  8
0
 62
     7
100
AcDbLine
 10
1.125255573711001
 20
-361.357203
 30
0.0
 11
80.75675057371103
 21
-361.357203
 31
0.0
  0
LINE
  5
B25
330
6B
100
AcDbEntity
  8
0
 62
     7
100
AcDbLine
 10
1.125255573711001
 20
-368.357203
 30
0.0
 11
80.75675057371103
 21
-368.357203
 31
0.0
  0
LINE
  5
B26
330
6B
100
AcDbEntity
  8
0
 62
     7
100
AcDbLine
 10
31.125255573711
 20
-354.357203
 30
0.0
 11
31.125255573711
 21
-375.357203
 31
0.0
  0
ARC
  5
B27
330
6B
100
AcDbEntity
  8
0
 62
     3
100
AcDbCircle
 10
75.35867957371102
 20
-372.309725
 30
0.0
 40
2.0
100
AcDbArc
 50
206.802293
 51
24.26083000000062
  0
ARC
  5
B28
330
6B
100
AcDbEntity
  8
0
 62
     3
100
AcDbCircle
 10
75.35867957371102
 20
-372.309725
 30
0.0
 40
2.0
100
AcDbArc
 50
26.80229100000031
 51
204.2608300000006
  0
LINE
  5
B29
330
6B
100
AcDbEntity
  8
0
 62
     3
100
AcDbLine
 10
75.558679573711
 20
-370.52087
 30
0.0
 11
75.558679573711
 21
-373.309725
 31
0.0
  0
LINE
  5
B2A
330
6B
100
AcDbEntity
  8
0
 62
     3
100
AcDbLine
 10
75.15867957371103
 20
-371.309725
 30
0.0
 11
75.15867957371103
 21
-374.098579
 31
0.0
  0
LINE
  5
B2B
330
6B
100
AcDbEntity
  8
0
 62
     3
100
AcDbLine
 10
75.15867957371103
 20
-371.309725
 30
0.0
 11
73.71453757371103
 21
-373.042389
 31
0.0
  0
LINE
  5
B2C
330
6B
100
AcDbEntity
  8
0
 62
     3
100
AcDbLine
 10
73.57354457371105
 20
-373.211551
 30
0.0
 11
73.298743573711
 21
-373.541253
 31
0.0
  0
LINE
  5
B2D
330
6B
100
AcDbEntity
  8
0
 62
     3
100
AcDbLine
 10
73.298743573711
 20
-373.541253
 30
0.0
 11
73.535310573711
 21
-373.131507
 31
0.0
  0
LINE
  5
B2E
330
6B
100
AcDbEntity
  8
0
 62
     3
100
AcDbLine
 10
73.66228257371108
 20
-372.911586
 30
0.0
 11
75.03170857371106
 21
-370.539671
 31
0.0
  0
ARC
  5
B2F
330
6B
100
AcDbEntity
  8
0
 62
     3
100
AcDbCircle
 10
75.35867957371102
 20
-372.309725
 30
0.0
 40
1.8
100
AcDbArc
 50
204.0187569999996
 51
263.6206300000004
  0
ARC
  5
B30
330
6B
100
AcDbEntity
  8
0
 62
     3
100
AcDbCircle
 10
75.35867957371102
 20
-372.309725
 30
0.0
 40
1.8
100
AcDbArc
 50
100.4659349999994
 51
199.5340650000004
  0
ARC
  5
B31
330
6B
100
AcDbEntity
  8
0
 62
     3
100
AcDbCircle
 10
75.35867957371102
 20
-372.309725
 30
0.0
 40
1.8
100
AcDbArc
 50
280.4659349999994
 51
19.53406500000044
  0
ARC
  5
B32
330
6B
100
AcDbEntity
  8
0
 62
     3
100
AcDbCircle
 10
75.35867957371102
 20
-372.309725
 30
0.0
 40
1.8
100
AcDbArc
 50
24.01875699999958
 51
83.62063000000043
  0
LINE
  5
B33
330
6B
100
AcDbEntity
  8
0
 62
     3
100
AcDbLine
 10
73.91861557371107
 20
-371.078196
 30
0.0
 11
73.68204857371108
 21
-371.487942
 31
0.0
  0
LINE
  5
B34
330
6B
100
AcDbEntity
  8
0
 62
     3
100
AcDbLine
 10
77.055076573711
 20
-371.707864
 30
0.0
 11
75.68565157371103
 21
-374.079778
 31
0.0
  0
LINE
  5
B35
330
6B
100
AcDbEntity
  8
0
 62
     3
100
AcDbLine
 10
75.558679573711
 20
-373.309725
 30
0.0
 11
77.002821573711
 21
-371.57706
 31
0.0
  0
LINE
  5
B36
330
6B
100
AcDbEntity
  8
0
 62
     3
100
AcDbLine
 10
73.64381557371103
 20
-371.407898
 30
0.0
 11
73.91861557371107
 21
-371.078196
 31
0.0
  0
LINE
  5
B37
330
6B
100
AcDbEntity
  8
0
 62
     3
100
AcDbLine
 10
1.125255573711001
 20
-346.357203
 30
0.0
 11
80.75675057371103
 21
-346.357203
 31
0.0
  0
TEXT
  5
B38
330
6B
100
AcDbEntity
  8
0
 62
     3
100
AcDbText
 10
58.548842573711
 20
-374.717729
 30
0.0
 40
4.5
  1
JET
100
AcDbText
  0
TEXT
  5
B39
330
6B
100
AcDbEntity
  8
0
 62
     3
100
AcDbText
 10
52.61947257371099
 20
-374.5716339999999
 30
0.0
 40
4.5
  1
E
100
AcDbText
  0
TEXT
  5
B3A
330
6B
100
AcDbEntity
  8
0
 62
     3
100
AcDbText
 10
2.911248573711019
 20
-374.275786
 30
0.0
 40
4.5
  1
型式認可番号
 41
0.833333
100
AcDbText
  0
TEXT
  5
B3B
330
6B
100
AcDbEntity
  8
0
 62
     3
100
AcDbText
 10
2.931269573711006
 20
-360.476068
 30
0.0
 40
4.5
  1
定格電圧
 41
0.8888889999999999
100
AcDbText
  0
TEXT
  5
B3F
330
6B
100
AcDbEntity
  8
0
 62
     3
100
AcDbText
 10
2.931269573711006
 20
-367.476068
 30
0.0
 40
4.5
  1
定格電流
 41
0.8888889999999999
100
AcDbText
  0
TEXT
  5
B43
330
6B
100
AcDbEntity
  8
0
 62
     3
100
AcDbText
 10
34.49138757371105
 20
-374.456474
 30
0.0
 40
4.5
  1
<PS>
 41
1.142857
100
AcDbText
  0
LINE
  5
B44
330
6B
100
AcDbEntity
  8
0
 62
     3
100
AcDbLine
 10
80.75675057371103
 20
-375.357203
 30
0.0
 11
80.75675057371103
 21
-346.357203
 31
0.0
  0
TEXT
  5
B45
330
6B
100
AcDbEntity
  8
0
 62
     3
100
AcDbText
 10
17.68818357371106
 20
-352.924591
 30
0.0
 40
4.5
  1
仕　　様（屋内型）
  7
高4.5
100
AcDbText
  0
TEXT
  5
B46
330
6B
100
AcDbEntity
  8
0
 62
     3
100
AcDbText
 10
47.01105157371102
 20
-367.1696950000002
 30
0.0
 40
4.5
  1
15A
 41
1.125
100
AcDbText
  0
TEXT
  5
B47
330
6B
100
AcDbEntity
  8
0
 62
     3
100
AcDbText
 10
44.042845573711
 20
-360.320355
 30
0.0
 40
4.5
  1
125V
100
AcDbText
  0
LINE
  5
CFD
330
6B
100
AcDbEntity
  8
0
 62
     7
100
AcDbLine
 10
96.24691295271395
 20
-235.3641205205726
 30
0.0
 11
98.248425952714
 21
-235.8943405205726
 31
0.0
  0
LINE
  5
D00
330
6B
100
AcDbEntity
  8
0
 62
     7
100
AcDbLine
 10
98.248425952714
 20
-235.8943405205726
 30
0.0
 11
96.78017495271401
 21
-234.4344005205726
 31
0.0
  0
LINE
  5
D01
330
6B
100
AcDbEntity
  8
0
 62
     3
100
AcDbLine
 10
-22.70476704728594
 20
-247.1946375205726
 30
0.0
 11
-22.71582704728599
 21
-247.1238235205726
 31
0.0
  0
LINE
  5
D02
330
6B
100
AcDbEntity
  8
0
 62
     3
100
AcDbLine
 10
-22.71582704728599
 20
-247.1238235205726
 30
0.0
 11
-22.72911004728598
 21
-247.0560155205726
 31
0.0
  0
LINE
  5
D03
330
6B
100
AcDbEntity
  8
0
 62
     3
100
AcDbLine
 10
-22.72911004728598
 20
-247.0560155205726
 30
0.0
 11
-22.74451304728609
 21
-246.9917385205726
 31
0.0
  0
LINE
  5
D04
330
6B
100
AcDbEntity
  8
0
 62
     3
100
AcDbLine
 10
-22.74451304728609
 20
-246.9917385205726
 30
0.0
 11
-22.76191604728603
 21
-246.9314875205726
 31
0.0
  0
LINE
  5
D05
330
6B
100
AcDbEntity
  8
0
 62
     3
100
AcDbLine
 10
-22.76191604728603
 20
-246.9314875205726
 30
0.0
 11
-22.78118704728604
 21
-246.8757305205726
 31
0.0
  0
LINE
  5
D06
330
6B
100
AcDbEntity
  8
0
 62
     3
100
AcDbLine
 10
-22.78118704728604
 20
-246.8757305205726
 30
0.0
 11
-22.80217404728603
 21
-246.8248965205726
 31
0.0
  0
LINE
  5
D07
330
6B
100
AcDbEntity
  8
0
 62
     3
100
AcDbLine
 10
-22.80217404728603
 20
-246.8248965205726
 30
0.0
 11
-22.82471704728596
 21
-246.7793785205726
 31
0.0
  0
LINE
  5
D08
330
6B
100
AcDbEntity
  8
0
 62
     3
100
AcDbLine
 10
-22.82471704728596
 20
-246.7793785205726
 30
0.0
 11
-22.84864204728604
 21
-246.7395295205726
 31
0.0
  0
LINE
  5
D09
330
6B
100
AcDbEntity
  8
0
 62
     3
100
AcDbLine
 10
-22.84864204728604
 20
-246.7395295205726
 30
0.0
 11
-22.87376204728605
 21
-246.7056575205726
 31
0.0
  0
LINE
  5
D0A
330
6B
100
AcDbEntity
  8
0
 62
     3
100
AcDbLine
 10
-22.87376204728605
 20
-246.7056575205726
 30
0.0
 11
-22.89988404728604
 21
-246.6780235205725
 31
0.0
  0
LINE
  5
D0B
330
6B
100
AcDbEntity
  8
0
 62
     3
100
AcDbLine
 10
-22.89988404728604
 20
-246.6780235205725
 30
0.0
 11
-22.92680704728605
 21
-246.6568415205726
 31
0.0
  0
LINE
  5
D0C
330
6B
100
AcDbEntity
  8
0
 62
     3
100
AcDbLine
 10
-22.92680704728605
 20
-246.6568415205726
 30
0.0
 11
-22.95432104728604
 21
-246.6422745205726
 31
0.0
  0
LINE
  5
D0D
330
6B
100
AcDbEntity
  8
0
 62
     3
100
AcDbLine
 10
-22.95432104728604
 20
-246.6422745205726
 30
0.0
 11
-22.98221504728599
 21
-246.6344365205725
 31
0.0
  0
LINE
  5
D0E
330
6B
100
AcDbEntity
  8
0
 62
     3
100
AcDbLine
 10
-22.98221504728599
 20
-246.6344365205725
 30
0.0
 11
-23.01027304728609
 21
-246.6333865205726
 31
0.0
  0
LINE
  5
D0F
330
6B
100
AcDbEntity
  8
0
 62
     3
100
AcDbLine
 10
-23.01027304728609
 20
-246.6333865205726
 30
0.0
 11
-23.0382770472861
 21
-246.6391335205726
 31
0.0
  0
LINE
  5
D10
330
6B
100
AcDbEntity
  8
0
 62
     3
100
AcDbLine
 10
-23.0382770472861
 20
-246.6391335205726
 30
0.0
 11
-23.06601204728599
 21
-246.6516335205726
 31
0.0
  0
LINE
  5
D11
330
6B
100
AcDbEntity
  8
0
 62
     3
100
AcDbLine
 10
-23.06601204728599
 20
-246.6516335205726
 30
0.0
 11
-23.09326204728609
 21
-246.6707895205726
 31
0.0
  0
LINE
  5
D12
330
6B
100
AcDbEntity
  8
0
 62
     3
100
AcDbLine
 10
-23.09326204728609
 20
-246.6707895205726
 30
0.0
 11
-23.11981804728612
 21
-246.6964525205726
 31
0.0
  0
LINE
  5
D13
330
6B
100
AcDbEntity
  8
0
 62
     3
100
AcDbLine
 10
-23.11981804728612
 20
-246.6964525205726
 30
0.0
 11
-23.14547504728603
 21
-246.7284255205726
 31
0.0
  0
LINE
  5
D14
330
6B
100
AcDbEntity
  8
0
 62
     3
100
AcDbLine
 10
-23.14547504728603
 20
-246.7284255205726
 30
0.0
 11
-23.1700330472861
 21
-246.7664605205726
 31
0.0
  0
LINE
  5
D15
330
6B
100
AcDbEntity
  8
0
 62
     3
100
AcDbLine
 10
-23.1700330472861
 20
-246.7664605205726
 30
0.0
 11
-23.19330204728601
 21
-246.8102645205726
 31
0.0
  0
LINE
  5
D16
330
6B
100
AcDbEntity
  8
0
 62
     3
100
AcDbLine
 10
-23.19330204728601
 20
-246.8102645205726
 30
0.0
 11
-23.21510504728598
 21
-246.8594975205726
 31
0.0
  0
LINE
  5
D17
330
6B
100
AcDbEntity
  8
0
 62
     3
100
AcDbLine
 10
-23.21510504728598
 20
-246.8594975205726
 30
0.0
 11
-23.23527004728612
 21
-246.9137795205726
 31
0.0
  0
LINE
  5
D18
330
6B
100
AcDbEntity
  8
0
 62
     3
100
AcDbLine
 10
-23.23527004728612
 20
-246.9137795205726
 30
0.0
 11
-23.253644047286
 21
-246.9726915205726
 31
0.0
  0
LINE
  5
D19
330
6B
100
AcDbEntity
  8
0
 62
     3
100
AcDbLine
 10
-23.253644047286
 20
-246.9726915205726
 30
0.0
 11
-23.27008304728611
 21
-247.0357775205726
 31
0.0
  0
LINE
  5
D1A
330
6B
100
AcDbEntity
  8
0
 62
     3
100
AcDbLine
 10
-23.27008304728611
 20
-247.0357775205726
 30
0.0
 11
-23.28446004728608
 21
-247.1025505205726
 31
0.0
  0
LINE
  5
D1B
330
6B
100
AcDbEntity
  8
0
 62
     3
100
AcDbLine
 10
-23.28446004728608
 20
-247.1025505205726
 30
0.0
 11
-23.29666604728607
 21
-247.1724945205726
 31
0.0
  0
LINE
  5
D1C
330
6B
100
AcDbEntity
  8
0
 62
     3
100
AcDbLine
 10
-23.29666604728607
 20
-247.1724945205726
 30
0.0
 11
-23.3066040472861
 21
-247.2450675205726
 31
0.0
  0
LINE
  5
D1D
330
6B
100
AcDbEntity
  8
0
 62
     3
100
AcDbLine
 10
-23.3066040472861
 20
-247.2450675205726
 30
0.0
 11
-23.31419904728603
 21
-247.3197095205726
 31
0.0
  0
LINE
  5
D1E
330
6B
100
AcDbEntity
  8
0
 62
     3
100
AcDbLine
 10
-23.31419904728603
 20
-247.3197095205726
 30
0.0
 11
-23.31939104728599
 21
-247.3958445205726
 31
0.0
  0
LINE
  5
D1F
330
6B
100
AcDbEntity
  8
0
 62
     3
100
AcDbLine
 10
-23.31939104728599
 20
-247.3958445205726
 30
0.0
 11
-23.3221410472861
 21
-247.4728815205726
 31
0.0
  0
LINE
  5
D20
330
6B
100
AcDbEntity
  8
0
 62
     3
100
AcDbLine
 10
-23.3221410472861
 20
-247.4728815205726
 30
0.0
 11
-23.32242704728606
 21
-247.5502275205726
 31
0.0
  0
LINE
  5
D21
330
6B
100
AcDbEntity
  8
0
 62
     3
100
AcDbLine
 10
-23.32242704728606
 20
-247.5502275205726
 30
0.0
 11
-23.32024804728598
 21
-247.6272835205726
 31
0.0
  0
LINE
  5
D22
330
6B
100
AcDbEntity
  8
0
 62
     3
100
AcDbLine
 10
-23.32024804728598
 20
-247.6272835205726
 30
0.0
 11
-23.31561904728596
 21
-247.7034545205726
 31
0.0
  0
LINE
  5
D23
330
6B
100
AcDbEntity
  8
0
 62
     3
100
AcDbLine
 10
-23.31561904728596
 20
-247.7034545205726
 30
0.0
 11
-23.30857704728601
 21
-247.7781505205726
 31
0.0
  0
LINE
  5
D24
330
6B
100
AcDbEntity
  8
0
 62
     3
100
AcDbLine
 10
-23.30857704728601
 20
-247.7781505205726
 30
0.0
 11
-23.29917604728598
 21
-247.8507955205726
 31
0.0
  0
LINE
  5
D25
330
6B
100
AcDbEntity
  8
0
 62
     3
100
AcDbLine
 10
-23.29917604728598
 20
-247.8507955205726
 30
0.0
 11
-23.28748804728594
 21
-247.9208275205726
 31
0.0
  0
LINE
  5
D26
330
6B
100
AcDbEntity
  8
0
 62
     3
100
AcDbLine
 10
-23.28748804728594
 20
-247.9208275205726
 30
0.0
 11
-23.27360504728607
 21
-247.9877045205726
 31
0.0
  0
LINE
  5
D27
330
6B
100
AcDbEntity
  8
0
 62
     3
100
AcDbLine
 10
-23.27360504728607
 20
-247.9877045205726
 30
0.0
 11
-23.25763304728605
 21
-248.0509105205726
 31
0.0
  0
LINE
  5
D28
330
6B
100
AcDbEntity
  8
0
 62
     3
100
AcDbLine
 10
-23.25763304728605
 20
-248.0509105205726
 30
0.0
 11
-23.23969604728609
 21
-248.1099575205726
 31
0.0
  0
LINE
  5
D29
330
6B
100
AcDbEntity
  8
0
 62
     3
100
AcDbLine
 10
-23.23969604728609
 20
-248.1099575205726
 30
0.0
 11
-23.21993304728608
 21
-248.1643875205726
 31
0.0
  0
LINE
  5
D2A
330
6B
100
AcDbEntity
  8
0
 62
     3
100
AcDbLine
 10
-23.21993304728608
 20
-248.1643875205726
 30
0.0
 11
-23.19849604728597
 21
-248.2137805205725
 31
0.0
  0
LINE
  5
D2B
330
6B
100
AcDbEntity
  8
0
 62
     3
100
AcDbLine
 10
-23.19849604728597
 20
-248.2137805205725
 30
0.0
 11
-23.17555004728604
 21
-248.2577555205726
 31
0.0
  0
LINE
  5
D2C
330
6B
100
AcDbEntity
  8
0
 62
     3
100
AcDbLine
 10
-23.17555004728604
 20
-248.2577555205726
 30
0.0
 11
-23.15127504728605
 21
-248.2959715205726
 31
0.0
  0
LINE
  5
D2D
330
6B
100
AcDbEntity
  8
0
 62
     3
100
AcDbLine
 10
-23.15127504728605
 20
-248.2959715205726
 30
0.0
 11
-23.12585604728611
 21
-248.3281325205726
 31
0.0
  0
LINE
  5
D2E
330
6B
100
AcDbEntity
  8
0
 62
     3
100
AcDbLine
 10
-23.12585604728611
 20
-248.3281325205726
 30
0.0
 11
-23.09949004728605
 21
-248.3539925205726
 31
0.0
  0
LINE
  5
D2F
330
6B
100
AcDbEntity
  8
0
 62
     3
100
AcDbLine
 10
-23.09949004728605
 20
-248.3539925205726
 30
0.0
 11
-23.07238204728605
 21
-248.3733485205726
 31
0.0
  0
LINE
  5
D30
330
6B
100
AcDbEntity
  8
0
 62
     3
100
AcDbLine
 10
-23.07238204728605
 20
-248.3733485205726
 30
0.0
 11
-23.04474104728604
 21
-248.3860535205725
 31
0.0
  0
LINE
  5
D31
330
6B
100
AcDbEntity
  8
0
 62
     3
100
AcDbLine
 10
-23.04474104728604
 20
-248.3860535205725
 30
0.0
 11
-23.01678004728604
 21
-248.3920075205726
 31
0.0
  0
LINE
  5
D32
330
6B
100
AcDbEntity
  8
0
 62
     3
100
AcDbLine
 10
-23.01678004728604
 20
-248.3920075205726
 30
0.0
 11
-22.98871504728595
 21
-248.3911655205726
 31
0.0
  0
LINE
  5
D33
330
6B
100
AcDbEntity
  8
0
 62
     3
100
AcDbLine
 10
-22.98871504728595
 20
-248.3911655205726
 30
0.0
 11
-22.96076404728603
 21
-248.3835345205726
 31
0.0
  0
LINE
  5
D34
330
6B
100
AcDbEntity
  8
0
 62
     3
100
AcDbLine
 10
-22.96076404728603
 20
-248.3835345205726
 30
0.0
 11
-22.93314304728597
 21
-248.3691715205726
 31
0.0
  0
LINE
  5
D35
330
6B
100
AcDbEntity
  8
0
 62
     3
100
AcDbLine
 10
-22.93314304728597
 20
-248.3691715205726
 30
0.0
 11
-22.90606404728601
 21
-248.3481895205726
 31
0.0
  0
LINE
  5
D36
330
6B
100
AcDbEntity
  8
0
 62
     3
100
AcDbLine
 10
-22.90606404728601
 20
-248.3481895205726
 30
0.0
 11
-22.87973804728608
 21
-248.3207485205726
 31
0.0
  0
LINE
  5
D37
330
6B
100
AcDbEntity
  8
0
 62
     3
100
AcDbLine
 10
-22.87973804728608
 20
-248.3207485205726
 30
0.0
 11
-22.85436804728602
 21
-248.2870635205725
 31
0.0
  0
LINE
  5
D38
330
6B
100
AcDbEntity
  8
0
 62
     3
100
AcDbLine
 10
-22.85436804728602
 20
-248.2870635205725
 30
0.0
 11
-22.830149047286
 21
-248.2473925205725
 31
0.0
  0
LINE
  5
D39
330
6B
100
AcDbEntity
  8
0
 62
     3
100
AcDbLine
 10
-22.830149047286
 20
-248.2473925205725
 30
0.0
 11
-22.80727004728601
 21
-248.2020435205726
 31
0.0
  0
LINE
  5
D3A
330
6B
100
AcDbEntity
  8
0
 62
     3
100
AcDbLine
 10
-22.80727004728601
 20
-248.2020435205726
 30
0.0
 11
-22.78590704728594
 21
-248.1513655205726
 31
0.0
  0
LINE
  5
D3B
330
6B
100
AcDbEntity
  8
0
 62
     3
100
AcDbLine
 10
-22.78590704728594
 20
-248.1513655205726
 30
0.0
 11
-22.76622404728597
 21
-248.0957525205726
 31
0.0
  0
LINE
  5
D3C
330
6B
100
AcDbEntity
  8
0
 62
     3
100
AcDbLine
 10
-22.76622404728597
 20
-248.0957525205726
 30
0.0
 11
-22.748375047286
 21
-248.0356325205725
 31
0.0
  0
LINE
  5
D3D
330
6B
100
AcDbEntity
  8
0
 62
     3
100
AcDbLine
 10
-22.748375047286
 20
-248.0356325205725
 30
0.0
 11
-22.73249704728607
 21
-247.9714705205726
 31
0.0
  0
LINE
  5
D3E
330
6B
100
AcDbEntity
  8
0
 62
     3
100
AcDbLine
 10
-22.73249704728607
 20
-247.9714705205726
 30
0.0
 11
-22.71871304728596
 21
-247.9037635205726
 31
0.0
  0
LINE
  5
D3F
330
6B
100
AcDbEntity
  8
0
 62
     3
100
AcDbLine
 10
-22.71871304728596
 20
-247.9037635205726
 30
0.0
 11
-22.707130047286
 21
-247.8330335205726
 31
0.0
  0
LINE
  5
D40
330
6B
100
AcDbEntity
  8
0
100
AcDbLine
 10
31.936014952714
 20
-271.5570155205726
 30
0.0
 11
23.51405495271398
 21
-271.5570155205726
 31
0.0
  0
LINE
  5
D41
330
6B
100
AcDbEntity
  8
0
100
AcDbLine
 10
31.936014952714
 20
-244.0570155205726
 30
0.0
 11
23.51405495271399
 21
-244.0570155205726
 31
0.0
  0
LINE
  5
D42
330
6B
100
AcDbEntity
  8
0
100
AcDbLine
 10
24.76405495271399
 20
-269.0570155205726
 30
0.0
 11
24.76405495271399
 21
-246.5570155205726
 31
0.0
  0
LINE
  5
D46
330
6B
100
AcDbEntity
  8
0
100
AcDbLine
 10
-35.61204204728597
 20
-310.5570155205726
 30
0.0
 11
-48.62642804728604
 21
-310.5570155205726
 31
0.0
  0
LINE
  5
D47
330
6B
100
AcDbEntity
  8
0
100
AcDbLine
 10
-35.61204204728597
 20
-244.0570155205726
 30
0.0
 11
-48.62642804728602
 21
-244.0570155205726
 31
0.0
  0
LINE
  5
D48
330
6B
100
AcDbEntity
  8
0
100
AcDbLine
 10
-47.37642804728603
 20
-308.0570155205726
 30
0.0
 11
-47.37642804728602
 21
-246.5570155205726
 31
0.0
  0
LINE
  5
D4C
330
6B
100
AcDbEntity
  8
0
100
AcDbLine
 10
-20.61204204728597
 20
-326.5570155205726
 30
0.0
 11
-56.27213504728606
 21
-326.5570155205726
 31
0.0
  0
LINE
  5
D4D
330
6B
100
AcDbEntity
  8
0
100
AcDbLine
 10
-20.61204204728597
 20
-228.0570155205726
 30
0.0
 11
-56.27213504728604
 21
-228.0570155205726
 31
0.0
  0
LINE
  5
D4E
330
6B
100
AcDbEntity
  8
0
100
AcDbLine
 10
-55.02213504728606
 20
-324.0570155205726
 30
0.0
 11
-55.02213504728604
 21
-230.5570155205726
 31
0.0
  0
LINE
  5
D52
330
6B
100
AcDbEntity
  8
0
100
AcDbLine
 10
92.31246295271398
 20
-235.3070155205726
 30
0.0
 11
92.31246295271398
 21
-220.3257475205726
 31
0.0
  0
LINE
  5
D53
330
6B
100
AcDbEntity
  8
0
100
AcDbLine
 10
107.312462952714
 20
-235.3070155205726
 30
0.0
 11
107.312462952714
 21
-220.3257475205726
 31
0.0
  0
LINE
  5
D54
330
6B
100
AcDbEntity
  8
0
100
AcDbLine
 10
94.81246295271398
 20
-221.5757475205726
 30
0.0
 11
104.812462952714
 21
-221.5757475205726
 31
0.0
  0
LINE
  5
D58
330
6B
100
AcDbEntity
  8
0
100
AcDbLine
 10
-37.36204204728597
 20
-245.8070155205726
 30
0.0
 11
-37.36204204728597
 21
-220.3257475205726
 31
0.0
  0
LINE
  5
D59
330
6B
100
AcDbEntity
  8
0
100
AcDbLine
 10
-3.362042047285966
 20
-245.8070155205726
 30
0.0
 11
-3.362042047285965
 21
-220.3257475205726
 31
0.0
  0
LINE
  5
D5A
330
6B
100
AcDbEntity
  8
0
100
AcDbLine
 10
-34.86204204728597
 20
-221.5757475205726
 30
0.0
 11
-5.862042047285966
 21
-221.5757475205726
 31
0.0
  0
LINE
  5
D5E
330
6B
100
AcDbEntity
  8
0
100
AcDbLine
 10
32.186014952714
 20
-243.8070155205726
 30
0.0
 11
32.186014952714
 21
-220.3257475205726
 31
0.0
  0
LINE
  5
D5F
330
6B
100
AcDbEntity
  8
0
100
AcDbLine
 10
37.186014952714
 20
-227.8070155205726
 30
0.0
 11
37.186014952714
 21
-220.3257475205726
 31
0.0
  0
LINE
  5
D60
330
6B
100
AcDbEntity
  8
0
100
AcDbLine
 10
39.686014952714
 20
-221.5757475205726
 30
0.0
 11
42.18601495271399
 21
-221.5757475205726
 31
0.0
  0
LINE
  5
D61
330
6B
100
AcDbEntity
  8
0
100
AcDbLine
 10
29.686014952714
 20
-221.5757475205726
 30
0.0
 11
23.936014952714
 21
-221.5757475205726
 31
0.0
  0
LINE
  5
D62
330
6B
100
AcDbEntity
  8
0
100
AcDbLine
 10
37.186014952714
 20
-221.5757475205726
 30
0.0
 11
32.186014952714
 21
-221.5757475205726
 31
0.0
  0
LINE
  5
D66
330
6B
100
AcDbEntity
  8
0
100
AcDbLine
 10
100.062462952714
 20
-319.0570155205727
 30
0.0
 11
129.179986952714
 21
-319.0570155205727
 31
0.0
  0
LINE
  5
D67
330
6B
100
AcDbEntity
  8
0
100
AcDbLine
 10
100.062462952714
 20
-235.5570155205726
 30
0.0
 11
129.179986952714
 21
-235.5570155205726
 31
0.0
  0
LINE
  5
D68
330
6B
100
AcDbEntity
  8
0
100
AcDbLine
 10
127.929986952714
 20
-316.5570155205726
 30
0.0
 11
127.929986952714
 21
-238.0570155205726
 31
0.0
  0
LINE
  5
D6C
330
6B
100
AcDbEntity
  8
0
100
AcDbLine
 10
31.936014952714
 20
-310.5570155205726
 30
0.0
 11
23.51405495271399
 21
-310.5570155205726
 31
0.0
  0
LINE
  5
D6D
330
6B
100
AcDbEntity
  8
0
100
AcDbLine
 10
31.936014952714
 20
-283.0570155205726
 30
0.0
 11
23.51405495271399
 21
-283.0570155205726
 31
0.0
  0
LINE
  5
D6E
330
6B
100
AcDbEntity
  8
0
100
AcDbLine
 10
24.76405495271399
 20
-308.0570155205726
 30
0.0
 11
24.76405495271399
 21
-285.5570155205726
 31
0.0
  0
LINE
  5
D72
330
6B
100
AcDbEntity
  8
0
100
AcDbLine
 10
32.186014952714
 20
-310.8070155205727
 30
0.0
 11
32.186014952714
 21
-333.7456095205725
 31
0.0
  0
LINE
  5
D73
330
6B
100
AcDbEntity
  8
0
100
AcDbLine
 10
52.88601495271404
 20
-310.8070155205727
 30
0.0
 11
52.88601495271404
 21
-333.7456095205725
 31
0.0
  0
LINE
  5
D74
330
6B
100
AcDbEntity
  8
0
100
AcDbLine
 10
34.686014952714
 20
-332.4956095205725
 30
0.0
 11
50.38601495271404
 21
-332.4956095205725
 31
0.0
  0
LINE
  5
D78
330
6B
100
AcDbEntity
  8
0
100
AcDbLine
 10
37.186014952714
 20
-227.8070155205726
 30
0.0
 11
37.186014952714
 21
-220.3257475205726
 31
0.0
  0
LINE
  5
D79
330
6B
100
AcDbEntity
  8
0
100
AcDbLine
 10
45.186014952714
 20
-227.8070155205726
 30
0.0
 11
45.186014952714
 21
-220.3257475205726
 31
0.0
  0
LINE
  5
D7A
330
6B
100
AcDbEntity
  8
0
100
AcDbLine
 10
39.686014952714
 20
-221.5757475205726
 30
0.0
 11
42.686014952714
 21
-221.5757475205726
 31
0.0
  0
LINE
  5
D7E
330
6B
100
AcDbEntity
  8
0
 62
     3
100
AcDbLine
 10
63.31179005221271
 20
-204.7134678313176
 30
0.0
 11
63.2931625222127
 21
-204.5942000713176
 31
0.0
  0
LINE
  5
D7F
330
6B
100
AcDbEntity
  8
0
 62
     3
100
AcDbLine
 10
63.2931625222127
 20
-204.5942000713176
 30
0.0
 11
63.27079134221275
 21
-204.4799952913176
 31
0.0
  0
LINE
  5
D80
330
6B
100
AcDbEntity
  8
0
 62
     3
100
AcDbLine
 10
63.27079134221275
 20
-204.4799952913176
 30
0.0
 11
63.24484941221271
 21
-204.3717362313176
 31
0.0
  0
LINE
  5
D81
330
6B
100
AcDbEntity
  8
0
 62
     3
100
AcDbLine
 10
63.24484941221271
 20
-204.3717362313176
 30
0.0
 11
63.21553727221271
 21
-204.2702596813176
 31
0.0
  0
LINE
  5
D82
330
6B
100
AcDbEntity
  8
0
 62
     3
100
AcDbLine
 10
63.21553727221271
 20
-204.2702596813176
 30
0.0
 11
63.18308146221273
 21
-204.1763500013176
 31
0.0
  0
LINE
  5
D83
330
6B
100
AcDbEntity
  8
0
 62
     3
100
AcDbLine
 10
63.18308146221273
 20
-204.1763500013176
 30
0.0
 11
63.14773287221282
 21
-204.0907330613176
 31
0.0
  0
LINE
  5
D84
330
6B
100
AcDbEntity
  8
0
 62
     3
100
AcDbLine
 10
63.14773287221282
 20
-204.0907330613176
 30
0.0
 11
63.10976472221272
 21
-204.0140706413176
 31
0.0
  0
LINE
  5
D85
330
6B
100
AcDbEntity
  8
0
 62
     3
100
AcDbLine
 10
63.10976472221272
 20
-204.0140706413176
 30
0.0
 11
63.06947047221274
 21
-203.9469553113176
 31
0.0
  0
LINE
  5
D86
330
6B
100
AcDbEntity
  8
0
 62
     3
100
AcDbLine
 10
63.06947047221274
 20
-203.9469553113176
 30
0.0
 11
63.0271616022128
 21
-203.8899058213176
 31
0.0
  0
LINE
  5
D87
330
6B
100
AcDbEntity
  8
0
 62
     3
100
AcDbLine
 10
63.0271616022128
 20
-203.8899058213176
 30
0.0
 11
62.98316511221275
 21
-203.8433631413176
 31
0.0
  0
LINE
  5
D88
330
6B
100
AcDbEntity
  8
0
 62
     3
100
AcDbLine
 10
62.98316511221275
 20
-203.8433631413176
 30
0.0
 11
62.93782109221274
 21
-203.8076870313176
 31
0.0
  0
LINE
  5
D89
330
6B
100
AcDbEntity
  8
0
 62
     3
100
AcDbLine
 10
62.93782109221274
 20
-203.8076870313176
 30
0.0
 11
62.89148002221281
 21
-203.7831532313176
 31
0.0
  0
LINE
  5
D8A
330
6B
100
AcDbEntity
  8
0
 62
     3
100
AcDbLine
 10
62.89148002221281
 20
-203.7831532313176
 30
0.0
 11
62.84450008221279
 21
-203.7699513913176
 31
0.0
  0
LINE
  5
D8B
330
6B
100
AcDbEntity
  8
0
 62
     3
100
AcDbLine
 10
62.84450008221279
 20
-203.7699513913176
 30
0.0
 11
62.79724442221277
 21
-203.7681835513176
 31
0.0
  0
LINE
  5
D8C
330
6B
100
AcDbEntity
  8
0
 62
     3
100
AcDbLine
 10
62.79724442221277
 20
-203.7681835513176
 30
0.0
 11
62.75007829221271
 21
-203.7778633613176
 31
0.0
  0
LINE
  5
D8D
330
6B
100
AcDbEntity
  8
0
 62
     3
100
AcDbLine
 10
62.75007829221271
 20
-203.7778633613176
 30
0.0
 11
62.70336626221275
 21
-203.7989160213176
 31
0.0
  0
LINE
  5
D8E
330
6B
100
AcDbEntity
  8
0
 62
     3
100
AcDbLine
 10
62.70336626221275
 20
-203.7989160213176
 30
0.0
 11
62.65746940221275
 21
-203.8311787913176
 31
0.0
  0
LINE
  5
D8F
330
6B
100
AcDbEntity
  8
0
 62
     3
100
AcDbLine
 10
62.65746940221275
 20
-203.8311787913176
 30
0.0
 11
62.61274246221272
 21
-203.8744023013176
 31
0.0
  0
LINE
  5
D90
330
6B
100
AcDbEntity
  8
0
 62
     3
100
AcDbLine
 10
62.61274246221272
 20
-203.8744023013176
 30
0.0
 11
62.56953115221268
 21
-203.9282524613176
 31
0.0
  0
LINE
  5
D91
330
6B
100
AcDbEntity
  8
0
 62
     3
100
AcDbLine
 10
62.56953115221268
 20
-203.9282524613176
 30
0.0
 11
62.52816949221278
 21
-203.9923130313176
 31
0.0
  0
LINE
  5
D92
330
6B
100
AcDbEntity
  8
0
 62
     3
100
AcDbLine
 10
62.52816949221278
 20
-203.9923130313176
 30
0.0
 11
62.4889771722128
 21
-204.0660888513176
 31
0.0
  0
LINE
  5
D93
330
6B
100
AcDbEntity
  8
0
 62
     3
100
AcDbLine
 10
62.4889771722128
 20
-204.0660888513176
 30
0.0
 11
62.4522571322127
 21
-204.1490096813176
 31
0.0
  0
LINE
  5
D94
330
6B
100
AcDbEntity
  8
0
 62
     3
100
AcDbLine
 10
62.4522571322127
 20
-204.1490096813176
 30
0.0
 11
62.41829320221267
 21
-204.2404345813176
 31
0.0
  0
LINE
  5
D95
330
6B
100
AcDbEntity
  8
0
 62
     3
100
AcDbLine
 10
62.41829320221267
 20
-204.2404345813176
 30
0.0
 11
62.38734790221268
 21
-204.3396568913176
 31
0.0
  0
LINE
  5
D96
330
6B
100
AcDbEntity
  8
0
 62
     3
100
AcDbLine
 10
62.38734790221268
 20
-204.3396568913176
 30
0.0
 11
62.35966042221275
 21
-204.4459096613176
 31
0.0
  0
LINE
  5
D97
330
6B
100
AcDbEntity
  8
0
 62
     3
100
AcDbLine
 10
62.35966042221275
 20
-204.4459096613176
 30
0.0
 11
62.33544477221267
 21
-204.5583716213176
 31
0.0
  0
LINE
  5
D98
330
6B
100
AcDbEntity
  8
0
 62
     3
100
AcDbLine
 10
62.33544477221267
 20
-204.5583716213176
 30
0.0
 11
62.31488813221266
 21
-204.6761735013176
 31
0.0
  0
LINE
  5
D99
330
6B
100
AcDbEntity
  8
0
 62
     3
100
AcDbLine
 10
62.31488813221266
 20
-204.6761735013176
 30
0.0
 11
62.29814939221274
 21
-204.7984047413176
 31
0.0
  0
LINE
  5
D9A
330
6B
100
AcDbEntity
  8
0
 62
     3
100
AcDbLine
 10
62.29814939221274
 20
-204.7984047413176
 30
0.0
 11
62.28535793221271
 21
-204.9241205613176
 31
0.0
  0
LINE
  5
D9B
330
6B
100
AcDbEntity
  8
0
 62
     3
100
AcDbLine
 10
62.28535793221271
 20
-204.9241205613176
 30
0.0
 11
62.27661262221271
 21
-205.0523492413176
 31
0.0
  0
LINE
  5
D9C
330
6B
100
AcDbEntity
  8
0
 62
     3
100
AcDbLine
 10
62.27661262221271
 20
-205.0523492413176
 30
0.0
 11
62.27198106221272
 21
-205.1820996513176
 31
0.0
  0
LINE
  5
D9D
330
6B
100
AcDbEntity
  8
0
 62
     3
100
AcDbLine
 10
62.27198106221272
 20
-205.1820996513176
 30
0.0
 11
62.27149905221267
 21
-205.3123688713176
 31
0.0
  0
LINE
  5
D9E
330
6B
100
AcDbEntity
  8
0
 62
     3
100
AcDbLine
 10
62.27149905221267
 20
-205.3123688713176
 30
0.0
 11
62.27517031221282
 21
-205.4421500013176
 31
0.0
  0
LINE
  5
D9F
330
6B
100
AcDbEntity
  8
0
 62
     3
100
AcDbLine
 10
62.27517031221282
 20
-205.4421500013176
 30
0.0
 11
62.28296647221282
 21
-205.5704398913176
 31
0.0
  0
LINE
  5
DA0
330
6B
100
AcDbEntity
  8
0
 62
     3
100
AcDbLine
 10
62.28296647221282
 20
-205.5704398913176
 30
0.0
 11
62.29482727221272
 21
-205.6962469313176
 31
0.0
  0
LINE
  5
DA1
330
6B
100
AcDbEntity
  8
0
 62
     3
100
AcDbLine
 10
62.29482727221272
 20
-205.6962469313176
 30
0.0
 11
62.3106610222128
 21
-205.8185986913176
 31
0.0
  0
LINE
  5
DA2
330
6B
100
AcDbEntity
  8
0
 62
     3
100
AcDbLine
 10
62.3106610222128
 20
-205.8185986913176
 30
0.0
 11
62.33034535221282
 21
-205.9365494613176
 31
0.0
  0
LINE
  5
DA3
330
6B
100
AcDbEntity
  8
0
 62
     3
100
AcDbLine
 10
62.33034535221282
 20
-205.9365494613176
 30
0.0
 11
62.35372810221271
 21
-206.0491875413176
 31
0.0
  0
LINE
  5
DA4
330
6B
100
AcDbEntity
  8
0
 62
     3
100
AcDbLine
 10
62.35372810221271
 20
-206.0491875413176
 30
0.0
 11
62.38062854221277
 21
-206.1556423013176
 31
0.0
  0
LINE
  5
DA5
330
6B
100
AcDbEntity
  8
0
 62
     3
100
AcDbLine
 10
62.38062854221277
 20
-206.1556423013176
 30
0.0
 11
62.41083874221271
 21
-206.2550908813176
 31
0.0
  0
LINE
  5
DA6
330
6B
100
AcDbEntity
  8
0
 62
     3
100
AcDbLine
 10
62.41083874221271
 20
-206.2550908813176
 30
0.0
 11
62.4441251822127
 21
-206.3467646213176
 31
0.0
  0
LINE
  5
DA7
330
6B
100
AcDbEntity
  8
0
 62
     3
100
AcDbLine
 10
62.4441251822127
 20
-206.3467646213176
 30
0.0
 11
62.48023059221281
 21
-206.4299549113176
 31
0.0
  0
LINE
  5
DA8
330
6B
100
AcDbEntity
  8
0
 62
     3
100
AcDbLine
 10
62.48023059221281
 20
-206.4299549113176
 30
0.0
 11
62.51887589221269
 21
-206.5040187513176
 31
0.0
  0
LINE
  5
DA9
330
6B
100
AcDbEntity
  8
0
 62
     3
100
AcDbLine
 10
62.51887589221269
 20
-206.5040187513176
 30
0.0
 11
62.55976237221272
 21
-206.5683836413176
 31
0.0
  0
LINE
  5
DAA
330
6B
100
AcDbEntity
  8
0
 62
     3
100
AcDbLine
 10
62.55976237221272
 20
-206.5683836413176
 30
0.0
 11
62.60257399221267
 21
-206.6225520913176
 31
0.0
  0
LINE
  5
DAB
330
6B
100
AcDbEntity
  8
0
 62
     3
100
AcDbLine
 10
62.60257399221267
 20
-206.6225520913176
 30
0.0
 11
62.64697984221277
 21
-206.6661054113176
 31
0.0
  0
LINE
  5
DAC
330
6B
100
AcDbEntity
  8
0
 62
     3
100
AcDbLine
 10
62.64697984221277
 20
-206.6661054113176
 30
0.0
 11
62.69263670221267
 21
-206.6987069413176
 31
0.0
  0
LINE
  5
DAD
330
6B
100
AcDbEntity
  8
0
 62
     3
100
AcDbLine
 10
62.69263670221267
 20
-206.6987069413176
 30
0.0
 11
62.73919166221276
 21
-206.7201046913176
 31
0.0
  0
LINE
  5
DAE
330
6B
100
AcDbEntity
  8
0
 62
     3
100
AcDbLine
 10
62.73919166221276
 20
-206.7201046913176
 30
0.0
 11
62.78628486221283
 21
-206.7301332813176
 31
0.0
  0
LINE
  5
DAF
330
6B
100
AcDbEntity
  8
0
 62
     3
100
AcDbLine
 10
62.78628486221283
 20
-206.7301332813176
 30
0.0
 11
62.83355232221278
 21
-206.7287151813176
 31
0.0
  0
LINE
  5
DB0
330
6B
100
AcDbEntity
  8
0
 62
     3
100
AcDbLine
 10
62.83355232221278
 20
-206.7287151813176
 30
0.0
 11
62.88062866221275
 21
-206.7158613613176
 31
0.0
  0
LINE
  5
DB1
330
6B
100
AcDbEntity
  8
0
 62
     3
100
AcDbLine
 10
62.88062866221275
 20
-206.7158613613176
 30
0.0
 11
62.9271500222128
 21
-206.6916711613176
 31
0.0
  0
LINE
  5
DB2
330
6B
100
AcDbEntity
  8
0
 62
     3
100
AcDbLine
 10
62.9271500222128
 20
-206.6916711613176
 30
0.0
 11
62.97275681221275
 21
-206.6563315813176
 31
0.0
  0
LINE
  5
DB3
330
6B
100
AcDbEntity
  8
0
 62
     3
100
AcDbLine
 10
62.97275681221275
 20
-206.6563315813176
 30
0.0
 11
63.01709651221266
 21
-206.6101157513176
 31
0.0
  0
LINE
  5
DB4
330
6B
100
AcDbEntity
  8
0
 62
     3
100
AcDbLine
 10
63.01709651221266
 20
-206.6101157513176
 30
0.0
 11
63.05982640221282
 21
-206.5533809213176
 31
0.0
  0
LINE
  5
DB5
330
6B
100
AcDbEntity
  8
0
 62
     3
100
AcDbLine
 10
63.05982640221282
 20
-206.5533809213176
 30
0.0
 11
63.10061620221268
 21
-206.4865656013176
 31
0.0
  0
LINE
  5
DB6
330
6B
100
AcDbEntity
  8
0
 62
     3
100
AcDbLine
 10
63.10061620221268
 20
-206.4865656013176
 30
0.0
 11
63.1391506322127
 21
-206.4101862613176
 31
0.0
  0
LINE
  5
DB7
330
6B
100
AcDbEntity
  8
0
 62
     3
100
AcDbLine
 10
63.1391506322127
 20
-206.4101862613176
 30
0.0
 11
63.17513183221274
 21
-206.3248332513176
 31
0.0
  0
LINE
  5
DB8
330
6B
100
AcDbEntity
  8
0
 62
     3
100
AcDbLine
 10
63.17513183221274
 20
-206.3248332513176
 30
0.0
 11
63.20828169221272
 21
-206.2311663213176
 31
0.0
  0
LINE
  5
DB9
330
6B
100
AcDbEntity
  8
0
 62
     3
100
AcDbLine
 10
63.20828169221272
 20
-206.2311663213176
 30
0.0
 11
63.23834397221276
 21
-206.1299094613176
 31
0.0
  0
LINE
  5
DBA
330
6B
100
AcDbEntity
  8
0
 62
     3
100
AcDbLine
 10
63.23834397221276
 20
-206.1299094613176
 30
0.0
 11
63.26508632221272
 21
-206.0218453413176
 31
0.0
  0
LINE
  5
DBB
330
6B
100
AcDbEntity
  8
0
 62
     3
100
AcDbLine
 10
63.26508632221272
 20
-206.0218453413176
 30
0.0
 11
63.28830202221276
 21
-205.9078092313176
 31
0.0
  0
LINE
  5
DBC
330
6B
100
AcDbEntity
  8
0
 62
     3
100
AcDbLine
 10
63.28830202221276
 20
-205.9078092313176
 30
0.0
 11
63.30781163221274
 21
-205.7886825813176
 31
0.0
  0
TEXT
  5
DBD
330
6B
100
AcDbEntity
  8
0
  6
Continuous
 62
     4
100
AcDbText
 10
24.13905495271403
 20
-262.3070155205726
 30
0.0
 40
3.0
  1
27.5
 50
90.0
100
AcDbText
  0
LINE
  5
DBE
330
6B
100
AcDbEntity
  8
0
  6
ByBlock
 62
     0
370
    -2
100
AcDbLine
 10
24.09418245271399
 20
-246.5570155205726
 30
0.0
 11
24.76405495271399
 21
-244.0570155205726
 31
0.0
  0
LINE
  5
DBF
330
6B
100
AcDbEntity
  8
0
  6
ByBlock
 62
     0
370
    -2
100
AcDbLine
 10
24.76405495271399
 20
-244.0570155205726
 30
0.0
 11
25.43392745271399
 21
-246.5570155205726
 31
0.0
  0
LINE
  5
DC0
330
6B
100
AcDbEntity
  8
0
  6
ByBlock
 62
     0
370
    -2
100
AcDbLine
 10
24.76405495271399
 20
-244.0570155205726
 30
0.0
 11
24.76405495271399
 21
-246.5570155205726
 31
0.0
  0
LINE
  5
DC1
330
6B
100
AcDbEntity
  8
0
  6
ByBlock
 62
     0
370
    -2
100
AcDbLine
 10
25.43392745271399
 20
-269.0570155205726
 30
0.0
 11
24.76405495271399
 21
-271.5570155205726
 31
0.0
  0
LINE
  5
DC2
330
6B
100
AcDbEntity
  8
0
  6
ByBlock
 62
     0
370
    -2
100
AcDbLine
 10
24.76405495271399
 20
-271.5570155205726
 30
0.0
 11
24.09418245271398
 21
-269.0570155205726
 31
0.0
  0
LINE
  5
DC3
330
6B
100
AcDbEntity
  8
0
  6
ByBlock
 62
     0
370
    -2
100
AcDbLine
 10
24.76405495271399
 20
-271.5570155205726
 30
0.0
 11
24.76405495271399
 21
-269.0570155205726
 31
0.0
  0
TEXT
  5
DC4
330
6B
100
AcDbEntity
  8
0
  6
Continuous
 62
     4
100
AcDbText
 10
-48.00142804728598
 20
-281.8070155205726
 30
0.0
 40
3.0
  1
66.5
 50
90.0
100
AcDbText
  0
LINE
  5
DC5
330
6B
100
AcDbEntity
  8
0
  6
ByBlock
 62
     0
370
    -2
100
AcDbLine
 10
-48.04630054728602
 20
-246.5570155205726
 30
0.0
 11
-47.37642804728602
 21
-244.0570155205726
 31
0.0
  0
LINE
  5
DC6
330
6B
100
AcDbEntity
  8
0
  6
ByBlock
 62
     0
370
    -2
100
AcDbLine
 10
-47.37642804728602
 20
-244.0570155205726
 30
0.0
 11
-46.70655554728603
 21
-246.5570155205726
 31
0.0
  0
LINE
  5
DC7
330
6B
100
AcDbEntity
  8
0
  6
ByBlock
 62
     0
370
    -2
100
AcDbLine
 10
-47.37642804728602
 20
-244.0570155205726
 30
0.0
 11
-47.37642804728602
 21
-246.5570155205726
 31
0.0
  0
LINE
  5
DC8
330
6B
100
AcDbEntity
  8
0
  6
ByBlock
 62
     0
370
    -2
100
AcDbLine
 10
-46.70655554728603
 20
-308.0570155205726
 30
0.0
 11
-47.37642804728603
 21
-310.5570155205726
 31
0.0
  0
LINE
  5
DC9
330
6B
100
AcDbEntity
  8
0
  6
ByBlock
 62
     0
370
    -2
100
AcDbLine
 10
-47.37642804728603
 20
-310.5570155205726
 30
0.0
 11
-48.04630054728604
 21
-308.0570155205726
 31
0.0
  0
LINE
  5
DCA
330
6B
100
AcDbEntity
  8
0
  6
ByBlock
 62
     0
370
    -2
100
AcDbLine
 10
-47.37642804728603
 20
-310.5570155205726
 30
0.0
 11
-47.37642804728603
 21
-308.0570155205726
 31
0.0
  0
TEXT
  5
DCB
330
6B
100
AcDbEntity
  8
0
  6
Continuous
 62
     4
100
AcDbText
 10
-55.64713504728601
 20
-281.8070155205726
 30
0.0
 40
3.0
  1
98.5
 50
90.0
100
AcDbText
  0
LINE
  5
DCC
330
6B
100
AcDbEntity
  8
0
  6
ByBlock
 62
     0
370
    -2
100
AcDbLine
 10
-55.69200754728604
 20
-230.5570155205726
 30
0.0
 11
-55.02213504728604
 21
-228.0570155205726
 31
0.0
  0
LINE
  5
DCD
330
6B
100
AcDbEntity
  8
0
  6
ByBlock
 62
     0
370
    -2
100
AcDbLine
 10
-55.02213504728604
 20
-228.0570155205726
 30
0.0
 11
-54.35226254728604
 21
-230.5570155205726
 31
0.0
  0
LINE
  5
DCE
330
6B
100
AcDbEntity
  8
0
  6
ByBlock
 62
     0
370
    -2
100
AcDbLine
 10
-55.02213504728604
 20
-228.0570155205726
 30
0.0
 11
-55.02213504728604
 21
-230.5570155205726
 31
0.0
  0
LINE
  5
DCF
330
6B
100
AcDbEntity
  8
0
  6
ByBlock
 62
     0
370
    -2
100
AcDbLine
 10
-54.35226254728606
 20
-324.0570155205726
 30
0.0
 11
-55.02213504728606
 21
-326.5570155205726
 31
0.0
  0
LINE
  5
DD0
330
6B
100
AcDbEntity
  8
0
  6
ByBlock
 62
     0
370
    -2
100
AcDbLine
 10
-55.02213504728606
 20
-326.5570155205726
 30
0.0
 11
-55.69200754728606
 21
-324.0570155205726
 31
0.0
  0
LINE
  5
DD1
330
6B
100
AcDbEntity
  8
0
  6
ByBlock
 62
     0
370
    -2
100
AcDbLine
 10
-55.02213504728606
 20
-326.5570155205726
 30
0.0
 11
-55.02213504728606
 21
-324.0570155205726
 31
0.0
  0
TEXT
  5
DD2
330
6B
100
AcDbEntity
  8
0
  6
Continuous
 62
     4
100
AcDbText
 10
97.81246295271399
 20
-220.9507475205726
 30
0.0
 40
3.0
  1
15
100
AcDbText
  0
LINE
  5
DD3
330
6B
100
AcDbEntity
  8
0
  6
ByBlock
 62
     0
370
    -2
100
AcDbLine
 10
104.812462952714
 20
-220.9058750205726
 30
0.0
 11
107.312462952714
 21
-221.5757475205726
 31
0.0
  0
LINE
  5
DD4
330
6B
100
AcDbEntity
  8
0
  6
ByBlock
 62
     0
370
    -2
100
AcDbLine
 10
107.312462952714
 20
-221.5757475205726
 30
0.0
 11
104.812462952714
 21
-222.2456200205726
 31
0.0
  0
LINE
  5
DD5
330
6B
100
AcDbEntity
  8
0
  6
ByBlock
 62
     0
370
    -2
100
AcDbLine
 10
107.312462952714
 20
-221.5757475205726
 30
0.0
 11
104.812462952714
 21
-221.5757475205726
 31
0.0
  0
LINE
  5
DD6
330
6B
100
AcDbEntity
  8
0
  6
ByBlock
 62
     0
370
    -2
100
AcDbLine
 10
94.81246295271398
 20
-222.2456200205726
 30
0.0
 11
92.31246295271398
 21
-221.5757475205726
 31
0.0
  0
LINE
  5
DD7
330
6B
100
AcDbEntity
  8
0
  6
ByBlock
 62
     0
370
    -2
100
AcDbLine
 10
92.31246295271398
 20
-221.5757475205726
 30
0.0
 11
94.81246295271398
 21
-220.9058750205726
 31
0.0
  0
LINE
  5
DD8
330
6B
100
AcDbEntity
  8
0
  6
ByBlock
 62
     0
370
    -2
100
AcDbLine
 10
92.31246295271398
 20
-221.5757475205726
 30
0.0
 11
94.81246295271398
 21
-221.5757475205726
 31
0.0
  0
TEXT
  5
DD9
330
6B
100
AcDbEntity
  8
0
  6
Continuous
 62
     4
100
AcDbText
 10
-22.86204204728597
 20
-220.9507475205726
 30
0.0
 40
3.0
  1
34
100
AcDbText
  0
LINE
  5
DDA
330
6B
100
AcDbEntity
  8
0
  6
ByBlock
 62
     0
370
    -2
100
AcDbLine
 10
-5.862042047285966
 20
-220.9058750205726
 30
0.0
 11
-3.362042047285965
 21
-221.5757475205726
 31
0.0
  0
LINE
  5
DDB
330
6B
100
AcDbEntity
  8
0
  6
ByBlock
 62
     0
370
    -2
100
AcDbLine
 10
-3.362042047285965
 20
-221.5757475205726
 30
0.0
 11
-5.862042047285966
 21
-222.2456200205726
 31
0.0
  0
LINE
  5
DDC
330
6B
100
AcDbEntity
  8
0
  6
ByBlock
 62
     0
370
    -2
100
AcDbLine
 10
-3.362042047285965
 20
-221.5757475205726
 30
0.0
 11
-5.862042047285966
 21
-221.5757475205726
 31
0.0
  0
LINE
  5
DDD
330
6B
100
AcDbEntity
  8
0
  6
ByBlock
 62
     0
370
    -2
100
AcDbLine
 10
-34.86204204728597
 20
-222.2456200205726
 30
0.0
 11
-37.36204204728597
 21
-221.5757475205726
 31
0.0
  0
LINE
  5
DDE
330
6B
100
AcDbEntity
  8
0
  6
ByBlock
 62
     0
370
    -2
100
AcDbLine
 10
-37.36204204728597
 20
-221.5757475205726
 30
0.0
 11
-34.86204204728597
 21
-220.9058750205726
 31
0.0
  0
LINE
  5
DDF
330
6B
100
AcDbEntity
  8
0
  6
ByBlock
 62
     0
370
    -2
100
AcDbLine
 10
-37.36204204728597
 20
-221.5757475205726
 30
0.0
 11
-34.86204204728597
 21
-221.5757475205726
 31
0.0
  0
TEXT
  5
DE0
330
6B
100
AcDbEntity
  8
0
  6
Continuous
 62
     4
100
AcDbText
 10
24.561014952714
 20
-220.9507475205726
 30
0.0
 40
3.0
  1
5
100
AcDbText
  0
LINE
  5
DE1
330
6B
100
AcDbEntity
  8
0
  6
ByBlock
 62
     0
370
    -2
100
AcDbLine
 10
29.686014952714
 20
-220.9058750205726
 30
0.0
 11
32.186014952714
 21
-221.5757475205726
 31
0.0
  0
LINE
  5
DE2
330
6B
100
AcDbEntity
  8
0
  6
ByBlock
 62
     0
370
    -2
100
AcDbLine
 10
32.186014952714
 20
-221.5757475205726
 30
0.0
 11
29.686014952714
 21
-222.2456200205726
 31
0.0
  0
LINE
  5
DE3
330
6B
100
AcDbEntity
  8
0
  6
ByBlock
 62
     0
370
    -2
100
AcDbLine
 10
32.186014952714
 20
-221.5757475205726
 30
0.0
 11
29.686014952714
 21
-221.5757475205726
 31
0.0
  0
LINE
  5
DE4
330
6B
100
AcDbEntity
  8
0
  6
ByBlock
 62
     0
370
    -2
100
AcDbLine
 10
39.686014952714
 20
-222.2456200205726
 30
0.0
 11
37.186014952714
 21
-221.5757475205726
 31
0.0
  0
LINE
  5
DE5
330
6B
100
AcDbEntity
  8
0
  6
ByBlock
 62
     0
370
    -2
100
AcDbLine
 10
37.186014952714
 20
-221.5757475205726
 30
0.0
 11
39.686014952714
 21
-220.9058750205726
 31
0.0
  0
LINE
  5
DE6
330
6B
100
AcDbEntity
  8
0
  6
ByBlock
 62
     0
370
    -2
100
AcDbLine
 10
37.186014952714
 20
-221.5757475205726
 30
0.0
 11
39.686014952714
 21
-221.5757475205726
 31
0.0
  0
TEXT
  5
DE7
330
6B
100
AcDbEntity
  8
0
  6
Continuous
 62
     4
100
AcDbText
 10
127.304986952714
 20
-281.8070155205726
 30
0.0
 40
3.0
  1
83.5
 50
90.0
100
AcDbText
  0
LINE
  5
DE8
330
6B
100
AcDbEntity
  8
0
  6
ByBlock
 62
     0
370
    -2
100
AcDbLine
 10
127.260114452714
 20
-238.0570155205726
 30
0.0
 11
127.929986952714
 21
-235.5570155205726
 31
0.0
  0
LINE
  5
DE9
330
6B
100
AcDbEntity
  8
0
  6
ByBlock
 62
     0
370
    -2
100
AcDbLine
 10
127.929986952714
 20
-235.5570155205726
 30
0.0
 11
128.599859452714
 21
-238.0570155205726
 31
0.0
  0
LINE
  5
DEA
330
6B
100
AcDbEntity
  8
0
  6
ByBlock
 62
     0
370
    -2
100
AcDbLine
 10
127.929986952714
 20
-235.5570155205726
 30
0.0
 11
127.929986952714
 21
-238.0570155205726
 31
0.0
  0
LINE
  5
DEB
330
6B
100
AcDbEntity
  8
0
  6
ByBlock
 62
     0
370
    -2
100
AcDbLine
 10
128.599859452714
 20
-316.5570155205726
 30
0.0
 11
127.929986952714
 21
-319.0570155205727
 31
0.0
  0
LINE
  5
DEC
330
6B
100
AcDbEntity
  8
0
  6
ByBlock
 62
     0
370
    -2
100
AcDbLine
 10
127.929986952714
 20
-319.0570155205727
 30
0.0
 11
127.260114452714
 21
-316.5570155205726
 31
0.0
  0
LINE
  5
DED
330
6B
100
AcDbEntity
  8
0
  6
ByBlock
 62
     0
370
    -2
100
AcDbLine
 10
127.929986952714
 20
-319.0570155205727
 30
0.0
 11
127.929986952714
 21
-316.5570155205726
 31
0.0
  0
TEXT
  5
DEE
330
6B
100
AcDbEntity
  8
0
  6
Continuous
 62
     4
100
AcDbText
 10
24.13905495271404
 20
-301.3070155205726
 30
0.0
 40
3.0
  1
27.5
 50
90.0
100
AcDbText
  0
LINE
  5
DEF
330
6B
100
AcDbEntity
  8
0
  6
ByBlock
 62
     0
370
    -2
100
AcDbLine
 10
24.09418245271399
 20
-285.5570155205726
 30
0.0
 11
24.76405495271399
 21
-283.0570155205726
 31
0.0
  0
LINE
  5
DF0
330
6B
100
AcDbEntity
  8
0
  6
ByBlock
 62
     0
370
    -2
100
AcDbLine
 10
24.76405495271399
 20
-283.0570155205726
 30
0.0
 11
25.43392745271399
 21
-285.5570155205726
 31
0.0
  0
LINE
  5
DF1
330
6B
100
AcDbEntity
  8
0
  6
ByBlock
 62
     0
370
    -2
100
AcDbLine
 10
24.76405495271399
 20
-283.0570155205726
 30
0.0
 11
24.76405495271399
 21
-285.5570155205726
 31
0.0
  0
LINE
  5
DF2
330
6B
100
AcDbEntity
  8
0
  6
ByBlock
 62
     0
370
    -2
100
AcDbLine
 10
25.43392745271399
 20
-308.0570155205726
 30
0.0
 11
24.76405495271399
 21
-310.5570155205726
 31
0.0
  0
LINE
  5
DF3
330
6B
100
AcDbEntity
  8
0
  6
ByBlock
 62
     0
370
    -2
100
AcDbLine
 10
24.76405495271399
 20
-310.5570155205726
 30
0.0
 11
24.09418245271399
 21
-308.0570155205726
 31
0.0
  0
LINE
  5
DF4
330
6B
100
AcDbEntity
  8
0
  6
ByBlock
 62
     0
370
    -2
100
AcDbLine
 10
24.76405495271399
 20
-310.5570155205726
 30
0.0
 11
24.76405495271399
 21
-308.0570155205726
 31
0.0
  0
TEXT
  5
DF5
330
6B
100
AcDbEntity
  8
0
  6
Continuous
 62
     4
100
AcDbText
 10
38.28601495271402
 20
-331.8706095205725
 30
0.0
 40
3.0
  1
20.7
100
AcDbText
  0
LINE
  5
DF6
330
6B
100
AcDbEntity
  8
0
  6
ByBlock
 62
     0
370
    -2
100
AcDbLine
 10
50.38601495271404
 20
-331.8257370205725
 30
0.0
 11
52.88601495271404
 21
-332.4956095205725
 31
0.0
  0
LINE
  5
DF7
330
6B
100
AcDbEntity
  8
0
  6
ByBlock
 62
     0
370
    -2
100
AcDbLine
 10
52.88601495271404
 20
-332.4956095205725
 30
0.0
 11
50.38601495271404
 21
-333.1654820205725
 31
0.0
  0
LINE
  5
DF8
330
6B
100
AcDbEntity
  8
0
  6
ByBlock
 62
     0
370
    -2
100
AcDbLine
 10
52.88601495271404
 20
-332.4956095205725
 30
0.0
 11
50.38601495271404
 21
-332.4956095205725
 31
0.0
  0
LINE
  5
DF9
330
6B
100
AcDbEntity
  8
0
  6
ByBlock
 62
     0
370
    -2
100
AcDbLine
 10
34.686014952714
 20
-333.1654820205725
 30
0.0
 11
32.186014952714
 21
-332.4956095205725
 31
0.0
  0
LINE
  5
DFA
330
6B
100
AcDbEntity
  8
0
  6
ByBlock
 62
     0
370
    -2
100
AcDbLine
 10
32.186014952714
 20
-332.4956095205725
 30
0.0
 11
34.686014952714
 21
-331.8257370205725
 31
0.0
  0
LINE
  5
DFB
330
6B
100
AcDbEntity
  8
0
  6
ByBlock
 62
     0
370
    -2
100
AcDbLine
 10
32.186014952714
 20
-332.4956095205725
 30
0.0
 11
34.686014952714
 21
-332.4956095205725
 31
0.0
  0
TEXT
  5
DFC
330
6B
100
AcDbEntity
  8
0
  6
Continuous
 62
     4
100
AcDbText
 10
40.186014952714
 20
-220.9507475205726
 30
0.0
 40
3.0
  1
8
100
AcDbText
  0
LINE
  5
DFD
330
6B
100
AcDbEntity
  8
0
  6
ByBlock
 62
     0
370
    -2
100
AcDbLine
 10
42.686014952714
 20
-220.9058750205726
 30
0.0
 11
45.186014952714
 21
-221.5757475205726
 31
0.0
  0
LINE
  5
DFE
330
6B
100
AcDbEntity
  8
0
  6
ByBlock
 62
     0
370
    -2
100
AcDbLine
 10
45.186014952714
 20
-221.5757475205726
 30
0.0
 11
42.686014952714
 21
-222.2456200205726
 31
0.0
  0
LINE
  5
DFF
330
6B
100
AcDbEntity
  8
0
  6
ByBlock
 62
     0
370
    -2
100
AcDbLine
 10
45.186014952714
 20
-221.5757475205726
 30
0.0
 11
42.686014952714
 21
-221.5757475205726
 31
0.0
  0
LINE
  5
E00
330
6B
100
AcDbEntity
  8
0
  6
ByBlock
 62
     0
370
    -2
100
AcDbLine
 10
39.686014952714
 20
-222.2456200205726
 30
0.0
 11
37.186014952714
 21
-221.5757475205726
 31
0.0
  0
LINE
  5
E01
330
6B
100
AcDbEntity
  8
0
  6
ByBlock
 62
     0
370
    -2
100
AcDbLine
 10
37.186014952714
 20
-221.5757475205726
 30
0.0
 11
39.686014952714
 21
-220.9058750205726
 31
0.0
  0
LINE
  5
E02
330
6B
100
AcDbEntity
  8
0
  6
ByBlock
 62
     0
370
    -2
100
AcDbLine
 10
37.186014952714
 20
-221.5757475205726
 30
0.0
 11
39.686014952714
 21
-221.5757475205726
 31
0.0
  0
ENDSEC
  0
SECTION
  2
OBJECTS
  0
DICTIONARY
  5
C
330
0
100
AcDbDictionary
281
     1
  3
ACAD_2007HEADERVARS_RT
350
E07
  3
ACAD_COLOR
350
62
  3
ACAD_GROUP
350
D
  3
ACAD_LAYOUT
350
61
  3
ACAD_MATERIAL
350
10
  3
ACAD_MLEADERSTYLE
350
65
  3
ACAD_MLINESTYLE
350
5E
  3
ACAD_PLOTSETTINGS
350
60
  3
ACAD_PLOTSTYLENAME
350
E
  3
ACAD_SCALELIST
350
42
  3
ACAD_TABLESTYLE
350
63
  3
ACAD_VISUALSTYLE
350
29
  3
ACDB_RECOMPOSE_DATA
350
E05
  3
AcDbVariableDictionary
350
BAE
  3
AEC_PROPERTY_SET_DEFS
350
5F5
  3
DWGPROPS
350
E06
  0
DICTIONARY
  5
53A
330
2
100
AcDbDictionary
280
     1
281
     1
  3
ACAD_LAYERSTATES
360
53B
  0
DICTIONARY
  5
BAC
330
54
100
AcDbDictionary
280
     1
281
     1
  3
ADSK_XREC_LAYER_RECONCILED
360
BAD
  0
DICTIONARY
  5
B1F
330
6B
100
AcDbDictionary
280
     1
281
     1
  3
ACAD_SORTENTS
360
B20
  0
DICTIONARY
  5
E07
102
{ACAD_REACTORS
330
C
102
}
330
C
100
AcDbDictionary
281
     1
  3
DIMARCSYM
350
E09
  3
DIMFXL
350
E08
  3
DIMJOGANG
350
E0A
  0
DICTIONARY
  5
62
102
{ACAD_REACTORS
330
C
102
}
330
C
100
AcDbDictionary
281
     1
  0
DICTIONARY
  5
D
102
{ACAD_REACTORS
330
C
102
}
330
C
100
AcDbDictionary
281
     1
  0
DICTIONARY
  5
61
102
{ACAD_REACTORS
330
C
102
}
330
C
100
AcDbDictionary
281
     1
  3
Model
350
6E
  3
レイアウト1
350
6A
  0
DICTIONARY
  5
10
102
{ACAD_REACTORS
330
C
102
}
330
C
100
AcDbDictionary
281
     1
  3
ByBlock
350
19
  3
ByLayer
350
11
  3
Global
350
21
  0
DICTIONARY
  5
65
102
{ACAD_REACTORS
330
C
102
}
330
C
100
AcDbDictionary
281
     1
  3
Standard
350
66
  0
DICTIONARY
  5
5E
102
{ACAD_REACTORS
330
C
102
}
330
C
100
AcDbDictionary
281
     1
  3
Standard
350
5F
  0
DICTIONARY
  5
60
102
{ACAD_REACTORS
330
C
102
}
330
C
100
AcDbDictionary
281
     1
  0
ACDBDICTIONARYWDFLT
  5
E
102
{ACAD_REACTORS
330
C
102
}
330
C
100
AcDbDictionary
281
     1
  3
Normal
350
F
100
AcDbDictionaryWithDefault
340
F
  0
DICTIONARY
  5
42
102
{ACAD_REACTORS
330
C
102
}
330
C
100
AcDbDictionary
281
     1
  3
A0
350
43
  3
A1
350
44
  3
A2
350
45
  3
A3
350
46
  3
A4
350
47
  3
A5
350
48
  3
A6
350
49
  3
A7
350
4A
  3
A8
350
4B
  3
A9
350
4C
  3
B0
350
4D
  3
B1
350
4E
  3
B2
350
4F
  3
B3
350
50
  3
B4
350
51
  3
B5
350
52
  3
B6
350
53
  0
DICTIONARY
  5
63
102
{ACAD_REACTORS
330
C
102
}
330
C
100
AcDbDictionary
281
     1
  3
Standard
350
64
  0
DICTIONARY
  5
29
102
{ACAD_REACTORS
330
C
102
}
330
C
100
AcDbDictionary
281
     1
  3
2dWireframe
350
2F
  3
3dWireframe
350
5E3
  3
Basic
350
2E
  3
Brighten
350
35
  3
ColorChange
350
39
  3
Conceptual
350
32
  3
Dim
350
34
  3
EdgeColorOff
350
41
  3
Facepattern
350
38
  3
Flat
350
2A
  3
FlatWithEdges
350
2B
  3
Gouraud
350
2C
  3
GouraudWithEdges
350
2D
  3
Hidden
350
31
  3
JitterOff
350
3F
  3
Linepattern
350
37
  3
OverhangOff
350
40
  3
Realistic
350
33
  3
Shaded
350
3E
  3
Shaded with edges
350
3D
  3
Shades of Gray
350
3A
  3
Sketchy
350
3B
  3
Thicken
350
36
  3
Wireframe
350
30
  3
X-Ray
350
3C
  0
XRECORD
  5
E05
102
{ACAD_REACTORS
330
C
102
}
330
C
100
AcDbXrecord
280
     1
 90
        1
330
64
  0
DICTIONARY
  5
BAE
102
{ACAD_REACTORS
330
C
102
}
330
C
100
AcDbDictionary
281
     1
  3
CANNOSCALE
350
BB1
  3
CMLEADERSTYLE
350
BB0
  3
CTABLESTYLE
350
BAF
  3
DIMASSOC
350
BB4
  3
INDEXCTL
350
BB3
  3
SORTENTS
350
BB2
  3
XCLIPFRAME
350
E03
  0
DICTIONARY
  5
5F5
102
{ACAD_REACTORS
330
C
102
}
330
C
100
AcDbDictionary
281
     1
  0
XRECORD
  5
E06
102
{ACAD_REACTORS
330
C
102
}
330
C
100
AcDbXrecord
280
     1
  1
DWGPROPS COOKIE
  2

  3

  4

  6

  7

  8
imamura
  9

300
=
301
=
302
=
303
=
304
=
305
=
306
=
307
=
308
=
309
=
 40
0.0528849884259259
 41
2457240.374555579
 42
2457240.471178704
  1

 90
        0
  0
DICTIONARY
  5
53B
102
{ACAD_REACTORS
330
53A
102
}
330
53A
100
AcDbDictionary
281
     1
  0
XRECORD
  5
BAD
102
{ACAD_REACTORS
330
BAC
102
}
330
BAC
100
AcDbXrecord
280
     1
290
     1
  0
SORTENTSTABLE
  5
B20
102
{ACAD_REACTORS
330
B1F
102
}
330
B1F
100
AcDbSortentsTable
330
6B
331
7CF
  5
D18
331
72D
  5
A78
331
7CB
  5
D14
331
729
  5
A74
331
764
  5
AAF
331
806
  5
D4F
331
725
  5
A70
331
845
  5
D8F
331
7C7
  5
D10
331
A7F
  5
71A
331
760
  5
AAB
331
802
  5
D4B
331
721
  5
A6C
331
841
  5
D8B
331
7C3
  5
D0C
331
A7B
  5
716
331
87C
  5
DC6
331
83D
  5
D87
331
AB6
  5
794
331
A77
  5
712
331
878
  5
DC2
331
839
  5
D83
331
AB2
  5
790
331
705
  5
894
331
B1C
  5
80A
331
D2D
  5
B2C
331
ACC
  5
7AA
331
DA7
  5
77A
331
A73
  5
70E
331
B45
  5
E00
331
B18
  5
806
331
B07
  5
7F5
331
D29
  5
B28
331
DA3
  5
772
331
AC8
  5
7A6
331
B03
  5
7F1
331
D25
  5
B24
331
78D
  5
AD9
331
DDE
  5
863
331
AC4
  5
7A2
331
D9F
  5
76E
331
D21
  5
B1E
331
D60
  5
855
331
789
  5
AD5
331
DDA
  5
865
331
AC0
  5
79E
331
D9B
  5
76A
331
75C
  5
AA7
331
7FE
  5
D47
331
71D
  5
A68
331
7BF
  5
D08
331
758
  5
AA3
331
7FA
  5
D43
331
719
  5
A64
331
7BB
  5
D04
331
754
  5
A9F
331
7F6
  5
D3F
331
715
  5
A60
331
874
  5
DBE
331
7B7
  5
D00
331
835
  5
D7F
331
A6F
  5
70A
331
AAE
  5
749
331
750
  5
A9B
331
711
  5
A5C
331
7F2
  5
D3B
331
870
  5
DBA
331
7B3
  5
B45
331
E01
  5
814
331
831
  5
D7B
331
A6B
  5
706
331
AAA
  5
745
331
86C
  5
DB6
331
AA6
  5
741
331
AFF
  5
7ED
331
A67
  5
702
331
868
  5
DB2
331
829
  5
D72
331
B39
  5
DFA
331
AFB
  5
7E9
331
A63
  5
6FE
331
D1D
  5
B1A
331
785
  5
AD1
331
DD6
  5
86C
331
D97
  5
766
331
ABC
  5
79A
331
AA2
  5
73D
331
B35
  5
DF6
331
AF7
  5
7E5
331
D19
  5
B16
331
D58
  5
85F
331
781
  5
ACD
331
DD2
  5
872
331
D93
  5
762
331
AB8
  5
796
331
B31
  5
DF2
331
D15
  5
B12
331
D54
  5
86B
331
77D
  5
AC9
331
DCE
  5
87B
331
AF3
  5
7E1
331
D8F
  5
75E
331
D11
  5
B0E
331
779
  5
AC5
331
DCA
  5
883
331
D8B
  5
75A
331
74C
  5
A97
331
70D
  5
A58
331
7EE
  5
D37
331
DFD
  5
819
331
7AF
  5
AFB
331
748
  5
A93
331
709
  5
A54
331
7EA
  5
D33
331
DF9
  5
826
331
7AB
  5
AF7
331
744
  5
A8F
331
7E6
  5
D2F
331
DF5
  5
82F
331
864
  5
DAE
331
7A7
  5
AF3
331
825
  5
D6E
331
A5F
  5
6FA
331
A9E
  5
739
331
740
  5
A8B
331
7E2
  5
D2B
331
DF1
  5
841
331
860
  5
DAA
331
7A3
  5
AEF
331
821
  5
D6A
331
A5B
  5
600
331
A9A
  5
735
331
85C
  5
DA6
331
81D
  5
D66
331
A96
  5
731
331
B2D
  5
DEE
331
AEF
  5
7DD
331
A57
  5
5FC
331
858
  5
DA2
331
819
  5
D62
331
B29
  5
DEA
331
A53
  5
DE1
331
D0D
  5
B0A
331
D4C
  5
873
331
775
  5
AC1
331
DC6
  5
885
331
AEB
  5
7D9
331
D87
  5
756
331
A92
  5
72D
331
B25
  5
DE6
331
895
  5
DDF
331
D09
  5
B06
331
D48
  5
880
331
771
  5
ABD
331
DC2
  5
88C
331
AE7
  5
7D5
331
D83
  5
752
331
B21
  5
DE2
331
891
  5
DDB
331
D05
  5
B02
331
76D
  5
AB9
331
DBE
  5
88E
331
AE3
  5
7D1
331
D7F
  5
74E
331
D01
  5
AFE
331
D40
  5
888
331
769
  5
AB5
331
DBA
  5
78D
331
73C
  5
A87
331
7DE
  5
D27
331
DED
  5
84E
331
79F
  5
AEB
331
3BD
  5
3BD
331
738
  5
A83
331
7DA
  5
D23
331
DE9
  5
850
331
79B
  5
AE7
331
734
  5
A7F
331
7D6
  5
D1F
331
DE5
  5
859
331
854
  5
D9E
331
797
  5
AE3
331
815
  5
D5E
331
88F
  5
DD9
331
A8E
  5
729
331
730
  5
A7B
331
7D2
  5
D1B
331
DE1
  5
85B
331
850
  5
D9A
331
793
  5
ADF
331
811
  5
D5A
331
3B1
  5
3B1
331
88B
  5
DD5
331
A8A
  5
725
331
84C
  5
D96
331
80D
  5
D56
331
887
  5
DD1
331
B15
  5
803
331
A86
  5
721
331
ADF
  5
7B9
331
848
  5
D92
331
809
  5
D52
331
883
  5
DCD
331
CFD
  5
D76
331
D3C
  5
B3B
331
B11
  5
7FF
331
DB6
  5
789
331
A82
  5
71D
331
B0D
  5
7FB
331
D38
  5
B37
331
AD7
  5
7B5
331
D73
  5
821
331
DB2
  5
785
331
B09
  5
7F7
331
D34
  5
B33
331
AD3
  5
7B1
331
DAE
  5
781
331
D30
  5
B2F
331
DAA
  5
77D
331
7CE
  5
D17
331
72C
  5
A77
331
767
  5
AB2
331
7CA
  5
D13
331
728
  5
A73
331
763
  5
AAE
331
805
  5
D4E
331
724
  5
A6F
331
844
  5
D8E
331
7C6
  5
D0F
331
A7E
  5
719
331
801
  5
D4A
331
720
  5
A6B
331
87F
  5
DC9
331
7C2
  5
D0B
331
840
  5
D8A
331
A7A
  5
715
331
87B
  5
DC5
331
83C
  5
D86
331
AB5
  5
793
331
ACF
  5
7AD
331
A76
  5
711
331
838
  5
D82
331
704
  5
893
331
B1B
  5
809
331
A72
  5
70D
331
D2C
  5
B2B
331
DA6
  5
779
331
ACB
  5
7A9
331
B44
  5
DFF
331
B06
  5
7F4
331
D28
  5
B27
331
D67
  5
847
331
DA2
  5
771
331
AC7
  5
7A5
331
B02
  5
7F0
331
D24
  5
B23
331
78C
  5
AD8
331
DDD
  5
862
331
AC3
  5
7A1
331
D9E
  5
76D
331
D20
  5
B1D
331
788
  5
AD4
331
DD9
  5
868
331
D9A
  5
769
331
75F
  5
AAA
331
75B
  5
AA6
331
7FD
  5
D46
331
71C
  5
A67
331
7BE
  5
D07
331
757
  5
AA2
331
7F9
  5
D42
331
718
  5
A63
331
877
  5
DC1
331
7BA
  5
D03
331
753
  5
A9E
331
7F5
  5
D3E
331
714
  5
A5F
331
873
  5
DBD
331
7B6
  5
CFD
331
834
  5
D7E
331
A6E
  5
709
331
AAD
  5
748
331
710
  5
A5B
331
86F
  5
DB9
331
7F1
  5
D3A
331
E00
  5
813
331
830
  5
D7A
331
AA9
  5
744
331
A6A
  5
705
331
86B
  5
DB5
331
82C
  5
D75
331
AA5
  5
740
331
AFE
  5
7EC
331
D5F
  5
854
331
ABF
  5
79D
331
A66
  5
701
331
828
  5
D71
331
B38
  5
DF9
331
AFA
  5
7E8
331
A62
  5
6FD
331
AA1
  5
73C
331
D1C
  5
B19
331
784
  5
AD0
331
DD5
  5
871
331
D96
  5
765
331
ABB
  5
799
331
B34
  5
DF5
331
D18
  5
B15
331
780
  5
ACC
331
DD1
  5
878
331
AF6
  5
7E4
331
D92
  5
761
331
B30
  5
DF1
331
D14
  5
B11
331
D53
  5
86A
331
77C
  5
AC8
331
DCD
  5
87A
331
AF2
  5
7E0
331
D8E
  5
75D
331
D10
  5
B0D
331
778
  5
AC4
331
DC9
  5
882
331
D8A
  5
759
331
74F
  5
A9A
331
74B
  5
A96
331
70C
  5
A57
331
7ED
  5
D36
331
DFC
  5
81F
331
7AE
  5
AFA
331
747
  5
A92
331
708
  5
A53
331
7E9
  5
D32
331
DF8
  5
82E
331
867
  5
DB1
331
7AA
  5
AF6
331
743
  5
A8E
331
7E5
  5
D2E
331
DF4
  5
83B
331
863
  5
DAD
331
7A6
  5
AF2
331
824
  5
D6D
331
A5E
  5
6F9
331
A9D
  5
738
331
7E1
  5
D2A
331
DF0
  5
840
331
85F
  5
DA9
331
7A2
  5
AEE
331
820
  5
D69
331
A5A
  5
5FF
331
A99
  5
734
331
85B
  5
DA5
331
81C
  5
D65
331
A95
  5
730
331
B2C
  5
DED
331
AEE
  5
7DC
331
A56
  5
5FB
331
818
  5
D61
331
B28
  5
DE9
331
A52
  5
DE0
331
D0C
  5
B09
331
774
  5
AC0
331
DC5
  5
884
331
AEA
  5
7D8
331
A91
  5
72C
331
D86
  5
755
331
B24
  5
DE5
331
894
  5
DDE
331
D08
  5
B05
331
D47
  5
87F
331
770
  5
ABC
331
DC1
  5
88B
331
AE6
  5
7D4
331
D82
  5
751
331
890
  5
DDA
331
D04
  5
B01
331
76C
  5
AB8
331
DBD
  5
891
331
AE2
  5
7D0
331
D7E
  5
74D
331
D00
  5
D77
331
768
  5
AB3
331
D7A
  5
80F
331
DB9
  5
78C
331
73F
  5
A8A
331
73B
  5
A86
331
7DD
  5
D26
331
DEC
  5
84D
331
79E
  5
AEA
331
737
  5
A82
331
7D9
  5
D22
331
DE8
  5
84F
331
857
  5
DA1
331
79A
  5
AE6
331
733
  5
A7E
331
7D5
  5
D1E
331
DE4
  5
858
331
853
  5
D9D
331
796
  5
AE2
331
814
  5
D5D
331
88E
  5
DD8
331
A8D
  5
728
331
7D1
  5
D1A
331
DE0
  5
85E
331
84F
  5
D99
331
792
  5
ADE
331
810
  5
D59
331
3B0
  5
3B0
331
88A
  5
DD4
331
A89
  5
724
331
84B
  5
D95
331
80C
  5
D55
331
886
  5
DD0
331
B14
  5
802
331
A85
  5
720
331
D3F
  5
B44
331
ADE
  5
7B8
331
808
  5
D51
331
882
  5
DCC
331
D3B
  5
B3A
331
B10
  5
7FE
331
DB5
  5
788
331
A81
  5
71C
331
B0C
  5
7FA
331
D37
  5
B36
331
AD6
  5
7B4
331
D72
  5
820
331
DB1
  5
784
331
B08
  5
7F6
331
D33
  5
B32
331
AD2
  5
7B0
331
D6E
  5
835
331
DAD
  5
780
331
DA9
  5
77C
331
72F
  5
A7A
331
7CD
  5
D16
331
72B
  5
A76
331
766
  5
AB1
331
847
  5
D91
331
7C9
  5
D12
331
727
  5
A72
331
762
  5
AAD
331
804
  5
D4D
331
723
  5
A6E
331
843
  5
D8D
331
7C5
  5
D0E
331
A7D
  5
718
331
800
  5
D49
331
87E
  5
DC8
331
7C1
  5
D0A
331
83F
  5
D89
331
A79
  5
714
331
87A
  5
DC4
331
83B
  5
D85
331
AB4
  5
792
331
707
  5
A52
331
B1E
  5
80C
331
A75
  5
710
331
D2F
  5
B2E
331
ACE
  5
7AC
331
B47
  5
E02
331
703
  5
892
331
B1A
  5
808
331
A71
  5
70C
331
AB0
  5
74B
331
D2B
  5
B2A
331
DA5
  5
778
331
ACA
  5
7A8
331
B43
  5
DFE
331
B05
  5
7F3
331
D27
  5
B26
331
D66
  5
846
331
78F
  5
ADB
331
AC6
  5
7A4
331
DA1
  5
770
331
B01
  5
7EF
331
D23
  5
B22
331
D62
  5
857
331
78B
  5
AD7
331
DDC
  5
867
331
AC2
  5
7A0
331
D9D
  5
76C
331
DD8
  5
86E
331
D99
  5
768
331
75E
  5
AA9
331
71F
  5
A6A
331
75A
  5
AA5
331
7FC
  5
D45
331
71B
  5
A66
331
7BD
  5
D06
331
756
  5
AA1
331
7F8
  5
D41
331
717
  5
A62
331
876
  5
DC0
331
7B9
  5
D02
331
837
  5
D81
331
752
  5
A9D
331
7F4
  5
D3D
331
713
  5
A5E
331
872
  5
DBC
331
7B5
  5
B47
331
833
  5
D7D
331
A6D
  5
708
331
AAC
  5
747
331
7F0
  5
D39
331
86E
  5
DB8
331
7B1
  5
AFD
331
82F
  5
D79
331
AA8
  5
743
331
B3F
  5
DFD
331
A69
  5
704
331
86A
  5
DB4
331
82B
  5
D74
331
B3B
  5
DFC
331
AFD
  5
7EB
331
A65
  5
700
331
D1F
  5
B1C
331
D5E
  5
853
331
787
  5
AD3
331
ABE
  5
79C
331
AA4
  5
73F
331
B37
  5
DF8
331
AF9
  5
7E7
331
A61
  5
6FC
331
AA0
  5
73B
331
D1B
  5
B18
331
D5A
  5
861
331
783
  5
ACF
331
DD4
  5
870
331
D95
  5
764
331
ABA
  5
798
331
B33
  5
DF4
331
D17
  5
B14
331
77F
  5
ACB
331
DD0
  5
877
331
AF5
  5
7E3
331
D91
  5
760
331
D13
  5
B10
331
D52
  5
869
331
77B
  5
AC7
331
DCC
  5
879
331
AF1
  5
7DF
331
D8D
  5
75C
331
DC8
  5
881
331
D89
  5
758
331
74E
  5
A99
331
70F
  5
A5A
331
DFF
  5
81B
331
74A
  5
A95
331
70B
  5
A56
331
7EC
  5
D35
331
DFB
  5
828
331
7AD
  5
AF9
331
746
  5
A91
331
7E8
  5
D31
331
DF7
  5
82D
331
866
  5
DB0
331
7A9
  5
AF5
331
827
  5
D70
331
742
  5
A8D
331
7E4
  5
D2D
331
DF3
  5
83A
331
862
  5
DAC
331
7A5
  5
AF1
331
823
  5
D6C
331
A5D
  5
602
331
A9C
  5
737
331
7E0
  5
D29
331
85E
  5
DA8
331
7A1
  5
AED
331
81F
  5
D68
331
A98
  5
733
331
B2F
  5
DF0
331
A59
  5
5FE
331
85A
  5
DA4
331
81B
  5
D64
331
A94
  5
72F
331
B2B
  5
DEC
331
D0F
  5
B0C
331
D4E
  5
875
331
777
  5
AC3
331
AED
  5
7DB
331
A55
  5
5FA
331
B27
  5
DE8
331
D0B
  5
B08
331
773
  5
ABF
331
DC4
  5
887
331
AE9
  5
7D7
331
A90
  5
72B
331
D85
  5
754
331
B23
  5
DE4
331
893
  5
DDD
331
D07
  5
B04
331
D46
  5
87E
331
76F
  5
ABB
331
DC0
  5
890
331
AE5
  5
7D3
331
D81
  5
750
331
D03
  5
B00
331
D42
  5
88A
331
76B
  5
AB7
331
AE1
  5
7CF
331
DBC
  5
78F
331
D79
  5
80E
331
DB8
  5
78B
331
73E
  5
A89
331
DEF
  5
83F
331
73A
  5
A85
331
7DC
  5
D25
331
DEB
  5
84C
331
79D
  5
AE9
331
736
  5
A81
331
7D8
  5
D21
331
DE7
  5
852
331
856
  5
DA0
331
799
  5
AE5
331
817
  5
D60
331
732
  5
A7D
331
7D4
  5
D1D
331
DE3
  5
85D
331
852
  5
D9C
331
795
  5
AE1
331
813
  5
D5C
331
88D
  5
DD7
331
A8C
  5
727
331
7D0
  5
D19
331
84E
  5
D98
331
791
  5
ADD
331
80F
  5
D58
331
889
  5
DD3
331
B17
  5
805
331
A88
  5
723
331
84A
  5
D94
331
80B
  5
D54
331
885
  5
DCF
331
B13
  5
801
331
A84
  5
71F
331
D3E
  5
B43
331
ADD
  5
7B7
331
881
  5
DCB
331
D3A
  5
B39
331
B0F
  5
7FD
331
DB4
  5
787
331
A80
  5
71B
331
B0B
  5
7F9
331
D36
  5
B35
331
AD5
  5
7B3
331
DB0
  5
783
331
D32
  5
B31
331
AD1
  5
7AF
331
D6D
  5
834
331
DAC
  5
77F
331
DA8
  5
77B
331
72E
  5
A79
331
7CC
  5
D15
331
72A
  5
A75
331
765
  5
AB0
331
807
  5
D50
331
726
  5
A71
331
846
  5
D90
331
7C8
  5
D11
331
761
  5
AAC
331
803
  5
D4C
331
722
  5
A6D
331
842
  5
D8C
331
7C4
  5
D0D
331
A7C
  5
717
331
87D
  5
DC7
331
7C0
  5
D09
331
83E
  5
D88
331
AB7
  5
795
331
A78
  5
713
331
879
  5
DC3
331
83A
  5
D84
331
AB3
  5
791
331
706
  5
895
331
B1D
  5
80B
331
D2E
  5
B2D
331
ACD
  5
7AB
331
A74
  5
70F
331
B46
  5
E01
331
B19
  5
807
331
A70
  5
70B
331
D2A
  5
B29
331
DA4
  5
777
331
AC9
  5
7A7
331
B04
  5
7F2
331
D26
  5
B25
331
78E
  5
ADA
331
DDF
  5
864
331
AC5
  5
7A3
331
DA0
  5
76F
331
B00
  5
7EE
331
D22
  5
B21
331
D61
  5
856
331
78A
  5
AD6
331
DDB
  5
866
331
AC1
  5
79F
331
D9C
  5
76B
331
D98
  5
767
331
75D
  5
AA8
331
7FF
  5
D48
331
71E
  5
A69
331
759
  5
AA4
331
7FB
  5
D44
331
71A
  5
A65
331
7BC
  5
D05
331
755
  5
AA0
331
7F7
  5
D40
331
716
  5
A61
331
875
  5
DBF
331
7B8
  5
D01
331
836
  5
D80
331
AAF
  5
74A
331
751
  5
A9C
331
712
  5
A5D
331
7F3
  5
D3C
331
871
  5
DBB
331
7B4
  5
B46
331
E02
  5
815
331
832
  5
D7C
331
A6C
  5
707
331
AAB
  5
746
331
86D
  5
DB7
331
7B0
  5
AFC
331
82E
  5
D78
331
AA7
  5
742
331
A68
  5
703
331
869
  5
DB3
331
82A
  5
D73
331
B3A
  5
DFB
331
AFC
  5
7EA
331
A64
  5
6FF
331
D1E
  5
B1B
331
786
  5
AD2
331
DD7
  5
86D
331
ABD
  5
79B
331
AA3
  5
73E
331
B36
  5
DF7
331
AF8
  5
7E6
331
A60
  5
6FB
331
D1A
  5
B17
331
D59
  5
860
331
782
  5
ACE
331
DD3
  5
86F
331
D94
  5
763
331
AB9
  5
797
331
B32
  5
DF3
331
D16
  5
B13
331
77E
  5
ACA
331
DCF
  5
876
331
AF4
  5
7E2
331
D90
  5
75F
331
D12
  5
B0F
331
77A
  5
AC6
331
DCB
  5
87C
331
AF0
  5
7DE
331
D8C
  5
75B
331
D88
  5
757
331
74D
  5
A98
331
70E
  5
A59
331
7EF
  5
D38
331
DFE
  5
81A
331
749
  5
A94
331
70A
  5
A55
331
7EB
  5
D34
331
DFA
  5
827
331
7AC
  5
AF8
331
745
  5
A90
331
7E7
  5
D30
331
DF6
  5
829
331
865
  5
DAF
331
7A8
  5
AF4
331
826
  5
D6F
331
3F6
  5
3F6
331
A9F
  5
73A
331
741
  5
A8C
331
7E3
  5
D2C
331
DF2
  5
839
331
861
  5
DAB
331
7A4
  5
AF0
331
822
  5
D6B
331
A5C
  5
601
331
A9B
  5
736
331
85D
  5
DA7
331
7A0
  5
AEC
331
81E
  5
D67
331
A97
  5
732
331
B2E
  5
DEF
331
A58
  5
5FD
331
859
  5
DA3
331
81A
  5
D63
331
B2A
  5
DEB
331
D0E
  5
B0B
331
D4D
  5
874
331
776
  5
AC2
331
DC7
  5
886
331
AEC
  5
7DA
331
A54
  5
5F9
331
A93
  5
72E
331
B26
  5
DE7
331
D0A
  5
B07
331
772
  5
ABE
331
DC3
  5
88D
331
AE8
  5
7D6
331
D84
  5
753
331
B22
  5
DE3
331
892
  5
DDC
331
D06
  5
B03
331
76E
  5
ABA
331
DBF
  5
88F
331
AE4
  5
7D2
331
D80
  5
74F
331
D02
  5
AFF
331
D41
  5
889
331
76A
  5
AB6
331
AE0
  5
7CE
331
DBB
  5
78E
331
D78
  5
80D
331
73D
  5
A88
331
7DF
  5
D28
331
DEE
  5
845
331
739
  5
A84
331
7DB
  5
D24
331
DEA
  5
851
331
79C
  5
AE8
331
735
  5
A80
331
7D7
  5
D20
331
DE6
  5
85A
331
855
  5
D9F
331
798
  5
AE4
331
816
  5
D5F
331
A8F
  5
72A
331
731
  5
A7C
331
7D3
  5
D1C
331
DE2
  5
85C
331
851
  5
D9B
331
794
  5
AE0
331
812
  5
D5B
331
3B2
  5
3B2
331
88C
  5
DD6
331
A8B
  5
726
331
84D
  5
D97
331
790
  5
ADC
331
80E
  5
D57
331
888
  5
DD2
331
B16
  5
804
331
A87
  5
722
331
849
  5
D93
331
80A
  5
D53
331
884
  5
DCE
331
B12
  5
800
331
A83
  5
71E
331
D3D
  5
B3F
331
DB7
  5
78A
331
ADC
  5
7B6
331
880
  5
DCA
331
D39
  5
B38
331
B0E
  5
7FC
331
D74
  5
825
331
DB3
  5
786
331
B0A
  5
7F8
331
D35
  5
B34
331
AD4
  5
7B2
331
DAF
  5
782
331
D31
  5
B30
331
AD0
  5
7AE
331
D6C
  5
833
331
DAB
  5
77E
331
D68
  5
84B
  0
XRECORD
  5
E09
102
{ACAD_REACTORS
330
E07
102
}
330
E07
100
AcDbXrecord
280
     1
 70
     2
  0
XRECORD
  5
E08
102
{ACAD_REACTORS
330
E07
102
}
330
E07
100
AcDbXrecord
280
     1
 40
1.25
  0
XRECORD
  5
E0A
102
{ACAD_REACTORS
330
E07
102
}
330
E07
100
AcDbXrecord
280
     1
 40
1.570796326794896
  0
LAYOUT
  5
6E
102
{ACAD_XDICTIONARY
360
E3E
102
}
102
{ACAD_REACTORS
330
61
102
}
330
61
100
AcDbPlotSettings
  1

  2
FX DP 205
  4

  6

 40
0.0
 41
0.0
 42
0.0
 43
0.0
 44
0.0
 45
0.0
 46
0.0
 47
0.0
 48
0.0
 49
0.0
140
0.0
141
0.0
142
1.0
143
1.0
 70
  1712
 72
     0
 73
     0
 74
     0
  7

 75
     0
147
1.0
148
0.0
149
0.0
100
AcDbLayout
  1
Model
 70
     1
 71
     0
 10
0.0
 20
0.0
 11
12.0
 21
9.0
 12
0.0
 22
0.0
 32
0.0
 14
0.0
 24
0.0
 34
0.0
 15
0.0
 25
0.0
 35
0.0
146
0.0
 13
0.0
 23
0.0
 33
0.0
 16
1.0
 26
0.0
 36
0.0
 17
0.0
 27
1.0
 37
0.0
 76
     0
330
6B
331
8B
  0
LAYOUT
  5
6A
102
{ACAD_XDICTIONARY
360
E3C
102
}
102
{ACAD_REACTORS
330
61
102
}
330
61
100
AcDbPlotSettings
  1

  2
FX DP 205
  4

  6

 40
0.0
 41
0.0
 42
0.0
 43
0.0
 44
0.0
 45
0.0
 46
0.0
 47
0.0
 48
0.0
 49
0.0
140
0.0
141
0.0
142
1.0
143
1.0
 70
   688
 72
     0
 73
     0
 74
     5
  7

 75
    16
147
1.0
148
0.0
149
0.0
100
AcDbLayout
  1
レイアウト1
 70
     1
 71
     1
 10
0.0
 20
0.0
 11
12.0
 21
9.0
 12
0.0
 22
0.0
 32
0.0
 14
1.000000000000000E+20
 24
1.000000000000000E+20
 34
1.000000000000000E+20
 15
-1.000000000000000E+20
 25
-1.000000000000000E+20
 35
-1.000000000000000E+20
146
0.0
 13
0.0
 23
0.0
 33
0.0
 16
1.0
 26
0.0
 36
0.0
 17
0.0
 27
1.0
 37
0.0
 76
     0
330
67
  0
MATERIAL
  5
19
102
{ACAD_XDICTIONARY
360
1A
102
}
102
{ACAD_REACTORS
330
10
102
}
330
10
100
AcDbMaterial
  1
ByBlock
 72
     0
 43
0.0208333333333333
 43
0.0
 43
0.0
 43
0.0
 43
0.0
 43
0.0208333333333333
 43
0.0
 43
0.0
 43
0.0
 43
0.0
 43
1.0
 43
0.0
 43
0.0
 43
0.0
 43
0.0
 43
1.0
 77
     0
 47
0.0208333333333333
 47
0.0
 47
0.0
 47
0.0
 47
0.0
 47
0.0208333333333333
 47
0.0
 47
0.0
 47
0.0
 47
0.0
 47
1.0
 47
0.0
 47
0.0
 47
0.0
 47
0.0
 47
1.0
171
     0
 49
0.0208333333333333
 49
0.0
 49
0.0
 49
0.0
 49
0.0
 49
0.0208333333333333
 49
0.0
 49
0.0
 49
0.0
 49
0.0
 49
1.0
 49
0.0
 49
0.0
 49
0.0
 49
0.0
 49
1.0
175
     0
142
0.0208333333333333
142
0.0
142
0.0
142
0.0
142
0.0
142
0.0208333333333333
142
0.0
142
0.0
142
0.0
142
0.0
142
1.0
142
0.0
142
0.0
142
0.0
142
0.0
142
1.0
179
     0
144
0.0208333333333333
144
0.0
144
0.0
144
0.0
144
0.0
144
0.0208333333333333
144
0.0
144
0.0
144
0.0
144
0.0
144
1.0
144
0.0
144
0.0
144
0.0
144
0.0
144
1.0
147
0.0208333333333333
147
0.0
147
0.0
147
0.0
147
0.0
147
0.0208333333333333
147
0.0
147
0.0
147
0.0
147
0.0
147
1.0
147
0.0
147
0.0
147
0.0
147
0.0
147
1.0
  0
MATERIAL
  5
11
102
{ACAD_XDICTIONARY
360
12
102
}
102
{ACAD_REACTORS
330
10
102
}
330
10
100
AcDbMaterial
  1
ByLayer
 72
     0
 43
0.0208333333333333
 43
0.0
 43
0.0
 43
0.0
 43
0.0
 43
0.0208333333333333
 43
0.0
 43
0.0
 43
0.0
 43
0.0
 43
1.0
 43
0.0
 43
0.0
 43
0.0
 43
0.0
 43
1.0
 77
     0
 47
0.0208333333333333
 47
0.0
 47
0.0
 47
0.0
 47
0.0
 47
0.0208333333333333
 47
0.0
 47
0.0
 47
0.0
 47
0.0
 47
1.0
 47
0.0
 47
0.0
 47
0.0
 47
0.0
 47
1.0
171
     0
 49
0.0208333333333333
 49
0.0
 49
0.0
 49
0.0
 49
0.0
 49
0.0208333333333333
 49
0.0
 49
0.0
 49
0.0
 49
0.0
 49
1.0
 49
0.0
 49
0.0
 49
0.0
 49
0.0
 49
1.0
175
     0
142
0.0208333333333333
142
0.0
142
0.0
142
0.0
142
0.0
142
0.0208333333333333
142
0.0
142
0.0
142
0.0
142
0.0
142
1.0
142
0.0
142
0.0
142
0.0
142
0.0
142
1.0
179
     0
144
0.0208333333333333
144
0.0
144
0.0
144
0.0
144
0.0
144
0.0208333333333333
144
0.0
144
0.0
144
0.0
144
0.0
144
1.0
144
0.0
144
0.0
144
0.0
144
0.0
144
1.0
147
0.0208333333333333
147
0.0
147
0.0
147
0.0
147
0.0
147
0.0208333333333333
147
0.0
147
0.0
147
0.0
147
0.0
147
1.0
147
0.0
147
0.0
147
0.0
147
0.0
147
1.0
  0
MATERIAL
  5
21
102
{ACAD_XDICTIONARY
360
22
102
}
102
{ACAD_REACTORS
330
10
102
}
330
10
100
AcDbMaterial
  1
Global
 72
     0
 43
0.0208333333333333
 43
0.0
 43
0.0
 43
0.0
 43
0.0
 43
0.0208333333333333
 43
0.0
 43
0.0
 43
0.0
 43
0.0
 43
1.0
 43
0.0
 43
0.0
 43
0.0
 43
0.0
 43
1.0
 77
     0
 47
0.0208333333333333
 47
0.0
 47
0.0
 47
0.0
 47
0.0
 47
0.0208333333333333
 47
0.0
 47
0.0
 47
0.0
 47
0.0
 47
1.0
 47
0.0
 47
0.0
 47
0.0
 47
0.0
 47
1.0
171
     0
 49
0.0208333333333333
 49
0.0
 49
0.0
 49
0.0
 49
0.0
 49
0.0208333333333333
 49
0.0
 49
0.0
 49
0.0
 49
0.0
 49
1.0
 49
0.0
 49
0.0
 49
0.0
 49
0.0
 49
1.0
175
     0
142
0.0208333333333333
142
0.0
142
0.0
142
0.0
142
0.0
142
0.0208333333333333
142
0.0
142
0.0
142
0.0
142
0.0
142
1.0
142
0.0
142
0.0
142
0.0
142
0.0
142
1.0
179
     0
144
0.0208333333333333
144
0.0
144
0.0
144
0.0
144
0.0
144
0.0208333333333333
144
0.0
144
0.0
144
0.0
144
0.0
144
1.0
144
0.0
144
0.0
144
0.0
144
0.0
144
1.0
147
0.0208333333333333
147
0.0
147
0.0
147
0.0
147
0.0
147
0.0208333333333333
147
0.0
147
0.0
147
0.0
147
0.0
147
1.0
147
0.0
147
0.0
147
0.0
147
0.0
147
1.0
  0
MLEADERSTYLE
  5
66
102
{ACAD_REACTORS
330
65
102
}
330
65
100
AcDbMLeaderStyle
170
     2
171
     1
172
     0
 90
        2
 40
0.0
 41
0.0
173
     1
 91
-1056964608
340
5A
 92
       -2
290
     1
 42
0.09
291
     1
 43
0.36
  3
Standard
 44
0.18
300

342
55
174
     1
178
     6
175
     1
176
     0
 93
-1056964608
 45
0.18
292
     0
297
     0
 46
0.18
 94
-1056964608
 47
1.0
 49
1.0
140
1.0
293
     1
141
0.0
294
     1
177
     0
142
1.0
295
     0
296
     0
143
0.125
1001
ACAD_MLEADERVER
1070
     2
  0
MLINESTYLE
  5
5F
102
{ACAD_REACTORS
330
5E
102
}
330
5E
100
AcDbMlineStyle
  2
STANDARD
 70
     0
  3

 62
   256
 51
90.0
 52
90.0
 71
     2
 49
0.5
 62
   256
  6
BYLAYER
 49
-0.5
 62
   256
  6
BYLAYER
  0
ACDBPLACEHOLDER
  5
F
102
{ACAD_REACTORS
330
E
102
}
330
E
  0
SCALE
  5
43
102
{ACAD_REACTORS
330
42
102
}
330
42
100
AcDbScale
 70
     0
300
1:1
140
1.0
141
1.0
290
     1
  0
SCALE
  5
44
102
{ACAD_REACTORS
330
42
102
}
330
42
100
AcDbScale
 70
     0
300
1/128" = 1'-0"
140
0.0078125
141
12.0
290
     0
  0
SCALE
  5
45
102
{ACAD_REACTORS
330
42
102
}
330
42
100
AcDbScale
 70
     0
300
1/64" = 1'-0"
140
0.015625
141
12.0
290
     0
  0
SCALE
  5
46
102
{ACAD_REACTORS
330
42
102
}
330
42
100
AcDbScale
 70
     0
300
1/32" = 1'-0"
140
0.03125
141
12.0
290
     0
  0
SCALE
  5
47
102
{ACAD_REACTORS
330
42
102
}
330
42
100
AcDbScale
 70
     0
300
1/16" = 1'-0"
140
0.0625
141
12.0
290
     0
  0
SCALE
  5
48
102
{ACAD_REACTORS
330
42
102
}
330
42
100
AcDbScale
 70
     0
300
3/32" = 1'-0"
140
0.09375
141
12.0
290
     0
  0
SCALE
  5
49
102
{ACAD_REACTORS
330
42
102
}
330
42
100
AcDbScale
 70
     0
300
1/8" = 1'-0"
140
0.125
141
12.0
290
     0
  0
SCALE
  5
4A
102
{ACAD_REACTORS
330
42
102
}
330
42
100
AcDbScale
 70
     0
300
3/16" = 1'-0"
140
0.1875
141
12.0
290
     0
  0
SCALE
  5
4B
102
{ACAD_REACTORS
330
42
102
}
330
42
100
AcDbScale
 70
     0
300
1/4" = 1'-0"
140
0.25
141
12.0
290
     0
  0
SCALE
  5
4C
102
{ACAD_REACTORS
330
42
102
}
330
42
100
AcDbScale
 70
     0
300
3/8" = 1'-0"
140
0.375
141
12.0
290
     0
  0
SCALE
  5
4D
102
{ACAD_REACTORS
330
42
102
}
330
42
100
AcDbScale
 70
     0
300
1/2" = 1'-0"
140
0.5
141
12.0
290
     0
  0
SCALE
  5
4E
102
{ACAD_REACTORS
330
42
102
}
330
42
100
AcDbScale
 70
     0
300
3/4" = 1'-0"
140
0.75
141
12.0
290
     0
  0
SCALE
  5
4F
102
{ACAD_REACTORS
330
42
102
}
330
42
100
AcDbScale
 70
     0
300
1" = 1'-0"
140
1.0
141
12.0
290
     0
  0
SCALE
  5
50
102
{ACAD_REACTORS
330
42
102
}
330
42
100
AcDbScale
 70
     0
300
1-1/2" = 1'-0"
140
1.5
141
12.0
290
     0
  0
SCALE
  5
51
102
{ACAD_REACTORS
330
42
102
}
330
42
100
AcDbScale
 70
     0
300
3" = 1'-0"
140
3.0
141
12.0
290
     0
  0
SCALE
  5
52
102
{ACAD_REACTORS
330
42
102
}
330
42
100
AcDbScale
 70
     0
300
6" = 1'-0"
140
6.0
141
12.0
290
     0
  0
SCALE
  5
53
102
{ACAD_REACTORS
330
42
102
}
330
42
100
AcDbScale
 70
     0
300
1'-0" = 1'-0"
140
12.0
141
12.0
290
     0
  0
TABLESTYLE
  5
64
102
{ACAD_XDICTIONARY
360
BFB
102
}
102
{ACAD_REACTORS
330
63
102
}
330
63
100
AcDbTableStyle
  3
Standard
 70
     0
 71
     0
 40
0.06
 41
0.06
280
     0
281
     0
  7
STANDARD
140
0.18
170
     2
 62
     0
 63
     7
283
     0
274
    -2
284
     1
 64
     0
275
    -2
285
     1
 65
     0
276
    -2
286
     1
 66
     0
277
    -2
287
     1
 67
     0
278
    -2
288
     1
 68
     0
279
    -2
289
     1
 69
     0
  7
STANDARD
140
0.25
170
     5
 62
     0
 63
     7
283
     0
274
    -2
284
     1
 64
     0
275
    -2
285
     1
 65
     0
276
    -2
286
     1
 66
     0
277
    -2
287
     1
 67
     0
278
    -2
288
     1
 68
     0
279
    -2
289
     1
 69
     0
  7
STANDARD
140
0.18
170
     5
 62
     0
 63
     7
283
     0
274
    -2
284
     1
 64
     0
275
    -2
285
     1
 65
     0
276
    -2
286
     1
 66
     0
277
    -2
287
     1
 67
     0
278
    -2
288
     1
 68
     0
279
    -2
289
     1
 69
     0
  0
VISUALSTYLE
  5
2F
102
{ACAD_XDICTIONARY
360
E15
102
}
102
{ACAD_REACTORS
330
29
102
}
330
29
100
AcDbVisualStyle
  2

 70
     4
 71
     0
 72
     2
 73
     0
 90
        0
 40
-0.6
 41
-30.0
 62
     5
 63
     7
 74
     1
 91
        4
 64
     7
 65
   257
 75
     1
175
     1
 42
1.0
 92
        0
 66
   257
 43
1.0
 76
     1
 77
     6
 78
     2
 67
     7
 79
     5
170
     0
171
     0
290
     0
174
     0
 93
        1
 44
0.0
173
     0
291
     0
 45
0.0
1001
ACAD
1000
AcDbSavedByObjectVersion
1070
     0
  0
VISUALSTYLE
  5
5E3
102
{ACAD_XDICTIONARY
360
E40
102
}
102
{ACAD_REACTORS
330
29
102
}
330
29
100
AcDbVisualStyle
  2

 70
     5
 71
     0
 72
     2
 73
     1
 90
        0
 40
-0.6
 41
-30.0
 62
     5
 63
     7
 74
     1
 91
        4
 64
     7
 65
   257
 75
     1
175
     1
 42
1.0
 92
        0
 66
   257
 43
1.0
 76
     1
 77
     6
 78
     2
 67
     7
 79
     5
170
     0
171
     0
290
     0
174
     0
 93
        1
 44
0.0
173
     0
291
     0
 45
0.0
1001
ACAD
1000
AcDbSavedByObjectVersion
1070
     0
  0
VISUALSTYLE
  5
2E
102
{ACAD_XDICTIONARY
360
E13
102
}
102
{ACAD_REACTORS
330
29
102
}
330
29
100
AcDbVisualStyle
  2

 70
     7
 71
     1
 72
     0
 73
     1
 90
        0
 40
-0.6
 41
-30.0
 62
     5
 63
     7
 74
     0
 91
        4
 64
     7
 65
   257
 75
     1
175
     1
 42
1.0
 92
        8
 66
     7
 43
1.0
 76
     1
 77
     6
 78
     2
 67
     7
 79
     5
170
     0
171
     0
290
     0
174
     0
 93
        1
 44
0.0
173
     0
291
     1
 45
0.0
1001
ACAD
1000
AcDbSavedByObjectVersion
1070
     0
  0
VISUALSTYLE
  5
35
102
{ACAD_XDICTIONARY
360
E21
102
}
102
{ACAD_REACTORS
330
29
102
}
330
29
100
AcDbVisualStyle
  2

 70
    12
 71
     2
 72
     2
 73
     0
 90
        0
 40
-0.6
 41
-30.0
 62
     5
 63
     7
 74
     1
 91
        4
 64
     7
 65
   257
 75
     1
175
     1
 42
1.0
 92
        8
 66
     7
 43
1.0
 76
     1
 77
     6
 78
     2
 67
     7
 79
     5
170
     0
171
     0
290
     0
174
     0
 93
        1
 44
50.0
173
     0
291
     1
 45
0.0
1001
ACAD
1000
AcDbSavedByObjectVersion
1070
     0
  0
VISUALSTYLE
  5
39
102
{ACAD_XDICTIONARY
360
E29
102
}
102
{ACAD_REACTORS
330
29
102
}
330
29
100
AcDbVisualStyle
  2

 70
    16
 71
     2
 72
     2
 73
     3
 90
        0
 40
-0.6
 41
-30.0
 62
     5
 63
     8
 74
     1
 91
        4
 64
     7
 65
   257
 75
     1
175
     1
 42
1.0
 92
        8
 66
     8
 43
1.0
 76
     1
 77
     6
 78
     2
 67
     7
 79
     5
170
     0
171
     0
290
     0
174
     0
 93
        1
 44
0.0
173
     0
291
     1
 45
0.0
1001
ACAD
1000
AcDbSavedByObjectVersion
1070
     0
  0
VISUALSTYLE
  5
32
102
{ACAD_XDICTIONARY
360
E1B
102
}
102
{ACAD_REACTORS
330
29
102
}
330
29
100
AcDbVisualStyle
  2

 70
     9
 71
     3
 72
     2
 73
     0
 90
        0
 40
-0.6
 41
-30.0
 62
     5
 63
     7
 74
     2
 91
        2
 64
     7
 65
   257
 75
     1
175
     1
 42
179.0
 92
        8
 66
     7
 43
1.0
 76
     1
 77
     6
 78
     2
 67
     7
 79
     3
170
     0
171
     0
290
     0
174
     0
 93
        1
 44
0.0
173
     0
291
     0
 45
0.0
1001
ACAD
1000
AcDbSavedByObjectVersion
1070
     0
  0
VISUALSTYLE
  5
34
102
{ACAD_XDICTIONARY
360
E1F
102
}
102
{ACAD_REACTORS
330
29
102
}
330
29
100
AcDbVisualStyle
  2

 70
    11
 71
     2
 72
     2
 73
     0
 90
        0
 40
-0.6
 41
-30.0
 62
     5
 63
     7
 74
     1
 91
        4
 64
     7
 65
   257
 75
     1
175
     1
 42
1.0
 92
        8
 66
     7
 43
1.0
 76
     1
 77
     6
 78
     2
 67
     7
 79
     5
170
     0
171
     0
290
     0
174
     0
 93
        1
 44
-50.0
173
     0
291
     1
 45
0.0
1001
ACAD
1000
AcDbSavedByObjectVersion
1070
     0
  0
VISUALSTYLE
  5
41
102
{ACAD_XDICTIONARY
360
E39
102
}
102
{ACAD_REACTORS
330
29
102
}
330
29
100
AcDbVisualStyle
  2

 70
    22
 71
     2
 72
     2
 73
     0
 90
        0
 40
-0.6
 41
-30.0
 62
     5
 63
     7
 74
     1
 91
        4
 64
     7
 65
   257
 75
     1
175
     1
 42
1.0
 92
        8
 66
     7
 43
1.0
 76
     1
 77
     6
 78
     2
 67
     7
 79
     5
170
     0
171
     0
290
     0
174
     0
 93
        1
 44
0.0
173
     0
291
     1
 45
0.0
1001
ACAD
1000
AcDbSavedByObjectVersion
1070
     0
  0
VISUALSTYLE
  5
38
102
{ACAD_XDICTIONARY
360
E27
102
}
102
{ACAD_REACTORS
330
29
102
}
330
29
100
AcDbVisualStyle
  2

 70
    15
 71
     2
 72
     2
 73
     0
 90
        0
 40
-0.6
 41
-30.0
 62
     5
 63
     7
 74
     1
 91
        4
 64
     7
 65
   257
 75
     1
175
     1
 42
1.0
 92
        8
 66
     7
 43
1.0
 76
     1
 77
     6
 78
     2
 67
     7
 79
     5
170
     0
171
     0
290
     0
174
     0
 93
        1
 44
0.0
173
     0
291
     1
 45
0.0
1001
ACAD
1000
AcDbSavedByObjectVersion
1070
     0
  0
VISUALSTYLE
  5
2A
102
{ACAD_XDICTIONARY
360
E0B
102
}
102
{ACAD_REACTORS
330
29
102
}
330
29
100
AcDbVisualStyle
  2

 70
     0
 71
     2
 72
     1
 73
     1
 90
        2
 40
-0.6
 41
30.0
 62
     5
 63
     7
 74
     0
 91
        0
 64
     7
 65
   257
 75
     1
175
     1
 42
1.0
 92
        8
 66
     7
 43
1.0
 76
     1
 77
     6
 78
     2
 67
     7
 79
     5
170
     0
171
     0
290
     0
174
     0
 93
       13
 44
0.0
173
     0
291
     1
 45
0.0
1001
ACAD
1000
AcDbSavedByObjectVersion
1070
     0
  0
VISUALSTYLE
  5
2B
102
{ACAD_XDICTIONARY
360
E0D
102
}
102
{ACAD_REACTORS
330
29
102
}
330
29
100
AcDbVisualStyle
  2

 70
     1
 71
     2
 72
     1
 73
     1
 90
        2
 40
-0.6
 41
30.0
 62
     5
 63
     7
 74
     1
 91
        0
 64
     7
 65
   257
 75
     1
175
     1
 42
1.0
 92
        0
 66
   257
 43
1.0
 76
     1
 77
     6
 78
     2
 67
     7
 79
     5
170
     0
171
     0
290
     0
174
     0
 93
       13
 44
0.0
173
     0
291
     1
 45
0.0
1001
ACAD
1000
AcDbSavedByObjectVersion
1070
     0
  0
VISUALSTYLE
  5
2C
102
{ACAD_XDICTIONARY
360
E0F
102
}
102
{ACAD_REACTORS
330
29
102
}
330
29
100
AcDbVisualStyle
  2

 70
     2
 71
     2
 72
     2
 73
     1
 90
        2
 40
-0.6
 41
30.0
 62
     5
 63
     7
 74
     0
 91
        0
 64
     7
 65
   257
 75
     1
175
     1
 42
1.0
 92
        0
 66
     7
 43
1.0
 76
     1
 77
     6
 78
     2
 67
     7
 79
     5
170
     0
171
     0
290
     0
174
     0
 93
       13
 44
0.0
173
     0
291
     1
 45
0.0
1001
ACAD
1000
AcDbSavedByObjectVersion
1070
     0
  0
VISUALSTYLE
  5
2D
102
{ACAD_XDICTIONARY
360
E11
102
}
102
{ACAD_REACTORS
330
29
102
}
330
29
100
AcDbVisualStyle
  2

 70
     3
 71
     2
 72
     2
 73
     1
 90
        2
 40
-0.6
 41
30.0
 62
     5
 63
     7
 74
     1
 91
        0
 64
     7
 65
   257
 75
     1
175
     1
 42
1.0
 92
        0
 66
   257
 43
1.0
 76
     1
 77
     6
 78
     2
 67
     7
 79
     5
170
     0
171
     0
290
     0
174
     0
 93
       13
 44
0.0
173
     0
291
     1
 45
0.0
1001
ACAD
1000
AcDbSavedByObjectVersion
1070
     0
  0
VISUALSTYLE
  5
31
102
{ACAD_XDICTIONARY
360
E19
102
}
102
{ACAD_REACTORS
330
29
102
}
330
29
100
AcDbVisualStyle
  2

 70
     6
 71
     1
 72
     2
 73
     2
 90
        0
 40
-0.6
 41
-30.0
 62
     5
 63
     7
 74
     2
 91
        2
 64
     7
 65
   257
 75
     2
175
     1
 42
40.0
 92
        0
 66
   257
 43
1.0
 76
     1
 77
     6
 78
     2
 67
     7
 79
     3
170
     0
171
     0
290
     0
174
     0
 93
        1
 44
0.0
173
     0
291
     0
 45
0.0
1001
ACAD
1000
AcDbSavedByObjectVersion
1070
     0
  0
VISUALSTYLE
  5
3F
102
{ACAD_XDICTIONARY
360
E35
102
}
102
{ACAD_REACTORS
330
29
102
}
330
29
100
AcDbVisualStyle
  2

 70
    20
 71
     2
 72
     2
 73
     0
 90
        0
 40
-0.6
 41
-30.0
 62
     5
 63
     7
 74
     1
 91
        4
 64
     7
 65
   257
 75
     1
175
     1
 42
1.0
 92
       10
 66
     7
 43
1.0
 76
     1
 77
     6
 78
     2
 67
     7
 79
     5
170
     0
171
     0
290
     0
174
     0
 93
        1
 44
0.0
173
     0
291
     1
 45
0.0
1001
ACAD
1000
AcDbSavedByObjectVersion
1070
     0
  0
VISUALSTYLE
  5
37
102
{ACAD_XDICTIONARY
360
E25
102
}
102
{ACAD_REACTORS
330
29
102
}
330
29
100
AcDbVisualStyle
  2

 70
    14
 71
     2
 72
     2
 73
     0
 90
        0
 40
-0.6
 41
-30.0
 62
     5
 63
     7
 74
     1
 91
        4
 64
     7
 65
   257
 75
     7
175
     7
 42
1.0
 92
        8
 66
     7
 43
1.0
 76
     1
 77
     6
 78
     2
 67
     7
 79
     5
170
     0
171
     0
290
     0
174
     0
 93
        1
 44
0.0
173
     0
291
     1
 45
0.0
1001
ACAD
1000
AcDbSavedByObjectVersion
1070
     0
  0
VISUALSTYLE
  5
40
102
{ACAD_XDICTIONARY
360
E37
102
}
102
{ACAD_REACTORS
330
29
102
}
330
29
100
AcDbVisualStyle
  2

 70
    21
 71
     2
 72
     2
 73
     0
 90
        0
 40
-0.6
 41
-30.0
 62
     5
 63
     7
 74
     1
 91
        4
 64
     7
 65
   257
 75
     1
175
     1
 42
1.0
 92
        9
 66
     7
 43
1.0
 76
     1
 77
     6
 78
     2
 67
     7
 79
     5
170
     0
171
     0
290
     0
174
     0
 93
        1
 44
0.0
173
     0
291
     1
 45
0.0
1001
ACAD
1000
AcDbSavedByObjectVersion
1070
     0
  0
VISUALSTYLE
  5
33
102
{ACAD_XDICTIONARY
360
E1D
102
}
102
{ACAD_REACTORS
330
29
102
}
330
29
100
AcDbVisualStyle
  2

 70
     8
 71
     2
 72
     3
 73
     0
 90
        2
 40
-0.6
 41
30.0
 62
     5
 63
     7
 74
     0
 91
        0
 64
     7
 65
   257
 75
     1
175
     1
 42
1.0
 92
        8
 66
   257
 43
1.0
 76
     1
 77
     6
 78
     2
 67
     7
 79
     3
170
     0
171
     0
290
     0
174
     0
 93
       13
 44
0.0
173
     0
291
     0
 45
0.0
1001
ACAD
1000
AcDbSavedByObjectVersion
1070
     0
  0
VISUALSTYLE
  5
3E
102
{ACAD_XDICTIONARY
360
E33
102
}
102
{ACAD_REACTORS
330
29
102
}
330
29
100
AcDbVisualStyle
  2

 70
    27
 71
     2
 72
     2
 73
     1
 90
        2
 40
-0.6
 41
30.0
 62
     5
 63
     7
 74
     0
 91
        4
 64
     7
 65
   257
 75
     1
175
     1
 42
1.0
 92
        8
 66
   257
 43
1.0
 76
     1
 77
     6
 78
     2
 67
     8
 79
     3
170
     0
171
     0
290
     0
174
     0
 93
        5
 44
0.0
173
     0
291
     0
 45
0.0
1001
ACAD
1000
AcDbSavedByObjectVersion
1070
     0
  0
VISUALSTYLE
  5
3D
102
{ACAD_XDICTIONARY
360
E31
102
}
102
{ACAD_REACTORS
330
29
102
}
330
29
100
AcDbVisualStyle
  2

 70
    26
 71
     2
 72
     2
 73
     1
 90
        2
 40
-0.6
 41
30.0
 62
     5
 63
     7
 74
     1
 91
       10
 64
     7
 65
   257
 75
     2
175
     1
 42
1.0
 92
        8
 66
   257
 43
1.0
 76
     1
 77
     6
 78
     2
 67
     7
 79
     3
170
     0
171
     0
290
     0
174
     0
 93
        5
 44
0.0
173
     0
291
     0
 45
0.0
1001
ACAD
1000
AcDbSavedByObjectVersion
1070
     0
  0
VISUALSTYLE
  5
3A
102
{ACAD_XDICTIONARY
360
E2B
102
}
102
{ACAD_REACTORS
330
29
102
}
330
29
100
AcDbVisualStyle
  2

 70
    23
 71
     2
 72
     2
 73
     3
 90
        0
 40
-0.6
 41
-30.0
 62
     5
 63
     7
 74
     2
 91
        2
 64
     7
 65
     7
 75
     1
175
     1
 42
40.0
 92
        8
 66
     7
 43
1.0
 76
     1
 77
     6
 78
     2
 67
     7
 79
     3
170
     0
171
     0
290
     0
174
     0
 93
        1
 44
0.0
173
     0
291
     0
 45
0.0
1001
ACAD
1000
AcDbSavedByObjectVersion
1070
     0
  0
VISUALSTYLE
  5
3B
102
{ACAD_XDICTIONARY
360
E2D
102
}
102
{ACAD_REACTORS
330
29
102
}
330
29
100
AcDbVisualStyle
  2

 70
    24
 71
     1
 72
     2
 73
     2
 90
        0
 40
-0.6
 41
-30.0
 62
     5
 63
     7
 74
     2
 91
        2
 64
     7
 65
     7
 75
     1
175
     1
 42
40.0
 92
       11
 66
     7
 43
1.0
 76
     1
 77
     6
 78
     2
 67
     7
 79
     6
170
     0
171
     0
290
     0
174
     0
 93
        1
 44
0.0
173
     0
291
     0
 45
0.0
1001
ACAD
1000
AcDbSavedByObjectVersion
1070
     0
  0
VISUALSTYLE
  5
36
102
{ACAD_XDICTIONARY
360
E23
102
}
102
{ACAD_REACTORS
330
29
102
}
330
29
100
AcDbVisualStyle
  2

 70
    13
 71
     2
 72
     2
 73
     0
 90
        0
 40
-0.6
 41
-30.0
 62
     5
 63
     7
 74
     1
 91
        4
 64
     7
 65
   257
 75
     1
175
     1
 42
1.0
 92
       12
 66
     7
 43
1.0
 76
     1
 77
     6
 78
     2
 67
     7
 79
     5
170
     0
171
     0
290
     0
174
     0
 93
        1
 44
0.0
173
     0
291
     1
 45
0.0
1001
ACAD
1000
AcDbSavedByObjectVersion
1070
     0
  0
VISUALSTYLE
  5
30
102
{ACAD_XDICTIONARY
360
E17
102
}
102
{ACAD_REACTORS
330
29
102
}
330
29
100
AcDbVisualStyle
  2

 70
     5
 71
     0
 72
     2
 73
     0
 90
        0
 40
-0.6
 41
-30.0
 62
     5
 63
     7
 74
     1
 91
        4
 64
     7
 65
   257
 75
     1
175
     1
 42
1.0
 92
        0
 66
   257
 43
1.0
 76
     1
 77
     6
 78
     2
 67
     7
 79
     3
170
     0
171
     0
290
     0
174
     0
 93
        1
 44
0.0
173
     0
291
     0
 45
0.0
1001
ACAD
1000
AcDbSavedByObjectVersion
1070
     0
  0
VISUALSTYLE
  5
3C
102
{ACAD_XDICTIONARY
360
E2F
102
}
102
{ACAD_REACTORS
330
29
102
}
330
29
100
AcDbVisualStyle
  2

 70
    25
 71
     2
 72
     2
 73
     1
 90
        1
 40
0.5
 41
-30.0
 62
     5
 63
     7
 74
     1
 91
        0
 64
     7
 65
   257
 75
     1
175
     1
 42
1.0
 92
        8
 66
     7
 43
1.0
 76
     1
 77
     6
 78
     2
 67
     7
 79
     3
170
     0
171
     0
290
     0
174
     0
 93
       13
 44
0.0
173
     0
291
     0
 45
0.0
1001
ACAD
1000
AcDbSavedByObjectVersion
1070
     0
  0
DICTIONARYVAR
  5
BB1
102
{ACAD_REACTORS
330
BAE
102
}
330
BAE
100
DictionaryVariables
280
     0
  1
1:1
  0
DICTIONARYVAR
  5
BB0
102
{ACAD_REACTORS
330
BAE
102
}
330
BAE
100
DictionaryVariables
280
     0
  1
STANDARD
  0
DICTIONARYVAR
  5
BAF
102
{ACAD_REACTORS
330
BAE
102
}
330
BAE
100
DictionaryVariables
280
     0
  1
STANDARD
  0
DICTIONARYVAR
  5
BB4
102
{ACAD_REACTORS
330
BAE
102
}
330
BAE
100
DictionaryVariables
280
     0
  1
1
  0
DICTIONARYVAR
  5
BB3
102
{ACAD_REACTORS
330
BAE
102
}
330
BAE
100
DictionaryVariables
280
     0
  1
0
  0
DICTIONARYVAR
  5
BB2
102
{ACAD_REACTORS
330
BAE
102
}
330
BAE
100
DictionaryVariables
280
     0
  1
127
  0
DICTIONARYVAR
  5
E03
102
{ACAD_REACTORS
330
BAE
102
}
330
BAE
100
DictionaryVariables
280
     0
  1
2
  0
DICTIONARY
  5
E3E
330
6E
100
AcDbDictionary
280
     1
281
     1
  3
ACAD_XREC_ROUNDTRIP
360
E3F
  0
DICTIONARY
  5
E3C
330
6A
100
AcDbDictionary
280
     1
281
     1
  3
ACAD_XREC_ROUNDTRIP
360
E3D
  0
DICTIONARY
  5
1A
330
19
100
AcDbDictionary
280
     1
281
     1
  3
ACAD_XREC_ROUNDTRIP
360
C04
  3
BUMPTILE
360
1C
  3
DIFFUSETILE
360
1B
  3
OPACITYTILE
360
1F
  3
REFLECTIONTILE
360
1E
  3
REFRACTIONTILE
360
20
  3
SPECULARTILE
360
1D
  0
DICTIONARY
  5
12
330
11
100
AcDbDictionary
280
     1
281
     1
  3
ACAD_XREC_ROUNDTRIP
360
C03
  3
BUMPTILE
360
14
  3
DIFFUSETILE
360
13
  3
OPACITYTILE
360
17
  3
REFLECTIONTILE
360
16
  3
REFRACTIONTILE
360
18
  3
SPECULARTILE
360
15
  0
DICTIONARY
  5
22
330
21
100
AcDbDictionary
280
     1
281
     1
  3
ACAD_XREC_ROUNDTRIP
360
C05
  3
BUMPTILE
360
24
  3
DIFFUSETILE
360
23
  3
OPACITYTILE
360
27
  3
REFLECTIONTILE
360
26
  3
REFRACTIONTILE
360
28
  3
SPECULARTILE
360
25
  0
DICTIONARY
  5
BFB
330
64
100
AcDbDictionary
280
     1
281
     1
  3
ACAD_ROUNDTRIP_2008_TABLESTYLE_CELLSTYLEMAP
360
E04
  3
ACAD_XREC_ROUNDTRIP
360
E3B
  0
DICTIONARY
  5
E15
330
2F
100
AcDbDictionary
280
     1
281
     1
  3
ACAD_XREC_ROUNDTRIP
360
E16
  0
DICTIONARY
  5
E40
330
5E3
100
AcDbDictionary
280
     1
281
     1
  3
ACAD_XREC_ROUNDTRIP
360
E41
  0
DICTIONARY
  5
E13
330
2E
100
AcDbDictionary
280
     1
281
     1
  3
ACAD_XREC_ROUNDTRIP
360
E14
  0
DICTIONARY
  5
E21
330
35
100
AcDbDictionary
280
     1
281
     1
  3
ACAD_XREC_ROUNDTRIP
360
E22
  0
DICTIONARY
  5
E29
330
39
100
AcDbDictionary
280
     1
281
     1
  3
ACAD_XREC_ROUNDTRIP
360
E2A
  0
DICTIONARY
  5
E1B
330
32
100
AcDbDictionary
280
     1
281
     1
  3
ACAD_XREC_ROUNDTRIP
360
E1C
  0
DICTIONARY
  5
E1F
330
34
100
AcDbDictionary
280
     1
281
     1
  3
ACAD_XREC_ROUNDTRIP
360
E20
  0
DICTIONARY
  5
E39
330
41
100
AcDbDictionary
280
     1
281
     1
  3
ACAD_XREC_ROUNDTRIP
360
E3A
  0
DICTIONARY
  5
E27
330
38
100
AcDbDictionary
280
     1
281
     1
  3
ACAD_XREC_ROUNDTRIP
360
E28
  0
DICTIONARY
  5
E0B
330
2A
100
AcDbDictionary
280
     1
281
     1
  3
ACAD_XREC_ROUNDTRIP
360
E0C
  0
DICTIONARY
  5
E0D
330
2B
100
AcDbDictionary
280
     1
281
     1
  3
ACAD_XREC_ROUNDTRIP
360
E0E
  0
DICTIONARY
  5
E0F
330
2C
100
AcDbDictionary
280
     1
281
     1
  3
ACAD_XREC_ROUNDTRIP
360
E10
  0
DICTIONARY
  5
E11
330
2D
100
AcDbDictionary
280
     1
281
     1
  3
ACAD_XREC_ROUNDTRIP
360
E12
  0
DICTIONARY
  5
E19
330
31
100
AcDbDictionary
280
     1
281
     1
  3
ACAD_XREC_ROUNDTRIP
360
E1A
  0
DICTIONARY
  5
E35
330
3F
100
AcDbDictionary
280
     1
281
     1
  3
ACAD_XREC_ROUNDTRIP
360
E36
  0
DICTIONARY
  5
E25
330
37
100
AcDbDictionary
280
     1
281
     1
  3
ACAD_XREC_ROUNDTRIP
360
E26
  0
DICTIONARY
  5
E37
330
40
100
AcDbDictionary
280
     1
281
     1
  3
ACAD_XREC_ROUNDTRIP
360
E38
  0
DICTIONARY
  5
E1D
330
33
100
AcDbDictionary
280
     1
281
     1
  3
ACAD_XREC_ROUNDTRIP
360
E1E
  0
DICTIONARY
  5
E33
330
3E
100
AcDbDictionary
280
     1
281
     1
  3
ACAD_XREC_ROUNDTRIP
360
E34
  0
DICTIONARY
  5
E31
330
3D
100
AcDbDictionary
280
     1
281
     1
  3
ACAD_XREC_ROUNDTRIP
360
E32
  0
DICTIONARY
  5
E2B
330
3A
100
AcDbDictionary
280
     1
281
     1
  3
ACAD_XREC_ROUNDTRIP
360
E2C
  0
DICTIONARY
  5
E2D
330
3B
100
AcDbDictionary
280
     1
281
     1
  3
ACAD_XREC_ROUNDTRIP
360
E2E
  0
DICTIONARY
  5
E23
330
36
100
AcDbDictionary
280
     1
281
     1
  3
ACAD_XREC_ROUNDTRIP
360
E24
  0
DICTIONARY
  5
E17
330
30
100
AcDbDictionary
280
     1
281
     1
  3
ACAD_XREC_ROUNDTRIP
360
E18
  0
DICTIONARY
  5
E2F
330
3C
100
AcDbDictionary
280
     1
281
     1
  3
ACAD_XREC_ROUNDTRIP
360
E30
  0
XRECORD
  5
E3F
102
{ACAD_REACTORS
330
E3E
102
}
330
E3E
100
AcDbXrecord
280
     1
102
SHADEPLOT
 70
     0
102
SHADEPLOTRESLEVEL
 70
     2
102
SHADEPLOTCUSTOMDPI
 70
   300
  0
XRECORD
  5
E3D
102
{ACAD_REACTORS
330
E3C
102
}
330
E3C
100
AcDbXrecord
280
     1
102
SHADEPLOT
 70
     0
102
SHADEPLOTRESLEVEL
 70
     2
102
SHADEPLOTCUSTOMDPI
 70
   300
  0
XRECORD
  5
C04
102
{ACAD_REACTORS
330
1A
102
}
330
1A
100
AcDbXrecord
280
     1
102
MATERIAL
148
0.0
149
0.0
149
0.0
 93
        0
 94
      127
282
     0
 72
     0
 77
     0
171
     0
175
     0
179
     0
273
     0
  0
XRECORD
  5
1C
102
{ACAD_REACTORS
330
1A
102
}
330
1A
100
AcDbXrecord
280
     1
270
     1
271
     1
  0
XRECORD
  5
1B
102
{ACAD_REACTORS
330
1A
102
}
330
1A
100
AcDbXrecord
280
     1
270
     1
271
     1
  0
XRECORD
  5
1F
102
{ACAD_REACTORS
330
1A
102
}
330
1A
100
AcDbXrecord
280
     1
270
     1
271
     1
  0
XRECORD
  5
1E
102
{ACAD_REACTORS
330
1A
102
}
330
1A
100
AcDbXrecord
280
     1
270
     1
271
     1
  0
XRECORD
  5
20
102
{ACAD_REACTORS
330
1A
102
}
330
1A
100
AcDbXrecord
280
     1
270
     1
271
     1
  0
XRECORD
  5
1D
102
{ACAD_REACTORS
330
1A
102
}
330
1A
100
AcDbXrecord
280
     1
270
     1
271
     1
  0
XRECORD
  5
C03
102
{ACAD_REACTORS
330
12
102
}
330
12
100
AcDbXrecord
280
     1
102
MATERIAL
148
0.0
149
0.0
149
0.0
 93
        0
 94
      127
282
     0
 72
     0
 77
     0
171
     0
175
     0
179
     0
273
     0
  0
XRECORD
  5
14
102
{ACAD_REACTORS
330
12
102
}
330
12
100
AcDbXrecord
280
     1
270
     1
271
     1
  0
XRECORD
  5
13
102
{ACAD_REACTORS
330
12
102
}
330
12
100
AcDbXrecord
280
     1
270
     1
271
     1
  0
XRECORD
  5
17
102
{ACAD_REACTORS
330
12
102
}
330
12
100
AcDbXrecord
280
     1
270
     1
271
     1
  0
XRECORD
  5
16
102
{ACAD_REACTORS
330
12
102
}
330
12
100
AcDbXrecord
280
     1
270
     1
271
     1
  0
XRECORD
  5
18
102
{ACAD_REACTORS
330
12
102
}
330
12
100
AcDbXrecord
280
     1
270
     1
271
     1
  0
XRECORD
  5
15
102
{ACAD_REACTORS
330
12
102
}
330
12
100
AcDbXrecord
280
     1
270
     1
271
     1
  0
XRECORD
  5
C05
102
{ACAD_REACTORS
330
22
102
}
330
22
100
AcDbXrecord
280
     1
102
MATERIAL
148
0.0
149
0.0
149
0.0
 93
        0
 94
      127
282
     0
 72
     0
 77
     0
171
     0
175
     0
179
     0
273
     0
  0
XRECORD
  5
24
102
{ACAD_REACTORS
330
22
102
}
330
22
100
AcDbXrecord
280
     1
270
     1
271
     1
  0
XRECORD
  5
23
102
{ACAD_REACTORS
330
22
102
}
330
22
100
AcDbXrecord
280
     1
270
     1
271
     1
  0
XRECORD
  5
27
102
{ACAD_REACTORS
330
22
102
}
330
22
100
AcDbXrecord
280
     1
270
     1
271
     1
  0
XRECORD
  5
26
102
{ACAD_REACTORS
330
22
102
}
330
22
100
AcDbXrecord
280
     1
270
     1
271
     1
  0
XRECORD
  5
28
102
{ACAD_REACTORS
330
22
102
}
330
22
100
AcDbXrecord
280
     1
270
     1
271
     1
  0
XRECORD
  5
25
102
{ACAD_REACTORS
330
22
102
}
330
22
100
AcDbXrecord
280
     1
270
     1
271
     1
  0
CELLSTYLEMAP
  5
E04
102
{ACAD_REACTORS
330
BFB
102
}
330
BFB
100
AcDbCellStyleMap
 90
        3
300
CELLSTYLE
  1
TABLEFORMAT_BEGIN
 90
        5
170
     1
 91
        0
 92
    32768
 62
   257
 93
        1
300
CONTENTFORMAT
  1
CONTENTFORMAT_BEGIN
 90
        0
 91
        0
 92
      512
 93
        0
300

 40
0.0
140
1.0
 94
        5
 62
     0
340
55
144
0.25
309
CONTENTFORMAT_END
171
     1
301
MARGIN
  1
CELLMARGIN_BEGIN
 40
0.06
 40
0.06
 40
0.06
 40
0.06
 40
0.18
 40
0.18
309
CELLMARGIN_END
 94
        6
 95
        1
302
GRIDFORMAT
  1
GRIDFORMAT_BEGIN
 90
        0
 91
        1
 62
     0
 92
       -2
340
0
 93
        0
 40
0.045
309
GRIDFORMAT_END
 95
        2
302
GRIDFORMAT
  1
GRIDFORMAT_BEGIN
 90
        0
 91
        1
 62
     0
 92
       -2
340
0
 93
        0
 40
0.045
309
GRIDFORMAT_END
 95
        4
302
GRIDFORMAT
  1
GRIDFORMAT_BEGIN
 90
        0
 91
        1
 62
     0
 92
       -2
340
0
 93
        0
 40
0.045
309
GRIDFORMAT_END
 95
        8
302
GRIDFORMAT
  1
GRIDFORMAT_BEGIN
 90
        0
 91
        1
 62
     0
 92
       -2
340
0
 93
        0
 40
0.045
309
GRIDFORMAT_END
 95
       16
302
GRIDFORMAT
  1
GRIDFORMAT_BEGIN
 90
        0
 91
        1
 62
     0
 92
       -2
340
0
 93
        0
 40
0.045
309
GRIDFORMAT_END
 95
       32
302
GRIDFORMAT
  1
GRIDFORMAT_BEGIN
 90
        0
 91
        1
 62
     0
 92
       -2
340
0
 93
        0
 40
0.045
309
GRIDFORMAT_END
309
TABLEFORMAT_END
  1
CELLSTYLE_BEGIN
 90
        1
 91
        1
300
_TITLE
309
CELLSTYLE_END
300
CELLSTYLE
  1
TABLEFORMAT_BEGIN
 90
        5
170
     1
 91
        0
 92
        0
 62
   257
 93
        1
300
CONTENTFORMAT
  1
CONTENTFORMAT_BEGIN
 90
        0
 91
        0
 92
      512
 93
        0
300

 40
0.0
140
1.0
 94
        5
 62
     0
340
55
144
0.18
309
CONTENTFORMAT_END
171
     1
301
MARGIN
  1
CELLMARGIN_BEGIN
 40
0.06
 40
0.06
 40
0.06
 40
0.06
 40
0.18
 40
0.18
309
CELLMARGIN_END
 94
        6
 95
        1
302
GRIDFORMAT
  1
GRIDFORMAT_BEGIN
 90
        0
 91
        1
 62
     0
 92
       -2
340
0
 93
        0
 40
0.045
309
GRIDFORMAT_END
 95
        2
302
GRIDFORMAT
  1
GRIDFORMAT_BEGIN
 90
        0
 91
        1
 62
     0
 92
       -2
340
0
 93
        0
 40
0.045
309
GRIDFORMAT_END
 95
        4
302
GRIDFORMAT
  1
GRIDFORMAT_BEGIN
 90
        0
 91
        1
 62
     0
 92
       -2
340
0
 93
        0
 40
0.045
309
GRIDFORMAT_END
 95
        8
302
GRIDFORMAT
  1
GRIDFORMAT_BEGIN
 90
        0
 91
        1
 62
     0
 92
       -2
340
0
 93
        0
 40
0.045
309
GRIDFORMAT_END
 95
       16
302
GRIDFORMAT
  1
GRIDFORMAT_BEGIN
 90
        0
 91
        1
 62
     0
 92
       -2
340
0
 93
        0
 40
0.045
309
GRIDFORMAT_END
 95
       32
302
GRIDFORMAT
  1
GRIDFORMAT_BEGIN
 90
        0
 91
        1
 62
     0
 92
       -2
340
0
 93
        0
 40
0.045
309
GRIDFORMAT_END
309
TABLEFORMAT_END
  1
CELLSTYLE_BEGIN
 90
        2
 91
        1
300
_HEADER
309
CELLSTYLE_END
300
CELLSTYLE
  1
TABLEFORMAT_BEGIN
 90
        5
170
     1
 91
        0
 92
        0
 62
   257
 93
        1
300
CONTENTFORMAT
  1
CONTENTFORMAT_BEGIN
 90
        0
 91
        0
 92
      512
 93
        0
300

 40
0.0
140
1.0
 94
        2
 62
     0
340
55
144
0.18
309
CONTENTFORMAT_END
171
     1
301
MARGIN
  1
CELLMARGIN_BEGIN
 40
0.06
 40
0.06
 40
0.06
 40
0.06
 40
0.18
 40
0.18
309
CELLMARGIN_END
 94
        6
 95
        1
302
GRIDFORMAT
  1
GRIDFORMAT_BEGIN
 90
        0
 91
        1
 62
     0
 92
       -2
340
0
 93
        0
 40
0.045
309
GRIDFORMAT_END
 95
        2
302
GRIDFORMAT
  1
GRIDFORMAT_BEGIN
 90
        0
 91
        1
 62
     0
 92
       -2
340
0
 93
        0
 40
0.045
309
GRIDFORMAT_END
 95
        4
302
GRIDFORMAT
  1
GRIDFORMAT_BEGIN
 90
        0
 91
        1
 62
     0
 92
       -2
340
0
 93
        0
 40
0.045
309
GRIDFORMAT_END
 95
        8
302
GRIDFORMAT
  1
GRIDFORMAT_BEGIN
 90
        0
 91
        1
 62
     0
 92
       -2
340
0
 93
        0
 40
0.045
309
GRIDFORMAT_END
 95
       16
302
GRIDFORMAT
  1
GRIDFORMAT_BEGIN
 90
        0
 91
        1
 62
     0
 92
       -2
340
0
 93
        0
 40
0.045
309
GRIDFORMAT_END
 95
       32
302
GRIDFORMAT
  1
GRIDFORMAT_BEGIN
 90
        0
 91
        1
 62
     0
 92
       -2
340
0
 93
        0
 40
0.045
309
GRIDFORMAT_END
309
TABLEFORMAT_END
  1
CELLSTYLE_BEGIN
 90
        3
 91
        2
300
_DATA
309
CELLSTYLE_END
  0
XRECORD
  5
E3B
102
{ACAD_REACTORS
330
BFB
102
}
330
BFB
100
AcDbXrecord
280
     1
102
ACAD_ROUNDTRIP_PRE2007_TABLESTYLE
 90
      512
 91
        0
  1

 92
      512
 93
        0
  2

 94
      512
 95
        0
  3

  0
XRECORD
  5
E16
102
{ACAD_REACTORS
330
E15
102
}
330
E15
100
AcDbXrecord
280
     1
102
RTVSPropertyOp0
 70
     1
102
RTVSPropertyOp1
 70
     1
102
RTVSPropertyOp2
 70
     1
102
RTVSPropertyOp3
 70
     1
102
RTVSPropertyOp4
 70
     1
102
RTVSPropertyOp5
 70
     1
102
RTVSPropertyOp6
 70
     1
102
RTVSPropertyOp7
 70
     1
102
RTVSPropertyOp8
 70
     1
102
RTVSPropertyOp9
 70
     1
102
RTVSPropertyOp10
 70
     1
102
RTVSPropertyOp11
 70
     1
102
RTVSPropertyOp12
 70
     1
102
RTVSPropertyOp13
 70
     1
102
RTVSPropertyOp14
 70
     1
102
RTVSPropertyOp15
 70
     1
102
RTVSPropertyOp16
 70
     1
102
RTVSPropertyOp17
 70
     1
102
RTVSPropertyOp18
 70
     1
102
RTVSPropertyOp19
 70
     1
102
RTVSPropertyOp20
 70
     1
102
RTVSPropertyOp21
 70
     1
102
RTVSPropertyOp22
 70
     1
102
RTVSPropertyOp23
 70
     1
102
RTVSPropertyOp24
 70
     1
102
RTVSPropertyOp25
 70
     1
102
RTVSPropertyOp26
 70
     1
102
RTVSPropertyOp27
 70
     1
102
RTVSPropertyOp28
 70
     1
102
RTVSPropertyOp29
 70
     1
102
RTVSPropertyOp30
 70
     1
102
RTVSPropertyOp31
 70
     1
102
RTVSPropertyOp32
 70
     1
  0
XRECORD
  5
E41
102
{ACAD_REACTORS
330
E40
102
}
330
E40
100
AcDbXrecord
280
     1
102
RTVSPropertyOp0
 70
     1
102
RTVSPropertyOp1
 70
     1
102
RTVSPropertyOp2
 70
     1
102
RTVSPropertyOp3
 70
     1
102
RTVSPropertyOp4
 70
     1
102
RTVSPropertyOp5
 70
     1
102
RTVSPropertyOp6
 70
     1
102
RTVSPropertyOp7
 70
     1
102
RTVSPropertyOp8
 70
     1
102
RTVSPropertyOp9
 70
     1
102
RTVSPropertyOp10
 70
     1
102
RTVSPropertyOp11
 70
     1
102
RTVSPropertyOp12
 70
     1
102
RTVSPropertyOp13
 70
     1
102
RTVSPropertyOp14
 70
     1
102
RTVSPropertyOp15
 70
     1
102
RTVSPropertyOp16
 70
     1
102
RTVSPropertyOp17
 70
     1
102
RTVSPropertyOp18
 70
     1
102
RTVSPropertyOp19
 70
     1
102
RTVSPropertyOp20
 70
     1
102
RTVSPropertyOp21
 70
     1
102
RTVSPropertyOp22
 70
     1
102
RTVSPropertyOp23
 70
     1
102
RTVSPropertyOp24
 70
     1
102
RTVSPropertyOp25
 70
     1
102
RTVSPropertyOp26
 70
     1
102
RTVSPropertyOp27
 70
     1
102
RTVSPropertyOp28
 70
     1
102
RTVSPropertyOp29
 70
     1
102
RTVSPropertyOp30
 70
     1
102
RTVSPropertyOp31
 70
     1
102
RTVSPropertyOp32
 70
     1
  0
XRECORD
  5
E14
102
{ACAD_REACTORS
330
E13
102
}
330
E13
100
AcDbXrecord
280
     1
102
RTVSPropertyOp0
 70
     1
102
RTVSPropertyOp1
 70
     1
102
RTVSPropertyOp2
 70
     1
102
RTVSPropertyOp3
 70
     1
102
RTVSPropertyOp4
 70
     1
102
RTVSPropertyOp5
 70
     1
102
RTVSPropertyOp6
 70
     1
102
RTVSPropertyOp7
 70
     1
102
RTVSPropertyOp8
 70
     1
102
RTVSPropertyOp9
 70
     1
102
RTVSPropertyOp10
 70
     1
102
RTVSPropertyOp11
 70
     1
102
RTVSPropertyOp12
 70
     1
102
RTVSPropertyOp13
 70
     1
102
RTVSPropertyOp14
 70
     1
102
RTVSPropertyOp15
 70
     1
102
RTVSPropertyOp16
 70
     1
102
RTVSPropertyOp17
 70
     1
102
RTVSPropertyOp18
 70
     1
102
RTVSPropertyOp19
 70
     1
102
RTVSPropertyOp20
 70
     1
102
RTVSPropertyOp21
 70
     1
102
RTVSPropertyOp22
 70
     1
102
RTVSPropertyOp23
 70
     1
102
RTVSPropertyOp24
 70
     1
102
RTVSPropertyOp25
 70
     1
102
RTVSPropertyOp26
 70
     1
102
RTVSPropertyOp27
 70
     1
102
RTVSPropertyOp28
 70
     1
102
RTVSPropertyOp29
 70
     1
102
RTVSPropertyOp30
 70
     1
102
RTVSPropertyOp31
 70
     1
102
RTVSPropertyOp32
 70
     1
  0
XRECORD
  5
E22
102
{ACAD_REACTORS
330
E21
102
}
330
E21
100
AcDbXrecord
280
     1
102
RTVSPropertyOp0
 70
     1
102
RTVSPropertyOp1
 70
     1
102
RTVSPropertyOp2
 70
     1
102
RTVSPropertyOp3
 70
     1
102
RTVSPropertyOp4
 70
     1
102
RTVSPropertyOp5
 70
     1
102
RTVSPropertyOp6
 70
     1
102
RTVSPropertyOp7
 70
     1
102
RTVSPropertyOp8
 70
     1
102
RTVSPropertyOp9
 70
     1
102
RTVSPropertyOp10
 70
     1
102
RTVSPropertyOp11
 70
     1
102
RTVSPropertyOp12
 70
     1
102
RTVSPropertyOp13
 70
     1
102
RTVSPropertyOp14
 70
     1
102
RTVSPropertyOp15
 70
     1
102
RTVSPropertyOp16
 70
     1
102
RTVSPropertyOp17
 70
     1
102
RTVSPropertyOp18
 70
     1
102
RTVSPropertyOp19
 70
     1
102
RTVSPropertyOp20
 70
     1
102
RTVSPropertyOp21
 70
     1
102
RTVSPropertyOp22
 70
     1
102
RTVSPropertyOp23
 70
     1
102
RTVSPropertyOp24
 70
     1
102
RTVSPropertyOp25
 70
     1
102
RTVSPropertyOp26
 70
     1
102
RTVSPropertyOp27
 70
     1
102
RTVSPropertyOp28
 70
     1
102
RTVSPropertyOp29
 70
     1
102
RTVSPropertyOp30
 70
     1
102
RTVSPropertyOp31
 70
     1
102
RTVSPropertyOp32
 70
     1
  0
XRECORD
  5
E2A
102
{ACAD_REACTORS
330
E29
102
}
330
E29
100
AcDbXrecord
280
     1
102
RTVSPropertyOp0
 70
     1
102
RTVSPropertyOp1
 70
     1
102
RTVSPropertyOp2
 70
     1
102
RTVSPropertyOp3
 70
     1
102
RTVSPropertyOp4
 70
     1
102
RTVSPropertyOp5
 70
     1
102
RTVSPropertyOp6
 70
     1
102
RTVSPropertyOp7
 70
     1
102
RTVSPropertyOp8
 70
     1
102
RTVSPropertyOp9
 70
     1
102
RTVSPropertyOp10
 70
     1
102
RTVSPropertyOp11
 70
     1
102
RTVSPropertyOp12
 70
     1
102
RTVSPropertyOp13
 70
     1
102
RTVSPropertyOp14
 70
     1
102
RTVSPropertyOp15
 70
     1
102
RTVSPropertyOp16
 70
     1
102
RTVSPropertyOp17
 70
     1
102
RTVSPropertyOp18
 70
     1
102
RTVSPropertyOp19
 70
     1
102
RTVSPropertyOp20
 70
     1
102
RTVSPropertyOp21
 70
     1
102
RTVSPropertyOp22
 70
     1
102
RTVSPropertyOp23
 70
     1
102
RTVSPropertyOp24
 70
     1
102
RTVSPropertyOp25
 70
     1
102
RTVSPropertyOp26
 70
     1
102
RTVSPropertyOp27
 70
     1
102
RTVSPropertyOp28
 70
     1
102
RTVSPropertyOp29
 70
     1
102
RTVSPropertyOp30
 70
     1
102
RTVSPropertyOp31
 70
     1
102
RTVSPropertyOp32
 70
     1
  0
XRECORD
  5
E1C
102
{ACAD_REACTORS
330
E1B
102
}
330
E1B
100
AcDbXrecord
280
     1
102
RTVSPropertyOp0
 70
     1
102
RTVSPropertyOp1
 70
     1
102
RTVSPropertyOp2
 70
     1
102
RTVSPropertyOp3
 70
     1
102
RTVSPropertyOp4
 70
     1
102
RTVSPropertyOp5
 70
     1
102
RTVSPropertyOp6
 70
     1
102
RTVSPropertyOp7
 70
     1
102
RTVSPropertyOp8
 70
     1
102
RTVSPropertyOp9
 70
     1
102
RTVSPropertyOp10
 70
     1
102
RTVSPropertyOp11
 70
     1
102
RTVSPropertyOp12
 70
     1
102
RTVSPropertyOp13
 70
     1
102
RTVSPropertyOp14
 70
     1
102
RTVSPropertyOp15
 70
     1
102
RTVSPropertyOp16
 70
     1
102
RTVSPropertyOp17
 70
     1
102
RTVSPropertyOp18
 70
     1
102
RTVSPropertyOp19
 70
     1
102
RTVSPropertyOp20
 70
     1
102
RTVSPropertyOp21
 70
     1
102
RTVSPropertyOp22
 70
     1
102
RTVSPropertyOp23
 70
     1
102
RTVSPropertyOp24
 70
     1
102
RTVSPropertyOp25
 70
     1
102
RTVSPropertyOp26
 70
     1
102
RTVSPropertyOp27
 70
     1
102
RTVSPropertyOp28
 70
     1
102
RTVSPropertyOp29
 70
     1
102
RTVSPropertyOp30
 70
     1
102
RTVSPropertyOp31
 70
     1
102
RTVSPropertyOp32
 70
     1
  0
XRECORD
  5
E20
102
{ACAD_REACTORS
330
E1F
102
}
330
E1F
100
AcDbXrecord
280
     1
102
RTVSPropertyOp0
 70
     1
102
RTVSPropertyOp1
 70
     1
102
RTVSPropertyOp2
 70
     1
102
RTVSPropertyOp3
 70
     1
102
RTVSPropertyOp4
 70
     1
102
RTVSPropertyOp5
 70
     1
102
RTVSPropertyOp6
 70
     1
102
RTVSPropertyOp7
 70
     1
102
RTVSPropertyOp8
 70
     1
102
RTVSPropertyOp9
 70
     1
102
RTVSPropertyOp10
 70
     1
102
RTVSPropertyOp11
 70
     1
102
RTVSPropertyOp12
 70
     1
102
RTVSPropertyOp13
 70
     1
102
RTVSPropertyOp14
 70
     1
102
RTVSPropertyOp15
 70
     1
102
RTVSPropertyOp16
 70
     1
102
RTVSPropertyOp17
 70
     1
102
RTVSPropertyOp18
 70
     1
102
RTVSPropertyOp19
 70
     1
102
RTVSPropertyOp20
 70
     1
102
RTVSPropertyOp21
 70
     1
102
RTVSPropertyOp22
 70
     1
102
RTVSPropertyOp23
 70
     1
102
RTVSPropertyOp24
 70
     1
102
RTVSPropertyOp25
 70
     1
102
RTVSPropertyOp26
 70
     1
102
RTVSPropertyOp27
 70
     1
102
RTVSPropertyOp28
 70
     1
102
RTVSPropertyOp29
 70
     1
102
RTVSPropertyOp30
 70
     1
102
RTVSPropertyOp31
 70
     1
102
RTVSPropertyOp32
 70
     1
  0
XRECORD
  5
E3A
102
{ACAD_REACTORS
330
E39
102
}
330
E39
100
AcDbXrecord
280
     1
102
RTVSPropertyOp0
 70
     0
102
RTVSPropertyOp1
 70
     0
102
RTVSPropertyOp2
 70
     0
102
RTVSPropertyOp3
 70
     0
102
RTVSPropertyOp4
 70
     0
102
RTVSPropertyOp5
 70
     0
102
RTVSPropertyOp6
 70
     0
102
RTVSPropertyOp7
 70
     0
102
RTVSPropertyOp8
 70
     0
102
RTVSPropertyOp9
 70
     0
102
RTVSPropertyOp10
 70
     0
102
RTVSPropertyOp11
 70
     0
102
RTVSPropertyOp12
 70
     0
102
RTVSPropertyOp13
 70
     0
102
RTVSPropertyOp14
 70
     2
102
RTVSPropertyOp15
 70
     0
102
RTVSPropertyOp16
 70
     0
102
RTVSPropertyOp17
 70
     0
102
RTVSPropertyOp18
 70
     0
102
RTVSPropertyOp19
 70
     0
102
RTVSPropertyOp20
 70
     0
102
RTVSPropertyOp21
 70
     0
102
RTVSPropertyOp22
 70
     0
102
RTVSPropertyOp23
 70
     0
102
RTVSPropertyOp24
 70
     0
102
RTVSPropertyOp25
 70
     0
102
RTVSPropertyOp26
 70
     0
102
RTVSPropertyOp27
 70
     0
102
RTVSPropertyOp28
 70
     0
102
RTVSPropertyOp29
 70
     0
102
RTVSPropertyOp30
 70
     0
102
RTVSPropertyOp31
 70
     0
102
RTVSPropertyOp32
 70
     0
  0
XRECORD
  5
E28
102
{ACAD_REACTORS
330
E27
102
}
330
E27
100
AcDbXrecord
280
     1
102
RTVSPropertyOp0
 70
     1
102
RTVSPropertyOp1
 70
     1
102
RTVSPropertyOp2
 70
     1
102
RTVSPropertyOp3
 70
     1
102
RTVSPropertyOp4
 70
     1
102
RTVSPropertyOp5
 70
     1
102
RTVSPropertyOp6
 70
     1
102
RTVSPropertyOp7
 70
     1
102
RTVSPropertyOp8
 70
     1
102
RTVSPropertyOp9
 70
     1
102
RTVSPropertyOp10
 70
     1
102
RTVSPropertyOp11
 70
     1
102
RTVSPropertyOp12
 70
     1
102
RTVSPropertyOp13
 70
     1
102
RTVSPropertyOp14
 70
     1
102
RTVSPropertyOp15
 70
     1
102
RTVSPropertyOp16
 70
     1
102
RTVSPropertyOp17
 70
     1
102
RTVSPropertyOp18
 70
     1
102
RTVSPropertyOp19
 70
     1
102
RTVSPropertyOp20
 70
     1
102
RTVSPropertyOp21
 70
     1
102
RTVSPropertyOp22
 70
     1
102
RTVSPropertyOp23
 70
     1
102
RTVSPropertyOp24
 70
     1
102
RTVSPropertyOp25
 70
     1
102
RTVSPropertyOp26
 70
     1
102
RTVSPropertyOp27
 70
     1
102
RTVSPropertyOp28
 70
     1
102
RTVSPropertyOp29
 70
     1
102
RTVSPropertyOp30
 70
     1
102
RTVSPropertyOp31
 70
     1
102
RTVSPropertyOp32
 70
     1
  0
XRECORD
  5
E0C
102
{ACAD_REACTORS
330
E0B
102
}
330
E0B
100
AcDbXrecord
280
     1
102
RTVSPropertyOp0
 70
     1
102
RTVSPropertyOp1
 70
     1
102
RTVSPropertyOp2
 70
     1
102
RTVSPropertyOp3
 70
     1
102
RTVSPropertyOp4
 70
     1
102
RTVSPropertyOp5
 70
     1
102
RTVSPropertyOp6
 70
     1
102
RTVSPropertyOp7
 70
     1
102
RTVSPropertyOp8
 70
     1
102
RTVSPropertyOp9
 70
     1
102
RTVSPropertyOp10
 70
     1
102
RTVSPropertyOp11
 70
     1
102
RTVSPropertyOp12
 70
     1
102
RTVSPropertyOp13
 70
     1
102
RTVSPropertyOp14
 70
     1
102
RTVSPropertyOp15
 70
     1
102
RTVSPropertyOp16
 70
     1
102
RTVSPropertyOp17
 70
     1
102
RTVSPropertyOp18
 70
     1
102
RTVSPropertyOp19
 70
     1
102
RTVSPropertyOp20
 70
     1
102
RTVSPropertyOp21
 70
     1
102
RTVSPropertyOp22
 70
     1
102
RTVSPropertyOp23
 70
     1
102
RTVSPropertyOp24
 70
     1
102
RTVSPropertyOp25
 70
     1
102
RTVSPropertyOp26
 70
     1
102
RTVSPropertyOp27
 70
     1
102
RTVSPropertyOp28
 70
     1
102
RTVSPropertyOp29
 70
     1
102
RTVSPropertyOp30
 70
     1
102
RTVSPropertyOp31
 70
     1
102
RTVSPropertyOp32
 70
     1
  0
XRECORD
  5
E0E
102
{ACAD_REACTORS
330
E0D
102
}
330
E0D
100
AcDbXrecord
280
     1
102
RTVSPropertyOp0
 70
     1
102
RTVSPropertyOp1
 70
     1
102
RTVSPropertyOp2
 70
     1
102
RTVSPropertyOp3
 70
     1
102
RTVSPropertyOp4
 70
     1
102
RTVSPropertyOp5
 70
     1
102
RTVSPropertyOp6
 70
     1
102
RTVSPropertyOp7
 70
     1
102
RTVSPropertyOp8
 70
     1
102
RTVSPropertyOp9
 70
     1
102
RTVSPropertyOp10
 70
     1
102
RTVSPropertyOp11
 70
     1
102
RTVSPropertyOp12
 70
     1
102
RTVSPropertyOp13
 70
     1
102
RTVSPropertyOp14
 70
     1
102
RTVSPropertyOp15
 70
     1
102
RTVSPropertyOp16
 70
     1
102
RTVSPropertyOp17
 70
     1
102
RTVSPropertyOp18
 70
     1
102
RTVSPropertyOp19
 70
     1
102
RTVSPropertyOp20
 70
     1
102
RTVSPropertyOp21
 70
     1
102
RTVSPropertyOp22
 70
     1
102
RTVSPropertyOp23
 70
     1
102
RTVSPropertyOp24
 70
     1
102
RTVSPropertyOp25
 70
     1
102
RTVSPropertyOp26
 70
     1
102
RTVSPropertyOp27
 70
     1
102
RTVSPropertyOp28
 70
     1
102
RTVSPropertyOp29
 70
     1
102
RTVSPropertyOp30
 70
     1
102
RTVSPropertyOp31
 70
     1
102
RTVSPropertyOp32
 70
     1
  0
XRECORD
  5
E10
102
{ACAD_REACTORS
330
E0F
102
}
330
E0F
100
AcDbXrecord
280
     1
102
RTVSPropertyOp0
 70
     1
102
RTVSPropertyOp1
 70
     1
102
RTVSPropertyOp2
 70
     1
102
RTVSPropertyOp3
 70
     1
102
RTVSPropertyOp4
 70
     1
102
RTVSPropertyOp5
 70
     1
102
RTVSPropertyOp6
 70
     1
102
RTVSPropertyOp7
 70
     1
102
RTVSPropertyOp8
 70
     1
102
RTVSPropertyOp9
 70
     1
102
RTVSPropertyOp10
 70
     1
102
RTVSPropertyOp11
 70
     1
102
RTVSPropertyOp12
 70
     1
102
RTVSPropertyOp13
 70
     1
102
RTVSPropertyOp14
 70
     1
102
RTVSPropertyOp15
 70
     1
102
RTVSPropertyOp16
 70
     1
102
RTVSPropertyOp17
 70
     1
102
RTVSPropertyOp18
 70
     1
102
RTVSPropertyOp19
 70
     1
102
RTVSPropertyOp20
 70
     1
102
RTVSPropertyOp21
 70
     1
102
RTVSPropertyOp22
 70
     1
102
RTVSPropertyOp23
 70
     1
102
RTVSPropertyOp24
 70
     1
102
RTVSPropertyOp25
 70
     1
102
RTVSPropertyOp26
 70
     1
102
RTVSPropertyOp27
 70
     1
102
RTVSPropertyOp28
 70
     1
102
RTVSPropertyOp29
 70
     1
102
RTVSPropertyOp30
 70
     1
102
RTVSPropertyOp31
 70
     1
102
RTVSPropertyOp32
 70
     1
  0
XRECORD
  5
E12
102
{ACAD_REACTORS
330
E11
102
}
330
E11
100
AcDbXrecord
280
     1
102
RTVSPropertyOp0
 70
     1
102
RTVSPropertyOp1
 70
     1
102
RTVSPropertyOp2
 70
     1
102
RTVSPropertyOp3
 70
     1
102
RTVSPropertyOp4
 70
     1
102
RTVSPropertyOp5
 70
     1
102
RTVSPropertyOp6
 70
     1
102
RTVSPropertyOp7
 70
     1
102
RTVSPropertyOp8
 70
     1
102
RTVSPropertyOp9
 70
     1
102
RTVSPropertyOp10
 70
     1
102
RTVSPropertyOp11
 70
     1
102
RTVSPropertyOp12
 70
     1
102
RTVSPropertyOp13
 70
     1
102
RTVSPropertyOp14
 70
     1
102
RTVSPropertyOp15
 70
     1
102
RTVSPropertyOp16
 70
     1
102
RTVSPropertyOp17
 70
     1
102
RTVSPropertyOp18
 70
     1
102
RTVSPropertyOp19
 70
     1
102
RTVSPropertyOp20
 70
     1
102
RTVSPropertyOp21
 70
     1
102
RTVSPropertyOp22
 70
     1
102
RTVSPropertyOp23
 70
     1
102
RTVSPropertyOp24
 70
     1
102
RTVSPropertyOp25
 70
     1
102
RTVSPropertyOp26
 70
     1
102
RTVSPropertyOp27
 70
     1
102
RTVSPropertyOp28
 70
     1
102
RTVSPropertyOp29
 70
     1
102
RTVSPropertyOp30
 70
     1
102
RTVSPropertyOp31
 70
     1
102
RTVSPropertyOp32
 70
     1
  0
XRECORD
  5
E1A
102
{ACAD_REACTORS
330
E19
102
}
330
E19
100
AcDbXrecord
280
     1
102
RTVSPropertyOp0
 70
     1
102
RTVSPropertyOp1
 70
     1
102
RTVSPropertyOp2
 70
     1
102
RTVSPropertyOp3
 70
     1
102
RTVSPropertyOp4
 70
     1
102
RTVSPropertyOp5
 70
     1
102
RTVSPropertyOp6
 70
     1
102
RTVSPropertyOp7
 70
     1
102
RTVSPropertyOp8
 70
     1
102
RTVSPropertyOp9
 70
     1
102
RTVSPropertyOp10
 70
     1
102
RTVSPropertyOp11
 70
     1
102
RTVSPropertyOp12
 70
     1
102
RTVSPropertyOp13
 70
     1
102
RTVSPropertyOp14
 70
     1
102
RTVSPropertyOp15
 70
     1
102
RTVSPropertyOp16
 70
     1
102
RTVSPropertyOp17
 70
     1
102
RTVSPropertyOp18
 70
     1
102
RTVSPropertyOp19
 70
     1
102
RTVSPropertyOp20
 70
     1
102
RTVSPropertyOp21
 70
     1
102
RTVSPropertyOp22
 70
     1
102
RTVSPropertyOp23
 70
     1
102
RTVSPropertyOp24
 70
     1
102
RTVSPropertyOp25
 70
     1
102
RTVSPropertyOp26
 70
     1
102
RTVSPropertyOp27
 70
     1
102
RTVSPropertyOp28
 70
     1
102
RTVSPropertyOp29
 70
     1
102
RTVSPropertyOp30
 70
     1
102
RTVSPropertyOp31
 70
     1
102
RTVSPropertyOp32
 70
     1
  0
XRECORD
  5
E36
102
{ACAD_REACTORS
330
E35
102
}
330
E35
100
AcDbXrecord
280
     1
102
RTVSPropertyOp0
 70
     0
102
RTVSPropertyOp1
 70
     0
102
RTVSPropertyOp2
 70
     0
102
RTVSPropertyOp3
 70
     0
102
RTVSPropertyOp4
 70
     0
102
RTVSPropertyOp5
 70
     0
102
RTVSPropertyOp6
 70
     0
102
RTVSPropertyOp7
 70
     0
102
RTVSPropertyOp8
 70
     0
102
RTVSPropertyOp9
 70
     0
102
RTVSPropertyOp10
 70
     0
102
RTVSPropertyOp11
 70
     0
102
RTVSPropertyOp12
 70
     0
102
RTVSPropertyOp13
 70
     0
102
RTVSPropertyOp14
 70
     2
102
RTVSPropertyOp15
 70
     0
102
RTVSPropertyOp16
 70
     0
102
RTVSPropertyOp17
 70
     0
102
RTVSPropertyOp18
 70
     0
102
RTVSPropertyOp19
 70
     0
102
RTVSPropertyOp20
 70
     0
102
RTVSPropertyOp21
 70
     0
102
RTVSPropertyOp22
 70
     0
102
RTVSPropertyOp23
 70
     0
102
RTVSPropertyOp24
 70
     0
102
RTVSPropertyOp25
 70
     0
102
RTVSPropertyOp26
 70
     0
102
RTVSPropertyOp27
 70
     0
102
RTVSPropertyOp28
 70
     0
102
RTVSPropertyOp29
 70
     0
102
RTVSPropertyOp30
 70
     0
102
RTVSPropertyOp31
 70
     0
102
RTVSPropertyOp32
 70
     0
  0
XRECORD
  5
E26
102
{ACAD_REACTORS
330
E25
102
}
330
E25
100
AcDbXrecord
280
     1
102
RTVSPropertyOp0
 70
     1
102
RTVSPropertyOp1
 70
     1
102
RTVSPropertyOp2
 70
     1
102
RTVSPropertyOp3
 70
     1
102
RTVSPropertyOp4
 70
     1
102
RTVSPropertyOp5
 70
     1
102
RTVSPropertyOp6
 70
     1
102
RTVSPropertyOp7
 70
     1
102
RTVSPropertyOp8
 70
     1
102
RTVSPropertyOp9
 70
     1
102
RTVSPropertyOp10
 70
     1
102
RTVSPropertyOp11
 70
     1
102
RTVSPropertyOp12
 70
     1
102
RTVSPropertyOp13
 70
     1
102
RTVSPropertyOp14
 70
     1
102
RTVSPropertyOp15
 70
     1
102
RTVSPropertyOp16
 70
     1
102
RTVSPropertyOp17
 70
     1
102
RTVSPropertyOp18
 70
     1
102
RTVSPropertyOp19
 70
     1
102
RTVSPropertyOp20
 70
     1
102
RTVSPropertyOp21
 70
     1
102
RTVSPropertyOp22
 70
     1
102
RTVSPropertyOp23
 70
     1
102
RTVSPropertyOp24
 70
     1
102
RTVSPropertyOp25
 70
     1
102
RTVSPropertyOp26
 70
     1
102
RTVSPropertyOp27
 70
     1
102
RTVSPropertyOp28
 70
     1
102
RTVSPropertyOp29
 70
     1
102
RTVSPropertyOp30
 70
     1
102
RTVSPropertyOp31
 70
     1
102
RTVSPropertyOp32
 70
     1
  0
XRECORD
  5
E38
102
{ACAD_REACTORS
330
E37
102
}
330
E37
100
AcDbXrecord
280
     1
102
RTVSPropertyOp0
 70
     0
102
RTVSPropertyOp1
 70
     0
102
RTVSPropertyOp2
 70
     0
102
RTVSPropertyOp3
 70
     0
102
RTVSPropertyOp4
 70
     0
102
RTVSPropertyOp5
 70
     0
102
RTVSPropertyOp6
 70
     0
102
RTVSPropertyOp7
 70
     0
102
RTVSPropertyOp8
 70
     0
102
RTVSPropertyOp9
 70
     0
102
RTVSPropertyOp10
 70
     0
102
RTVSPropertyOp11
 70
     0
102
RTVSPropertyOp12
 70
     0
102
RTVSPropertyOp13
 70
     0
102
RTVSPropertyOp14
 70
     2
102
RTVSPropertyOp15
 70
     0
102
RTVSPropertyOp16
 70
     0
102
RTVSPropertyOp17
 70
     0
102
RTVSPropertyOp18
 70
     0
102
RTVSPropertyOp19
 70
     0
102
RTVSPropertyOp20
 70
     0
102
RTVSPropertyOp21
 70
     0
102
RTVSPropertyOp22
 70
     0
102
RTVSPropertyOp23
 70
     0
102
RTVSPropertyOp24
 70
     0
102
RTVSPropertyOp25
 70
     0
102
RTVSPropertyOp26
 70
     0
102
RTVSPropertyOp27
 70
     0
102
RTVSPropertyOp28
 70
     0
102
RTVSPropertyOp29
 70
     0
102
RTVSPropertyOp30
 70
     0
102
RTVSPropertyOp31
 70
     0
102
RTVSPropertyOp32
 70
     0
  0
XRECORD
  5
E1E
102
{ACAD_REACTORS
330
E1D
102
}
330
E1D
100
AcDbXrecord
280
     1
102
RTVSPropertyOp0
 70
     1
102
RTVSPropertyOp1
 70
     1
102
RTVSPropertyOp2
 70
     1
102
RTVSPropertyOp3
 70
     1
102
RTVSPropertyOp4
 70
     1
102
RTVSPropertyOp5
 70
     1
102
RTVSPropertyOp6
 70
     1
102
RTVSPropertyOp7
 70
     1
102
RTVSPropertyOp8
 70
     1
102
RTVSPropertyOp9
 70
     1
102
RTVSPropertyOp10
 70
     1
102
RTVSPropertyOp11
 70
     1
102
RTVSPropertyOp12
 70
     1
102
RTVSPropertyOp13
 70
     1
102
RTVSPropertyOp14
 70
     1
102
RTVSPropertyOp15
 70
     1
102
RTVSPropertyOp16
 70
     1
102
RTVSPropertyOp17
 70
     1
102
RTVSPropertyOp18
 70
     1
102
RTVSPropertyOp19
 70
     1
102
RTVSPropertyOp20
 70
     1
102
RTVSPropertyOp21
 70
     1
102
RTVSPropertyOp22
 70
     1
102
RTVSPropertyOp23
 70
     1
102
RTVSPropertyOp24
 70
     1
102
RTVSPropertyOp25
 70
     1
102
RTVSPropertyOp26
 70
     1
102
RTVSPropertyOp27
 70
     1
102
RTVSPropertyOp28
 70
     1
102
RTVSPropertyOp29
 70
     1
102
RTVSPropertyOp30
 70
     1
102
RTVSPropertyOp31
 70
     1
102
RTVSPropertyOp32
 70
     1
  0
XRECORD
  5
E34
102
{ACAD_REACTORS
330
E33
102
}
330
E33
100
AcDbXrecord
280
     1
102
RTVSPropertyOp0
 70
     1
102
RTVSPropertyOp1
 70
     1
102
RTVSPropertyOp2
 70
     1
102
RTVSPropertyOp3
 70
     1
102
RTVSPropertyOp4
 70
     1
102
RTVSPropertyOp5
 70
     1
102
RTVSPropertyOp6
 70
     1
102
RTVSPropertyOp7
 70
     1
102
RTVSPropertyOp8
 70
     1
102
RTVSPropertyOp9
 70
     1
102
RTVSPropertyOp10
 70
     1
102
RTVSPropertyOp11
 70
     1
102
RTVSPropertyOp12
 70
     1
102
RTVSPropertyOp13
 70
     1
102
RTVSPropertyOp14
 70
     1
102
RTVSPropertyOp15
 70
     1
102
RTVSPropertyOp16
 70
     1
102
RTVSPropertyOp17
 70
     1
102
RTVSPropertyOp18
 70
     1
102
RTVSPropertyOp19
 70
     1
102
RTVSPropertyOp20
 70
     1
102
RTVSPropertyOp21
 70
     1
102
RTVSPropertyOp22
 70
     1
102
RTVSPropertyOp23
 70
     1
102
RTVSPropertyOp24
 70
     1
102
RTVSPropertyOp25
 70
     1
102
RTVSPropertyOp26
 70
     1
102
RTVSPropertyOp27
 70
     1
102
RTVSPropertyOp28
 70
     1
102
RTVSPropertyOp29
 70
     1
102
RTVSPropertyOp30
 70
     1
102
RTVSPropertyOp31
 70
     1
102
RTVSPropertyOp32
 70
     1
  0
XRECORD
  5
E32
102
{ACAD_REACTORS
330
E31
102
}
330
E31
100
AcDbXrecord
280
     1
102
RTVSPropertyOp0
 70
     1
102
RTVSPropertyOp1
 70
     1
102
RTVSPropertyOp2
 70
     1
102
RTVSPropertyOp3
 70
     1
102
RTVSPropertyOp4
 70
     1
102
RTVSPropertyOp5
 70
     1
102
RTVSPropertyOp6
 70
     1
102
RTVSPropertyOp7
 70
     1
102
RTVSPropertyOp8
 70
     1
102
RTVSPropertyOp9
 70
     1
102
RTVSPropertyOp10
 70
     1
102
RTVSPropertyOp11
 70
     1
102
RTVSPropertyOp12
 70
     1
102
RTVSPropertyOp13
 70
     1
102
RTVSPropertyOp14
 70
     1
102
RTVSPropertyOp15
 70
     1
102
RTVSPropertyOp16
 70
     1
102
RTVSPropertyOp17
 70
     1
102
RTVSPropertyOp18
 70
     1
102
RTVSPropertyOp19
 70
     1
102
RTVSPropertyOp20
 70
     1
102
RTVSPropertyOp21
 70
     1
102
RTVSPropertyOp22
 70
     1
102
RTVSPropertyOp23
 70
     1
102
RTVSPropertyOp24
 70
     1
102
RTVSPropertyOp25
 70
     1
102
RTVSPropertyOp26
 70
     1
102
RTVSPropertyOp27
 70
     1
102
RTVSPropertyOp28
 70
     1
102
RTVSPropertyOp29
 70
     1
102
RTVSPropertyOp30
 70
     1
102
RTVSPropertyOp31
 70
     1
102
RTVSPropertyOp32
 70
     1
  0
XRECORD
  5
E2C
102
{ACAD_REACTORS
330
E2B
102
}
330
E2B
100
AcDbXrecord
280
     1
102
RTVSPropertyOp0
 70
     1
102
RTVSPropertyOp1
 70
     1
102
RTVSPropertyOp2
 70
     1
102
RTVSPropertyOp3
 70
     1
102
RTVSPropertyOp4
 70
     1
102
RTVSPropertyOp5
 70
     1
102
RTVSPropertyOp6
 70
     1
102
RTVSPropertyOp7
 70
     1
102
RTVSPropertyOp8
 70
     1
102
RTVSPropertyOp9
 70
     1
102
RTVSPropertyOp10
 70
     1
102
RTVSPropertyOp11
 70
     1
102
RTVSPropertyOp12
 70
     1
102
RTVSPropertyOp13
 70
     1
102
RTVSPropertyOp14
 70
     1
102
RTVSPropertyOp15
 70
     1
102
RTVSPropertyOp16
 70
     1
102
RTVSPropertyOp17
 70
     1
102
RTVSPropertyOp18
 70
     1
102
RTVSPropertyOp19
 70
     1
102
RTVSPropertyOp20
 70
     1
102
RTVSPropertyOp21
 70
     1
102
RTVSPropertyOp22
 70
     1
102
RTVSPropertyOp23
 70
     1
102
RTVSPropertyOp24
 70
     1
102
RTVSPropertyOp25
 70
     1
102
RTVSPropertyOp26
 70
     1
102
RTVSPropertyOp27
 70
     1
102
RTVSPropertyOp28
 70
     1
102
RTVSPropertyOp29
 70
     1
102
RTVSPropertyOp30
 70
     1
102
RTVSPropertyOp31
 70
     1
102
RTVSPropertyOp32
 70
     1
  0
XRECORD
  5
E2E
102
{ACAD_REACTORS
330
E2D
102
}
330
E2D
100
AcDbXrecord
280
     1
102
RTVSPropertyOp0
 70
     1
102
RTVSPropertyOp1
 70
     1
102
RTVSPropertyOp2
 70
     1
102
RTVSPropertyOp3
 70
     1
102
RTVSPropertyOp4
 70
     1
102
RTVSPropertyOp5
 70
     1
102
RTVSPropertyOp6
 70
     1
102
RTVSPropertyOp7
 70
     1
102
RTVSPropertyOp8
 70
     1
102
RTVSPropertyOp9
 70
     1
102
RTVSPropertyOp10
 70
     1
102
RTVSPropertyOp11
 70
     1
102
RTVSPropertyOp12
 70
     1
102
RTVSPropertyOp13
 70
     1
102
RTVSPropertyOp14
 70
     1
102
RTVSPropertyOp15
 70
     1
102
RTVSPropertyOp16
 70
     1
102
RTVSPropertyOp17
 70
     1
102
RTVSPropertyOp18
 70
     1
102
RTVSPropertyOp19
 70
     1
102
RTVSPropertyOp20
 70
     1
102
RTVSPropertyOp21
 70
     1
102
RTVSPropertyOp22
 70
     1
102
RTVSPropertyOp23
 70
     1
102
RTVSPropertyOp24
 70
     1
102
RTVSPropertyOp25
 70
     1
102
RTVSPropertyOp26
 70
     1
102
RTVSPropertyOp27
 70
     1
102
RTVSPropertyOp28
 70
     1
102
RTVSPropertyOp29
 70
     1
102
RTVSPropertyOp30
 70
     1
102
RTVSPropertyOp31
 70
     1
102
RTVSPropertyOp32
 70
     1
  0
XRECORD
  5
E24
102
{ACAD_REACTORS
330
E23
102
}
330
E23
100
AcDbXrecord
280
     1
102
RTVSPropertyOp0
 70
     1
102
RTVSPropertyOp1
 70
     1
102
RTVSPropertyOp2
 70
     1
102
RTVSPropertyOp3
 70
     1
102
RTVSPropertyOp4
 70
     1
102
RTVSPropertyOp5
 70
     1
102
RTVSPropertyOp6
 70
     1
102
RTVSPropertyOp7
 70
     1
102
RTVSPropertyOp8
 70
     1
102
RTVSPropertyOp9
 70
     1
102
RTVSPropertyOp10
 70
     1
102
RTVSPropertyOp11
 70
     1
102
RTVSPropertyOp12
 70
     1
102
RTVSPropertyOp13
 70
     1
102
RTVSPropertyOp14
 70
     1
102
RTVSPropertyOp15
 70
     1
102
RTVSPropertyOp16
 70
     1
102
RTVSPropertyOp17
 70
     1
102
RTVSPropertyOp18
 70
     1
102
RTVSPropertyOp19
 70
     1
102
RTVSPropertyOp20
 70
     1
102
RTVSPropertyOp21
 70
     1
102
RTVSPropertyOp22
 70
     1
102
RTVSPropertyOp23
 70
     1
102
RTVSPropertyOp24
 70
     1
102
RTVSPropertyOp25
 70
     1
102
RTVSPropertyOp26
 70
     1
102
RTVSPropertyOp27
 70
     1
102
RTVSPropertyOp28
 70
     1
102
RTVSPropertyOp29
 70
     1
102
RTVSPropertyOp30
 70
     1
102
RTVSPropertyOp31
 70
     1
102
RTVSPropertyOp32
 70
     1
  0
XRECORD
  5
E18
102
{ACAD_REACTORS
330
E17
102
}
330
E17
100
AcDbXrecord
280
     1
102
RTVSPropertyOp0
 70
     1
102
RTVSPropertyOp1
 70
     1
102
RTVSPropertyOp2
 70
     1
102
RTVSPropertyOp3
 70
     1
102
RTVSPropertyOp4
 70
     1
102
RTVSPropertyOp5
 70
     1
102
RTVSPropertyOp6
 70
     1
102
RTVSPropertyOp7
 70
     1
102
RTVSPropertyOp8
 70
     1
102
RTVSPropertyOp9
 70
     1
102
RTVSPropertyOp10
 70
     1
102
RTVSPropertyOp11
 70
     1
102
RTVSPropertyOp12
 70
     1
102
RTVSPropertyOp13
 70
     1
102
RTVSPropertyOp14
 70
     1
102
RTVSPropertyOp15
 70
     1
102
RTVSPropertyOp16
 70
     1
102
RTVSPropertyOp17
 70
     1
102
RTVSPropertyOp18
 70
     1
102
RTVSPropertyOp19
 70
     1
102
RTVSPropertyOp20
 70
     1
102
RTVSPropertyOp21
 70
     1
102
RTVSPropertyOp22
 70
     1
102
RTVSPropertyOp23
 70
     1
102
RTVSPropertyOp24
 70
     1
102
RTVSPropertyOp25
 70
     1
102
RTVSPropertyOp26
 70
     1
102
RTVSPropertyOp27
 70
     1
102
RTVSPropertyOp28
 70
     1
102
RTVSPropertyOp29
 70
     1
102
RTVSPropertyOp30
 70
     1
102
RTVSPropertyOp31
 70
     1
102
RTVSPropertyOp32
 70
     1
  0
XRECORD
  5
E30
102
{ACAD_REACTORS
330
E2F
102
}
330
E2F
100
AcDbXrecord
280
     1
102
RTVSPropertyOp0
 70
     1
102
RTVSPropertyOp1
 70
     1
102
RTVSPropertyOp2
 70
     1
102
RTVSPropertyOp3
 70
     1
102
RTVSPropertyOp4
 70
     1
102
RTVSPropertyOp5
 70
     1
102
RTVSPropertyOp6
 70
     1
102
RTVSPropertyOp7
 70
     1
102
RTVSPropertyOp8
 70
     1
102
RTVSPropertyOp9
 70
     1
102
RTVSPropertyOp10
 70
     1
102
RTVSPropertyOp11
 70
     1
102
RTVSPropertyOp12
 70
     1
102
RTVSPropertyOp13
 70
     1
102
RTVSPropertyOp14
 70
     1
102
RTVSPropertyOp15
 70
     1
102
RTVSPropertyOp16
 70
     1
102
RTVSPropertyOp17
 70
     1
102
RTVSPropertyOp18
 70
     1
102
RTVSPropertyOp19
 70
     1
102
RTVSPropertyOp20
 70
     1
102
RTVSPropertyOp21
 70
     1
102
RTVSPropertyOp22
 70
     1
102
RTVSPropertyOp23
 70
     1
102
RTVSPropertyOp24
 70
     1
102
RTVSPropertyOp25
 70
     1
102
RTVSPropertyOp26
 70
     1
102
RTVSPropertyOp27
 70
     1
102
RTVSPropertyOp28
 70
     1
102
RTVSPropertyOp29
 70
     1
102
RTVSPropertyOp30
 70
     1
102
RTVSPropertyOp31
 70
     1
102
RTVSPropertyOp32
 70
     1
  0
ENDSEC
  0
EOF
