  0
SECTION
  2
HEADER
  9
$ACADVER
  1
AC1015
  9
$ACADMAINTVER
 70
    20
  9
$DWGCODEPAGE
  3
ANSI_932
  9
$INSBASE
 10
0.0
 20
0.0
 30
0.0
  9
$EXTMIN
 10
-686.0538366245736
 20
-130.800497058061
 30
0.0
  9
$EXTMAX
 10
-281.0538366245736
 20
148.9747688419388
 30
0.0
  9
$LIMMIN
 10
-205.001
 20
-135.501
  9
$LIMMAX
 10
200.034234
 20
138.556359
  9
$ORTHOMODE
 70
     1
  9
$REGENMODE
 70
     1
  9
$FILLMODE
 70
     1
  9
$QTEXTMODE
 70
     0
  9
$MIRRTEXT
 70
     0
  9
$LTSCALE
 40
6.750553999999998
  9
$ATTMODE
 70
     1
  9
$TEXTSIZE
 40
3.2
  9
$TRACEWID
 40
0.05
  9
$TEXTSTYLE
  7
高3.2
  9
$CLAYER
  8
0
  9
$CELTYPE
  6
CONTINUOUS
  9
$CECOLOR
 62
   256
  9
$CELTSCALE
 40
1.0
  9
$DISPSILH
 70
     0
  9
$DIMSCALE
 40
1.0
  9
$DIMASZ
 40
2.5
  9
$DIMEXO
 40
0.25
  9
$DIMDLI
 40
0.2
  9
$DIMRND
 40
0.0
  9
$DIMDLE
 40
0.0
  9
$DIMEXE
 40
1.25
  9
$DIMTP
 40
0.0
  9
$DIMTM
 40
0.0
  9
$DIMTXT
 40
3.0
  9
$DIMCEN
 40
0.0
  9
$DIMTSZ
 40
0.0
  9
$DIMTOL
 70
     0
  9
$DIMLIM
 70
     0
  9
$DIMTIH
 70
     0
  9
$DIMTOH
 70
     0
  9
$DIMSE1
 70
     0
  9
$DIMSE2
 70
     0
  9
$DIMTAD
 70
     3
  9
$DIMZIN
 70
     8
  9
$DIMBLK
  1
Open30
  9
$DIMASO
 70
     1
  9
$DIMSHO
 70
     1
  9
$DIMPOST
  1

  9
$DIMAPOST
  1

  9
$DIMALT
 70
     0
  9
$DIMALTD
 70
     3
  9
$DIMALTF
 40
0.03937007874016
  9
$DIMLFAC
 40
1.0
  9
$DIMTOFL
 70
     1
  9
$DIMTVP
 40
0.0
  9
$DIMTIX
 70
     0
  9
$DIMSOXD
 70
     0
  9
$DIMSAH
 70
     0
  9
$DIMBLK1
  1

  9
$DIMBLK2
  1

  9
$DIMSTYLE
  2
1：1
  9
$DIMCLRD
 70
     0
  9
$DIMCLRE
 70
     0
  9
$DIMCLRT
 70
     4
  9
$DIMTFAC
 40
1.0
  9
$DIMGAP
 40
0.625
  9
$DIMJUST
 70
     0
  9
$DIMSD1
 70
     0
  9
$DIMSD2
 70
     0
  9
$DIMTOLJ
 70
     0
  9
$DIMTZIN
 70
     8
  9
$DIMALTZ
 70
     0
  9
$DIMALTTZ
 70
     0
  9
$DIMUPT
 70
     1
  9
$DIMDEC
 70
     2
  9
$DIMTDEC
 70
     2
  9
$DIMALTU
 70
     2
  9
$DIMALTTD
 70
     3
  9
$DIMTXSTY
  7
STANDARD
  9
$DIMAUNIT
 70
     0
  9
$DIMADEC
 70
     1
  9
$DIMALTRND
 40
0.0
  9
$DIMAZIN
 70
     2
  9
$DIMDSEP
 70
    46
  9
$DIMATFIT
 70
     0
  9
$DIMFRAC
 70
     0
  9
$DIMLDRBLK
  1
Open30
  9
$DIMLUNIT
 70
     2
  9
$DIMLWD
 70
    -2
  9
$DIMLWE
 70
    -2
  9
$DIMTMOVE
 70
     0
  9
$LUNITS
 70
     2
  9
$LUPREC
 70
     4
  9
$SKETCHINC
 40
0.1
  9
$FILLETRAD
 40
0.0
  9
$AUNITS
 70
     0
  9
$AUPREC
 70
     0
  9
$MENU
  1
.
  9
$ELEVATION
 40
0.0
  9
$PELEVATION
 40
0.0
  9
$THICKNESS
 40
0.0
  9
$LIMCHECK
 70
     0
  9
$CHAMFERA
 40
0.0
  9
$CHAMFERB
 40
0.0
  9
$CHAMFERC
 40
0.0
  9
$CHAMFERD
 40
0.0
  9
$SKPOLY
 70
     0
  9
$TDCREATE
 40
2457239.836450128
  9
$TDUCREATE
 40
2457239.461450127
  9
$TDUPDATE
 40
2457240.470380070
  9
$TDUUPDATE
 40
2457240.095380069
  9
$TDINDWG
 40
0.0273300926
  9
$TDUSRTIMER
 40
0.0273300926
  9
$USRTIMER
 70
     1
  9
$ANGBASE
 50
0.0
  9
$ANGDIR
 70
     0
  9
$PDMODE
 70
     0
  9
$PDSIZE
 40
0.0
  9
$PLINEWID
 40
0.0
  9
$SPLFRAME
 70
     0
  9
$SPLINETYPE
 70
     6
  9
$SPLINESEGS
 70
     8
  9
$HANDSEED
  5
D71
  9
$SURFTAB1
 70
     6
  9
$SURFTAB2
 70
     6
  9
$SURFTYPE
 70
     6
  9
$SURFU
 70
     6
  9
$SURFV
 70
     6
  9
$UCSBASE
  2

  9
$UCSNAME
  2

  9
$UCSORG
 10
0.0
 20
0.0
 30
0.0
  9
$UCSXDIR
 10
1.0
 20
0.0
 30
0.0
  9
$UCSYDIR
 10
0.0
 20
1.0
 30
0.0
  9
$UCSORTHOREF
  2

  9
$UCSORTHOVIEW
 70
     0
  9
$UCSORGTOP
 10
0.0
 20
0.0
 30
0.0
  9
$UCSORGBOTTOM
 10
0.0
 20
0.0
 30
0.0
  9
$UCSORGLEFT
 10
0.0
 20
0.0
 30
0.0
  9
$UCSORGRIGHT
 10
0.0
 20
0.0
 30
0.0
  9
$UCSORGFRONT
 10
0.0
 20
0.0
 30
0.0
  9
$UCSORGBACK
 10
0.0
 20
0.0
 30
0.0
  9
$PUCSBASE
  2

  9
$PUCSNAME
  2

  9
$PUCSORG
 10
0.0
 20
0.0
 30
0.0
  9
$PUCSXDIR
 10
1.0
 20
0.0
 30
0.0
  9
$PUCSYDIR
 10
0.0
 20
1.0
 30
0.0
  9
$PUCSORTHOREF
  2

  9
$PUCSORTHOVIEW
 70
     0
  9
$PUCSORGTOP
 10
0.0
 20
0.0
 30
0.0
  9
$PUCSORGBOTTOM
 10
0.0
 20
0.0
 30
0.0
  9
$PUCSORGLEFT
 10
0.0
 20
0.0
 30
0.0
  9
$PUCSORGRIGHT
 10
0.0
 20
0.0
 30
0.0
  9
$PUCSORGFRONT
 10
0.0
 20
0.0
 30
0.0
  9
$PUCSORGBACK
 10
0.0
 20
0.0
 30
0.0
  9
$USERI1
 70
     0
  9
$USERI2
 70
     0
  9
$USERI3
 70
     0
  9
$USERI4
 70
     0
  9
$USERI5
 70
     0
  9
$USERR1
 40
0.0
  9
$USERR2
 40
0.0
  9
$USERR3
 40
0.0
  9
$USERR4
 40
0.0
  9
$USERR5
 40
0.0
  9
$WORLDVIEW
 70
     1
  9
$SHADEDGE
 70
     3
  9
$SHADEDIF
 70
    70
  9
$TILEMODE
 70
     1
  9
$MAXACTVP
 70
    64
  9
$PINSBASE
 10
0.0
 20
0.0
 30
0.0
  9
$PLIMCHECK
 70
     0
  9
$PEXTMIN
 10
1.000000000000000E+20
 20
1.000000000000000E+20
 30
1.000000000000000E+20
  9
$PEXTMAX
 10
-1.000000000000000E+20
 20
-1.000000000000000E+20
 30
-1.000000000000000E+20
  9
$PLIMMIN
 10
0.0
 20
0.0
  9
$PLIMMAX
 10
12.0
 20
9.0
  9
$UNITMODE
 70
     0
  9
$VISRETAIN
 70
     1
  9
$PLINEGEN
 70
     0
  9
$PSLTSCALE
 70
     1
  9
$TREEDEPTH
 70
  3020
  9
$CMLSTYLE
  2
Standard
  9
$CMLJUST
 70
     0
  9
$CMLSCALE
 40
1.0
  9
$PROXYGRAPHICS
 70
     1
  9
$MEASUREMENT
 70
     0
  9
$CELWEIGHT
370
    -1
  9
$ENDCAPS
280
     0
  9
$JOINSTYLE
280
     0
  9
$LWDISPLAY
290
     0
  9
$INSUNITS
 70
     0
  9
$HYPERLINKBASE
  1

  9
$STYLESHEET
  1

  9
$XEDIT
290
     1
  9
$CEPSNTYPE
380
     0
  9
$PSTYLEMODE
290
     1
  9
$FINGERPRINTGUID
  2
{881D51B7-1970-4B1E-B59A-0E47959EDC69}
  9
$VERSIONGUID
  2
{1553C481-AEF2-43F3-94CF-0718EA9E9132}
  9
$EXTNAMES
290
     1
  9
$PSVPSCALE
 40
0.0
  9
$OLESTARTUP
290
     0
  0
ENDSEC
  0
SECTION
  2
CLASSES
  0
CLASS
  1
ACDBDICTIONARYWDFLT
  2
AcDbDictionaryWithDefault
  3
ObjectDBX Classes
 90
        0
280
     0
281
     0
  0
CLASS
  1
MATERIAL
  2
AcDbMaterial
  3
ObjectDBX Classes
 90
     1153
280
     0
281
     0
  0
CLASS
  1
VISUALSTYLE
  2
AcDbVisualStyle
  3
ObjectDBX Classes
 90
     4095
280
     0
281
     0
  0
CLASS
  1
SCALE
  2
AcDbScale
  3
ObjectDBX Classes
 90
     1153
280
     0
281
     0
  0
CLASS
  1
TABLESTYLE
  2
AcDbTableStyle
  3
ObjectDBX Classes
 90
     4095
280
     0
281
     0
  0
CLASS
  1
MLEADERSTYLE
  2
AcDbMLeaderStyle
  3
ACDB_MLEADERSTYLE_CLASS
 90
     4095
280
     0
281
     0
  0
CLASS
  1
SORTENTSTABLE
  2
AcDbSortentsTable
  3
ObjectDBX Classes
 90
        0
280
     0
281
     0
  0
CLASS
  1
AEC_REFEDIT_STATUS_TRACKER
  2
AecDbRefEditStatusTracker
  3
AecArchBase60|Product Desc: Autodesk Architectural Desktop 2007 |Company: Autodesk,Inc. |WEB Address: www.autodesk.com
 90
      129
280
     0
281
     0
  0
CLASS
  1
NPOCOLLECTION
  2
AcDbImpNonPersistentObjectsCollection
  3
ObjectDBX Classes
 90
     1153
280
     0
281
     0
  0
CLASS
  1
DICTIONARYVAR
  2
AcDbDictionaryVar
  3
ObjectDBX Classes
 90
        0
280
     0
281
     0
  0
CLASS
  1
CELLSTYLEMAP
  2
AcDbCellStyleMap
  3
ObjectDBX Classes
 90
     1152
280
     0
281
     0
  0
CLASS
  1
ACDBPLACEHOLDER
  2
AcDbPlaceHolder
  3
ObjectDBX Classes
 90
        0
280
     0
281
     0
  0
CLASS
  1
LAYOUT
  2
AcDbLayout
  3
ObjectDBX Classes
 90
        0
280
     0
281
     0
  0
ENDSEC
  0
SECTION
  2
TABLES
  0
TABLE
  2
VPORT
  5
8
330
0
100
AcDbSymbolTable
 70
     1
  0
VPORT
  5
8B
330
8
100
AcDbSymbolTableRecord
100
AcDbViewportTableRecord
  2
*Active
 70
     0
 10
0.0
 20
0.0
 11
1.0
 21
1.0
 12
-218.3684604056626
 22
15.3432158932448
 13
0.0
 23
0.0
 14
1.0
 24
1.0
 15
0.0
 25
0.0
 16
0.0
 26
0.0
 36
1.0
 17
0.0
 27
0.0
 37
0.0
 40
764.2470567267126
 41
1.90543259557344
 42
50.0
 43
0.0
 44
0.0
 50
0.0
 51
0.0
 71
     0
 72
   100
 73
     1
 74
     1
 75
     0
 76
     0
 77
     0
 78
     0
281
     0
 65
     1
110
0.0
120
0.0
130
0.0
111
1.0
121
0.0
131
0.0
112
0.0
122
1.0
132
0.0
 79
     0
146
0.0
  0
ENDTAB
  0
TABLE
  2
LTYPE
  5
5
330
0
100
AcDbSymbolTable
 70
     3
  0
LTYPE
  5
5A
330
5
100
AcDbSymbolTableRecord
100
AcDbLinetypeTableRecord
  2
ByBlock
 70
     0
  3

 72
    65
 73
     0
 40
0.0
  0
LTYPE
  5
5B
330
5
100
AcDbSymbolTableRecord
100
AcDbLinetypeTableRecord
  2
ByLayer
 70
     0
  3

 72
    65
 73
     0
 40
0.0
  0
LTYPE
  5
5C
330
5
100
AcDbSymbolTableRecord
100
AcDbLinetypeTableRecord
  2
CONTINUOUS
 70
     0
  3
Solid-line
 72
    65
 73
     0
 40
0.0
  0
LTYPE
  5
72
330
5
100
AcDbSymbolTableRecord
100
AcDbLinetypeTableRecord
  2
CENTER
 70
     0
  3
CENTER
 72
    65
 73
     4
 40
2.0
 49
1.25
 74
     0
 49
-0.25
 74
     0
 49
0.25
 74
     0
 49
-0.25
 74
     0
  0
LTYPE
  5
78
330
5
100
AcDbSymbolTableRecord
100
AcDbLinetypeTableRecord
  2
DASHED
 70
     0
  3
DASHED
 72
    65
 73
     2
 40
0.75
 49
0.5
 74
     0
 49
-0.25
 74
     0
  0
ENDTAB
  0
TABLE
  2
LAYER
  5
2
102
{ACAD_XDICTIONARY
360
43B
102
}
330
0
100
AcDbSymbolTable
 70
     2
  0
LAYER
  5
54
102
{ACAD_XDICTIONARY
360
B7A
102
}
330
2
100
AcDbSymbolTableRecord
100
AcDbLayerTableRecord
  2
0
 70
     0
 62
     7
  6
CONTINUOUS
370
    -3
390
F
  0
LAYER
  5
424
330
2
100
AcDbSymbolTableRecord
100
AcDbLayerTableRecord
  2
Defpoints
 70
     0
 62
     7
  6
CONTINUOUS
290
     0
370
    -3
390
F
  0
ENDTAB
  0
TABLE
  2
STYLE
  5
3
330
0
100
AcDbSymbolTable
 70
     6
  0
STYLE
  5
55
330
3
100
AcDbSymbolTableRecord
100
AcDbTextStyleTableRecord
  2
STANDARD
 70
     0
 40
0.0
 41
1.0
 50
0.0
 71
     0
 42
0.2
  3
TXT
  4
BIGFONT
  0
STYLE
  5
425
330
3
100
AcDbSymbolTableRecord
100
AcDbTextStyleTableRecord
  2
高3.2
 70
     0
 40
3.2
 41
1.0
 50
0.0
 71
     0
 42
3.2
  3
txt.shx
  4
bigfont.shx
  0
STYLE
  5
426
330
3
100
AcDbSymbolTableRecord
100
AcDbTextStyleTableRecord
  2
高6.3
 70
     0
 40
6.299999999999998
 41
1.0
 50
0.0
 71
     0
 42
6.299999999999998
  3
txt.shx
  4
bigfont.shx
  0
STYLE
  5
427
330
3
100
AcDbSymbolTableRecord
100
AcDbTextStyleTableRecord
  2
高2.5
 70
     0
 40
2.5
 41
1.0
 50
0.0
 71
     0
 42
0.2
  3
txt.shx
  4
bigfont.shx
  0
STYLE
  5
428
330
3
100
AcDbSymbolTableRecord
100
AcDbTextStyleTableRecord
  2
高4.5
 70
     0
 40
4.5
 41
1.0
 50
0.0
 71
     0
 42
6.299999999999998
  3
txt.shx
  4
bigfont.shx
  0
STYLE
  5
429
330
3
100
AcDbSymbolTableRecord
100
AcDbTextStyleTableRecord
  2
高2
 70
     0
 40
2.0
 41
1.0
 50
0.0
 71
     0
 42
2.0
  3
txt.shx
  4
bigfont.shx
  0
ENDTAB
  0
TABLE
  2
VIEW
  5
6
330
0
100
AcDbSymbolTable
 70
     0
  0
ENDTAB
  0
TABLE
  2
UCS
  5
7
330
0
100
AcDbSymbolTable
 70
     0
  0
ENDTAB
  0
TABLE
  2
APPID
  5
9
330
0
100
AcDbSymbolTable
 70
    10
  0
APPID
  5
56
330
9
100
AcDbSymbolTableRecord
100
AcDbRegAppTableRecord
  2
ACAD
 70
     0
  0
APPID
  5
5D
330
9
100
AcDbSymbolTableRecord
100
AcDbRegAppTableRecord
  2
AcadAnnotative
 70
     0
  0
APPID
  5
434
330
9
100
AcDbSymbolTableRecord
100
AcDbRegAppTableRecord
  2
ACAD_DSTYLE_DIMJOGGED_JOGANGLE_SYMBOL
 70
     0
  0
APPID
  5
435
330
9
100
AcDbSymbolTableRecord
100
AcDbRegAppTableRecord
  2
ACAD_DSTYLE_DIMJAG
 70
     0
  0
APPID
  5
436
330
9
100
AcDbSymbolTableRecord
100
AcDbRegAppTableRecord
  2
ACAD_DSTYLE_DIMBREAK
 70
     0
  0
APPID
  5
437
330
9
100
AcDbSymbolTableRecord
100
AcDbRegAppTableRecord
  2
ACAD_DSTYLE_DIMTALN
 70
     0
  0
APPID
  5
99F
330
9
100
AcDbSymbolTableRecord
100
AcDbRegAppTableRecord
  2
ACAD_EXEMPT_FROM_CAD_STANDARDS
 70
     0
  0
APPID
  5
BC0
330
9
100
AcDbSymbolTableRecord
100
AcDbRegAppTableRecord
  2
ACAD_MLEADERVER
 70
     0
  0
APPID
  5
BC5
330
9
100
AcDbSymbolTableRecord
100
AcDbRegAppTableRecord
  2
ACAD_DSTYLE_DIMARC_LENGTH_SYMBOL
 70
     0
  0
APPID
  5
BC6
330
9
100
AcDbSymbolTableRecord
100
AcDbRegAppTableRecord
  2
ACAD_DSTYLE_DIMEXT_LENGTH
 70
     0
  0
ENDTAB
  0
TABLE
  2
DIMSTYLE
  5
A
330
0
100
AcDbSymbolTable
 70
     2
100
AcDbDimStyleTable
 71
     1
340
42A
  0
DIMSTYLE
105
57
330
A
100
AcDbSymbolTableRecord
100
AcDbDimStyleTableRecord
  2
Standard
 70
     0
340
55
  0
DIMSTYLE
105
42A
102
{ACAD_REACTORS
330
94E
102
}
330
A
100
AcDbSymbolTableRecord
100
AcDbDimStyleTableRecord
  2
1：1
 70
     0
 41
2.5
 42
0.25
 43
0.2
 44
1.25
 73
     0
 74
     0
 77
     3
 78
     8
 79
     2
140
3.0
141
0.0
143
0.03937007874016
147
0.625
171
     3
172
     1
178
     4
179
     1
271
     2
272
     2
274
     3
283
     0
284
     8
288
     1
289
     0
340
55
341
394
342
394
1001
ACAD_DSTYLE_DIMARC_LENGTH_SYMBOL
1070
   379
1070
     2
1001
ACAD_DSTYLE_DIMEXT_LENGTH
1070
   378
1040
1.25
1001
ACAD_DSTYLE_DIMJOGGED_JOGANGLE_SYMBOL
1070
   384
1040
1.570796326794896
  0
ENDTAB
  0
TABLE
  2
BLOCK_RECORD
  5
1
330
0
100
AcDbSymbolTable
 70
     9
  0
BLOCK_RECORD
  5
6B
102
{ACAD_XDICTIONARY
360
8A3
102
}
330
1
100
AcDbSymbolTableRecord
100
AcDbBlockTableRecord
  2
*Model_Space
340
6E
  0
BLOCK_RECORD
  5
67
330
1
100
AcDbSymbolTableRecord
100
AcDbBlockTableRecord
  2
*Paper_Space
340
6A
  0
BLOCK_RECORD
  5
394
330
1
100
AcDbSymbolTableRecord
100
AcDbBlockTableRecord
  2
_Open30
340
0
102
{BLKREFS
331
C0F
331
C10
331
C18
331
C19
331
C21
331
C22
331
C2A
331
C2B
331
C33
331
C34
331
C3C
331
C3D
331
C45
331
C46
102
}
  0
BLOCK_RECORD
  5
800
330
1
100
AcDbSymbolTableRecord
100
AcDbBlockTableRecord
  2
*D1
340
0
  0
BLOCK_RECORD
  5
80D
330
1
100
AcDbSymbolTableRecord
100
AcDbBlockTableRecord
  2
*D2
340
0
  0
BLOCK_RECORD
  5
81A
330
1
100
AcDbSymbolTableRecord
100
AcDbBlockTableRecord
  2
*D3
340
0
  0
BLOCK_RECORD
  5
827
330
1
100
AcDbSymbolTableRecord
100
AcDbBlockTableRecord
  2
*D4
340
0
  0
BLOCK_RECORD
  5
834
330
1
100
AcDbSymbolTableRecord
100
AcDbBlockTableRecord
  2
*D5
340
0
  0
BLOCK_RECORD
  5
841
330
1
100
AcDbSymbolTableRecord
100
AcDbBlockTableRecord
  2
*D6
340
0
  0
BLOCK_RECORD
  5
84E
330
1
100
AcDbSymbolTableRecord
100
AcDbBlockTableRecord
  2
*D7
340
0
  0
BLOCK_RECORD
  5
954
330
1
100
AcDbSymbolTableRecord
100
AcDbBlockTableRecord
  2
_DotSmall
340
0
  0
ENDTAB
  0
ENDSEC
  0
SECTION
  2
BLOCKS
  0
BLOCK
  5
6C
330
6B
100
AcDbEntity
  8
0
100
AcDbBlockBegin
  2
*Model_Space
 70
     0
 10
0.0
 20
0.0
 30
0.0
  3
*Model_Space
  1

  0
ENDBLK
  5
6D
330
6B
100
AcDbEntity
  8
0
100
AcDbBlockEnd
  0
BLOCK
  5
68
330
67
100
AcDbEntity
 67
     1
  8
0
100
AcDbBlockBegin
  2
*Paper_Space
 70
     0
 10
0.0
 20
0.0
 30
0.0
  3
*Paper_Space
  1

  0
ENDBLK
  5
69
330
67
100
AcDbEntity
 67
     1
  8
0
100
AcDbBlockEnd
  0
BLOCK
  5
395
330
394
100
AcDbEntity
  8
0
100
AcDbBlockBegin
  2
_Open30
 70
     0
 10
0.0
 20
0.0
 30
0.0
  3
_Open30
  1

  0
LINE
  5
396
330
394
100
AcDbEntity
  8
0
  6
ByBlock
 62
     0
370
    -2
100
AcDbLine
 10
-1.0
 20
0.267949
 30
0.0
 11
0.0
 21
0.0
 31
0.0
  0
LINE
  5
397
330
394
100
AcDbEntity
  8
0
  6
ByBlock
 62
     0
370
    -2
100
AcDbLine
 10
0.0
 20
0.0
 30
0.0
 11
-1.0
 21
-0.267949
 31
0.0
  0
LINE
  5
398
330
394
100
AcDbEntity
  8
0
  6
ByBlock
 62
     0
370
    -2
100
AcDbLine
 10
0.0
 20
0.0
 30
0.0
 11
-1.0
 21
0.0
 31
0.0
  0
ENDBLK
  5
399
330
394
100
AcDbEntity
  8
0
100
AcDbBlockEnd
  0
BLOCK
  5
801
330
800
100
AcDbEntity
  8
0
100
AcDbBlockBegin
  2
*D1
 70
     1
 10
0.0
 20
0.0
 30
0.0
  3
*D1
  1

  0
LINE
  5
C0C
330
800
100
AcDbEntity
  8
0
 62
     0
370
    -2
100
AcDbLine
 10
-548.3692455032951
 20
12.62426695890523
 30
0.0
 11
-541.5559674783797
 21
12.62426695890523
 31
0.0
  0
LINE
  5
C0D
330
800
100
AcDbEntity
  8
0
 62
     0
370
    -2
100
AcDbLine
 10
-548.3692455032951
 20
51.62426628745852
 30
0.0
 11
-541.5559674783797
 21
51.62426628745852
 31
0.0
  0
LINE
  5
C0E
330
800
100
AcDbEntity
  8
0
 62
     0
370
    -2
100
AcDbLine
 10
-542.8059674783797
 20
15.12426695890523
 30
0.0
 11
-542.8059674783797
 21
49.12426628745852
 31
0.0
  0
INSERT
  5
C0F
330
800
100
AcDbEntity
  8
0
 62
     0
370
    -2
100
AcDbBlockReference
  2
_Open30
 10
-542.8059674783797
 20
12.62426695890523
 30
0.0
 41
2.5
 42
2.5
 43
2.5
 50
270.0
  0
INSERT
  5
C10
330
800
100
AcDbEntity
  8
0
 62
     0
370
    -2
100
AcDbBlockReference
  2
_Open30
 10
-542.8059674783797
 20
51.62426628745852
 30
0.0
 41
2.5
 42
2.5
 43
2.5
 50
90.0
  0
MTEXT
  5
C11
330
800
100
AcDbEntity
  8
0
 62
     4
100
AcDbMText
 10
-544.9309674783798
 20
32.12426662318179
 30
0.0
 40
3.0
 41
0.0
 71
     5
 72
     1
  1
39
 11
0.0000000000000001
 21
1.0
 31
0.0
 73
     1
 44
1.0
1001
ACAD
1000
MTEXTBEGIN
1070
    73
1070
     1
1070
    44
1040
1.0
1070
    74
1070
     0
1000
MTEXTEND
  0
POINT
  5
C12
330
800
100
AcDbEntity
  8
Defpoints
 62
     0
100
AcDbPoint
 10
-548.6192455032951
 20
12.62426695890523
 30
0.0
  0
POINT
  5
C13
330
800
100
AcDbEntity
  8
Defpoints
 62
     0
100
AcDbPoint
 10
-548.6192455032951
 20
51.62426628745852
 30
0.0
  0
POINT
  5
C14
330
800
100
AcDbEntity
  8
Defpoints
 62
     0
100
AcDbPoint
 10
-542.8059674783797
 20
51.62426628745852
 30
0.0
  0
ENDBLK
  5
802
330
800
100
AcDbEntity
  8
0
100
AcDbBlockEnd
  0
BLOCK
  5
80E
330
80D
100
AcDbEntity
  8
0
100
AcDbBlockBegin
  2
*D2
 70
     1
 10
0.0
 20
0.0
 30
0.0
  3
*D2
  1

  0
LINE
  5
C15
330
80D
100
AcDbEntity
  8
0
 62
     0
370
    -2
100
AcDbLine
 10
-553.1591766708288
 20
-1.075732805227597
 30
0.0
 11
-535.0321400906978
 21
-1.075732805227602
 31
0.0
  0
LINE
  5
C16
330
80D
100
AcDbEntity
  8
0
 62
     0
370
    -2
100
AcDbLine
 10
-553.1591766708288
 20
65.32426605159137
 30
0.0
 11
-535.0321400906978
 21
65.32426605159135
 31
0.0
  0
LINE
  5
C17
330
80D
100
AcDbEntity
  8
0
 62
     0
370
    -2
100
AcDbLine
 10
-536.2821400906979
 20
1.424267194772397
 30
0.0
 11
-536.2821400906979
 21
62.82426605159136
 31
0.0
  0
INSERT
  5
C18
330
80D
100
AcDbEntity
  8
0
 62
     0
370
    -2
100
AcDbBlockReference
  2
_Open30
 10
-536.2821400906979
 20
-1.075732805227602
 30
0.0
 41
2.5
 42
2.5
 43
2.5
 50
270.0
  0
INSERT
  5
C19
330
80D
100
AcDbEntity
  8
0
 62
     0
370
    -2
100
AcDbBlockReference
  2
_Open30
 10
-536.2821400906979
 20
65.32426605159135
 30
0.0
 41
2.5
 42
2.5
 43
2.5
 50
90.0
  0
MTEXT
  5
C1A
330
80D
100
AcDbEntity
  8
0
 62
     4
100
AcDbMText
 10
-538.4071400906979
 20
32.1242666231818
 30
0.0
 40
3.0
 41
0.0
 71
     5
 72
     1
  1
66.4
 11
0.0000000000000001
 21
1.0
 31
0.0
 73
     1
 44
1.0
1001
ACAD
1000
MTEXTBEGIN
1070
    73
1070
     1
1070
    44
1040
1.0
1070
    74
1070
     0
1000
MTEXTEND
  0
POINT
  5
C1B
330
80D
100
AcDbEntity
  8
Defpoints
 62
     0
100
AcDbPoint
 10
-553.4091766708288
 20
-1.075732805227597
 30
0.0
  0
POINT
  5
C1C
330
80D
100
AcDbEntity
  8
Defpoints
 62
     0
100
AcDbPoint
 10
-553.4091766708288
 20
65.32426605159137
 30
0.0
  0
POINT
  5
C1D
330
80D
100
AcDbEntity
  8
Defpoints
 62
     0
100
AcDbPoint
 10
-536.2821400906979
 20
65.32426605159135
 30
0.0
  0
ENDBLK
  5
80F
330
80D
100
AcDbEntity
  8
0
100
AcDbBlockEnd
  0
BLOCK
  5
81B
330
81A
100
AcDbEntity
  8
0
100
AcDbBlockBegin
  2
*D3
 70
     1
 10
0.0
 20
0.0
 30
0.0
  3
*D3
  1

  0
LINE
  5
C1E
330
81A
100
AcDbEntity
  8
0
 62
     0
370
    -2
100
AcDbLine
 10
-585.4091761198982
 20
63.5742660860245
 30
0.0
 11
-585.4091761198982
 21
88.2627719281894
 31
0.0
  0
LINE
  5
C1F
330
81A
100
AcDbEntity
  8
0
 62
     0
370
    -2
100
AcDbLine
 10
-551.4091767052621
 20
63.5742660860245
 30
0.0
 11
-551.4091767052621
 21
88.2627719281894
 31
0.0
  0
LINE
  5
C20
330
81A
100
AcDbEntity
  8
0
 62
     0
370
    -2
100
AcDbLine
 10
-582.9091761198982
 20
87.0127719281894
 30
0.0
 11
-553.9091767052621
 21
87.0127719281894
 31
0.0
  0
INSERT
  5
C21
330
81A
100
AcDbEntity
  8
0
 62
     0
370
    -2
100
AcDbBlockReference
  2
_Open30
 10
-585.4091761198982
 20
87.0127719281894
 30
0.0
 41
2.5
 42
2.5
 43
2.5
 50
180.0
  0
INSERT
  5
C22
330
81A
100
AcDbEntity
  8
0
 62
     0
370
    -2
100
AcDbBlockReference
  2
_Open30
 10
-551.4091767052621
 20
87.0127719281894
 30
0.0
 41
2.5
 42
2.5
 43
2.5
  0
MTEXT
  5
C23
330
81A
100
AcDbEntity
  8
0
 62
     4
100
AcDbMText
 10
-568.4091764125801
 20
89.1377719281894
 30
0.0
 40
3.0
 41
0.0
 71
     5
 72
     1
  1
34
 73
     1
 44
1.0
1001
ACAD
1000
MTEXTBEGIN
1070
    73
1070
     1
1070
    44
1040
1.0
1070
    74
1070
     0
1000
MTEXTEND
  0
POINT
  5
C24
330
81A
100
AcDbEntity
  8
Defpoints
 62
     0
100
AcDbPoint
 10
-585.4091761198982
 20
63.3242660860245
 30
0.0
  0
POINT
  5
C25
330
81A
100
AcDbEntity
  8
Defpoints
 62
     0
100
AcDbPoint
 10
-551.4091767052621
 20
63.3242660860245
 30
0.0
  0
POINT
  5
C26
330
81A
100
AcDbEntity
  8
Defpoints
 62
     0
100
AcDbPoint
 10
-551.4091767052621
 20
87.0127719281894
 30
0.0
  0
ENDBLK
  5
81C
330
81A
100
AcDbEntity
  8
0
100
AcDbBlockEnd
  0
BLOCK
  5
828
330
827
100
AcDbEntity
  8
0
100
AcDbBlockBegin
  2
*D4
 70
     1
 10
0.0
 20
0.0
 30
0.0
  3
*D4
  1

  0
LINE
  5
C27
330
827
100
AcDbEntity
  8
0
 62
     0
370
    -2
100
AcDbLine
 10
-502.9687069142414
 20
73.87426590869373
 30
0.0
 11
-502.9687069142414
 21
83.08304139236666
 31
0.0
  0
LINE
  5
C28
330
827
100
AcDbEntity
  8
0
 62
     0
370
    -2
100
AcDbLine
 10
-483.4687072499646
 20
65.07426606019965
 30
0.0
 11
-483.4687072499646
 21
83.08304139236666
 31
0.0
  0
LINE
  5
C29
330
827
100
AcDbEntity
  8
0
 62
     0
370
    -2
100
AcDbLine
 10
-500.4687069142414
 20
81.83304139236666
 30
0.0
 11
-485.9687072499646
 21
81.83304139236666
 31
0.0
  0
INSERT
  5
C2A
330
827
100
AcDbEntity
  8
0
 62
     0
370
    -2
100
AcDbBlockReference
  2
_Open30
 10
-502.9687069142414
 20
81.83304139236666
 30
0.0
 41
2.5
 42
2.5
 43
2.5
 50
180.0
  0
INSERT
  5
C2B
330
827
100
AcDbEntity
  8
0
 62
     0
370
    -2
100
AcDbBlockReference
  2
_Open30
 10
-483.4687072499646
 20
81.83304139236666
 30
0.0
 41
2.5
 42
2.5
 43
2.5
  0
MTEXT
  5
C2C
330
827
100
AcDbEntity
  8
0
 62
     4
100
AcDbMText
 10
-493.218707082103
 20
83.95804139236664
 30
0.0
 40
3.0
 41
0.0
 71
     5
 72
     1
  1
19.5
 73
     1
 44
1.0
1001
ACAD
1000
MTEXTBEGIN
1070
    73
1070
     1
1070
    44
1040
1.0
1070
    74
1070
     0
1000
MTEXTEND
  0
POINT
  5
C2D
330
827
100
AcDbEntity
  8
Defpoints
 62
     0
100
AcDbPoint
 10
-502.9687069142414
 20
73.62426590869373
 30
0.0
  0
POINT
  5
C2E
330
827
100
AcDbEntity
  8
Defpoints
 62
     0
100
AcDbPoint
 10
-483.4687072499646
 20
64.82426606019965
 30
0.0
  0
POINT
  5
C2F
330
827
100
AcDbEntity
  8
Defpoints
 62
     0
100
AcDbPoint
 10
-483.4687072499646
 20
81.83304139236666
 30
0.0
  0
ENDBLK
  5
829
330
827
100
AcDbEntity
  8
0
100
AcDbBlockEnd
  0
BLOCK
  5
835
330
834
100
AcDbEntity
  8
0
100
AcDbBlockBegin
  2
*D5
 70
     1
 10
0.0
 20
0.0
 30
0.0
  3
*D5
  1

  0
LINE
  5
C30
330
834
100
AcDbEntity
  8
0
 62
     0
370
    -2
100
AcDbLine
 10
-507.9687068281584
 20
65.12426605933882
 30
0.0
 11
-507.9687068281584
 21
88.91172191701668
 31
0.0
  0
LINE
  5
C31
330
834
100
AcDbEntity
  8
0
 62
     0
370
    -2
100
AcDbLine
 10
-481.4687072843979
 20
65.07426606019965
 30
0.0
 11
-481.4687072843979
 21
88.91172191701668
 31
0.0
  0
LINE
  5
C32
330
834
100
AcDbEntity
  8
0
 62
     0
370
    -2
100
AcDbLine
 10
-505.4687068281585
 20
87.66172191701668
 30
0.0
 11
-483.9687072843979
 21
87.66172191701668
 31
0.0
  0
INSERT
  5
C33
330
834
100
AcDbEntity
  8
0
 62
     0
370
    -2
100
AcDbBlockReference
  2
_Open30
 10
-507.9687068281584
 20
87.66172191701668
 30
0.0
 41
2.5
 42
2.5
 43
2.5
 50
180.0
  0
INSERT
  5
C34
330
834
100
AcDbEntity
  8
0
 62
     0
370
    -2
100
AcDbBlockReference
  2
_Open30
 10
-481.4687072843979
 20
87.66172191701668
 30
0.0
 41
2.5
 42
2.5
 43
2.5
  0
MTEXT
  5
C35
330
834
100
AcDbEntity
  8
0
 62
     4
100
AcDbMText
 10
-494.7187070562781
 20
89.78672191701669
 30
0.0
 40
3.0
 41
0.0
 71
     5
 72
     1
  1
26.5
 73
     1
 44
1.0
1001
ACAD
1000
MTEXTBEGIN
1070
    73
1070
     1
1070
    44
1040
1.0
1070
    74
1070
     0
1000
MTEXTEND
  0
POINT
  5
C36
330
834
100
AcDbEntity
  8
Defpoints
 62
     0
100
AcDbPoint
 10
-507.9687068281584
 20
64.87426605933882
 30
0.0
  0
POINT
  5
C37
330
834
100
AcDbEntity
  8
Defpoints
 62
     0
100
AcDbPoint
 10
-481.4687072843979
 20
64.82426606019965
 30
0.0
  0
POINT
  5
C38
330
834
100
AcDbEntity
  8
Defpoints
 62
     0
100
AcDbPoint
 10
-481.4687072843979
 20
87.66172191701668
 30
0.0
  0
ENDBLK
  5
836
330
834
100
AcDbEntity
  8
0
100
AcDbBlockEnd
  0
BLOCK
  5
842
330
841
100
AcDbEntity
  8
0
100
AcDbBlockBegin
  2
*D6
 70
     1
 10
0.0
 20
0.0
 30
0.0
  3
*D6
  1

  0
LINE
  5
C39
330
841
100
AcDbEntity
  8
0
 62
     0
370
    -2
100
AcDbLine
 10
-588.4091760682486
 20
5.424267078560472
 30
0.0
 11
-588.4091760682486
 21
-22.90752495087948
 31
0.0
  0
LINE
  5
C3A
330
841
100
AcDbEntity
  8
0
 62
     0
370
    -2
100
AcDbLine
 10
-551.4091767052621
 20
0.6742671603392339
 30
0.0
 11
-551.4091767052621
 21
-22.90752495087948
 31
0.0
  0
LINE
  5
C3B
330
841
100
AcDbEntity
  8
0
 62
     0
370
    -2
100
AcDbLine
 10
-585.9091760682486
 20
-21.65752495087948
 30
0.0
 11
-553.9091767052621
 21
-21.65752495087948
 31
0.0
  0
INSERT
  5
C3C
330
841
100
AcDbEntity
  8
0
 62
     0
370
    -2
100
AcDbBlockReference
  2
_Open30
 10
-588.4091760682486
 20
-21.65752495087948
 30
0.0
 41
2.5
 42
2.5
 43
2.5
 50
180.0
  0
INSERT
  5
C3D
330
841
100
AcDbEntity
  8
0
 62
     0
370
    -2
100
AcDbBlockReference
  2
_Open30
 10
-551.4091767052621
 20
-21.65752495087948
 30
0.0
 41
2.5
 42
2.5
 43
2.5
  0
MTEXT
  5
C3E
330
841
100
AcDbEntity
  8
0
 62
     4
100
AcDbMText
 10
-569.9091763867553
 20
-19.53252495087948
 30
0.0
 40
3.0
 41
0.0
 71
     5
 72
     1
  1
37
 73
     1
 44
1.0
1001
ACAD
1000
MTEXTBEGIN
1070
    73
1070
     1
1070
    44
1040
1.0
1070
    74
1070
     0
1000
MTEXTEND
  0
POINT
  5
C3F
330
841
100
AcDbEntity
  8
Defpoints
 62
     0
100
AcDbPoint
 10
-588.4091760682486
 20
5.674267078560472
 30
0.0
  0
POINT
  5
C40
330
841
100
AcDbEntity
  8
Defpoints
 62
     0
100
AcDbPoint
 10
-551.4091767052621
 20
0.9242671603392338
 30
0.0
  0
POINT
  5
C41
330
841
100
AcDbEntity
  8
Defpoints
 62
     0
100
AcDbPoint
 10
-551.4091767052621
 20
-21.65752495087948
 30
0.0
  0
ENDBLK
  5
843
330
841
100
AcDbEntity
  8
0
100
AcDbBlockEnd
  0
BLOCK
  5
84F
330
84E
100
AcDbEntity
  8
0
100
AcDbBlockBegin
  2
*D7
 70
     1
 10
0.0
 20
0.0
 30
0.0
  3
*D7
  1

  0
LINE
  5
C42
330
84E
100
AcDbEntity
  8
0
 62
     0
370
    -2
100
AcDbLine
 10
-570.3091763841727
 20
-9.875732653721675
 30
0.0
 11
-597.7093053046527
 21
-9.875732653721666
 31
0.0
  0
LINE
  5
C43
330
84E
100
AcDbEntity
  8
0
 62
     0
370
    -2
100
AcDbLine
 10
-572.4396394724934
 20
74.12426590008542
 30
0.0
 11
-597.7093053046527
 21
74.12426590008542
 31
0.0
  0
LINE
  5
C44
330
84E
100
AcDbEntity
  8
0
 62
     0
370
    -2
100
AcDbLine
 10
-596.4593053046526
 20
-7.375732653721667
 30
0.0
 11
-596.4593053046526
 21
71.62426590008542
 31
0.0
  0
INSERT
  5
C45
330
84E
100
AcDbEntity
  8
0
 62
     0
370
    -2
100
AcDbBlockReference
  2
_Open30
 10
-596.4593053046526
 20
-9.875732653721666
 30
0.0
 41
2.5
 42
2.5
 43
2.5
 50
270.0
  0
INSERT
  5
C46
330
84E
100
AcDbEntity
  8
0
 62
     0
370
    -2
100
AcDbBlockReference
  2
_Open30
 10
-596.4593053046526
 20
74.12426590008542
 30
0.0
 41
2.5
 42
2.5
 43
2.5
 50
90.0
  0
MTEXT
  5
C47
330
84E
100
AcDbEntity
  8
0
 62
     4
100
AcDbMText
 10
-598.5843053046527
 20
32.12426662318178
 30
0.0
 40
3.0
 41
0.0
 71
     5
 72
     1
  1
84
 11
0.0000000000000001
 21
1.0
 31
0.0
 73
     1
 44
1.0
1001
ACAD
1000
MTEXTBEGIN
1070
    73
1070
     1
1070
    44
1040
1.0
1070
    74
1070
     0
1000
MTEXTEND
  0
POINT
  5
C48
330
84E
100
AcDbEntity
  8
Defpoints
 62
     0
100
AcDbPoint
 10
-570.0591763841726
 20
-9.875732653721675
 30
0.0
  0
POINT
  5
C49
330
84E
100
AcDbEntity
  8
Defpoints
 62
     0
100
AcDbPoint
 10
-572.1896394724934
 20
74.12426590008542
 30
0.0
  0
POINT
  5
C4A
330
84E
100
AcDbEntity
  8
Defpoints
 62
     0
100
AcDbPoint
 10
-596.4593053046526
 20
74.12426590008542
 30
0.0
  0
ENDBLK
  5
850
330
84E
100
AcDbEntity
  8
0
100
AcDbBlockEnd
  0
BLOCK
  5
956
330
954
100
AcDbEntity
  8
0
100
AcDbBlockBegin
  2
_DotSmall
 70
     0
 10
0.0
 20
0.0
 30
0.0
  3
_DotSmall
  1

  0
LWPOLYLINE
  5
955
330
954
100
AcDbEntity
  8
0
  6
ByBlock
 62
     0
100
AcDbPolyline
 90
        2
 70
     1
 43
0.5
 10
-0.0625
 20
0.0
 42
1.0
 10
0.0625
 20
0.0
 42
1.0
  0
ENDBLK
  5
957
330
954
100
AcDbEntity
  8
0
100
AcDbBlockEnd
  0
ENDSEC
  0
SECTION
  2
ENTITIES
  0
TEXT
  5
186
330
6B
100
AcDbEntity
  8
0
 62
     7
100
AcDbText
 10
-337.5538366245738
 20
128.6995029419389
 30
0.0
 40
2.5
  1
認証表示変更
  7
高2.5
100
AcDbText
  0
TEXT
  5
187
330
6B
100
AcDbEntity
  8
0
 62
     7
100
AcDbText
 10
-293.5538366245738
 20
128.6995029419389
 30
0.0
 40
2.5
  1
　牧田
  7
高2.5
100
AcDbText
  0
TEXT
  5
1DB
330
6B
100
AcDbEntity
  8
0
 62
     7
100
AcDbText
 10
-355.5538366245738
 20
128.6995029419389
 30
0.0
 40
2.5
  1
02.5.17
  7
高2.5
100
AcDbText
  0
TEXT
  5
342
330
6B
100
AcDbEntity
  8
0
 62
     3
100
AcDbText
 10
-331.5538366245736
 20
-66.30049705806104
 30
0.0
 40
4.5
  1
型　式
  7
高4.5
100
AcDbText
  0
TEXT
  5
343
330
6B
100
AcDbEntity
  8
0
 62
     3
100
AcDbText
 10
-504.3865515683012
 20
-99.90669167344568
 30
0.0
 40
3.2
  1
1
 41
0.8
  7
高3.2
100
AcDbText
  0
TEXT
  5
344
330
6B
100
AcDbEntity
  8
0
 62
     3
100
AcDbText
 10
-504.3865515683012
 20
-90.01824244267645
 30
0.0
 40
3.2
  1
1
 41
0.8
  7
高3.2
100
AcDbText
  0
TEXT
  5
345
330
6B
100
AcDbEntity
  8
0
 62
     3
100
AcDbText
 10
-504.3865515683012
 20
-104.8509155195995
 30
0.0
 40
3.2
  1
2
 41
0.8
  7
高3.2
100
AcDbText
  0
TEXT
  5
346
330
6B
100
AcDbEntity
  8
0
 62
     3
100
AcDbText
 10
-504.3865515683012
 20
-85.0740185965226
 30
0.0
 40
3.2
  1
2
 41
0.8
  7
高3.2
100
AcDbText
  0
TEXT
  5
347
330
6B
100
AcDbEntity
  8
0
 62
     3
100
AcDbText
 10
-504.3865515683012
 20
-94.96246705806106
 30
0.0
 40
3.2
  1
1
 41
0.8
  7
高3.2
100
AcDbText
  0
TEXT
  5
348
330
6B
100
AcDbEntity
  8
0
 62
     3
100
AcDbText
 10
-504.3865515683012
 20
-114.7393647503687
 30
0.0
 40
3.2
  1
2
 41
0.8
  7
高3.2
100
AcDbText
  0
TEXT
  5
349
330
6B
100
AcDbEntity
  8
0
 62
     3
100
AcDbText
 10
-504.3865515683012
 20
-119.6835885965226
 30
0.0
 40
3.2
  1
2
 41
0.8
  7
高3.2
100
AcDbText
  0
TEXT
  5
34A
330
6B
100
AcDbEntity
  8
0
 62
     3
100
AcDbText
 10
-504.3865515683012
 20
-109.7951401349841
 30
0.0
 40
3.2
  1
3
 41
0.8
  7
高3.2
100
AcDbText
  0
LINE
  5
34B
330
6B
100
AcDbEntity
  8
0
 62
     7
100
AcDbLine
 10
-508.2129815683011
 20
-130.800497058061
 30
0.0
 11
-508.2129815683011
 21
-80.80049705806107
 31
0.0
  0
TEXT
  5
34C
330
6B
100
AcDbEntity
  8
0
 62
     3
100
AcDbText
 10
-510.0785307990703
 20
-124.6278132119072
 30
0.0
 40
3.2
  1
　１式
 41
0.8
  7
高3.2
100
AcDbText
  0
TEXT
  5
34D
330
6B
100
AcDbEntity
  8
0
 62
     3
100
AcDbText
 10
-635.0684569547452
 20
-110.300497058061
 30
0.0
 40
3.2
  1
SPCC
 41
0.8
  7
高3.2
100
AcDbText
  0
TEXT
  5
34E
330
6B
100
AcDbEntity
  8
0
 62
     3
100
AcDbText
 10
-662.7261920091891
 20
-105.300497058061
 30
0.0
 40
3.2
  1
ビス
 41
0.8
  7
高3.2
100
AcDbText
  0
TEXT
  5
34F
330
6B
100
AcDbEntity
  8
0
 62
     3
100
AcDbText
 10
-662.7261920091891
 20
-95.30049705806106
 30
0.0
 40
3.2
  1
コンセント取付枠
 41
0.8
  7
高3.2
100
AcDbText
  0
TEXT
  5
350
330
6B
100
AcDbEntity
  8
0
 62
     3
100
AcDbText
 10
-662.7261920091891
 20
-90.30049705806106
 30
0.0
 40
3.2
  1
取付ビス
 41
0.8
  7
高3.2
100
AcDbText
  0
TEXT
  5
351
330
6B
100
AcDbEntity
  8
0
 62
     3
100
AcDbText
 10
-662.7261920091891
 20
-85.30049705806106
 30
0.0
 40
3.2
  1
取付ビス
 41
0.8
  7
高3.2
100
AcDbText
  0
TEXT
  5
352
330
6B
100
AcDbEntity
  8
0
 62
     3
100
AcDbText
 10
-635.0684569547452
 20
-85.30049705806106
 30
0.0
 40
3.2
  1
SS41
 41
0.8
  7
高3.2
100
AcDbText
  0
TEXT
  5
353
330
6B
100
AcDbEntity
  8
0
 62
     3
100
AcDbText
 10
-635.0684569547452
 20
-90.30049705806106
 30
0.0
 40
3.2
  1
SS41
 41
0.8
  7
高3.2
100
AcDbText
  0
TEXT
  5
354
330
6B
100
AcDbEntity
  8
0
 62
     3
100
AcDbText
 10
-662.7261920091891
 20
-100.300497058061
 30
0.0
 40
3.2
  1
ビス
 41
0.8
  7
高3.2
100
AcDbText
  0
TEXT
  5
355
330
6B
100
AcDbEntity
  8
0
 62
     3
100
AcDbText
 10
-635.0684569547452
 20
-100.300497058061
 30
0.0
 40
3.2
  1
SS41
 41
0.8
  7
高3.2
100
AcDbText
  0
TEXT
  5
356
330
6B
100
AcDbEntity
  8
0
 62
     3
100
AcDbText
 10
-635.0684569547452
 20
-105.300497058061
 30
0.0
 40
3.2
  1
SS41
 41
0.8
  7
高3.2
100
AcDbText
  0
TEXT
  5
357
330
6B
100
AcDbEntity
  8
0
 62
     3
100
AcDbText
 10
-598.6656446452244
 20
-105.300497058061
 30
0.0
 40
3.2
  1
プラマイ丸平M4x8(クロメートメッキ処理)
 41
0.8
  7
高3.2
100
AcDbText
  0
TEXT
  5
358
330
6B
100
AcDbEntity
  8
0
 62
     3
100
AcDbText
 10
-598.6656446452244
 20
-110.300497058061
 30
0.0
 40
3.2
  1
角10-M4(クロメートメッキ処理)
 41
0.8
  7
高3.2
100
AcDbText
  0
TEXT
  5
359
330
6B
100
AcDbEntity
  8
0
 62
     3
100
AcDbText
 10
-635.0684569547452
 20
-95.30049705806106
 30
0.0
 40
3.2
  1
SPEC(ボンデ鋼板)
 41
0.8
  7
高3.2
100
AcDbText
  0
TEXT
  5
35A
330
6B
100
AcDbEntity
  8
0
 62
     3
100
AcDbText
 10
-598.6656446452244
 20
-95.30049705806106
 30
0.0
 40
3.2
  1
アース金具有り、無し2種
 41
0.8
  7
高3.2
100
AcDbText
  0
TEXT
  5
35B
330
6B
100
AcDbEntity
  8
0
 62
     3
100
AcDbText
 10
-598.6656446452244
 20
-125.300497058061
 30
0.0
 40
3.2
  1
難燃性(成形色：赤、緑、茶)
 41
0.8
  7
高3.2
100
AcDbText
  0
TEXT
  5
35C
330
6B
100
AcDbEntity
  8
0
 62
     3
100
AcDbText
 10
-635.0684569547452
 20
-115.300497058061
 30
0.0
 40
3.2
  1
C2680R1/2H
 41
0.8
  7
高3.2
100
AcDbText
  0
TEXT
  5
35D
330
6B
100
AcDbEntity
  8
0
 62
     3
100
AcDbText
 10
-635.0684569547452
 20
-120.300497058061
 30
0.0
 40
3.2
  1
C5191-1/2H
 41
0.8
  7
高3.2
100
AcDbText
  0
TEXT
  5
35E
330
6B
100
AcDbEntity
  8
0
 62
     3
100
AcDbText
 10
-598.6656446452244
 20
-120.300497058061
 30
0.0
 40
3.2
  1
0.8t
 41
0.8
  7
高3.2
100
AcDbText
  0
TEXT
  5
35F
330
6B
100
AcDbEntity
  8
0
 62
     3
100
AcDbText
 10
-598.6656446452244
 20
-115.300497058061
 30
0.0
 40
3.2
  1
0.7t
 41
0.8
  7
高3.2
100
AcDbText
  0
TEXT
  5
360
330
6B
100
AcDbEntity
  8
0
 62
     3
100
AcDbText
 10
-635.0684569547452
 20
-125.300497058061
 30
0.0
 40
3.2
  1
耐熱ABS樹脂
 41
0.8
  7
高3.2
100
AcDbText
  0
TEXT
  5
361
330
6B
100
AcDbEntity
  8
0
 62
     3
100
AcDbText
 10
-662.7261920091891
 20
-125.300497058061
 30
0.0
 40
3.2
  1
ケースA,B
 41
0.8
  7
高3.2
100
AcDbText
  0
TEXT
  5
362
330
6B
100
AcDbEntity
  8
0
 62
     3
100
AcDbText
 10
-662.7261920091891
 20
-120.300497058061
 30
0.0
 40
3.2
  1
刃受
 41
0.8
  7
高3.2
100
AcDbText
  0
TEXT
  5
363
330
6B
100
AcDbEntity
  8
0
 62
     3
100
AcDbText
 10
-662.7261920091891
 20
-115.300497058061
 30
0.0
 40
3.2
  1
アース刃受
 41
0.8
  7
高3.2
100
AcDbText
  0
TEXT
  5
364
330
6B
100
AcDbEntity
  8
0
 62
     3
100
AcDbText
 10
-662.7261920091891
 20
-110.300497058061
 30
0.0
 40
3.2
  1
角ナット
 41
0.8
  7
高3.2
100
AcDbText
  0
TEXT
  5
365
330
6B
100
AcDbEntity
  8
0
 62
     3
100
AcDbText
 10
-669.5538366245736
 20
-125.300497058061
 30
0.0
 40
3.2
  1
1
 41
0.8
  7
高3.2
100
AcDbText
  0
TEXT
  5
366
330
6B
100
AcDbEntity
  8
0
 62
     3
100
AcDbText
 10
-669.5538366245736
 20
-120.300497058061
 30
0.0
 40
3.2
  1
2
 41
0.8
  7
高3.2
100
AcDbText
  0
TEXT
  5
367
330
6B
100
AcDbEntity
  8
0
 62
     3
100
AcDbText
 10
-669.5538366245736
 20
-115.300497058061
 30
0.0
 40
3.2
  1
3
 41
0.8
  7
高3.2
100
AcDbText
  0
TEXT
  5
368
330
6B
100
AcDbEntity
  8
0
 62
     3
100
AcDbText
 10
-669.5538366245736
 20
-110.300497058061
 30
0.0
 40
3.2
  1
4
 41
0.8
  7
高3.2
100
AcDbText
  0
TEXT
  5
369
330
6B
100
AcDbEntity
  8
0
 62
     3
100
AcDbText
 10
-669.5538366245736
 20
-105.300497058061
 30
0.0
 40
3.2
  1
5
 41
0.8
  7
高3.2
100
AcDbText
  0
TEXT
  5
36A
330
6B
100
AcDbEntity
  8
0
 62
     3
100
AcDbText
 10
-669.5538366245736
 20
-100.300497058061
 30
0.0
 40
3.2
  1
6
 41
0.8
  7
高3.2
100
AcDbText
  0
TEXT
  5
36B
330
6B
100
AcDbEntity
  8
0
 62
     3
100
AcDbText
 10
-669.5538366245736
 20
-95.30049705806106
 30
0.0
 40
3.2
  1
7
 41
0.8
  7
高3.2
100
AcDbText
  0
TEXT
  5
36C
330
6B
100
AcDbEntity
  8
0
 62
     3
100
AcDbText
 10
-669.5538366245736
 20
-90.30049705806106
 30
0.0
 40
3.2
  1
8
 41
0.8
  7
高3.2
100
AcDbText
  0
TEXT
  5
36D
330
6B
100
AcDbEntity
  8
0
 62
     3
100
AcDbText
 10
-669.5538366245736
 20
-85.30049705806106
 30
0.0
 40
3.2
  1
9
 41
0.8
  7
高3.2
100
AcDbText
  0
LINE
  5
36E
330
6B
100
AcDbEntity
  8
0
 62
     7
100
AcDbLine
 10
-600.1656446452242
 20
-130.800497058061
 30
0.0
 11
-600.1656446452242
 21
-80.80049705806107
 31
0.0
  0
LINE
  5
36F
330
6B
100
AcDbEntity
  8
0
 62
     7
100
AcDbLine
 10
-636.5684569547452
 20
-130.800497058061
 30
0.0
 11
-636.5684569547452
 21
-80.80049705806107
 31
0.0
  0
LINE
  5
370
330
6B
100
AcDbEntity
  8
0
 62
     7
100
AcDbLine
 10
-664.2261920091891
 20
-130.800497058061
 30
0.0
 11
-664.2261920091891
 21
-80.80049705806107
 31
0.0
  0
TEXT
  5
371
330
6B
100
AcDbEntity
  8
0
 62
     3
100
AcDbText
 10
-598.6656446452244
 20
-85.30049705806106
 30
0.0
 40
3.2
  1
PタイトM3.5x12(クロメートメッキ処理)
 41
0.8
  7
高3.2
100
AcDbText
  0
TEXT
  5
372
330
6B
100
AcDbEntity
  8
0
 62
     3
100
AcDbText
 10
-598.6656446452244
 20
-90.30049705806106
 30
0.0
 40
3.2
  1
PタイトM3.5x14(ユニクロメートメッキ処理)
 41
0.8
  7
高3.2
100
AcDbText
  0
TEXT
  5
373
330
6B
100
AcDbEntity
  8
0
 62
     3
100
AcDbText
 10
-598.6656446452244
 20
-100.300497058061
 30
0.0
 40
3.2
  1
プラマイ丸平M4x8(ユニクロメートメッキ処理)
 41
0.8
  7
高3.2
100
AcDbText
  0
TEXT
  5
374
330
6B
100
AcDbEntity
  8
0
 62
     3
100
AcDbText
 10
-506.4246846452243
 20
-129.5720378272918
 30
0.0
 40
3.2
  1
個数
 41
0.8
  7
高3.2
100
AcDbText
  0
TEXT
  5
375
330
6B
100
AcDbEntity
  8
0
 62
     3
100
AcDbText
 10
-598.6656446452244
 20
-130.3004970580611
 30
0.0
 40
3.2
  1
備　　　　考
 41
0.8
  7
高3.2
100
AcDbText
  0
TEXT
  5
376
330
6B
100
AcDbEntity
  8
0
 62
     3
100
AcDbText
 10
-635.0684569547452
 20
-130.3004970580611
 30
0.0
 40
3.2
  1
材　　　　質
 41
0.8
  7
高3.2
100
AcDbText
  0
TEXT
  5
377
330
6B
100
AcDbEntity
  8
0
 62
     3
100
AcDbText
 10
-662.7261920091891
 20
-130.3004970580611
 30
0.0
 40
3.2
  1
部　　品　　名
 41
0.8
  7
高3.2
100
AcDbText
  0
TEXT
  5
378
330
6B
100
AcDbEntity
  8
0
 62
     3
100
AcDbText
 10
-669.5538366245736
 20
-130.3004970580611
 30
0.0
 40
3.2
  1
No
 41
0.8
  7
高3.2
100
AcDbText
  0
TEXT
  5
37D
330
6B
100
AcDbEntity
  8
0
 62
     3
100
AcDbText
 10
-305.5538366245737
 20
-66.30049705806104
 30
0.0
 40
4.5
  1
コード
  7
高4.5
100
AcDbText
  0
TEXT
  5
380
330
6B
100
AcDbEntity
  8
0
 62
     3
100
AcDbText
 10
-331.5538366245736
 20
-72.30049705806104
 30
0.0
 40
4.5
  1
2PE-DKN
 41
0.7
  7
高4.5
100
AcDbText
  0
TEXT
  5
381
330
6B
100
AcDbEntity
  8
0
 62
     3
100
AcDbText
 10
-331.5538366245736
 20
-78.30049705806104
 30
0.0
 40
4.5
  1
2PE-GKN
 41
0.7
  7
高4.5
100
AcDbText
  0
TEXT
  5
382
330
6B
100
AcDbEntity
  8
0
 62
     3
100
AcDbText
 10
-331.5538366245736
 20
-84.30049705806103
 30
0.0
 40
4.5
  1
2PE-RKN
 41
0.7
  7
高4.5
100
AcDbText
  0
TEXT
  5
383
330
6B
100
AcDbEntity
  8
0
 62
     3
100
AcDbText
 10
-331.5538366245736
 20
-90.30049705806105
 30
0.0
 40
4.5
  1
2PE-WKN
 41
0.7
  7
高4.5
100
AcDbText
  0
TEXT
  5
384
330
6B
100
AcDbEntity
  8
0
 62
     3
100
AcDbText
 10
-305.5538366245737
 20
-72.30049705806104
 30
0.0
 40
4.5
  1
51444
  7
高4.5
100
AcDbText
  0
TEXT
  5
385
330
6B
100
AcDbEntity
  8
0
 62
     3
100
AcDbText
 10
-305.5538366245737
 20
-78.30049705806104
 30
0.0
 40
4.5
  1
51445
  7
高4.5
100
AcDbText
  0
TEXT
  5
386
330
6B
100
AcDbEntity
  8
0
 62
     3
100
AcDbText
 10
-305.5538366245737
 20
-84.30049705806103
 30
0.0
 40
4.5
  1
51446
  7
高4.5
100
AcDbText
  0
TEXT
  5
387
330
6B
100
AcDbEntity
  8
0
 62
     3
100
AcDbText
 10
-305.5538366245737
 20
-90.30049705806105
 30
0.0
 40
4.5
  1
51443
  7
高4.5
100
AcDbText
  0
LINE
  5
392
330
6B
100
AcDbEntity
  8
0
 62
     3
100
AcDbLine
 10
-498.474895414455
 20
-130.800497058061
 30
0.0
 11
-498.474895414455
 21
-80.80049705806107
 31
0.0
  0
LINE
  5
64F
330
6B
100
AcDbEntity
  8
0
 62
     3
100
AcDbLine
 10
-442.0711292126895
 20
-1.075732805227597
 30
0.0
 11
-442.0711292126895
 21
0.9242671603392338
 31
0.0
  0
LINE
  5
650
330
6B
100
AcDbEntity
  8
0
 62
     3
100
AcDbLine
 10
-446.0711291438233
 20
-1.075732805227597
 30
0.0
 11
-446.0711291438233
 21
0.9242671603392338
 31
0.0
  0
LINE
  5
651
330
6B
100
AcDbEntity
  8
0
 62
     3
100
AcDbLine
 10
-442.0711292126895
 20
0.9242671603392338
 30
0.0
 11
-446.0711291438233
 21
0.9242671603392338
 31
0.0
  0
LINE
  5
652
330
6B
100
AcDbEntity
  8
0
 62
     3
100
AcDbLine
 10
-445.3211291567357
 20
15.92426690209051
 30
0.0
 11
-445.3211291567357
 21
0.9242671603392338
 31
0.0
  0
LINE
  5
653
330
6B
100
AcDbEntity
  8
0
 62
     3
100
AcDbLine
 10
-442.8211291997771
 20
15.92426690209051
 30
0.0
 11
-442.8211291997771
 21
0.9242671603392338
 31
0.0
  0
LINE
  5
654
330
6B
100
AcDbEntity
  8
0
 62
     3
100
AcDbLine
 10
-442.8211291997771
 20
15.92426690209051
 30
0.0
 11
-445.3211291567357
 21
15.92426690209051
 31
0.0
  0
CIRCLE
  5
655
330
6B
100
AcDbEntity
  8
0
 62
     3
100
AcDbCircle
 10
-443.1211291946121
 20
40.12538961042988
 30
0.0
 40
1.499999974175126
  0
CIRCLE
  5
656
330
6B
100
AcDbEntity
  8
0
 62
     3
100
AcDbCircle
 10
-443.1211291946121
 20
40.12538961042988
 30
0.0
 40
1.999999965566835
  0
CIRCLE
  5
657
330
6B
100
AcDbEntity
  8
0
 62
     3
100
AcDbCircle
 10
-443.1211291946121
 20
34.12538971372938
 30
0.0
 40
1.999999965566835
  0
CIRCLE
  5
658
330
6B
100
AcDbEntity
  8
0
 62
     3
100
AcDbCircle
 10
-443.1211291946121
 20
34.12538971372938
 30
0.0
 40
1.499999974175126
  0
CIRCLE
  5
659
330
6B
100
AcDbEntity
  8
0
 62
     3
100
AcDbCircle
 10
-419.1211296078101
 20
34.12538971372938
 30
0.0
 40
1.999999965566835
  0
CIRCLE
  5
65A
330
6B
100
AcDbEntity
  8
0
 62
     3
100
AcDbCircle
 10
-419.1211296078101
 20
34.12538971372938
 30
0.0
 40
1.499999974175126
  0
CIRCLE
  5
65B
330
6B
100
AcDbEntity
  8
0
 62
     3
100
AcDbCircle
 10
-419.1211296078101
 20
40.12538961042988
 30
0.0
 40
1.999999965566835
  0
CIRCLE
  5
65C
330
6B
100
AcDbEntity
  8
0
 62
     3
100
AcDbCircle
 10
-419.1211296078101
 20
40.12538961042988
 30
0.0
 40
1.499999974175126
  0
LINE
  5
65D
330
6B
100
AcDbEntity
  8
0
  6
CENTER
 62
     7
100
AcDbLine
 10
-548.6192455032951
 20
12.62426695890523
 30
0.0
 11
-586.1517154821142
 21
12.62426695890523
 31
0.0
  0
LINE
  5
65E
330
6B
100
AcDbEntity
  8
0
  6
CENTER
 62
     7
100
AcDbLine
 10
-559.5266159405075
 20
56.62426620137561
 30
0.0
 11
-577.3523225086099
 21
56.62426620137561
 31
0.0
  0
LINE
  5
65F
330
6B
100
AcDbEntity
  8
0
  6
CENTER
 62
     7
100
AcDbLine
 10
-559.5266159405075
 20
17.62426687282232
 30
0.0
 11
-577.3523225086099
 21
17.62426687282232
 31
0.0
  0
LINE
  5
660
330
6B
100
AcDbEntity
  8
0
  6
CENTER
 62
     7
100
AcDbLine
 10
-565.4281470889032
 20
5.724267077699642
 30
0.0
 11
-571.5657051082354
 21
5.724267077699642
 31
0.0
  0
LINE
  5
661
330
6B
100
AcDbEntity
  8
0
  6
CENTER
 62
     7
100
AcDbLine
 10
-510.1236961660569
 20
51.62426628745852
 30
0.0
 11
-494.937348302514
 21
51.62426628745852
 31
0.0
  0
LINE
  5
662
330
6B
100
AcDbEntity
  8
0
  6
CENTER
 62
     7
100
AcDbLine
 10
-510.1236961660569
 20
12.62426695890523
 30
0.0
 11
-494.937348302514
 21
12.62426695890523
 31
0.0
  0
LINE
  5
663
330
6B
100
AcDbEntity
  8
0
  6
CENTER
 62
     7
100
AcDbLine
 10
-561.7855621516162
 20
44.72426640625292
 30
0.0
 11
-558.4831090834732
 21
44.72426640625292
 31
0.0
  0
LINE
  5
664
330
6B
100
AcDbEntity
  8
0
  6
CENTER
 62
     7
100
AcDbLine
 10
-560.118215930322
 20
45.99121700944038
 30
0.0
 11
-560.118215930322
 21
46.4927782508052
 31
0.0
  0
LINE
  5
665
330
6B
100
AcDbEntity
  8
0
  6
CENTER
 62
     7
100
AcDbLine
 10
-548.6192455032951
 20
51.62426628745852
 30
0.0
 11
-586.1517154821142
 21
51.62426628745852
 31
0.0
  0
LINE
  5
666
330
6B
100
AcDbEntity
  8
0
  6
CENTER
 62
     7
100
AcDbLine
 10
-565.4281470889032
 20
32.12426662318188
 30
0.0
 11
-571.5657051082354
 21
32.12426662318188
 31
0.0
  0
LINE
  5
667
330
6B
100
AcDbEntity
  8
0
  6
CENTER
 62
     7
100
AcDbLine
 10
-568.4091764125802
 20
80.93863515776526
 30
0.0
 11
-568.4091764125802
 21
-17.10812752920454
 31
0.0
  0
LINE
  5
668
330
6B
100
AcDbEntity
  8
0
 62
     3
100
AcDbLine
 10
-501.968706931458
 20
79.12426581400251
 30
0.0
 11
-502.9687069142414
 21
79.12426581400251
 31
0.0
  0
LINE
  5
669
330
6B
100
AcDbEntity
  8
0
 62
     3
100
AcDbLine
 10
-501.968706931458
 20
-14.87573256763876
 30
0.0
 11
-516.9687066732091
 21
-14.87573256763876
 31
0.0
  0
LINE
  5
66A
330
6B
100
AcDbEntity
  8
0
 62
     3
100
AcDbLine
 10
-501.968706931458
 20
65.42426604986968
 30
0.0
 11
-483.4687072499646
 21
65.42426604986968
 31
0.0
  0
LINE
  5
66B
330
6B
100
AcDbEntity
  8
0
 62
     3
100
AcDbLine
 10
-501.968706931458
 20
-1.17573280350594
 30
0.0
 11
-483.4687072499646
 21
-1.17573280350594
 31
0.0
  0
LINE
  5
66C
330
6B
100
AcDbEntity
  8
0
 62
     3
100
AcDbLine
 10
-483.4687072499646
 20
-2.175732786289358
 30
0.0
 11
-501.968706931458
 21
-2.175732786289358
 31
0.0
  0
LINE
  5
66D
330
6B
100
AcDbEntity
  8
0
 62
     3
100
AcDbLine
 10
-483.4687072499646
 20
66.42426603265312
 30
0.0
 11
-501.968706931458
 21
66.42426603265312
 31
0.0
  0
LINE
  5
66E
330
6B
100
AcDbEntity
  8
0
 62
     3
100
AcDbLine
 10
-501.968706931458
 20
-14.87573256763876
 30
0.0
 11
-501.968706931458
 21
-2.175732786289358
 31
0.0
  0
LINE
  5
66F
330
6B
100
AcDbEntity
  8
0
 62
     3
100
AcDbLine
 10
-501.968706931458
 20
66.42426603265312
 30
0.0
 11
-501.968706931458
 21
79.12426581400251
 31
0.0
  0
ARC
  5
670
330
6B
100
AcDbEntity
  8
0
 62
     3
100
AcDbCircle
 10
-483.4687072499646
 20
65.42426604986968
 30
0.0
 40
0.9999999827834178
100
AcDbArc
 50
0.0
 51
90.0
  0
ARC
  5
671
330
6B
100
AcDbEntity
  8
0
 62
     3
100
AcDbCircle
 10
-501.968706931458
 20
-2.175732786289358
 30
0.0
 40
0.9999999827834178
100
AcDbArc
 50
90.0
 51
180.0
  0
ARC
  5
672
330
6B
100
AcDbEntity
  8
0
 62
     3
100
AcDbCircle
 10
-483.4687072499646
 20
-1.17573280350594
 30
0.0
 40
0.9999999827834178
100
AcDbArc
 50
270.0
 51
0.0
  0
ARC
  5
673
330
6B
100
AcDbEntity
  8
0
 62
     3
100
AcDbCircle
 10
-501.968706931458
 20
66.42426603265312
 30
0.0
 40
0.9999999827834178
100
AcDbArc
 50
180.0
 51
270.0
  0
LINE
  5
674
330
6B
100
AcDbEntity
  8
0
 62
     3
100
AcDbLine
 10
-502.9687069142414
 20
-2.175732786289358
 30
0.0
 11
-502.9687069142414
 21
-14.87573256763876
 31
0.0
  0
LINE
  5
675
330
6B
100
AcDbEntity
  8
0
 62
     3
100
AcDbLine
 10
-502.9687069142414
 20
66.42426603265312
 30
0.0
 11
-502.9687069142414
 21
79.12426581400251
 31
0.0
  0
CIRCLE
  5
676
330
6B
100
AcDbEntity
  8
0
 62
     3
100
AcDbCircle
 10
-568.4091764125802
 20
74.12426590008542
 30
0.0
 40
1.649999971592639
  0
CIRCLE
  5
677
330
6B
100
AcDbEntity
  8
0
 62
     3
100
AcDbCircle
 10
-568.4091764125802
 20
-9.875732653721675
 30
0.0
 40
1.649999971592639
  0
LINE
  5
678
330
6B
100
AcDbEntity
  8
0
 62
     3
100
AcDbLine
 10
-500.9687069486744
 20
71.87426593882273
 30
0.0
 11
-500.9687069486744
 21
76.37426586134811
 31
0.0
  0
LINE
  5
679
330
6B
100
AcDbEntity
  8
0
 62
     3
100
AcDbLine
 10
-500.9687069486744
 20
76.37426586134811
 30
0.0
 11
-501.968706931458
 21
76.37426586134811
 31
0.0
  0
LINE
  5
67A
330
6B
100
AcDbEntity
  8
0
 62
     3
100
AcDbLine
 10
-500.9687069486744
 20
71.87426593882273
 30
0.0
 11
-501.968706931458
 21
71.87426593882273
 31
0.0
  0
LINE
  5
67B
330
6B
100
AcDbEntity
  8
0
 62
     3
100
AcDbLine
 10
-500.9687069486744
 20
-7.62573269245898
 30
0.0
 11
-501.968706931458
 21
-7.62573269245898
 31
0.0
  0
LINE
  5
67C
330
6B
100
AcDbEntity
  8
0
 62
     3
100
AcDbLine
 10
-500.9687069486744
 20
-12.12573261498436
 30
0.0
 11
-501.968706931458
 21
-12.12573261498436
 31
0.0
  0
LINE
  5
67D
330
6B
100
AcDbEntity
  8
0
 62
     3
100
AcDbLine
 10
-500.9687069486744
 20
-7.62573269245898
 30
0.0
 11
-500.9687069486744
 21
-12.12573261498436
 31
0.0
  0
LINE
  5
67E
330
6B
100
AcDbEntity
  8
0
 62
     3
100
AcDbLine
 10
-438.6211292720868
 20
66.42426603265312
 30
0.0
 11
-423.6211295303354
 21
66.42426603265312
 31
0.0
  0
LINE
  5
67F
330
6B
100
AcDbEntity
  8
0
  6
DASHED
 62
     7
100
AcDbLine
 10
-485.9687072069233
 20
-1.17573280350594
 30
0.0
 11
-485.9687072069233
 21
-2.175732786289358
 31
0.0
  0
LINE
  5
680
330
6B
100
AcDbEntity
  8
0
  6
DASHED
 62
     7
100
AcDbLine
 10
-497.9687070003243
 20
-1.17573280350594
 30
0.0
 11
-497.9687070003243
 21
-2.175732786289358
 31
0.0
  0
LINE
  5
681
330
6B
100
AcDbEntity
  8
0
 62
     3
100
AcDbLine
 10
-502.9687069142414
 20
-15.87573255042218
 30
0.0
 11
-516.9687066732091
 21
-15.87573255042218
 31
0.0
  0
ARC
  5
682
330
6B
100
AcDbEntity
  8
0
 62
     3
100
AcDbCircle
 10
-502.9687069142414
 20
-14.87573256763876
 30
0.0
 40
0.9999999827834178
100
AcDbArc
 50
270.0
 51
0.0
  0
LINE
  5
683
330
6B
100
AcDbEntity
  8
0
 62
     3
100
AcDbLine
 10
-516.9687066732091
 20
-15.87573255042218
 30
0.0
 11
-516.9687066732091
 21
-14.87573256763876
 31
0.0
  0
LINE
  5
684
330
6B
100
AcDbEntity
  8
0
 62
     3
100
AcDbLine
 10
-501.968706931458
 20
-13.37573259346364
 30
0.0
 11
-502.9687069142414
 21
-13.37573259346364
 31
0.0
  0
LINE
  5
685
330
6B
100
AcDbEntity
  8
0
  6
DASHED
 62
     7
100
AcDbLine
 10
-514.9687067076423
 20
-15.87573255042218
 30
0.0
 11
-514.9687067076423
 21
-14.87573256763876
 31
0.0
  0
LINE
  5
686
330
6B
100
AcDbEntity
  8
0
  6
DASHED
 62
     7
100
AcDbLine
 10
-506.9687068453752
 20
-14.87573256763876
 30
0.0
 11
-506.9687068453752
 21
-15.87573255042218
 31
0.0
  0
LINE
  5
687
330
6B
100
AcDbEntity
  8
0
 62
     3
100
AcDbLine
 10
-501.968706931458
 20
73.62426590869373
 30
0.0
 11
-502.9687069142414
 21
73.62426590869373
 31
0.0
  0
LINE
  5
688
330
6B
100
AcDbEntity
  8
0
 62
     3
100
AcDbLine
 10
-482.4687072671814
 20
3.924267108689491
 30
0.0
 11
-482.4687072671814
 21
29.12538979981228
 31
0.0
  0
LINE
  5
689
330
6B
100
AcDbEntity
  8
0
 62
     3
100
AcDbLine
 10
-482.4687072671814
 20
45.12538952434698
 30
0.0
 11
-482.4687072671814
 21
60.32426613767426
 31
0.0
  0
LINE
  5
68A
330
6B
100
AcDbEntity
  8
0
 62
     3
100
AcDbLine
 10
-483.4687072499646
 20
-1.17573280350594
 30
0.0
 11
-483.4687072499646
 21
29.12538979981228
 31
0.0
  0
LINE
  5
68B
330
6B
100
AcDbEntity
  8
0
 62
     3
100
AcDbLine
 10
-483.4687072499646
 20
45.12538952434698
 30
0.0
 11
-483.4687072499646
 21
65.42426604986968
 31
0.0
  0
LINE
  5
68C
330
6B
100
AcDbEntity
  8
0
 62
     3
100
AcDbLine
 10
-574.4091763092807
 20
-14.87573256763876
 30
0.0
 11
-562.4091765158797
 21
-14.87573256763876
 31
0.0
  0
LINE
  5
68D
330
6B
100
AcDbEntity
  8
0
  6
CENTER
 62
     7
100
AcDbLine
 10
-566.394608322264
 20
74.12426590008542
 30
0.0
 11
-564.1531358608546
 21
74.12426590008542
 31
0.0
  0
LINE
  5
68E
330
6B
100
AcDbEntity
  8
0
  6
CENTER
 62
     7
100
AcDbLine
 10
-570.3925701284328
 20
74.12426590008542
 30
0.0
 11
-566.394608322264
 21
74.12426590008542
 31
0.0
  0
LINE
  5
68F
330
6B
100
AcDbEntity
  8
0
  6
CENTER
 62
     7
100
AcDbLine
 10
-570.3925701284328
 20
74.12426590008542
 30
0.0
 11
-572.1896394724934
 21
74.12426590008542
 31
0.0
  0
LINE
  5
690
330
6B
100
AcDbEntity
  8
0
  6
CENTER
 62
     7
100
AcDbLine
 10
-570.5582876255797
 20
-9.875732653721675
 30
0.0
 11
-566.394607697264
 21
-9.875732653721675
 31
0.0
  0
LINE
  5
691
330
6B
100
AcDbEntity
  8
0
  6
CENTER
 62
     7
100
AcDbLine
 10
-431.1211294012111
 20
53.22426625991199
 30
0.0
 11
-431.1211294012111
 21
80.93863515776526
 31
0.0
  0
LINE
  5
692
330
6B
100
AcDbEntity
  8
0
  6
CENTER
 62
     7
100
AcDbLine
 10
-431.1211294012111
 20
51.22426629434515
 30
0.0
 11
-431.1211294012111
 21
-17.10812752920454
 31
0.0
  0
LINE
  5
693
330
6B
100
AcDbEntity
  8
0
 62
     3
100
AcDbLine
 10
-413.6211297025013
 20
1.616002148429926
 30
0.0
 11
-416.6211296508516
 21
1.616002148429926
 31
0.0
  0
LINE
  5
694
330
6B
100
AcDbEntity
  8
0
 62
     3
100
AcDbLine
 10
-419.6211295992019
 20
1.616002148429926
 30
0.0
 11
-422.6211295475521
 21
1.616002148429926
 31
0.0
  0
LINE
  5
695
330
6B
100
AcDbEntity
  8
0
  6
CENTER
 62
     7
100
AcDbLine
 10
-505.5450543698854
 20
74.12426590008542
 30
0.0
 11
-498.5166694908904
 21
74.12426590008542
 31
0.0
  0
LINE
  5
696
330
6B
100
AcDbEntity
  8
0
  6
CENTER
 62
     7
100
AcDbLine
 10
-504.5028681378283
 20
-9.875732653721675
 30
0.0
 11
-499.2127376039062
 21
-9.875732653721675
 31
0.0
  0
LINE
  5
697
330
6B
100
AcDbEntity
  8
0
  6
CENTER
 62
     7
100
AcDbLine
 10
-510.9687067765086
 20
-16.5192450393431
 30
0.0
 11
-510.9687067765086
 21
-14.23520195366651
 31
0.0
  0
LINE
  5
698
330
6B
100
AcDbEntity
  8
0
 62
     7
100
AcDbLine
 10
-571.9482594766494
 20
60.13328364096232
 30
0.0
 11
-570.4282088778191
 21
60.0425123925251
 31
0.0
  0
LINE
  5
699
330
6B
100
AcDbEntity
  8
0
 62
     7
100
AcDbLine
 10
-570.4254463778669
 20
60.04414301749704
 30
0.0
 11
-573.9844944415922
 21
63.60319108122236
 31
0.0
  0
ARC
  5
69A
330
6B
100
AcDbEntity
  8
0
 62
     7
100
AcDbCircle
 10
-568.4091764125802
 20
56.62426620137561
 30
0.0
 40
3.969999931650169
100
AcDbArc
 50
120.5224880000007
 51
239.4775119999992
  0
ARC
  5
69B
330
6B
100
AcDbEntity
  8
0
 62
     7
100
AcDbCircle
 10
-568.4091764125802
 20
56.62426620137561
 30
0.0
 40
8.932499846212879
100
AcDbArc
 50
128.6206300000004
 51
231.3793699999995
  0
LINE
  5
69C
330
6B
100
AcDbEntity
  8
0
 62
     7
100
AcDbLine
 10
-574.0536694404012
 20
62.23869422971436
 30
0.0
 11
-573.9844944415922
 21
63.60319108122236
 31
0.0
  0
LINE
  5
69D
330
6B
100
AcDbEntity
  8
0
 62
     7
100
AcDbLine
 10
-571.9482594766494
 20
53.11524938678889
 30
0.0
 11
-570.4235370028998
 21
53.20629938522131
 31
0.0
  0
LINE
  5
69E
330
6B
100
AcDbEntity
  8
0
 62
     7
100
AcDbLine
 10
-573.9844944415922
 20
49.64534194652884
 30
0.0
 11
-570.4254463778669
 21
53.20439001025418
 31
0.0
  0
LINE
  5
69F
330
6B
100
AcDbEntity
  8
0
 62
     7
100
AcDbLine
 10
-574.0536694404012
 20
51.00983879803686
 30
0.0
 11
-573.9844944415922
 21
49.64534194652884
 31
0.0
  0
LINE
  5
6A0
330
6B
100
AcDbEntity
  8
0
 62
     7
100
AcDbLine
 10
-564.870093973511
 20
60.13328364096232
 30
0.0
 11
-566.3948164472606
 21
60.0422336425299
 31
0.0
  0
LINE
  5
6A1
330
6B
100
AcDbEntity
  8
0
 62
     7
100
AcDbLine
 10
-562.8030858840978
 20
63.57849545664755
 30
0.0
 11
-562.7646833847591
 21
62.23869422971436
 31
0.0
  0
ARC
  5
6A2
330
6B
100
AcDbEntity
  8
0
 62
     7
100
AcDbCircle
 10
-568.4091764125802
 20
56.62426620137561
 30
0.0
 40
3.969999931650169
100
AcDbArc
 50
300.5224880000008
 51
59.47751199999925
  0
LINE
  5
6A3
330
6B
100
AcDbEntity
  8
0
 62
     7
100
AcDbLine
 10
-566.3929070722935
 20
60.04414301749704
 30
0.0
 11
-562.8338590085681
 21
63.60319108122236
 31
0.0
  0
ARC
  5
6A4
330
6B
100
AcDbEntity
  8
0
 62
     7
100
AcDbCircle
 10
-568.4091764125802
 20
56.62426620137561
 30
0.0
 40
8.932499846212879
100
AcDbArc
 50
308.6206300000005
 51
51.37936999999956
  0
LINE
  5
6A5
330
6B
100
AcDbEntity
  8
0
 62
     7
100
AcDbLine
 10
-564.870093973511
 20
53.11524938678889
 30
0.0
 11
-566.3948164472606
 21
53.20629938522131
 31
0.0
  0
LINE
  5
6A6
330
6B
100
AcDbEntity
  8
0
 62
     7
100
AcDbLine
 10
-562.8338590085681
 20
49.64534194652884
 30
0.0
 11
-566.3929070722935
 21
53.20439001025418
 31
0.0
  0
LINE
  5
6A7
330
6B
100
AcDbEntity
  8
0
 62
     7
100
AcDbLine
 10
-562.7646833847591
 20
51.00983879803686
 30
0.0
 11
-562.8046315090712
 21
49.61611444703204
 31
0.0
  0
LINE
  5
6A8
330
6B
100
AcDbEntity
  8
0
 62
     7
100
AcDbLine
 10
-562.2741665182039
 20
46.19757200588765
 30
0.0
 11
-561.3331471594052
 21
42.68563956635111
 31
0.0
  0
ARC
  5
6A9
330
6B
100
AcDbEntity
  8
0
 62
     7
100
AcDbCircle
 10
-565.6295508354356
 20
45.2984988963666
 30
0.0
 40
3.473749940193896
100
AcDbArc
 50
14.99999999999902
 51
103.7892660000002
  0
ARC
  5
6AA
330
6B
100
AcDbEntity
  8
0
 62
     7
100
AcDbCircle
 10
-568.4091764125802
 20
56.62426620137561
 30
0.0
 40
8.188124859028473
100
AcDbArc
 50
270.0
 51
283.7892660000002
  0
ARC
  5
6AB
330
6B
100
AcDbEntity
  8
0
 62
     7
100
AcDbCircle
 10
-568.4091764125802
 20
56.62426620137561
 30
0.0
 40
15.63187473087254
100
AcDbArc
 50
270.0
 51
296.9149079999985
  0
LINE
  5
6AC
330
6B
100
AcDbEntity
  8
0
 62
     7
100
AcDbLine
 10
-562.6185046372758
 20
43.44943455320119
 30
0.0
 11
-561.3331471594052
 21
42.68563956635111
 31
0.0
  0
LINE
  5
6AD
330
6B
100
AcDbEntity
  8
0
  6
CENTER
 62
     7
100
AcDbLine
 10
-561.1036871633557
 20
44.81351640471635
 30
0.0
 11
-575.7267550365964
 21
44.81351640471635
 31
0.0
  0
ARC
  5
6AE
330
6B
100
AcDbEntity
  8
0
 62
     7
100
AcDbCircle
 10
-571.1888019897245
 20
45.2984988963666
 30
0.0
 40
3.473749940193896
100
AcDbArc
 50
76.21073399999983
 51
165.0000000000009
  0
ARC
  5
6AF
330
6B
100
AcDbEntity
  8
0
 62
     7
100
AcDbCircle
 10
-568.4091764125802
 20
56.62426620137561
 30
0.0
 40
8.188124859028473
100
AcDbArc
 50
256.2107339999998
 51
270.0
  0
LINE
  5
6B0
330
6B
100
AcDbEntity
  8
0
 62
     7
100
AcDbLine
 10
-575.4852062907551
 20
42.68563956635111
 30
0.0
 11
-574.5441869319562
 21
46.19757200588765
 31
0.0
  0
ARC
  5
6B1
330
6B
100
AcDbEntity
  8
0
 62
     7
100
AcDbCircle
 10
-568.4091764125802
 20
56.62426620137561
 30
0.0
 40
15.63187473087254
100
AcDbArc
 50
243.0850920000015
 51
270.0
  0
LINE
  5
6B2
330
6B
100
AcDbEntity
  8
0
 62
     7
100
AcDbLine
 10
-574.1998481878846
 20
43.44943455320119
 30
0.0
 11
-575.4852062907551
 21
42.68563956635111
 31
0.0
  0
LINE
  5
6B3
330
6B
100
AcDbEntity
  8
0
 62
     7
100
AcDbLine
 10
-570.4254463778669
 20
21.04414368894373
 30
0.0
 11
-573.9844944415922
 21
24.60319175266909
 31
0.0
  0
ARC
  5
6B4
330
6B
100
AcDbEntity
  8
0
 62
     7
100
AcDbCircle
 10
-568.4091764125802
 20
17.62426687282232
 30
0.0
 40
8.932499846212879
100
AcDbArc
 50
128.6206300000004
 51
231.3793699999995
  0
LINE
  5
6B5
330
6B
100
AcDbEntity
  8
0
 62
     7
100
AcDbLine
 10
-574.0536694404012
 20
23.23869490116106
 30
0.0
 11
-573.9844944415922
 21
24.60319175266909
 31
0.0
  0
LINE
  5
6B6
330
6B
100
AcDbEntity
  8
0
 62
     7
100
AcDbLine
 10
-571.9482594766494
 20
21.13328431240903
 30
0.0
 11
-570.4282088778191
 21
21.0425130639718
 31
0.0
  0
ARC
  5
6B7
330
6B
100
AcDbEntity
  8
0
 62
     7
100
AcDbCircle
 10
-568.4091764125802
 20
17.62426687282232
 30
0.0
 40
3.969999931650169
100
AcDbArc
 50
120.5224880000007
 51
239.4775119999992
  0
LINE
  5
6B8
330
6B
100
AcDbEntity
  8
0
 62
     7
100
AcDbLine
 10
-571.9482594766494
 20
14.11525005823559
 30
0.0
 11
-570.4235370028998
 21
14.20630005666802
 31
0.0
  0
LINE
  5
6B9
330
6B
100
AcDbEntity
  8
0
 62
     7
100
AcDbLine
 10
-573.9844944415922
 20
10.64534261797554
 30
0.0
 11
-570.4254463778669
 21
14.2043906817009
 31
0.0
  0
LINE
  5
6BA
330
6B
100
AcDbEntity
  8
0
 62
     7
100
AcDbLine
 10
-574.0536694404012
 20
12.00983946948357
 30
0.0
 11
-573.9844944415922
 21
10.64534261797554
 31
0.0
  0
LINE
  5
6BB
330
6B
100
AcDbEntity
  8
0
 62
     7
100
AcDbLine
 10
-564.870093973511
 20
14.11525005823559
 30
0.0
 11
-566.3948164472606
 21
14.20630005666802
 31
0.0
  0
ARC
  5
6BC
330
6B
100
AcDbEntity
  8
0
 62
     7
100
AcDbCircle
 10
-568.4091764125802
 20
17.62426687282232
 30
0.0
 40
3.969999931650169
100
AcDbArc
 50
300.5224880000008
 51
59.47751199999925
  0
LINE
  5
6BD
330
6B
100
AcDbEntity
  8
0
 62
     7
100
AcDbLine
 10
-562.8338590085681
 20
10.64534261797554
 30
0.0
 11
-566.3929070722935
 21
14.2043906817009
 31
0.0
  0
LINE
  5
6BE
330
6B
100
AcDbEntity
  8
0
 62
     7
100
AcDbLine
 10
-562.7646833847591
 20
12.00983946948357
 30
0.0
 11
-562.8046315090712
 21
10.61611511847874
 31
0.0
  0
ARC
  5
6BF
330
6B
100
AcDbEntity
  8
0
 62
     7
100
AcDbCircle
 10
-568.4091764125802
 20
17.62426687282232
 30
0.0
 40
8.932499846212879
100
AcDbArc
 50
308.6206300000005
 51
51.37936999999956
  0
LINE
  5
6C0
330
6B
100
AcDbEntity
  8
0
 62
     7
100
AcDbLine
 10
-562.8030858840978
 20
24.57849612809425
 30
0.0
 11
-562.7646833847591
 21
23.23869490116106
 31
0.0
  0
LINE
  5
6C1
330
6B
100
AcDbEntity
  8
0
 62
     7
100
AcDbLine
 10
-566.3929070722935
 20
21.04414368894373
 30
0.0
 11
-562.8338590085681
 21
24.60319175266909
 31
0.0
  0
LINE
  5
6C2
330
6B
100
AcDbEntity
  8
0
 62
     7
100
AcDbLine
 10
-564.870093973511
 20
21.13328431240903
 30
0.0
 11
-566.3948164472606
 21
21.0422343139766
 31
0.0
  0
ARC
  5
6C3
330
6B
100
AcDbEntity
  8
0
 62
     7
100
AcDbCircle
 10
-565.6295508354356
 20
6.298499567813322
 30
0.0
 40
3.473749940193896
100
AcDbArc
 50
14.99999999999902
 51
103.7892660000002
  0
ARC
  5
6C4
330
6B
100
AcDbEntity
  8
0
 62
     7
100
AcDbCircle
 10
-568.4091764125802
 20
17.62426687282232
 30
0.0
 40
8.188124859028473
100
AcDbArc
 50
270.0
 51
283.7892660000002
  0
ARC
  5
6C5
330
6B
100
AcDbEntity
  8
0
 62
     7
100
AcDbCircle
 10
-571.1888019897245
 20
6.298499567813322
 30
0.0
 40
3.473749940193896
100
AcDbArc
 50
76.21073399999983
 51
165.0000000000009
  0
ARC
  5
6C6
330
6B
100
AcDbEntity
  8
0
 62
     7
100
AcDbCircle
 10
-568.4091764125802
 20
17.62426687282232
 30
0.0
 40
8.188124859028473
100
AcDbArc
 50
256.2107339999998
 51
270.0
  0
LINE
  5
6C7
330
6B
100
AcDbEntity
  8
0
 62
     7
100
AcDbLine
 10
-574.1998481878846
 20
4.449435224647888
 30
0.0
 11
-575.4852062907551
 21
3.68564023779783
 31
0.0
  0
LINE
  5
6C8
330
6B
100
AcDbEntity
  8
0
 62
     7
100
AcDbLine
 10
-575.4852062907551
 20
3.68564023779783
 30
0.0
 11
-574.5441869319562
 21
7.197572677334356
 31
0.0
  0
ARC
  5
6C9
330
6B
100
AcDbEntity
  8
0
 62
     7
100
AcDbCircle
 10
-568.4091764125802
 20
17.62426687282232
 30
0.0
 40
15.63187473087254
100
AcDbArc
 50
243.0850920000015
 51
270.0
  0
LINE
  5
6CA
330
6B
100
AcDbEntity
  8
0
 62
     7
100
AcDbLine
 10
-562.2741665182039
 20
7.197572677334356
 30
0.0
 11
-561.3331471594052
 21
3.68564023779783
 31
0.0
  0
LINE
  5
6CB
330
6B
100
AcDbEntity
  8
0
 62
     7
100
AcDbLine
 10
-562.6185046372758
 20
4.449435224647888
 30
0.0
 11
-561.3331471594052
 21
3.68564023779783
 31
0.0
  0
ARC
  5
6CC
330
6B
100
AcDbEntity
  8
0
 62
     7
100
AcDbCircle
 10
-568.4091764125802
 20
17.62426687282232
 30
0.0
 40
15.63187473087254
100
AcDbArc
 50
270.0
 51
296.9149079999985
  0
CIRCLE
  5
6CF
330
6B
100
AcDbEntity
  8
0
 62
     7
100
AcDbCircle
 10
-532.2781046160294
 20
73.21354341576498
 30
0.0
 40
5.0
  0
TEXT
  5
6D0
330
6B
100
AcDbEntity
  8
0
 62
     4
100
AcDbText
 10
-534.4208945076672
 20
69.96104190946832
 30
0.0
 40
6.299999999999998
  1
3
  7
高6.3
100
AcDbText
  0
CIRCLE
  5
6D3
330
6B
100
AcDbEntity
  8
0
 62
     7
100
AcDbCircle
 10
-543.3114931353743
 20
73.39334341266942
 30
0.0
 40
5.0
  0
TEXT
  5
6D4
330
6B
100
AcDbEntity
  8
0
 62
     4
100
AcDbText
 10
-545.454283027012
 20
70.1408419063728
 30
0.0
 40
6.299999999999998
  1
2
  7
高6.3
100
AcDbText
  0
CIRCLE
  5
6DB
330
6B
100
AcDbEntity
  8
0
 62
     7
100
AcDbCircle
 10
-465.5408297096074
 20
73.39334341266942
 30
0.0
 40
5.0
  0
TEXT
  5
6DC
330
6B
100
AcDbEntity
  8
0
 62
     4
100
AcDbText
 10
-466.6696461534162
 20
70.33375881264877
 30
0.0
 40
6.299999999999998
  1
1
  7
高6.3
100
AcDbText
  0
CIRCLE
  5
6DF
330
6B
100
AcDbEntity
  8
0
 62
     7
100
AcDbCircle
 10
-393.5038816973344
 20
73.39334341266942
 30
0.0
 40
5.0
  0
TEXT
  5
6E0
330
6B
100
AcDbEntity
  8
0
 62
     4
100
AcDbText
 10
-395.6466715889721
 20
70.1408419063728
 30
0.0
 40
6.299999999999998
  1
7
  7
高6.3
100
AcDbText
  0
CIRCLE
  5
6E3
330
6B
100
AcDbEntity
  8
0
 62
     7
100
AcDbCircle
 10
-393.5038816973344
 20
31.72721126078253
 30
0.0
 40
5.0
  0
TEXT
  5
6E4
330
6B
100
AcDbEntity
  8
0
 62
     4
100
AcDbText
 10
-395.6466715889721
 20
28.4747097544859
 30
0.0
 40
6.299999999999998
  1
5
  7
高6.3
100
AcDbText
  0
CIRCLE
  5
6E7
330
6B
100
AcDbEntity
  8
0
 62
     7
100
AcDbCircle
 10
-393.5038816973344
 20
21.21156409476473
 30
0.0
 40
5.0
  0
TEXT
  5
6E8
330
6B
100
AcDbEntity
  8
0
 62
     4
100
AcDbText
 10
-395.6466715889721
 20
17.95906258846809
 30
0.0
 40
6.299999999999998
  1
8
  7
高6.3
100
AcDbText
  0
CIRCLE
  5
6EB
330
6B
100
AcDbEntity
  8
0
 62
     7
100
AcDbCircle
 10
-393.5038816973344
 20
10.64088077730985
 30
0.0
 40
5.0
  0
TEXT
  5
6EC
330
6B
100
AcDbEntity
  8
0
 62
     4
100
AcDbText
 10
-395.6466715889721
 20
7.388379271013213
 30
0.0
 40
6.299999999999998
  1
9
  7
高6.3
100
AcDbText
  0
CIRCLE
  5
6EF
330
6B
100
AcDbEntity
  8
0
 62
     7
100
AcDbCircle
 10
-393.5038816973344
 20
-1.741517759507565
 30
0.0
 40
5.0
  0
TEXT
  5
6F0
330
6B
100
AcDbEntity
  8
0
 62
     4
100
AcDbText
 10
-395.6466715889721
 20
-4.994019265804205
 30
0.0
 40
6.299999999999998
  1
4
  7
高6.3
100
AcDbText
  0
CIRCLE
  5
6F3
330
6B
100
AcDbEntity
  8
0
 62
     7
100
AcDbCircle
 10
-393.5038816973344
 20
-12.39665136032007
 30
0.0
 40
5.0
  0
TEXT
  5
6F4
330
6B
100
AcDbEntity
  8
0
 62
     4
100
AcDbText
 10
-395.6466715889721
 20
-15.6491528666167
 30
0.0
 40
6.299999999999998
  1
6
  7
高6.3
100
AcDbText
  0
ARC
  5
6F9
330
6B
100
AcDbEntity
  8
0
 62
     3
100
AcDbCircle
 10
-415.1211296766764
 20
30.62538977398741
 30
0.0
 40
0.9999999827834178
100
AcDbArc
 50
0.0
 51
90.0
  0
ARC
  5
6FA
330
6B
100
AcDbEntity
  8
0
 62
     3
100
AcDbCircle
 10
-447.1211291257458
 20
43.62538955017185
 30
0.0
 40
0.9999999827834178
100
AcDbArc
 50
180.0
 51
270.0
  0
ARC
  5
6FB
330
6B
100
AcDbEntity
  8
0
 62
     3
100
AcDbCircle
 10
-447.1211291257458
 20
30.62538977398741
 30
0.0
 40
0.9999999827834178
100
AcDbArc
 50
90.0
 51
180.0
  0
ARC
  5
6FC
330
6B
100
AcDbEntity
  8
0
 62
     3
100
AcDbCircle
 10
-412.1211297283261
 20
10.42426699678171
 30
0.0
 40
0.9999999827834178
100
AcDbArc
 50
0.0
 51
90.0
  0
LINE
  5
6FD
330
6B
100
AcDbEntity
  8
0
 62
     3
100
AcDbLine
 10
-412.1211297283261
 20
11.42426697956512
 30
0.0
 11
-413.1211297111097
 21
11.42426697956512
 31
0.0
  0
ARC
  5
6FE
330
6B
100
AcDbEntity
  8
0
 62
     3
100
AcDbCircle
 10
-413.1211297111097
 20
12.42426696234854
 30
0.0
 40
0.9999999827834178
100
AcDbArc
 50
180.0
 51
270.0
  0
LINE
  5
6FF
330
6B
100
AcDbEntity
  8
0
 62
     3
100
AcDbLine
 10
-438.7211292703652
 20
61.82092923690682
 30
0.0
 11
-438.7211292703652
 21
63.82092920247367
 31
0.0
  0
ARC
  5
700
330
6B
100
AcDbEntity
  8
0
 62
     3
100
AcDbCircle
 10
-440.2211292445403
 20
63.82092920247367
 30
0.0
 40
1.499999974175126
100
AcDbArc
 50
0.0
 51
180.0
  0
LINE
  5
701
330
6B
100
AcDbEntity
  8
0
 62
     3
100
AcDbLine
 10
-441.7211292187153
 20
61.82092923690682
 30
0.0
 11
-441.7211292187153
 21
63.82092920247367
 31
0.0
  0
ARC
  5
702
330
6B
100
AcDbEntity
  8
0
 62
     3
100
AcDbCircle
 10
-440.2211292445403
 20
61.82092923690682
 30
0.0
 40
1.499999974175126
100
AcDbArc
 50
180.0
 51
0.0
  0
LINE
  5
703
330
6B
100
AcDbEntity
  8
0
 62
     3
100
AcDbLine
 10
-438.7211292703652
 20
2.424267134514365
 30
0.0
 11
-438.7211292703652
 21
0.4242671689475303
 31
0.0
  0
ARC
  5
704
330
6B
100
AcDbEntity
  8
0
 62
     3
100
AcDbCircle
 10
-440.2211292445403
 20
2.424267134514365
 30
0.0
 40
1.499999974175126
100
AcDbArc
 50
0.0
 51
180.0
  0
LINE
  5
705
330
6B
100
AcDbEntity
  8
0
 62
     3
100
AcDbLine
 10
-441.7211292187153
 20
2.424267134514365
 30
0.0
 11
-441.7211292187153
 21
0.4242671689475303
 31
0.0
  0
ARC
  5
706
330
6B
100
AcDbEntity
  8
0
 62
     3
100
AcDbCircle
 10
-440.2211292445403
 20
0.4242671689475303
 30
0.0
 40
1.499999974175126
100
AcDbArc
 50
180.0
 51
0.0
  0
ARC
  5
707
330
6B
100
AcDbEntity
  8
0
 62
     3
100
AcDbCircle
 10
-481.9687072757897
 20
-0.5757328138358915
 30
0.0
 40
0.499999991391709
100
AcDbArc
 50
270.0
 51
0.0
  0
LINE
  5
708
330
6B
100
AcDbEntity
  8
0
 62
     3
100
AcDbLine
 10
-481.4687072843979
 20
-0.5757328138358915
 30
0.0
 11
-481.4687072843979
 21
3.424267117297779
 31
0.0
  0
ARC
  5
709
330
6B
100
AcDbEntity
  8
0
 62
     3
100
AcDbCircle
 10
-481.9687072757897
 20
3.424267117297779
 30
0.0
 40
0.499999991391709
100
AcDbArc
 50
0.0
 51
90.0
  0
LINE
  5
70A
330
6B
100
AcDbEntity
  8
0
 62
     3
100
AcDbLine
 10
-481.9687072757897
 20
3.924267108689491
 30
0.0
 11
-483.4687072499646
 21
3.924267108689491
 31
0.0
  0
ARC
  5
70B
330
6B
100
AcDbEntity
  8
0
 62
     3
100
AcDbCircle
 10
-481.9687072757897
 20
60.82426612906597
 30
0.0
 40
0.499999991391709
100
AcDbArc
 50
270.0
 51
0.0
  0
LINE
  5
70C
330
6B
100
AcDbEntity
  8
0
 62
     3
100
AcDbLine
 10
-481.4687072843979
 20
64.82426606019965
 30
0.0
 11
-481.4687072843979
 21
60.82426612906597
 31
0.0
  0
LINE
  5
70D
330
6B
100
AcDbEntity
  8
0
 62
     3
100
AcDbLine
 10
-481.9687072757897
 20
60.32426613767426
 30
0.0
 11
-483.4687072499646
 21
60.32426613767426
 31
0.0
  0
ARC
  5
70E
330
6B
100
AcDbEntity
  8
0
 62
     3
100
AcDbCircle
 10
-481.9687072757897
 20
64.82426606019965
 30
0.0
 40
0.499999991391709
100
AcDbArc
 50
0.0
 51
90.0
  0
LINE
  5
70F
330
6B
100
AcDbEntity
  8
0
 62
     3
100
AcDbLine
 10
-448.1211291085292
 20
63.3242660860245
 30
0.0
 11
-448.1211291085292
 21
43.12538955878014
 31
0.0
  0
ARC
  5
710
330
6B
100
AcDbEntity
  8
0
 62
     3
100
AcDbCircle
 10
-446.1211291429623
 20
63.3242660860245
 30
0.0
 40
1.999999965566835
100
AcDbArc
 50
90.0
 51
180.0
  0
ARC
  5
711
330
6B
100
AcDbEntity
  8
0
 62
     3
100
AcDbCircle
 10
-416.1211296594598
 20
63.3242660860245
 30
0.0
 40
1.999999965566835
100
AcDbArc
 50
0.0
 51
90.0
  0
ARC
  5
712
330
6B
100
AcDbEntity
  8
0
 62
     3
100
AcDbCircle
 10
-415.1211296766764
 20
43.62538955017185
 30
0.0
 40
0.9999999827834178
100
AcDbArc
 50
270.0
 51
0.0
  0
LINE
  5
713
330
6B
100
AcDbEntity
  8
0
 62
     3
100
AcDbLine
 10
-411.1211297455429
 20
0.9242671603392338
 30
0.0
 11
-411.1211297455429
 21
10.47426699592088
 31
0.0
  0
ARC
  5
714
330
6B
100
AcDbEntity
  8
0
 62
     3
100
AcDbCircle
 10
-413.1211297111097
 20
0.9242671603392338
 30
0.0
 40
1.999999965566835
100
AcDbArc
 50
270.0
 51
0.0
  0
ARC
  5
715
330
6B
100
AcDbEntity
  8
0
 62
     3
100
AcDbCircle
 10
-446.1211291429623
 20
0.9242671603392338
 30
0.0
 40
1.999999965566835
100
AcDbArc
 50
180.0
 51
270.0
  0
LINE
  5
716
330
6B
100
AcDbEntity
  8
0
 62
     3
100
AcDbLine
 10
-496.9687070175409
 20
65.32426605159137
 30
0.0
 11
-496.9687070175409
 21
-1.075732805227597
 31
0.0
  0
LINE
  5
717
330
6B
100
AcDbEntity
  8
0
 62
     3
100
AcDbLine
 10
-490.7687071242836
 20
42.32538957255339
 30
0.0
 11
-486.9687071897066
 21
42.32538957255339
 31
0.0
  0
LINE
  5
718
330
6B
100
AcDbEntity
  8
0
 62
     3
100
AcDbLine
 10
-422.6211295475521
 20
1.974267142261821
 30
0.0
 11
-422.6211295475521
 21
-1.075732805227597
 31
0.0
  0
ARC
  5
719
330
6B
100
AcDbEntity
  8
0
 62
     3
100
AcDbCircle
 10
-421.121129573377
 20
1.974267142261821
 30
0.0
 40
1.499999974175126
100
AcDbArc
 50
0.0
 51
180.0
  0
LINE
  5
71A
330
6B
100
AcDbEntity
  8
0
 62
     3
100
AcDbLine
 10
-419.6211295992019
 20
-1.075732805227597
 30
0.0
 11
-419.6211295992019
 21
1.974267142261821
 31
0.0
  0
LINE
  5
71B
330
6B
100
AcDbEntity
  8
0
 62
     3
100
AcDbLine
 10
-416.6211296508516
 20
1.974267142261821
 30
0.0
 11
-416.6211296508516
 21
-1.075732805227597
 31
0.0
  0
ARC
  5
71C
330
6B
100
AcDbEntity
  8
0
 62
     3
100
AcDbCircle
 10
-415.1211296766764
 20
1.974267142261821
 30
0.0
 40
1.499999974175126
100
AcDbArc
 50
0.0
 51
180.0
  0
LINE
  5
71D
330
6B
100
AcDbEntity
  8
0
 62
     3
100
AcDbLine
 10
-413.6211297025013
 20
1.974267142261821
 30
0.0
 11
-413.6211297025013
 21
-1.075732805227597
 31
0.0
  0
ARC
  5
71E
330
6B
100
AcDbEntity
  8
0
 62
     3
100
AcDbCircle
 10
-422.021129557882
 20
63.82092920247367
 30
0.0
 40
1.499999974175126
100
AcDbArc
 50
0.0
 51
180.0
  0
LINE
  5
71F
330
6B
100
AcDbEntity
  8
0
 62
     3
100
AcDbLine
 10
-420.5211295837068
 20
61.82092923690682
 30
0.0
 11
-420.5211295837068
 21
63.82092920247367
 31
0.0
  0
ARC
  5
720
330
6B
100
AcDbEntity
  8
0
 62
     3
100
AcDbCircle
 10
-422.021129557882
 20
61.82092923690682
 30
0.0
 40
1.499999974175126
100
AcDbArc
 50
180.0
 51
0.0
  0
LINE
  5
721
330
6B
100
AcDbEntity
  8
0
 62
     3
100
AcDbLine
 10
-423.5211295320572
 20
61.82092923690682
 30
0.0
 11
-423.5211295320572
 21
63.82092920247367
 31
0.0
  0
LINE
  5
722
330
6B
100
AcDbEntity
  8
0
 62
     3
100
AcDbLine
 10
-490.7687071242836
 20
31.92538975160586
 30
0.0
 11
-486.9687071897066
 21
31.92538975160586
 31
0.0
  0
LINE
  5
723
330
6B
100
AcDbEntity
  8
0
 62
     3
100
AcDbLine
 10
-445.121129160179
 20
42.62538956738842
 30
0.0
 11
-445.121129160179
 21
31.62538975677083
 31
0.0
  0
LINE
  5
724
330
6B
100
AcDbEntity
  8
0
 62
     3
100
AcDbLine
 10
-447.1211291257458
 20
32.12538974816254
 30
0.0
 11
-445.121129160179
 21
32.12538974816254
 31
0.0
  0
ARC
  5
725
330
6B
100
AcDbEntity
  8
0
 62
     3
100
AcDbCircle
 10
-447.1211291257458
 20
31.12538976537912
 30
0.0
 40
0.9999999827834178
100
AcDbArc
 50
90.0
 51
180.0
  0
LINE
  5
726
330
6B
100
AcDbEntity
  8
0
 62
     3
100
AcDbLine
 10
-447.1211291257458
 20
42.12538957599671
 30
0.0
 11
-445.121129160179
 21
42.12538957599671
 31
0.0
  0
ARC
  5
727
330
6B
100
AcDbEntity
  8
0
 62
     3
100
AcDbCircle
 10
-447.1211291257458
 20
43.12538955878014
 30
0.0
 40
0.9999999827834178
100
AcDbArc
 50
180.0
 51
270.0
  0
LINE
  5
728
330
6B
100
AcDbEntity
  8
0
 62
     3
100
AcDbLine
 10
-415.1211296766764
 20
32.12538974816254
 30
0.0
 11
-417.1211296422431
 21
32.12538974816254
 31
0.0
  0
ARC
  5
729
330
6B
100
AcDbEntity
  8
0
 62
     3
100
AcDbCircle
 10
-415.1211296766764
 20
31.12538976537912
 30
0.0
 40
0.9999999827834178
100
AcDbArc
 50
0.0
 51
90.0
  0
ARC
  5
72A
330
6B
100
AcDbEntity
  8
0
 62
     3
100
AcDbCircle
 10
-415.1211296766764
 20
43.12538955878014
 30
0.0
 40
0.9999999827834178
100
AcDbArc
 50
270.0
 51
0.0
  0
LINE
  5
72B
330
6B
100
AcDbEntity
  8
0
 62
     3
100
AcDbLine
 10
-415.1211296766764
 20
42.12538957599671
 30
0.0
 11
-417.1211296422431
 21
42.12538957599671
 31
0.0
  0
LINE
  5
72C
330
6B
100
AcDbEntity
  8
0
 62
     3
100
AcDbLine
 10
-481.4687072843979
 20
42.62538956738842
 30
0.0
 11
-496.9687070175409
 21
42.12538957599671
 31
0.0
  0
LINE
  5
72D
330
6B
100
AcDbEntity
  8
0
 62
     3
100
AcDbLine
 10
-481.4687072843979
 20
31.62538975677083
 30
0.0
 11
-496.9687070175409
 21
32.12538974816254
 31
0.0
  0
LINE
  5
72E
330
6B
100
AcDbEntity
  8
0
 62
     3
100
AcDbLine
 10
-448.1211291085292
 20
29.12538979981228
 30
0.0
 11
-448.1211291085292
 21
0.9242671603392338
 31
0.0
  0
LINE
  5
72F
330
6B
100
AcDbEntity
  8
0
 62
     3
100
AcDbLine
 10
-448.1211291085292
 20
29.12538979981228
 30
0.0
 11
-448.1211291085292
 21
31.12538976537912
 31
0.0
  0
LINE
  5
730
330
6B
100
AcDbEntity
  8
0
 62
     3
100
AcDbLine
 10
-414.1211296938931
 20
12.42426696234854
 30
0.0
 11
-414.1211296938931
 21
31.12538976537912
 31
0.0
  0
ARC
  5
731
330
6B
100
AcDbEntity
  8
0
 62
     3
100
AcDbCircle
 10
-414.6211296852846
 20
29.62538979120399
 30
0.0
 40
0.499999991391709
100
AcDbArc
 50
270.0
 51
0.0
  0
LINE
  5
732
330
6B
100
AcDbEntity
  8
0
 62
     3
100
AcDbLine
 10
-414.1211296938931
 20
63.3242660860245
 30
0.0
 11
-414.1211296938931
 21
43.12538955878014
 31
0.0
  0
ARC
  5
733
330
6B
100
AcDbEntity
  8
0
 62
     3
100
AcDbCircle
 10
-414.6211296852846
 20
44.62538953295525
 30
0.0
 40
0.499999991391709
100
AcDbArc
 50
0.0
 51
90.0
  0
LINE
  5
734
330
6B
100
AcDbEntity
  8
0
 62
     3
100
AcDbLine
 10
-417.1211296422431
 20
42.62538956738842
 30
0.0
 11
-417.1211296422431
 21
31.62538975677083
 31
0.0
  0
ARC
  5
735
330
6B
100
AcDbEntity
  8
0
 62
     3
100
AcDbCircle
 10
-483.9687072413565
 20
64.82426606019965
 30
0.0
 40
0.499999991391709
100
AcDbArc
 50
0.0
 51
90.0
  0
LINE
  5
736
330
6B
100
AcDbEntity
  8
0
 62
     3
100
AcDbLine
 10
-481.4687072843979
 20
44.62538953295525
 30
0.0
 11
-481.4687072843979
 21
29.62538979120399
 31
0.0
  0
ARC
  5
737
330
6B
100
AcDbEntity
  8
0
 62
     3
100
AcDbCircle
 10
-481.9687072757897
 20
44.62538953295525
 30
0.0
 40
0.499999991391709
100
AcDbArc
 50
0.0
 51
90.0
  0
LINE
  5
738
330
6B
100
AcDbEntity
  8
0
 62
     3
100
AcDbLine
 10
-481.9687072757897
 20
45.12538952434698
 30
0.0
 11
-483.4687072499646
 21
45.12538952434698
 31
0.0
  0
LINE
  5
739
330
6B
100
AcDbEntity
  8
0
 62
     3
100
AcDbLine
 10
-481.9687072757897
 20
29.12538979981228
 30
0.0
 11
-483.4687072499646
 21
29.12538979981228
 31
0.0
  0
ARC
  5
73A
330
6B
100
AcDbEntity
  8
0
 62
     3
100
AcDbCircle
 10
-481.9687072757897
 20
29.62538979120399
 30
0.0
 40
0.499999991391709
100
AcDbArc
 50
270.0
 51
0.0
  0
LINE
  5
73B
330
6B
100
AcDbEntity
  8
0
 62
     3
100
AcDbLine
 10
-494.5912064334732
 20
34.62538970512109
 30
0.0
 11
-496.9687070175409
 21
34.62538970512109
 31
0.0
  0
LINE
  5
73C
330
6B
100
AcDbEntity
  8
0
 62
     3
100
AcDbLine
 10
-494.5912064334732
 20
39.62538961903817
 30
0.0
 11
-496.9687070175409
 21
39.62538961903817
 31
0.0
  0
LINE
  5
73D
330
6B
100
AcDbEntity
  8
0
 62
     3
100
AcDbLine
 10
-481.9687072757897
 20
65.32426605159137
 30
0.0
 11
-496.9687070175409
 21
65.32426605159137
 31
0.0
  0
LINE
  5
73E
330
6B
100
AcDbEntity
  8
0
 62
     3
100
AcDbLine
 10
-486.9687071897066
 20
42.46409957016529
 30
0.0
 11
-486.9687071897066
 21
31.78668037899396
 31
0.0
  0
ARC
  5
73F
330
6B
100
AcDbEntity
  8
0
 62
     3
100
AcDbCircle
 10
-483.9687072413565
 20
-0.5757328138358915
 30
0.0
 40
0.499999991391709
100
AcDbArc
 50
270.0
 51
0.0
  0
LINE
  5
740
330
6B
100
AcDbEntity
  8
0
 62
     3
100
AcDbLine
 10
-481.9687072757897
 20
-1.075732805227597
 30
0.0
 11
-496.9687070175409
 21
-1.075732805227597
 31
0.0
  0
LINE
  5
741
330
6B
100
AcDbEntity
  8
0
 62
     3
100
AcDbLine
 10
-448.1211291085292
 20
45.12538952434698
 30
0.0
 11
-439.2211292617568
 21
45.12538952434698
 31
0.0
  0
LINE
  5
742
330
6B
100
AcDbEntity
  8
0
 62
     3
100
AcDbLine
 10
-448.1211291085292
 20
29.12538979981228
 30
0.0
 11
-439.2211292617568
 21
29.12538979981228
 31
0.0
  0
LINE
  5
743
330
6B
100
AcDbEntity
  8
0
 62
     3
100
AcDbLine
 10
-438.7211292703652
 20
44.62538953295525
 30
0.0
 11
-438.7211292703652
 21
29.62538979120399
 31
0.0
  0
ARC
  5
744
330
6B
100
AcDbEntity
  8
0
 62
     3
100
AcDbCircle
 10
-439.2211292617568
 20
44.62538953295525
 30
0.0
 40
0.499999991391709
100
AcDbArc
 50
0.0
 51
90.0
  0
ARC
  5
745
330
6B
100
AcDbEntity
  8
0
 62
     3
100
AcDbCircle
 10
-439.2211292617568
 20
29.62538979120399
 30
0.0
 40
0.499999991391709
100
AcDbArc
 50
270.0
 51
0.0
  0
LINE
  5
746
330
6B
100
AcDbEntity
  8
0
 62
     3
100
AcDbLine
 10
-447.1211291257458
 20
42.62538956738842
 30
0.0
 11
-445.121129160179
 21
42.62538956738842
 31
0.0
  0
LINE
  5
747
330
6B
100
AcDbEntity
  8
0
 62
     3
100
AcDbLine
 10
-447.1211291257458
 20
31.62538975677083
 30
0.0
 11
-445.121129160179
 21
31.62538975677083
 31
0.0
  0
LINE
  5
748
330
6B
100
AcDbEntity
  8
0
 62
     3
100
AcDbLine
 10
-417.1211296422431
 20
31.62538975677083
 30
0.0
 11
-414.971129679259
 21
31.62538975677083
 31
0.0
  0
LINE
  5
749
330
6B
100
AcDbEntity
  8
0
 62
     3
100
AcDbLine
 10
-417.1211296422431
 20
42.62538956738842
 30
0.0
 11
-414.971129679259
 21
42.62538956738842
 31
0.0
  0
ARC
  5
74A
330
6B
100
AcDbEntity
  8
0
 62
     3
100
AcDbCircle
 10
-423.0211295406655
 20
44.62538953295525
 30
0.0
 40
0.499999991391709
100
AcDbArc
 50
90.0
 51
180.0
  0
LINE
  5
74B
330
6B
100
AcDbEntity
  8
0
 62
     3
100
AcDbLine
 10
-423.5211295320572
 20
44.62538953295525
 30
0.0
 11
-423.5211295320572
 21
29.62538979120399
 31
0.0
  0
ARC
  5
74C
330
6B
100
AcDbEntity
  8
0
 62
     3
100
AcDbCircle
 10
-423.0211295406655
 20
29.62538979120399
 30
0.0
 40
0.499999991391709
100
AcDbArc
 50
180.0
 51
270.0
  0
LINE
  5
74D
330
6B
100
AcDbEntity
  8
0
 62
     3
100
AcDbLine
 10
-414.6211296852846
 20
29.12538979981228
 30
0.0
 11
-423.0211295406655
 21
29.12538979981228
 31
0.0
  0
LINE
  5
74E
330
6B
100
AcDbEntity
  8
0
 62
     3
100
AcDbLine
 10
-414.6211296852846
 20
45.12538952434698
 30
0.0
 11
-423.0211295406655
 21
45.12538952434698
 31
0.0
  0
ARC
  5
74F
330
6B
100
AcDbEntity
  8
0
 62
     3
100
AcDbCircle
 10
-568.4091764125802
 20
51.62426628745852
 30
0.0
 40
16.74999971162225
100
AcDbArc
 50
304.8254599999996
 51
54.87616500000005
  0
LINE
  5
750
330
6B
100
AcDbEntity
  8
0
 62
     3
100
AcDbLine
 10
-558.8436134522663
 20
37.87426652418653
 30
0.0
 11
-577.9747393728938
 21
37.87426652418653
 31
0.0
  0
ARC
  5
751
330
6B
100
AcDbEntity
  8
0
 62
     3
100
AcDbCircle
 10
-568.4091764125802
 20
51.62426628745852
 30
0.0
 40
16.74999971162225
100
AcDbArc
 50
125.1238349999999
 51
235.1745400000004
  0
LINE
  5
752
330
6B
100
AcDbEntity
  8
0
 62
     3
100
AcDbLine
 10
-558.8436134522663
 20
26.37426672217723
 30
0.0
 11
-577.9747393728938
 21
26.37426672217723
 31
0.0
  0
ARC
  5
753
330
6B
100
AcDbEntity
  8
0
 62
     3
100
AcDbCircle
 10
-568.4091764125802
 20
12.62426695890523
 30
0.0
 40
16.74999971162225
100
AcDbArc
 50
304.8254599999996
 51
55.17454000000044
  0
ARC
  5
754
330
6B
100
AcDbEntity
  8
0
 62
     3
100
AcDbCircle
 10
-568.4091764125802
 20
12.62426695890523
 30
0.0
 40
16.74999971162225
100
AcDbArc
 50
124.8254599999996
 51
235.1745400000004
  0
ARC
  5
755
330
6B
100
AcDbEntity
  8
0
 62
     3
100
AcDbCircle
 10
-503.4687069056331
 20
37.37426653279482
 30
0.0
 40
0.499999991391709
100
AcDbArc
 50
0.0
 51
90.0
  0
LINE
  5
756
330
6B
100
AcDbEntity
  8
0
 62
     3
100
AcDbLine
 10
-502.9687069142414
 20
-1.075732805227597
 30
0.0
 11
-502.9687069142414
 21
65.29962605201558
 31
0.0
  0
ARC
  5
757
330
6B
100
AcDbEntity
  8
0
 62
     3
100
AcDbCircle
 10
-503.4687069056331
 20
26.87426671356893
 30
0.0
 40
0.499999991391709
100
AcDbArc
 50
270.0
 51
0.0
  0
LINE
  5
758
330
6B
100
AcDbEntity
  8
0
 62
     3
100
AcDbLine
 10
-503.4687069056331
 20
26.37426672217723
 30
0.0
 11
-507.4687068367668
 21
26.37426672217723
 31
0.0
  0
ARC
  5
759
330
6B
100
AcDbEntity
  8
0
 62
     3
100
AcDbCircle
 10
-507.4687068367668
 20
25.87426673078552
 30
0.0
 40
0.499999991391709
100
AcDbArc
 50
90.0
 51
180.0
  0
LINE
  5
75A
330
6B
100
AcDbEntity
  8
0
 62
     3
100
AcDbLine
 10
-507.9687068281584
 20
-0.5757328138358915
 30
0.0
 11
-507.9687068281584
 21
25.87426673078552
 31
0.0
  0
ARC
  5
75B
330
6B
100
AcDbEntity
  8
0
 62
     3
100
AcDbCircle
 10
-507.4687068367668
 20
-0.5757328138358915
 30
0.0
 40
0.499999991391709
100
AcDbArc
 50
180.0
 51
270.0
  0
LINE
  5
75C
330
6B
100
AcDbEntity
  8
0
 62
     3
100
AcDbLine
 10
-507.4687068367668
 20
-1.075732805227597
 30
0.0
 11
-496.9687070175409
 21
-1.075732805227597
 31
0.0
  0
LINE
  5
75D
330
6B
100
AcDbEntity
  8
0
 62
     3
100
AcDbLine
 10
-507.9687068281584
 20
64.87426605933882
 30
0.0
 11
-507.9687068281584
 21
38.37426651557823
 31
0.0
  0
ARC
  5
75E
330
6B
100
AcDbEntity
  8
0
 62
     3
100
AcDbCircle
 10
-507.4687068367668
 20
38.37426651557823
 30
0.0
 40
0.499999991391709
100
AcDbArc
 50
180.0
 51
270.0
  0
LINE
  5
75F
330
6B
100
AcDbEntity
  8
0
 62
     3
100
AcDbLine
 10
-503.4687069056331
 20
37.87426652418653
 30
0.0
 11
-507.4687068367668
 21
37.87426652418653
 31
0.0
  0
LINE
  5
760
330
6B
100
AcDbEntity
  8
0
 62
     3
100
AcDbLine
 10
-496.9687070175409
 20
65.29962605201558
 30
0.0
 11
-507.4687068367668
 21
65.29962605201558
 31
0.0
  0
ARC
  5
761
330
6B
100
AcDbEntity
  8
0
 62
     3
100
AcDbCircle
 10
-553.4091766708288
 20
0.9242671603392338
 30
0.0
 40
1.999999965566835
100
AcDbArc
 50
270.0
 51
0.0
  0
ARC
  5
762
330
6B
100
AcDbEntity
  8
0
 62
     3
100
AcDbCircle
 10
-586.4091761026817
 20
0.9242671603392338
 30
0.0
 40
1.999999965566835
100
AcDbArc
 50
180.0
 51
270.0
  0
LINE
  5
763
330
6B
100
AcDbEntity
  8
0
 62
     3
100
AcDbLine
 10
-588.4091760682486
 20
10.42426699678171
 30
0.0
 11
-588.4091760682486
 21
0.9242671603392338
 31
0.0
  0
ARC
  5
764
330
6B
100
AcDbEntity
  8
0
 62
     3
100
AcDbCircle
 10
-587.4091760854651
 20
10.42426699678171
 30
0.0
 40
0.9999999827834178
100
AcDbArc
 50
90.0
 51
180.0
  0
LINE
  5
765
330
6B
100
AcDbEntity
  8
0
 62
     3
100
AcDbLine
 10
-587.4091760854651
 20
11.42426697956512
 30
0.0
 11
-586.4091761026817
 21
11.42426697956512
 31
0.0
  0
ARC
  5
766
330
6B
100
AcDbEntity
  8
0
 62
     3
100
AcDbCircle
 10
-586.4091761026817
 20
12.42426696234854
 30
0.0
 40
0.9999999827834178
100
AcDbArc
 50
270.0
 51
0.0
  0
LINE
  5
767
330
6B
100
AcDbEntity
  8
0
 62
     3
100
AcDbLine
 10
-585.4091761198982
 20
63.3242660860245
 30
0.0
 11
-585.4091761198982
 21
12.42426696234854
 31
0.0
  0
ARC
  5
768
330
6B
100
AcDbEntity
  8
0
 62
     3
100
AcDbCircle
 10
-583.4091761543313
 20
63.3242660860245
 30
0.0
 40
1.999999965566835
100
AcDbArc
 50
90.0
 51
180.0
  0
ARC
  5
769
330
6B
100
AcDbEntity
  8
0
 62
     3
100
AcDbCircle
 10
-553.4091766708288
 20
63.3242660860245
 30
0.0
 40
1.999999965566835
100
AcDbArc
 50
0.0
 51
90.0
  0
LINE
  5
76A
330
6B
100
AcDbEntity
  8
0
 62
     3
100
AcDbLine
 10
-551.4091767052621
 20
63.3242660860245
 30
0.0
 11
-551.4091767052621
 21
0.9242671603392338
 31
0.0
  0
ARC
  5
76B
330
6B
100
AcDbEntity
  8
0
 62
     3
100
AcDbCircle
 10
-507.4687068367668
 20
64.87426605933882
 30
0.0
 40
0.499999991391709
100
AcDbArc
 50
90.0
 51
180.0
  0
LINE
  5
76C
330
6B
100
AcDbEntity
  8
0
 62
     3
100
AcDbLine
 10
-575.9091762834557
 20
-1.17573280350594
 30
0.0
 11
-586.9091760940733
 21
-1.17573280350594
 31
0.0
  0
LINE
  5
76D
330
6B
100
AcDbEntity
  8
0
 62
     3
100
AcDbLine
 10
-575.9091762834557
 20
-2.175732786289358
 30
0.0
 11
-586.9091760940733
 21
-2.175732786289358
 31
0.0
  0
LINE
  5
76E
330
6B
100
AcDbEntity
  8
0
 62
     3
100
AcDbLine
 10
-575.9091762834557
 20
75.12426588286884
 30
0.0
 11
-571.9091763523222
 21
79.12426581400251
 31
0.0
  0
LINE
  5
76F
330
6B
100
AcDbEntity
  8
0
 62
     3
100
AcDbLine
 10
-571.9091763523222
 20
79.12426581400251
 30
0.0
 11
-564.9091764728383
 21
79.12426581400251
 31
0.0
  0
LINE
  5
770
330
6B
100
AcDbEntity
  8
0
 62
     3
100
AcDbLine
 10
-564.9091764728383
 20
79.12426581400251
 30
0.0
 11
-560.9091765417046
 21
75.12426588286884
 31
0.0
  0
LINE
  5
771
330
6B
100
AcDbEntity
  8
0
 62
     3
100
AcDbLine
 10
-438.6211292720868
 20
-13.37573259346364
 30
0.0
 11
-438.6211292720868
 21
75.12426588286884
 31
0.0
  0
LINE
  5
772
330
6B
100
AcDbEntity
  8
0
 62
     3
100
AcDbLine
 10
-423.6211295303354
 20
75.12426588286884
 30
0.0
 11
-427.6211294614691
 21
79.12426581400251
 31
0.0
  0
LINE
  5
773
330
6B
100
AcDbEntity
  8
0
 62
     3
100
AcDbLine
 10
-427.6211294614691
 20
79.12426581400251
 30
0.0
 11
-434.6211293409531
 21
79.12426581400251
 31
0.0
  0
LINE
  5
774
330
6B
100
AcDbEntity
  8
0
 62
     3
100
AcDbLine
 10
-434.6211293409531
 20
79.12426581400251
 30
0.0
 11
-438.6211292720868
 21
75.12426588286884
 31
0.0
  0
LINE
  5
775
330
6B
100
AcDbEntity
  8
0
 62
     3
100
AcDbLine
 10
-423.6211295303354
 20
75.12426588286884
 30
0.0
 11
-423.6211295303354
 21
-2.175732786289358
 31
0.0
  0
LINE
  5
776
330
6B
100
AcDbEntity
  8
0
 62
     3
100
AcDbLine
 10
-423.6211295303354
 20
-2.175732786289358
 30
0.0
 11
-423.6211295303354
 21
-13.37573259346364
 31
0.0
  0
LINE
  5
777
330
6B
100
AcDbEntity
  8
0
 62
     3
100
AcDbLine
 10
-574.4091763092807
 20
-14.87573256763876
 30
0.0
 11
-574.4091763092807
 21
-15.87573255042218
 31
0.0
  0
LINE
  5
778
330
6B
100
AcDbEntity
  8
0
 62
     3
100
AcDbLine
 10
-575.9091762834557
 20
-13.37573259346364
 30
0.0
 11
-574.4091763092807
 21
-14.87573256763876
 31
0.0
  0
LINE
  5
779
330
6B
100
AcDbEntity
  8
0
 62
     3
100
AcDbLine
 10
-574.4091763092807
 20
-15.87573255042218
 30
0.0
 11
-562.4091765158797
 21
-15.87573255042218
 31
0.0
  0
LINE
  5
77A
330
6B
100
AcDbEntity
  8
0
 62
     3
100
AcDbLine
 10
-562.4091765158797
 20
-14.87573256763876
 30
0.0
 11
-562.4091765158797
 21
-15.87573255042218
 31
0.0
  0
LINE
  5
77B
330
6B
100
AcDbEntity
  8
0
 62
     3
100
AcDbLine
 10
-560.9091765417046
 20
-13.37573259346364
 30
0.0
 11
-562.4091765158797
 21
-14.87573256763876
 31
0.0
  0
LINE
  5
77C
330
6B
100
AcDbEntity
  8
0
 62
     3
100
AcDbLine
 10
-425.1211295045106
 20
-15.87573255042218
 30
0.0
 11
-437.1211292979117
 21
-15.87573255042218
 31
0.0
  0
LINE
  5
77D
330
6B
100
AcDbEntity
  8
0
 62
     3
100
AcDbLine
 10
-423.6211295303354
 20
-13.37573259346364
 30
0.0
 11
-425.1211295045106
 21
-14.87573256763876
 31
0.0
  0
LINE
  5
77E
330
6B
100
AcDbEntity
  8
0
 62
     3
100
AcDbLine
 10
-425.1211295045106
 20
-14.87573256763876
 30
0.0
 11
-425.1211295045106
 21
-15.87573255042218
 31
0.0
  0
LINE
  5
77F
330
6B
100
AcDbEntity
  8
0
 62
     3
100
AcDbLine
 10
-437.1211292979117
 20
-14.87573256763876
 30
0.0
 11
-437.1211292979117
 21
-15.87573255042218
 31
0.0
  0
LINE
  5
780
330
6B
100
AcDbEntity
  8
0
 62
     3
100
AcDbLine
 10
-438.6211292720868
 20
-13.37573259346364
 30
0.0
 11
-437.1211292979117
 21
-14.87573256763876
 31
0.0
  0
LINE
  5
781
330
6B
100
AcDbEntity
  8
0
 62
     3
100
AcDbLine
 10
-446.1211291429623
 20
65.32426605159137
 30
0.0
 11
-438.6211292720868
 21
65.32426605159137
 31
0.0
  0
LINE
  5
782
330
6B
100
AcDbEntity
  8
0
 62
     3
100
AcDbLine
 10
-423.6211295303354
 20
65.32426605159137
 30
0.0
 11
-416.1211296594598
 21
65.32426605159137
 31
0.0
  0
LINE
  5
783
330
6B
100
AcDbEntity
  8
0
 62
     3
100
AcDbLine
 10
-560.9091765417046
 20
-13.37573259346364
 30
0.0
 11
-560.9091765417046
 21
-1.075732805227597
 31
0.0
  0
LINE
  5
784
330
6B
100
AcDbEntity
  8
0
 62
     3
100
AcDbLine
 10
-560.9091765417046
 20
65.32426605159137
 30
0.0
 11
-560.9091765417046
 21
75.12426588286884
 31
0.0
  0
LINE
  5
785
330
6B
100
AcDbEntity
  8
0
 62
     3
100
AcDbLine
 10
-575.9091762834557
 20
75.12426588286884
 30
0.0
 11
-575.9091762834557
 21
65.32426605159137
 31
0.0
  0
LINE
  5
786
330
6B
100
AcDbEntity
  8
0
 62
     3
100
AcDbLine
 10
-575.9091762834557
 20
-1.075732805227597
 30
0.0
 11
-575.9091762834557
 21
-13.37573259346364
 31
0.0
  0
LINE
  5
787
330
6B
100
AcDbEntity
  8
0
 62
     3
100
AcDbLine
 10
-412.621129719718
 20
-1.075732805227597
 30
0.0
 11
-423.6211295303354
 21
-1.075732805227597
 31
0.0
  0
LINE
  5
788
330
6B
100
AcDbEntity
  8
0
 62
     3
100
AcDbLine
 10
-438.6211292720868
 20
-1.075732805227597
 30
0.0
 11
-446.1211291429623
 21
-1.075732805227597
 31
0.0
  0
LINE
  5
789
330
6B
100
AcDbEntity
  8
0
 62
     3
100
AcDbLine
 10
-412.621129719718
 20
-2.175732786289358
 30
0.0
 11
-412.621129719718
 21
-1.075732805227597
 31
0.0
  0
LINE
  5
78A
330
6B
100
AcDbEntity
  8
0
 62
     3
100
AcDbLine
 10
-438.6211292720868
 20
-2.175732786289358
 30
0.0
 11
-412.621129719718
 21
-2.175732786289358
 31
0.0
  0
LINE
  5
78B
330
6B
100
AcDbEntity
  8
0
 62
     3
100
AcDbLine
 10
-577.4091762576309
 20
-3.675732760464484
 30
0.0
 11
-577.4091762576309
 21
-2.175732786289358
 31
0.0
  0
ARC
  5
78C
330
6B
100
AcDbEntity
  8
0
 62
     3
100
AcDbCircle
 10
-577.9091762490227
 20
-3.675732760464484
 30
0.0
 40
0.499999991391709
100
AcDbArc
 50
270.0
 51
0.0
  0
LINE
  5
78D
330
6B
100
AcDbEntity
  8
0
 62
     3
100
AcDbLine
 10
-584.9091761285064
 20
-4.175732751856195
 30
0.0
 11
-577.9091762490227
 21
-4.175732751856195
 31
0.0
  0
ARC
  5
78E
330
6B
100
AcDbEntity
  8
0
 62
     3
100
AcDbCircle
 10
-584.9091761285064
 20
-3.675732760464484
 30
0.0
 40
0.499999991391709
100
AcDbArc
 50
180.0
 51
270.0
  0
LINE
  5
78F
330
6B
100
AcDbEntity
  8
0
 62
     3
100
AcDbLine
 10
-585.4091761198982
 20
-3.675732760464484
 30
0.0
 11
-585.4091761198982
 21
-2.175732786289358
 31
0.0
  0
LINE
  5
790
330
6B
100
AcDbEntity
  8
0
 62
     3
100
AcDbLine
 10
-586.9091760940733
 20
-2.175732786289358
 30
0.0
 11
-586.9091760940733
 21
-1.17573280350594
 31
0.0
  0
LINE
  5
791
330
6B
100
AcDbEntity
  8
0
 62
     3
100
AcDbLine
 10
-414.1211296938931
 20
-3.675732760464484
 30
0.0
 11
-414.1211296938931
 21
-2.175732786289358
 31
0.0
  0
ARC
  5
792
330
6B
100
AcDbEntity
  8
0
 62
     3
100
AcDbCircle
 10
-414.6211296852846
 20
-3.675732760464484
 30
0.0
 40
0.499999991391709
100
AcDbArc
 50
270.0
 51
0.0
  0
LINE
  5
793
330
6B
100
AcDbEntity
  8
0
 62
     3
100
AcDbLine
 10
-421.6211295647687
 20
-4.175732751856195
 30
0.0
 11
-414.6211296852846
 21
-4.175732751856195
 31
0.0
  0
ARC
  5
794
330
6B
100
AcDbEntity
  8
0
 62
     3
100
AcDbCircle
 10
-421.6211295647687
 20
-3.675732760464484
 30
0.0
 40
0.499999991391709
100
AcDbArc
 50
180.0
 51
270.0
  0
LINE
  5
795
330
6B
100
AcDbEntity
  8
0
 62
     3
100
AcDbLine
 10
-422.1211295561603
 20
-3.675732760464484
 30
0.0
 11
-422.1211295561603
 21
-2.175732786289358
 31
0.0
  0
LINE
  5
796
330
6B
100
AcDbEntity
  8
0
 62
     3
100
AcDbLine
 10
-447.1211291257458
 20
40.62538960182159
 30
0.0
 11
-447.1211291257458
 21
33.62538972233767
 31
0.0
  0
ARC
  5
797
330
6B
100
AcDbEntity
  8
0
 62
     3
100
AcDbCircle
 10
-446.621129134354
 20
40.62538960182159
 30
0.0
 40
0.499999991391709
100
AcDbArc
 50
90.0
 51
180.0
  0
LINE
  5
798
330
6B
100
AcDbEntity
  8
0
 62
     3
100
AcDbLine
 10
-446.621129134354
 20
41.12538959321329
 30
0.0
 11
-445.121129160179
 21
41.12538959321329
 31
0.0
  0
LINE
  5
799
330
6B
100
AcDbEntity
  8
0
 62
     3
100
AcDbLine
 10
-446.621129134354
 20
33.12538973094595
 30
0.0
 11
-445.121129160179
 21
33.12538973094595
 31
0.0
  0
ARC
  5
79A
330
6B
100
AcDbEntity
  8
0
 62
     3
100
AcDbCircle
 10
-446.621129134354
 20
33.62538972233767
 30
0.0
 40
0.499999991391709
100
AcDbArc
 50
180.0
 51
270.0
  0
LINE
  5
79B
330
6B
100
AcDbEntity
  8
0
 62
     3
100
AcDbLine
 10
-415.6211296680681
 20
33.12538973094595
 30
0.0
 11
-417.1211296422431
 21
33.12538973094595
 31
0.0
  0
ARC
  5
79C
330
6B
100
AcDbEntity
  8
0
 62
     3
100
AcDbCircle
 10
-415.6211296680681
 20
33.62538972233767
 30
0.0
 40
0.499999991391709
100
AcDbArc
 50
270.0
 51
0.0
  0
LINE
  5
79D
330
6B
100
AcDbEntity
  8
0
 62
     3
100
AcDbLine
 10
-415.1211296766764
 20
40.62538960182159
 30
0.0
 11
-415.1211296766764
 21
33.62538972233767
 31
0.0
  0
ARC
  5
79E
330
6B
100
AcDbEntity
  8
0
 62
     3
100
AcDbCircle
 10
-415.6211296680681
 20
40.62538960182159
 30
0.0
 40
0.499999991391709
100
AcDbArc
 50
0.0
 51
90.0
  0
LINE
  5
79F
330
6B
100
AcDbEntity
  8
0
 62
     3
100
AcDbLine
 10
-415.6211296680681
 20
41.12538959321329
 30
0.0
 11
-417.1211296422431
 21
41.12538959321329
 31
0.0
  0
LINE
  5
7A0
330
6B
100
AcDbEntity
  8
0
 62
     3
100
AcDbLine
 10
-419.8868252196275
 20
41.41523896322307
 30
0.0
 11
-419.8868252196275
 21
38.83554088263667
 31
0.0
  0
LINE
  5
7A1
330
6B
100
AcDbEntity
  8
0
 62
     3
100
AcDbLine
 10
-442.3554335827947
 20
35.41523906652258
 30
0.0
 11
-442.3554335827947
 21
32.83554098593616
 31
0.0
  0
LINE
  5
7A2
330
6B
100
AcDbEntity
  8
0
 62
     3
100
AcDbLine
 10
-442.3554335827947
 20
41.41523896322307
 30
0.0
 11
-442.3554335827947
 21
38.83554088263667
 31
0.0
  0
ARC
  5
7A3
330
6B
100
AcDbEntity
  8
0
 62
     3
100
AcDbCircle
 10
-568.4392420370626
 20
56.62426620137561
 30
0.0
 40
4.962499914562711
100
AcDbArc
 50
135.0000000000003
 51
224.9999999999997
  0
LINE
  5
7A4
330
6B
100
AcDbEntity
  8
0
 62
     3
100
AcDbLine
 10
-571.9482594766494
 20
60.13328364096232
 30
0.0
 11
-574.0536694404012
 21
62.23869422971436
 31
0.0
  0
ARC
  5
7A5
330
6B
100
AcDbEntity
  8
0
 62
     3
100
AcDbCircle
 10
-568.4392420370626
 20
56.62426620137561
 30
0.0
 40
7.939999863300338
100
AcDbArc
 50
135.0000000000003
 51
224.9999999999997
  0
LINE
  5
7A6
330
6B
100
AcDbEntity
  8
0
 62
     3
100
AcDbLine
 10
-574.0536694404012
 20
51.00983879803686
 30
0.0
 11
-571.9482594766494
 21
53.11524938678889
 31
0.0
  0
LINE
  5
7A7
330
6B
100
AcDbEntity
  8
0
 62
     3
100
AcDbLine
 10
-564.870093973511
 20
60.13328364096232
 30
0.0
 11
-562.7646833847591
 21
62.23869422971436
 31
0.0
  0
ARC
  5
7A8
330
6B
100
AcDbEntity
  8
0
 62
     3
100
AcDbCircle
 10
-568.3791114130977
 20
56.62426620137561
 30
0.0
 40
4.962499914562711
100
AcDbArc
 50
315.0000000000003
 51
44.99999999999968
  0
ARC
  5
7A9
330
6B
100
AcDbEntity
  8
0
 62
     3
100
AcDbCircle
 10
-568.3791114130977
 20
56.62426620137561
 30
0.0
 40
7.939999863300338
100
AcDbArc
 50
315.0000000000003
 51
44.99999999999968
  0
LINE
  5
7AA
330
6B
100
AcDbEntity
  8
0
 62
     3
100
AcDbLine
 10
-562.7646833847591
 20
51.00983879803686
 30
0.0
 11
-564.870093973511
 21
53.11524938678889
 31
0.0
  0
ARC
  5
7AB
330
6B
100
AcDbEntity
  8
0
 62
     3
100
AcDbCircle
 10
-565.6152464606821
 20
45.04661327570322
 30
0.0
 40
2.481249957281355
100
AcDbArc
 50
14.99999999999902
 51
103.5672739999989
  0
ARC
  5
7AC
330
6B
100
AcDbEntity
  8
0
 62
     3
100
AcDbCircle
 10
-568.4091764125802
 20
56.62426620137561
 30
0.0
 40
9.428749837669151
100
AcDbArc
 50
256.4327260000011
 51
283.5672739999989
  0
LINE
  5
7AD
330
6B
100
AcDbEntity
  8
0
 62
     3
100
AcDbLine
 10
-562.6185046372758
 20
43.44943455320119
 30
0.0
 11
-563.2185427519451
 21
45.68880826464681
 31
0.0
  0
ARC
  5
7AE
330
6B
100
AcDbEntity
  8
0
 62
     3
100
AcDbCircle
 10
-568.4091764125802
 20
56.62426620137561
 30
0.0
 40
14.39124975223186
100
AcDbArc
 50
246.2732959999995
 51
293.7267040000005
  0
ARC
  5
7AF
330
6B
100
AcDbEntity
  8
0
 62
     3
100
AcDbCircle
 10
-571.2031069894782
 20
45.04661327570322
 30
0.0
 40
2.481249957281355
100
AcDbArc
 50
76.43272600000113
 51
165.0000000000009
  0
LINE
  5
7B0
330
6B
100
AcDbEntity
  8
0
 62
     3
100
AcDbLine
 10
-574.1998481878846
 20
43.44943455320119
 30
0.0
 11
-573.599810073215
 21
45.68880826464681
 31
0.0
  0
ARC
  5
7B1
330
6B
100
AcDbEntity
  8
0
 62
     3
100
AcDbCircle
 10
-568.4392420370626
 20
17.62426687282232
 30
0.0
 40
4.962499914562711
100
AcDbArc
 50
135.0000000000003
 51
224.9999999999997
  0
LINE
  5
7B2
330
6B
100
AcDbEntity
  8
0
 62
     3
100
AcDbLine
 10
-571.9482594766494
 20
21.13328431240903
 30
0.0
 11
-574.0536694404012
 21
23.23869490116106
 31
0.0
  0
ARC
  5
7B3
330
6B
100
AcDbEntity
  8
0
 62
     3
100
AcDbCircle
 10
-568.4392420370626
 20
17.62426687282232
 30
0.0
 40
7.939999863300338
100
AcDbArc
 50
135.0000000000003
 51
224.9999999999997
  0
LINE
  5
7B4
330
6B
100
AcDbEntity
  8
0
 62
     3
100
AcDbLine
 10
-574.0536694404012
 20
12.00983946948357
 30
0.0
 11
-571.9482594766494
 21
14.11525005823559
 31
0.0
  0
LINE
  5
7B5
330
6B
100
AcDbEntity
  8
0
 62
     3
100
AcDbLine
 10
-562.7646833847591
 20
12.00983946948357
 30
0.0
 11
-564.870093973511
 21
14.11525005823559
 31
0.0
  0
ARC
  5
7B6
330
6B
100
AcDbEntity
  8
0
 62
     3
100
AcDbCircle
 10
-568.3791114130977
 20
17.62426687282232
 30
0.0
 40
4.962499914562711
100
AcDbArc
 50
315.0000000000003
 51
44.99999999999968
  0
ARC
  5
7B7
330
6B
100
AcDbEntity
  8
0
 62
     3
100
AcDbCircle
 10
-568.3791114130977
 20
17.62426687282232
 30
0.0
 40
7.939999863300338
100
AcDbArc
 50
315.0000000000003
 51
44.99999999999968
  0
LINE
  5
7B8
330
6B
100
AcDbEntity
  8
0
 62
     3
100
AcDbLine
 10
-564.870093973511
 20
21.13328431240903
 30
0.0
 11
-562.7646833847591
 21
23.23869490116106
 31
0.0
  0
ARC
  5
7B9
330
6B
100
AcDbEntity
  8
0
 62
     3
100
AcDbCircle
 10
-565.6152464606821
 20
6.046613947149932
 30
0.0
 40
2.481249957281355
100
AcDbArc
 50
14.99999999999902
 51
103.5672739999989
  0
ARC
  5
7BA
330
6B
100
AcDbEntity
  8
0
 62
     3
100
AcDbCircle
 10
-568.4091764125802
 20
17.62426687282232
 30
0.0
 40
9.428749837669151
100
AcDbArc
 50
256.4327260000011
 51
283.5672739999989
  0
ARC
  5
7BB
330
6B
100
AcDbEntity
  8
0
 62
     3
100
AcDbCircle
 10
-571.2031069894782
 20
6.046613947149932
 30
0.0
 40
2.481249957281355
100
AcDbArc
 50
76.43272600000113
 51
165.0000000000009
  0
LINE
  5
7BC
330
6B
100
AcDbEntity
  8
0
 62
     3
100
AcDbLine
 10
-574.1998481878846
 20
4.449435224647888
 30
0.0
 11
-573.599810073215
 21
6.688808936093527
 31
0.0
  0
ARC
  5
7BD
330
6B
100
AcDbEntity
  8
0
 62
     3
100
AcDbCircle
 10
-568.4091764125802
 20
17.62426687282232
 30
0.0
 40
14.39124975223186
100
AcDbArc
 50
246.2732959999995
 51
293.7267040000005
  0
LINE
  5
7BE
330
6B
100
AcDbEntity
  8
0
 62
     3
100
AcDbLine
 10
-562.6185046372758
 20
4.449435224647888
 30
0.0
 11
-563.2185427519451
 21
6.688808936093527
 31
0.0
  0
LINE
  5
7BF
330
6B
100
AcDbEntity
  8
0
 62
     3
100
AcDbLine
 10
-553.4091766708288
 20
-1.075732805227597
 30
0.0
 11
-586.4091761026817
 21
-1.075732805227597
 31
0.0
  0
LINE
  5
7C0
330
6B
100
AcDbEntity
  8
0
 62
     3
100
AcDbLine
 10
-553.4091766708288
 20
65.32426605159137
 30
0.0
 11
-583.4091761543313
 21
65.32426605159137
 31
0.0
  0
CIRCLE
  5
7C1
330
6B
100
AcDbEntity
  8
0
 62
     7
100
AcDbCircle
 10
-431.1211294012111
 20
74.12426590008542
 30
0.0
 40
2.249999961262689
  0
CIRCLE
  5
7C2
330
6B
100
AcDbEntity
  8
0
 62
     7
100
AcDbCircle
 10
-431.1211294012111
 20
74.12426590008542
 30
0.0
 40
1.649999971592639
  0
CIRCLE
  5
7C3
330
6B
100
AcDbEntity
  8
0
 62
     7
100
AcDbCircle
 10
-431.1211294012111
 20
-9.875732653721675
 30
0.0
 40
2.249999961262689
  0
CIRCLE
  5
7C4
330
6B
100
AcDbEntity
  8
0
 62
     7
100
AcDbCircle
 10
-431.1211294012111
 20
-9.875732653721675
 30
0.0
 40
1.649999971592639
  0
CIRCLE
  5
7C5
330
6B
100
AcDbEntity
  8
0
 62
     7
100
AcDbCircle
 10
-418.1211296250267
 20
8.423848281222081
 30
0.0
 40
2.249999961262689
  0
LINE
  5
7C6
330
6B
100
AcDbEntity
  8
0
 62
     7
100
AcDbLine
 10
-419.4711296017842
 20
7.523848296717004
 30
0.0
 11
-416.7711296482691
 21
7.523848296717004
 31
0.0
  0
LINE
  5
7C7
330
6B
100
AcDbEntity
  8
0
 62
     7
100
AcDbLine
 10
-418.1211296250267
 20
8.198848285095811
 30
0.0
 11
-418.1211296250267
 21
10.22384825023223
 31
0.0
  0
LINE
  5
7C8
330
6B
100
AcDbEntity
  8
0
 62
     7
100
AcDbLine
 10
-419.9211295940369
 20
8.198848285095811
 30
0.0
 11
-416.3211296560166
 21
8.198848285095811
 31
0.0
  0
LINE
  5
7C9
330
6B
100
AcDbEntity
  8
0
 62
     7
100
AcDbLine
 10
-418.6836296153424
 20
6.848848308338197
 30
0.0
 11
-417.5586296347111
 21
6.848848308338197
 31
0.0
  0
CIRCLE
  5
7CA
330
6B
100
AcDbEntity
  8
0
 62
     7
100
AcDbCircle
 10
-431.1211294012111
 20
52.22426627712857
 30
0.0
 40
2.999999948350253
  0
CIRCLE
  5
7CB
330
6B
100
AcDbEntity
  8
0
 62
     7
100
AcDbCircle
 10
-431.1211294012111
 20
32.12426662318188
 30
0.0
 40
2.999999948350253
  0
CIRCLE
  5
7CC
330
6B
100
AcDbEntity
  8
0
 62
     7
100
AcDbCircle
 10
-431.1211294012111
 20
13.22426694857528
 30
0.0
 40
2.999999948350253
  0
LINE
  5
7CD
330
6B
100
AcDbEntity
  8
0
 62
     7
100
AcDbLine
 10
-431.0211294029328
 20
31.12426664039846
 30
0.0
 11
-431.0211294029328
 21
33.12426660596529
 31
0.0
  0
LINE
  5
7CE
330
6B
100
AcDbEntity
  8
0
 62
     7
100
AcDbLine
 10
-431.2211293994895
 20
31.12426664039846
 30
0.0
 11
-431.2211293994895
 21
33.12426660596529
 31
0.0
  0
LINE
  5
7CF
330
6B
100
AcDbEntity
  8
0
 62
     7
100
AcDbLine
 10
-432.1211293839946
 20
32.22426662146022
 30
0.0
 11
-430.1211294184278
 21
32.22426662146022
 31
0.0
  0
LINE
  5
7D0
330
6B
100
AcDbEntity
  8
0
 62
     7
100
AcDbLine
 10
-432.1211293839946
 20
32.02426662490353
 30
0.0
 11
-430.1211294184278
 21
32.02426662490353
 31
0.0
  0
LINE
  5
7D1
330
6B
100
AcDbEntity
  8
0
 62
     7
100
AcDbLine
 10
-431.0211294029328
 20
12.22426696579186
 30
0.0
 11
-431.0211294029328
 21
14.22426693135869
 31
0.0
  0
LINE
  5
7D2
330
6B
100
AcDbEntity
  8
0
 62
     7
100
AcDbLine
 10
-431.2211293994895
 20
12.22426696579186
 30
0.0
 11
-431.2211293994895
 21
14.22426693135869
 31
0.0
  0
LINE
  5
7D3
330
6B
100
AcDbEntity
  8
0
 62
     7
100
AcDbLine
 10
-432.1211293839946
 20
13.32426694685362
 30
0.0
 11
-430.1211294184278
 21
13.32426694685362
 31
0.0
  0
LINE
  5
7D4
330
6B
100
AcDbEntity
  8
0
 62
     7
100
AcDbLine
 10
-432.1211293839946
 20
13.12426695029693
 30
0.0
 11
-430.1211294184278
 21
13.12426695029693
 31
0.0
  0
LINE
  5
7D5
330
6B
100
AcDbEntity
  8
0
 62
     7
100
AcDbLine
 10
-432.1211293839946
 20
52.3242662754069
 30
0.0
 11
-430.1211294184278
 21
52.3242662754069
 31
0.0
  0
LINE
  5
7D6
330
6B
100
AcDbEntity
  8
0
 62
     7
100
AcDbLine
 10
-432.1211293839946
 20
52.12426627885022
 30
0.0
 11
-430.1211294184278
 21
52.12426627885022
 31
0.0
  0
LINE
  5
7D7
330
6B
100
AcDbEntity
  8
0
 62
     7
100
AcDbLine
 10
-431.0211294029328
 20
51.22426629434515
 30
0.0
 11
-431.0211294029328
 21
53.22426625991199
 31
0.0
  0
LINE
  5
7D8
330
6B
100
AcDbEntity
  8
0
 62
     7
100
AcDbLine
 10
-431.2211293994895
 20
51.22426629434515
 30
0.0
 11
-431.2211293994895
 21
53.22426625991199
 31
0.0
  0
LINE
  5
7D9
330
6B
100
AcDbEntity
  8
0
 62
     7
100
AcDbLine
 10
-491.3437071143841
 20
41.12538959321329
 30
0.0
 11
-491.3437071143841
 21
33.12538973094595
 31
0.0
  0
LINE
  5
7DA
330
6B
100
AcDbEntity
  8
0
 62
     7
100
AcDbLine
 10
-491.5937071100799
 20
41.12538959321329
 30
0.0
 11
-491.5937071100799
 21
33.12538973094595
 31
0.0
  0
CIRCLE
  5
7DB
330
6B
100
AcDbEntity
  8
0
 62
     7
100
AcDbCircle
 10
-491.4687071122322
 20
37.12538966207964
 30
0.0
 40
3.999999931133671
  0
LINE
  5
7DC
330
6B
100
AcDbEntity
  8
0
 62
     7
100
AcDbLine
 10
-492.9687070864073
 20
37.12538966207964
 30
0.0
 11
-489.968707138057
 21
37.12538966207964
 31
0.0
  0
LINE
  5
7DD
330
6B
100
AcDbEntity
  8
0
 62
     7
100
AcDbLine
 10
-491.4687071122322
 20
41.12538959321329
 30
0.0
 11
-491.4687071122322
 21
33.12538973094595
 31
0.0
  0
LINE
  5
7DE
330
6B
100
AcDbEntity
  8
0
 62
     7
100
AcDbLine
 10
-492.9687070864073
 20
37.25038965992756
 30
0.0
 11
-489.968707138057
 21
37.25038965992756
 31
0.0
  0
LINE
  5
7DF
330
6B
100
AcDbEntity
  8
0
 62
     7
100
AcDbLine
 10
-492.9687070864073
 20
37.0003896642317
 30
0.0
 11
-489.968707138057
 21
37.0003896642317
 31
0.0
  0
TEXT
  5
7E0
330
6B
100
AcDbEntity
  8
0
 62
     7
100
AcDbText
 10
-581.0426555700749
 20
58.53408179349512
 30
0.0
 40
1.999999965566835
  1
NICHIDO
 50
270.0000010000001
 41
1.105262999999998
100
AcDbText
  0
CIRCLE
  5
7E1
330
6B
100
AcDbEntity
  8
0
 62
     7
100
AcDbCircle
 10
-560.118215930322
 20
44.72426640625292
 30
0.0
 40
1.499999974175126
  0
LINE
  5
7E2
330
6B
100
AcDbEntity
  8
0
 62
     7
100
AcDbLine
 10
-560.4932159238659
 20
43.67426642433034
 30
0.0
 11
-559.7432159367783
 21
43.67426642433034
 31
0.0
  0
LINE
  5
7E3
330
6B
100
AcDbEntity
  8
0
 62
     7
100
AcDbLine
 10
-561.0182159148273
 20
44.12426641658289
 30
0.0
 11
-559.2182159458172
 21
44.12426641658289
 31
0.0
  0
LINE
  5
7E4
330
6B
100
AcDbEntity
  8
0
 62
     7
100
AcDbLine
 10
-561.3182159096623
 20
44.57426640883542
 30
0.0
 11
-558.9182159509821
 21
44.57426640883542
 31
0.0
  0
LINE
  5
7E5
330
6B
100
AcDbEntity
  8
0
 62
     7
100
AcDbLine
 10
-560.118215930322
 20
44.57426640883542
 30
0.0
 11
-560.118215930322
 21
45.92426638559304
 31
0.0
  0
LINE
  5
7E6
330
6B
100
AcDbEntity
  8
0
 62
     7
100
AcDbLine
 10
-564.7803514750562
 20
62.04682360801771
 30
0.0
 11
-566.5355670698374
 21
61.63546236509994
 31
0.0
  0
ARC
  5
7E7
330
6B
100
AcDbEntity
  8
0
 62
     7
100
AcDbCircle
 10
-568.4091764125802
 20
56.62426620137561
 30
0.0
 40
6.849999882066412
100
AcDbArc
 50
69.50000000000096
 51
122.4999999999993
  0
LINE
  5
7E8
330
6B
100
AcDbEntity
  8
0
 62
     7
100
AcDbLine
 10
-564.7803514750562
 20
62.04682360801771
 30
0.0
 11
-565.8351527068961
 21
63.50880670784735
 31
0.0
  0
LINE
  5
7E9
330
6B
100
AcDbEntity
  8
0
 62
     7
100
AcDbLine
 10
-565.8351527068961
 20
63.50880670784735
 30
0.0
 11
-566.0102558288813
 21
63.04047109091049
 31
0.0
  0
LINE
  5
7EA
330
6B
100
AcDbEntity
  8
0
 62
     7
100
AcDbLine
 10
-566.360463322852
 20
62.10379860703679
 30
0.0
 11
-566.5355670698374
 21
61.63546236509994
 31
0.0
  0
ARC
  5
7EB
330
6B
100
AcDbEntity
  8
0
 62
     7
100
AcDbCircle
 10
-568.4091764125802
 20
56.62426620137561
 30
0.0
 40
5.849999899282994
100
AcDbArc
 50
69.50000000000096
 51
122.4999999999993
  0
LINE
  5
7EC
330
6B
100
AcDbEntity
  8
0
 62
     7
100
AcDbLine
 10
-571.5523794834648
 20
61.55810611643175
 30
0.0
 11
-572.0896788492146
 21
62.40149797691142
 31
0.0
  0
CIRCLE
  5
7ED
330
6B
100
AcDbEntity
  8
0
 62
     7
100
AcDbCircle
 10
-560.118215930322
 20
5.724267077699642
 30
0.0
 40
1.499999974175126
  0
LINE
  5
7EE
330
6B
100
AcDbEntity
  8
0
 62
     7
100
AcDbLine
 10
-560.4932159238659
 20
4.674267095777054
 30
0.0
 11
-559.7432159367783
 21
4.674267095777054
 31
0.0
  0
LINE
  5
7EF
330
6B
100
AcDbEntity
  8
0
 62
     7
100
AcDbLine
 10
-561.0182159148273
 20
5.124267088029589
 30
0.0
 11
-559.2182159458172
 21
5.124267088029589
 31
0.0
  0
LINE
  5
7F0
330
6B
100
AcDbEntity
  8
0
 62
     7
100
AcDbLine
 10
-560.118215930322
 20
5.57426708028213
 30
0.0
 11
-560.118215930322
 21
6.924267057039744
 31
0.0
  0
LINE
  5
7F1
330
6B
100
AcDbEntity
  8
0
 62
     7
100
AcDbLine
 10
-561.3182159096623
 20
5.57426708028213
 30
0.0
 11
-558.9182159509821
 21
5.57426708028213
 31
0.0
  0
LINE
  5
7F2
330
6B
100
AcDbEntity
  8
0
 62
     7
100
AcDbLine
 10
-557.1321909817313
 20
5.907801449539809
 30
0.0
 11
-555.3332985127021
 21
4.864722717498061
 31
0.0
  0
LINE
  5
7F3
330
6B
100
AcDbEntity
  8
0
 62
     7
100
AcDbLine
 10
-555.1051691416297
 20
5.907801449539809
 30
0.0
 11
-557.1321909817313
 21
5.907801449539809
 31
0.0
  0
LINE
  5
7F4
330
6B
100
AcDbEntity
  8
0
 62
     7
100
AcDbLine
 10
-555.1051691416297
 20
5.907801449539809
 30
0.0
 11
-556.8941028608303
 21
6.921312057090619
 31
0.0
  0
CIRCLE
  5
7F5
330
6B
100
AcDbEntity
  8
0
 62
     7
100
AcDbCircle
 10
-556.1186803741803
 20
5.907801449539809
 30
0.0
 40
1.0135112325508
  0
TEXT
  5
7F6
330
6B
100
AcDbEntity
  8
0
 62
     7
100
AcDbText
 10
-557.2727284793118
 20
21.61982117903253
 30
0.0
 40
1.999999965566835
  1
<PS>E JET
 50
270.0000010000001
 41
0.8762
100
AcDbText
  0
TEXT
  5
7F7
330
6B
100
AcDbEntity
  8
0
 62
     7
100
AcDbText
 10
-581.1246168186637
 20
18.08264248993065
 30
0.0
 40
2.42549995824118
  1
１５Ａー１２５Ｖ
 50
269.9999729999994
 41
0.4383640000000001
100
AcDbText
  0
TEXT
  5
7F8
330
6B
100
AcDbEntity
  8
0
 62
     4
100
AcDbText
 10
-447.5309378686903
 20
14.26190380571071
 30
0.0
 40
1.599999972453468
  1
ストリップゲージ
 50
270.0000010000001
 41
0.833333
100
AcDbText
  0
LINE
  5
7F9
330
6B
100
AcDbEntity
  8
0
 62
     7
100
AcDbLine
 10
-564.7803514750562
 20
23.04682427946441
 30
0.0
 11
-566.5355670698374
 21
22.63546303654665
 31
0.0
  0
LINE
  5
7FA
330
6B
100
AcDbEntity
  8
0
 62
     7
100
AcDbLine
 10
-566.360463322852
 20
23.10379927848349
 30
0.0
 11
-566.5355670698374
 21
22.63546303654665
 31
0.0
  0
ARC
  5
7FB
330
6B
100
AcDbEntity
  8
0
 62
     7
100
AcDbCircle
 10
-568.4091764125802
 20
17.62426687282232
 30
0.0
 40
5.849999899282994
100
AcDbArc
 50
69.50000000000096
 51
122.4999999999993
  0
ARC
  5
7FC
330
6B
100
AcDbEntity
  8
0
 62
     7
100
AcDbCircle
 10
-568.4091764125802
 20
17.62426687282232
 30
0.0
 40
6.849999882066412
100
AcDbArc
 50
69.50000000000096
 51
122.4999999999993
  0
LINE
  5
7FD
330
6B
100
AcDbEntity
  8
0
 62
     7
100
AcDbLine
 10
-565.8351527068961
 20
24.50880737929406
 30
0.0
 11
-566.0102558288813
 21
24.0404717623572
 31
0.0
  0
LINE
  5
7FE
330
6B
100
AcDbEntity
  8
0
 62
     7
100
AcDbLine
 10
-564.7803514750562
 20
23.04682427946441
 30
0.0
 11
-565.8351527068961
 21
24.50880737929406
 31
0.0
  0
LINE
  5
7FF
330
6B
100
AcDbEntity
  8
0
 62
     7
100
AcDbLine
 10
-571.5523794834648
 20
22.55810678787845
 30
0.0
 11
-572.0896788492146
 21
23.40149864835813
 31
0.0
  0
LINE
  5
9E8
330
6B
100
AcDbEntity
  8
0
 62
     7
100
AcDbLine
 10
-671.0538366245737
 20
-125.800497058061
 30
0.0
 11
-498.474895414455
 21
-125.800497058061
 31
0.0
  0
LINE
  5
9E9
330
6B
100
AcDbEntity
  8
0
 62
     7
100
AcDbLine
 10
-671.0538366245737
 20
-120.800497058061
 30
0.0
 11
-498.474895414455
 21
-120.800497058061
 31
0.0
  0
LINE
  5
9EA
330
6B
100
AcDbEntity
  8
0
 62
     7
100
AcDbLine
 10
-671.0538366245737
 20
-115.8004970580611
 30
0.0
 11
-498.474895414455
 21
-115.8004970580611
 31
0.0
  0
LINE
  5
9EB
330
6B
100
AcDbEntity
  8
0
 62
     7
100
AcDbLine
 10
-671.0538366245737
 20
-110.800497058061
 30
0.0
 11
-498.474895414455
 21
-110.800497058061
 31
0.0
  0
LINE
  5
9EC
330
6B
100
AcDbEntity
  8
0
 62
     7
100
AcDbLine
 10
-671.0538366245737
 20
-105.800497058061
 30
0.0
 11
-498.474895414455
 21
-105.800497058061
 31
0.0
  0
LINE
  5
9ED
330
6B
100
AcDbEntity
  8
0
 62
     7
100
AcDbLine
 10
-671.0538366245737
 20
-100.800497058061
 30
0.0
 11
-498.474895414455
 21
-100.800497058061
 31
0.0
  0
LINE
  5
9EE
330
6B
100
AcDbEntity
  8
0
 62
     7
100
AcDbLine
 10
-671.0538366245737
 20
-95.80049705806109
 30
0.0
 11
-498.474895414455
 21
-95.80049705806109
 31
0.0
  0
LINE
  5
9EF
330
6B
100
AcDbEntity
  8
0
 62
     7
100
AcDbLine
 10
-671.0538366245737
 20
-90.80049705806109
 30
0.0
 11
-498.474895414455
 21
-90.80049705806109
 31
0.0
  0
LINE
  5
9F0
330
6B
100
AcDbEntity
  8
0
 62
     7
100
AcDbLine
 10
-671.0538366245737
 20
-85.80049705806107
 30
0.0
 11
-498.474895414455
 21
-85.80049705806107
 31
0.0
  0
LINE
  5
9F1
330
6B
100
AcDbEntity
  8
0
 62
     3
100
AcDbLine
 10
-671.0538366245737
 20
-80.80049705806107
 30
0.0
 11
-498.474895414455
 21
-80.80049705806107
 31
0.0
  0
LINE
  5
A67
330
6B
100
AcDbEntity
  8
0
 62
     3
100
AcDbLine
 10
-671.0538366245737
 20
143.1995029419389
 30
0.0
 11
-671.0538366245737
 21
-130.800497058061
 31
0.0
  0
LINE
  5
A68
330
6B
100
AcDbEntity
  8
0
 62
     3
100
AcDbLine
 10
-281.0538366245736
 20
-130.800497058061
 30
0.0
 11
-281.0538366245736
 21
143.1995029419389
 31
0.0
  0
LINE
  5
A69
330
6B
100
AcDbEntity
  8
0
 62
     3
100
AcDbLine
 10
-671.0538366245737
 20
-130.800497058061
 30
0.0
 11
-281.0538366245736
 21
-130.800497058061
 31
0.0
  0
LINE
  5
A6A
330
6B
100
AcDbEntity
  8
0
 62
     3
100
AcDbLine
 10
-493.2789471545738
 20
145.639505081939
 30
0.0
 11
-492.6564501445738
 21
145.3145506019389
 31
0.0
  0
LINE
  5
A6B
330
6B
100
AcDbEntity
  8
0
 62
     3
100
AcDbLine
 10
-493.2789471545738
 20
140.3100329819389
 30
0.0
 11
-492.6564501445738
 21
140.634987461939
 31
0.0
  0
LINE
  5
A6C
330
6B
100
AcDbEntity
  8
0
 62
     3
100
AcDbLine
 10
-492.6564501445738
 20
145.3145506019389
 30
0.0
 11
-492.6564501445738
 21
140.634987461939
 31
0.0
  0
LINE
  5
A6D
330
6B
100
AcDbEntity
  8
0
 62
     3
100
AcDbLine
 10
-491.0799966845736
 20
140.3100329819389
 30
0.0
 11
-491.7024936945736
 21
140.634987461939
 31
0.0
  0
LINE
  5
A6E
330
6B
100
AcDbEntity
  8
0
 62
     3
100
AcDbLine
 10
-491.7024936945736
 20
143.4876429119389
 30
0.0
 11
-491.7024936945736
 21
140.634987461939
 31
0.0
  0
LINE
  5
A6F
330
6B
100
AcDbEntity
  8
0
 62
     3
100
AcDbLine
 10
-487.4487641445735
 20
145.639505081939
 30
0.0
 11
-488.0712611445736
 21
145.3145506019389
 31
0.0
  0
LINE
  5
A70
330
6B
100
AcDbEntity
  8
0
 62
     3
100
AcDbLine
 10
-489.6477146145736
 20
145.639505081939
 30
0.0
 11
-489.0252176045735
 21
145.3145506019389
 31
0.0
  0
LINE
  5
A71
330
6B
100
AcDbEntity
  8
0
 62
     3
100
AcDbLine
 10
-489.0252176045735
 20
145.3145506019389
 30
0.0
 11
-489.0252176045735
 21
143.2540690819389
 31
0.0
  0
LINE
  5
A72
330
6B
100
AcDbEntity
  8
0
 62
     3
100
AcDbLine
 10
-488.0712611445736
 20
145.3145506019389
 30
0.0
 11
-488.0712611445736
 21
140.0078027719389
 31
0.0
  0
LINE
  5
A73
330
6B
100
AcDbEntity
  8
0
 62
     3
100
AcDbLine
 10
-487.1411967045736
 20
145.6395013319389
 30
0.0
 11
-486.5187019445738
 21
145.3145425619388
 31
0.0
  0
LINE
  5
A74
330
6B
100
AcDbEntity
  8
0
 62
     3
100
AcDbLine
 10
-487.1413080945735
 20
140.3101043719389
 30
0.0
 11
-486.5187997445738
 21
140.6350371219389
 31
0.0
  0
LINE
  5
A75
330
6B
100
AcDbEntity
  8
0
 62
     3
100
AcDbLine
 10
-486.5187019445738
 20
145.3145425619388
 30
0.0
 11
-486.5187019445738
 21
140.6350371219389
 31
0.0
  0
LINE
  5
A76
330
6B
100
AcDbEntity
  8
0
 62
     3
100
AcDbLine
 10
-484.3847161445736
 20
145.6394675119389
 30
0.0
 11
-485.0072177045737
 21
145.314521751939
 31
0.0
  0
LINE
  5
A77
330
6B
100
AcDbEntity
  8
0
 62
     3
100
AcDbLine
 10
-485.0072177045737
 20
145.314521751939
 30
0.0
 11
-485.0072177045737
 21
140.6350163119389
 31
0.0
  0
LINE
  5
A78
330
6B
100
AcDbEntity
  8
0
 62
     3
100
AcDbLine
 10
-484.3847161445736
 20
140.3100705519389
 30
0.0
 11
-485.0072177045737
 21
140.6350163119389
 31
0.0
  0
LINE
  5
A79
330
6B
100
AcDbEntity
  8
0
 62
     3
100
AcDbLine
 10
-479.1129255145736
 20
145.6394089419388
 30
0.0
 11
-478.4904296345736
 21
145.3144523219389
 31
0.0
  0
LINE
  5
A7A
330
6B
100
AcDbEntity
  8
0
 62
     3
100
AcDbLine
 10
-478.4904296345736
 20
145.3144523219389
 30
0.0
 11
-478.4905113045736
 21
140.6349468719389
 31
0.0
  0
LINE
  5
A7B
330
6B
100
AcDbEntity
  8
0
 62
     3
100
AcDbLine
 10
-479.1130185345738
 20
140.3100119819389
 30
0.0
 11
-478.4905113045736
 21
140.6349468719389
 31
0.0
  0
LINE
  5
A7C
330
6B
100
AcDbEntity
  8
0
 62
     3
100
AcDbLine
 10
-476.3239812745738
 20
145.6394089419388
 30
0.0
 11
-476.9464771645735
 21
145.3144523219389
 31
0.0
  0
LINE
  5
A7D
330
6B
100
AcDbEntity
  8
0
 62
     3
100
AcDbLine
 10
-476.3238882645738
 20
140.3100119819389
 30
0.0
 11
-476.9463954945736
 21
140.6349468719389
 31
0.0
  0
LINE
  5
A7E
330
6B
100
AcDbEntity
  8
0
 62
     3
100
AcDbLine
 10
-476.0329414745736
 20
145.6394089419388
 30
0.0
 11
-475.4104455945736
 21
145.3144523219389
 31
0.0
  0
LINE
  5
A7F
330
6B
100
AcDbEntity
  8
0
 62
     3
100
AcDbLine
 10
-476.0330344945738
 20
140.3100119819389
 30
0.0
 11
-475.4105272645737
 21
140.6349468719389
 31
0.0
  0
LINE
  5
A80
330
6B
100
AcDbEntity
  8
0
 62
     3
100
AcDbLine
 10
-473.2439972445736
 20
145.6394089419388
 30
0.0
 11
-473.8664931245735
 21
145.3144523219389
 31
0.0
  0
LINE
  5
A81
330
6B
100
AcDbEntity
  8
0
 62
     3
100
AcDbLine
 10
-473.8664931245735
 20
145.3144523219389
 30
0.0
 11
-473.8664114545736
 21
140.6349468719389
 31
0.0
  0
LINE
  5
A82
330
6B
100
AcDbEntity
  8
0
 62
     3
100
AcDbLine
 10
-473.2439042245738
 20
140.3100119819389
 30
0.0
 11
-473.8664114545736
 21
140.6349468719389
 31
0.0
  0
LINE
  5
A83
330
6B
100
AcDbEntity
  8
0
 62
     3
100
AcDbLine
 10
-475.4104811745736
 20
143.275690721939
 30
0.0
 11
-476.9464415845738
 21
143.275690721939
 31
0.0
  0
LINE
  5
A84
330
6B
100
AcDbEntity
  8
0
 62
     3
100
AcDbLine
 10
-475.4104916745736
 20
142.6738473419389
 30
0.0
 11
-476.9464310845735
 21
142.6738473419389
 31
0.0
  0
LINE
  5
A85
330
6B
100
AcDbEntity
  8
0
 62
     3
100
AcDbLine
 10
-475.4104455945736
 20
145.3144523219389
 30
0.0
 11
-475.4104811745736
 21
143.275690721939
 31
0.0
  0
LINE
  5
A86
330
6B
100
AcDbEntity
  8
0
 62
     3
100
AcDbLine
 10
-475.4104916745736
 20
142.6738473419389
 30
0.0
 11
-475.4105272645737
 21
140.6349468719389
 31
0.0
  0
LINE
  5
A87
330
6B
100
AcDbEntity
  8
0
 62
     3
100
AcDbLine
 10
-476.9464771645735
 20
145.3144523219389
 30
0.0
 11
-476.9464415845738
 21
143.275690721939
 31
0.0
  0
LINE
  5
A88
330
6B
100
AcDbEntity
  8
0
 62
     3
100
AcDbLine
 10
-476.9464310845735
 20
142.6738473419389
 30
0.0
 11
-476.9463954945736
 21
140.6349468719389
 31
0.0
  0
LINE
  5
A89
330
6B
100
AcDbEntity
  8
0
 62
     3
100
AcDbLine
 10
-472.9483413545736
 20
145.6394089419388
 30
0.0
 11
-472.3258454645736
 21
145.3144523219389
 31
0.0
  0
LINE
  5
A8A
330
6B
100
AcDbEntity
  8
0
 62
     3
100
AcDbLine
 10
-472.3258454645736
 20
145.3144523219389
 30
0.0
 11
-472.3259271445736
 21
140.6349468719389
 31
0.0
  0
LINE
  5
A8B
330
6B
100
AcDbEntity
  8
0
 62
     3
100
AcDbLine
 10
-472.9484343745736
 20
140.3100119819389
 30
0.0
 11
-472.3259271445736
 21
140.6349468719389
 31
0.0
  0
LINE
  5
A8C
330
6B
100
AcDbEntity
  8
0
 62
     3
100
AcDbLine
 10
-470.1918981145737
 20
145.6394089419388
 30
0.0
 11
-470.8143940045736
 21
145.3144523219389
 31
0.0
  0
LINE
  5
A8D
330
6B
100
AcDbEntity
  8
0
 62
     3
100
AcDbLine
 10
-470.8143940045736
 20
145.3144523219389
 30
0.0
 11
-470.8143123245736
 21
140.6349468719389
 31
0.0
  0
LINE
  5
A8E
330
6B
100
AcDbEntity
  8
0
 62
     3
100
AcDbLine
 10
-470.1918050945738
 20
140.3100119819389
 30
0.0
 11
-470.8143123245736
 21
140.6349468719389
 31
0.0
  0
LINE
  5
A8F
330
6B
100
AcDbEntity
  8
0
 62
     3
100
AcDbLine
 10
-469.8856701645737
 20
145.6394089419388
 30
0.0
 11
-469.2631742745738
 21
145.3144523219389
 31
0.0
  0
LINE
  5
A90
330
6B
100
AcDbEntity
  8
0
 62
     3
100
AcDbLine
 10
-469.2631742745738
 20
145.3144523219389
 30
0.0
 11
-469.2632559445735
 21
140.6349468719389
 31
0.0
  0
LINE
  5
A91
330
6B
100
AcDbEntity
  8
0
 62
     3
100
AcDbLine
 10
-469.8857631745736
 20
140.3100119819389
 30
0.0
 11
-469.2632559445735
 21
140.6349468719389
 31
0.0
  0
ARC
  5
A92
330
6B
100
AcDbEntity
  8
0
 62
     3
100
AcDbCircle
 10
-481.1013701845737
 20
142.9881829719389
 30
0.0
 40
2.98040844
100
AcDbArc
 50
97.70152350999723
 51
270.0
  0
ARC
  5
A93
330
6B
100
AcDbEntity
  8
0
 62
     3
100
AcDbCircle
 10
-462.7005118445736
 20
142.9582449319389
 30
0.0
 40
3.012776259999998
100
AcDbArc
 50
0.3142502699992948
 51
69.00558245000303
  0
ARC
  5
A94
330
6B
100
AcDbEntity
  8
0
 62
     3
100
AcDbCircle
 10
-462.0424042345736
 20
142.9582449319389
 30
0.0
 40
3.012776259999998
100
AcDbArc
 50
110.9944175499969
 51
148.1166110200042
  0
ARC
  5
A95
330
6B
100
AcDbEntity
  8
0
 62
     3
100
AcDbCircle
 10
-462.7005118445736
 20
142.9912931319389
 30
0.0
 40
3.012776259999998
100
AcDbArc
 50
290.9944175499969
 51
359.6857497300007
  0
ARC
  5
A96
330
6B
100
AcDbEntity
  8
0
 62
     3
100
AcDbCircle
 10
-462.0424042345736
 20
142.9912931319389
 30
0.0
 40
3.012776259999998
100
AcDbArc
 50
211.8833889799958
 51
249.005582450003
  0
ARC
  5
A97
330
6B
100
AcDbEntity
  8
0
 62
     3
100
AcDbCircle
 10
-462.3714580345736
 20
144.2073481619389
 30
0.0
 40
1.73438712
100
AcDbArc
 50
64.36517189999993
 51
115.6348281
  0
ARC
  5
A98
330
6B
100
AcDbEntity
  8
0
 62
     3
100
AcDbCircle
 10
-462.3714580345736
 20
141.7421899019389
 30
0.0
 40
1.73438712
100
AcDbArc
 50
244.3651718999999
 51
295.6348281
  0
ARC
  5
A99
330
6B
100
AcDbEntity
  8
0
 62
     3
100
AcDbCircle
 10
-462.3714580345736
 20
144.2402934219388
 30
0.0
 40
0.85122233
100
AcDbArc
 50
19.48660554000439
 51
160.5133944599956
  0
ARC
  5
A9A
330
6B
100
AcDbEntity
  8
0
 62
     3
100
AcDbCircle
 10
-462.3714580345736
 20
141.7421899019389
 30
0.0
 40
1.73438712
100
AcDbArc
 50
244.3651718999999
 51
295.6348281
  0
ARC
  5
A9B
330
6B
100
AcDbEntity
  8
0
 62
     3
100
AcDbCircle
 10
-462.3714580345736
 20
141.7092446419388
 30
0.0
 40
0.85122233
100
AcDbArc
 50
199.4866055400044
 51
340.5133944599956
  0
ARC
  5
A9C
330
6B
100
AcDbEntity
  8
0
 62
     3
100
AcDbCircle
 10
-469.1464187545736
 20
111.2203978319389
 30
0.0
 40
37.20000000000001
100
AcDbArc
 50
69.50571480000821
 51
81.68998807001051
  0
ARC
  5
A9D
330
6B
100
AcDbEntity
  8
0
 62
     3
100
AcDbCircle
 10
-469.1464187545736
 20
174.7291402319389
 30
0.0
 40
37.20000000000001
100
AcDbArc
 50
278.3100119299894
 51
290.4942851999918
  0
ARC
  5
A9E
330
6B
100
AcDbEntity
  8
0
 62
     3
100
AcDbCircle
 10
-457.2775557145738
 20
142.9747690319389
 30
0.0
 40
3.299999999999998
100
AcDbArc
 50
290.4942851999918
 51
69.50571480000821
  0
ARC
  5
A9F
330
6B
100
AcDbEntity
  8
0
 62
     3
100
AcDbCircle
 10
-496.2775557145739
 20
142.9747690319389
 30
0.0
 40
3.299999999999998
100
AcDbArc
 50
110.4942851999918
 51
249.5057148000082
  0
ARC
  5
AA0
330
6B
100
AcDbEntity
  8
0
 62
     3
100
AcDbCircle
 10
-484.4086926845736
 20
111.2203978319389
 30
0.0
 40
37.20000000000001
100
AcDbArc
 50
98.31001192998948
 51
110.4942851999918
  0
ARC
  5
AA1
330
6B
100
AcDbEntity
  8
0
 62
     3
100
AcDbCircle
 10
-484.4086926845736
 20
174.7291402319389
 30
0.0
 40
37.20000000000001
100
AcDbArc
 50
249.5057148000082
 51
261.6899880699974
  0
ARC
  5
AA2
330
6B
100
AcDbEntity
  8
0
 62
     3
100
AcDbCircle
 10
-476.7775557145738
 20
58.97476903193886
 30
0.0
 40
89.99999981
100
AcDbArc
 50
81.68998807001051
 51
98.31001192998948
  0
ARC
  5
AA3
330
6B
100
AcDbEntity
  8
0
 62
     3
100
AcDbCircle
 10
-476.7775557145738
 20
226.9747690319389
 30
0.0
 40
89.99999981
100
AcDbArc
 50
261.6899880699974
 51
278.3100119299894
  0
ARC
  5
AA4
330
6B
100
AcDbEntity
  8
0
 62
     3
100
AcDbCircle
 10
-476.7775557145738
 20
58.97476903193886
 30
0.0
 40
89.09999981
100
AcDbArc
 50
81.68998807001051
 51
98.31001192998948
  0
ARC
  5
AA5
330
6B
100
AcDbEntity
  8
0
 62
     3
100
AcDbCircle
 10
-476.7775557145738
 20
226.9747690319389
 30
0.0
 40
89.09999981
100
AcDbArc
 50
261.6899880699974
 51
278.3100119299894
  0
ARC
  5
AA6
330
6B
100
AcDbEntity
  8
0
 62
     3
100
AcDbCircle
 10
-469.1464187545736
 20
174.7291402319389
 30
0.0
 40
36.3
100
AcDbArc
 50
278.3100119299894
 51
290.4942851999918
  0
ARC
  5
AA7
330
6B
100
AcDbEntity
  8
0
 62
     3
100
AcDbCircle
 10
-469.1464187545736
 20
111.2203978319389
 30
0.0
 40
36.3
100
AcDbArc
 50
69.50571480000821
 51
81.68998807001051
  0
ARC
  5
AA8
330
6B
100
AcDbEntity
  8
0
 62
     3
100
AcDbCircle
 10
-457.2775557145738
 20
142.9747690319389
 30
0.0
 40
2.399999999999999
100
AcDbArc
 50
290.4942851999918
 51
69.50571480000821
  0
ARC
  5
AA9
330
6B
100
AcDbEntity
  8
0
 62
     3
100
AcDbCircle
 10
-496.2775557145739
 20
142.9747690319389
 30
0.0
 40
2.399999999999999
100
AcDbArc
 50
110.4942851999918
 51
249.5057148000082
  0
ARC
  5
AAA
330
6B
100
AcDbEntity
  8
0
 62
     3
100
AcDbCircle
 10
-484.4086926845736
 20
111.2203978319389
 30
0.0
 40
36.3
100
AcDbArc
 50
98.31001192998948
 51
110.4942851999918
  0
ARC
  5
AAB
330
6B
100
AcDbEntity
  8
0
 62
     3
100
AcDbCircle
 10
-484.4086926845736
 20
174.7291402319389
 30
0.0
 40
36.3
100
AcDbArc
 50
249.5057148000082
 51
261.6899880699974
  0
LINE
  5
AAC
330
6B
100
AcDbEntity
  8
0
 62
     3
100
AcDbLine
 10
-470.1918969945736
 20
140.0078027719389
 30
0.0
 11
-472.9483424745736
 21
140.0078027719389
 31
0.0
  0
LINE
  5
AAD
330
6B
100
AcDbEntity
  8
0
 62
     3
100
AcDbLine
 10
-470.1918969945736
 20
140.3100329819389
 30
0.0
 11
-470.1918969945736
 21
140.0078027719389
 31
0.0
  0
LINE
  5
AAE
330
6B
100
AcDbEntity
  8
0
 62
     3
100
AcDbLine
 10
-473.2439961245736
 20
145.9415942619389
 30
0.0
 11
-476.0329425945736
 21
145.9415942619389
 31
0.0
  0
LINE
  5
AAF
330
6B
100
AcDbEntity
  8
0
 62
     3
100
AcDbLine
 10
-473.2439961245736
 20
145.9415942619389
 30
0.0
 11
-473.2439961245736
 21
145.639505081939
 31
0.0
  0
LINE
  5
AB0
330
6B
100
AcDbEntity
  8
0
 62
     3
100
AcDbLine
 10
-473.2439961245736
 20
140.3100329819389
 30
0.0
 11
-473.2439961245736
 21
140.0076617519389
 31
0.0
  0
LINE
  5
AB1
330
6B
100
AcDbEntity
  8
0
 62
     3
100
AcDbLine
 10
-473.2439961245736
 20
140.0076617519389
 30
0.0
 11
-476.0329425945736
 21
140.0076617519389
 31
0.0
  0
LINE
  5
AB2
330
6B
100
AcDbEntity
  8
0
 62
     3
100
AcDbLine
 10
-470.1918969945736
 20
145.9417352919389
 30
0.0
 11
-470.1918969945736
 21
145.639505081939
 31
0.0
  0
LINE
  5
AB3
330
6B
100
AcDbEntity
  8
0
 62
     3
100
AcDbLine
 10
-470.1918969945736
 20
145.9417352919389
 30
0.0
 11
-472.9483424745736
 21
145.9417352919389
 31
0.0
  0
LINE
  5
AB4
330
6B
100
AcDbEntity
  8
0
 62
     3
100
AcDbLine
 10
-472.9483424745736
 20
145.9417352919389
 30
0.0
 11
-472.9483424745736
 21
145.639505081939
 31
0.0
  0
LINE
  5
AB5
330
6B
100
AcDbEntity
  8
0
 62
     3
100
AcDbLine
 10
-469.8856712845737
 20
140.3100329819389
 30
0.0
 11
-469.8856712845737
 21
140.0078027719389
 31
0.0
  0
LINE
  5
AB6
330
6B
100
AcDbEntity
  8
0
 62
     3
100
AcDbLine
 10
-467.0509561945736
 20
140.0078027719389
 30
0.0
 11
-469.8856712845737
 21
140.0078027719389
 31
0.0
  0
LINE
  5
AB7
330
6B
100
AcDbEntity
  8
0
 62
     3
100
AcDbLine
 10
-467.7517228045735
 20
144.9877788319389
 30
0.0
 11
-467.7517228045735
 21
140.9617592319389
 31
0.0
  0
LINE
  5
AB8
330
6B
100
AcDbEntity
  8
0
 62
     3
100
AcDbLine
 10
-467.7517228045735
 20
140.9617592319389
 30
0.0
 11
-467.4802242845736
 21
140.9617592319389
 31
0.0
  0
ARC
  5
AB9
330
6B
100
AcDbEntity
  8
0
 62
     3
100
AcDbCircle
 10
-468.8684896245736
 20
142.9747690319389
 30
0.0
 40
2.44529939
100
AcDbArc
 50
304.5919552700023
 51
55.4080447299977
  0
LINE
  5
ABA
330
6B
100
AcDbEntity
  8
0
 62
     3
100
AcDbLine
 10
-467.0509561945736
 20
145.9417352919389
 30
0.0
 11
-469.8856712845737
 21
145.9417352919389
 31
0.0
  0
LINE
  5
ABB
330
6B
100
AcDbEntity
  8
0
 62
     3
100
AcDbLine
 10
-469.8856712845737
 20
145.9417352919389
 30
0.0
 11
-469.8856712845737
 21
145.639505081939
 31
0.0
  0
LINE
  5
ABC
330
6B
100
AcDbEntity
  8
0
 62
     3
100
AcDbLine
 10
-472.9483424745736
 20
140.3100329819389
 30
0.0
 11
-472.9483424745736
 21
140.0078027719389
 31
0.0
  0
LINE
  5
ABD
330
6B
100
AcDbEntity
  8
0
 62
     3
100
AcDbLine
 10
-467.7517228045735
 20
144.9877788319389
 30
0.0
 11
-467.4802242845736
 21
144.9877788319389
 31
0.0
  0
LINE
  5
ABE
330
6B
100
AcDbEntity
  8
0
 62
     3
100
AcDbLine
 10
-484.3848080445736
 20
140.3100329819389
 30
0.0
 11
-484.3848133145736
 21
140.0077745319389
 31
0.0
  0
LINE
  5
ABF
330
6B
100
AcDbEntity
  8
0
 62
     3
100
AcDbLine
 10
-487.1412587945735
 20
140.0078310219389
 30
0.0
 11
-484.3848133145736
 21
140.0077829119388
 31
0.0
  0
LINE
  5
AC0
330
6B
100
AcDbEntity
  8
0
 62
     3
100
AcDbLine
 10
-493.2789471545738
 20
140.0078027719389
 30
0.0
 11
-491.0799966845736
 21
140.0078027719389
 31
0.0
  0
ARC
  5
AC1
330
6B
100
AcDbEntity
  8
0
 62
     3
100
AcDbCircle
 10
-500.3960081245736
 20
143.0446356419389
 30
0.0
 40
21.01937947
100
AcDbArc
 50
353.8660061899983
 51
357.6940342600001
  0
LINE
  5
AC2
330
6B
100
AcDbEntity
  8
0
 62
     3
100
AcDbLine
 10
-480.8008940345736
 20
142.2041104219389
 30
0.0
 11
-479.3936499145736
 21
142.1989034519389
 31
0.0
  0
LINE
  5
AC4
330
6B
100
AcDbEntity
  8
0
 62
     3
100
AcDbLine
 10
-480.7952105845736
 20
143.7401314819388
 30
0.0
 11
-479.3879664645736
 21
143.7349245119389
 31
0.0
  0
ARC
  5
AC5
330
6B
100
AcDbEntity
  8
0
 62
     3
100
AcDbCircle
 10
-500.3960081245736
 20
143.0446356419389
 30
0.0
 40
21.01937947
100
AcDbArc
 50
1.881965739999571
 51
5.709993809997955
  0
LINE
  5
AC6
330
6B
100
AcDbEntity
  8
0
 62
     3
100
AcDbLine
 10
-484.3847097545737
 20
145.9417070419389
 30
0.0
 11
-484.3847150245736
 21
145.639505081939
 31
0.0
  0
LINE
  5
AC7
330
6B
100
AcDbEntity
  8
0
 62
     3
100
AcDbLine
 10
-487.1411552345736
 20
145.9417635319389
 30
0.0
 11
-484.3847097545737
 21
145.9417154219389
 31
0.0
  0
LINE
  5
AC8
330
6B
100
AcDbEntity
  8
0
 62
     3
100
AcDbLine
 10
-487.1412535245736
 20
140.3100329819389
 30
0.0
 11
-487.1412587945735
 21
140.0078310219389
 31
0.0
  0
LINE
  5
AC9
330
6B
100
AcDbEntity
  8
0
 62
     3
100
AcDbLine
 10
-487.1411552345736
 20
145.9417635319389
 30
0.0
 11
-487.1411605045738
 21
145.639505081939
 31
0.0
  0
LINE
  5
ACA
330
6B
100
AcDbEntity
  8
0
 62
     3
100
AcDbLine
 10
-491.0799966845736
 20
140.3100329819389
 30
0.0
 11
-491.0799966845736
 21
140.0078027719389
 31
0.0
  0
LINE
  5
ACB
330
6B
100
AcDbEntity
  8
0
 62
     3
100
AcDbLine
 10
-491.7024936945736
 20
143.4876429119389
 30
0.0
 11
-489.5275936145735
 21
140.0078027719389
 31
0.0
  0
LINE
  5
ACC
330
6B
100
AcDbEntity
  8
0
 62
     3
100
AcDbLine
 10
-489.5275936145735
 20
140.0078027719389
 30
0.0
 11
-488.0712611445736
 21
140.0078027719389
 31
0.0
  0
LINE
  5
ACD
330
6B
100
AcDbEntity
  8
0
 62
     3
100
AcDbLine
 10
-487.4487641445735
 20
145.9417352919389
 30
0.0
 11
-487.4487641445735
 21
145.639505081939
 31
0.0
  0
LINE
  5
ACE
330
6B
100
AcDbEntity
  8
0
 62
     3
100
AcDbLine
 10
-489.6477146145736
 20
145.9417352919389
 30
0.0
 11
-487.4487641445735
 21
145.9417352919389
 31
0.0
  0
LINE
  5
ACF
330
6B
100
AcDbEntity
  8
0
 62
     3
100
AcDbLine
 10
-489.6477146145736
 20
145.9417352919389
 30
0.0
 11
-489.6477146145736
 21
145.639505081939
 31
0.0
  0
LINE
  5
AD0
330
6B
100
AcDbEntity
  8
0
 62
     3
100
AcDbLine
 10
-489.0252176045735
 20
143.2540690819389
 30
0.0
 11
-490.7889985445736
 21
145.9417352919389
 31
0.0
  0
LINE
  5
AD1
330
6B
100
AcDbEntity
  8
0
 62
     3
100
AcDbLine
 10
-493.2789471545738
 20
145.9417352919389
 30
0.0
 11
-490.7889985445736
 21
145.9417352919389
 31
0.0
  0
LINE
  5
AD2
330
6B
100
AcDbEntity
  8
0
 62
     3
100
AcDbLine
 10
-479.1129266345737
 20
145.9415942619389
 30
0.0
 11
-476.3239801545737
 21
145.9415942619389
 31
0.0
  0
LINE
  5
AD3
330
6B
100
AcDbEntity
  8
0
 62
     3
100
AcDbLine
 10
-479.1129266345737
 20
145.639505081939
 30
0.0
 11
-479.1129266345737
 21
145.9415942619389
 31
0.0
  0
LINE
  5
AD4
330
6B
100
AcDbEntity
  8
0
 62
     3
100
AcDbLine
 10
-479.1129266345737
 20
140.0076617519389
 30
0.0
 11
-479.1129266345737
 21
140.3100329819389
 31
0.0
  0
LINE
  5
AD5
330
6B
100
AcDbEntity
  8
0
 62
     3
100
AcDbLine
 10
-479.1129266345737
 20
140.0076617519389
 30
0.0
 11
-476.3239801545737
 21
140.0076617519389
 31
0.0
  0
LINE
  5
AD6
330
6B
100
AcDbEntity
  8
0
 62
     3
100
AcDbLine
 10
-476.0329425945736
 20
140.3100329819389
 30
0.0
 11
-476.0329425945736
 21
140.0076617519389
 31
0.0
  0
LINE
  5
AD7
330
6B
100
AcDbEntity
  8
0
 62
     3
100
AcDbLine
 10
-476.3239801545737
 20
140.3100329819389
 30
0.0
 11
-476.3239801545737
 21
140.0076617519389
 31
0.0
  0
LINE
  5
AD8
330
6B
100
AcDbEntity
  8
0
 62
     3
100
AcDbLine
 10
-476.3239801545737
 20
145.639505081939
 30
0.0
 11
-476.3239801545737
 21
145.9415942619389
 31
0.0
  0
LINE
  5
AD9
330
6B
100
AcDbEntity
  8
0
 62
     3
100
AcDbLine
 10
-476.0329425945736
 20
145.639505081939
 30
0.0
 11
-476.0329425945736
 21
145.9415942619389
 31
0.0
  0
LINE
  5
ADA
330
6B
100
AcDbEntity
  8
0
 62
     3
100
AcDbLine
 10
-493.2789471545738
 20
140.3100329819389
 30
0.0
 11
-493.2789471545738
 21
140.0078027719389
 31
0.0
  0
LINE
  5
ADB
330
6B
100
AcDbEntity
  8
0
 62
     3
100
AcDbLine
 10
-493.2789471545738
 20
145.9417352919389
 30
0.0
 11
-493.2789471545738
 21
145.639505081939
 31
0.0
  0
ARC
  5
ADC
330
6B
100
AcDbEntity
  8
0
 62
     3
100
AcDbCircle
 10
-466.7509561945736
 20
143.5972660419389
 30
0.0
 40
2.344469249999999
100
AcDbArc
 50
17.30874897999644
 51
23.76507095999595
  0
ARC
  5
ADD
330
6B
100
AcDbEntity
  8
0
 62
     3
100
AcDbCircle
 10
-468.7484896245738
 20
142.9747690319389
 30
0.0
 40
4.43675086
100
AcDbArc
 50
342.6912510200036
 51
17.30856643999967
  0
ARC
  5
ADE
330
6B
100
AcDbEntity
  8
0
 62
     3
100
AcDbCircle
 10
-466.7509561945736
 20
142.3522720219389
 30
0.0
 40
2.344469249999999
100
AcDbArc
 50
336.2349290400012
 51
342.6912510200036
  0
ARC
  5
ADF
330
6B
100
AcDbEntity
  8
0
 62
     3
100
AcDbCircle
 10
-467.0509561945736
 20
143.5972660419389
 30
0.0
 40
2.344469249999999
100
AcDbArc
 50
17.30874897999644
 51
90.0
  0
ARC
  5
AE0
330
6B
100
AcDbEntity
  8
0
 62
     3
100
AcDbCircle
 10
-469.0484896245735
 20
142.9747690319389
 30
0.0
 40
4.43675086
100
AcDbArc
 50
342.6912510200036
 51
17.30856643999967
  0
ARC
  5
AE1
330
6B
100
AcDbEntity
  8
0
 62
     3
100
AcDbCircle
 10
-467.0509561945736
 20
142.3522720219389
 30
0.0
 40
2.344469249999999
100
AcDbArc
 50
270.0
 51
342.6912510200036
  0
ARC
  5
AE2
330
6B
100
AcDbEntity
  8
0
 62
     3
100
AcDbCircle
 10
-481.5137281645736
 20
142.9747690319389
 30
0.0
 40
2.966966259999998
100
AcDbArc
 50
46.7528796099937
 51
89.74999828999569
  0
ARC
  5
AE3
330
6B
100
AcDbEntity
  8
0
 62
     3
100
AcDbCircle
 10
-481.5137281645736
 20
142.9747690319389
 30
0.0
 40
2.966966259999998
100
AcDbArc
 50
273.9763331499971
 51
312.8231203899991
  0
ARC
  5
AE4
330
6B
100
AcDbEntity
  8
0
 62
     3
100
AcDbCircle
 10
-465.1682882345737
 20
142.928966851939
 30
0.0
 40
3.936984289999998
100
AcDbArc
 50
0.6665840599997753
 51
23.90392827000101
  0
ARC
  5
AE5
330
6B
100
AcDbEntity
  8
0
 62
     3
100
AcDbCircle
 10
-459.5746278445735
 20
142.928966851939
 30
0.0
 40
3.936984289999998
100
AcDbArc
 50
156.096071729999
 51
179.3334159400002
  0
ARC
  5
AE6
330
6B
100
AcDbEntity
  8
0
 62
     3
100
AcDbCircle
 10
-465.1682882345737
 20
143.0205712119389
 30
0.0
 40
3.936984289999998
100
AcDbArc
 50
336.096071729999
 51
359.3334159400003
  0
ARC
  5
AE7
330
6B
100
AcDbEntity
  8
0
 62
     3
100
AcDbCircle
 10
-459.5746278445735
 20
143.0205712119389
 30
0.0
 40
3.936984289999998
100
AcDbArc
 50
180.6665840599997
 51
203.903928270001
  0
LINE
  5
AE8
330
6B
100
AcDbEntity
  8
0
 62
     3
100
AcDbLine
 10
-452.3971114445735
 20
143.1995029419389
 30
0.0
 11
-281.0538366245738
 21
143.1995029419389
 31
0.0
  0
LINE
  5
AE9
330
6B
100
AcDbEntity
  8
0
 62
     3
100
AcDbLine
 10
-500.9511461145735
 20
143.1995029419389
 30
0.0
 11
-671.0538366245737
 21
143.1995029419389
 31
0.0
  0
LINE
  5
AEA
330
6B
100
AcDbEntity
  8
0
 62
     3
100
AcDbLine
 10
-683.4557604145738
 20
9.644141891938916
 30
0.0
 11
-686.0538366245736
 21
8.144141891938915
 31
0.0
  0
LINE
  5
AEB
330
6B
100
AcDbEntity
  8
0
 62
     3
100
AcDbLine
 10
-683.4557604145738
 20
9.644141891938916
 30
0.0
 11
-686.0538366245736
 21
11.14414189193891
 31
0.0
  0
LINE
  5
AEC
330
6B
100
AcDbEntity
  8
0
 62
     3
100
AcDbLine
 10
-686.0538366245736
 20
8.144141891938915
 30
0.0
 11
-686.0538366245736
 21
11.14414189193891
 31
0.0
  0
LINE
  5
AEF
330
6B
100
AcDbEntity
  8
0
 62
     3
100
AcDbLine
 10
-333.0538366245737
 20
-130.800497058061
 30
0.0
 11
-333.0538366245737
 21
-90.80049705806104
 31
0.0
  0
LINE
  5
AF0
330
6B
100
AcDbEntity
  8
0
 62
     3
100
AcDbLine
 10
-320.0538366245737
 20
-120.800497058061
 30
0.0
 11
-320.0538366245737
 21
-92.80049705806105
 31
0.0
  0
LINE
  5
AF1
330
6B
100
AcDbEntity
  8
0
 62
     3
100
AcDbLine
 10
-360.0538366245736
 20
-120.800497058061
 30
0.0
 11
-360.0538366245736
 21
-106.800497058061
 31
0.0
  0
LINE
  5
AF2
330
6B
100
AcDbEntity
  8
0
 62
     3
100
AcDbLine
 10
-350.0538366245736
 20
-106.800497058061
 30
0.0
 11
-350.0538366245736
 21
-130.800497058061
 31
0.0
  0
LINE
  5
AF3
330
6B
100
AcDbEntity
  8
0
 62
     3
100
AcDbLine
 10
-379.0538366245736
 20
-90.80049705806104
 30
0.0
 11
-379.0538366245736
 21
-113.800497058061
 31
0.0
  0
LINE
  5
AF4
330
6B
100
AcDbEntity
  8
0
 62
     3
100
AcDbLine
 10
-320.0538366245737
 20
-92.80049705806105
 30
0.0
 11
-320.0538366245737
 21
-90.80049705806104
 31
0.0
  0
LINE
  5
AF5
330
6B
100
AcDbEntity
  8
0
 62
     3
100
AcDbLine
 10
-307.0538366245736
 20
-113.800497058061
 30
0.0
 11
-307.0538366245736
 21
-90.80049705806104
 31
0.0
  0
LINE
  5
AF6
330
6B
100
AcDbEntity
  8
0
 62
     3
100
AcDbLine
 10
-281.0538366245736
 20
-90.80049705806104
 30
0.0
 11
-392.2992712645736
 21
-90.80049705806102
 31
0.0
  0
LINE
  5
AF7
330
6B
100
AcDbEntity
  8
0
 62
     3
100
AcDbLine
 10
-281.0538366245736
 20
-99.80049705806104
 30
0.0
 11
-392.2992712645736
 21
-99.80049705806104
 31
0.0
  0
LINE
  5
AF8
330
6B
100
AcDbEntity
  8
0
 62
     3
100
AcDbLine
 10
-281.0538366245736
 20
-113.800497058061
 30
0.0
 11
-392.2992712645736
 21
-113.800497058061
 31
0.0
  0
LINE
  5
AF9
330
6B
100
AcDbEntity
  8
0
 62
     3
100
AcDbLine
 10
-281.0538366245736
 20
-120.800497058061
 30
0.0
 11
-392.3572791245737
 21
-120.800497058061
 31
0.0
  0
LINE
  5
AFA
330
6B
100
AcDbEntity
  8
0
 62
     3
100
AcDbLine
 10
-294.0538366245736
 20
-113.800497058061
 30
0.0
 11
-294.0538366245736
 21
-90.80049705806104
 31
0.0
  0
LINE
  5
AFB
330
6B
100
AcDbEntity
  8
0
 62
     3
100
AcDbLine
 10
-392.2992712645736
 20
-90.80049705806102
 30
0.0
 11
-392.2992712645736
 21
-130.800497058061
 31
0.0
  0
LINE
  5
AFC
330
6B
100
AcDbEntity
  8
0
 62
     3
100
AcDbLine
 10
-333.0538366245737
 20
-106.800497058061
 30
0.0
 11
-392.2992712645736
 21
-106.800497058061
 31
0.0
  0
LINE
  5
AFD
330
6B
100
AcDbEntity
  8
0
 62
     3
100
AcDbLine
 10
-349.7755116945738
 20
-125.967635798061
 30
0.0
 11
-333.0538366245737
 21
-125.967635798061
 31
0.0
  0
TEXT
  5
AFE
330
6B
100
AcDbEntity
  8
0
 62
     3
100
AcDbText
 10
-348.8895112112579
 20
-111.7274002046957
 30
0.0
 40
2.5
  1
-
  7
高2.5
100
AcDbText
  0
TEXT
  5
AFF
330
6B
100
AcDbEntity
  8
0
 62
     3
100
AcDbText
 10
-377.8574679293214
 20
-111.5026826530771
 30
0.0
 40
2.5
  1
-
  7
高2.5
100
AcDbText
  0
TEXT
  5
B00
330
6B
100
AcDbEntity
  8
0
 62
     3
100
AcDbText
 10
-377.5925601746241
 20
-98.48824753430315
 30
0.0
 40
4.5
  1
E付き抜止コンセント
 41
0.8
  7
高4.5
100
AcDbText
1001
ACAD
1000
ACAD_MTEXT_DEFINED_HEIGHT_BEGIN
1070
    46
1040
0.0
1000
ACAD_MTEXT_DEFINED_HEIGHT_END
  0
TEXT
  5
B01
330
6B
100
AcDbEntity
  8
0
 62
     3
100
AcDbText
 10
-290.9882475310995
 20
-94.28680495935743
 30
0.0
 40
2.0
  1
DEF
  7
高2
100
AcDbText
  0
TEXT
  5
B02
330
6B
100
AcDbEntity
  8
0
 62
     3
100
AcDbText
 10
-304.9273458848078
 20
-94.28680495935756
 30
0.0
 40
2.0
  1
DESN
  7
高2
100
AcDbText
  0
TEXT
  5
B03
330
6B
100
AcDbEntity
  8
0
 62
     3
100
AcDbText
 10
-331.181712824808
 20
-94.28680495935743
 30
0.0
 40
2.0
  1
APPD
  7
高2
100
AcDbText
  0
TEXT
  5
B04
330
6B
100
AcDbEntity
  8
0
 62
     3
100
AcDbText
 10
-318.0689767245736
 20
-94.28680495935742
 30
0.0
 40
2.0
  1
CHCK
  7
高2
100
AcDbText
  0
TEXT
  5
B05
330
6B
100
AcDbEntity
  8
0
 62
     3
100
AcDbText
 10
-359.1266709854208
 20
-116.6320982348303
 30
0.0
 40
2.0
  1
SCALE
 41
0.8
  7
高2
100
AcDbText
  0
TEXT
  5
B06
330
6B
100
AcDbEntity
  8
0
 62
     3
100
AcDbText
 10
-390.6146925615275
 20
-116.6320982348303
 30
0.0
 40
2.0
  1
3AD　ANGLE
 41
1.5
  7
高2
100
AcDbText
  0
TEXT
  5
B07
330
6B
100
AcDbEntity
  8
0
 62
     3
100
AcDbText
 10
-359.8572652945721
 20
-109.8805601658732
 30
0.0
 40
2.0
  1
REMARKS
 41
0.7
  7
高2
100
AcDbText
  0
TEXT
  5
B08
330
6B
100
AcDbEntity
  8
0
 62
     3
100
AcDbText
 10
-390.8316009145736
 20
-109.800497058061
 30
0.0
 40
2.0
  1
MATERIAL
 41
0.7
  7
高2
100
AcDbText
  0
TEXT
  5
B09
330
6B
100
AcDbEntity
  8
0
 62
     3
100
AcDbText
 10
-390.2551137118195
 20
-102.800497058061
 30
0.0
 40
2.0
  1
MODEL
  7
高2
100
AcDbText
  0
TEXT
  5
B0A
330
6B
100
AcDbEntity
  8
0
 62
     3
100
AcDbText
 10
-390.6181928304883
 20
-94.09347570746204
 30
0.0
 40
2.0
  1
CONPONENTS
 41
0.5
  7
高2
100
AcDbText
  0
TEXT
  5
B0B
330
6B
100
AcDbEntity
  8
0
 62
     3
100
AcDbText
 10
-377.9110773593215
 20
-106.145026691538
 30
0.0
 40
2.5
  1
2PE-RKN/2PE-DKN
  7
高2.5
100
AcDbText
  0
TEXT
  5
B0C
330
6B
100
AcDbEntity
  8
0
 62
     3
100
AcDbText
 10
-329.9887908939551
 20
-129.4023085411652
 30
0.0
 40
6.299999999999998
  1
2PE-KN
  7
高6.3
100
AcDbText
1001
ACAD
1000
ACAD_MTEXT_DEFINED_HEIGHT_BEGIN
1070
    46
1040
0.0
1000
ACAD_MTEXT_DEFINED_HEIGHT_END
  0
TEXT
  5
B0D
330
6B
100
AcDbEntity
  8
0
 62
     3
100
AcDbText
 10
-316.490326874244
 20
-119.699607899828
 30
0.0
 40
3.2
  1
2000.08.23
  7
高3.2
100
AcDbText
1001
ACAD
1000
ACAD_MTEXT_DEFINED_HEIGHT_BEGIN
1070
    46
1040
0.0
1000
ACAD_MTEXT_DEFINED_HEIGHT_END
  0
TEXT
  5
B0E
330
6B
100
AcDbEntity
  8
0
 62
     3
100
AcDbText
 10
-346.2662387299273
 20
-119.6995800554931
 30
0.0
 40
3.2
  1
1/1
  7
高3.2
100
AcDbText
  0
TEXT
  5
B0F
330
6B
100
AcDbEntity
  8
0
 62
     3
100
AcDbText
 10
-349.1889097545737
 20
-129.9836188849251
 30
0.0
 40
3.2
  1
ZK-A3X
 41
0.8
  7
高3.2
100
AcDbText
  0
TEXT
  5
B10
330
6B
100
AcDbEntity
  8
0
 62
     3
100
AcDbText
 10
-391.4685702245737
 20
-124.2758766358732
 30
0.0
 40
2.0
  1
NICHIDO IND.CO.LTD
 41
1.3
  7
高2
100
AcDbText
  0
TEXT
  5
B11
330
6B
100
AcDbEntity
  8
0
 62
     3
100
AcDbText
 10
-390.2870469596166
 20
-98.65996885017613
 30
0.0
 40
3.2
  1
品 名
  7
高3.2
100
AcDbText
1001
ACAD
1000
ACAD_MTEXT_DEFINED_HEIGHT_BEGIN
1070
    46
1040
0.0
1000
ACAD_MTEXT_DEFINED_HEIGHT_END
  0
TEXT
  5
B12
330
6B
100
AcDbEntity
  8
0
 62
     3
100
AcDbText
 10
-390.2870469596166
 20
-106.300497058061
 30
0.0
 40
3.2
  1
型 式
  7
高3.2
100
AcDbText
1001
ACAD
1000
ACAD_MTEXT_DEFINED_HEIGHT_BEGIN
1070
    46
1040
3.064735913775954
1000
ACAD_MTEXT_DEFINED_HEIGHT_END
  0
TEXT
  5
B13
330
6B
100
AcDbEntity
  8
0
 62
     3
100
AcDbText
 10
-390.2870469596166
 20
-113.300497058061
 30
0.0
 40
3.2
  1
材 質
  7
高3.2
100
AcDbText
1001
ACAD
1000
ACAD_MTEXT_DEFINED_HEIGHT_BEGIN
1070
    46
1040
0.0
1000
ACAD_MTEXT_DEFINED_HEIGHT_END
  0
TEXT
  5
B14
330
6B
100
AcDbEntity
  8
0
 62
     3
100
AcDbText
 10
-390.5920819096165
 20
-120.3330570658148
 30
0.0
 40
3.2
  1
第 三 角 法
  7
高3.2
100
AcDbText
1001
ACAD
1000
ACAD_MTEXT_DEFINED_HEIGHT_BEGIN
1070
    46
1040
0.0
1000
ACAD_MTEXT_DEFINED_HEIGHT_END
  0
TEXT
  5
B15
330
6B
100
AcDbEntity
  8
0
 62
     3
100
AcDbText
 10
-392.1855493020877
 20
-129.659968850176
 30
0.0
 40
3.2
  1
日動工業株式会社
 41
1.199999999999999
  7
高3.2
100
AcDbText
1001
ACAD
1000
ACAD_MTEXT_DEFINED_HEIGHT_BEGIN
1070
    46
1040
0.0
1000
ACAD_MTEXT_DEFINED_HEIGHT_END
  0
TEXT
  5
B16
330
6B
100
AcDbEntity
  8
0
 62
     3
100
AcDbText
 10
-358.5499251026091
 20
-113.4159185248934
 30
0.0
 40
3.2
  1
備考
  7
高3.2
100
AcDbText
1001
ACAD
1000
ACAD_MTEXT_DEFINED_HEIGHT_BEGIN
1070
    46
1040
0.0
1000
ACAD_MTEXT_DEFINED_HEIGHT_END
  0
TEXT
  5
B17
330
6B
100
AcDbEntity
  8
0
 62
     3
100
AcDbText
 10
-348.9008676555737
 20
-124.6542670324907
 30
0.0
 40
2.5
  1
出図コード
  7
高2.5
100
AcDbText
1001
ACAD
1000
ACAD_MTEXT_DEFINED_HEIGHT_BEGIN
1070
    46
1040
0.0
1000
ACAD_MTEXT_DEFINED_HEIGHT_END
  0
TEXT
  5
B18
330
6B
100
AcDbEntity
  8
0
 62
     3
100
AcDbText
 10
-358.7086912206967
 20
-120.3472621476481
 30
0.0
 40
3.2
  1
尺度
  7
高3.2
100
AcDbText
1001
ACAD
1000
ACAD_MTEXT_DEFINED_HEIGHT_BEGIN
1070
    46
1040
0.0
1000
ACAD_MTEXT_DEFINED_HEIGHT_END
  0
TEXT
  5
B19
330
6B
100
AcDbEntity
  8
0
 62
     3
100
AcDbText
 10
-331.5624297389178
 20
-119.2157836995306
 30
0.0
 40
3.2
  1
作成日
  7
高3.2
100
AcDbText
1001
ACAD
1000
ACAD_MTEXT_DEFINED_HEIGHT_BEGIN
1070
    46
1040
0.0
1000
ACAD_MTEXT_DEFINED_HEIGHT_END
  0
TEXT
  5
B1A
330
6B
100
AcDbEntity
  8
0
 62
     3
100
AcDbText
 10
-331.6679557320539
 20
-98.65996885017613
 30
0.0
 40
3.2
  1
承 認
  7
高3.2
100
AcDbText
1001
ACAD
1000
ACAD_MTEXT_DEFINED_HEIGHT_BEGIN
1070
    46
1040
0.0
1000
ACAD_MTEXT_DEFINED_HEIGHT_END
  0
TEXT
  5
B1B
330
6B
100
AcDbEntity
  8
0
 62
     3
100
AcDbText
 10
-318.6679557320539
 20
-98.65996885017613
 30
0.0
 40
3.2
  1
検 図
  7
高3.2
100
AcDbText
1001
ACAD
1000
ACAD_MTEXT_DEFINED_HEIGHT_BEGIN
1070
    46
1040
0.0
1000
ACAD_MTEXT_DEFINED_HEIGHT_END
  0
TEXT
  5
B1C
330
6B
100
AcDbEntity
  8
0
 62
     3
100
AcDbText
 10
-305.6679557320539
 20
-98.65996885017613
 30
0.0
 40
3.2
  1
設 計
  7
高3.2
100
AcDbText
1001
ACAD
1000
ACAD_MTEXT_DEFINED_HEIGHT_BEGIN
1070
    46
1040
0.0
1000
ACAD_MTEXT_DEFINED_HEIGHT_END
  0
TEXT
  5
B1D
330
6B
100
AcDbEntity
  8
0
 62
     3
100
AcDbText
 10
-292.367319212054
 20
-98.65996885017613
 30
0.0
 40
3.2
  1
製 図
  7
高3.2
100
AcDbText
1001
ACAD
1000
ACAD_MTEXT_DEFINED_HEIGHT_BEGIN
1070
    46
1040
0.0
1000
ACAD_MTEXT_DEFINED_HEIGHT_END
  0
TEXT
  5
B1E
330
6B
100
AcDbEntity
  8
0
 62
     3
100
AcDbText
 10
-293.5538366245738
 20
133.6995029419389
 30
0.0
 40
3.2
  1
担　当
  7
高3.2
100
AcDbText
  0
TEXT
  5
B1F
330
6B
100
AcDbEntity
  8
0
 62
     3
100
AcDbText
 10
-337.5538366245738
 20
133.6995029419389
 30
0.0
 40
3.2
  1
変更・追記内容
  7
高3.2
100
AcDbText
  0
TEXT
  5
B20
330
6B
100
AcDbEntity
  8
0
 62
     3
100
AcDbText
 10
-362.4403216242346
 20
129.0289644320306
 30
0.0
 40
2.0
  1
1
  7
高2
100
AcDbText
  0
TEXT
  5
B21
330
6B
100
AcDbEntity
  8
0
 62
     3
100
AcDbText
 10
-362.7488331009919
 20
123.8591477197577
 30
0.0
 40
2.0
  1
2
  7
高2
100
AcDbText
  0
TEXT
  5
B22
330
6B
100
AcDbEntity
  8
0
 62
     3
100
AcDbText
 10
-355.5538366245738
 20
133.6995029419389
 30
0.0
 40
3.2
  1
日　付
  7
高3.2
100
AcDbText
  0
TEXT
  5
B23
330
6B
100
AcDbEntity
  8
0
 62
     3
100
AcDbText
 10
-355.5538366245738
 20
138.6995029419389
 30
0.0
 40
3.2
  1
図　　　　面　　　　略　　　　歴
  7
高3.2
100
AcDbText
  0
TEXT
  5
B24
330
6B
100
AcDbEntity
  8
0
 62
     3
100
AcDbText
 10
-365.5538366245738
 20
133.6995029419389
 30
0.0
 40
3.2
  1
記号
  7
高3.2
100
AcDbText
  0
LINE
  5
B25
330
6B
100
AcDbEntity
  8
0
 62
     7
100
AcDbLine
 10
-362.0538366245738
 20
126.990398941939
 30
0.0
 11
-363.9538366245737
 21
123.6995029419389
 31
0.0
  0
LINE
  5
B26
330
6B
100
AcDbEntity
  8
0
 62
     7
100
AcDbLine
 10
-362.0538366245738
 20
126.990398941939
 30
0.0
 11
-360.1538366245737
 21
123.6995029419389
 31
0.0
  0
LINE
  5
B27
330
6B
100
AcDbEntity
  8
0
 62
     7
100
AcDbLine
 10
-363.9538366245737
 20
123.6995029419389
 30
0.0
 11
-360.1538366245737
 21
123.6995029419389
 31
0.0
  0
LINE
  5
B28
330
6B
100
AcDbEntity
  8
0
 62
     7
100
AcDbLine
 10
-362.0538366245738
 20
131.990399941939
 30
0.0
 11
-363.9538366245737
 21
128.6995029419389
 31
0.0
  0
LINE
  5
B29
330
6B
100
AcDbEntity
  8
0
 62
     7
100
AcDbLine
 10
-362.0538366245738
 20
131.990399941939
 30
0.0
 11
-360.1538366245737
 21
128.6995029419389
 31
0.0
  0
LINE
  5
B2A
330
6B
100
AcDbEntity
  8
0
 62
     7
100
AcDbLine
 10
-363.9538366245737
 20
128.6995029419389
 30
0.0
 11
-360.1538366245737
 21
128.6995029419389
 31
0.0
  0
LINE
  5
B2B
330
6B
100
AcDbEntity
  8
0
 62
     3
100
AcDbLine
 10
-367.0538366245738
 20
138.1995029419389
 30
0.0
 11
-281.0538366245738
 21
138.1995029419389
 31
0.0
  0
LINE
  5
B2C
330
6B
100
AcDbEntity
  8
0
 62
     3
100
AcDbLine
 10
-367.0538366245738
 20
133.1995029419389
 30
0.0
 11
-281.0538366245738
 21
133.1995029419389
 31
0.0
  0
LINE
  5
B2D
330
6B
100
AcDbEntity
  8
0
 62
     7
100
AcDbLine
 10
-367.0538366245738
 20
128.1995029419389
 30
0.0
 11
-281.0538366245738
 21
128.1995029419389
 31
0.0
  0
LINE
  5
B2E
330
6B
100
AcDbEntity
  8
0
 62
     3
100
AcDbLine
 10
-367.0538366245738
 20
123.1995029419389
 30
0.0
 11
-281.0538366245738
 21
123.1995029419389
 31
0.0
  0
LINE
  5
B2F
330
6B
100
AcDbEntity
  8
0
 62
     7
100
AcDbLine
 10
-295.0538366245738
 20
123.1995029419389
 30
0.0
 11
-295.0538366245738
 21
138.1995029419389
 31
0.0
  0
LINE
  5
B30
330
6B
100
AcDbEntity
  8
0
 62
     7
100
AcDbLine
 10
-339.0538366245738
 20
123.1995029419389
 30
0.0
 11
-339.0538366245738
 21
138.1995029419389
 31
0.0
  0
LINE
  5
B31
330
6B
100
AcDbEntity
  8
0
 62
     7
100
AcDbLine
 10
-357.0538366245738
 20
123.1995029419389
 30
0.0
 11
-357.0538366245738
 21
138.1995029419389
 31
0.0
  0
LINE
  5
B32
330
6B
100
AcDbEntity
  8
0
 62
     3
100
AcDbLine
 10
-367.0538366245738
 20
123.1995029419389
 30
0.0
 11
-367.0538366245738
 21
143.1995029419389
 31
0.0
  0
LINE
  5
B33
330
6B
100
AcDbEntity
  8
0
 62
     7
100
AcDbLine
 10
-281.0538366245736
 20
-84.80049705806104
 30
0.0
 11
-333.0538366245737
 21
-84.80049705806104
 31
0.0
  0
LINE
  5
B34
330
6B
100
AcDbEntity
  8
0
 62
     7
100
AcDbLine
 10
-281.0538366245736
 20
-78.80049705806104
 30
0.0
 11
-333.0538366245737
 21
-78.80049705806104
 31
0.0
  0
LINE
  5
B35
330
6B
100
AcDbEntity
  8
0
 62
     7
100
AcDbLine
 10
-281.0538366245736
 20
-72.80049705806104
 30
0.0
 11
-333.0538366245737
 21
-72.80049705806104
 31
0.0
  0
LINE
  5
B36
330
6B
100
AcDbEntity
  8
0
 62
     7
100
AcDbLine
 10
-281.0538366245736
 20
-66.80049705806104
 30
0.0
 11
-333.0538366245737
 21
-66.80049705806104
 31
0.0
  0
LINE
  5
B37
330
6B
100
AcDbEntity
  8
0
 62
     3
100
AcDbLine
 10
-281.0538366245736
 20
-60.80049705806104
 30
0.0
 11
-333.0538366245737
 21
-60.80049705806104
 31
0.0
  0
LINE
  5
B38
330
6B
100
AcDbEntity
  8
0
  6
Continuous
100
AcDbLine
 10
-307.0538366245736
 20
-90.80049705806104
 30
0.0
 11
-307.0538366245736
 21
-60.80049705806104
 31
0.0
  0
LINE
  5
B39
330
6B
100
AcDbEntity
  8
0
  6
Continuous
 62
     3
100
AcDbLine
 10
-333.0538366245737
 20
-90.80049705806104
 30
0.0
 11
-333.0538366245737
 21
-60.80049705806103
 31
0.0
  0
TEXT
  5
B3A
330
6B
100
AcDbEntity
  8
0
 62
     3
100
AcDbText
 10
-377.9110773593215
 20
-102.967538425729
 30
0.0
 40
2.5
  1
2PE-WKN/2PE-GKN
  7
高2.5
100
AcDbText
  0
TEXT
  5
C64
330
6B
100
AcDbEntity
  8
0
  6
Continuous
 62
     4
100
AcDbText
 10
-493.3419130821561
 20
-20.57597261363863
 30
0.0
 40
3.0
  1
2-M4タッピングねじ下穴
100
AcDbText
1001
ACAD
1000
MTEXTBEGIN
1070
    73
1070
     1
1070
    44
1040
1.0
1070
    74
1070
     0
1000
MTEXTEND
  0
LINE
  5
C67
330
6B
100
AcDbEntity
  8
0
100
AcDbLine
 10
-570.3091763841727
 20
-9.875732653721675
 30
0.0
 11
-597.7093053046527
 21
-9.875732653721666
 31
0.0
  0
LINE
  5
C68
330
6B
100
AcDbEntity
  8
0
100
AcDbLine
 10
-572.4396394724934
 20
74.12426590008542
 30
0.0
 11
-597.7093053046527
 21
74.12426590008542
 31
0.0
  0
LINE
  5
C69
330
6B
100
AcDbEntity
  8
0
100
AcDbLine
 10
-596.4593053046526
 20
-7.375732653721667
 30
0.0
 11
-596.4593053046526
 21
71.62426590008542
 31
0.0
  0
LINE
  5
C6D
330
6B
100
AcDbEntity
  8
0
100
AcDbLine
 10
-588.4091760682486
 20
5.424267078560472
 30
0.0
 11
-588.4091760682486
 21
-22.90752495087948
 31
0.0
  0
LINE
  5
C6E
330
6B
100
AcDbEntity
  8
0
100
AcDbLine
 10
-551.4091767052621
 20
0.6742671603392339
 30
0.0
 11
-551.4091767052621
 21
-22.90752495087948
 31
0.0
  0
LINE
  5
C6F
330
6B
100
AcDbEntity
  8
0
100
AcDbLine
 10
-585.9091760682486
 20
-21.65752495087948
 30
0.0
 11
-553.9091767052621
 21
-21.65752495087948
 31
0.0
  0
LINE
  5
C73
330
6B
100
AcDbEntity
  8
0
100
AcDbLine
 10
-507.9687068281584
 20
65.12426605933882
 30
0.0
 11
-507.9687068281584
 21
88.91172191701668
 31
0.0
  0
LINE
  5
C74
330
6B
100
AcDbEntity
  8
0
100
AcDbLine
 10
-481.4687072843979
 20
65.07426606019965
 30
0.0
 11
-481.4687072843979
 21
88.91172191701668
 31
0.0
  0
LINE
  5
C75
330
6B
100
AcDbEntity
  8
0
100
AcDbLine
 10
-505.4687068281585
 20
87.66172191701668
 30
0.0
 11
-483.9687072843979
 21
87.66172191701668
 31
0.0
  0
LINE
  5
C79
330
6B
100
AcDbEntity
  8
0
100
AcDbLine
 10
-502.9687069142414
 20
73.87426590869373
 30
0.0
 11
-502.9687069142414
 21
83.08304139236666
 31
0.0
  0
LINE
  5
C7A
330
6B
100
AcDbEntity
  8
0
100
AcDbLine
 10
-483.4687072499646
 20
65.07426606019965
 30
0.0
 11
-483.4687072499646
 21
83.08304139236666
 31
0.0
  0
LINE
  5
C7B
330
6B
100
AcDbEntity
  8
0
100
AcDbLine
 10
-500.4687069142414
 20
81.83304139236666
 30
0.0
 11
-485.9687072499646
 21
81.83304139236666
 31
0.0
  0
LINE
  5
C7F
330
6B
100
AcDbEntity
  8
0
100
AcDbLine
 10
-585.4091761198982
 20
63.5742660860245
 30
0.0
 11
-585.4091761198982
 21
88.2627719281894
 31
0.0
  0
LINE
  5
C80
330
6B
100
AcDbEntity
  8
0
100
AcDbLine
 10
-551.4091767052621
 20
63.5742660860245
 30
0.0
 11
-551.4091767052621
 21
88.2627719281894
 31
0.0
  0
LINE
  5
C81
330
6B
100
AcDbEntity
  8
0
100
AcDbLine
 10
-582.9091761198982
 20
87.0127719281894
 30
0.0
 11
-553.9091767052621
 21
87.0127719281894
 31
0.0
  0
LINE
  5
C85
330
6B
100
AcDbEntity
  8
0
100
AcDbLine
 10
-553.1591766708288
 20
-1.075732805227597
 30
0.0
 11
-535.0321400906978
 21
-1.075732805227602
 31
0.0
  0
LINE
  5
C86
330
6B
100
AcDbEntity
  8
0
100
AcDbLine
 10
-553.1591766708288
 20
65.32426605159137
 30
0.0
 11
-535.0321400906978
 21
65.32426605159135
 31
0.0
  0
LINE
  5
C87
330
6B
100
AcDbEntity
  8
0
100
AcDbLine
 10
-536.2821400906979
 20
1.424267194772397
 30
0.0
 11
-536.2821400906979
 21
62.82426605159136
 31
0.0
  0
LINE
  5
C8B
330
6B
100
AcDbEntity
  8
0
100
AcDbLine
 10
-548.3692455032951
 20
12.62426695890523
 30
0.0
 11
-541.5559674783797
 21
12.62426695890523
 31
0.0
  0
LINE
  5
C8C
330
6B
100
AcDbEntity
  8
0
100
AcDbLine
 10
-548.3692455032951
 20
51.62426628745852
 30
0.0
 11
-541.5559674783797
 21
51.62426628745852
 31
0.0
  0
LINE
  5
C8D
330
6B
100
AcDbEntity
  8
0
100
AcDbLine
 10
-542.8059674783797
 20
15.12426695890523
 30
0.0
 11
-542.8059674783797
 21
49.12426628745852
 31
0.0
  0
LINE
  5
C91
330
6B
100
AcDbEntity
  8
0
 62
     3
100
AcDbLine
 10
-480.7952105845736
 20
143.7401314819388
 30
0.0
 11
-480.8218213345735
 21
143.9105140019389
 31
0.0
  0
LINE
  5
C92
330
6B
100
AcDbEntity
  8
0
 62
     3
100
AcDbLine
 10
-480.8218213345735
 20
143.9105140019389
 30
0.0
 11
-480.8537801645734
 21
144.0736636919389
 31
0.0
  0
LINE
  5
C93
330
6B
100
AcDbEntity
  8
0
 62
     3
100
AcDbLine
 10
-480.8537801645734
 20
144.0736636919389
 30
0.0
 11
-480.8908400645738
 21
144.2283194919389
 31
0.0
  0
LINE
  5
C94
330
6B
100
AcDbEntity
  8
0
 62
     3
100
AcDbLine
 10
-480.8908400645738
 20
144.2283194919389
 30
0.0
 11
-480.9327145645736
 21
144.3732859919389
 31
0.0
  0
LINE
  5
C95
330
6B
100
AcDbEntity
  8
0
 62
     3
100
AcDbLine
 10
-480.9327145645736
 20
144.3732859919389
 30
0.0
 11
-480.9790799945735
 21
144.507442681939
 31
0.0
  0
LINE
  5
C96
330
6B
100
AcDbEntity
  8
0
 62
     3
100
AcDbLine
 10
-480.9790799945735
 20
144.507442681939
 30
0.0
 11
-481.0295779845738
 21
144.6297525819389
 31
0.0
  0
LINE
  5
C97
330
6B
100
AcDbEntity
  8
0
 62
     3
100
AcDbLine
 10
-481.0295779845738
 20
144.6297525819389
 30
0.0
 11
-481.0838182045737
 21
144.7392703219388
 31
0.0
  0
LINE
  5
C98
330
6B
100
AcDbEntity
  8
0
 62
     3
100
AcDbLine
 10
-481.0838182045737
 20
144.7392703219388
 30
0.0
 11
-481.1413814045736
 21
144.8351493719389
 31
0.0
  0
LINE
  5
C99
330
6B
100
AcDbEntity
  8
0
 62
     3
100
AcDbLine
 10
-481.1413814045736
 20
144.8351493719389
 30
0.0
 11
-481.2018226545736
 21
144.9166486419388
 31
0.0
  0
LINE
  5
C9A
330
6B
100
AcDbEntity
  8
0
 62
     3
100
AcDbLine
 10
-481.2018226545736
 20
144.9166486419388
 30
0.0
 11
-481.2646747745735
 21
144.9831381819389
 31
0.0
  0
LINE
  5
C9B
330
6B
100
AcDbEntity
  8
0
 62
     3
100
AcDbLine
 10
-481.2646747745735
 20
144.9831381819389
 30
0.0
 11
-481.3294519545736
 21
145.0341040619389
 31
0.0
  0
LINE
  5
C9C
330
6B
100
AcDbEntity
  8
0
 62
     3
100
AcDbLine
 10
-481.3294519545736
 20
145.0341040619389
 30
0.0
 11
-481.3956534845735
 21
145.0691523419389
 31
0.0
  0
LINE
  5
C9D
330
6B
100
AcDbEntity
  8
0
 62
     3
100
AcDbLine
 10
-481.3956534845735
 20
145.0691523419389
 30
0.0
 11
-481.4627676745735
 21
145.0880121119389
 31
0.0
  0
LINE
  5
C9E
330
6B
100
AcDbEntity
  8
0
 62
     3
100
AcDbLine
 10
-481.4627676745735
 20
145.0880121119389
 30
0.0
 11
-481.5302757645737
 21
145.0905376119389
 31
0.0
  0
LINE
  5
C9F
330
6B
100
AcDbEntity
  8
0
 62
     3
100
AcDbLine
 10
-481.5302757645737
 20
145.0905376119389
 30
0.0
 11
-481.5976559545736
 21
145.0767093019388
 31
0.0
  0
LINE
  5
CA0
330
6B
100
AcDbEntity
  8
0
 62
     3
100
AcDbLine
 10
-481.5976559545736
 20
145.0767093019388
 30
0.0
 11
-481.6643874245736
 21
145.0466340719389
 31
0.0
  0
LINE
  5
CA1
330
6B
100
AcDbEntity
  8
0
 62
     3
100
AcDbLine
 10
-481.6643874245736
 20
145.0466340719389
 30
0.0
 11
-481.7299543645736
 21
145.0005444019389
 31
0.0
  0
LINE
  5
CA2
330
6B
100
AcDbEntity
  8
0
 62
     3
100
AcDbLine
 10
-481.7299543645736
 20
145.0005444019389
 30
0.0
 11
-481.7938500045736
 21
144.9387965219389
 31
0.0
  0
LINE
  5
CA3
330
6B
100
AcDbEntity
  8
0
 62
     3
100
AcDbLine
 10
-481.7938500045736
 20
144.9387965219389
 30
0.0
 11
-481.8555804345735
 21
144.8618677319389
 31
0.0
  0
LINE
  5
CA4
330
6B
100
AcDbEntity
  8
0
 62
     3
100
AcDbLine
 10
-481.8555804345735
 20
144.8618677319389
 30
0.0
 11
-481.9146685245738
 21
144.770352631939
 31
0.0
  0
LINE
  5
CA5
330
6B
100
AcDbEntity
  8
0
 62
     3
100
AcDbLine
 10
-481.9146685245738
 20
144.770352631939
 30
0.0
 11
-481.9706575545736
 21
144.6649586019389
 31
0.0
  0
LINE
  5
CA6
330
6B
100
AcDbEntity
  8
0
 62
     3
100
AcDbLine
 10
-481.9706575545736
 20
144.6649586019389
 30
0.0
 11
-482.0231147545738
 21
144.5465002719389
 31
0.0
  0
LINE
  5
CA7
330
6B
100
AcDbEntity
  8
0
 62
     3
100
AcDbLine
 10
-482.0231147545738
 20
144.5465002719389
 30
0.0
 11
-482.0716346545736
 21
144.4158932619389
 31
0.0
  0
LINE
  5
CA8
330
6B
100
AcDbEntity
  8
0
 62
     3
100
AcDbLine
 10
-482.0716346545736
 20
144.4158932619389
 30
0.0
 11
-482.1158422345736
 21
144.2741471119388
 31
0.0
  0
LINE
  5
CA9
330
6B
100
AcDbEntity
  8
0
 62
     3
100
AcDbLine
 10
-482.1158422345736
 20
144.2741471119388
 30
0.0
 11
-482.1553957745736
 21
144.1223574419389
 31
0.0
  0
LINE
  5
CAA
330
6B
100
AcDbEntity
  8
0
 62
     3
100
AcDbLine
 10
-482.1553957745736
 20
144.1223574419389
 30
0.0
 11
-482.1899895545735
 21
143.9616975019389
 31
0.0
  0
LINE
  5
CAB
330
6B
100
AcDbEntity
  8
0
 62
     3
100
AcDbLine
 10
-482.1899895545735
 20
143.9616975019389
 30
0.0
 11
-482.2193561845736
 21
143.7934091119389
 31
0.0
  0
LINE
  5
CAC
330
6B
100
AcDbEntity
  8
0
 62
     3
100
AcDbLine
 10
-482.2193561845736
 20
143.7934091119389
 30
0.0
 11
-482.2432686745735
 21
143.6187930519389
 31
0.0
  0
LINE
  5
CAD
330
6B
100
AcDbEntity
  8
0
 62
     3
100
AcDbLine
 10
-482.2432686745735
 20
143.6187930519389
 30
0.0
 11
-482.2615421845735
 21
143.4391990219389
 31
0.0
  0
LINE
  5
CAE
330
6B
100
AcDbEntity
  8
0
 62
     3
100
AcDbLine
 10
-482.2615421845735
 20
143.4391990219389
 30
0.0
 11
-482.2740354845738
 21
143.2560151819389
 31
0.0
  0
LINE
  5
CAF
330
6B
100
AcDbEntity
  8
0
 62
     3
100
AcDbLine
 10
-482.2740354845738
 20
143.2560151819389
 30
0.0
 11
-482.2806519945736
 21
143.0706574619389
 31
0.0
  0
LINE
  5
CB0
330
6B
100
AcDbEntity
  8
0
 62
     3
100
AcDbLine
 10
-482.2806519945736
 20
143.0706574619389
 30
0.0
 11
-482.2813405845736
 21
142.8845585619389
 31
0.0
  0
LINE
  5
CB1
330
6B
100
AcDbEntity
  8
0
 62
     3
100
AcDbLine
 10
-482.2813405845736
 20
142.8845585619389
 30
0.0
 11
-482.2760959245736
 21
142.6991569519389
 31
0.0
  0
LINE
  5
CB2
330
6B
100
AcDbEntity
  8
0
 62
     3
100
AcDbLine
 10
-482.2760959245736
 20
142.6991569519389
 30
0.0
 11
-482.2649585545738
 21
142.5158856819389
 31
0.0
  0
LINE
  5
CB3
330
6B
100
AcDbEntity
  8
0
 62
     3
100
AcDbLine
 10
-482.2649585545738
 20
142.5158856819389
 30
0.0
 11
-482.2480145545738
 21
142.3361613419389
 31
0.0
  0
LINE
  5
CB4
330
6B
100
AcDbEntity
  8
0
 62
     3
100
AcDbLine
 10
-482.2480145545738
 20
142.3361613419389
 30
0.0
 11
-482.2253949045736
 21
142.1613731119389
 31
0.0
  0
LINE
  5
CB5
330
6B
100
AcDbEntity
  8
0
 62
     3
100
AcDbLine
 10
-482.2253949045736
 20
142.1613731119389
 30
0.0
 11
-482.1972744345734
 21
141.9928720119389
 31
0.0
  0
LINE
  5
CB6
330
6B
100
AcDbEntity
  8
0
 62
     3
100
AcDbLine
 10
-482.1972744345734
 20
141.9928720119389
 30
0.0
 11
-482.1638705045736
 21
141.8319604719389
 31
0.0
  0
LINE
  5
CB7
330
6B
100
AcDbEntity
  8
0
 62
     3
100
AcDbLine
 10
-482.1638705045736
 20
141.8319604719389
 30
0.0
 11
-482.1254413045735
 21
141.6798822519389
 31
0.0
  0
LINE
  5
CB8
330
6B
100
AcDbEntity
  8
0
 62
     3
100
AcDbLine
 10
-482.1254413045735
 20
141.6798822519389
 30
0.0
 11
-482.0822838845736
 21
141.5378128419389
 31
0.0
  0
LINE
  5
CB9
330
6B
100
AcDbEntity
  8
0
 62
     3
100
AcDbLine
 10
-482.0822838845736
 20
141.5378128419389
 30
0.0
 11
-482.0347318145738
 21
141.4068503619389
 31
0.0
  0
LINE
  5
CBA
330
6B
100
AcDbEntity
  8
0
 62
     3
100
AcDbLine
 10
-482.0347318145738
 20
141.4068503619389
 30
0.0
 11
-481.9831526645735
 21
141.2880070819389
 31
0.0
  0
LINE
  5
CBB
330
6B
100
AcDbEntity
  8
0
 62
     3
100
AcDbLine
 10
-481.9831526645735
 20
141.2880070819389
 30
0.0
 11
-481.9279450945738
 21
141.1822016119389
 31
0.0
  0
LINE
  5
CBC
330
6B
100
AcDbEntity
  8
0
 62
     3
100
AcDbLine
 10
-481.9279450945738
 20
141.1822016119389
 30
0.0
 11
-481.8695358445736
 21
141.0902517519389
 31
0.0
  0
LINE
  5
CBD
330
6B
100
AcDbEntity
  8
0
 62
     3
100
AcDbLine
 10
-481.8695358445736
 20
141.0902517519389
 30
0.0
 11
-481.8083763845736
 21
141.0128682519389
 31
0.0
  0
LINE
  5
CBE
330
6B
100
AcDbEntity
  8
0
 62
     3
100
AcDbLine
 10
-481.8083763845736
 20
141.0128682519389
 30
0.0
 11
-481.7449394445735
 21
140.9506492319389
 31
0.0
  0
LINE
  5
CBF
330
6B
100
AcDbEntity
  8
0
 62
     3
100
AcDbLine
 10
-481.7449394445735
 20
140.9506492319389
 30
0.0
 11
-481.6797153645735
 21
140.9040756219389
 31
0.0
  0
LINE
  5
CC0
330
6B
100
AcDbEntity
  8
0
 62
     3
100
AcDbLine
 10
-481.6797153645735
 20
140.9040756219389
 30
0.0
 11
-481.6132082845737
 21
140.8735073919389
 31
0.0
  0
LINE
  5
CC1
330
6B
100
AcDbEntity
  8
0
 62
     3
100
AcDbLine
 10
-481.6132082845737
 20
140.8735073919389
 30
0.0
 11
-481.5459322745738
 21
140.8591808419389
 31
0.0
  0
LINE
  5
CC2
330
6B
100
AcDbEntity
  8
0
 62
     3
100
AcDbLine
 10
-481.5459322745738
 20
140.8591808419389
 30
0.0
 11
-481.4784073445736
 21
140.8612067019389
 31
0.0
  0
LINE
  5
CC3
330
6B
100
AcDbEntity
  8
0
 62
     3
100
AcDbLine
 10
-481.4784073445736
 20
140.8612067019389
 30
0.0
 11
-481.4111554245738
 21
140.8795693019389
 31
0.0
  0
LINE
  5
CC4
330
6B
100
AcDbEntity
  8
0
 62
     3
100
AcDbLine
 10
-481.4111554245738
 20
140.8795693019389
 30
0.0
 11
-481.3446963445736
 21
140.9141267219389
 31
0.0
  0
LINE
  5
CC5
330
6B
100
AcDbEntity
  8
0
 62
     3
100
AcDbLine
 10
-481.3446963445736
 20
140.9141267219389
 30
0.0
 11
-481.2795437845736
 21
140.9646118519389
 31
0.0
  0
LINE
  5
CC6
330
6B
100
AcDbEntity
  8
0
 62
     3
100
AcDbLine
 10
-481.2795437845736
 20
140.9646118519389
 30
0.0
 11
-481.2162013545735
 21
141.0306344519389
 31
0.0
  0
LINE
  5
CC7
330
6B
100
AcDbEntity
  8
0
 62
     3
100
AcDbLine
 10
-481.2162013545735
 20
141.0306344519389
 30
0.0
 11
-481.1551586545737
 21
141.1116842119389
 31
0.0
  0
LINE
  5
CC8
330
6B
100
AcDbEntity
  8
0
 62
     3
100
AcDbLine
 10
-481.1551586545737
 20
141.1116842119389
 30
0.0
 11
-481.0968875145737
 21
141.2071346619389
 31
0.0
  0
LINE
  5
CC9
330
6B
100
AcDbEntity
  8
0
 62
     3
100
AcDbLine
 10
-481.0968875145737
 20
141.2071346619389
 30
0.0
 11
-481.0418383345736
 21
141.3162480219389
 31
0.0
  0
LINE
  5
CCA
330
6B
100
AcDbEntity
  8
0
 62
     3
100
AcDbLine
 10
-481.0418383345736
 20
141.3162480219389
 30
0.0
 11
-480.9904366145737
 21
141.4381808819389
 31
0.0
  0
LINE
  5
CCB
330
6B
100
AcDbEntity
  8
0
 62
     3
100
AcDbLine
 10
-480.9904366145737
 20
141.4381808819389
 30
0.0
 11
-480.9430796745738
 21
141.5719907919389
 31
0.0
  0
LINE
  5
CCC
330
6B
100
AcDbEntity
  8
0
 62
     3
100
AcDbLine
 10
-480.9430796745738
 20
141.5719907919389
 30
0.0
 11
-480.9001335545736
 21
141.7166434419389
 31
0.0
  0
LINE
  5
CCD
330
6B
100
AcDbEntity
  8
0
 62
     3
100
AcDbLine
 10
-480.9001335545736
 20
141.7166434419389
 30
0.0
 11
-480.8619302045737
 21
141.8710207619389
 31
0.0
  0
LINE
  5
CCE
330
6B
100
AcDbEntity
  8
0
 62
     3
100
AcDbLine
 10
-480.8619302045737
 20
141.8710207619389
 30
0.0
 11
-480.8287649145738
 21
142.0339294919389
 31
0.0
  0
LINE
  5
CCF
330
6B
100
AcDbEntity
  8
0
 62
     3
100
AcDbLine
 10
-480.8287649145738
 20
142.0339294919389
 30
0.0
 11
-480.8008940345736
 21
142.2041104219389
 31
0.0
  0
LINE
  5
CD0
330
6B
100
AcDbEntity
  8
0
  6
Continuous
100
AcDbLine
 10
-574.1569545307842
 20
53.84483063734015
 30
0.0
 11
-546.8588341982955
 21
69.86965622687771
 31
0.0
1001
ACAD
1000
DSTYLE
1002
{
1070
   341
1005
954
1070
   147
1040
0.625
1070
    77
1070
     0
1002
}
  0
LINE
  5
CD2
330
6B
100
AcDbEntity
  8
0
  6
Continuous
100
AcDbLine
 10
-562.7369128428945
 20
54.09745353687427
 30
0.0
 11
-546.8588341982955
 21
69.86965622687771
 31
0.0
1001
ACAD
1000
DSTYLE
1002
{
1070
   341
1005
954
1070
   147
1040
0.625
1070
    77
1070
     0
1002
}
  0
LINE
  5
CD4
330
6B
100
AcDbEntity
  8
0
  6
Continuous
100
AcDbLine
 10
-565.5500828898905
 20
43.96627206853966
 30
0.0
 11
-536.0334667808253
 21
69.91244435466157
 31
0.0
1001
ACAD
1000
DSTYLE
1002
{
1070
   341
1005
954
1070
   147
1040
0.625
1070
    77
1070
     0
1002
}
  0
LINE
  5
CD6
330
6B
100
AcDbEntity
  8
0
  6
Continuous
100
AcDbLine
 10
-500.4508885105533
 20
55.69963994666514
 30
0.0
 11
-469.5874473433778
 21
70.45652783690376
 31
0.0
1001
ACAD
1000
DSTYLE
1002
{
1070
   341
1005
954
1070
   147
1040
0.625
1070
    77
1070
     0
1002
}
  0
LINE
  5
CD8
330
6B
100
AcDbEntity
  8
0
  6
Continuous
100
AcDbLine
 10
-490.969372008727
 20
54.93868674586421
 30
0.0
 11
-469.5874473433778
 21
70.45652783690376
 31
0.0
1001
ACAD
1000
DSTYLE
1002
{
1070
   341
1005
954
1070
   147
1040
0.625
1070
    77
1070
     0
1002
}
  0
LINE
  5
CDA
330
6B
100
AcDbEntity
  8
0
  6
Continuous
100
AcDbLine
 10
-426.7076496835913
 20
61.07878079388754
 30
0.0
 11
-398.1918492480156
 21
71.65467718715023
 31
0.0
1001
ACAD
1000
DSTYLE
1002
{
1070
   341
1005
954
1070
   147
1040
0.625
1070
    77
1070
     0
1002
}
  0
LINE
  5
CDC
330
6B
100
AcDbEntity
  8
0
  6
Continuous
100
AcDbLine
 10
-429.4869876235482
 20
31.32117919494071
 30
0.0
 11
-398.3175069646317
 21
22.56397371689809
 31
0.0
1001
ACAD
1000
DSTYLE
1002
{
1070
   341
1005
954
1070
   147
1040
0.625
1070
    77
1070
     0
1002
}
  0
LINE
  5
CDE
330
6B
100
AcDbEntity
  8
0
  6
Continuous
100
AcDbLine
 10
-428.9834510910786
 20
12.70740930353637
 30
0.0
 11
-398.4954218441162
 21
10.93161598857056
 31
0.0
1001
ACAD
1000
DSTYLE
1002
{
1070
   341
1005
954
1070
   147
1040
0.625
1070
    77
1070
     0
1002
}
  0
LINE
  5
CE0
330
6B
100
AcDbEntity
  8
0
  6
Continuous
100
AcDbLine
 10
-415.1715657380186
 20
2.391207473918973
 30
0.0
 11
-398.4153432557858
 21
-0.80474384876085
 31
0.0
1001
ACAD
1000
DSTYLE
1002
{
1070
   341
1005
954
1070
   147
1040
0.625
1070
    77
1070
     0
1002
}
  0
LINE
  5
CE2
330
6B
100
AcDbEntity
  8
0
  6
Continuous
100
AcDbLine
 10
-415.6494061564903
 20
-3.265897174845426
 30
0.0
 11
-398.1263891776305
 21
-10.49075928714089
 31
0.0
1001
ACAD
1000
DSTYLE
1002
{
1070
   341
1005
954
1070
   147
1040
0.625
1070
    77
1070
     0
1002
}
  0
LINE
  5
CE4
330
6B
100
AcDbEntity
  8
0
  6
Continuous
100
AcDbLine
 10
-415.9302874233189
 20
35.04948157628648
 30
0.0
 11
-398.4499041296261
 21
32.45992000187075
 31
0.0
1001
ACAD
1000
DSTYLE
1002
{
1070
   341
1005
954
1070
   147
1040
0.625
1070
    77
1070
     0
1002
}
  0
LINE
  5
CE6
330
6B
100
AcDbEntity
  8
0
  6
Continuous
100
AcDbLine
 10
-499.8879476404065
 20
-12.1300527990409
 30
0.0
 11
-495.4532008727537
 21
-21.38034460890795
 31
0.0
  0
LINE
  5
CE7
330
6B
100
AcDbEntity
  8
0
  6
Continuous
100
AcDbLine
 10
-495.4532008727537
 20
-21.38034460890795
 30
0.0
 11
-492.3282008727537
 21
-21.38034460890795
 31
0.0
  0
LINE
  5
CE8
330
6B
100
AcDbEntity
  8
0
  6
ByBlock
 62
     0
370
    -2
100
AcDbLine
 10
-500.4919904690246
 20
-12.419641174932
 30
0.0
 11
-500.9687069486744
 21
-9.875732653721675
 31
0.0
  0
LINE
  5
CE9
330
6B
100
AcDbEntity
  8
0
  6
ByBlock
 62
     0
370
    -2
100
AcDbLine
 10
-500.9687069486744
 20
-9.875732653721675
 30
0.0
 11
-499.2839048117883
 21
-11.8404644231498
 31
0.0
  0
LINE
  5
CEA
330
6B
100
AcDbEntity
  8
0
  6
ByBlock
 62
     0
370
    -2
100
AcDbLine
 10
-500.9687069486744
 20
-9.875732653721675
 30
0.0
 11
-499.8879476404065
 21
-12.1300527990409
 31
0.0
  0
TEXT
  5
CEB
330
6B
100
AcDbEntity
  8
0
  6
Continuous
 62
     4
100
AcDbText
 10
-597.0843053046527
 20
29.62426662318178
 30
0.0
 40
3.0
  1
84
 50
90.0
100
AcDbText
  0
LINE
  5
CEC
330
6B
100
AcDbEntity
  8
0
  6
ByBlock
 62
     0
370
    -2
100
AcDbLine
 10
-597.1291778046527
 20
71.62426590008542
 30
0.0
 11
-596.4593053046526
 21
74.12426590008542
 31
0.0
  0
LINE
  5
CED
330
6B
100
AcDbEntity
  8
0
  6
ByBlock
 62
     0
370
    -2
100
AcDbLine
 10
-596.4593053046526
 20
74.12426590008542
 30
0.0
 11
-595.7894328046527
 21
71.62426590008542
 31
0.0
  0
LINE
  5
CEE
330
6B
100
AcDbEntity
  8
0
  6
ByBlock
 62
     0
370
    -2
100
AcDbLine
 10
-596.4593053046526
 20
74.12426590008542
 30
0.0
 11
-596.4593053046526
 21
71.62426590008542
 31
0.0
  0
LINE
  5
CEF
330
6B
100
AcDbEntity
  8
0
  6
ByBlock
 62
     0
370
    -2
100
AcDbLine
 10
-595.7894328046527
 20
-7.375732653721666
 30
0.0
 11
-596.4593053046526
 21
-9.875732653721666
 31
0.0
  0
LINE
  5
CF0
330
6B
100
AcDbEntity
  8
0
  6
ByBlock
 62
     0
370
    -2
100
AcDbLine
 10
-596.4593053046526
 20
-9.875732653721666
 30
0.0
 11
-597.1291778046527
 21
-7.375732653721666
 31
0.0
  0
LINE
  5
CF1
330
6B
100
AcDbEntity
  8
0
  6
ByBlock
 62
     0
370
    -2
100
AcDbLine
 10
-596.4593053046526
 20
-9.875732653721666
 30
0.0
 11
-596.4593053046526
 21
-7.375732653721666
 31
0.0
  0
TEXT
  5
CF2
330
6B
100
AcDbEntity
  8
0
  6
Continuous
 62
     4
100
AcDbText
 10
-572.4091763867553
 20
-21.03252495087948
 30
0.0
 40
3.0
  1
37
100
AcDbText
  0
LINE
  5
CF3
330
6B
100
AcDbEntity
  8
0
  6
ByBlock
 62
     0
370
    -2
100
AcDbLine
 10
-553.9091767052621
 20
-20.98765245087948
 30
0.0
 11
-551.4091767052621
 21
-21.65752495087948
 31
0.0
  0
LINE
  5
CF4
330
6B
100
AcDbEntity
  8
0
  6
ByBlock
 62
     0
370
    -2
100
AcDbLine
 10
-551.4091767052621
 20
-21.65752495087948
 30
0.0
 11
-553.9091767052621
 21
-22.32739745087948
 31
0.0
  0
LINE
  5
CF5
330
6B
100
AcDbEntity
  8
0
  6
ByBlock
 62
     0
370
    -2
100
AcDbLine
 10
-551.4091767052621
 20
-21.65752495087948
 30
0.0
 11
-553.9091767052621
 21
-21.65752495087948
 31
0.0
  0
LINE
  5
CF6
330
6B
100
AcDbEntity
  8
0
  6
ByBlock
 62
     0
370
    -2
100
AcDbLine
 10
-585.9091760682486
 20
-22.32739745087948
 30
0.0
 11
-588.4091760682486
 21
-21.65752495087948
 31
0.0
  0
LINE
  5
CF7
330
6B
100
AcDbEntity
  8
0
  6
ByBlock
 62
     0
370
    -2
100
AcDbLine
 10
-588.4091760682486
 20
-21.65752495087948
 30
0.0
 11
-585.9091760682486
 21
-20.98765245087948
 31
0.0
  0
LINE
  5
CF8
330
6B
100
AcDbEntity
  8
0
  6
ByBlock
 62
     0
370
    -2
100
AcDbLine
 10
-588.4091760682486
 20
-21.65752495087948
 30
0.0
 11
-585.9091760682486
 21
-21.65752495087948
 31
0.0
  0
TEXT
  5
CF9
330
6B
100
AcDbEntity
  8
0
  6
Continuous
 62
     4
100
AcDbText
 10
-499.2187070562781
 20
88.28672191701668
 30
0.0
 40
3.0
  1
26.5
100
AcDbText
  0
LINE
  5
CFA
330
6B
100
AcDbEntity
  8
0
  6
ByBlock
 62
     0
370
    -2
100
AcDbLine
 10
-483.9687072843979
 20
88.33159441701669
 30
0.0
 11
-481.4687072843979
 21
87.66172191701668
 31
0.0
  0
LINE
  5
CFB
330
6B
100
AcDbEntity
  8
0
  6
ByBlock
 62
     0
370
    -2
100
AcDbLine
 10
-481.4687072843979
 20
87.66172191701668
 30
0.0
 11
-483.9687072843979
 21
86.9918494170167
 31
0.0
  0
LINE
  5
CFC
330
6B
100
AcDbEntity
  8
0
  6
ByBlock
 62
     0
370
    -2
100
AcDbLine
 10
-481.4687072843979
 20
87.66172191701668
 30
0.0
 11
-483.9687072843979
 21
87.66172191701668
 31
0.0
  0
LINE
  5
CFD
330
6B
100
AcDbEntity
  8
0
  6
ByBlock
 62
     0
370
    -2
100
AcDbLine
 10
-505.4687068281585
 20
86.9918494170167
 30
0.0
 11
-507.9687068281584
 21
87.66172191701668
 31
0.0
  0
LINE
  5
CFE
330
6B
100
AcDbEntity
  8
0
  6
ByBlock
 62
     0
370
    -2
100
AcDbLine
 10
-507.9687068281584
 20
87.66172191701668
 30
0.0
 11
-505.4687068281585
 21
88.33159441701669
 31
0.0
  0
LINE
  5
CFF
330
6B
100
AcDbEntity
  8
0
  6
ByBlock
 62
     0
370
    -2
100
AcDbLine
 10
-507.9687068281584
 20
87.66172191701668
 30
0.0
 11
-505.4687068281585
 21
87.66172191701668
 31
0.0
  0
TEXT
  5
D00
330
6B
100
AcDbEntity
  8
0
  6
Continuous
 62
     4
100
AcDbText
 10
-497.218707082103
 20
82.45804139236666
 30
0.0
 40
3.0
  1
19.5
100
AcDbText
  0
LINE
  5
D01
330
6B
100
AcDbEntity
  8
0
  6
ByBlock
 62
     0
370
    -2
100
AcDbLine
 10
-485.9687072499646
 20
82.50291389236664
 30
0.0
 11
-483.4687072499646
 21
81.83304139236666
 31
0.0
  0
LINE
  5
D02
330
6B
100
AcDbEntity
  8
0
  6
ByBlock
 62
     0
370
    -2
100
AcDbLine
 10
-483.4687072499646
 20
81.83304139236666
 30
0.0
 11
-485.9687072499646
 21
81.16316889236665
 31
0.0
  0
LINE
  5
D03
330
6B
100
AcDbEntity
  8
0
  6
ByBlock
 62
     0
370
    -2
100
AcDbLine
 10
-483.4687072499646
 20
81.83304139236666
 30
0.0
 11
-485.9687072499646
 21
81.83304139236666
 31
0.0
  0
LINE
  5
D04
330
6B
100
AcDbEntity
  8
0
  6
ByBlock
 62
     0
370
    -2
100
AcDbLine
 10
-500.4687069142414
 20
81.16316889236665
 30
0.0
 11
-502.9687069142414
 21
81.83304139236666
 31
0.0
  0
LINE
  5
D05
330
6B
100
AcDbEntity
  8
0
  6
ByBlock
 62
     0
370
    -2
100
AcDbLine
 10
-502.9687069142414
 20
81.83304139236666
 30
0.0
 11
-500.4687069142414
 21
82.50291389236664
 31
0.0
  0
LINE
  5
D06
330
6B
100
AcDbEntity
  8
0
  6
ByBlock
 62
     0
370
    -2
100
AcDbLine
 10
-502.9687069142414
 20
81.83304139236666
 30
0.0
 11
-500.4687069142414
 21
81.83304139236666
 31
0.0
  0
TEXT
  5
D07
330
6B
100
AcDbEntity
  8
0
  6
Continuous
 62
     4
100
AcDbText
 10
-570.90917641258
 20
87.6377719281894
 30
0.0
 40
3.0
  1
34
100
AcDbText
  0
LINE
  5
D08
330
6B
100
AcDbEntity
  8
0
  6
ByBlock
 62
     0
370
    -2
100
AcDbLine
 10
-553.9091767052621
 20
87.6826444281894
 30
0.0
 11
-551.4091767052621
 21
87.0127719281894
 31
0.0
  0
LINE
  5
D09
330
6B
100
AcDbEntity
  8
0
  6
ByBlock
 62
     0
370
    -2
100
AcDbLine
 10
-551.4091767052621
 20
87.0127719281894
 30
0.0
 11
-553.9091767052621
 21
86.34289942818941
 31
0.0
  0
LINE
  5
D0A
330
6B
100
AcDbEntity
  8
0
  6
ByBlock
 62
     0
370
    -2
100
AcDbLine
 10
-551.4091767052621
 20
87.0127719281894
 30
0.0
 11
-553.9091767052621
 21
87.0127719281894
 31
0.0
  0
LINE
  5
D0B
330
6B
100
AcDbEntity
  8
0
  6
ByBlock
 62
     0
370
    -2
100
AcDbLine
 10
-582.9091761198982
 20
86.34289942818941
 30
0.0
 11
-585.4091761198982
 21
87.0127719281894
 31
0.0
  0
LINE
  5
D0C
330
6B
100
AcDbEntity
  8
0
  6
ByBlock
 62
     0
370
    -2
100
AcDbLine
 10
-585.4091761198982
 20
87.0127719281894
 30
0.0
 11
-582.9091761198982
 21
87.6826444281894
 31
0.0
  0
LINE
  5
D0D
330
6B
100
AcDbEntity
  8
0
  6
ByBlock
 62
     0
370
    -2
100
AcDbLine
 10
-585.4091761198982
 20
87.0127719281894
 30
0.0
 11
-582.9091761198982
 21
87.0127719281894
 31
0.0
  0
TEXT
  5
D0E
330
6B
100
AcDbEntity
  8
0
  6
Continuous
 62
     4
100
AcDbText
 10
-536.9071400906979
 20
27.6242666231818
 30
0.0
 40
3.0
  1
66.4
 50
90.0
100
AcDbText
  0
LINE
  5
D0F
330
6B
100
AcDbEntity
  8
0
  6
ByBlock
 62
     0
370
    -2
100
AcDbLine
 10
-536.9520125906979
 20
62.82426605159135
 30
0.0
 11
-536.2821400906979
 21
65.32426605159135
 31
0.0
  0
LINE
  5
D10
330
6B
100
AcDbEntity
  8
0
  6
ByBlock
 62
     0
370
    -2
100
AcDbLine
 10
-536.2821400906979
 20
65.32426605159135
 30
0.0
 11
-535.6122675906979
 21
62.82426605159135
 31
0.0
  0
LINE
  5
D11
330
6B
100
AcDbEntity
  8
0
  6
ByBlock
 62
     0
370
    -2
100
AcDbLine
 10
-536.2821400906979
 20
65.32426605159135
 30
0.0
 11
-536.2821400906979
 21
62.82426605159135
 31
0.0
  0
LINE
  5
D12
330
6B
100
AcDbEntity
  8
0
  6
ByBlock
 62
     0
370
    -2
100
AcDbLine
 10
-535.6122675906979
 20
1.424267194772397
 30
0.0
 11
-536.2821400906979
 21
-1.075732805227602
 31
0.0
  0
LINE
  5
D13
330
6B
100
AcDbEntity
  8
0
  6
ByBlock
 62
     0
370
    -2
100
AcDbLine
 10
-536.2821400906979
 20
-1.075732805227602
 30
0.0
 11
-536.9520125906979
 21
1.424267194772397
 31
0.0
  0
LINE
  5
D14
330
6B
100
AcDbEntity
  8
0
  6
ByBlock
 62
     0
370
    -2
100
AcDbLine
 10
-536.2821400906979
 20
-1.075732805227602
 30
0.0
 11
-536.2821400906979
 21
1.424267194772397
 31
0.0
  0
TEXT
  5
D15
330
6B
100
AcDbEntity
  8
0
  6
Continuous
 62
     4
100
AcDbText
 10
-543.4309674783797
 20
29.62426662318179
 30
0.0
 40
3.0
  1
39
 50
90.0
100
AcDbText
  0
LINE
  5
D16
330
6B
100
AcDbEntity
  8
0
  6
ByBlock
 62
     0
370
    -2
100
AcDbLine
 10
-543.4758399783797
 20
49.12426628745852
 30
0.0
 11
-542.8059674783797
 21
51.62426628745852
 31
0.0
  0
LINE
  5
D17
330
6B
100
AcDbEntity
  8
0
  6
ByBlock
 62
     0
370
    -2
100
AcDbLine
 10
-542.8059674783797
 20
51.62426628745852
 30
0.0
 11
-542.1360949783798
 21
49.12426628745852
 31
0.0
  0
LINE
  5
D18
330
6B
100
AcDbEntity
  8
0
  6
ByBlock
 62
     0
370
    -2
100
AcDbLine
 10
-542.8059674783797
 20
51.62426628745852
 30
0.0
 11
-542.8059674783797
 21
49.12426628745852
 31
0.0
  0
LINE
  5
D19
330
6B
100
AcDbEntity
  8
0
  6
ByBlock
 62
     0
370
    -2
100
AcDbLine
 10
-542.1360949783798
 20
15.12426695890523
 30
0.0
 11
-542.8059674783797
 21
12.62426695890523
 31
0.0
  0
LINE
  5
D1A
330
6B
100
AcDbEntity
  8
0
  6
ByBlock
 62
     0
370
    -2
100
AcDbLine
 10
-542.8059674783797
 20
12.62426695890523
 30
0.0
 11
-543.4758399783797
 21
15.12426695890523
 31
0.0
  0
LINE
  5
D1B
330
6B
100
AcDbEntity
  8
0
  6
ByBlock
 62
     0
370
    -2
100
AcDbLine
 10
-542.8059674783797
 20
12.62426695890523
 30
0.0
 11
-542.8059674783797
 21
15.12426695890523
 31
0.0
  0
ARC
  5
D1C
330
6B
100
AcDbEntity
  8
0
  6
ByBlock
 62
     0
100
AcDbCircle
 10
-574.1569545307842
 20
53.84483063734015
 30
0.0
 40
0.1562500000000045
100
AcDbArc
 50
30.41422802265707
 51
210.4142280226571
  0
ARC
  5
D1D
330
6B
100
AcDbEntity
  8
0
  6
ByBlock
 62
     0
100
AcDbCircle
 10
-574.1569545307842
 20
53.84483063734015
 30
0.0
 40
0.1562500000000045
100
AcDbArc
 50
210.4142280226571
 51
30.41422802265707
  0
ARC
  5
D1E
330
6B
100
AcDbEntity
  8
0
  6
ByBlock
 62
     0
100
AcDbCircle
 10
-562.7369128428945
 20
54.09745353687427
 30
0.0
 40
0.1562499999999754
100
AcDbArc
 50
44.80833589886919
 51
224.8083358988691
  0
ARC
  5
D1F
330
6B
100
AcDbEntity
  8
0
  6
ByBlock
 62
     0
100
AcDbCircle
 10
-562.7369128428945
 20
54.09745353687427
 30
0.0
 40
0.1562499999999754
100
AcDbArc
 50
224.8083358988691
 51
44.80833589886919
  0
ARC
  5
D20
330
6B
100
AcDbEntity
  8
0
  6
ByBlock
 62
     0
100
AcDbCircle
 10
-565.5500828898905
 20
43.96627206853966
 30
0.0
 40
0.1562500000000106
100
AcDbArc
 50
41.31663907488587
 51
221.3166390748858
  0
ARC
  5
D21
330
6B
100
AcDbEntity
  8
0
  6
ByBlock
 62
     0
100
AcDbCircle
 10
-565.5500828898905
 20
43.96627206853966
 30
0.0
 40
0.1562500000000106
100
AcDbArc
 50
221.3166390748858
 51
41.31663907488587
  0
ARC
  5
D22
330
6B
100
AcDbEntity
  8
0
  6
ByBlock
 62
     0
100
AcDbCircle
 10
-500.4508885105533
 20
55.69963994666514
 30
0.0
 40
0.1562500000000148
100
AcDbArc
 50
25.55409022536853
 51
205.5540902253685
  0
ARC
  5
D23
330
6B
100
AcDbEntity
  8
0
  6
ByBlock
 62
     0
100
AcDbCircle
 10
-500.4508885105533
 20
55.69963994666514
 30
0.0
 40
0.1562500000000148
100
AcDbArc
 50
205.5540902253685
 51
25.55409022536853
  0
ARC
  5
D24
330
6B
100
AcDbEntity
  8
0
  6
ByBlock
 62
     0
100
AcDbCircle
 10
-490.969372008727
 20
54.93868674586421
 30
0.0
 40
0.1562500000000049
100
AcDbArc
 50
35.97010928714097
 51
215.970109287141
  0
ARC
  5
D25
330
6B
100
AcDbEntity
  8
0
  6
ByBlock
 62
     0
100
AcDbCircle
 10
-490.969372008727
 20
54.93868674586421
 30
0.0
 40
0.1562500000000049
100
AcDbArc
 50
215.970109287141
 51
35.97010928714097
  0
ARC
  5
D26
330
6B
100
AcDbEntity
  8
0
  6
ByBlock
 62
     0
100
AcDbCircle
 10
-426.7076496835913
 20
61.07878079388754
 30
0.0
 40
0.1562499999999884
100
AcDbArc
 50
20.34873278386974
 51
200.3487327838697
  0
ARC
  5
D27
330
6B
100
AcDbEntity
  8
0
  6
ByBlock
 62
     0
100
AcDbCircle
 10
-426.7076496835913
 20
61.07878079388754
 30
0.0
 40
0.1562499999999884
100
AcDbArc
 50
200.3487327838697
 51
20.34873278386974
  0
ARC
  5
D28
330
6B
100
AcDbEntity
  8
0
  6
ByBlock
 62
     0
100
AcDbCircle
 10
-429.4869876235482
 20
31.32117919494071
 30
0.0
 40
0.1562500000000129
100
AcDbArc
 50
344.3070538332723
 51
164.3070538332722
  0
ARC
  5
D29
330
6B
100
AcDbEntity
  8
0
  6
ByBlock
 62
     0
100
AcDbCircle
 10
-429.4869876235482
 20
31.32117919494071
 30
0.0
 40
0.1562500000000129
100
AcDbArc
 50
164.3070538332722
 51
344.3070538332723
  0
ARC
  5
D2A
330
6B
100
AcDbEntity
  8
0
  6
ByBlock
 62
     0
100
AcDbCircle
 10
-428.9834510910786
 20
12.70740930353637
 30
0.0
 40
0.1562500000000236
100
AcDbArc
 50
356.6665396366082
 51
176.6665396366081
  0
ARC
  5
D2B
330
6B
100
AcDbEntity
  8
0
  6
ByBlock
 62
     0
100
AcDbCircle
 10
-428.9834510910786
 20
12.70740930353637
 30
0.0
 40
0.1562500000000236
100
AcDbArc
 50
176.6665396366081
 51
356.6665396366082
  0
ARC
  5
D2C
330
6B
100
AcDbEntity
  8
0
  6
ByBlock
 62
     0
100
AcDbCircle
 10
-415.1715657380186
 20
2.391207473918973
 30
0.0
 40
0.1562500000000007
100
AcDbArc
 50
349.2015476050487
 51
169.2015476050487
  0
ARC
  5
D2D
330
6B
100
AcDbEntity
  8
0
  6
ByBlock
 62
     0
100
AcDbCircle
 10
-415.1715657380186
 20
2.391207473918973
 30
0.0
 40
0.1562500000000007
100
AcDbArc
 50
169.2015476050487
 51
349.2015476050487
  0
ARC
  5
D2E
330
6B
100
AcDbEntity
  8
0
  6
ByBlock
 62
     0
100
AcDbCircle
 10
-415.6494061564903
 20
-3.265897174845426
 30
0.0
 40
0.1562500000000255
100
AcDbArc
 50
337.593304511995
 51
157.5933045119949
  0
ARC
  5
D2F
330
6B
100
AcDbEntity
  8
0
  6
ByBlock
 62
     0
100
AcDbCircle
 10
-415.6494061564903
 20
-3.265897174845426
 30
0.0
 40
0.1562500000000255
100
AcDbArc
 50
157.5933045119949
 51
337.593304511995
  0
ARC
  5
D30
330
6B
100
AcDbEntity
  8
0
  6
ByBlock
 62
     0
100
AcDbCircle
 10
-415.9302874233189
 20
35.04948157628648
 30
0.0
 40
0.1562500000000085
100
AcDbArc
 50
351.5734313796412
 51
171.5734313796412
  0
ARC
  5
D31
330
6B
100
AcDbEntity
  8
0
  6
ByBlock
 62
     0
100
AcDbCircle
 10
-415.9302874233189
 20
35.04948157628648
 30
0.0
 40
0.1562500000000085
100
AcDbArc
 50
171.5734313796412
 51
351.5734313796412
  0
ENDSEC
  0
SECTION
  2
OBJECTS
  0
DICTIONARY
  5
C
330
0
100
AcDbDictionary
281
     1
  3
ACAD_2007HEADERVARS_RT
350
D36
  3
ACAD_COLOR
350
62
  3
ACAD_GROUP
350
D
  3
ACAD_LAYOUT
350
61
  3
ACAD_MATERIAL
350
10
  3
ACAD_MLEADERSTYLE
350
65
  3
ACAD_MLINESTYLE
350
5E
  3
ACAD_PLOTSETTINGS
350
60
  3
ACAD_PLOTSTYLENAME
350
E
  3
ACAD_SCALELIST
350
42
  3
ACAD_TABLESTYLE
350
63
  3
ACAD_VISUALSTYLE
350
29
  3
ACDB_RECOMPOSE_DATA
350
D34
  3
AcDbVariableDictionary
350
B7C
  3
AEC_PROPERTY_SET_DEFS
350
44C
  3
DWGPROPS
350
D35
  0
DICTIONARY
  5
43B
330
2
100
AcDbDictionary
280
     1
281
     1
  3
ACAD_LAYERSTATES
360
43C
  0
DICTIONARY
  5
B7A
330
54
100
AcDbDictionary
280
     1
281
     1
  3
ADSK_XREC_LAYER_RECONCILED
360
B7B
  0
DICTIONARY
  5
8A3
330
6B
100
AcDbDictionary
280
     1
281
     1
  3
ACAD_SORTENTS
360
8A4
  0
DICTIONARY
  5
D36
102
{ACAD_REACTORS
330
C
102
}
330
C
100
AcDbDictionary
281
     1
  3
DIMARCSYM
350
D38
  3
DIMFXL
350
D37
  3
DIMJOGANG
350
D39
  0
DICTIONARY
  5
62
102
{ACAD_REACTORS
330
C
102
}
330
C
100
AcDbDictionary
281
     1
  0
DICTIONARY
  5
D
102
{ACAD_REACTORS
330
C
102
}
330
C
100
AcDbDictionary
281
     1
  0
DICTIONARY
  5
61
102
{ACAD_REACTORS
330
C
102
}
330
C
100
AcDbDictionary
281
     1
  3
Model
350
6E
  3
レイアウト1
350
6A
  0
DICTIONARY
  5
10
102
{ACAD_REACTORS
330
C
102
}
330
C
100
AcDbDictionary
281
     1
  3
ByBlock
350
19
  3
ByLayer
350
11
  3
Global
350
21
  0
DICTIONARY
  5
65
102
{ACAD_REACTORS
330
C
102
}
330
C
100
AcDbDictionary
281
     1
  3
Standard
350
66
  0
DICTIONARY
  5
5E
102
{ACAD_REACTORS
330
C
102
}
330
C
100
AcDbDictionary
281
     1
  3
Standard
350
5F
  0
DICTIONARY
  5
60
102
{ACAD_REACTORS
330
C
102
}
330
C
100
AcDbDictionary
281
     1
  0
ACDBDICTIONARYWDFLT
  5
E
102
{ACAD_REACTORS
330
C
102
}
330
C
100
AcDbDictionary
281
     1
  3
Normal
350
F
100
AcDbDictionaryWithDefault
340
F
  0
DICTIONARY
  5
42
102
{ACAD_REACTORS
330
C
102
}
330
C
100
AcDbDictionary
281
     1
  3
A0
350
43
  3
A1
350
44
  3
A2
350
45
  3
A3
350
46
  3
A4
350
47
  3
A5
350
48
  3
A6
350
49
  3
A7
350
4A
  3
A8
350
4B
  3
A9
350
4C
  3
B0
350
4D
  3
B1
350
4E
  3
B2
350
4F
  3
B3
350
50
  3
B4
350
51
  3
B5
350
52
  3
B6
350
53
  0
DICTIONARY
  5
63
102
{ACAD_REACTORS
330
C
102
}
330
C
100
AcDbDictionary
281
     1
  3
Standard
350
64
  0
DICTIONARY
  5
29
102
{ACAD_REACTORS
330
C
102
}
330
C
100
AcDbDictionary
281
     1
  3
2dWireframe
350
2F
  3
3dWireframe
350
438
  3
Basic
350
2E
  3
Brighten
350
35
  3
ColorChange
350
39
  3
Conceptual
350
32
  3
Dim
350
34
  3
EdgeColorOff
350
41
  3
Facepattern
350
38
  3
Flat
350
2A
  3
FlatWithEdges
350
2B
  3
Gouraud
350
2C
  3
GouraudWithEdges
350
2D
  3
Hidden
350
31
  3
JitterOff
350
3F
  3
Linepattern
350
37
  3
OverhangOff
350
40
  3
Realistic
350
33
  3
Shaded
350
3E
  3
Shaded with edges
350
3D
  3
Shades of Gray
350
3A
  3
Sketchy
350
3B
  3
Thicken
350
36
  3
Wireframe
350
30
  3
X-Ray
350
3C
  0
XRECORD
  5
D34
102
{ACAD_REACTORS
330
C
102
}
330
C
100
AcDbXrecord
280
     1
 90
        1
330
64
  0
DICTIONARY
  5
B7C
102
{ACAD_REACTORS
330
C
102
}
330
C
100
AcDbDictionary
281
     1
  3
CANNOSCALE
350
B7F
  3
CMLEADERSTYLE
350
B7E
  3
CTABLESTYLE
350
B7D
  3
DIMASSOC
350
B82
  3
INDEXCTL
350
B81
  3
SORTENTS
350
B80
  3
XCLIPFRAME
350
D32
  0
DICTIONARY
  5
44C
102
{ACAD_REACTORS
330
C
102
}
330
C
100
AcDbDictionary
281
     1
  0
XRECORD
  5
D35
102
{ACAD_REACTORS
330
C
102
}
330
C
100
AcDbXrecord
280
     1
  1
DWGPROPS COOKIE
  2

  3

  4

  6

  7

  8
imamura
  9

300
=
301
=
302
=
303
=
304
=
305
=
306
=
307
=
308
=
309
=
 40
0.0273299074074074
 41
2457239.836450128
 42
2457240.47038007
  1

 90
        0
  0
DICTIONARY
  5
43C
102
{ACAD_REACTORS
330
43B
102
}
330
43B
100
AcDbDictionary
281
     1
  0
XRECORD
  5
B7B
102
{ACAD_REACTORS
330
B7A
102
}
330
B7A
100
AcDbXrecord
280
     1
290
     1
  0
SORTENTSTABLE
  5
8A4
102
{ACAD_REACTORS
330
8A3
102
}
330
8A3
100
AcDbSortentsTable
330
6B
331
786
  5
C6B
331
7FC
  5
CF9
331
782
  5
C67
331
B06
  5
757
331
7BD
  5
CA2
331
77E
  5
C63
331
7F8
  5
CF5
331
C75
  5
7C3
331
B02
  5
753
331
A7F
  5
66B
331
7B9
  5
C9E
331
77A
  5
C5F
331
7F4
  5
CF1
331
CED
  5
7DC
331
AFE
  5
74F
331
A7B
  5
667
331
7F0
  5
CED
331
AFA
  5
74B
331
CE9
  5
CFE
331
C6D
  5
7CB
331
CAC
  5
6CB
331
A8E
  5
67A
331
D24
  5
D20
331
C69
  5
7D7
331
CA8
  5
6C7
331
694
  5
A73
331
A8A
  5
676
331
D20
  5
D26
331
AC5
  5
70C
331
6CF
  5
AAC
331
690
  5
A6F
331
A86
  5
672
331
6CB
  5
AAA
331
68C
  5
A6B
331
A82
  5
66E
331
AC1
  5
6AD
331
688
  5
A67
331
70F
  5
AD4
331
36D
  5
378
331
70B
  5
AD0
331
369
  5
374
331
66C
  5
7FC
331
746
  5
B0B
331
707
  5
ACC
331
365
  5
370
331
668
  5
7F8
331
742
  5
B07
331
703
  5
AC8
331
361
  5
36C
331
7B5
  5
C9A
331
776
  5
C5B
331
A77
  5
663
331
7B1
  5
C96
331
772
  5
C57
331
7EC
  5
CE9
331
B35
  5
745
331
A73
  5
65F
331
AF6
  5
73B
331
7AD
  5
C92
331
76E
  5
C53
331
7E8
  5
CE5
331
B31
  5
782
331
AF2
  5
737
331
A6F
  5
65B
331
CA4
  5
6C3
331
7A9
  5
C8E
331
76A
  5
C4F
331
7E4
  5
CE1
331
B2D
  5
77E
331
A6B
  5
657
331
D1C
  5
D2C
331
CA0
  5
6BF
331
7E0
  5
CDD
331
B29
  5
77A
331
D18
  5
792
331
C9C
  5
6BB
331
AEA
  5
731
331
6C7
  5
AA6
331
ABD
  5
6A9
331
D14
  5
7A2
331
C98
  5
6B7
331
6C3
  5
AA2
331
684
  5
9EF
331
AB9
  5
6A5
331
D10
  5
7A4
331
6BF
  5
A9E
331
680
  5
9EB
331
AB5
  5
6A1
331
6BB
  5
A9A
331
67C
  5
95F
331
AB1
  5
69D
331
678
  5
95B
331
664
  5
7F4
331
73E
  5
B03
331
6FF
  5
AC4
331
35D
  5
368
331
660
  5
7F0
331
73A
  5
AFF
331
6FB
  5
AC0
331
359
  5
364
331
65C
  5
7EC
331
736
  5
AFB
331
355
  5
360
331
658
  5
7E8
331
732
  5
AF7
331
6F3
  5
ABC
331
351
  5
35C
331
7A5
  5
C8A
331
766
  5
B38
331
A67
  5
653
331
7A1
  5
C86
331
7DC
  5
CD9
331
762
  5
B27
331
B25
  5
776
331
AE6
  5
72D
331
79D
  5
C82
331
7D8
  5
CD5
331
75E
  5
B23
331
B21
  5
772
331
AE2
  5
729
331
C94
  5
6B3
331
799
  5
C7E
331
7D4
  5
CD1
331
75A
  5
B1F
331
B1D
  5
76E
331
D0C
  5
7B1
331
CCD
  5
708
331
ADE
  5
725
331
7D0
  5
CCD
331
B19
  5
76A
331
D08
  5
7B3
331
C8C
  5
785
331
CC9
  5
704
331
ADA
  5
721
331
6B7
  5
A96
331
AAD
  5
699
331
D04
  5
7BA
331
CC5
  5
700
331
6B3
  5
A92
331
674
  5
953
331
AA9
  5
695
331
D00
  5
7C0
331
CC1
  5
6FC
331
6AF
  5
A8E
331
670
  5
94E
331
AA5
  5
691
331
6AB
  5
A8A
331
AA1
  5
68D
331
654
  5
7E4
331
72E
  5
AF3
331
6EF
  5
ABA
331
34D
  5
358
331
650
  5
7E0
331
72A
  5
AEF
331
6EB
  5
AB8
331
349
  5
354
331
726
  5
AEB
331
6E7
  5
AB6
331
345
  5
350
331
384
  5
456
331
722
  5
AE7
331
6E3
  5
AB4
331
380
  5
452
331
795
  5
C7A
331
756
  5
B1B
331
9EF
  5
347
331
791
  5
C76
331
752
  5
B17
331
7CC
  5
CB1
331
B15
  5
766
331
9EB
  5
343
331
AD6
  5
71D
331
78D
  5
C72
331
7C8
  5
CAD
331
74E
  5
B13
331
B11
  5
762
331
AD2
  5
719
331
789
  5
C6E
331
7C4
  5
CA9
331
74A
  5
B0F
331
B0D
  5
75E
331
CFC
  5
7C9
331
C80
  5
7AE
331
CBD
  5
6F4
331
ACE
  5
715
331
7C0
  5
CA5
331
B09
  5
75A
331
CF8
  5
7D0
331
CB9
  5
6E8
331
ACA
  5
711
331
6A7
  5
A86
331
A9D
  5
689
331
CF4
  5
7D2
331
CB5
  5
6E0
331
6A3
  5
A82
331
A99
  5
685
331
CF0
  5
7D9
331
CB1
  5
6D4
331
69F
  5
A7E
331
A95
  5
681
331
D2F
  5
D0C
331
69B
  5
A7A
331
A91
  5
67D
331
D2B
  5
D18
331
71E
  5
AE3
331
6DF
  5
AB2
331
71A
  5
ADF
331
6DB
  5
AB0
331
378
  5
383
331
716
  5
ADB
331
374
  5
37F
331
712
  5
AD7
331
6D3
  5
AAE
331
370
  5
37B
331
7FF
  5
CFC
331
785
  5
C6A
331
7FB
  5
CF8
331
781
  5
C66
331
B05
  5
756
331
7BC
  5
CA1
331
77D
  5
C62
331
7F7
  5
CF4
331
C74
  5
7C2
331
B01
  5
752
331
A7E
  5
66A
331
7B8
  5
C9D
331
779
  5
C5E
331
7F3
  5
CF0
331
AFD
  5
74E
331
A7A
  5
666
331
CEC
  5
7DB
331
CAF
  5
6D0
331
AF9
  5
74A
331
D27
  5
D1E
331
CE8
  5
CFD
331
CAB
  5
6CA
331
697
  5
A76
331
A8D
  5
679
331
D23
  5
D24
331
CE4
  5
D08
331
C68
  5
7D6
331
693
  5
A72
331
A89
  5
675
331
CE0
  5
D14
331
AC4
  5
70B
331
68F
  5
A6E
331
A85
  5
671
331
6CA
  5
AA9
331
68B
  5
A6A
331
A81
  5
66D
331
AC0
  5
6AC
331
70E
  5
AD3
331
36C
  5
377
331
66F
  5
7FF
331
70A
  5
ACF
331
368
  5
373
331
66B
  5
7FB
331
745
  5
B0A
331
706
  5
ACB
331
364
  5
36F
331
741
  5
B06
331
702
  5
AC7
331
360
  5
36B
331
7B4
  5
C99
331
775
  5
C5A
331
7EF
  5
CEC
331
A76
  5
662
331
7B0
  5
C95
331
771
  5
C56
331
7EB
  5
CE8
331
B34
  5
73D
331
AF5
  5
73A
331
CA7
  5
6C6
331
A72
  5
65E
331
7AC
  5
C91
331
76D
  5
C52
331
7E7
  5
CE4
331
B30
  5
781
331
AF1
  5
736
331
A6E
  5
65A
331
D1F
  5
D2A
331
C64
  5
D02
331
CA3
  5
6C2
331
7A8
  5
C8D
331
769
  5
C4C
331
7E3
  5
CE0
331
B2C
  5
77D
331
A6A
  5
656
331
CDC
  5
D1C
331
D1B
  5
78C
331
C9F
  5
6BE
331
B28
  5
779
331
AE9
  5
730
331
CD8
  5
D22
331
D17
  5
791
331
C9B
  5
6BA
331
6C6
  5
AA5
331
687
  5
9F2
331
ABC
  5
6A8
331
CD4
  5
D28
331
D13
  5
79E
331
6C2
  5
AA1
331
683
  5
9EE
331
AB8
  5
6A4
331
CD0
  5
D2E
331
6BE
  5
A9D
331
67F
  5
9EA
331
AB4
  5
6A0
331
6BA
  5
A99
331
67B
  5
95E
331
AB0
  5
69C
331
667
  5
7F7
331
663
  5
7F3
331
73D
  5
B02
331
6FE
  5
AC3
331
64F
  5
7DF
331
35C
  5
367
331
65F
  5
7EF
331
B3A
  5
D31
331
739
  5
AFE
331
6FA
  5
ABF
331
358
  5
363
331
65B
  5
7EB
331
735
  5
AFA
331
354
  5
35F
331
731
  5
AF6
331
350
  5
35B
331
7A4
  5
C89
331
7DF
  5
CDC
331
765
  5
B2A
331
7A0
  5
C85
331
7DB
  5
CD8
331
761
  5
B26
331
B24
  5
775
331
C97
  5
6B6
331
AE5
  5
72C
331
79C
  5
C81
331
7D7
  5
CD4
331
75D
  5
B22
331
B20
  5
771
331
AE1
  5
728
331
D0F
  5
7A3
331
C93
  5
6B2
331
798
  5
C7D
331
7D3
  5
CD0
331
759
  5
B1E
331
B1C
  5
76D
331
D0B
  5
7B0
331
CCC
  5
707
331
ADD
  5
724
331
B18
  5
769
331
D07
  5
7B6
331
C8B
  5
784
331
AD9
  5
720
331
CC8
  5
703
331
6B6
  5
A95
331
677
  5
95A
331
AAC
  5
698
331
D03
  5
7BF
331
CC4
  5
6FF
331
6B2
  5
A91
331
673
  5
952
331
AA8
  5
694
331
CC0
  5
6FB
331
6AE
  5
A8D
331
AA4
  5
690
331
6AA
  5
A89
331
AA0
  5
68C
331
657
  5
7E7
331
653
  5
7E3
331
72D
  5
AF2
331
34C
  5
357
331
729
  5
AEE
331
348
  5
353
331
387
  5
459
331
725
  5
AEA
331
344
  5
34F
331
383
  5
455
331
721
  5
AE6
331
794
  5
C79
331
755
  5
B1A
331
7CF
  5
CB6
331
9EE
  5
346
331
790
  5
C75
331
751
  5
B16
331
7CB
  5
CB0
331
B14
  5
765
331
9EA
  5
342
331
C87
  5
79C
331
AD5
  5
71C
331
78C
  5
C71
331
7C7
  5
CAC
331
74D
  5
B12
331
B10
  5
761
331
CFF
  5
7C6
331
AD1
  5
718
331
788
  5
C6D
331
7C3
  5
CA8
331
749
  5
B0E
331
B0C
  5
75D
331
CFB
  5
7C8
331
C7F
  5
7AA
331
CBC
  5
6F3
331
ACD
  5
714
331
B08
  5
759
331
CF7
  5
7CF
331
C7B
  5
7B9
331
AC9
  5
710
331
CB8
  5
6E7
331
6A6
  5
A85
331
A9C
  5
688
331
CF3
  5
7D1
331
CB4
  5
6DF
331
6A2
  5
A81
331
A98
  5
684
331
CB0
  5
6D3
331
69E
  5
A7D
331
A94
  5
680
331
D2E
  5
D0A
331
69A
  5
A79
331
A90
  5
67C
331
D2A
  5
D16
331
71D
  5
AE2
331
719
  5
ADE
331
377
  5
382
331
392
  5
628
331
715
  5
ADA
331
373
  5
37E
331
711
  5
AD6
331
7FE
  5
CFB
331
784
  5
C69
331
7BF
  5
CA4
331
7FA
  5
CF7
331
780
  5
C65
331
B04
  5
755
331
7BB
  5
CA0
331
77C
  5
C61
331
7F6
  5
CF3
331
CEF
  5
7D8
331
C73
  5
7C1
331
B00
  5
751
331
A7D
  5
669
331
778
  5
C5D
331
7F2
  5
CEF
331
AFC
  5
74D
331
A79
  5
665
331
CEB
  5
7DE
331
C6F
  5
7CD
331
CAE
  5
6CF
331
AF8
  5
749
331
D26
  5
D1D
331
CE7
  5
D01
331
CAA
  5
6C9
331
696
  5
A75
331
A8C
  5
678
331
D22
  5
D23
331
AC7
  5
70E
331
692
  5
A71
331
A88
  5
674
331
68E
  5
A6D
331
A84
  5
670
331
6C9
  5
AA8
331
68A
  5
A69
331
A80
  5
66C
331
36F
  5
37A
331
70D
  5
AD2
331
36B
  5
376
331
66E
  5
7FE
331
709
  5
ACE
331
367
  5
372
331
66A
  5
7FA
331
744
  5
B09
331
705
  5
ACA
331
363
  5
36E
331
740
  5
B05
331
701
  5
AC6
331
7B7
  5
C9C
331
7B3
  5
C98
331
774
  5
C59
331
7EE
  5
CEB
331
B37
  5
747
331
A75
  5
661
331
7AF
  5
C94
331
770
  5
C55
331
7EA
  5
CE7
331
B33
  5
73C
331
AF4
  5
739
331
C67
  5
7D5
331
CA6
  5
6C5
331
A71
  5
65D
331
7AB
  5
C90
331
76C
  5
C51
331
7E6
  5
CE3
331
B2F
  5
780
331
D1E
  5
D29
331
CA2
  5
6C1
331
AF0
  5
735
331
A6D
  5
659
331
768
  5
B3A
331
7E2
  5
CDF
331
B2B
  5
77C
331
A69
  5
655
331
D1A
  5
78B
331
C9E
  5
6BD
331
ABF
  5
6AB
331
AEC
  5
733
331
AE8
  5
72F
331
D16
  5
790
331
C9A
  5
6B9
331
6C5
  5
AA4
331
686
  5
9F1
331
ABB
  5
6A7
331
D12
  5
79D
331
6C1
  5
AA0
331
682
  5
9ED
331
AB7
  5
6A3
331
6BD
  5
A9C
331
67E
  5
9E9
331
AB3
  5
69F
331
6B9
  5
A98
331
67A
  5
95D
331
666
  5
7F6
331
35F
  5
36A
331
662
  5
7F2
331
73C
  5
B01
331
6FD
  5
AC2
331
35B
  5
366
331
65E
  5
7EE
331
B39
  5
D30
331
738
  5
AFD
331
6F9
  5
ABE
331
357
  5
362
331
65A
  5
7EA
331
734
  5
AF9
331
353
  5
35E
331
730
  5
AF5
331
7A7
  5
C8C
331
7A3
  5
C88
331
7DE
  5
CDB
331
764
  5
B29
331
B27
  5
778
331
79F
  5
C84
331
7DA
  5
CD7
331
760
  5
B25
331
B23
  5
774
331
C96
  5
6B5
331
AE4
  5
72B
331
79B
  5
C80
331
7D6
  5
CD3
331
75C
  5
B21
331
B1F
  5
770
331
AE0
  5
727
331
D0E
  5
7A9
331
CCF
  5
70A
331
C92
  5
6B1
331
758
  5
B1D
331
7D2
  5
CCF
331
B1B
  5
76C
331
9F1
  5
349
331
D0A
  5
7B5
331
CCB
  5
706
331
AAF
  5
69B
331
ADC
  5
723
331
D06
  5
7BC
331
AD8
  5
71F
331
CC7
  5
702
331
6B5
  5
A94
331
676
  5
959
331
AAB
  5
697
331
D02
  5
7BE
331
CC3
  5
6FE
331
6B1
  5
A90
331
672
  5
951
331
AA7
  5
693
331
6AD
  5
A8C
331
AA3
  5
68F
331
6A9
  5
A88
331
656
  5
7E6
331
34F
  5
35A
331
652
  5
7E2
331
72C
  5
AF1
331
34B
  5
356
331
728
  5
AED
331
347
  5
352
331
386
  5
458
331
724
  5
AE9
331
343
  5
34E
331
382
  5
454
331
720
  5
AE5
331
797
  5
C7C
331
793
  5
C78
331
754
  5
B19
331
7CE
  5
CB3
331
B17
  5
768
331
9ED
  5
345
331
78F
  5
C74
331
750
  5
B15
331
7CA
  5
CAF
331
B13
  5
764
331
9E9
  5
341
331
C86
  5
798
331
AD4
  5
71B
331
78B
  5
C70
331
7C6
  5
CAB
331
74C
  5
B11
331
B0F
  5
760
331
CFE
  5
7C5
331
AD0
  5
717
331
CBF
  5
6FA
331
7C2
  5
CA7
331
748
  5
B0D
331
B0B
  5
75C
331
CFA
  5
7C7
331
CBB
  5
6F0
331
A9F
  5
68B
331
ACC
  5
713
331
CF6
  5
7CE
331
C7A
  5
7B8
331
AC8
  5
70F
331
CB7
  5
6E4
331
6A5
  5
A84
331
A9B
  5
687
331
CF2
  5
7D4
331
CB3
  5
6DC
331
6A1
  5
A80
331
A97
  5
683
331
D31
  5
D06
331
69D
  5
A7C
331
A93
  5
67F
331
D2D
  5
D12
331
699
  5
A78
331
D29
  5
D1B
331
71C
  5
AE1
331
1DB
  5
1DB
331
718
  5
ADD
331
187
  5
187
331
376
  5
381
331
714
  5
AD9
331
372
  5
37D
331
710
  5
AD5
331
787
  5
C6C
331
7FD
  5
CFA
331
783
  5
C68
331
B07
  5
758
331
7BE
  5
CA3
331
7F9
  5
CF6
331
77F
  5
C64
331
B03
  5
754
331
7BA
  5
C9F
331
77B
  5
C60
331
7F5
  5
CF2
331
CEE
  5
7DD
331
AFF
  5
750
331
A7C
  5
668
331
7F1
  5
CEE
331
AFB
  5
74C
331
A78
  5
664
331
CEA
  5
CFF
331
C6E
  5
7CC
331
A8F
  5
67B
331
CAD
  5
6CC
331
D25
  5
D21
331
CE6
  5
D00
331
CA9
  5
6C8
331
695
  5
A74
331
A8B
  5
677
331
D21
  5
D27
331
CE2
  5
D0E
331
AC6
  5
70D
331
691
  5
A70
331
A87
  5
673
331
6CC
  5
AAB
331
68D
  5
A6C
331
A83
  5
66F
331
AC2
  5
6AE
331
6C8
  5
AA7
331
689
  5
A68
331
36E
  5
379
331
70C
  5
AD1
331
36A
  5
375
331
66D
  5
7FD
331
747
  5
B0C
331
708
  5
ACD
331
366
  5
371
331
669
  5
7F9
331
743
  5
B08
331
704
  5
AC9
331
362
  5
36D
331
700
  5
AC5
331
7B6
  5
C9B
331
777
  5
C5C
331
7B2
  5
C97
331
773
  5
C58
331
7ED
  5
CEA
331
AF7
  5
748
331
B36
  5
746
331
A74
  5
660
331
7AE
  5
C93
331
76F
  5
C54
331
7E9
  5
CE6
331
B32
  5
783
331
AF3
  5
738
331
A70
  5
65C
331
CA5
  5
6C4
331
7AA
  5
C8F
331
76B
  5
C50
331
7E5
  5
CE2
331
B2E
  5
77F
331
D1D
  5
D2D
331
CDE
  5
D19
331
CA1
  5
6C0
331
AEF
  5
734
331
A6C
  5
658
331
7E1
  5
CDE
331
B2A
  5
77B
331
A68
  5
654
331
CDA
  5
D1F
331
D19
  5
78A
331
C9D
  5
6BC
331
ABE
  5
6AA
331
AEB
  5
732
331
CD6
  5
D25
331
D15
  5
796
331
C99
  5
6B8
331
6C4
  5
AA3
331
685
  5
9F0
331
ABA
  5
6A6
331
CD2
  5
D2B
331
D11
  5
7A8
331
6C0
  5
A9F
331
681
  5
9EC
331
AB6
  5
6A2
331
6BC
  5
A9B
331
67D
  5
9E8
331
AB2
  5
69E
331
6B8
  5
A97
331
679
  5
95C
331
665
  5
7F5
331
73F
  5
B04
331
35E
  5
369
331
661
  5
7F1
331
73B
  5
B00
331
6FC
  5
AC1
331
35A
  5
365
331
65D
  5
7ED
331
B38
  5
D2F
331
737
  5
AFC
331
356
  5
361
331
659
  5
7E9
331
733
  5
AF8
331
6F4
  5
ABD
331
352
  5
35D
331
6F0
  5
ABB
331
7A6
  5
C8B
331
767
  5
B39
331
7A2
  5
C87
331
7DD
  5
CDA
331
763
  5
B28
331
B26
  5
777
331
AE7
  5
72E
331
79E
  5
C83
331
7D9
  5
CD6
331
75F
  5
B24
331
B22
  5
773
331
C95
  5
6B4
331
AE3
  5
72A
331
79A
  5
C7F
331
7D5
  5
CD2
331
75B
  5
B20
331
B1E
  5
76F
331
D0D
  5
7B2
331
C91
  5
6B0
331
CCE
  5
709
331
ADF
  5
726
331
7D1
  5
CCE
331
B1A
  5
76B
331
9F0
  5
348
331
D09
  5
7B4
331
C8D
  5
786
331
CCA
  5
705
331
AAE
  5
69A
331
ADB
  5
722
331
D05
  5
7BB
331
CC6
  5
701
331
6B4
  5
A93
331
675
  5
958
331
AAA
  5
696
331
D01
  5
7BD
331
CC2
  5
6FD
331
6B0
  5
A8F
331
671
  5
94F
331
AA6
  5
692
331
6AC
  5
A8B
331
AA2
  5
68E
331
6A8
  5
A87
331
655
  5
7E5
331
72F
  5
AF4
331
34E
  5
359
331
651
  5
7E1
331
72B
  5
AF0
331
6EC
  5
AB9
331
34A
  5
355
331
727
  5
AEC
331
6E8
  5
AB7
331
346
  5
351
331
385
  5
457
331
723
  5
AE8
331
6E4
  5
AB5
331
342
  5
34D
331
381
  5
453
331
6E0
  5
AB3
331
796
  5
C7B
331
757
  5
B1C
331
792
  5
C77
331
753
  5
B18
331
7CD
  5
CB2
331
B16
  5
767
331
9EC
  5
344
331
AD7
  5
71E
331
78E
  5
C73
331
74F
  5
B14
331
7C9
  5
CAE
331
B12
  5
763
331
C85
  5
797
331
AD3
  5
71A
331
9E8
  5
340
331
78A
  5
C6F
331
7C5
  5
CAA
331
74B
  5
B10
331
B0E
  5
75F
331
CFD
  5
7C4
331
C81
  5
7AF
331
ACF
  5
716
331
CBE
  5
6F9
331
7C1
  5
CA6
331
B0A
  5
75B
331
CF9
  5
7CA
331
CBA
  5
6EF
331
ACB
  5
712
331
A9E
  5
68A
331
CF5
  5
7D3
331
C79
  5
7B7
331
CB6
  5
6E3
331
6A4
  5
A83
331
A9A
  5
686
331
CF1
  5
7DA
331
CB2
  5
6DB
331
6A0
  5
A7F
331
A96
  5
682
331
D30
  5
D04
331
69C
  5
A7B
331
A92
  5
67E
331
D2C
  5
D10
331
698
  5
A77
331
D28
  5
D1A
331
71F
  5
AE4
331
37D
  5
392
331
71B
  5
AE0
331
6DC
  5
AB1
331
717
  5
ADC
331
186
  5
186
331
375
  5
380
331
713
  5
AD8
331
6D4
  5
AAF
331
371
  5
37C
331
6D0
  5
AAD
  0
XRECORD
  5
D38
102
{ACAD_REACTORS
330
D36
102
}
330
D36
100
AcDbXrecord
280
     1
 70
     2
  0
XRECORD
  5
D37
102
{ACAD_REACTORS
330
D36
102
}
330
D36
100
AcDbXrecord
280
     1
 40
1.25
  0
XRECORD
  5
D39
102
{ACAD_REACTORS
330
D36
102
}
330
D36
100
AcDbXrecord
280
     1
 40
1.570796326794896
  0
LAYOUT
  5
6E
102
{ACAD_XDICTIONARY
360
D6D
102
}
102
{ACAD_REACTORS
330
61
102
}
330
61
100
AcDbPlotSettings
  1

  2
FX DP 205
  4

  6

 40
0.0
 41
0.0
 42
0.0
 43
0.0
 44
0.0
 45
0.0
 46
0.0
 47
0.0
 48
0.0
 49
0.0
140
0.0
141
0.0
142
1.0
143
1.0
 70
  1712
 72
     0
 73
     0
 74
     0
  7

 75
     0
147
1.0
148
0.0
149
0.0
100
AcDbLayout
  1
Model
 70
     1
 71
     0
 10
0.0
 20
0.0
 11
12.0
 21
9.0
 12
0.0
 22
0.0
 32
0.0
 14
0.0
 24
0.0
 34
0.0
 15
0.0
 25
0.0
 35
0.0
146
0.0
 13
0.0
 23
0.0
 33
0.0
 16
1.0
 26
0.0
 36
0.0
 17
0.0
 27
1.0
 37
0.0
 76
     0
330
6B
331
8B
  0
LAYOUT
  5
6A
102
{ACAD_XDICTIONARY
360
D6B
102
}
102
{ACAD_REACTORS
330
61
102
}
330
61
100
AcDbPlotSettings
  1

  2
FX DP 205
  4

  6

 40
0.0
 41
0.0
 42
0.0
 43
0.0
 44
0.0
 45
0.0
 46
0.0
 47
0.0
 48
0.0
 49
0.0
140
0.0
141
0.0
142
1.0
143
1.0
 70
   688
 72
     0
 73
     0
 74
     5
  7

 75
    16
147
1.0
148
0.0
149
0.0
100
AcDbLayout
  1
レイアウト1
 70
     1
 71
     1
 10
0.0
 20
0.0
 11
12.0
 21
9.0
 12
0.0
 22
0.0
 32
0.0
 14
1.000000000000000E+20
 24
1.000000000000000E+20
 34
1.000000000000000E+20
 15
-1.000000000000000E+20
 25
-1.000000000000000E+20
 35
-1.000000000000000E+20
146
0.0
 13
0.0
 23
0.0
 33
0.0
 16
1.0
 26
0.0
 36
0.0
 17
0.0
 27
1.0
 37
0.0
 76
     0
330
67
  0
MATERIAL
  5
19
102
{ACAD_XDICTIONARY
360
1A
102
}
102
{ACAD_REACTORS
330
10
102
}
330
10
100
AcDbMaterial
  1
ByBlock
 72
     0
 43
0.0208333333333333
 43
0.0
 43
0.0
 43
0.0
 43
0.0
 43
0.0208333333333333
 43
0.0
 43
0.0
 43
0.0
 43
0.0
 43
1.0
 43
0.0
 43
0.0
 43
0.0
 43
0.0
 43
1.0
 77
     0
 47
0.0208333333333333
 47
0.0
 47
0.0
 47
0.0
 47
0.0
 47
0.0208333333333333
 47
0.0
 47
0.0
 47
0.0
 47
0.0
 47
1.0
 47
0.0
 47
0.0
 47
0.0
 47
0.0
 47
1.0
171
     0
 49
0.0208333333333333
 49
0.0
 49
0.0
 49
0.0
 49
0.0
 49
0.0208333333333333
 49
0.0
 49
0.0
 49
0.0
 49
0.0
 49
1.0
 49
0.0
 49
0.0
 49
0.0
 49
0.0
 49
1.0
175
     0
142
0.0208333333333333
142
0.0
142
0.0
142
0.0
142
0.0
142
0.0208333333333333
142
0.0
142
0.0
142
0.0
142
0.0
142
1.0
142
0.0
142
0.0
142
0.0
142
0.0
142
1.0
179
     0
144
0.0208333333333333
144
0.0
144
0.0
144
0.0
144
0.0
144
0.0208333333333333
144
0.0
144
0.0
144
0.0
144
0.0
144
1.0
144
0.0
144
0.0
144
0.0
144
0.0
144
1.0
147
0.0208333333333333
147
0.0
147
0.0
147
0.0
147
0.0
147
0.0208333333333333
147
0.0
147
0.0
147
0.0
147
0.0
147
1.0
147
0.0
147
0.0
147
0.0
147
0.0
147
1.0
  0
MATERIAL
  5
11
102
{ACAD_XDICTIONARY
360
12
102
}
102
{ACAD_REACTORS
330
10
102
}
330
10
100
AcDbMaterial
  1
ByLayer
 72
     0
 43
0.0208333333333333
 43
0.0
 43
0.0
 43
0.0
 43
0.0
 43
0.0208333333333333
 43
0.0
 43
0.0
 43
0.0
 43
0.0
 43
1.0
 43
0.0
 43
0.0
 43
0.0
 43
0.0
 43
1.0
 77
     0
 47
0.0208333333333333
 47
0.0
 47
0.0
 47
0.0
 47
0.0
 47
0.0208333333333333
 47
0.0
 47
0.0
 47
0.0
 47
0.0
 47
1.0
 47
0.0
 47
0.0
 47
0.0
 47
0.0
 47
1.0
171
     0
 49
0.0208333333333333
 49
0.0
 49
0.0
 49
0.0
 49
0.0
 49
0.0208333333333333
 49
0.0
 49
0.0
 49
0.0
 49
0.0
 49
1.0
 49
0.0
 49
0.0
 49
0.0
 49
0.0
 49
1.0
175
     0
142
0.0208333333333333
142
0.0
142
0.0
142
0.0
142
0.0
142
0.0208333333333333
142
0.0
142
0.0
142
0.0
142
0.0
142
1.0
142
0.0
142
0.0
142
0.0
142
0.0
142
1.0
179
     0
144
0.0208333333333333
144
0.0
144
0.0
144
0.0
144
0.0
144
0.0208333333333333
144
0.0
144
0.0
144
0.0
144
0.0
144
1.0
144
0.0
144
0.0
144
0.0
144
0.0
144
1.0
147
0.0208333333333333
147
0.0
147
0.0
147
0.0
147
0.0
147
0.0208333333333333
147
0.0
147
0.0
147
0.0
147
0.0
147
1.0
147
0.0
147
0.0
147
0.0
147
0.0
147
1.0
  0
MATERIAL
  5
21
102
{ACAD_XDICTIONARY
360
22
102
}
102
{ACAD_REACTORS
330
10
102
}
330
10
100
AcDbMaterial
  1
Global
 72
     0
 43
0.0208333333333333
 43
0.0
 43
0.0
 43
0.0
 43
0.0
 43
0.0208333333333333
 43
0.0
 43
0.0
 43
0.0
 43
0.0
 43
1.0
 43
0.0
 43
0.0
 43
0.0
 43
0.0
 43
1.0
 77
     0
 47
0.0208333333333333
 47
0.0
 47
0.0
 47
0.0
 47
0.0
 47
0.0208333333333333
 47
0.0
 47
0.0
 47
0.0
 47
0.0
 47
1.0
 47
0.0
 47
0.0
 47
0.0
 47
0.0
 47
1.0
171
     0
 49
0.0208333333333333
 49
0.0
 49
0.0
 49
0.0
 49
0.0
 49
0.0208333333333333
 49
0.0
 49
0.0
 49
0.0
 49
0.0
 49
1.0
 49
0.0
 49
0.0
 49
0.0
 49
0.0
 49
1.0
175
     0
142
0.0208333333333333
142
0.0
142
0.0
142
0.0
142
0.0
142
0.0208333333333333
142
0.0
142
0.0
142
0.0
142
0.0
142
1.0
142
0.0
142
0.0
142
0.0
142
0.0
142
1.0
179
     0
144
0.0208333333333333
144
0.0
144
0.0
144
0.0
144
0.0
144
0.0208333333333333
144
0.0
144
0.0
144
0.0
144
0.0
144
1.0
144
0.0
144
0.0
144
0.0
144
0.0
144
1.0
147
0.0208333333333333
147
0.0
147
0.0
147
0.0
147
0.0
147
0.0208333333333333
147
0.0
147
0.0
147
0.0
147
0.0
147
1.0
147
0.0
147
0.0
147
0.0
147
0.0
147
1.0
  0
MLEADERSTYLE
  5
66
102
{ACAD_REACTORS
330
65
102
}
330
65
100
AcDbMLeaderStyle
170
     2
171
     1
172
     0
 90
        2
 40
0.0
 41
0.0
173
     1
 91
-1056964608
340
5A
 92
       -2
290
     1
 42
0.09
291
     1
 43
0.36
  3
Standard
 44
0.18
300

342
55
174
     1
178
     6
175
     1
176
     0
 93
-1056964608
 45
0.18
292
     0
297
     0
 46
0.18
 94
-1056964608
 47
1.0
 49
1.0
140
1.0
293
     1
141
0.0
294
     1
177
     0
142
1.0
295
     0
296
     0
143
0.125
1001
ACAD_MLEADERVER
1070
     2
  0
MLINESTYLE
  5
5F
102
{ACAD_REACTORS
330
5E
102
}
330
5E
100
AcDbMlineStyle
  2
STANDARD
 70
     0
  3

 62
   256
 51
90.0
 52
90.0
 71
     2
 49
0.5
 62
   256
  6
BYLAYER
 49
-0.5
 62
   256
  6
BYLAYER
  0
ACDBPLACEHOLDER
  5
F
102
{ACAD_REACTORS
330
E
102
}
330
E
  0
SCALE
  5
43
102
{ACAD_REACTORS
330
42
102
}
330
42
100
AcDbScale
 70
     0
300
1:1
140
1.0
141
1.0
290
     1
  0
SCALE
  5
44
102
{ACAD_REACTORS
330
42
102
}
330
42
100
AcDbScale
 70
     0
300
1/128" = 1'-0"
140
0.0078125
141
12.0
290
     0
  0
SCALE
  5
45
102
{ACAD_REACTORS
330
42
102
}
330
42
100
AcDbScale
 70
     0
300
1/64" = 1'-0"
140
0.015625
141
12.0
290
     0
  0
SCALE
  5
46
102
{ACAD_REACTORS
330
42
102
}
330
42
100
AcDbScale
 70
     0
300
1/32" = 1'-0"
140
0.03125
141
12.0
290
     0
  0
SCALE
  5
47
102
{ACAD_REACTORS
330
42
102
}
330
42
100
AcDbScale
 70
     0
300
1/16" = 1'-0"
140
0.0625
141
12.0
290
     0
  0
SCALE
  5
48
102
{ACAD_REACTORS
330
42
102
}
330
42
100
AcDbScale
 70
     0
300
3/32" = 1'-0"
140
0.09375
141
12.0
290
     0
  0
SCALE
  5
49
102
{ACAD_REACTORS
330
42
102
}
330
42
100
AcDbScale
 70
     0
300
1/8" = 1'-0"
140
0.125
141
12.0
290
     0
  0
SCALE
  5
4A
102
{ACAD_REACTORS
330
42
102
}
330
42
100
AcDbScale
 70
     0
300
3/16" = 1'-0"
140
0.1875
141
12.0
290
     0
  0
SCALE
  5
4B
102
{ACAD_REACTORS
330
42
102
}
330
42
100
AcDbScale
 70
     0
300
1/4" = 1'-0"
140
0.25
141
12.0
290
     0
  0
SCALE
  5
4C
102
{ACAD_REACTORS
330
42
102
}
330
42
100
AcDbScale
 70
     0
300
3/8" = 1'-0"
140
0.375
141
12.0
290
     0
  0
SCALE
  5
4D
102
{ACAD_REACTORS
330
42
102
}
330
42
100
AcDbScale
 70
     0
300
1/2" = 1'-0"
140
0.5
141
12.0
290
     0
  0
SCALE
  5
4E
102
{ACAD_REACTORS
330
42
102
}
330
42
100
AcDbScale
 70
     0
300
3/4" = 1'-0"
140
0.75
141
12.0
290
     0
  0
SCALE
  5
4F
102
{ACAD_REACTORS
330
42
102
}
330
42
100
AcDbScale
 70
     0
300
1" = 1'-0"
140
1.0
141
12.0
290
     0
  0
SCALE
  5
50
102
{ACAD_REACTORS
330
42
102
}
330
42
100
AcDbScale
 70
     0
300
1-1/2" = 1'-0"
140
1.5
141
12.0
290
     0
  0
SCALE
  5
51
102
{ACAD_REACTORS
330
42
102
}
330
42
100
AcDbScale
 70
     0
300
3" = 1'-0"
140
3.0
141
12.0
290
     0
  0
SCALE
  5
52
102
{ACAD_REACTORS
330
42
102
}
330
42
100
AcDbScale
 70
     0
300
6" = 1'-0"
140
6.0
141
12.0
290
     0
  0
SCALE
  5
53
102
{ACAD_REACTORS
330
42
102
}
330
42
100
AcDbScale
 70
     0
300
1'-0" = 1'-0"
140
12.0
141
12.0
290
     0
  0
TABLESTYLE
  5
64
102
{ACAD_XDICTIONARY
360
B84
102
}
102
{ACAD_REACTORS
330
63
102
}
330
63
100
AcDbTableStyle
  3
Standard
 70
     0
 71
     0
 40
0.06
 41
0.06
280
     0
281
     0
  7
STANDARD
140
0.18
170
     2
 62
     0
 63
     7
283
     0
274
    -2
284
     1
 64
     0
275
    -2
285
     1
 65
     0
276
    -2
286
     1
 66
     0
277
    -2
287
     1
 67
     0
278
    -2
288
     1
 68
     0
279
    -2
289
     1
 69
     0
  7
STANDARD
140
0.25
170
     5
 62
     0
 63
     7
283
     0
274
    -2
284
     1
 64
     0
275
    -2
285
     1
 65
     0
276
    -2
286
     1
 66
     0
277
    -2
287
     1
 67
     0
278
    -2
288
     1
 68
     0
279
    -2
289
     1
 69
     0
  7
STANDARD
140
0.18
170
     5
 62
     0
 63
     7
283
     0
274
    -2
284
     1
 64
     0
275
    -2
285
     1
 65
     0
276
    -2
286
     1
 66
     0
277
    -2
287
     1
 67
     0
278
    -2
288
     1
 68
     0
279
    -2
289
     1
 69
     0
  0
VISUALSTYLE
  5
2F
102
{ACAD_XDICTIONARY
360
D44
102
}
102
{ACAD_REACTORS
330
29
102
}
330
29
100
AcDbVisualStyle
  2

 70
     4
 71
     0
 72
     2
 73
     0
 90
        0
 40
-0.6
 41
-30.0
 62
     5
 63
     7
 74
     1
 91
        4
 64
     7
 65
   257
 75
     1
175
     1
 42
1.0
 92
        0
 66
   257
 43
1.0
 76
     1
 77
     6
 78
     2
 67
     7
 79
     5
170
     0
171
     0
290
     0
174
     0
 93
        1
 44
0.0
173
     0
291
     0
 45
0.0
1001
ACAD
1000
AcDbSavedByObjectVersion
1070
     0
  0
VISUALSTYLE
  5
438
102
{ACAD_XDICTIONARY
360
D6F
102
}
102
{ACAD_REACTORS
330
29
102
}
330
29
100
AcDbVisualStyle
  2

 70
     5
 71
     0
 72
     2
 73
     1
 90
        0
 40
-0.6
 41
-30.0
 62
     5
 63
     7
 74
     1
 91
        4
 64
     7
 65
   257
 75
     1
175
     1
 42
1.0
 92
        0
 66
   257
 43
1.0
 76
     1
 77
     6
 78
     2
 67
     7
 79
     5
170
     0
171
     0
290
     0
174
     0
 93
        1
 44
0.0
173
     0
291
     0
 45
0.0
1001
ACAD
1000
AcDbSavedByObjectVersion
1070
     0
  0
VISUALSTYLE
  5
2E
102
{ACAD_XDICTIONARY
360
D42
102
}
102
{ACAD_REACTORS
330
29
102
}
330
29
100
AcDbVisualStyle
  2

 70
     7
 71
     1
 72
     0
 73
     1
 90
        0
 40
-0.6
 41
-30.0
 62
     5
 63
     7
 74
     0
 91
        4
 64
     7
 65
   257
 75
     1
175
     1
 42
1.0
 92
        8
 66
     7
 43
1.0
 76
     1
 77
     6
 78
     2
 67
     7
 79
     5
170
     0
171
     0
290
     0
174
     0
 93
        1
 44
0.0
173
     0
291
     1
 45
0.0
1001
ACAD
1000
AcDbSavedByObjectVersion
1070
     0
  0
VISUALSTYLE
  5
35
102
{ACAD_XDICTIONARY
360
D50
102
}
102
{ACAD_REACTORS
330
29
102
}
330
29
100
AcDbVisualStyle
  2

 70
    12
 71
     2
 72
     2
 73
     0
 90
        0
 40
-0.6
 41
-30.0
 62
     5
 63
     7
 74
     1
 91
        4
 64
     7
 65
   257
 75
     1
175
     1
 42
1.0
 92
        8
 66
     7
 43
1.0
 76
     1
 77
     6
 78
     2
 67
     7
 79
     5
170
     0
171
     0
290
     0
174
     0
 93
        1
 44
50.0
173
     0
291
     1
 45
0.0
1001
ACAD
1000
AcDbSavedByObjectVersion
1070
     0
  0
VISUALSTYLE
  5
39
102
{ACAD_XDICTIONARY
360
D58
102
}
102
{ACAD_REACTORS
330
29
102
}
330
29
100
AcDbVisualStyle
  2

 70
    16
 71
     2
 72
     2
 73
     3
 90
        0
 40
-0.6
 41
-30.0
 62
     5
 63
     8
 74
     1
 91
        4
 64
     7
 65
   257
 75
     1
175
     1
 42
1.0
 92
        8
 66
     8
 43
1.0
 76
     1
 77
     6
 78
     2
 67
     7
 79
     5
170
     0
171
     0
290
     0
174
     0
 93
        1
 44
0.0
173
     0
291
     1
 45
0.0
1001
ACAD
1000
AcDbSavedByObjectVersion
1070
     0
  0
VISUALSTYLE
  5
32
102
{ACAD_XDICTIONARY
360
D4A
102
}
102
{ACAD_REACTORS
330
29
102
}
330
29
100
AcDbVisualStyle
  2

 70
     9
 71
     3
 72
     2
 73
     0
 90
        0
 40
-0.6
 41
-30.0
 62
     5
 63
     7
 74
     2
 91
        2
 64
     7
 65
   257
 75
     1
175
     1
 42
179.0
 92
        8
 66
     7
 43
1.0
 76
     1
 77
     6
 78
     2
 67
     7
 79
     3
170
     0
171
     0
290
     0
174
     0
 93
        1
 44
0.0
173
     0
291
     0
 45
0.0
1001
ACAD
1000
AcDbSavedByObjectVersion
1070
     0
  0
VISUALSTYLE
  5
34
102
{ACAD_XDICTIONARY
360
D4E
102
}
102
{ACAD_REACTORS
330
29
102
}
330
29
100
AcDbVisualStyle
  2

 70
    11
 71
     2
 72
     2
 73
     0
 90
        0
 40
-0.6
 41
-30.0
 62
     5
 63
     7
 74
     1
 91
        4
 64
     7
 65
   257
 75
     1
175
     1
 42
1.0
 92
        8
 66
     7
 43
1.0
 76
     1
 77
     6
 78
     2
 67
     7
 79
     5
170
     0
171
     0
290
     0
174
     0
 93
        1
 44
-50.0
173
     0
291
     1
 45
0.0
1001
ACAD
1000
AcDbSavedByObjectVersion
1070
     0
  0
VISUALSTYLE
  5
41
102
{ACAD_XDICTIONARY
360
D68
102
}
102
{ACAD_REACTORS
330
29
102
}
330
29
100
AcDbVisualStyle
  2

 70
    22
 71
     2
 72
     2
 73
     0
 90
        0
 40
-0.6
 41
-30.0
 62
     5
 63
     7
 74
     1
 91
        4
 64
     7
 65
   257
 75
     1
175
     1
 42
1.0
 92
        8
 66
     7
 43
1.0
 76
     1
 77
     6
 78
     2
 67
     7
 79
     5
170
     0
171
     0
290
     0
174
     0
 93
        1
 44
0.0
173
     0
291
     1
 45
0.0
1001
ACAD
1000
AcDbSavedByObjectVersion
1070
     0
  0
VISUALSTYLE
  5
38
102
{ACAD_XDICTIONARY
360
D56
102
}
102
{ACAD_REACTORS
330
29
102
}
330
29
100
AcDbVisualStyle
  2

 70
    15
 71
     2
 72
     2
 73
     0
 90
        0
 40
-0.6
 41
-30.0
 62
     5
 63
     7
 74
     1
 91
        4
 64
     7
 65
   257
 75
     1
175
     1
 42
1.0
 92
        8
 66
     7
 43
1.0
 76
     1
 77
     6
 78
     2
 67
     7
 79
     5
170
     0
171
     0
290
     0
174
     0
 93
        1
 44
0.0
173
     0
291
     1
 45
0.0
1001
ACAD
1000
AcDbSavedByObjectVersion
1070
     0
  0
VISUALSTYLE
  5
2A
102
{ACAD_XDICTIONARY
360
D3A
102
}
102
{ACAD_REACTORS
330
29
102
}
330
29
100
AcDbVisualStyle
  2

 70
     0
 71
     2
 72
     1
 73
     1
 90
        2
 40
-0.6
 41
30.0
 62
     5
 63
     7
 74
     0
 91
        0
 64
     7
 65
   257
 75
     1
175
     1
 42
1.0
 92
        8
 66
     7
 43
1.0
 76
     1
 77
     6
 78
     2
 67
     7
 79
     5
170
     0
171
     0
290
     0
174
     0
 93
       13
 44
0.0
173
     0
291
     1
 45
0.0
1001
ACAD
1000
AcDbSavedByObjectVersion
1070
     0
  0
VISUALSTYLE
  5
2B
102
{ACAD_XDICTIONARY
360
D3C
102
}
102
{ACAD_REACTORS
330
29
102
}
330
29
100
AcDbVisualStyle
  2

 70
     1
 71
     2
 72
     1
 73
     1
 90
        2
 40
-0.6
 41
30.0
 62
     5
 63
     7
 74
     1
 91
        0
 64
     7
 65
   257
 75
     1
175
     1
 42
1.0
 92
        0
 66
   257
 43
1.0
 76
     1
 77
     6
 78
     2
 67
     7
 79
     5
170
     0
171
     0
290
     0
174
     0
 93
       13
 44
0.0
173
     0
291
     1
 45
0.0
1001
ACAD
1000
AcDbSavedByObjectVersion
1070
     0
  0
VISUALSTYLE
  5
2C
102
{ACAD_XDICTIONARY
360
D3E
102
}
102
{ACAD_REACTORS
330
29
102
}
330
29
100
AcDbVisualStyle
  2

 70
     2
 71
     2
 72
     2
 73
     1
 90
        2
 40
-0.6
 41
30.0
 62
     5
 63
     7
 74
     0
 91
        0
 64
     7
 65
   257
 75
     1
175
     1
 42
1.0
 92
        0
 66
     7
 43
1.0
 76
     1
 77
     6
 78
     2
 67
     7
 79
     5
170
     0
171
     0
290
     0
174
     0
 93
       13
 44
0.0
173
     0
291
     1
 45
0.0
1001
ACAD
1000
AcDbSavedByObjectVersion
1070
     0
  0
VISUALSTYLE
  5
2D
102
{ACAD_XDICTIONARY
360
D40
102
}
102
{ACAD_REACTORS
330
29
102
}
330
29
100
AcDbVisualStyle
  2

 70
     3
 71
     2
 72
     2
 73
     1
 90
        2
 40
-0.6
 41
30.0
 62
     5
 63
     7
 74
     1
 91
        0
 64
     7
 65
   257
 75
     1
175
     1
 42
1.0
 92
        0
 66
   257
 43
1.0
 76
     1
 77
     6
 78
     2
 67
     7
 79
     5
170
     0
171
     0
290
     0
174
     0
 93
       13
 44
0.0
173
     0
291
     1
 45
0.0
1001
ACAD
1000
AcDbSavedByObjectVersion
1070
     0
  0
VISUALSTYLE
  5
31
102
{ACAD_XDICTIONARY
360
D48
102
}
102
{ACAD_REACTORS
330
29
102
}
330
29
100
AcDbVisualStyle
  2

 70
     6
 71
     1
 72
     2
 73
     2
 90
        0
 40
-0.6
 41
-30.0
 62
     5
 63
     7
 74
     2
 91
        2
 64
     7
 65
   257
 75
     2
175
     1
 42
40.0
 92
        0
 66
   257
 43
1.0
 76
     1
 77
     6
 78
     2
 67
     7
 79
     3
170
     0
171
     0
290
     0
174
     0
 93
        1
 44
0.0
173
     0
291
     0
 45
0.0
1001
ACAD
1000
AcDbSavedByObjectVersion
1070
     0
  0
VISUALSTYLE
  5
3F
102
{ACAD_XDICTIONARY
360
D64
102
}
102
{ACAD_REACTORS
330
29
102
}
330
29
100
AcDbVisualStyle
  2

 70
    20
 71
     2
 72
     2
 73
     0
 90
        0
 40
-0.6
 41
-30.0
 62
     5
 63
     7
 74
     1
 91
        4
 64
     7
 65
   257
 75
     1
175
     1
 42
1.0
 92
       10
 66
     7
 43
1.0
 76
     1
 77
     6
 78
     2
 67
     7
 79
     5
170
     0
171
     0
290
     0
174
     0
 93
        1
 44
0.0
173
     0
291
     1
 45
0.0
1001
ACAD
1000
AcDbSavedByObjectVersion
1070
     0
  0
VISUALSTYLE
  5
37
102
{ACAD_XDICTIONARY
360
D54
102
}
102
{ACAD_REACTORS
330
29
102
}
330
29
100
AcDbVisualStyle
  2

 70
    14
 71
     2
 72
     2
 73
     0
 90
        0
 40
-0.6
 41
-30.0
 62
     5
 63
     7
 74
     1
 91
        4
 64
     7
 65
   257
 75
     7
175
     7
 42
1.0
 92
        8
 66
     7
 43
1.0
 76
     1
 77
     6
 78
     2
 67
     7
 79
     5
170
     0
171
     0
290
     0
174
     0
 93
        1
 44
0.0
173
     0
291
     1
 45
0.0
1001
ACAD
1000
AcDbSavedByObjectVersion
1070
     0
  0
VISUALSTYLE
  5
40
102
{ACAD_XDICTIONARY
360
D66
102
}
102
{ACAD_REACTORS
330
29
102
}
330
29
100
AcDbVisualStyle
  2

 70
    21
 71
     2
 72
     2
 73
     0
 90
        0
 40
-0.6
 41
-30.0
 62
     5
 63
     7
 74
     1
 91
        4
 64
     7
 65
   257
 75
     1
175
     1
 42
1.0
 92
        9
 66
     7
 43
1.0
 76
     1
 77
     6
 78
     2
 67
     7
 79
     5
170
     0
171
     0
290
     0
174
     0
 93
        1
 44
0.0
173
     0
291
     1
 45
0.0
1001
ACAD
1000
AcDbSavedByObjectVersion
1070
     0
  0
VISUALSTYLE
  5
33
102
{ACAD_XDICTIONARY
360
D4C
102
}
102
{ACAD_REACTORS
330
29
102
}
330
29
100
AcDbVisualStyle
  2

 70
     8
 71
     2
 72
     3
 73
     0
 90
        2
 40
-0.6
 41
30.0
 62
     5
 63
     7
 74
     0
 91
        0
 64
     7
 65
   257
 75
     1
175
     1
 42
1.0
 92
        8
 66
   257
 43
1.0
 76
     1
 77
     6
 78
     2
 67
     7
 79
     3
170
     0
171
     0
290
     0
174
     0
 93
       13
 44
0.0
173
     0
291
     0
 45
0.0
1001
ACAD
1000
AcDbSavedByObjectVersion
1070
     0
  0
VISUALSTYLE
  5
3E
102
{ACAD_XDICTIONARY
360
D62
102
}
102
{ACAD_REACTORS
330
29
102
}
330
29
100
AcDbVisualStyle
  2

 70
    27
 71
     2
 72
     2
 73
     1
 90
        2
 40
-0.6
 41
30.0
 62
     5
 63
     7
 74
     0
 91
        4
 64
     7
 65
   257
 75
     1
175
     1
 42
1.0
 92
        8
 66
   257
 43
1.0
 76
     1
 77
     6
 78
     2
 67
     8
 79
     3
170
     0
171
     0
290
     0
174
     0
 93
        5
 44
0.0
173
     0
291
     0
 45
0.0
1001
ACAD
1000
AcDbSavedByObjectVersion
1070
     0
  0
VISUALSTYLE
  5
3D
102
{ACAD_XDICTIONARY
360
D60
102
}
102
{ACAD_REACTORS
330
29
102
}
330
29
100
AcDbVisualStyle
  2

 70
    26
 71
     2
 72
     2
 73
     1
 90
        2
 40
-0.6
 41
30.0
 62
     5
 63
     7
 74
     1
 91
       10
 64
     7
 65
   257
 75
     2
175
     1
 42
1.0
 92
        8
 66
   257
 43
1.0
 76
     1
 77
     6
 78
     2
 67
     7
 79
     3
170
     0
171
     0
290
     0
174
     0
 93
        5
 44
0.0
173
     0
291
     0
 45
0.0
1001
ACAD
1000
AcDbSavedByObjectVersion
1070
     0
  0
VISUALSTYLE
  5
3A
102
{ACAD_XDICTIONARY
360
D5A
102
}
102
{ACAD_REACTORS
330
29
102
}
330
29
100
AcDbVisualStyle
  2

 70
    23
 71
     2
 72
     2
 73
     3
 90
        0
 40
-0.6
 41
-30.0
 62
     5
 63
     7
 74
     2
 91
        2
 64
     7
 65
     7
 75
     1
175
     1
 42
40.0
 92
        8
 66
     7
 43
1.0
 76
     1
 77
     6
 78
     2
 67
     7
 79
     3
170
     0
171
     0
290
     0
174
     0
 93
        1
 44
0.0
173
     0
291
     0
 45
0.0
1001
ACAD
1000
AcDbSavedByObjectVersion
1070
     0
  0
VISUALSTYLE
  5
3B
102
{ACAD_XDICTIONARY
360
D5C
102
}
102
{ACAD_REACTORS
330
29
102
}
330
29
100
AcDbVisualStyle
  2

 70
    24
 71
     1
 72
     2
 73
     2
 90
        0
 40
-0.6
 41
-30.0
 62
     5
 63
     7
 74
     2
 91
        2
 64
     7
 65
     7
 75
     1
175
     1
 42
40.0
 92
       11
 66
     7
 43
1.0
 76
     1
 77
     6
 78
     2
 67
     7
 79
     6
170
     0
171
     0
290
     0
174
     0
 93
        1
 44
0.0
173
     0
291
     0
 45
0.0
1001
ACAD
1000
AcDbSavedByObjectVersion
1070
     0
  0
VISUALSTYLE
  5
36
102
{ACAD_XDICTIONARY
360
D52
102
}
102
{ACAD_REACTORS
330
29
102
}
330
29
100
AcDbVisualStyle
  2

 70
    13
 71
     2
 72
     2
 73
     0
 90
        0
 40
-0.6
 41
-30.0
 62
     5
 63
     7
 74
     1
 91
        4
 64
     7
 65
   257
 75
     1
175
     1
 42
1.0
 92
       12
 66
     7
 43
1.0
 76
     1
 77
     6
 78
     2
 67
     7
 79
     5
170
     0
171
     0
290
     0
174
     0
 93
        1
 44
0.0
173
     0
291
     1
 45
0.0
1001
ACAD
1000
AcDbSavedByObjectVersion
1070
     0
  0
VISUALSTYLE
  5
30
102
{ACAD_XDICTIONARY
360
D46
102
}
102
{ACAD_REACTORS
330
29
102
}
330
29
100
AcDbVisualStyle
  2

 70
     5
 71
     0
 72
     2
 73
     0
 90
        0
 40
-0.6
 41
-30.0
 62
     5
 63
     7
 74
     1
 91
        4
 64
     7
 65
   257
 75
     1
175
     1
 42
1.0
 92
        0
 66
   257
 43
1.0
 76
     1
 77
     6
 78
     2
 67
     7
 79
     3
170
     0
171
     0
290
     0
174
     0
 93
        1
 44
0.0
173
     0
291
     0
 45
0.0
1001
ACAD
1000
AcDbSavedByObjectVersion
1070
     0
  0
VISUALSTYLE
  5
3C
102
{ACAD_XDICTIONARY
360
D5E
102
}
102
{ACAD_REACTORS
330
29
102
}
330
29
100
AcDbVisualStyle
  2

 70
    25
 71
     2
 72
     2
 73
     1
 90
        1
 40
0.5
 41
-30.0
 62
     5
 63
     7
 74
     1
 91
        0
 64
     7
 65
   257
 75
     1
175
     1
 42
1.0
 92
        8
 66
     7
 43
1.0
 76
     1
 77
     6
 78
     2
 67
     7
 79
     3
170
     0
171
     0
290
     0
174
     0
 93
       13
 44
0.0
173
     0
291
     0
 45
0.0
1001
ACAD
1000
AcDbSavedByObjectVersion
1070
     0
  0
DICTIONARYVAR
  5
B7F
102
{ACAD_REACTORS
330
B7C
102
}
330
B7C
100
DictionaryVariables
280
     0
  1
1:1
  0
DICTIONARYVAR
  5
B7E
102
{ACAD_REACTORS
330
B7C
102
}
330
B7C
100
DictionaryVariables
280
     0
  1
STANDARD
  0
DICTIONARYVAR
  5
B7D
102
{ACAD_REACTORS
330
B7C
102
}
330
B7C
100
DictionaryVariables
280
     0
  1
STANDARD
  0
DICTIONARYVAR
  5
B82
102
{ACAD_REACTORS
330
B7C
102
}
330
B7C
100
DictionaryVariables
280
     0
  1
1
  0
DICTIONARYVAR
  5
B81
102
{ACAD_REACTORS
330
B7C
102
}
330
B7C
100
DictionaryVariables
280
     0
  1
0
  0
DICTIONARYVAR
  5
B80
102
{ACAD_REACTORS
330
B7C
102
}
330
B7C
100
DictionaryVariables
280
     0
  1
127
  0
DICTIONARYVAR
  5
D32
102
{ACAD_REACTORS
330
B7C
102
}
330
B7C
100
DictionaryVariables
280
     0
  1
2
  0
DICTIONARY
  5
D6D
330
6E
100
AcDbDictionary
280
     1
281
     1
  3
ACAD_XREC_ROUNDTRIP
360
D6E
  0
DICTIONARY
  5
D6B
330
6A
100
AcDbDictionary
280
     1
281
     1
  3
ACAD_XREC_ROUNDTRIP
360
D6C
  0
DICTIONARY
  5
1A
330
19
100
AcDbDictionary
280
     1
281
     1
  3
ACAD_XREC_ROUNDTRIP
360
B8D
  3
BUMPTILE
360
1C
  3
DIFFUSETILE
360
1B
  3
OPACITYTILE
360
1F
  3
REFLECTIONTILE
360
1E
  3
REFRACTIONTILE
360
20
  3
SPECULARTILE
360
1D
  0
DICTIONARY
  5
12
330
11
100
AcDbDictionary
280
     1
281
     1
  3
ACAD_XREC_ROUNDTRIP
360
B8C
  3
BUMPTILE
360
14
  3
DIFFUSETILE
360
13
  3
OPACITYTILE
360
17
  3
REFLECTIONTILE
360
16
  3
REFRACTIONTILE
360
18
  3
SPECULARTILE
360
15
  0
DICTIONARY
  5
22
330
21
100
AcDbDictionary
280
     1
281
     1
  3
ACAD_XREC_ROUNDTRIP
360
B8E
  3
BUMPTILE
360
24
  3
DIFFUSETILE
360
23
  3
OPACITYTILE
360
27
  3
REFLECTIONTILE
360
26
  3
REFRACTIONTILE
360
28
  3
SPECULARTILE
360
25
  0
DICTIONARY
  5
B84
330
64
100
AcDbDictionary
280
     1
281
     1
  3
ACAD_ROUNDTRIP_2008_TABLESTYLE_CELLSTYLEMAP
360
D33
  3
ACAD_XREC_ROUNDTRIP
360
D6A
  0
DICTIONARY
  5
D44
330
2F
100
AcDbDictionary
280
     1
281
     1
  3
ACAD_XREC_ROUNDTRIP
360
D45
  0
DICTIONARY
  5
D6F
330
438
100
AcDbDictionary
280
     1
281
     1
  3
ACAD_XREC_ROUNDTRIP
360
D70
  0
DICTIONARY
  5
D42
330
2E
100
AcDbDictionary
280
     1
281
     1
  3
ACAD_XREC_ROUNDTRIP
360
D43
  0
DICTIONARY
  5
D50
330
35
100
AcDbDictionary
280
     1
281
     1
  3
ACAD_XREC_ROUNDTRIP
360
D51
  0
DICTIONARY
  5
D58
330
39
100
AcDbDictionary
280
     1
281
     1
  3
ACAD_XREC_ROUNDTRIP
360
D59
  0
DICTIONARY
  5
D4A
330
32
100
AcDbDictionary
280
     1
281
     1
  3
ACAD_XREC_ROUNDTRIP
360
D4B
  0
DICTIONARY
  5
D4E
330
34
100
AcDbDictionary
280
     1
281
     1
  3
ACAD_XREC_ROUNDTRIP
360
D4F
  0
DICTIONARY
  5
D68
330
41
100
AcDbDictionary
280
     1
281
     1
  3
ACAD_XREC_ROUNDTRIP
360
D69
  0
DICTIONARY
  5
D56
330
38
100
AcDbDictionary
280
     1
281
     1
  3
ACAD_XREC_ROUNDTRIP
360
D57
  0
DICTIONARY
  5
D3A
330
2A
100
AcDbDictionary
280
     1
281
     1
  3
ACAD_XREC_ROUNDTRIP
360
D3B
  0
DICTIONARY
  5
D3C
330
2B
100
AcDbDictionary
280
     1
281
     1
  3
ACAD_XREC_ROUNDTRIP
360
D3D
  0
DICTIONARY
  5
D3E
330
2C
100
AcDbDictionary
280
     1
281
     1
  3
ACAD_XREC_ROUNDTRIP
360
D3F
  0
DICTIONARY
  5
D40
330
2D
100
AcDbDictionary
280
     1
281
     1
  3
ACAD_XREC_ROUNDTRIP
360
D41
  0
DICTIONARY
  5
D48
330
31
100
AcDbDictionary
280
     1
281
     1
  3
ACAD_XREC_ROUNDTRIP
360
D49
  0
DICTIONARY
  5
D64
330
3F
100
AcDbDictionary
280
     1
281
     1
  3
ACAD_XREC_ROUNDTRIP
360
D65
  0
DICTIONARY
  5
D54
330
37
100
AcDbDictionary
280
     1
281
     1
  3
ACAD_XREC_ROUNDTRIP
360
D55
  0
DICTIONARY
  5
D66
330
40
100
AcDbDictionary
280
     1
281
     1
  3
ACAD_XREC_ROUNDTRIP
360
D67
  0
DICTIONARY
  5
D4C
330
33
100
AcDbDictionary
280
     1
281
     1
  3
ACAD_XREC_ROUNDTRIP
360
D4D
  0
DICTIONARY
  5
D62
330
3E
100
AcDbDictionary
280
     1
281
     1
  3
ACAD_XREC_ROUNDTRIP
360
D63
  0
DICTIONARY
  5
D60
330
3D
100
AcDbDictionary
280
     1
281
     1
  3
ACAD_XREC_ROUNDTRIP
360
D61
  0
DICTIONARY
  5
D5A
330
3A
100
AcDbDictionary
280
     1
281
     1
  3
ACAD_XREC_ROUNDTRIP
360
D5B
  0
DICTIONARY
  5
D5C
330
3B
100
AcDbDictionary
280
     1
281
     1
  3
ACAD_XREC_ROUNDTRIP
360
D5D
  0
DICTIONARY
  5
D52
330
36
100
AcDbDictionary
280
     1
281
     1
  3
ACAD_XREC_ROUNDTRIP
360
D53
  0
DICTIONARY
  5
D46
330
30
100
AcDbDictionary
280
     1
281
     1
  3
ACAD_XREC_ROUNDTRIP
360
D47
  0
DICTIONARY
  5
D5E
330
3C
100
AcDbDictionary
280
     1
281
     1
  3
ACAD_XREC_ROUNDTRIP
360
D5F
  0
XRECORD
  5
D6E
102
{ACAD_REACTORS
330
D6D
102
}
330
D6D
100
AcDbXrecord
280
     1
102
SHADEPLOT
 70
     0
102
SHADEPLOTRESLEVEL
 70
     2
102
SHADEPLOTCUSTOMDPI
 70
   300
  0
XRECORD
  5
D6C
102
{ACAD_REACTORS
330
D6B
102
}
330
D6B
100
AcDbXrecord
280
     1
102
SHADEPLOT
 70
     0
102
SHADEPLOTRESLEVEL
 70
     2
102
SHADEPLOTCUSTOMDPI
 70
   300
  0
XRECORD
  5
B8D
102
{ACAD_REACTORS
330
1A
102
}
330
1A
100
AcDbXrecord
280
     1
102
MATERIAL
148
0.0
149
0.0
149
0.0
 93
        0
 94
      127
282
     0
 72
     0
 77
     0
171
     0
175
     0
179
     0
273
     0
  0
XRECORD
  5
1C
102
{ACAD_REACTORS
330
1A
102
}
330
1A
100
AcDbXrecord
280
     1
270
     1
271
     1
  0
XRECORD
  5
1B
102
{ACAD_REACTORS
330
1A
102
}
330
1A
100
AcDbXrecord
280
     1
270
     1
271
     1
  0
XRECORD
  5
1F
102
{ACAD_REACTORS
330
1A
102
}
330
1A
100
AcDbXrecord
280
     1
270
     1
271
     1
  0
XRECORD
  5
1E
102
{ACAD_REACTORS
330
1A
102
}
330
1A
100
AcDbXrecord
280
     1
270
     1
271
     1
  0
XRECORD
  5
20
102
{ACAD_REACTORS
330
1A
102
}
330
1A
100
AcDbXrecord
280
     1
270
     1
271
     1
  0
XRECORD
  5
1D
102
{ACAD_REACTORS
330
1A
102
}
330
1A
100
AcDbXrecord
280
     1
270
     1
271
     1
  0
XRECORD
  5
B8C
102
{ACAD_REACTORS
330
12
102
}
330
12
100
AcDbXrecord
280
     1
102
MATERIAL
148
0.0
149
0.0
149
0.0
 93
        0
 94
      127
282
     0
 72
     0
 77
     0
171
     0
175
     0
179
     0
273
     0
  0
XRECORD
  5
14
102
{ACAD_REACTORS
330
12
102
}
330
12
100
AcDbXrecord
280
     1
270
     1
271
     1
  0
XRECORD
  5
13
102
{ACAD_REACTORS
330
12
102
}
330
12
100
AcDbXrecord
280
     1
270
     1
271
     1
  0
XRECORD
  5
17
102
{ACAD_REACTORS
330
12
102
}
330
12
100
AcDbXrecord
280
     1
270
     1
271
     1
  0
XRECORD
  5
16
102
{ACAD_REACTORS
330
12
102
}
330
12
100
AcDbXrecord
280
     1
270
     1
271
     1
  0
XRECORD
  5
18
102
{ACAD_REACTORS
330
12
102
}
330
12
100
AcDbXrecord
280
     1
270
     1
271
     1
  0
XRECORD
  5
15
102
{ACAD_REACTORS
330
12
102
}
330
12
100
AcDbXrecord
280
     1
270
     1
271
     1
  0
XRECORD
  5
B8E
102
{ACAD_REACTORS
330
22
102
}
330
22
100
AcDbXrecord
280
     1
102
MATERIAL
148
0.0
149
0.0
149
0.0
 93
        0
 94
      127
282
     0
 72
     0
 77
     0
171
     0
175
     0
179
     0
273
     0
  0
XRECORD
  5
24
102
{ACAD_REACTORS
330
22
102
}
330
22
100
AcDbXrecord
280
     1
270
     1
271
     1
  0
XRECORD
  5
23
102
{ACAD_REACTORS
330
22
102
}
330
22
100
AcDbXrecord
280
     1
270
     1
271
     1
  0
XRECORD
  5
27
102
{ACAD_REACTORS
330
22
102
}
330
22
100
AcDbXrecord
280
     1
270
     1
271
     1
  0
XRECORD
  5
26
102
{ACAD_REACTORS
330
22
102
}
330
22
100
AcDbXrecord
280
     1
270
     1
271
     1
  0
XRECORD
  5
28
102
{ACAD_REACTORS
330
22
102
}
330
22
100
AcDbXrecord
280
     1
270
     1
271
     1
  0
XRECORD
  5
25
102
{ACAD_REACTORS
330
22
102
}
330
22
100
AcDbXrecord
280
     1
270
     1
271
     1
  0
CELLSTYLEMAP
  5
D33
102
{ACAD_REACTORS
330
B84
102
}
330
B84
100
AcDbCellStyleMap
 90
        3
300
CELLSTYLE
  1
TABLEFORMAT_BEGIN
 90
        5
170
     1
 91
        0
 92
    32768
 62
   257
 93
        1
300
CONTENTFORMAT
  1
CONTENTFORMAT_BEGIN
 90
        0
 91
        0
 92
      512
 93
        0
300

 40
0.0
140
1.0
 94
        5
 62
     0
340
55
144
0.25
309
CONTENTFORMAT_END
171
     1
301
MARGIN
  1
CELLMARGIN_BEGIN
 40
0.06
 40
0.06
 40
0.06
 40
0.06
 40
0.18
 40
0.18
309
CELLMARGIN_END
 94
        6
 95
        1
302
GRIDFORMAT
  1
GRIDFORMAT_BEGIN
 90
        0
 91
        1
 62
     0
 92
       -2
340
0
 93
        0
 40
0.045
309
GRIDFORMAT_END
 95
        2
302
GRIDFORMAT
  1
GRIDFORMAT_BEGIN
 90
        0
 91
        1
 62
     0
 92
       -2
340
0
 93
        0
 40
0.045
309
GRIDFORMAT_END
 95
        4
302
GRIDFORMAT
  1
GRIDFORMAT_BEGIN
 90
        0
 91
        1
 62
     0
 92
       -2
340
0
 93
        0
 40
0.045
309
GRIDFORMAT_END
 95
        8
302
GRIDFORMAT
  1
GRIDFORMAT_BEGIN
 90
        0
 91
        1
 62
     0
 92
       -2
340
0
 93
        0
 40
0.045
309
GRIDFORMAT_END
 95
       16
302
GRIDFORMAT
  1
GRIDFORMAT_BEGIN
 90
        0
 91
        1
 62
     0
 92
       -2
340
0
 93
        0
 40
0.045
309
GRIDFORMAT_END
 95
       32
302
GRIDFORMAT
  1
GRIDFORMAT_BEGIN
 90
        0
 91
        1
 62
     0
 92
       -2
340
0
 93
        0
 40
0.045
309
GRIDFORMAT_END
309
TABLEFORMAT_END
  1
CELLSTYLE_BEGIN
 90
        1
 91
        1
300
_TITLE
309
CELLSTYLE_END
300
CELLSTYLE
  1
TABLEFORMAT_BEGIN
 90
        5
170
     1
 91
        0
 92
        0
 62
   257
 93
        1
300
CONTENTFORMAT
  1
CONTENTFORMAT_BEGIN
 90
        0
 91
        0
 92
      512
 93
        0
300

 40
0.0
140
1.0
 94
        5
 62
     0
340
55
144
0.18
309
CONTENTFORMAT_END
171
     1
301
MARGIN
  1
CELLMARGIN_BEGIN
 40
0.06
 40
0.06
 40
0.06
 40
0.06
 40
0.18
 40
0.18
309
CELLMARGIN_END
 94
        6
 95
        1
302
GRIDFORMAT
  1
GRIDFORMAT_BEGIN
 90
        0
 91
        1
 62
     0
 92
       -2
340
0
 93
        0
 40
0.045
309
GRIDFORMAT_END
 95
        2
302
GRIDFORMAT
  1
GRIDFORMAT_BEGIN
 90
        0
 91
        1
 62
     0
 92
       -2
340
0
 93
        0
 40
0.045
309
GRIDFORMAT_END
 95
        4
302
GRIDFORMAT
  1
GRIDFORMAT_BEGIN
 90
        0
 91
        1
 62
     0
 92
       -2
340
0
 93
        0
 40
0.045
309
GRIDFORMAT_END
 95
        8
302
GRIDFORMAT
  1
GRIDFORMAT_BEGIN
 90
        0
 91
        1
 62
     0
 92
       -2
340
0
 93
        0
 40
0.045
309
GRIDFORMAT_END
 95
       16
302
GRIDFORMAT
  1
GRIDFORMAT_BEGIN
 90
        0
 91
        1
 62
     0
 92
       -2
340
0
 93
        0
 40
0.045
309
GRIDFORMAT_END
 95
       32
302
GRIDFORMAT
  1
GRIDFORMAT_BEGIN
 90
        0
 91
        1
 62
     0
 92
       -2
340
0
 93
        0
 40
0.045
309
GRIDFORMAT_END
309
TABLEFORMAT_END
  1
CELLSTYLE_BEGIN
 90
        2
 91
        1
300
_HEADER
309
CELLSTYLE_END
300
CELLSTYLE
  1
TABLEFORMAT_BEGIN
 90
        5
170
     1
 91
        0
 92
        0
 62
   257
 93
        1
300
CONTENTFORMAT
  1
CONTENTFORMAT_BEGIN
 90
        0
 91
        0
 92
      512
 93
        0
300

 40
0.0
140
1.0
 94
        2
 62
     0
340
55
144
0.18
309
CONTENTFORMAT_END
171
     1
301
MARGIN
  1
CELLMARGIN_BEGIN
 40
0.06
 40
0.06
 40
0.06
 40
0.06
 40
0.18
 40
0.18
309
CELLMARGIN_END
 94
        6
 95
        1
302
GRIDFORMAT
  1
GRIDFORMAT_BEGIN
 90
        0
 91
        1
 62
     0
 92
       -2
340
0
 93
        0
 40
0.045
309
GRIDFORMAT_END
 95
        2
302
GRIDFORMAT
  1
GRIDFORMAT_BEGIN
 90
        0
 91
        1
 62
     0
 92
       -2
340
0
 93
        0
 40
0.045
309
GRIDFORMAT_END
 95
        4
302
GRIDFORMAT
  1
GRIDFORMAT_BEGIN
 90
        0
 91
        1
 62
     0
 92
       -2
340
0
 93
        0
 40
0.045
309
GRIDFORMAT_END
 95
        8
302
GRIDFORMAT
  1
GRIDFORMAT_BEGIN
 90
        0
 91
        1
 62
     0
 92
       -2
340
0
 93
        0
 40
0.045
309
GRIDFORMAT_END
 95
       16
302
GRIDFORMAT
  1
GRIDFORMAT_BEGIN
 90
        0
 91
        1
 62
     0
 92
       -2
340
0
 93
        0
 40
0.045
309
GRIDFORMAT_END
 95
       32
302
GRIDFORMAT
  1
GRIDFORMAT_BEGIN
 90
        0
 91
        1
 62
     0
 92
       -2
340
0
 93
        0
 40
0.045
309
GRIDFORMAT_END
309
TABLEFORMAT_END
  1
CELLSTYLE_BEGIN
 90
        3
 91
        2
300
_DATA
309
CELLSTYLE_END
  0
XRECORD
  5
D6A
102
{ACAD_REACTORS
330
B84
102
}
330
B84
100
AcDbXrecord
280
     1
102
ACAD_ROUNDTRIP_PRE2007_TABLESTYLE
 90
      512
 91
        0
  1

 92
      512
 93
        0
  2

 94
      512
 95
        0
  3

  0
XRECORD
  5
D45
102
{ACAD_REACTORS
330
D44
102
}
330
D44
100
AcDbXrecord
280
     1
102
RTVSPropertyOp0
 70
     1
102
RTVSPropertyOp1
 70
     1
102
RTVSPropertyOp2
 70
     1
102
RTVSPropertyOp3
 70
     1
102
RTVSPropertyOp4
 70
     1
102
RTVSPropertyOp5
 70
     1
102
RTVSPropertyOp6
 70
     1
102
RTVSPropertyOp7
 70
     1
102
RTVSPropertyOp8
 70
     1
102
RTVSPropertyOp9
 70
     1
102
RTVSPropertyOp10
 70
     1
102
RTVSPropertyOp11
 70
     1
102
RTVSPropertyOp12
 70
     1
102
RTVSPropertyOp13
 70
     1
102
RTVSPropertyOp14
 70
     1
102
RTVSPropertyOp15
 70
     1
102
RTVSPropertyOp16
 70
     1
102
RTVSPropertyOp17
 70
     1
102
RTVSPropertyOp18
 70
     1
102
RTVSPropertyOp19
 70
     1
102
RTVSPropertyOp20
 70
     1
102
RTVSPropertyOp21
 70
     1
102
RTVSPropertyOp22
 70
     1
102
RTVSPropertyOp23
 70
     1
102
RTVSPropertyOp24
 70
     1
102
RTVSPropertyOp25
 70
     1
102
RTVSPropertyOp26
 70
     1
102
RTVSPropertyOp27
 70
     1
102
RTVSPropertyOp28
 70
     1
102
RTVSPropertyOp29
 70
     1
102
RTVSPropertyOp30
 70
     1
102
RTVSPropertyOp31
 70
     1
102
RTVSPropertyOp32
 70
     1
  0
XRECORD
  5
D70
102
{ACAD_REACTORS
330
D6F
102
}
330
D6F
100
AcDbXrecord
280
     1
102
RTVSPropertyOp0
 70
     1
102
RTVSPropertyOp1
 70
     1
102
RTVSPropertyOp2
 70
     1
102
RTVSPropertyOp3
 70
     1
102
RTVSPropertyOp4
 70
     1
102
RTVSPropertyOp5
 70
     1
102
RTVSPropertyOp6
 70
     1
102
RTVSPropertyOp7
 70
     1
102
RTVSPropertyOp8
 70
     1
102
RTVSPropertyOp9
 70
     1
102
RTVSPropertyOp10
 70
     1
102
RTVSPropertyOp11
 70
     1
102
RTVSPropertyOp12
 70
     1
102
RTVSPropertyOp13
 70
     1
102
RTVSPropertyOp14
 70
     1
102
RTVSPropertyOp15
 70
     1
102
RTVSPropertyOp16
 70
     1
102
RTVSPropertyOp17
 70
     1
102
RTVSPropertyOp18
 70
     1
102
RTVSPropertyOp19
 70
     1
102
RTVSPropertyOp20
 70
     1
102
RTVSPropertyOp21
 70
     1
102
RTVSPropertyOp22
 70
     1
102
RTVSPropertyOp23
 70
     1
102
RTVSPropertyOp24
 70
     1
102
RTVSPropertyOp25
 70
     1
102
RTVSPropertyOp26
 70
     1
102
RTVSPropertyOp27
 70
     1
102
RTVSPropertyOp28
 70
     1
102
RTVSPropertyOp29
 70
     1
102
RTVSPropertyOp30
 70
     1
102
RTVSPropertyOp31
 70
     1
102
RTVSPropertyOp32
 70
     1
  0
XRECORD
  5
D43
102
{ACAD_REACTORS
330
D42
102
}
330
D42
100
AcDbXrecord
280
     1
102
RTVSPropertyOp0
 70
     1
102
RTVSPropertyOp1
 70
     1
102
RTVSPropertyOp2
 70
     1
102
RTVSPropertyOp3
 70
     1
102
RTVSPropertyOp4
 70
     1
102
RTVSPropertyOp5
 70
     1
102
RTVSPropertyOp6
 70
     1
102
RTVSPropertyOp7
 70
     1
102
RTVSPropertyOp8
 70
     1
102
RTVSPropertyOp9
 70
     1
102
RTVSPropertyOp10
 70
     1
102
RTVSPropertyOp11
 70
     1
102
RTVSPropertyOp12
 70
     1
102
RTVSPropertyOp13
 70
     1
102
RTVSPropertyOp14
 70
     1
102
RTVSPropertyOp15
 70
     1
102
RTVSPropertyOp16
 70
     1
102
RTVSPropertyOp17
 70
     1
102
RTVSPropertyOp18
 70
     1
102
RTVSPropertyOp19
 70
     1
102
RTVSPropertyOp20
 70
     1
102
RTVSPropertyOp21
 70
     1
102
RTVSPropertyOp22
 70
     1
102
RTVSPropertyOp23
 70
     1
102
RTVSPropertyOp24
 70
     1
102
RTVSPropertyOp25
 70
     1
102
RTVSPropertyOp26
 70
     1
102
RTVSPropertyOp27
 70
     1
102
RTVSPropertyOp28
 70
     1
102
RTVSPropertyOp29
 70
     1
102
RTVSPropertyOp30
 70
     1
102
RTVSPropertyOp31
 70
     1
102
RTVSPropertyOp32
 70
     1
  0
XRECORD
  5
D51
102
{ACAD_REACTORS
330
D50
102
}
330
D50
100
AcDbXrecord
280
     1
102
RTVSPropertyOp0
 70
     1
102
RTVSPropertyOp1
 70
     1
102
RTVSPropertyOp2
 70
     1
102
RTVSPropertyOp3
 70
     1
102
RTVSPropertyOp4
 70
     1
102
RTVSPropertyOp5
 70
     1
102
RTVSPropertyOp6
 70
     1
102
RTVSPropertyOp7
 70
     1
102
RTVSPropertyOp8
 70
     1
102
RTVSPropertyOp9
 70
     1
102
RTVSPropertyOp10
 70
     1
102
RTVSPropertyOp11
 70
     1
102
RTVSPropertyOp12
 70
     1
102
RTVSPropertyOp13
 70
     1
102
RTVSPropertyOp14
 70
     1
102
RTVSPropertyOp15
 70
     1
102
RTVSPropertyOp16
 70
     1
102
RTVSPropertyOp17
 70
     1
102
RTVSPropertyOp18
 70
     1
102
RTVSPropertyOp19
 70
     1
102
RTVSPropertyOp20
 70
     1
102
RTVSPropertyOp21
 70
     1
102
RTVSPropertyOp22
 70
     1
102
RTVSPropertyOp23
 70
     1
102
RTVSPropertyOp24
 70
     1
102
RTVSPropertyOp25
 70
     1
102
RTVSPropertyOp26
 70
     1
102
RTVSPropertyOp27
 70
     1
102
RTVSPropertyOp28
 70
     1
102
RTVSPropertyOp29
 70
     1
102
RTVSPropertyOp30
 70
     1
102
RTVSPropertyOp31
 70
     1
102
RTVSPropertyOp32
 70
     1
  0
XRECORD
  5
D59
102
{ACAD_REACTORS
330
D58
102
}
330
D58
100
AcDbXrecord
280
     1
102
RTVSPropertyOp0
 70
     1
102
RTVSPropertyOp1
 70
     1
102
RTVSPropertyOp2
 70
     1
102
RTVSPropertyOp3
 70
     1
102
RTVSPropertyOp4
 70
     1
102
RTVSPropertyOp5
 70
     1
102
RTVSPropertyOp6
 70
     1
102
RTVSPropertyOp7
 70
     1
102
RTVSPropertyOp8
 70
     1
102
RTVSPropertyOp9
 70
     1
102
RTVSPropertyOp10
 70
     1
102
RTVSPropertyOp11
 70
     1
102
RTVSPropertyOp12
 70
     1
102
RTVSPropertyOp13
 70
     1
102
RTVSPropertyOp14
 70
     1
102
RTVSPropertyOp15
 70
     1
102
RTVSPropertyOp16
 70
     1
102
RTVSPropertyOp17
 70
     1
102
RTVSPropertyOp18
 70
     1
102
RTVSPropertyOp19
 70
     1
102
RTVSPropertyOp20
 70
     1
102
RTVSPropertyOp21
 70
     1
102
RTVSPropertyOp22
 70
     1
102
RTVSPropertyOp23
 70
     1
102
RTVSPropertyOp24
 70
     1
102
RTVSPropertyOp25
 70
     1
102
RTVSPropertyOp26
 70
     1
102
RTVSPropertyOp27
 70
     1
102
RTVSPropertyOp28
 70
     1
102
RTVSPropertyOp29
 70
     1
102
RTVSPropertyOp30
 70
     1
102
RTVSPropertyOp31
 70
     1
102
RTVSPropertyOp32
 70
     1
  0
XRECORD
  5
D4B
102
{ACAD_REACTORS
330
D4A
102
}
330
D4A
100
AcDbXrecord
280
     1
102
RTVSPropertyOp0
 70
     1
102
RTVSPropertyOp1
 70
     1
102
RTVSPropertyOp2
 70
     1
102
RTVSPropertyOp3
 70
     1
102
RTVSPropertyOp4
 70
     1
102
RTVSPropertyOp5
 70
     1
102
RTVSPropertyOp6
 70
     1
102
RTVSPropertyOp7
 70
     1
102
RTVSPropertyOp8
 70
     1
102
RTVSPropertyOp9
 70
     1
102
RTVSPropertyOp10
 70
     1
102
RTVSPropertyOp11
 70
     1
102
RTVSPropertyOp12
 70
     1
102
RTVSPropertyOp13
 70
     1
102
RTVSPropertyOp14
 70
     1
102
RTVSPropertyOp15
 70
     1
102
RTVSPropertyOp16
 70
     1
102
RTVSPropertyOp17
 70
     1
102
RTVSPropertyOp18
 70
     1
102
RTVSPropertyOp19
 70
     1
102
RTVSPropertyOp20
 70
     1
102
RTVSPropertyOp21
 70
     1
102
RTVSPropertyOp22
 70
     1
102
RTVSPropertyOp23
 70
     1
102
RTVSPropertyOp24
 70
     1
102
RTVSPropertyOp25
 70
     1
102
RTVSPropertyOp26
 70
     1
102
RTVSPropertyOp27
 70
     1
102
RTVSPropertyOp28
 70
     1
102
RTVSPropertyOp29
 70
     1
102
RTVSPropertyOp30
 70
     1
102
RTVSPropertyOp31
 70
     1
102
RTVSPropertyOp32
 70
     1
  0
XRECORD
  5
D4F
102
{ACAD_REACTORS
330
D4E
102
}
330
D4E
100
AcDbXrecord
280
     1
102
RTVSPropertyOp0
 70
     1
102
RTVSPropertyOp1
 70
     1
102
RTVSPropertyOp2
 70
     1
102
RTVSPropertyOp3
 70
     1
102
RTVSPropertyOp4
 70
     1
102
RTVSPropertyOp5
 70
     1
102
RTVSPropertyOp6
 70
     1
102
RTVSPropertyOp7
 70
     1
102
RTVSPropertyOp8
 70
     1
102
RTVSPropertyOp9
 70
     1
102
RTVSPropertyOp10
 70
     1
102
RTVSPropertyOp11
 70
     1
102
RTVSPropertyOp12
 70
     1
102
RTVSPropertyOp13
 70
     1
102
RTVSPropertyOp14
 70
     1
102
RTVSPropertyOp15
 70
     1
102
RTVSPropertyOp16
 70
     1
102
RTVSPropertyOp17
 70
     1
102
RTVSPropertyOp18
 70
     1
102
RTVSPropertyOp19
 70
     1
102
RTVSPropertyOp20
 70
     1
102
RTVSPropertyOp21
 70
     1
102
RTVSPropertyOp22
 70
     1
102
RTVSPropertyOp23
 70
     1
102
RTVSPropertyOp24
 70
     1
102
RTVSPropertyOp25
 70
     1
102
RTVSPropertyOp26
 70
     1
102
RTVSPropertyOp27
 70
     1
102
RTVSPropertyOp28
 70
     1
102
RTVSPropertyOp29
 70
     1
102
RTVSPropertyOp30
 70
     1
102
RTVSPropertyOp31
 70
     1
102
RTVSPropertyOp32
 70
     1
  0
XRECORD
  5
D69
102
{ACAD_REACTORS
330
D68
102
}
330
D68
100
AcDbXrecord
280
     1
102
RTVSPropertyOp0
 70
     0
102
RTVSPropertyOp1
 70
     0
102
RTVSPropertyOp2
 70
     0
102
RTVSPropertyOp3
 70
     0
102
RTVSPropertyOp4
 70
     0
102
RTVSPropertyOp5
 70
     0
102
RTVSPropertyOp6
 70
     0
102
RTVSPropertyOp7
 70
     0
102
RTVSPropertyOp8
 70
     0
102
RTVSPropertyOp9
 70
     0
102
RTVSPropertyOp10
 70
     0
102
RTVSPropertyOp11
 70
     0
102
RTVSPropertyOp12
 70
     0
102
RTVSPropertyOp13
 70
     0
102
RTVSPropertyOp14
 70
     2
102
RTVSPropertyOp15
 70
     0
102
RTVSPropertyOp16
 70
     0
102
RTVSPropertyOp17
 70
     0
102
RTVSPropertyOp18
 70
     0
102
RTVSPropertyOp19
 70
     0
102
RTVSPropertyOp20
 70
     0
102
RTVSPropertyOp21
 70
     0
102
RTVSPropertyOp22
 70
     0
102
RTVSPropertyOp23
 70
     0
102
RTVSPropertyOp24
 70
     0
102
RTVSPropertyOp25
 70
     0
102
RTVSPropertyOp26
 70
     0
102
RTVSPropertyOp27
 70
     0
102
RTVSPropertyOp28
 70
     0
102
RTVSPropertyOp29
 70
     0
102
RTVSPropertyOp30
 70
     0
102
RTVSPropertyOp31
 70
     0
102
RTVSPropertyOp32
 70
     0
  0
XRECORD
  5
D57
102
{ACAD_REACTORS
330
D56
102
}
330
D56
100
AcDbXrecord
280
     1
102
RTVSPropertyOp0
 70
     1
102
RTVSPropertyOp1
 70
     1
102
RTVSPropertyOp2
 70
     1
102
RTVSPropertyOp3
 70
     1
102
RTVSPropertyOp4
 70
     1
102
RTVSPropertyOp5
 70
     1
102
RTVSPropertyOp6
 70
     1
102
RTVSPropertyOp7
 70
     1
102
RTVSPropertyOp8
 70
     1
102
RTVSPropertyOp9
 70
     1
102
RTVSPropertyOp10
 70
     1
102
RTVSPropertyOp11
 70
     1
102
RTVSPropertyOp12
 70
     1
102
RTVSPropertyOp13
 70
     1
102
RTVSPropertyOp14
 70
     1
102
RTVSPropertyOp15
 70
     1
102
RTVSPropertyOp16
 70
     1
102
RTVSPropertyOp17
 70
     1
102
RTVSPropertyOp18
 70
     1
102
RTVSPropertyOp19
 70
     1
102
RTVSPropertyOp20
 70
     1
102
RTVSPropertyOp21
 70
     1
102
RTVSPropertyOp22
 70
     1
102
RTVSPropertyOp23
 70
     1
102
RTVSPropertyOp24
 70
     1
102
RTVSPropertyOp25
 70
     1
102
RTVSPropertyOp26
 70
     1
102
RTVSPropertyOp27
 70
     1
102
RTVSPropertyOp28
 70
     1
102
RTVSPropertyOp29
 70
     1
102
RTVSPropertyOp30
 70
     1
102
RTVSPropertyOp31
 70
     1
102
RTVSPropertyOp32
 70
     1
  0
XRECORD
  5
D3B
102
{ACAD_REACTORS
330
D3A
102
}
330
D3A
100
AcDbXrecord
280
     1
102
RTVSPropertyOp0
 70
     1
102
RTVSPropertyOp1
 70
     1
102
RTVSPropertyOp2
 70
     1
102
RTVSPropertyOp3
 70
     1
102
RTVSPropertyOp4
 70
     1
102
RTVSPropertyOp5
 70
     1
102
RTVSPropertyOp6
 70
     1
102
RTVSPropertyOp7
 70
     1
102
RTVSPropertyOp8
 70
     1
102
RTVSPropertyOp9
 70
     1
102
RTVSPropertyOp10
 70
     1
102
RTVSPropertyOp11
 70
     1
102
RTVSPropertyOp12
 70
     1
102
RTVSPropertyOp13
 70
     1
102
RTVSPropertyOp14
 70
     1
102
RTVSPropertyOp15
 70
     1
102
RTVSPropertyOp16
 70
     1
102
RTVSPropertyOp17
 70
     1
102
RTVSPropertyOp18
 70
     1
102
RTVSPropertyOp19
 70
     1
102
RTVSPropertyOp20
 70
     1
102
RTVSPropertyOp21
 70
     1
102
RTVSPropertyOp22
 70
     1
102
RTVSPropertyOp23
 70
     1
102
RTVSPropertyOp24
 70
     1
102
RTVSPropertyOp25
 70
     1
102
RTVSPropertyOp26
 70
     1
102
RTVSPropertyOp27
 70
     1
102
RTVSPropertyOp28
 70
     1
102
RTVSPropertyOp29
 70
     1
102
RTVSPropertyOp30
 70
     1
102
RTVSPropertyOp31
 70
     1
102
RTVSPropertyOp32
 70
     1
  0
XRECORD
  5
D3D
102
{ACAD_REACTORS
330
D3C
102
}
330
D3C
100
AcDbXrecord
280
     1
102
RTVSPropertyOp0
 70
     1
102
RTVSPropertyOp1
 70
     1
102
RTVSPropertyOp2
 70
     1
102
RTVSPropertyOp3
 70
     1
102
RTVSPropertyOp4
 70
     1
102
RTVSPropertyOp5
 70
     1
102
RTVSPropertyOp6
 70
     1
102
RTVSPropertyOp7
 70
     1
102
RTVSPropertyOp8
 70
     1
102
RTVSPropertyOp9
 70
     1
102
RTVSPropertyOp10
 70
     1
102
RTVSPropertyOp11
 70
     1
102
RTVSPropertyOp12
 70
     1
102
RTVSPropertyOp13
 70
     1
102
RTVSPropertyOp14
 70
     1
102
RTVSPropertyOp15
 70
     1
102
RTVSPropertyOp16
 70
     1
102
RTVSPropertyOp17
 70
     1
102
RTVSPropertyOp18
 70
     1
102
RTVSPropertyOp19
 70
     1
102
RTVSPropertyOp20
 70
     1
102
RTVSPropertyOp21
 70
     1
102
RTVSPropertyOp22
 70
     1
102
RTVSPropertyOp23
 70
     1
102
RTVSPropertyOp24
 70
     1
102
RTVSPropertyOp25
 70
     1
102
RTVSPropertyOp26
 70
     1
102
RTVSPropertyOp27
 70
     1
102
RTVSPropertyOp28
 70
     1
102
RTVSPropertyOp29
 70
     1
102
RTVSPropertyOp30
 70
     1
102
RTVSPropertyOp31
 70
     1
102
RTVSPropertyOp32
 70
     1
  0
XRECORD
  5
D3F
102
{ACAD_REACTORS
330
D3E
102
}
330
D3E
100
AcDbXrecord
280
     1
102
RTVSPropertyOp0
 70
     1
102
RTVSPropertyOp1
 70
     1
102
RTVSPropertyOp2
 70
     1
102
RTVSPropertyOp3
 70
     1
102
RTVSPropertyOp4
 70
     1
102
RTVSPropertyOp5
 70
     1
102
RTVSPropertyOp6
 70
     1
102
RTVSPropertyOp7
 70
     1
102
RTVSPropertyOp8
 70
     1
102
RTVSPropertyOp9
 70
     1
102
RTVSPropertyOp10
 70
     1
102
RTVSPropertyOp11
 70
     1
102
RTVSPropertyOp12
 70
     1
102
RTVSPropertyOp13
 70
     1
102
RTVSPropertyOp14
 70
     1
102
RTVSPropertyOp15
 70
     1
102
RTVSPropertyOp16
 70
     1
102
RTVSPropertyOp17
 70
     1
102
RTVSPropertyOp18
 70
     1
102
RTVSPropertyOp19
 70
     1
102
RTVSPropertyOp20
 70
     1
102
RTVSPropertyOp21
 70
     1
102
RTVSPropertyOp22
 70
     1
102
RTVSPropertyOp23
 70
     1
102
RTVSPropertyOp24
 70
     1
102
RTVSPropertyOp25
 70
     1
102
RTVSPropertyOp26
 70
     1
102
RTVSPropertyOp27
 70
     1
102
RTVSPropertyOp28
 70
     1
102
RTVSPropertyOp29
 70
     1
102
RTVSPropertyOp30
 70
     1
102
RTVSPropertyOp31
 70
     1
102
RTVSPropertyOp32
 70
     1
  0
XRECORD
  5
D41
102
{ACAD_REACTORS
330
D40
102
}
330
D40
100
AcDbXrecord
280
     1
102
RTVSPropertyOp0
 70
     1
102
RTVSPropertyOp1
 70
     1
102
RTVSPropertyOp2
 70
     1
102
RTVSPropertyOp3
 70
     1
102
RTVSPropertyOp4
 70
     1
102
RTVSPropertyOp5
 70
     1
102
RTVSPropertyOp6
 70
     1
102
RTVSPropertyOp7
 70
     1
102
RTVSPropertyOp8
 70
     1
102
RTVSPropertyOp9
 70
     1
102
RTVSPropertyOp10
 70
     1
102
RTVSPropertyOp11
 70
     1
102
RTVSPropertyOp12
 70
     1
102
RTVSPropertyOp13
 70
     1
102
RTVSPropertyOp14
 70
     1
102
RTVSPropertyOp15
 70
     1
102
RTVSPropertyOp16
 70
     1
102
RTVSPropertyOp17
 70
     1
102
RTVSPropertyOp18
 70
     1
102
RTVSPropertyOp19
 70
     1
102
RTVSPropertyOp20
 70
     1
102
RTVSPropertyOp21
 70
     1
102
RTVSPropertyOp22
 70
     1
102
RTVSPropertyOp23
 70
     1
102
RTVSPropertyOp24
 70
     1
102
RTVSPropertyOp25
 70
     1
102
RTVSPropertyOp26
 70
     1
102
RTVSPropertyOp27
 70
     1
102
RTVSPropertyOp28
 70
     1
102
RTVSPropertyOp29
 70
     1
102
RTVSPropertyOp30
 70
     1
102
RTVSPropertyOp31
 70
     1
102
RTVSPropertyOp32
 70
     1
  0
XRECORD
  5
D49
102
{ACAD_REACTORS
330
D48
102
}
330
D48
100
AcDbXrecord
280
     1
102
RTVSPropertyOp0
 70
     1
102
RTVSPropertyOp1
 70
     1
102
RTVSPropertyOp2
 70
     1
102
RTVSPropertyOp3
 70
     1
102
RTVSPropertyOp4
 70
     1
102
RTVSPropertyOp5
 70
     1
102
RTVSPropertyOp6
 70
     1
102
RTVSPropertyOp7
 70
     1
102
RTVSPropertyOp8
 70
     1
102
RTVSPropertyOp9
 70
     1
102
RTVSPropertyOp10
 70
     1
102
RTVSPropertyOp11
 70
     1
102
RTVSPropertyOp12
 70
     1
102
RTVSPropertyOp13
 70
     1
102
RTVSPropertyOp14
 70
     1
102
RTVSPropertyOp15
 70
     1
102
RTVSPropertyOp16
 70
     1
102
RTVSPropertyOp17
 70
     1
102
RTVSPropertyOp18
 70
     1
102
RTVSPropertyOp19
 70
     1
102
RTVSPropertyOp20
 70
     1
102
RTVSPropertyOp21
 70
     1
102
RTVSPropertyOp22
 70
     1
102
RTVSPropertyOp23
 70
     1
102
RTVSPropertyOp24
 70
     1
102
RTVSPropertyOp25
 70
     1
102
RTVSPropertyOp26
 70
     1
102
RTVSPropertyOp27
 70
     1
102
RTVSPropertyOp28
 70
     1
102
RTVSPropertyOp29
 70
     1
102
RTVSPropertyOp30
 70
     1
102
RTVSPropertyOp31
 70
     1
102
RTVSPropertyOp32
 70
     1
  0
XRECORD
  5
D65
102
{ACAD_REACTORS
330
D64
102
}
330
D64
100
AcDbXrecord
280
     1
102
RTVSPropertyOp0
 70
     0
102
RTVSPropertyOp1
 70
     0
102
RTVSPropertyOp2
 70
     0
102
RTVSPropertyOp3
 70
     0
102
RTVSPropertyOp4
 70
     0
102
RTVSPropertyOp5
 70
     0
102
RTVSPropertyOp6
 70
     0
102
RTVSPropertyOp7
 70
     0
102
RTVSPropertyOp8
 70
     0
102
RTVSPropertyOp9
 70
     0
102
RTVSPropertyOp10
 70
     0
102
RTVSPropertyOp11
 70
     0
102
RTVSPropertyOp12
 70
     0
102
RTVSPropertyOp13
 70
     0
102
RTVSPropertyOp14
 70
     2
102
RTVSPropertyOp15
 70
     0
102
RTVSPropertyOp16
 70
     0
102
RTVSPropertyOp17
 70
     0
102
RTVSPropertyOp18
 70
     0
102
RTVSPropertyOp19
 70
     0
102
RTVSPropertyOp20
 70
     0
102
RTVSPropertyOp21
 70
     0
102
RTVSPropertyOp22
 70
     0
102
RTVSPropertyOp23
 70
     0
102
RTVSPropertyOp24
 70
     0
102
RTVSPropertyOp25
 70
     0
102
RTVSPropertyOp26
 70
     0
102
RTVSPropertyOp27
 70
     0
102
RTVSPropertyOp28
 70
     0
102
RTVSPropertyOp29
 70
     0
102
RTVSPropertyOp30
 70
     0
102
RTVSPropertyOp31
 70
     0
102
RTVSPropertyOp32
 70
     0
  0
XRECORD
  5
D55
102
{ACAD_REACTORS
330
D54
102
}
330
D54
100
AcDbXrecord
280
     1
102
RTVSPropertyOp0
 70
     1
102
RTVSPropertyOp1
 70
     1
102
RTVSPropertyOp2
 70
     1
102
RTVSPropertyOp3
 70
     1
102
RTVSPropertyOp4
 70
     1
102
RTVSPropertyOp5
 70
     1
102
RTVSPropertyOp6
 70
     1
102
RTVSPropertyOp7
 70
     1
102
RTVSPropertyOp8
 70
     1
102
RTVSPropertyOp9
 70
     1
102
RTVSPropertyOp10
 70
     1
102
RTVSPropertyOp11
 70
     1
102
RTVSPropertyOp12
 70
     1
102
RTVSPropertyOp13
 70
     1
102
RTVSPropertyOp14
 70
     1
102
RTVSPropertyOp15
 70
     1
102
RTVSPropertyOp16
 70
     1
102
RTVSPropertyOp17
 70
     1
102
RTVSPropertyOp18
 70
     1
102
RTVSPropertyOp19
 70
     1
102
RTVSPropertyOp20
 70
     1
102
RTVSPropertyOp21
 70
     1
102
RTVSPropertyOp22
 70
     1
102
RTVSPropertyOp23
 70
     1
102
RTVSPropertyOp24
 70
     1
102
RTVSPropertyOp25
 70
     1
102
RTVSPropertyOp26
 70
     1
102
RTVSPropertyOp27
 70
     1
102
RTVSPropertyOp28
 70
     1
102
RTVSPropertyOp29
 70
     1
102
RTVSPropertyOp30
 70
     1
102
RTVSPropertyOp31
 70
     1
102
RTVSPropertyOp32
 70
     1
  0
XRECORD
  5
D67
102
{ACAD_REACTORS
330
D66
102
}
330
D66
100
AcDbXrecord
280
     1
102
RTVSPropertyOp0
 70
     0
102
RTVSPropertyOp1
 70
     0
102
RTVSPropertyOp2
 70
     0
102
RTVSPropertyOp3
 70
     0
102
RTVSPropertyOp4
 70
     0
102
RTVSPropertyOp5
 70
     0
102
RTVSPropertyOp6
 70
     0
102
RTVSPropertyOp7
 70
     0
102
RTVSPropertyOp8
 70
     0
102
RTVSPropertyOp9
 70
     0
102
RTVSPropertyOp10
 70
     0
102
RTVSPropertyOp11
 70
     0
102
RTVSPropertyOp12
 70
     0
102
RTVSPropertyOp13
 70
     0
102
RTVSPropertyOp14
 70
     2
102
RTVSPropertyOp15
 70
     0
102
RTVSPropertyOp16
 70
     0
102
RTVSPropertyOp17
 70
     0
102
RTVSPropertyOp18
 70
     0
102
RTVSPropertyOp19
 70
     0
102
RTVSPropertyOp20
 70
     0
102
RTVSPropertyOp21
 70
     0
102
RTVSPropertyOp22
 70
     0
102
RTVSPropertyOp23
 70
     0
102
RTVSPropertyOp24
 70
     0
102
RTVSPropertyOp25
 70
     0
102
RTVSPropertyOp26
 70
     0
102
RTVSPropertyOp27
 70
     0
102
RTVSPropertyOp28
 70
     0
102
RTVSPropertyOp29
 70
     0
102
RTVSPropertyOp30
 70
     0
102
RTVSPropertyOp31
 70
     0
102
RTVSPropertyOp32
 70
     0
  0
XRECORD
  5
D4D
102
{ACAD_REACTORS
330
D4C
102
}
330
D4C
100
AcDbXrecord
280
     1
102
RTVSPropertyOp0
 70
     1
102
RTVSPropertyOp1
 70
     1
102
RTVSPropertyOp2
 70
     1
102
RTVSPropertyOp3
 70
     1
102
RTVSPropertyOp4
 70
     1
102
RTVSPropertyOp5
 70
     1
102
RTVSPropertyOp6
 70
     1
102
RTVSPropertyOp7
 70
     1
102
RTVSPropertyOp8
 70
     1
102
RTVSPropertyOp9
 70
     1
102
RTVSPropertyOp10
 70
     1
102
RTVSPropertyOp11
 70
     1
102
RTVSPropertyOp12
 70
     1
102
RTVSPropertyOp13
 70
     1
102
RTVSPropertyOp14
 70
     1
102
RTVSPropertyOp15
 70
     1
102
RTVSPropertyOp16
 70
     1
102
RTVSPropertyOp17
 70
     1
102
RTVSPropertyOp18
 70
     1
102
RTVSPropertyOp19
 70
     1
102
RTVSPropertyOp20
 70
     1
102
RTVSPropertyOp21
 70
     1
102
RTVSPropertyOp22
 70
     1
102
RTVSPropertyOp23
 70
     1
102
RTVSPropertyOp24
 70
     1
102
RTVSPropertyOp25
 70
     1
102
RTVSPropertyOp26
 70
     1
102
RTVSPropertyOp27
 70
     1
102
RTVSPropertyOp28
 70
     1
102
RTVSPropertyOp29
 70
     1
102
RTVSPropertyOp30
 70
     1
102
RTVSPropertyOp31
 70
     1
102
RTVSPropertyOp32
 70
     1
  0
XRECORD
  5
D63
102
{ACAD_REACTORS
330
D62
102
}
330
D62
100
AcDbXrecord
280
     1
102
RTVSPropertyOp0
 70
     1
102
RTVSPropertyOp1
 70
     1
102
RTVSPropertyOp2
 70
     1
102
RTVSPropertyOp3
 70
     1
102
RTVSPropertyOp4
 70
     1
102
RTVSPropertyOp5
 70
     1
102
RTVSPropertyOp6
 70
     1
102
RTVSPropertyOp7
 70
     1
102
RTVSPropertyOp8
 70
     1
102
RTVSPropertyOp9
 70
     1
102
RTVSPropertyOp10
 70
     1
102
RTVSPropertyOp11
 70
     1
102
RTVSPropertyOp12
 70
     1
102
RTVSPropertyOp13
 70
     1
102
RTVSPropertyOp14
 70
     1
102
RTVSPropertyOp15
 70
     1
102
RTVSPropertyOp16
 70
     1
102
RTVSPropertyOp17
 70
     1
102
RTVSPropertyOp18
 70
     1
102
RTVSPropertyOp19
 70
     1
102
RTVSPropertyOp20
 70
     1
102
RTVSPropertyOp21
 70
     1
102
RTVSPropertyOp22
 70
     1
102
RTVSPropertyOp23
 70
     1
102
RTVSPropertyOp24
 70
     1
102
RTVSPropertyOp25
 70
     1
102
RTVSPropertyOp26
 70
     1
102
RTVSPropertyOp27
 70
     1
102
RTVSPropertyOp28
 70
     1
102
RTVSPropertyOp29
 70
     1
102
RTVSPropertyOp30
 70
     1
102
RTVSPropertyOp31
 70
     1
102
RTVSPropertyOp32
 70
     1
  0
XRECORD
  5
D61
102
{ACAD_REACTORS
330
D60
102
}
330
D60
100
AcDbXrecord
280
     1
102
RTVSPropertyOp0
 70
     1
102
RTVSPropertyOp1
 70
     1
102
RTVSPropertyOp2
 70
     1
102
RTVSPropertyOp3
 70
     1
102
RTVSPropertyOp4
 70
     1
102
RTVSPropertyOp5
 70
     1
102
RTVSPropertyOp6
 70
     1
102
RTVSPropertyOp7
 70
     1
102
RTVSPropertyOp8
 70
     1
102
RTVSPropertyOp9
 70
     1
102
RTVSPropertyOp10
 70
     1
102
RTVSPropertyOp11
 70
     1
102
RTVSPropertyOp12
 70
     1
102
RTVSPropertyOp13
 70
     1
102
RTVSPropertyOp14
 70
     1
102
RTVSPropertyOp15
 70
     1
102
RTVSPropertyOp16
 70
     1
102
RTVSPropertyOp17
 70
     1
102
RTVSPropertyOp18
 70
     1
102
RTVSPropertyOp19
 70
     1
102
RTVSPropertyOp20
 70
     1
102
RTVSPropertyOp21
 70
     1
102
RTVSPropertyOp22
 70
     1
102
RTVSPropertyOp23
 70
     1
102
RTVSPropertyOp24
 70
     1
102
RTVSPropertyOp25
 70
     1
102
RTVSPropertyOp26
 70
     1
102
RTVSPropertyOp27
 70
     1
102
RTVSPropertyOp28
 70
     1
102
RTVSPropertyOp29
 70
     1
102
RTVSPropertyOp30
 70
     1
102
RTVSPropertyOp31
 70
     1
102
RTVSPropertyOp32
 70
     1
  0
XRECORD
  5
D5B
102
{ACAD_REACTORS
330
D5A
102
}
330
D5A
100
AcDbXrecord
280
     1
102
RTVSPropertyOp0
 70
     1
102
RTVSPropertyOp1
 70
     1
102
RTVSPropertyOp2
 70
     1
102
RTVSPropertyOp3
 70
     1
102
RTVSPropertyOp4
 70
     1
102
RTVSPropertyOp5
 70
     1
102
RTVSPropertyOp6
 70
     1
102
RTVSPropertyOp7
 70
     1
102
RTVSPropertyOp8
 70
     1
102
RTVSPropertyOp9
 70
     1
102
RTVSPropertyOp10
 70
     1
102
RTVSPropertyOp11
 70
     1
102
RTVSPropertyOp12
 70
     1
102
RTVSPropertyOp13
 70
     1
102
RTVSPropertyOp14
 70
     1
102
RTVSPropertyOp15
 70
     1
102
RTVSPropertyOp16
 70
     1
102
RTVSPropertyOp17
 70
     1
102
RTVSPropertyOp18
 70
     1
102
RTVSPropertyOp19
 70
     1
102
RTVSPropertyOp20
 70
     1
102
RTVSPropertyOp21
 70
     1
102
RTVSPropertyOp22
 70
     1
102
RTVSPropertyOp23
 70
     1
102
RTVSPropertyOp24
 70
     1
102
RTVSPropertyOp25
 70
     1
102
RTVSPropertyOp26
 70
     1
102
RTVSPropertyOp27
 70
     1
102
RTVSPropertyOp28
 70
     1
102
RTVSPropertyOp29
 70
     1
102
RTVSPropertyOp30
 70
     1
102
RTVSPropertyOp31
 70
     1
102
RTVSPropertyOp32
 70
     1
  0
XRECORD
  5
D5D
102
{ACAD_REACTORS
330
D5C
102
}
330
D5C
100
AcDbXrecord
280
     1
102
RTVSPropertyOp0
 70
     1
102
RTVSPropertyOp1
 70
     1
102
RTVSPropertyOp2
 70
     1
102
RTVSPropertyOp3
 70
     1
102
RTVSPropertyOp4
 70
     1
102
RTVSPropertyOp5
 70
     1
102
RTVSPropertyOp6
 70
     1
102
RTVSPropertyOp7
 70
     1
102
RTVSPropertyOp8
 70
     1
102
RTVSPropertyOp9
 70
     1
102
RTVSPropertyOp10
 70
     1
102
RTVSPropertyOp11
 70
     1
102
RTVSPropertyOp12
 70
     1
102
RTVSPropertyOp13
 70
     1
102
RTVSPropertyOp14
 70
     1
102
RTVSPropertyOp15
 70
     1
102
RTVSPropertyOp16
 70
     1
102
RTVSPropertyOp17
 70
     1
102
RTVSPropertyOp18
 70
     1
102
RTVSPropertyOp19
 70
     1
102
RTVSPropertyOp20
 70
     1
102
RTVSPropertyOp21
 70
     1
102
RTVSPropertyOp22
 70
     1
102
RTVSPropertyOp23
 70
     1
102
RTVSPropertyOp24
 70
     1
102
RTVSPropertyOp25
 70
     1
102
RTVSPropertyOp26
 70
     1
102
RTVSPropertyOp27
 70
     1
102
RTVSPropertyOp28
 70
     1
102
RTVSPropertyOp29
 70
     1
102
RTVSPropertyOp30
 70
     1
102
RTVSPropertyOp31
 70
     1
102
RTVSPropertyOp32
 70
     1
  0
XRECORD
  5
D53
102
{ACAD_REACTORS
330
D52
102
}
330
D52
100
AcDbXrecord
280
     1
102
RTVSPropertyOp0
 70
     1
102
RTVSPropertyOp1
 70
     1
102
RTVSPropertyOp2
 70
     1
102
RTVSPropertyOp3
 70
     1
102
RTVSPropertyOp4
 70
     1
102
RTVSPropertyOp5
 70
     1
102
RTVSPropertyOp6
 70
     1
102
RTVSPropertyOp7
 70
     1
102
RTVSPropertyOp8
 70
     1
102
RTVSPropertyOp9
 70
     1
102
RTVSPropertyOp10
 70
     1
102
RTVSPropertyOp11
 70
     1
102
RTVSPropertyOp12
 70
     1
102
RTVSPropertyOp13
 70
     1
102
RTVSPropertyOp14
 70
     1
102
RTVSPropertyOp15
 70
     1
102
RTVSPropertyOp16
 70
     1
102
RTVSPropertyOp17
 70
     1
102
RTVSPropertyOp18
 70
     1
102
RTVSPropertyOp19
 70
     1
102
RTVSPropertyOp20
 70
     1
102
RTVSPropertyOp21
 70
     1
102
RTVSPropertyOp22
 70
     1
102
RTVSPropertyOp23
 70
     1
102
RTVSPropertyOp24
 70
     1
102
RTVSPropertyOp25
 70
     1
102
RTVSPropertyOp26
 70
     1
102
RTVSPropertyOp27
 70
     1
102
RTVSPropertyOp28
 70
     1
102
RTVSPropertyOp29
 70
     1
102
RTVSPropertyOp30
 70
     1
102
RTVSPropertyOp31
 70
     1
102
RTVSPropertyOp32
 70
     1
  0
XRECORD
  5
D47
102
{ACAD_REACTORS
330
D46
102
}
330
D46
100
AcDbXrecord
280
     1
102
RTVSPropertyOp0
 70
     1
102
RTVSPropertyOp1
 70
     1
102
RTVSPropertyOp2
 70
     1
102
RTVSPropertyOp3
 70
     1
102
RTVSPropertyOp4
 70
     1
102
RTVSPropertyOp5
 70
     1
102
RTVSPropertyOp6
 70
     1
102
RTVSPropertyOp7
 70
     1
102
RTVSPropertyOp8
 70
     1
102
RTVSPropertyOp9
 70
     1
102
RTVSPropertyOp10
 70
     1
102
RTVSPropertyOp11
 70
     1
102
RTVSPropertyOp12
 70
     1
102
RTVSPropertyOp13
 70
     1
102
RTVSPropertyOp14
 70
     1
102
RTVSPropertyOp15
 70
     1
102
RTVSPropertyOp16
 70
     1
102
RTVSPropertyOp17
 70
     1
102
RTVSPropertyOp18
 70
     1
102
RTVSPropertyOp19
 70
     1
102
RTVSPropertyOp20
 70
     1
102
RTVSPropertyOp21
 70
     1
102
RTVSPropertyOp22
 70
     1
102
RTVSPropertyOp23
 70
     1
102
RTVSPropertyOp24
 70
     1
102
RTVSPropertyOp25
 70
     1
102
RTVSPropertyOp26
 70
     1
102
RTVSPropertyOp27
 70
     1
102
RTVSPropertyOp28
 70
     1
102
RTVSPropertyOp29
 70
     1
102
RTVSPropertyOp30
 70
     1
102
RTVSPropertyOp31
 70
     1
102
RTVSPropertyOp32
 70
     1
  0
XRECORD
  5
D5F
102
{ACAD_REACTORS
330
D5E
102
}
330
D5E
100
AcDbXrecord
280
     1
102
RTVSPropertyOp0
 70
     1
102
RTVSPropertyOp1
 70
     1
102
RTVSPropertyOp2
 70
     1
102
RTVSPropertyOp3
 70
     1
102
RTVSPropertyOp4
 70
     1
102
RTVSPropertyOp5
 70
     1
102
RTVSPropertyOp6
 70
     1
102
RTVSPropertyOp7
 70
     1
102
RTVSPropertyOp8
 70
     1
102
RTVSPropertyOp9
 70
     1
102
RTVSPropertyOp10
 70
     1
102
RTVSPropertyOp11
 70
     1
102
RTVSPropertyOp12
 70
     1
102
RTVSPropertyOp13
 70
     1
102
RTVSPropertyOp14
 70
     1
102
RTVSPropertyOp15
 70
     1
102
RTVSPropertyOp16
 70
     1
102
RTVSPropertyOp17
 70
     1
102
RTVSPropertyOp18
 70
     1
102
RTVSPropertyOp19
 70
     1
102
RTVSPropertyOp20
 70
     1
102
RTVSPropertyOp21
 70
     1
102
RTVSPropertyOp22
 70
     1
102
RTVSPropertyOp23
 70
     1
102
RTVSPropertyOp24
 70
     1
102
RTVSPropertyOp25
 70
     1
102
RTVSPropertyOp26
 70
     1
102
RTVSPropertyOp27
 70
     1
102
RTVSPropertyOp28
 70
     1
102
RTVSPropertyOp29
 70
     1
102
RTVSPropertyOp30
 70
     1
102
RTVSPropertyOp31
 70
     1
102
RTVSPropertyOp32
 70
     1
  0
ENDSEC
  0
EOF
