  0
SECTION
  2
HEADER
  9
$ACADVER
  1
AC1015
  9
$ACADMAINTVER
 70
    20
  9
$DWGCODEPAGE
  3
ANSI_932
  9
$INSBASE
 10
0.0
 20
0.0
 30
0.0
  9
$EXTMIN
 10
1354.581467843921
 20
59.15865757867732
 30
-0.0015258207003583
  9
$EXTMAX
 10
1759.763718569272
 20
338.9701043173687
 30
0.0000000349246037
  9
$LIMMIN
 10
0.0
 20
0.0
  9
$LIMMAX
 10
12.0
 20
9.0
  9
$ORTHOMODE
 70
     1
  9
$REGENMODE
 70
     1
  9
$FILLMODE
 70
     1
  9
$QTEXTMODE
 70
     0
  9
$MIRRTEXT
 70
     0
  9
$LTSCALE
 40
0.2
  9
$ATTMODE
 70
     1
  9
$TEXTSIZE
 40
3.2
  9
$TRACEWID
 40
0.05
  9
$TEXTSTYLE
  7
高3.2
  9
$CLAYER
  8
0
  9
$CELTYPE
  6
ByLayer
  9
$CECOLOR
 62
   256
  9
$CELTSCALE
 40
1.0
  9
$DISPSILH
 70
     0
  9
$DIMSCALE
 40
1.0
  9
$DIMASZ
 40
2.5
  9
$DIMEXO
 40
0.25
  9
$DIMDLI
 40
0.2
  9
$DIMRND
 40
0.0
  9
$DIMDLE
 40
0.0
  9
$DIMEXE
 40
1.25
  9
$DIMTP
 40
0.0
  9
$DIMTM
 40
0.0
  9
$DIMTXT
 40
3.0
  9
$DIMCEN
 40
0.0
  9
$DIMTSZ
 40
0.0
  9
$DIMTOL
 70
     0
  9
$DIMLIM
 70
     0
  9
$DIMTIH
 70
     0
  9
$DIMTOH
 70
     0
  9
$DIMSE1
 70
     0
  9
$DIMSE2
 70
     0
  9
$DIMTAD
 70
     3
  9
$DIMZIN
 70
     8
  9
$DIMBLK
  1
Open30
  9
$DIMASO
 70
     1
  9
$DIMSHO
 70
     1
  9
$DIMPOST
  1

  9
$DIMAPOST
  1

  9
$DIMALT
 70
     0
  9
$DIMALTD
 70
     3
  9
$DIMALTF
 40
0.03937007874016
  9
$DIMLFAC
 40
1.0
  9
$DIMTOFL
 70
     1
  9
$DIMTVP
 40
0.0
  9
$DIMTIX
 70
     0
  9
$DIMSOXD
 70
     0
  9
$DIMSAH
 70
     0
  9
$DIMBLK1
  1

  9
$DIMBLK2
  1

  9
$DIMSTYLE
  2
1：1
  9
$DIMCLRD
 70
     0
  9
$DIMCLRE
 70
     0
  9
$DIMCLRT
 70
     4
  9
$DIMTFAC
 40
1.0
  9
$DIMGAP
 40
0.625
  9
$DIMJUST
 70
     0
  9
$DIMSD1
 70
     0
  9
$DIMSD2
 70
     0
  9
$DIMTOLJ
 70
     0
  9
$DIMTZIN
 70
     8
  9
$DIMALTZ
 70
     0
  9
$DIMALTTZ
 70
     0
  9
$DIMUPT
 70
     1
  9
$DIMDEC
 70
     2
  9
$DIMTDEC
 70
     2
  9
$DIMALTU
 70
     2
  9
$DIMALTTD
 70
     3
  9
$DIMTXSTY
  7
Standard
  9
$DIMAUNIT
 70
     0
  9
$DIMADEC
 70
     1
  9
$DIMALTRND
 40
0.0
  9
$DIMAZIN
 70
     2
  9
$DIMDSEP
 70
    46
  9
$DIMATFIT
 70
     0
  9
$DIMFRAC
 70
     0
  9
$DIMLDRBLK
  1
Open30
  9
$DIMLUNIT
 70
     2
  9
$DIMLWD
 70
    -2
  9
$DIMLWE
 70
    -2
  9
$DIMTMOVE
 70
     0
  9
$LUNITS
 70
     2
  9
$LUPREC
 70
     4
  9
$SKETCHINC
 40
0.1
  9
$FILLETRAD
 40
0.0
  9
$AUNITS
 70
     0
  9
$AUPREC
 70
     0
  9
$MENU
  1
.
  9
$ELEVATION
 40
0.0
  9
$PELEVATION
 40
0.0
  9
$THICKNESS
 40
0.0
  9
$LIMCHECK
 70
     0
  9
$CHAMFERA
 40
0.0
  9
$CHAMFERB
 40
0.0
  9
$CHAMFERC
 40
0.0
  9
$CHAMFERD
 40
0.0
  9
$SKPOLY
 70
     0
  9
$TDCREATE
 40
2457742.468873704
  9
$TDUCREATE
 40
2457742.093873704
  9
$TDUPDATE
 40
2458579.745093079
  9
$TDUUPDATE
 40
2458579.370093079
  9
$TDINDWG
 40
0.2048921528
  9
$TDUSRTIMER
 40
0.2048918981
  9
$USRTIMER
 70
     1
  9
$ANGBASE
 50
0.0
  9
$ANGDIR
 70
     0
  9
$PDMODE
 70
     0
  9
$PDSIZE
 40
0.0
  9
$PLINEWID
 40
0.0
  9
$SPLFRAME
 70
     0
  9
$SPLINETYPE
 70
     6
  9
$SPLINESEGS
 70
     8
  9
$HANDSEED
  5
199C
  9
$SURFTAB1
 70
     6
  9
$SURFTAB2
 70
     6
  9
$SURFTYPE
 70
     6
  9
$SURFU
 70
     6
  9
$SURFV
 70
     6
  9
$UCSBASE
  2

  9
$UCSNAME
  2

  9
$UCSORG
 10
0.0
 20
0.0
 30
0.0
  9
$UCSXDIR
 10
1.0
 20
0.0
 30
0.0
  9
$UCSYDIR
 10
0.0
 20
1.0
 30
0.0
  9
$UCSORTHOREF
  2

  9
$UCSORTHOVIEW
 70
     0
  9
$UCSORGTOP
 10
0.0
 20
0.0
 30
0.0
  9
$UCSORGBOTTOM
 10
0.0
 20
0.0
 30
0.0
  9
$UCSORGLEFT
 10
0.0
 20
0.0
 30
0.0
  9
$UCSORGRIGHT
 10
0.0
 20
0.0
 30
0.0
  9
$UCSORGFRONT
 10
0.0
 20
0.0
 30
0.0
  9
$UCSORGBACK
 10
0.0
 20
0.0
 30
0.0
  9
$PUCSBASE
  2

  9
$PUCSNAME
  2

  9
$PUCSORG
 10
0.0
 20
0.0
 30
0.0
  9
$PUCSXDIR
 10
1.0
 20
0.0
 30
0.0
  9
$PUCSYDIR
 10
0.0
 20
1.0
 30
0.0
  9
$PUCSORTHOREF
  2

  9
$PUCSORTHOVIEW
 70
     0
  9
$PUCSORGTOP
 10
0.0
 20
0.0
 30
0.0
  9
$PUCSORGBOTTOM
 10
0.0
 20
0.0
 30
0.0
  9
$PUCSORGLEFT
 10
0.0
 20
0.0
 30
0.0
  9
$PUCSORGRIGHT
 10
0.0
 20
0.0
 30
0.0
  9
$PUCSORGFRONT
 10
0.0
 20
0.0
 30
0.0
  9
$PUCSORGBACK
 10
0.0
 20
0.0
 30
0.0
  9
$USERI1
 70
     0
  9
$USERI2
 70
     0
  9
$USERI3
 70
     0
  9
$USERI4
 70
     0
  9
$USERI5
 70
     0
  9
$USERR1
 40
0.0
  9
$USERR2
 40
0.0
  9
$USERR3
 40
0.0
  9
$USERR4
 40
0.0
  9
$USERR5
 40
0.0
  9
$WORLDVIEW
 70
     1
  9
$SHADEDGE
 70
     3
  9
$SHADEDIF
 70
    70
  9
$TILEMODE
 70
     1
  9
$MAXACTVP
 70
    64
  9
$PINSBASE
 10
0.0
 20
0.0
 30
0.0
  9
$PLIMCHECK
 70
     0
  9
$PEXTMIN
 10
0.0
 20
0.0
 30
0.0
  9
$PEXTMAX
 10
0.0
 20
0.0
 30
0.0
  9
$PLIMMIN
 10
0.0
 20
0.0
  9
$PLIMMAX
 10
12.0
 20
9.0
  9
$UNITMODE
 70
     0
  9
$VISRETAIN
 70
     1
  9
$PLINEGEN
 70
     0
  9
$PSLTSCALE
 70
     1
  9
$TREEDEPTH
 70
  3020
  9
$CMLSTYLE
  2
Standard
  9
$CMLJUST
 70
     0
  9
$CMLSCALE
 40
1.0
  9
$PROXYGRAPHICS
 70
     1
  9
$MEASUREMENT
 70
     1
  9
$CELWEIGHT
370
    -1
  9
$ENDCAPS
280
     0
  9
$JOINSTYLE
280
     0
  9
$LWDISPLAY
290
     0
  9
$INSUNITS
 70
     1
  9
$HYPERLINKBASE
  1

  9
$STYLESHEET
  1
n-plot.ctb
  9
$XEDIT
290
     1
  9
$CEPSNTYPE
380
     0
  9
$PSTYLEMODE
290
     1
  9
$FINGERPRINTGUID
  2
{1C015757-299C-470B-8576-A3ADC85F7B25}
  9
$VERSIONGUID
  2
{A9FCD1F1-53C4-4629-8CD6-F3760C769A22}
  9
$EXTNAMES
290
     1
  9
$PSVPSCALE
 40
0.0
  9
$OLESTARTUP
290
     0
  0
ENDSEC
  0
SECTION
  2
CLASSES
  0
CLASS
  1
ACDBDICTIONARYWDFLT
  2
AcDbDictionaryWithDefault
  3
ObjectDBX Classes
 90
        0
280
     0
281
     0
  0
CLASS
  1
ACDBPLACEHOLDER
  2
AcDbPlaceHolder
  3
ObjectDBX Classes
 90
        0
280
     0
281
     0
  0
CLASS
  1
LAYOUT
  2
AcDbLayout
  3
ObjectDBX Classes
 90
        0
280
     0
281
     0
  0
CLASS
  1
DICTIONARYVAR
  2
AcDbDictionaryVar
  3
ObjectDBX Classes
 90
        0
280
     0
281
     0
  0
CLASS
  1
TABLESTYLE
  2
AcDbTableStyle
  3
ObjectDBX Classes
 90
     4095
280
     0
281
     0
  0
CLASS
  1
MATERIAL
  2
AcDbMaterial
  3
ObjectDBX Classes
 90
     1153
280
     0
281
     0
  0
CLASS
  1
VISUALSTYLE
  2
AcDbVisualStyle
  3
ObjectDBX Classes
 90
     4095
280
     0
281
     0
  0
CLASS
  1
SORTENTSTABLE
  2
AcDbSortentsTable
  3
ObjectDBX Classes
 90
        0
280
     0
281
     0
  0
CLASS
  1
DIMASSOC
  2
AcDbDimAssoc
  3
"AcDbDimAssoc|Product Desc:     AcDim ARX App For Dimension|Company:          Autodesk, Inc.|WEB Address:      www.autodesk.com"
 90
        0
280
     0
281
     0
  0
CLASS
  1
SCALE
  2
AcDbScale
  3
ObjectDBX Classes
 90
     1153
280
     0
281
     0
  0
CLASS
  1
MLEADERSTYLE
  2
AcDbMLeaderStyle
  3
ACDB_MLEADERSTYLE_CLASS
 90
     4095
280
     0
281
     0
  0
CLASS
  1
CELLSTYLEMAP
  2
AcDbCellStyleMap
  3
ObjectDBX Classes
 90
     1152
280
     0
281
     0
  0
CLASS
  1
AEC_REFEDIT_STATUS_TRACKER
  2
AecDbRefEditStatusTracker
  3
AecArchBase60|Product Desc: Autodesk Architectural Desktop 2007 |Company: Autodesk,Inc. |WEB Address: www.autodesk.com
 90
      129
280
     0
281
     0
  0
CLASS
  1
NPOCOLLECTION
  2
AcDbImpNonPersistentObjectsCollection
  3
ObjectDBX Classes
 90
     1153
280
     0
281
     0
  0
ENDSEC
  0
SECTION
  2
TABLES
  0
TABLE
  2
VPORT
  5
8
330
0
100
AcDbSymbolTable
 70
     1
  0
VPORT
  5
94
330
8
100
AcDbSymbolTableRecord
100
AcDbViewportTableRecord
  2
*Active
 70
     0
 10
0.0
 20
0.0
 11
1.0
 21
1.0
 12
1614.624785863824
 22
214.900979096271
 13
0.0
 23
0.0
 14
0.5
 24
0.5
 15
0.5
 25
0.5
 16
0.0
 26
0.0
 36
1.0
 17
0.0
 27
0.0
 37
0.0
 40
636.4194205229233
 41
1.551630434782608
 42
50.0
 43
0.0
 44
0.0
 50
0.0
 51
0.0
 71
     0
 72
  1000
 73
     1
 74
     2
 75
     0
 76
     0
 77
     0
 78
     0
281
     0
 65
     1
110
0.0
120
0.0
130
0.0
111
1.0
121
0.0
131
0.0
112
0.0
122
1.0
132
0.0
 79
     0
146
0.0
  0
ENDTAB
  0
TABLE
  2
LTYPE
  5
5
330
0
100
AcDbSymbolTable
 70
     6
  0
LTYPE
  5
14
330
5
100
AcDbSymbolTableRecord
100
AcDbLinetypeTableRecord
  2
ByBlock
 70
     0
  3

 72
    65
 73
     0
 40
0.0
  0
LTYPE
  5
15
330
5
100
AcDbSymbolTableRecord
100
AcDbLinetypeTableRecord
  2
ByLayer
 70
     0
  3

 72
    65
 73
     0
 40
0.0
  0
LTYPE
  5
16
330
5
100
AcDbSymbolTableRecord
100
AcDbLinetypeTableRecord
  2
Continuous
 70
     0
  3
Solid line
 72
    65
 73
     0
 40
0.0
  0
LTYPE
  5
119D
330
5
100
AcDbSymbolTableRecord
100
AcDbLinetypeTableRecord
  2
CENTER
 70
     0
  3
Center ____ _ ____ _ ____ _ ____ _ ____ _ ____
 72
    65
 73
     4
 40
50.8
 49
31.75
 74
     0
 49
-6.349999999999997
 74
     0
 49
6.349999999999997
 74
     0
 49
-6.349999999999997
 74
     0
  0
LTYPE
  5
119E
330
5
100
AcDbSymbolTableRecord
100
AcDbLinetypeTableRecord
  2
HIDDEN
 70
     0
  3
Hidden __ __ __ __ __ __ __ __ __ __ __ __ __ _
 72
    65
 73
     2
 40
9.524999999999996
 49
6.349999999999997
 74
     0
 49
-3.174999999999998
 74
     0
  0
LTYPE
  5
119F
330
5
100
AcDbSymbolTableRecord
100
AcDbLinetypeTableRecord
  2
PHANTOM
 70
     0
  3
Phantom ______  __  __  ______  __  __  ______
 72
    65
 73
     6
 40
63.5
 49
31.75
 74
     0
 49
-6.349999999999997
 74
     0
 49
6.349999999999997
 74
     0
 49
-6.349999999999997
 74
     0
 49
6.349999999999997
 74
     0
 49
-6.349999999999997
 74
     0
  0
ENDTAB
  0
TABLE
  2
LAYER
  5
2
102
{ACAD_XDICTIONARY
360
DD
102
}
330
0
100
AcDbSymbolTable
 70
     2
  0
LAYER
  5
10
102
{ACAD_XDICTIONARY
360
8E9
102
}
330
2
100
AcDbSymbolTableRecord
100
AcDbLayerTableRecord
  2
0
 70
     0
 62
     7
  6
Continuous
370
    -3
390
F
  0
LAYER
  5
D8
330
2
100
AcDbSymbolTableRecord
100
AcDbLayerTableRecord
  2
Defpoints
 70
     0
 62
     7
  6
Continuous
290
     0
370
    -3
390
F
  0
ENDTAB
  0
TABLE
  2
STYLE
  5
3
330
0
100
AcDbSymbolTable
 70
     8
  0
STYLE
  5
11
330
3
100
AcDbSymbolTableRecord
100
AcDbTextStyleTableRecord
  2
Standard
 70
     0
 40
0.0
 41
1.0
 50
0.0
 71
     0
 42
0.2
  3
txt.shx
  4
bigfont.shx
  0
STYLE
  5
11D
330
3
100
AcDbSymbolTableRecord
100
AcDbTextStyleTableRecord
  2
高3.2
 70
     0
 40
3.2
 41
1.0
 50
0.0
 71
     0
 42
3.2
  3
txt.shx
  4
bigfont.shx
  0
STYLE
  5
11E
330
3
100
AcDbSymbolTableRecord
100
AcDbTextStyleTableRecord
  2
高6.3
 70
     0
 40
6.299999999999998
 41
1.0
 50
0.0
 71
     0
 42
6.299999999999998
  3
txt.shx
  4
bigfont.shx
  0
STYLE
  5
11F
330
3
100
AcDbSymbolTableRecord
100
AcDbTextStyleTableRecord
  2
高2.5
 70
     0
 40
2.5
 41
1.0
 50
0.0
 71
     0
 42
0.2
  3
txt.shx
  4
bigfont.shx
  0
STYLE
  5
146
330
3
100
AcDbSymbolTableRecord
100
AcDbTextStyleTableRecord
  2
高4.5
 70
     0
 40
4.5
 41
1.0
 50
0.0
 71
     0
 42
6.299999999999998
  3
txt.shx
  4
bigfont.shx
  0
STYLE
  5
171
330
3
100
AcDbSymbolTableRecord
100
AcDbTextStyleTableRecord
  2
高2
 70
     0
 40
2.0
 41
1.0
 50
0.0
 71
     0
 42
6.299999999999998
  3
txt.shx
  4
bigfont.shx
  0
STYLE
  5
119C
330
3
100
AcDbSymbolTableRecord
100
AcDbTextStyleTableRecord
  2

 70
     1
 40
0.0
 41
1.0
 50
0.0
 71
     0
 42
6.299999999999998
  3
ltypeshp.shx
  4

  0
ENDTAB
  0
TABLE
  2
VIEW
  5
6
330
0
100
AcDbSymbolTable
 70
     0
  0
ENDTAB
  0
TABLE
  2
UCS
  5
7
330
0
100
AcDbSymbolTable
 70
     0
  0
ENDTAB
  0
TABLE
  2
APPID
  5
9
330
0
100
AcDbSymbolTable
 70
    13
  0
APPID
  5
12
330
9
100
AcDbSymbolTableRecord
100
AcDbRegAppTableRecord
  2
ACAD
 70
     0
  0
APPID
  5
DC
330
9
100
AcDbSymbolTableRecord
100
AcDbRegAppTableRecord
  2
ACAD_DSTYLE_DIMJOGGED_JOGANGLE_SYMBOL
 70
     0
  0
APPID
  5
3A5
330
9
100
AcDbSymbolTableRecord
100
AcDbRegAppTableRecord
  2
ACAD_EXEMPT_FROM_CAD_STANDARDS
 70
     0
  0
APPID
  5
70D
330
9
100
AcDbSymbolTableRecord
100
AcDbRegAppTableRecord
  2
ACAD_DSTYLE_DIMJAG
 70
     0
  0
APPID
  5
70E
330
9
100
AcDbSymbolTableRecord
100
AcDbRegAppTableRecord
  2
ACAD_DSTYLE_DIMBREAK
 70
     0
  0
APPID
  5
70F
330
9
100
AcDbSymbolTableRecord
100
AcDbRegAppTableRecord
  2
ACAD_DSTYLE_DIMTALN
 70
     0
  0
APPID
  5
147E
330
9
100
AcDbSymbolTableRecord
100
AcDbRegAppTableRecord
  2
GradientColor1ACI
 70
     0
  0
APPID
  5
147F
330
9
100
AcDbSymbolTableRecord
100
AcDbRegAppTableRecord
  2
GradientColor2ACI
 70
     0
  0
APPID
  5
1486
330
9
100
AcDbSymbolTableRecord
100
AcDbRegAppTableRecord
  2
ACAD_PSEXT
 70
     0
  0
APPID
  5
15F0
330
9
100
AcDbSymbolTableRecord
100
AcDbRegAppTableRecord
  2
ACAD_DSTYLE_DIMARC_LENGTH_SYMBOL
 70
     0
  0
APPID
  5
15F1
330
9
100
AcDbSymbolTableRecord
100
AcDbRegAppTableRecord
  2
ACAD_DSTYLE_DIMEXT_LENGTH
 70
     0
  0
APPID
  5
1606
330
9
100
AcDbSymbolTableRecord
100
AcDbRegAppTableRecord
  2
ACAD_MLEADERVER
 70
     0
  0
APPID
  5
167C
330
9
100
AcDbSymbolTableRecord
100
AcDbRegAppTableRecord
  2
ACAD_DSTYLE_DIMRADIAL_EXTENSION
 70
     0
  0
ENDTAB
  0
TABLE
  2
DIMSTYLE
  5
A
330
0
100
AcDbSymbolTable
 70
    12
100
AcDbDimStyleTable
 71
     1
340
D9
  0
DIMSTYLE
105
D9
330
A
100
AcDbSymbolTableRecord
100
AcDbDimStyleTableRecord
  2
1：1
 70
     0
 41
2.5
 42
0.25
 43
0.2
 44
1.25
 73
     0
 74
     0
 77
     3
 78
     8
 79
     2
140
3.0
141
0.0
143
0.03937007874016
147
0.625
171
     3
172
     1
178
     4
179
     1
271
     2
272
     2
274
     3
283
     0
284
     8
288
     1
289
     0
340
11
341
C6
342
C6
1001
ACAD_DSTYLE_DIMARC_LENGTH_SYMBOL
1070
   379
1070
     2
1001
ACAD_DSTYLE_DIMEXT_LENGTH
1070
   378
1040
1.25
1001
ACAD_DSTYLE_DIMJOGGED_JOGANGLE_SYMBOL
1070
   384
1040
1.570796326794896
  0
DIMSTYLE
105
C3C
330
A
100
AcDbSymbolTableRecord
100
AcDbDimStyleTableRecord
  2
2：1
 70
     0
 41
2.5
 42
0.25
 43
0.2
 44
1.25
 73
     0
 74
     0
 77
     3
 78
     8
 79
     2
140
3.0
141
0.0
143
0.03937007874016
144
0.5
147
0.625
171
     3
172
     1
178
     4
179
     1
271
     2
272
     2
274
     3
283
     0
284
     8
288
     1
289
     0
340
11
341
C6
342
C6
1001
ACAD_DSTYLE_DIMARC_LENGTH_SYMBOL
1070
   379
1070
     2
1001
ACAD_DSTYLE_DIMEXT_LENGTH
1070
   378
1040
1.25
1001
ACAD_DSTYLE_DIMJOGGED_JOGANGLE_SYMBOL
1070
   384
1040
1.570796326794896
  0
DIMSTYLE
105
C3D
330
A
100
AcDbSymbolTableRecord
100
AcDbDimStyleTableRecord
  2
5：1
 70
     0
 41
2.5
 42
0.25
 43
0.2
 44
1.25
 73
     0
 74
     0
 77
     3
 78
     8
 79
     2
140
3.0
141
0.0
143
0.03937007874016
144
0.2
147
0.625
171
     3
172
     1
178
     4
179
     1
271
     2
272
     2
274
     3
283
     0
284
     8
288
     1
289
     0
340
11
341
C6
342
C6
1001
ACAD_DSTYLE_DIMARC_LENGTH_SYMBOL
1070
   379
1070
     2
1001
ACAD_DSTYLE_DIMEXT_LENGTH
1070
   378
1040
1.25
1001
ACAD_DSTYLE_DIMJOGGED_JOGANGLE_SYMBOL
1070
   384
1040
1.570796326794896
  0
DIMSTYLE
105
C3E
330
A
100
AcDbSymbolTableRecord
100
AcDbDimStyleTableRecord
  2
10：1
 70
     0
 41
2.5
 42
0.25
 43
0.2
 44
1.25
 73
     0
 74
     0
 77
     3
 78
     8
 79
     2
140
3.0
141
0.0
143
0.03937007874016
144
0.1
147
0.625
171
     3
172
     1
178
     4
179
     1
271
     2
272
     2
274
     3
283
     0
284
     8
288
     1
289
     0
340
11
341
C6
342
C6
1001
ACAD_DSTYLE_DIMARC_LENGTH_SYMBOL
1070
   379
1070
     2
1001
ACAD_DSTYLE_DIMEXT_LENGTH
1070
   378
1040
1.25
1001
ACAD_DSTYLE_DIMJOGGED_JOGANGLE_SYMBOL
1070
   384
1040
1.570796326794896
  0
DIMSTYLE
105
C3F
330
A
100
AcDbSymbolTableRecord
100
AcDbDimStyleTableRecord
  2
1／2
 70
     0
 41
2.5
 42
0.25
 43
0.2
 44
1.25
 73
     0
 74
     0
 77
     3
 78
     8
 79
     2
140
3.0
141
0.0
143
0.03937007874016
144
2.0
147
0.625
171
     3
172
     1
178
     4
179
     1
271
     2
272
     2
274
     3
283
     0
284
     8
288
     1
289
     0
340
11
341
C6
342
C6
1001
ACAD_DSTYLE_DIMARC_LENGTH_SYMBOL
1070
   379
1070
     2
1001
ACAD_DSTYLE_DIMEXT_LENGTH
1070
   378
1040
1.25
1001
ACAD_DSTYLE_DIMJOGGED_JOGANGLE_SYMBOL
1070
   384
1040
1.570796326794896
  0
DIMSTYLE
105
C40
330
A
100
AcDbSymbolTableRecord
100
AcDbDimStyleTableRecord
  2
1／5
 70
     0
 41
2.5
 42
0.25
 43
0.2
 44
1.25
 73
     0
 74
     0
 77
     3
 78
     8
 79
     2
140
3.0
141
0.0
143
0.03937007874016
144
5.0
147
0.625
171
     3
172
     1
178
     4
179
     1
271
     2
272
     2
274
     3
283
     0
284
     8
288
     1
289
     0
340
11
341
C6
342
C6
1001
ACAD_DSTYLE_DIMARC_LENGTH_SYMBOL
1070
   379
1070
     2
1001
ACAD_DSTYLE_DIMEXT_LENGTH
1070
   378
1040
1.25
1001
ACAD_DSTYLE_DIMJOGGED_JOGANGLE_SYMBOL
1070
   384
1040
1.570796326794896
  0
DIMSTYLE
105
C41
330
A
100
AcDbSymbolTableRecord
100
AcDbDimStyleTableRecord
  2
1／10
 70
     0
 41
2.5
 42
0.25
 43
0.2
 44
1.25
 73
     0
 74
     0
 77
     3
 78
     8
 79
     2
140
3.0
141
0.0
143
0.03937007874016
144
10.0
147
0.625
171
     3
172
     1
178
     4
179
     1
271
     2
272
     2
274
     3
283
     0
284
     8
288
     1
289
     0
340
11
341
C6
342
C6
1001
ACAD_DSTYLE_DIMARC_LENGTH_SYMBOL
1070
   379
1070
     2
1001
ACAD_DSTYLE_DIMEXT_LENGTH
1070
   378
1040
1.25
1001
ACAD_DSTYLE_DIMJOGGED_JOGANGLE_SYMBOL
1070
   384
1040
1.570796326794896
  0
DIMSTYLE
105
C42
330
A
100
AcDbSymbolTableRecord
100
AcDbDimStyleTableRecord
  2
1／4
 70
     0
 41
2.5
 42
0.25
 43
0.2
 44
1.25
 73
     0
 74
     0
 77
     3
 78
     8
 79
     2
140
3.0
141
0.0
143
0.03937007874016
144
4.0
147
0.625
171
     3
172
     1
178
     4
179
     1
271
     2
272
     2
274
     3
283
     0
284
     8
288
     1
289
     0
340
11
341
C6
342
C6
1001
ACAD_DSTYLE_DIMARC_LENGTH_SYMBOL
1070
   379
1070
     2
1001
ACAD_DSTYLE_DIMEXT_LENGTH
1070
   378
1040
1.25
1001
ACAD_DSTYLE_DIMJOGGED_JOGANGLE_SYMBOL
1070
   384
1040
1.570796326794896
  0
DIMSTYLE
105
C43
330
A
100
AcDbSymbolTableRecord
100
AcDbDimStyleTableRecord
  2
1／3
 70
     0
 41
2.5
 42
0.25
 43
0.2
 44
1.25
 73
     0
 74
     0
 77
     3
 78
     8
 79
     2
140
3.0
141
0.0
143
0.03937007874016
144
3.0
147
0.625
171
     3
172
     1
178
     4
179
     1
271
     2
272
     2
274
     3
283
     0
284
     8
288
     1
289
     0
340
11
341
C6
342
C6
1001
ACAD_DSTYLE_DIMARC_LENGTH_SYMBOL
1070
   379
1070
     2
1001
ACAD_DSTYLE_DIMEXT_LENGTH
1070
   378
1040
1.25
1001
ACAD_DSTYLE_DIMJOGGED_JOGANGLE_SYMBOL
1070
   384
1040
1.570796326794896
  0
DIMSTYLE
105
C44
330
A
100
AcDbSymbolTableRecord
100
AcDbDimStyleTableRecord
  2
FREE
 70
     0
 41
2.5
 42
0.25
 43
0.2
 44
1.25
 73
     0
 74
     0
 77
     3
 78
     8
 79
     2
140
3.0
141
0.0
143
0.03937007874016
147
0.625
171
     3
172
     1
178
     4
179
     1
271
     2
272
     2
274
     3
283
     0
284
     8
288
     1
289
     0
340
11
341
C6
342
C6
1001
ACAD_DSTYLE_DIMBREAK
1070
   391
1040
3.75
1001
ACAD_DSTYLE_DIMJAG
1070
   388
1040
1.5
1001
ACAD_DSTYLE_DIMTALN
1070
   392
1070
     0
1001
ACAD_DSTYLE_DIMARC_LENGTH_SYMBOL
1070
   379
1070
     2
1001
ACAD_DSTYLE_DIMEXT_LENGTH
1070
   378
1040
1.25
1001
ACAD_DSTYLE_DIMJOGGED_JOGANGLE_SYMBOL
1070
   384
1040
1.570796326794896
  0
ENDTAB
  0
TABLE
  2
BLOCK_RECORD
  5
1
330
0
100
AcDbSymbolTable
 70
    14
  0
BLOCK_RECORD
  5
1F
102
{ACAD_XDICTIONARY
360
324
102
}
330
1
100
AcDbSymbolTableRecord
100
AcDbBlockTableRecord
  2
*Model_Space
340
22
  0
BLOCK_RECORD
  5
58
330
1
100
AcDbSymbolTableRecord
100
AcDbBlockTableRecord
  2
*Paper_Space
340
59
  0
BLOCK_RECORD
  5
5D
330
1
100
AcDbSymbolTableRecord
100
AcDbBlockTableRecord
  2
*Paper_Space0
340
5E
  0
BLOCK_RECORD
  5
C6
330
1
100
AcDbSymbolTableRecord
100
AcDbBlockTableRecord
  2
_Open30
340
0
102
{BLKREFS
331
1338
331
1339
331
1676
331
1677
331
181A
331
181B
331
1823
331
1824
331
182C
331
182D
331
1835
331
1836
331
183E
331
183F
102
}
  0
BLOCK_RECORD
  5
D57
102
{ACAD_XDICTIONARY
360
E25
102
}
330
1
100
AcDbSymbolTableRecord
100
AcDbBlockTableRecord
  2
A$C7A1143B0
340
0
1001
ACAD
1000
DesignCenter Data
1002
{
1070
     1
1070
     1
1002
}
  0
BLOCK_RECORD
  5
10C4
102
{ACAD_XDICTIONARY
360
1191
102
}
330
1
100
AcDbSymbolTableRecord
100
AcDbBlockTableRecord
  2
A$C478E5F75
340
0
1001
ACAD
1000
DesignCenter Data
1002
{
1070
     1
1070
     1
1002
}
  0
BLOCK_RECORD
  5
1310
330
1
100
AcDbSymbolTableRecord
100
AcDbBlockTableRecord
  2
*D4
340
0
  0
BLOCK_RECORD
  5
1328
330
1
100
AcDbSymbolTableRecord
100
AcDbBlockTableRecord
  2
*D5
340
0
  0
BLOCK_RECORD
  5
1340
330
1
100
AcDbSymbolTableRecord
100
AcDbBlockTableRecord
  2
*D6
340
0
  0
BLOCK_RECORD
  5
1358
330
1
100
AcDbSymbolTableRecord
100
AcDbBlockTableRecord
  2
*D7
340
0
  0
BLOCK_RECORD
  5
1370
330
1
100
AcDbSymbolTableRecord
100
AcDbBlockTableRecord
  2
*D8
340
0
  0
BLOCK_RECORD
  5
1388
330
1
100
AcDbSymbolTableRecord
100
AcDbBlockTableRecord
  2
*D9
340
0
  0
BLOCK_RECORD
  5
1585
330
1
100
AcDbSymbolTableRecord
100
AcDbBlockTableRecord
  2
_DotSmall
340
0
  0
BLOCK_RECORD
  5
167E
330
1
100
AcDbSymbolTableRecord
100
AcDbBlockTableRecord
  2
*D11
340
0
  0
ENDTAB
  0
ENDSEC
  0
SECTION
  2
BLOCKS
  0
BLOCK
  5
20
330
1F
100
AcDbEntity
  8
0
100
AcDbBlockBegin
  2
*Model_Space
 70
     0
 10
0.0
 20
0.0
 30
0.0
  3
*Model_Space
  1

  0
ENDBLK
  5
21
330
1F
100
AcDbEntity
  8
0
100
AcDbBlockEnd
  0
BLOCK
  5
5A
330
58
100
AcDbEntity
 67
     1
  8
0
100
AcDbBlockBegin
  2
*Paper_Space
 70
     0
 10
0.0
 20
0.0
 30
0.0
  3
*Paper_Space
  1

  0
ENDBLK
  5
5B
330
58
100
AcDbEntity
 67
     1
  8
0
100
AcDbBlockEnd
  0
BLOCK
  5
5F
330
5D
100
AcDbEntity
 67
     1
  8
0
100
AcDbBlockBegin
  2
*Paper_Space0
 70
     0
 10
0.0
 20
0.0
 30
0.0
  3
*Paper_Space0
  1

  0
ENDBLK
  5
60
330
5D
100
AcDbEntity
 67
     1
  8
0
100
AcDbBlockEnd
  0
BLOCK
  5
C7
330
C6
100
AcDbEntity
  8
0
100
AcDbBlockBegin
  2
_Open30
 70
     0
 10
0.0
 20
0.0
 30
0.0
  3
_Open30
  1

  0
LINE
  5
C8
330
C6
100
AcDbEntity
  8
0
  6
ByBlock
 62
     0
370
    -2
100
AcDbLine
 10
-1.0
 20
0.267949
 30
0.0
 11
0.0
 21
0.0
 31
0.0
  0
LINE
  5
C9
330
C6
100
AcDbEntity
  8
0
  6
ByBlock
 62
     0
370
    -2
100
AcDbLine
 10
0.0
 20
0.0
 30
0.0
 11
-1.0
 21
-0.267949
 31
0.0
  0
LINE
  5
CA
330
C6
100
AcDbEntity
  8
0
  6
ByBlock
 62
     0
370
    -2
100
AcDbLine
 10
0.0
 20
0.0
 30
0.0
 11
-1.0
 21
0.0
 31
0.0
  0
ENDBLK
  5
CB
330
C6
100
AcDbEntity
  8
0
100
AcDbBlockEnd
  0
BLOCK
  5
E27
330
D57
100
AcDbEntity
  8
0
100
AcDbBlockBegin
  2
A$C7A1143B0
 70
     0
 10
0.0
 20
0.0
 30
0.0
  3
A$C7A1143B0
  1

  0
LINE
  5
D58
330
D57
100
AcDbEntity
  8
0
 62
     3
100
AcDbLine
 10
20.00000057328668
 20
283.9999999862201
 30
0.0
 11
20.00000057328668
 21
9.99999998622016
 31
0.0
  0
LINE
  5
D59
330
D57
100
AcDbEntity
  8
0
 62
     3
100
AcDbLine
 10
410.0000005732868
 20
9.99999998622016
 30
0.0
 11
410.0000005732868
 21
283.9999999862201
 31
0.0
  0
LINE
  5
D5A
330
D57
100
AcDbEntity
  8
0
 62
     3
100
AcDbLine
 10
20.00000057328668
 20
9.99999998622016
 30
0.0
 11
410.0000005732868
 21
9.99999998622016
 31
0.0
  0
LINE
  5
D5B
330
D57
100
AcDbEntity
  8
0
 62
     3
100
AcDbLine
 10
197.7748900432866
 20
286.4400021262202
 30
0.0
 11
198.3973870532866
 21
286.1150476462201
 31
0.0
  0
LINE
  5
D5C
330
D57
100
AcDbEntity
  8
0
 62
     3
100
AcDbLine
 10
197.7748900432866
 20
281.1105300262201
 30
0.0
 11
198.3973870532866
 21
281.4354845062202
 31
0.0
  0
LINE
  5
D5D
330
D57
100
AcDbEntity
  8
0
 62
     3
100
AcDbLine
 10
198.3973870532866
 20
286.1150476462201
 30
0.0
 11
198.3973870532866
 21
281.4354845062202
 31
0.0
  0
LINE
  5
D5E
330
D57
100
AcDbEntity
  8
0
 62
     3
100
AcDbLine
 10
199.9738405132866
 20
281.1105300262201
 30
0.0
 11
199.3513435032865
 21
281.4354845062202
 31
0.0
  0
LINE
  5
D5F
330
D57
100
AcDbEntity
  8
0
 62
     3
100
AcDbLine
 10
199.3513435032865
 20
284.2881399562201
 30
0.0
 11
199.3513435032865
 21
281.4354845062202
 31
0.0
  0
LINE
  5
D60
330
D57
100
AcDbEntity
  8
0
 62
     3
100
AcDbLine
 10
203.6050730532868
 20
286.4400021262202
 30
0.0
 11
202.9825760532867
 21
286.1150476462201
 31
0.0
  0
LINE
  5
D61
330
D57
100
AcDbEntity
  8
0
 62
     3
100
AcDbLine
 10
201.4061225832868
 20
286.4400021262202
 30
0.0
 11
202.0286195932868
 21
286.1150476462201
 31
0.0
  0
LINE
  5
D62
330
D57
100
AcDbEntity
  8
0
 62
     3
100
AcDbLine
 10
202.0286195932868
 20
286.1150476462201
 30
0.0
 11
202.0286195932868
 21
284.0545661262201
 31
0.0
  0
LINE
  5
D63
330
D57
100
AcDbEntity
  8
0
 62
     3
100
AcDbLine
 10
202.9825760532867
 20
286.1150476462201
 30
0.0
 11
202.9825760532867
 21
280.8082998162202
 31
0.0
  0
LINE
  5
D64
330
D57
100
AcDbEntity
  8
0
 62
     3
100
AcDbLine
 10
203.9126404932868
 20
286.4399983762202
 30
0.0
 11
204.5351352532866
 21
286.1150396062202
 31
0.0
  0
LINE
  5
D65
330
D57
100
AcDbEntity
  8
0
 62
     3
100
AcDbLine
 10
203.9125291032867
 20
281.1106014162201
 30
0.0
 11
204.5350374532866
 21
281.4355341662201
 31
0.0
  0
LINE
  5
D66
330
D57
100
AcDbEntity
  8
0
 62
     3
100
AcDbLine
 10
204.5351352532866
 20
286.1150396062202
 30
0.0
 11
204.5351352532866
 21
281.4355341662201
 31
0.0
  0
LINE
  5
D67
330
D57
100
AcDbEntity
  8
0
 62
     3
100
AcDbLine
 10
206.6691210532868
 20
286.4399645562201
 30
0.0
 11
206.0466194932867
 21
286.1150187962202
 31
0.0
  0
LINE
  5
D68
330
D57
100
AcDbEntity
  8
0
 62
     3
100
AcDbLine
 10
206.0466194932867
 20
286.1150187962202
 30
0.0
 11
206.0466194932867
 21
281.4355133562201
 31
0.0
  0
LINE
  5
D69
330
D57
100
AcDbEntity
  8
0
 62
     3
100
AcDbLine
 10
206.6691210532868
 20
281.1105675962201
 30
0.0
 11
206.0466194932867
 21
281.4355133562201
 31
0.0
  0
LINE
  5
D6A
330
D57
100
AcDbEntity
  8
0
 62
     3
100
AcDbLine
 10
211.9409116832867
 20
286.4399059862202
 30
0.0
 11
212.5634075632868
 21
286.1149493662201
 31
0.0
  0
LINE
  5
D6B
330
D57
100
AcDbEntity
  8
0
 62
     3
100
AcDbLine
 10
212.5634075632868
 20
286.1149493662201
 30
0.0
 11
212.5633258932867
 21
281.4354439162201
 31
0.0
  0
LINE
  5
D6C
330
D57
100
AcDbEntity
  8
0
 62
     3
100
AcDbLine
 10
211.9408186632866
 20
281.1105090262202
 30
0.0
 11
212.5633258932867
 21
281.4354439162201
 31
0.0
  0
LINE
  5
D6D
330
D57
100
AcDbEntity
  8
0
 62
     3
100
AcDbLine
 10
214.7298559232865
 20
286.4399059862202
 30
0.0
 11
214.1073600332868
 21
286.1149493662201
 31
0.0
  0
LINE
  5
D6E
330
D57
100
AcDbEntity
  8
0
 62
     3
100
AcDbLine
 10
214.7299489332866
 20
281.1105090262202
 30
0.0
 11
214.1074417032867
 21
281.4354439162201
 31
0.0
  0
LINE
  5
D6F
330
D57
100
AcDbEntity
  8
0
 62
     3
100
AcDbLine
 10
215.0208957232867
 20
286.4399059862202
 30
0.0
 11
215.6433916032868
 21
286.1149493662201
 31
0.0
  0
LINE
  5
D70
330
D57
100
AcDbEntity
  8
0
 62
     3
100
AcDbLine
 10
215.0208027032866
 20
281.1105090262202
 30
0.0
 11
215.6433099332867
 21
281.4354439162201
 31
0.0
  0
LINE
  5
D71
330
D57
100
AcDbEntity
  8
0
 62
     3
100
AcDbLine
 10
217.8098399532867
 20
286.4399059862202
 30
0.0
 11
217.1873440732868
 21
286.1149493662201
 31
0.0
  0
LINE
  5
D72
330
D57
100
AcDbEntity
  8
0
 62
     3
100
AcDbLine
 10
217.1873440732868
 20
286.1149493662201
 30
0.0
 11
217.1874257432867
 21
281.4354439162201
 31
0.0
  0
LINE
  5
D73
330
D57
100
AcDbEntity
  8
0
 62
     3
100
AcDbLine
 10
217.8099329732865
 20
281.1105090262202
 30
0.0
 11
217.1874257432867
 21
281.4354439162201
 31
0.0
  0
LINE
  5
D74
330
D57
100
AcDbEntity
  8
0
 62
     3
100
AcDbLine
 10
215.6433560232867
 20
284.0761877662202
 30
0.0
 11
214.1073956132866
 21
284.0761877662202
 31
0.0
  0
LINE
  5
D75
330
D57
100
AcDbEntity
  8
0
 62
     3
100
AcDbLine
 10
215.6433455232866
 20
283.4743443862201
 30
0.0
 11
214.1074061132867
 21
283.4743443862201
 31
0.0
  0
LINE
  5
D76
330
D57
100
AcDbEntity
  8
0
 62
     3
100
AcDbLine
 10
215.6433916032868
 20
286.1149493662201
 30
0.0
 11
215.6433560232867
 21
284.0761877662202
 31
0.0
  0
LINE
  5
D77
330
D57
100
AcDbEntity
  8
0
 62
     3
100
AcDbLine
 10
215.6433455232866
 20
283.4743443862201
 30
0.0
 11
215.6433099332867
 21
281.4354439162201
 31
0.0
  0
LINE
  5
D78
330
D57
100
AcDbEntity
  8
0
 62
     3
100
AcDbLine
 10
214.1073600332868
 20
286.1149493662201
 30
0.0
 11
214.1073956132866
 21
284.0761877662202
 31
0.0
  0
LINE
  5
D79
330
D57
100
AcDbEntity
  8
0
 62
     3
100
AcDbLine
 10
214.1074061132867
 20
283.4743443862201
 30
0.0
 11
214.1074417032867
 21
281.4354439162201
 31
0.0
  0
LINE
  5
D7A
330
D57
100
AcDbEntity
  8
0
 62
     3
100
AcDbLine
 10
218.1054958432867
 20
286.4399059862202
 30
0.0
 11
218.7279917332867
 21
286.1149493662201
 31
0.0
  0
LINE
  5
D7B
330
D57
100
AcDbEntity
  8
0
 62
     3
100
AcDbLine
 10
218.7279917332867
 20
286.1149493662201
 30
0.0
 11
218.7279100532867
 21
281.4354439162201
 31
0.0
  0
LINE
  5
D7C
330
D57
100
AcDbEntity
  8
0
 62
     3
100
AcDbLine
 10
218.1054028232868
 20
281.1105090262202
 30
0.0
 11
218.7279100532867
 21
281.4354439162201
 31
0.0
  0
LINE
  5
D7D
330
D57
100
AcDbEntity
  8
0
 62
     3
100
AcDbLine
 10
220.8619390832867
 20
286.4399059862202
 30
0.0
 11
220.2394431932867
 21
286.1149493662201
 31
0.0
  0
LINE
  5
D7E
330
D57
100
AcDbEntity
  8
0
 62
     3
100
AcDbLine
 10
220.2394431932867
 20
286.1149493662201
 30
0.0
 11
220.2395248732866
 21
281.4354439162201
 31
0.0
  0
LINE
  5
D7F
330
D57
100
AcDbEntity
  8
0
 62
     3
100
AcDbLine
 10
220.8620321032865
 20
281.1105090262202
 30
0.0
 11
220.2395248732866
 21
281.4354439162201
 31
0.0
  0
LINE
  5
D80
330
D57
100
AcDbEntity
  8
0
 62
     3
100
AcDbLine
 10
221.1681670332867
 20
286.4399059862202
 30
0.0
 11
221.7906629232866
 21
286.1149493662201
 31
0.0
  0
LINE
  5
D81
330
D57
100
AcDbEntity
  8
0
 62
     3
100
AcDbLine
 10
221.7906629232866
 20
286.1149493662201
 30
0.0
 11
221.7905812532869
 21
281.4354439162201
 31
0.0
  0
LINE
  5
D82
330
D57
100
AcDbEntity
  8
0
 62
     3
100
AcDbLine
 10
221.1680740232866
 20
281.1105090262202
 30
0.0
 11
221.7905812532869
 21
281.4354439162201
 31
0.0
  0
ARC
  5
D83
330
D57
100
AcDbEntity
  8
0
 62
     3
100
AcDbCircle
 10
209.9524670132867
 20
283.7886800162202
 30
0.0
 40
2.98040844
100
AcDbArc
 50
97.70152351000378
 51
270.0
  0
ARC
  5
D84
330
D57
100
AcDbEntity
  8
0
 62
     3
100
AcDbCircle
 10
228.3533253532866
 20
283.7587419762201
 30
0.0
 40
3.012776259999998
100
AcDbArc
 50
0.3142502699992948
 51
69.00558244999621
  0
ARC
  5
D85
330
D57
100
AcDbEntity
  8
0
 62
     3
100
AcDbCircle
 10
229.0114329632868
 20
283.7587419762201
 30
0.0
 40
3.012776259999998
100
AcDbArc
 50
110.9944175500038
 51
148.1166110200028
  0
ARC
  5
D86
330
D57
100
AcDbEntity
  8
0
 62
     3
100
AcDbCircle
 10
228.3533253532866
 20
283.7917901762202
 30
0.0
 40
3.012776259999998
100
AcDbArc
 50
290.9944175500038
 51
359.6857497300007
  0
ARC
  5
D87
330
D57
100
AcDbEntity
  8
0
 62
     3
100
AcDbCircle
 10
229.0114329632868
 20
283.7917901762202
 30
0.0
 40
3.012776259999998
100
AcDbArc
 50
211.8833889799972
 51
249.0055824499962
  0
ARC
  5
D88
330
D57
100
AcDbEntity
  8
0
 62
     3
100
AcDbCircle
 10
228.6823791632867
 20
285.0078452062202
 30
0.0
 40
1.73438712
100
AcDbArc
 50
64.3651718999996
 51
115.6348281000004
  0
ARC
  5
D89
330
D57
100
AcDbEntity
  8
0
 62
     3
100
AcDbCircle
 10
228.6823791632867
 20
282.5426869462202
 30
0.0
 40
1.73438712
100
AcDbArc
 50
244.3651718999996
 51
295.6348281000004
  0
ARC
  5
D8A
330
D57
100
AcDbEntity
  8
0
 62
     3
100
AcDbCircle
 10
228.6823791632867
 20
285.0407904662201
 30
0.0
 40
0.85122233
100
AcDbArc
 50
19.48660554000209
 51
160.5133944599979
  0
ARC
  5
D8B
330
D57
100
AcDbEntity
  8
0
 62
     3
100
AcDbCircle
 10
228.6823791632867
 20
282.5426869462202
 30
0.0
 40
1.73438712
100
AcDbArc
 50
244.3651718999996
 51
295.6348281000004
  0
ARC
  5
D8C
330
D57
100
AcDbEntity
  8
0
 62
     3
100
AcDbCircle
 10
228.6823791632867
 20
282.5097416862202
 30
0.0
 40
0.85122233
100
AcDbArc
 50
199.4866055400021
 51
340.5133944599979
  0
ARC
  5
D8D
330
D57
100
AcDbEntity
  8
0
 62
     3
100
AcDbCircle
 10
221.9074184432868
 20
252.0208948762201
 30
0.0
 40
37.20000000000001
100
AcDbArc
 50
69.50571480000154
 51
81.68998807000397
  0
ARC
  5
D8E
330
D57
100
AcDbEntity
  8
0
 62
     3
100
AcDbCircle
 10
221.9074184432868
 20
315.5296372762201
 30
0.0
 40
37.20000000000001
100
AcDbArc
 50
278.3100119299961
 51
290.4942851999985
  0
ARC
  5
D8F
330
D57
100
AcDbEntity
  8
0
 62
     3
100
AcDbCircle
 10
233.7762814832865
 20
283.7752660762201
 30
0.0
 40
3.299999999999998
100
AcDbArc
 50
290.4942851999985
 51
69.50571480000154
  0
ARC
  5
D90
330
D57
100
AcDbEntity
  8
0
 62
     3
100
AcDbCircle
 10
194.7762814832865
 20
283.7752660762201
 30
0.0
 40
3.299999999999998
100
AcDbArc
 50
110.4942851999985
 51
249.5057148000015
  0
ARC
  5
D91
330
D57
100
AcDbEntity
  8
0
 62
     3
100
AcDbCircle
 10
206.6451445132868
 20
252.0208948762201
 30
0.0
 40
37.20000000000001
100
AcDbArc
 50
98.31001192999607
 51
110.4942851999985
  0
ARC
  5
D92
330
D57
100
AcDbEntity
  8
0
 62
     3
100
AcDbCircle
 10
206.6451445132868
 20
315.5296372762201
 30
0.0
 40
37.20000000000001
100
AcDbArc
 50
249.5057148000015
 51
261.6899880699973
  0
ARC
  5
D93
330
D57
100
AcDbEntity
  8
0
 62
     3
100
AcDbCircle
 10
214.2762814832865
 20
199.7752660762201
 30
0.0
 40
89.99999981
100
AcDbArc
 50
81.68998807000397
 51
98.31001192999607
  0
ARC
  5
D94
330
D57
100
AcDbEntity
  8
0
 62
     3
100
AcDbCircle
 10
214.2762814832865
 20
367.7752660762201
 30
0.0
 40
89.99999981
100
AcDbArc
 50
261.6899880699973
 51
278.3100119299961
  0
ARC
  5
D95
330
D57
100
AcDbEntity
  8
0
 62
     3
100
AcDbCircle
 10
214.2762814832865
 20
199.7752660762201
 30
0.0
 40
89.09999981
100
AcDbArc
 50
81.68998807000397
 51
98.31001192999607
  0
ARC
  5
D96
330
D57
100
AcDbEntity
  8
0
 62
     3
100
AcDbCircle
 10
214.2762814832865
 20
367.7752660762201
 30
0.0
 40
89.09999981
100
AcDbArc
 50
261.6899880699973
 51
278.3100119299961
  0
ARC
  5
D97
330
D57
100
AcDbEntity
  8
0
 62
     3
100
AcDbCircle
 10
221.9074184432868
 20
315.5296372762201
 30
0.0
 40
36.3
100
AcDbArc
 50
278.3100119299961
 51
290.4942851999985
  0
ARC
  5
D98
330
D57
100
AcDbEntity
  8
0
 62
     3
100
AcDbCircle
 10
221.9074184432868
 20
252.0208948762201
 30
0.0
 40
36.3
100
AcDbArc
 50
69.50571480000154
 51
81.68998807000397
  0
ARC
  5
D99
330
D57
100
AcDbEntity
  8
0
 62
     3
100
AcDbCircle
 10
233.7762814832865
 20
283.7752660762201
 30
0.0
 40
2.399999999999999
100
AcDbArc
 50
290.4942851999985
 51
69.50571480000154
  0
ARC
  5
D9A
330
D57
100
AcDbEntity
  8
0
 62
     3
100
AcDbCircle
 10
194.7762814832865
 20
283.7752660762201
 30
0.0
 40
2.399999999999999
100
AcDbArc
 50
110.4942851999985
 51
249.5057148000015
  0
ARC
  5
D9B
330
D57
100
AcDbEntity
  8
0
 62
     3
100
AcDbCircle
 10
206.6451445132868
 20
252.0208948762201
 30
0.0
 40
36.3
100
AcDbArc
 50
98.31001192999607
 51
110.4942851999985
  0
ARC
  5
D9C
330
D57
100
AcDbEntity
  8
0
 62
     3
100
AcDbCircle
 10
206.6451445132868
 20
315.5296372762201
 30
0.0
 40
36.3
100
AcDbArc
 50
249.5057148000015
 51
261.6899880699973
  0
LINE
  5
D9D
330
D57
100
AcDbEntity
  8
0
 62
     3
100
AcDbLine
 10
220.8619402032866
 20
280.8082998162202
 30
0.0
 11
218.1054947232867
 21
280.8082998162202
 31
0.0
  0
LINE
  5
D9E
330
D57
100
AcDbEntity
  8
0
 62
     3
100
AcDbLine
 10
220.8619402032866
 20
281.1105300262201
 30
0.0
 11
220.8619402032866
 21
280.8082998162202
 31
0.0
  0
LINE
  5
D9F
330
D57
100
AcDbEntity
  8
0
 62
     3
100
AcDbLine
 10
217.8098410732866
 20
286.7420913062201
 30
0.0
 11
215.0208946032867
 21
286.7420913062201
 31
0.0
  0
LINE
  5
DA0
330
D57
100
AcDbEntity
  8
0
 62
     3
100
AcDbLine
 10
217.8098410732866
 20
286.7420913062201
 30
0.0
 11
217.8098410732866
 21
286.4400021262202
 31
0.0
  0
LINE
  5
DA1
330
D57
100
AcDbEntity
  8
0
 62
     3
100
AcDbLine
 10
217.8098410732866
 20
281.1105300262201
 30
0.0
 11
217.8098410732866
 21
280.8081587962202
 31
0.0
  0
LINE
  5
DA2
330
D57
100
AcDbEntity
  8
0
 62
     3
100
AcDbLine
 10
217.8098410732866
 20
280.8081587962202
 30
0.0
 11
215.0208946032867
 21
280.8081587962202
 31
0.0
  0
LINE
  5
DA3
330
D57
100
AcDbEntity
  8
0
 62
     3
100
AcDbLine
 10
220.8619402032866
 20
286.7422323362201
 30
0.0
 11
220.8619402032866
 21
286.4400021262202
 31
0.0
  0
LINE
  5
DA4
330
D57
100
AcDbEntity
  8
0
 62
     3
100
AcDbLine
 10
220.8619402032866
 20
286.7422323362201
 30
0.0
 11
218.1054947232867
 21
286.7422323362201
 31
0.0
  0
LINE
  5
DA5
330
D57
100
AcDbEntity
  8
0
 62
     3
100
AcDbLine
 10
218.1054947232867
 20
286.7422323362201
 30
0.0
 11
218.1054947232867
 21
286.4400021262202
 31
0.0
  0
LINE
  5
DA6
330
D57
100
AcDbEntity
  8
0
 62
     3
100
AcDbLine
 10
221.1681659132866
 20
281.1105300262201
 30
0.0
 11
221.1681659132866
 21
280.8082998162202
 31
0.0
  0
LINE
  5
DA7
330
D57
100
AcDbEntity
  8
0
 62
     3
100
AcDbLine
 10
224.0028810032866
 20
280.8082998162202
 30
0.0
 11
221.1681659132866
 21
280.8082998162202
 31
0.0
  0
LINE
  5
DA8
330
D57
100
AcDbEntity
  8
0
 62
     3
100
AcDbLine
 10
223.3021143932867
 20
285.7882758762201
 30
0.0
 11
223.3021143932867
 21
281.7622562762201
 31
0.0
  0
LINE
  5
DA9
330
D57
100
AcDbEntity
  8
0
 62
     3
100
AcDbLine
 10
223.3021143932867
 20
281.7622562762201
 30
0.0
 11
223.5736129132868
 21
281.7622562762201
 31
0.0
  0
ARC
  5
DAA
330
D57
100
AcDbEntity
  8
0
 62
     3
100
AcDbCircle
 10
222.1853475732867
 20
283.7752660762201
 30
0.0
 40
2.44529939
100
AcDbArc
 50
304.5919552699948
 51
55.40804473000515
  0
LINE
  5
DAB
330
D57
100
AcDbEntity
  8
0
 62
     3
100
AcDbLine
 10
224.0028810032866
 20
286.7422323362201
 30
0.0
 11
221.1681659132866
 21
286.7422323362201
 31
0.0
  0
LINE
  5
DAC
330
D57
100
AcDbEntity
  8
0
 62
     3
100
AcDbLine
 10
221.1681659132866
 20
286.7422323362201
 30
0.0
 11
221.1681659132866
 21
286.4400021262202
 31
0.0
  0
LINE
  5
DAD
330
D57
100
AcDbEntity
  8
0
 62
     3
100
AcDbLine
 10
218.1054947232867
 20
281.1105300262201
 30
0.0
 11
218.1054947232867
 21
280.8082998162202
 31
0.0
  0
LINE
  5
DAE
330
D57
100
AcDbEntity
  8
0
 62
     3
100
AcDbLine
 10
223.3021143932867
 20
285.7882758762201
 30
0.0
 11
223.5736129132868
 21
285.7882758762201
 31
0.0
  0
LINE
  5
DAF
330
D57
100
AcDbEntity
  8
0
 62
     3
100
AcDbLine
 10
206.6690291532866
 20
281.1105300262201
 30
0.0
 11
206.6690238832866
 21
280.8082715762201
 31
0.0
  0
LINE
  5
DB0
330
D57
100
AcDbEntity
  8
0
 62
     3
100
AcDbLine
 10
203.9125784032867
 20
280.8083280662202
 30
0.0
 11
206.6690238832866
 21
280.8082799562201
 31
0.0
  0
LINE
  5
DB1
330
D57
100
AcDbEntity
  8
0
 62
     3
100
AcDbLine
 10
197.7748900432866
 20
280.8082998162202
 30
0.0
 11
199.9738405132866
 21
280.8082998162202
 31
0.0
  0
ARC
  5
DB2
330
D57
100
AcDbEntity
  8
0
 62
     3
100
AcDbCircle
 10
190.6578290732866
 20
283.8451326862202
 30
0.0
 40
21.01937947
100
AcDbArc
 50
353.8660061899995
 51
357.6940342600001
  0
LINE
  5
DB3
330
D57
100
AcDbEntity
  8
0
 62
     3
100
AcDbLine
 10
210.2529431632868
 20
283.0046074662202
 30
0.0
 11
211.6601872832866
 21
282.9994004962201
 31
0.0
  0
LWPOLYLINE
  5
DB4
330
D57
100
AcDbEntity
  8
0
 62
     3
100
AcDbPolyline
 90
       64
 70
     0
 43
0.0
 10
210.2586266132866
 20
284.5406285262201
 10
210.2320158632867
 20
284.7110110462202
 10
210.2000570332868
 20
284.8741607362201
 10
210.1629971332866
 20
285.0288165362201
 10
210.1211226332866
 20
285.1737830362201
 10
210.0747572032867
 20
285.3079397262202
 10
210.0242592132866
 20
285.4302496262201
 10
209.9700189932867
 20
285.5397673662201
 10
209.9124557932867
 20
285.6356464162201
 10
209.8520145432867
 20
285.71714568622
 10
209.7891624232868
 20
285.7836352262201
 10
209.7243852432866
 20
285.8346011062201
 10
209.6581837132867
 20
285.8696493862201
 10
209.5910695232867
 20
285.8885091562202
 10
209.5235614332866
 20
285.8910346562201
 10
209.4561812432867
 20
285.8772063462201
 10
209.3894497732867
 20
285.8471311162201
 10
209.3238828332867
 20
285.8010414462201
 10
209.2599871932866
 20
285.7392935662201
 10
209.1982567632868
 20
285.6623647762202
 10
209.1391686732866
 20
285.5708496762202
 10
209.0831796432867
 20
285.4654556462201
 10
209.0307224432865
 20
285.3469973162201
 10
208.9822025432866
 20
285.2163903062201
 10
208.9379949632867
 20
285.0746441562201
 10
208.8984414232866
 20
284.9228544862201
 10
208.8638476432868
 20
284.7621945462202
 10
208.8344810132867
 20
284.5939061562201
 10
208.8105685232867
 20
284.4192900962202
 10
208.7922950132868
 20
284.2396960662202
 10
208.7798017132866
 20
284.0565122262201
 10
208.7731852032866
 20
283.8711545062201
 10
208.7724966132867
 20
283.6850556062202
 10
208.7777412732866
 20
283.4996539962201
 10
208.7888786432866
 20
283.3163827262201
 10
208.8058226432865
 20
283.1366583862201
 10
208.8284422932868
 20
282.9618701562201
 10
208.8565627632868
 20
282.7933690562202
 10
208.8899666932866
 20
282.6324575162201
 10
208.9283958932867
 20
282.4803792962201
 10
208.9715533132867
 20
282.3383098862201
 10
209.0191053832866
 20
282.2073474062202
 10
209.0706845332868
 20
282.0885041262202
 10
209.1258921032866
 20
281.9826986562201
 10
209.1843013532866
 20
281.8907487962201
 10
209.2454608132866
 20
281.8133652962201
 10
209.3088977532868
 20
281.7511462762201
 10
209.3741218332868
 20
281.7045726662201
 10
209.4406289132867
 20
281.6740044362201
 10
209.5079049232865
 20
281.6596778862201
 10
209.5754298532868
 20
281.6617037462202
 10
209.6426817732865
 20
281.6800663462201
 10
209.7091408532867
 20
281.7146237662202
 10
209.7742934132866
 20
281.7651088962201
 10
209.8376358432868
 20
281.8311314962201
 10
209.8986785432867
 20
281.9121812562201
 10
209.9569496832867
 20
282.0076317062202
 10
210.0119988632866
 20
282.1167450662201
 10
210.0634005832867
 20
282.2386779262201
 10
210.1107575232866
 20
282.3724878362201
 10
210.1537036432867
 20
282.5171404862201
 10
210.1919069932867
 20
282.6715178062201
 10
210.2250722832866
 20
282.8344265362201
 10
210.2529431632868
 20
283.0046074662202
  0
LINE
  5
DB5
330
D57
100
AcDbEntity
  8
0
 62
     3
100
AcDbLine
 10
210.2586266132866
 20
284.5406285262201
 30
0.0
 11
211.6658707332867
 21
284.5354215562202
 31
0.0
  0
ARC
  5
DB6
330
D57
100
AcDbEntity
  8
0
 62
     3
100
AcDbCircle
 10
190.6578290732866
 20
283.8451326862202
 30
0.0
 40
21.01937947
100
AcDbArc
 50
1.881965739999571
 51
5.709993809999575
  0
LINE
  5
DB7
330
D57
100
AcDbEntity
  8
0
 62
     3
100
AcDbLine
 10
206.6691274432867
 20
286.7422040862201
 30
0.0
 11
206.6691221732867
 21
286.4400021262202
 31
0.0
  0
LINE
  5
DB8
330
D57
100
AcDbEntity
  8
0
 62
     3
100
AcDbLine
 10
203.9126819632868
 20
286.7422605762201
 30
0.0
 11
206.6691274432867
 21
286.7422124662202
 31
0.0
  0
LINE
  5
DB9
330
D57
100
AcDbEntity
  8
0
 62
     3
100
AcDbLine
 10
203.9125836732867
 20
281.1105300262201
 30
0.0
 11
203.9125784032867
 21
280.8083280662202
 31
0.0
  0
LINE
  5
DBA
330
D57
100
AcDbEntity
  8
0
 62
     3
100
AcDbLine
 10
203.9126819632868
 20
286.7422605762201
 30
0.0
 11
203.9126766932866
 21
286.4400021262202
 31
0.0
  0
LINE
  5
DBB
330
D57
100
AcDbEntity
  8
0
 62
     3
100
AcDbLine
 10
199.9738405132866
 20
281.1105300262201
 30
0.0
 11
199.9738405132866
 21
280.8082998162202
 31
0.0
  0
LINE
  5
DBC
330
D57
100
AcDbEntity
  8
0
 62
     3
100
AcDbLine
 10
199.3513435032865
 20
284.2881399562201
 30
0.0
 11
201.5262435832867
 21
280.8082998162202
 31
0.0
  0
LINE
  5
DBD
330
D57
100
AcDbEntity
  8
0
 62
     3
100
AcDbLine
 10
201.5262435832867
 20
280.8082998162202
 30
0.0
 11
202.9825760532867
 21
280.8082998162202
 31
0.0
  0
LINE
  5
DBE
330
D57
100
AcDbEntity
  8
0
 62
     3
100
AcDbLine
 10
203.6050730532868
 20
286.7422323362201
 30
0.0
 11
203.6050730532868
 21
286.4400021262202
 31
0.0
  0
LINE
  5
DBF
330
D57
100
AcDbEntity
  8
0
 62
     3
100
AcDbLine
 10
201.4061225832868
 20
286.7422323362201
 30
0.0
 11
203.6050730532868
 21
286.7422323362201
 31
0.0
  0
LINE
  5
DC0
330
D57
100
AcDbEntity
  8
0
 62
     3
100
AcDbLine
 10
201.4061225832868
 20
286.7422323362201
 30
0.0
 11
201.4061225832868
 21
286.4400021262202
 31
0.0
  0
LINE
  5
DC1
330
D57
100
AcDbEntity
  8
0
 62
     3
100
AcDbLine
 10
202.0286195932868
 20
284.0545661262201
 30
0.0
 11
200.2648386532867
 21
286.7422323362201
 31
0.0
  0
LINE
  5
DC2
330
D57
100
AcDbEntity
  8
0
 62
     3
100
AcDbLine
 10
197.7748900432866
 20
286.7422323362201
 30
0.0
 11
200.2648386532867
 21
286.7422323362201
 31
0.0
  0
LINE
  5
DC3
330
D57
100
AcDbEntity
  8
0
 62
     3
100
AcDbLine
 10
211.9409105632867
 20
286.7420913062201
 30
0.0
 11
214.7298570432865
 21
286.7420913062201
 31
0.0
  0
LINE
  5
DC4
330
D57
100
AcDbEntity
  8
0
 62
     3
100
AcDbLine
 10
211.9409105632867
 20
286.4400021262202
 30
0.0
 11
211.9409105632867
 21
286.7420913062201
 31
0.0
  0
LINE
  5
DC5
330
D57
100
AcDbEntity
  8
0
 62
     3
100
AcDbLine
 10
211.9409105632867
 20
280.8081587962202
 30
0.0
 11
211.9409105632867
 21
281.1105300262201
 31
0.0
  0
LINE
  5
DC6
330
D57
100
AcDbEntity
  8
0
 62
     3
100
AcDbLine
 10
211.9409105632867
 20
280.8081587962202
 30
0.0
 11
214.7298570432865
 21
280.8081587962202
 31
0.0
  0
LINE
  5
DC7
330
D57
100
AcDbEntity
  8
0
 62
     3
100
AcDbLine
 10
215.0208946032867
 20
281.1105300262201
 30
0.0
 11
215.0208946032867
 21
280.8081587962202
 31
0.0
  0
LINE
  5
DC8
330
D57
100
AcDbEntity
  8
0
 62
     3
100
AcDbLine
 10
214.7298570432865
 20
281.1105300262201
 30
0.0
 11
214.7298570432865
 21
280.8081587962202
 31
0.0
  0
LINE
  5
DC9
330
D57
100
AcDbEntity
  8
0
 62
     3
100
AcDbLine
 10
214.7298570432865
 20
286.4400021262202
 30
0.0
 11
214.7298570432865
 21
286.7420913062201
 31
0.0
  0
LINE
  5
DCA
330
D57
100
AcDbEntity
  8
0
 62
     3
100
AcDbLine
 10
215.0208946032867
 20
286.4400021262202
 30
0.0
 11
215.0208946032867
 21
286.7420913062201
 31
0.0
  0
LINE
  5
DCB
330
D57
100
AcDbEntity
  8
0
 62
     3
100
AcDbLine
 10
197.7748900432866
 20
281.1105300262201
 30
0.0
 11
197.7748900432866
 21
280.8082998162202
 31
0.0
  0
LINE
  5
DCC
330
D57
100
AcDbEntity
  8
0
 62
     3
100
AcDbLine
 10
197.7748900432866
 20
286.7422323362201
 30
0.0
 11
197.7748900432866
 21
286.4400021262202
 31
0.0
  0
ARC
  5
DCD
330
D57
100
AcDbEntity
  8
0
 62
     3
100
AcDbCircle
 10
224.3028810032868
 20
284.3977630862202
 30
0.0
 40
2.344469249999999
100
AcDbArc
 50
17.30874897999993
 51
23.76507095999782
  0
ARC
  5
DCE
330
D57
100
AcDbEntity
  8
0
 62
     3
100
AcDbCircle
 10
222.3053475732866
 20
283.7752660762201
 30
0.0
 40
4.43675086
100
AcDbArc
 50
342.6912510200001
 51
17.30856644000161
  0
ARC
  5
DCF
330
D57
100
AcDbEntity
  8
0
 62
     3
100
AcDbCircle
 10
224.3028810032868
 20
283.1527690662201
 30
0.0
 40
2.344469249999999
100
AcDbArc
 50
336.2349290399969
 51
342.6912510200001
  0
ARC
  5
DD0
330
D57
100
AcDbEntity
  8
0
 62
     3
100
AcDbCircle
 10
224.0028810032866
 20
284.3977630862202
 30
0.0
 40
2.344469249999999
100
AcDbArc
 50
17.30874897999993
 51
90.0
  0
ARC
  5
DD1
330
D57
100
AcDbEntity
  8
0
 62
     3
100
AcDbCircle
 10
222.0053475732868
 20
283.7752660762201
 30
0.0
 40
4.43675086
100
AcDbArc
 50
342.6912510200001
 51
17.30856644000161
  0
ARC
  5
DD2
330
D57
100
AcDbEntity
  8
0
 62
     3
100
AcDbCircle
 10
224.0028810032866
 20
283.1527690662201
 30
0.0
 40
2.344469249999999
100
AcDbArc
 50
270.0
 51
342.6912510200001
  0
ARC
  5
DD3
330
D57
100
AcDbEntity
  8
0
 62
     3
100
AcDbCircle
 10
209.5401090332866
 20
283.7752660762201
 30
0.0
 40
2.966966259999998
100
AcDbArc
 50
46.75287961000123
 51
89.74999828999569
  0
ARC
  5
DD4
330
D57
100
AcDbEntity
  8
0
 62
     3
100
AcDbCircle
 10
209.5401090332866
 20
283.7752660762201
 30
0.0
 40
2.966966259999998
100
AcDbArc
 50
273.976333149997
 51
312.8231203899988
  0
ARC
  5
DD5
330
D57
100
AcDbEntity
  8
0
 62
     3
100
AcDbCircle
 10
225.8855489632868
 20
283.7294638962202
 30
0.0
 40
3.936984289999998
100
AcDbArc
 50
0.6665840599997753
 51
23.90392827000137
  0
ARC
  5
DD6
330
D57
100
AcDbEntity
  8
0
 62
     3
100
AcDbCircle
 10
231.4792093532867
 20
283.7294638962202
 30
0.0
 40
3.936984289999998
100
AcDbArc
 50
156.0960717299986
 51
179.3334159400002
  0
ARC
  5
DD7
330
D57
100
AcDbEntity
  8
0
 62
     3
100
AcDbCircle
 10
225.8855489632868
 20
283.8210682562202
 30
0.0
 40
3.936984289999998
100
AcDbArc
 50
336.0960717299986
 51
359.3334159400003
  0
ARC
  5
DD8
330
D57
100
AcDbEntity
  8
0
 62
     3
100
AcDbCircle
 10
231.4792093532867
 20
283.8210682562202
 30
0.0
 40
3.936984289999998
100
AcDbArc
 50
180.6665840599997
 51
203.9039282700014
  0
LINE
  5
DD9
330
D57
100
AcDbEntity
  8
0
 62
     3
100
AcDbLine
 10
238.6567257532868
 20
283.9999999862201
 30
0.0
 11
410.0000005732865
 21
283.9999999862201
 31
0.0
  0
LINE
  5
DDA
330
D57
100
AcDbEntity
  8
0
 62
     3
100
AcDbLine
 10
190.1026910832868
 20
283.9999999862201
 30
0.0
 11
20.00000057328668
 21
283.9999999862201
 31
0.0
  0
LINE
  5
DDB
330
D57
100
AcDbEntity
  8
0
 62
     3
100
AcDbLine
 10
7.598076783286612
 20
150.4446389362201
 30
0.0
 11
5.000000573286683
 21
148.9446389362201
 31
0.0
  0
LINE
  5
DDC
330
D57
100
AcDbEntity
  8
0
 62
     3
100
AcDbLine
 10
7.598076783286612
 20
150.4446389362201
 30
0.0
 11
5.000000573286683
 21
151.9446389362201
 31
0.0
  0
LINE
  5
DDD
330
D57
100
AcDbEntity
  8
0
 62
     3
100
AcDbLine
 10
5.000000573286683
 20
148.9446389362201
 30
0.0
 11
5.000000573286683
 21
151.9446389362201
 31
0.0
  0
LINE
  5
DDE
330
D57
100
AcDbEntity
  8
0
 62
   254
370
     0
100
AcDbLine
 10
0.0000005732867976
 20
-0.0000000137798395
 30
0.0
 11
0.0000005732867976
 21
291.9999999862201
 31
0.0
  0
LINE
  5
DDF
330
D57
100
AcDbEntity
  8
0
 62
   254
370
     0
100
AcDbLine
 10
0.0000005732867976
 20
291.9999999862201
 30
0.0
 11
420.0000005732865
 21
291.9999999862201
 31
0.0
  0
LINE
  5
DE0
330
D57
100
AcDbEntity
  8
0
 62
     3
100
AcDbLine
 10
358.0000005732868
 20
9.99999998622016
 30
0.0
 11
358.0000005732868
 21
49.99999998622016
 31
0.0
  0
LINE
  5
DE1
330
D57
100
AcDbEntity
  8
0
 62
     3
100
AcDbLine
 10
371.0000005732868
 20
19.99999998622016
 30
0.0
 11
371.0000005732868
 21
47.99999998622015
 31
0.0
  0
LINE
  5
DE2
330
D57
100
AcDbEntity
  8
0
 62
     3
100
AcDbLine
 10
331.0000005732868
 20
19.99999998622016
 30
0.0
 11
331.0000005732868
 21
33.99999998622016
 31
0.0
  0
LINE
  5
DE3
330
D57
100
AcDbEntity
  8
0
 62
     3
100
AcDbLine
 10
341.0000005732868
 20
33.99999998622016
 30
0.0
 11
341.0000005732868
 21
9.99999998622016
 31
0.0
  0
LINE
  5
DE4
330
D57
100
AcDbEntity
  8
0
 62
     3
100
AcDbLine
 10
312.0000005732868
 20
49.99999998622016
 30
0.0
 11
312.0000005732868
 21
26.99999998622016
 31
0.0
  0
LINE
  5
DE5
330
D57
100
AcDbEntity
  8
0
 62
     3
100
AcDbLine
 10
371.0000005732868
 20
47.99999998622015
 30
0.0
 11
371.0000005732868
 21
49.99999998622016
 31
0.0
  0
LINE
  5
DE6
330
D57
100
AcDbEntity
  8
0
 62
     3
100
AcDbLine
 10
384.0000005732868
 20
26.99999998622016
 30
0.0
 11
384.0000005732868
 21
49.99999998622016
 31
0.0
  0
LINE
  5
DE7
330
D57
100
AcDbEntity
  8
0
 62
     3
100
AcDbLine
 10
410.0000005732868
 20
49.99999998622016
 30
0.0
 11
298.7545659332868
 21
49.99999998622016
 31
0.0
  0
LINE
  5
DE8
330
D57
100
AcDbEntity
  8
0
 62
     3
100
AcDbLine
 10
410.0000005732868
 20
40.99999998622015
 30
0.0
 11
298.7545659332868
 21
40.99999998622015
 31
0.0
  0
LINE
  5
DE9
330
D57
100
AcDbEntity
  8
0
 62
     3
100
AcDbLine
 10
410.0000005732868
 20
26.99999998622016
 30
0.0
 11
298.7545659332868
 21
26.99999998622016
 31
0.0
  0
LINE
  5
DEA
330
D57
100
AcDbEntity
  8
0
 62
     3
100
AcDbLine
 10
410.0000005732868
 20
19.99999998622016
 30
0.0
 11
298.6965580732867
 21
19.99999998622016
 31
0.0
  0
LINE
  5
DEB
330
D57
100
AcDbEntity
  8
0
 62
     3
100
AcDbLine
 10
397.0000005732868
 20
26.99999998622016
 30
0.0
 11
397.0000005732868
 21
49.99999998622016
 31
0.0
  0
LINE
  5
DEC
330
D57
100
AcDbEntity
  8
0
 62
     3
100
AcDbLine
 10
298.7545659332868
 20
49.99999998622016
 30
0.0
 11
298.7545659332868
 21
9.99999998622016
 31
0.0
  0
LINE
  5
DED
330
D57
100
AcDbEntity
  8
0
 62
     3
100
AcDbLine
 10
358.0000005732868
 20
33.99999998622016
 30
0.0
 11
298.7545659332868
 21
33.99999998622015
 31
0.0
  0
LINE
  5
DEE
330
D57
100
AcDbEntity
  8
0
 62
     3
100
AcDbLine
 10
341.2783255032866
 20
14.83286124622015
 30
0.0
 11
358.0000005732868
 21
14.83286124622015
 31
0.0
  0
LINE
  5
DEF
330
D57
100
AcDbEntity
  8
0
 62
     3
100
AcDbLine
 10
345.0000005732868
 20
40.99999998622015
 30
0.0
 11
353.0000005732868
 21
40.99999998622015
 31
0.0
  0
TEXT
  5
DF0
330
D57
100
AcDbEntity
  8
0
 62
     3
100
AcDbText
 10
342.1643259866026
 20
29.0730968395855
 30
0.0
 40
2.5
  1
******
  7
高2.5
100
AcDbText
  0
TEXT
  5
DF1
330
D57
100
AcDbEntity
  8
0
 62
     3
100
AcDbText
 10
313.196369268539
 20
29.29781439120407
 30
0.0
 40
2.5
  1
*****
  7
高2.5
100
AcDbText
  0
TEXT
  5
DF2
330
D57
100
AcDbEntity
  8
0
 62
     3
100
AcDbText
 10
313.4612770232363
 20
42.31224950997805
 30
0.0
 40
4.5
  1
**********
  7
高4.5
100
AcDbText
1001
ACAD
1000
ACAD_MTEXT_DEFINED_HEIGHT_BEGIN
1070
    46
1040
0.0
1000
ACAD_MTEXT_DEFINED_HEIGHT_END
  0
TEXT
  5
DF3
330
D57
100
AcDbEntity
  8
0
 62
     3
100
AcDbText
 10
400.0655896667607
 20
46.51369208492375
 30
0.0
 40
2.0
  1
DEF
  7
高2
100
AcDbText
  0
TEXT
  5
DF4
330
D57
100
AcDbEntity
  8
0
 62
     3
100
AcDbText
 10
386.1264913130526
 20
46.51369208492366
 30
0.0
 40
2.0
  1
DESN
  7
高2
100
AcDbText
  0
TEXT
  5
DF5
330
D57
100
AcDbEntity
  8
0
 62
     3
100
AcDbText
 10
359.8721243730524
 20
46.51369208492375
 30
0.0
 40
2.0
  1
APPD
  7
高2
100
AcDbText
  0
TEXT
  5
DF6
330
D57
100
AcDbEntity
  8
0
 62
     3
100
AcDbText
 10
372.9848604732867
 20
46.51369208492377
 30
0.0
 40
2.0
  1
CHCK
  7
高2
100
AcDbText
  0
TEXT
  5
DF7
330
D57
100
AcDbEntity
  8
0
 62
     3
100
AcDbText
 10
331.9271662124395
 20
24.16839880945088
 30
0.0
 40
2.0
  1
SCALE
 41
0.8
  7
高2
100
AcDbText
  0
TEXT
  5
DF8
330
D57
100
AcDbEntity
  8
0
 62
     3
100
AcDbText
 10
300.4391446363329
 20
24.16839880945089
 30
0.0
 40
2.0
  1
3AD　ANGLE
 41
1.5
  7
高2
100
AcDbText
  0
TEXT
  5
DF9
330
D57
100
AcDbEntity
  8
0
 62
     3
100
AcDbText
 10
331.1965719032883
 20
30.91993687840798
 30
0.0
 40
2.0
  1
REMARKS
 41
0.7
  7
高2
100
AcDbText
  0
TEXT
  5
DFA
330
D57
100
AcDbEntity
  8
0
 62
     3
100
AcDbText
 10
300.2222362832867
 20
30.99999998622016
 30
0.0
 40
2.0
  1
MATERIAL
 41
0.7
  7
高2
100
AcDbText
  0
TEXT
  5
DFB
330
D57
100
AcDbEntity
  8
0
 62
     3
100
AcDbText
 10
300.7987234860409
 20
37.99999998622015
 30
0.0
 40
2.0
  1
MODEL
  7
高2
100
AcDbText
  0
TEXT
  5
DFC
330
D57
100
AcDbEntity
  8
0
 62
     3
100
AcDbText
 10
300.4356443673721
 20
46.70702133681915
 30
0.0
 40
2.0
  1
CONPONENTS
 41
0.5
  7
高2
100
AcDbText
  0
TEXT
  5
DFD
330
D57
100
AcDbEntity
  8
0
 62
     3
100
AcDbText
 10
313.142759838539
 20
35.0874811140321
 30
0.0
 40
4.5
  1
********
  7
高4.5
100
AcDbText
  0
TEXT
  5
DFE
330
D57
100
AcDbEntity
  8
0
 62
     3
100
AcDbText
 10
361.0650463039053
 20
12.03846138158574
 30
0.0
 40
6.299999999999998
  1
*-********
 41
0.6
  7
高6.3
100
AcDbText
1001
ACAD
1000
ACAD_MTEXT_DEFINED_HEIGHT_BEGIN
1070
    46
1040
0.0
1000
ACAD_MTEXT_DEFINED_HEIGHT_END
  0
TEXT
  5
DFF
330
D57
100
AcDbEntity
  8
0
 62
     3
100
AcDbText
 10
374.5635103236164
 20
21.10088914445316
 30
0.0
 40
3.2
  1
******
  7
高3.2
100
AcDbText
1001
ACAD
1000
ACAD_MTEXT_DEFINED_HEIGHT_BEGIN
1070
    46
1040
0.0
1000
ACAD_MTEXT_DEFINED_HEIGHT_END
  0
TEXT
  5
E00
330
D57
100
AcDbEntity
  8
0
 62
     3
100
AcDbText
 10
344.7875984679331
 20
21.10091698878803
 30
0.0
 40
3.2
  1
1/1
  7
高3.2
100
AcDbText
  0
TEXT
  5
E01
330
D57
100
AcDbEntity
  8
0
 62
     3
100
AcDbText
 10
341.8649274432866
 20
10.81687815935612
 30
0.0
 40
3.2
  1
ZK-A3X
 41
0.8
  7
高3.2
100
AcDbText
  0
TEXT
  5
E02
330
D57
100
AcDbEntity
  8
0
 62
     3
100
AcDbText
 10
299.5852669732867
 20
16.52462040840798
 30
0.0
 40
2.0
  1
NICHIDO IND.CO.LTD
 41
1.3
  7
高2
100
AcDbText
  0
TEXT
  5
E03
330
D57
100
AcDbEntity
  8
0
 62
     3
100
AcDbText
 10
300.7667902382439
 20
42.14052819410508
 30
0.0
 40
3.2
  1
品 名
  7
高3.2
100
AcDbText
1001
ACAD
1000
ACAD_MTEXT_DEFINED_HEIGHT_BEGIN
1070
    46
1040
0.0
1000
ACAD_MTEXT_DEFINED_HEIGHT_END
  0
TEXT
  5
E04
330
D57
100
AcDbEntity
  8
0
 62
     3
100
AcDbText
 10
300.7667902382439
 20
34.49999998622015
 30
0.0
 40
3.2
  1
型 式
  7
高3.2
100
AcDbText
1001
ACAD
1000
ACAD_MTEXT_DEFINED_HEIGHT_BEGIN
1070
    46
1040
3.064735913775952
1000
ACAD_MTEXT_DEFINED_HEIGHT_END
  0
TEXT
  5
E05
330
D57
100
AcDbEntity
  8
0
 62
     3
100
AcDbText
 10
300.7667902382439
 20
27.49999998622016
 30
0.0
 40
3.2
  1
材 質
  7
高3.2
100
AcDbText
1001
ACAD
1000
ACAD_MTEXT_DEFINED_HEIGHT_BEGIN
1070
    46
1040
0.0
1000
ACAD_MTEXT_DEFINED_HEIGHT_END
  0
TEXT
  5
E06
330
D57
100
AcDbEntity
  8
0
 62
     3
100
AcDbText
 10
300.4617552882439
 20
20.4674399784664
 30
0.0
 40
3.2
  1
第 三 角 法
  7
高3.2
100
AcDbText
1001
ACAD
1000
ACAD_MTEXT_DEFINED_HEIGHT_BEGIN
1070
    46
1040
0.0
1000
ACAD_MTEXT_DEFINED_HEIGHT_END
  0
TEXT
  5
E07
330
D57
100
AcDbEntity
  8
0
 62
     3
100
AcDbText
 10
298.8682878957727
 20
11.14052819410509
 30
0.0
 40
3.2
  1
日動工業株式会社
 41
1.199999999999999
  7
高3.2
100
AcDbText
1001
ACAD
1000
ACAD_MTEXT_DEFINED_HEIGHT_BEGIN
1070
    46
1040
0.0
1000
ACAD_MTEXT_DEFINED_HEIGHT_END
  0
TEXT
  5
E08
330
D57
100
AcDbEntity
  8
0
 62
     3
100
AcDbText
 10
332.5039120952514
 20
27.38457851938772
 30
0.0
 40
3.2
  1
備考
  7
高3.2
100
AcDbText
1001
ACAD
1000
ACAD_MTEXT_DEFINED_HEIGHT_BEGIN
1070
    46
1040
0.0
1000
ACAD_MTEXT_DEFINED_HEIGHT_END
  0
TEXT
  5
E09
330
D57
100
AcDbEntity
  8
0
 62
     3
100
AcDbText
 10
342.1529695422866
 20
16.14623001179045
 30
0.0
 40
2.5
  1
出図コード
  7
高2.5
100
AcDbText
1001
ACAD
1000
ACAD_MTEXT_DEFINED_HEIGHT_BEGIN
1070
    46
1040
0.0
1000
ACAD_MTEXT_DEFINED_HEIGHT_END
  0
TEXT
  5
E0A
330
D57
100
AcDbEntity
  8
0
 62
     3
100
AcDbText
 10
332.3451459771638
 20
20.45323489663308
 30
0.0
 40
3.2
  1
尺度
  7
高3.2
100
AcDbText
1001
ACAD
1000
ACAD_MTEXT_DEFINED_HEIGHT_BEGIN
1070
    46
1040
0.0
1000
ACAD_MTEXT_DEFINED_HEIGHT_END
  0
TEXT
  5
E0B
330
D57
100
AcDbEntity
  8
0
 62
     3
100
AcDbText
 10
359.4914074589427
 20
21.58471334475057
 30
0.0
 40
3.2
  1
作成日
  7
高3.2
100
AcDbText
1001
ACAD
1000
ACAD_MTEXT_DEFINED_HEIGHT_BEGIN
1070
    46
1040
0.0
1000
ACAD_MTEXT_DEFINED_HEIGHT_END
  0
TEXT
  5
E0C
330
D57
100
AcDbEntity
  8
0
 62
     3
100
AcDbText
 10
359.3858814658065
 20
42.14052819410508
 30
0.0
 40
3.2
  1
承 認
  7
高3.2
100
AcDbText
1001
ACAD
1000
ACAD_MTEXT_DEFINED_HEIGHT_BEGIN
1070
    46
1040
0.0
1000
ACAD_MTEXT_DEFINED_HEIGHT_END
  0
TEXT
  5
E0D
330
D57
100
AcDbEntity
  8
0
 62
     3
100
AcDbText
 10
372.3858814658065
 20
42.14052819410508
 30
0.0
 40
3.2
  1
検 図
  7
高3.2
100
AcDbText
1001
ACAD
1000
ACAD_MTEXT_DEFINED_HEIGHT_BEGIN
1070
    46
1040
0.0
1000
ACAD_MTEXT_DEFINED_HEIGHT_END
  0
TEXT
  5
E0E
330
D57
100
AcDbEntity
  8
0
 62
     3
100
AcDbText
 10
385.3858814658065
 20
42.14052819410508
 30
0.0
 40
3.2
  1
設 計
  7
高3.2
100
AcDbText
1001
ACAD
1000
ACAD_MTEXT_DEFINED_HEIGHT_BEGIN
1070
    46
1040
0.0
1000
ACAD_MTEXT_DEFINED_HEIGHT_END
  0
TEXT
  5
E0F
330
D57
100
AcDbEntity
  8
0
 62
     3
100
AcDbText
 10
398.6865179858063
 20
42.14052819410508
 30
0.0
 40
3.2
  1
製 図
  7
高3.2
100
AcDbText
1001
ACAD
1000
ACAD_MTEXT_DEFINED_HEIGHT_BEGIN
1070
    46
1040
0.0
1000
ACAD_MTEXT_DEFINED_HEIGHT_END
  0
TEXT
  5
E10
330
D57
100
AcDbEntity
  8
0
 62
     3
100
AcDbText
 10
397.5000005732866
 20
274.4999999862201
 30
0.0
 40
3.2
  1
担　当
  7
高3.2
100
AcDbText
  0
TEXT
  5
E11
330
D57
100
AcDbEntity
  8
0
 62
     3
100
AcDbText
 10
353.5000005732866
 20
274.4999999862201
 30
0.0
 40
3.2
  1
変更・追記内容
  7
高3.2
100
AcDbText
  0
TEXT
  5
E12
330
D57
100
AcDbEntity
  8
0
 62
     3
100
AcDbText
 10
328.6135155736258
 20
269.8294614763118
 30
0.0
 40
2.0
  1
1
  7
高2
100
AcDbText
  0
TEXT
  5
E13
330
D57
100
AcDbEntity
  8
0
 62
     3
100
AcDbText
 10
328.3050040968685
 20
264.6596447640389
 30
0.0
 40
2.0
  1
2
  7
高2
100
AcDbText
  0
TEXT
  5
E14
330
D57
100
AcDbEntity
  8
0
 62
     3
100
AcDbText
 10
335.5000005732866
 20
274.4999999862201
 30
0.0
 40
3.2
  1
日　付
  7
高3.2
100
AcDbText
  0
TEXT
  5
E15
330
D57
100
AcDbEntity
  8
0
 62
     3
100
AcDbText
 10
335.5000005732866
 20
279.4999999862201
 30
0.0
 40
3.2
  1
図　　　　面　　　　略　　　　歴
  7
高3.2
100
AcDbText
  0
TEXT
  5
E16
330
D57
100
AcDbEntity
  8
0
 62
     3
100
AcDbText
 10
325.5000005732866
 20
274.4999999862201
 30
0.0
 40
3.2
  1
記号
  7
高3.2
100
AcDbText
  0
LINE
  5
E17
330
D57
100
AcDbEntity
  8
0
 62
     7
100
AcDbLine
 10
329.0000005732866
 20
267.7908959862202
 30
0.0
 11
327.1000005732867
 21
264.4999999862201
 31
0.0
  0
LINE
  5
E18
330
D57
100
AcDbEntity
  8
0
 62
     7
100
AcDbLine
 10
329.0000005732866
 20
267.7908959862202
 30
0.0
 11
330.9000005732867
 21
264.4999999862201
 31
0.0
  0
LINE
  5
E19
330
D57
100
AcDbEntity
  8
0
 62
     7
100
AcDbLine
 10
327.1000005732867
 20
264.4999999862201
 30
0.0
 11
330.9000005732867
 21
264.4999999862201
 31
0.0
  0
LINE
  5
E1A
330
D57
100
AcDbEntity
  8
0
 62
     7
100
AcDbLine
 10
329.0000005732866
 20
272.7908969862202
 30
0.0
 11
327.1000005732867
 21
269.4999999862201
 31
0.0
  0
LINE
  5
E1B
330
D57
100
AcDbEntity
  8
0
 62
     7
100
AcDbLine
 10
329.0000005732866
 20
272.7908969862202
 30
0.0
 11
330.9000005732867
 21
269.4999999862201
 31
0.0
  0
LINE
  5
E1C
330
D57
100
AcDbEntity
  8
0
 62
     7
100
AcDbLine
 10
327.1000005732867
 20
269.4999999862201
 30
0.0
 11
330.9000005732867
 21
269.4999999862201
 31
0.0
  0
LINE
  5
E1D
330
D57
100
AcDbEntity
  8
0
 62
     3
100
AcDbLine
 10
324.0000005732866
 20
278.9999999862201
 30
0.0
 11
410.0000005732865
 21
278.9999999862201
 31
0.0
  0
LINE
  5
E1E
330
D57
100
AcDbEntity
  8
0
 62
     3
100
AcDbLine
 10
324.0000005732866
 20
273.9999999862201
 30
0.0
 11
410.0000005732865
 21
273.9999999862201
 31
0.0
  0
LINE
  5
E1F
330
D57
100
AcDbEntity
  8
0
 62
     7
100
AcDbLine
 10
324.0000005732866
 20
268.9999999862201
 30
0.0
 11
410.0000005732865
 21
268.9999999862201
 31
0.0
  0
LINE
  5
E20
330
D57
100
AcDbEntity
  8
0
 62
     3
100
AcDbLine
 10
324.0000005732866
 20
263.9999999862201
 30
0.0
 11
410.0000005732865
 21
263.9999999862201
 31
0.0
  0
LINE
  5
E21
330
D57
100
AcDbEntity
  8
0
 62
     7
100
AcDbLine
 10
396.0000005732866
 20
263.9999999862201
 30
0.0
 11
396.0000005732866
 21
278.9999999862201
 31
0.0
  0
LINE
  5
E22
330
D57
100
AcDbEntity
  8
0
 62
     7
100
AcDbLine
 10
352.0000005732866
 20
263.9999999862201
 30
0.0
 11
352.0000005732866
 21
278.9999999862201
 31
0.0
  0
LINE
  5
E23
330
D57
100
AcDbEntity
  8
0
 62
     7
100
AcDbLine
 10
334.0000005732866
 20
263.9999999862201
 30
0.0
 11
334.0000005732866
 21
278.9999999862201
 31
0.0
  0
LINE
  5
E24
330
D57
100
AcDbEntity
  8
0
 62
     3
100
AcDbLine
 10
324.0000005732866
 20
263.9999999862201
 30
0.0
 11
324.0000005732866
 21
283.9999999862201
 31
0.0
  0
ENDBLK
  5
E28
330
D57
100
AcDbEntity
  8
0
100
AcDbBlockEnd
  0
BLOCK
  5
1193
330
10C4
100
AcDbEntity
  8
0
100
AcDbBlockBegin
  2
A$C478E5F75
 70
     0
 10
0.0
 20
0.0
 30
0.0
  3
A$C478E5F75
  1

  0
LINE
  5
10C5
330
10C4
100
AcDbEntity
  8
0
 62
     3
100
AcDbLine
 10
19.99999956930423
 20
283.9999999780495
 30
0.0
 11
19.99999956930423
 21
9.999999978049487
 31
0.0
  0
LINE
  5
10C6
330
10C4
100
AcDbEntity
  8
0
 62
     3
100
AcDbLine
 10
409.9999995693043
 20
9.999999978049487
 30
0.0
 11
409.9999995693043
 21
283.9999999780495
 31
0.0
  0
LINE
  5
10C7
330
10C4
100
AcDbEntity
  8
0
 62
     3
100
AcDbLine
 10
19.99999956930423
 20
9.999999978049487
 30
0.0
 11
409.9999995693043
 21
9.999999978049487
 31
0.0
  0
LINE
  5
10C8
330
10C4
100
AcDbEntity
  8
0
 62
     3
100
AcDbLine
 10
197.7748890393043
 20
286.4400021180495
 30
0.0
 11
198.3973860493042
 21
286.1150476380494
 31
0.0
  0
LINE
  5
10C9
330
10C4
100
AcDbEntity
  8
0
 62
     3
100
AcDbLine
 10
197.7748890393043
 20
281.1105300180494
 30
0.0
 11
198.3973860493042
 21
281.4354844980495
 31
0.0
  0
LINE
  5
10CA
330
10C4
100
AcDbEntity
  8
0
 62
     3
100
AcDbLine
 10
198.3973860493042
 20
286.1150476380494
 30
0.0
 11
198.3973860493042
 21
281.4354844980495
 31
0.0
  0
LINE
  5
10CB
330
10C4
100
AcDbEntity
  8
0
 62
     3
100
AcDbLine
 10
199.9738395093043
 20
281.1105300180494
 30
0.0
 11
199.3513424993043
 21
281.4354844980495
 31
0.0
  0
LINE
  5
10CC
330
10C4
100
AcDbEntity
  8
0
 62
     3
100
AcDbLine
 10
199.3513424993043
 20
284.2881399480494
 30
0.0
 11
199.3513424993043
 21
281.4354844980495
 31
0.0
  0
LINE
  5
10CD
330
10C4
100
AcDbEntity
  8
0
 62
     3
100
AcDbLine
 10
203.6050720493045
 20
286.4400021180495
 30
0.0
 11
202.9825750493044
 21
286.1150476380494
 31
0.0
  0
LINE
  5
10CE
330
10C4
100
AcDbEntity
  8
0
 62
     3
100
AcDbLine
 10
201.4061215793045
 20
286.4400021180495
 30
0.0
 11
202.0286185893044
 21
286.1150476380494
 31
0.0
  0
LINE
  5
10CF
330
10C4
100
AcDbEntity
  8
0
 62
     3
100
AcDbLine
 10
202.0286185893044
 20
286.1150476380494
 30
0.0
 11
202.0286185893044
 21
284.0545661180495
 31
0.0
  0
LINE
  5
10D0
330
10C4
100
AcDbEntity
  8
0
 62
     3
100
AcDbLine
 10
202.9825750493044
 20
286.1150476380494
 30
0.0
 11
202.9825750493044
 21
280.8082998080495
 31
0.0
  0
LINE
  5
10D1
330
10C4
100
AcDbEntity
  8
0
 62
     3
100
AcDbLine
 10
203.9126394893044
 20
286.4399983680495
 30
0.0
 11
204.5351342493043
 21
286.1150395980494
 31
0.0
  0
LINE
  5
10D2
330
10C4
100
AcDbEntity
  8
0
 62
     3
100
AcDbLine
 10
203.9125280993044
 20
281.1106014080494
 30
0.0
 11
204.5350364493042
 21
281.4355341580494
 31
0.0
  0
LINE
  5
10D3
330
10C4
100
AcDbEntity
  8
0
 62
     3
100
AcDbLine
 10
204.5351342493043
 20
286.1150395980494
 30
0.0
 11
204.5351342493043
 21
281.4355341580494
 31
0.0
  0
LINE
  5
10D4
330
10C4
100
AcDbEntity
  8
0
 62
     3
100
AcDbLine
 10
206.6691200493044
 20
286.4399645480495
 30
0.0
 11
206.0466184893044
 21
286.1150187880495
 31
0.0
  0
LINE
  5
10D5
330
10C4
100
AcDbEntity
  8
0
 62
     3
100
AcDbLine
 10
206.0466184893044
 20
286.1150187880495
 30
0.0
 11
206.0466184893044
 21
281.4355133480494
 31
0.0
  0
LINE
  5
10D6
330
10C4
100
AcDbEntity
  8
0
 62
     3
100
AcDbLine
 10
206.6691200493044
 20
281.1105675880494
 30
0.0
 11
206.0466184893044
 21
281.4355133480494
 31
0.0
  0
LINE
  5
10D7
330
10C4
100
AcDbEntity
  8
0
 62
     3
100
AcDbLine
 10
211.9409106793043
 20
286.4399059780494
 30
0.0
 11
212.5634065593045
 21
286.1149493580494
 31
0.0
  0
LINE
  5
10D8
330
10C4
100
AcDbEntity
  8
0
 62
     3
100
AcDbLine
 10
212.5634065593045
 20
286.1149493580494
 30
0.0
 11
212.5633248893044
 21
281.4354439080495
 31
0.0
  0
LINE
  5
10D9
330
10C4
100
AcDbEntity
  8
0
 62
     3
100
AcDbLine
 10
211.9408176593042
 20
281.1105090180495
 30
0.0
 11
212.5633248893044
 21
281.4354439080495
 31
0.0
  0
LINE
  5
10DA
330
10C4
100
AcDbEntity
  8
0
 62
     3
100
AcDbLine
 10
214.7298549193042
 20
286.4399059780494
 30
0.0
 11
214.1073590293045
 21
286.1149493580494
 31
0.0
  0
LINE
  5
10DB
330
10C4
100
AcDbEntity
  8
0
 62
     3
100
AcDbLine
 10
214.7299479293042
 20
281.1105090180495
 30
0.0
 11
214.1074406993043
 21
281.4354439080495
 31
0.0
  0
LINE
  5
10DC
330
10C4
100
AcDbEntity
  8
0
 62
     3
100
AcDbLine
 10
215.0208947193044
 20
286.4399059780494
 30
0.0
 11
215.6433905993044
 21
286.1149493580494
 31
0.0
  0
LINE
  5
10DD
330
10C4
100
AcDbEntity
  8
0
 62
     3
100
AcDbLine
 10
215.0208016993042
 20
281.1105090180495
 30
0.0
 11
215.6433089293043
 21
281.4354439080495
 31
0.0
  0
LINE
  5
10DE
330
10C4
100
AcDbEntity
  8
0
 62
     3
100
AcDbLine
 10
217.8098389493043
 20
286.4399059780494
 30
0.0
 11
217.1873430693044
 21
286.1149493580494
 31
0.0
  0
LINE
  5
10DF
330
10C4
100
AcDbEntity
  8
0
 62
     3
100
AcDbLine
 10
217.1873430693044
 20
286.1149493580494
 30
0.0
 11
217.1874247393043
 21
281.4354439080495
 31
0.0
  0
LINE
  5
10E0
330
10C4
100
AcDbEntity
  8
0
 62
     3
100
AcDbLine
 10
217.8099319693042
 20
281.1105090180495
 30
0.0
 11
217.1874247393043
 21
281.4354439080495
 31
0.0
  0
LINE
  5
10E1
330
10C4
100
AcDbEntity
  8
0
 62
     3
100
AcDbLine
 10
215.6433550193044
 20
284.0761877580495
 30
0.0
 11
214.1073946093043
 21
284.0761877580495
 31
0.0
  0
LINE
  5
10E2
330
10C4
100
AcDbEntity
  8
0
 62
     3
100
AcDbLine
 10
215.6433445193043
 20
283.4743443780494
 30
0.0
 11
214.1074051093044
 21
283.4743443780494
 31
0.0
  0
LINE
  5
10E3
330
10C4
100
AcDbEntity
  8
0
 62
     3
100
AcDbLine
 10
215.6433905993044
 20
286.1149493580494
 30
0.0
 11
215.6433550193044
 21
284.0761877580495
 31
0.0
  0
LINE
  5
10E4
330
10C4
100
AcDbEntity
  8
0
 62
     3
100
AcDbLine
 10
215.6433445193043
 20
283.4743443780494
 30
0.0
 11
215.6433089293043
 21
281.4354439080495
 31
0.0
  0
LINE
  5
10E5
330
10C4
100
AcDbEntity
  8
0
 62
     3
100
AcDbLine
 10
214.1073590293045
 20
286.1149493580494
 30
0.0
 11
214.1073946093043
 21
284.0761877580495
 31
0.0
  0
LINE
  5
10E6
330
10C4
100
AcDbEntity
  8
0
 62
     3
100
AcDbLine
 10
214.1074051093044
 20
283.4743443780494
 30
0.0
 11
214.1074406993043
 21
281.4354439080495
 31
0.0
  0
LINE
  5
10E7
330
10C4
100
AcDbEntity
  8
0
 62
     3
100
AcDbLine
 10
218.1054948393044
 20
286.4399059780494
 30
0.0
 11
218.7279907293044
 21
286.1149493580494
 31
0.0
  0
LINE
  5
10E8
330
10C4
100
AcDbEntity
  8
0
 62
     3
100
AcDbLine
 10
218.7279907293044
 20
286.1149493580494
 30
0.0
 11
218.7279090493043
 21
281.4354439080495
 31
0.0
  0
LINE
  5
10E9
330
10C4
100
AcDbEntity
  8
0
 62
     3
100
AcDbLine
 10
218.1054018193044
 20
281.1105090180495
 30
0.0
 11
218.7279090493043
 21
281.4354439080495
 31
0.0
  0
LINE
  5
10EA
330
10C4
100
AcDbEntity
  8
0
 62
     3
100
AcDbLine
 10
220.8619380793043
 20
286.4399059780494
 30
0.0
 11
220.2394421893043
 21
286.1149493580494
 31
0.0
  0
LINE
  5
10EB
330
10C4
100
AcDbEntity
  8
0
 62
     3
100
AcDbLine
 10
220.2394421893043
 20
286.1149493580494
 30
0.0
 11
220.2395238693043
 21
281.4354439080495
 31
0.0
  0
LINE
  5
10EC
330
10C4
100
AcDbEntity
  8
0
 62
     3
100
AcDbLine
 10
220.8620310993042
 20
281.1105090180495
 30
0.0
 11
220.2395238693043
 21
281.4354439080495
 31
0.0
  0
LINE
  5
10ED
330
10C4
100
AcDbEntity
  8
0
 62
     3
100
AcDbLine
 10
221.1681660293043
 20
286.4399059780494
 30
0.0
 11
221.7906619193043
 21
286.1149493580494
 31
0.0
  0
LINE
  5
10EE
330
10C4
100
AcDbEntity
  8
0
 62
     3
100
AcDbLine
 10
221.7906619193043
 20
286.1149493580494
 30
0.0
 11
221.7905802493044
 21
281.4354439080495
 31
0.0
  0
LINE
  5
10EF
330
10C4
100
AcDbEntity
  8
0
 62
     3
100
AcDbLine
 10
221.1680730193043
 20
281.1105090180495
 30
0.0
 11
221.7905802493044
 21
281.4354439080495
 31
0.0
  0
ARC
  5
10F0
330
10C4
100
AcDbEntity
  8
0
 62
     3
100
AcDbCircle
 10
209.9524660093043
 20
283.7886800080495
 30
0.0
 40
2.98040844
100
AcDbArc
 50
97.70152350999723
 51
270.0
  0
ARC
  5
10F1
330
10C4
100
AcDbEntity
  8
0
 62
     3
100
AcDbCircle
 10
228.3533243493043
 20
283.7587419680494
 30
0.0
 40
3.012776259999998
100
AcDbArc
 50
0.314250269999259
 51
69.00558245000303
  0
ARC
  5
10F2
330
10C4
100
AcDbEntity
  8
0
 62
     3
100
AcDbCircle
 10
229.0114319593044
 20
283.7587419680494
 30
0.0
 40
3.012776259999998
100
AcDbArc
 50
110.9944175499969
 51
148.1166110200042
  0
ARC
  5
10F3
330
10C4
100
AcDbEntity
  8
0
 62
     3
100
AcDbCircle
 10
228.3533243493043
 20
283.7917901680495
 30
0.0
 40
3.012776259999998
100
AcDbArc
 50
290.9944175499969
 51
359.6857497300007
  0
ARC
  5
10F4
330
10C4
100
AcDbEntity
  8
0
 62
     3
100
AcDbCircle
 10
229.0114319593044
 20
283.7917901680495
 30
0.0
 40
3.012776259999998
100
AcDbArc
 50
211.8833889799958
 51
249.005582450003
  0
ARC
  5
10F5
330
10C4
100
AcDbEntity
  8
0
 62
     3
100
AcDbCircle
 10
228.6823781593043
 20
285.0078451980495
 30
0.0
 40
1.73438712
100
AcDbArc
 50
64.3651718999996
 51
115.6348281000004
  0
ARC
  5
10F6
330
10C4
100
AcDbEntity
  8
0
 62
     3
100
AcDbCircle
 10
228.6823781593043
 20
282.5426869380494
 30
0.0
 40
1.73438712
100
AcDbArc
 50
244.3651718999996
 51
295.6348281000004
  0
ARC
  5
10F7
330
10C4
100
AcDbEntity
  8
0
 62
     3
100
AcDbCircle
 10
228.6823781593043
 20
285.0407904580494
 30
0.0
 40
0.85122233
100
AcDbArc
 50
19.48660554000363
 51
160.5133944599963
  0
ARC
  5
10F8
330
10C4
100
AcDbEntity
  8
0
 62
     3
100
AcDbCircle
 10
228.6823781593043
 20
282.5426869380494
 30
0.0
 40
1.73438712
100
AcDbArc
 50
244.3651718999996
 51
295.6348281000004
  0
ARC
  5
10F9
330
10C4
100
AcDbEntity
  8
0
 62
     3
100
AcDbCircle
 10
228.6823781593043
 20
282.5097416780494
 30
0.0
 40
0.85122233
100
AcDbArc
 50
199.4866055400036
 51
340.5133944599964
  0
ARC
  5
10FA
330
10C4
100
AcDbEntity
  8
0
 62
     3
100
AcDbCircle
 10
221.9074174393045
 20
252.0208948680495
 30
0.0
 40
37.20000000000001
100
AcDbArc
 50
69.50571480000832
 51
81.68998807001051
  0
ARC
  5
10FB
330
10C4
100
AcDbEntity
  8
0
 62
     3
100
AcDbCircle
 10
221.9074174393045
 20
315.5296372680494
 30
0.0
 40
37.20000000000001
100
AcDbArc
 50
278.3100119299894
 51
290.4942851999917
  0
ARC
  5
10FC
330
10C4
100
AcDbEntity
  8
0
 62
     3
100
AcDbCircle
 10
233.7762804793042
 20
283.7752660680494
 30
0.0
 40
3.299999999999998
100
AcDbArc
 50
290.4942851999917
 51
69.50571480000832
  0
ARC
  5
10FD
330
10C4
100
AcDbEntity
  8
0
 62
     3
100
AcDbCircle
 10
194.7762804793042
 20
283.7752660680494
 30
0.0
 40
3.299999999999998
100
AcDbArc
 50
110.4942851999916
 51
249.5057148000083
  0
ARC
  5
10FE
330
10C4
100
AcDbEntity
  8
0
 62
     3
100
AcDbCircle
 10
206.6451435093045
 20
252.0208948680495
 30
0.0
 40
37.20000000000001
100
AcDbArc
 50
98.31001192998948
 51
110.4942851999916
  0
ARC
  5
10FF
330
10C4
100
AcDbEntity
  8
0
 62
     3
100
AcDbCircle
 10
206.6451435093045
 20
315.5296372680494
 30
0.0
 40
37.20000000000001
100
AcDbArc
 50
249.5057148000083
 51
261.6899880699973
  0
ARC
  5
1100
330
10C4
100
AcDbEntity
  8
0
 62
     3
100
AcDbCircle
 10
214.2762804793042
 20
199.7752660680494
 30
0.0
 40
89.99999981
100
AcDbArc
 50
81.68998807001051
 51
98.31001192998948
  0
ARC
  5
1101
330
10C4
100
AcDbEntity
  8
0
 62
     3
100
AcDbCircle
 10
214.2762804793042
 20
367.7752660680494
 30
0.0
 40
89.99999981
100
AcDbArc
 50
261.6899880699973
 51
278.3100119299894
  0
ARC
  5
1102
330
10C4
100
AcDbEntity
  8
0
 62
     3
100
AcDbCircle
 10
214.2762804793042
 20
199.7752660680494
 30
0.0
 40
89.09999981
100
AcDbArc
 50
81.68998807001051
 51
98.31001192998948
  0
ARC
  5
1103
330
10C4
100
AcDbEntity
  8
0
 62
     3
100
AcDbCircle
 10
214.2762804793042
 20
367.7752660680494
 30
0.0
 40
89.09999981
100
AcDbArc
 50
261.6899880699973
 51
278.3100119299894
  0
ARC
  5
1104
330
10C4
100
AcDbEntity
  8
0
 62
     3
100
AcDbCircle
 10
221.9074174393045
 20
315.5296372680494
 30
0.0
 40
36.3
100
AcDbArc
 50
278.3100119299894
 51
290.4942851999917
  0
ARC
  5
1105
330
10C4
100
AcDbEntity
  8
0
 62
     3
100
AcDbCircle
 10
221.9074174393045
 20
252.0208948680495
 30
0.0
 40
36.3
100
AcDbArc
 50
69.50571480000832
 51
81.68998807001051
  0
ARC
  5
1106
330
10C4
100
AcDbEntity
  8
0
 62
     3
100
AcDbCircle
 10
233.7762804793042
 20
283.7752660680494
 30
0.0
 40
2.399999999999999
100
AcDbArc
 50
290.4942851999917
 51
69.50571480000832
  0
ARC
  5
1107
330
10C4
100
AcDbEntity
  8
0
 62
     3
100
AcDbCircle
 10
194.7762804793042
 20
283.7752660680494
 30
0.0
 40
2.399999999999999
100
AcDbArc
 50
110.4942851999916
 51
249.5057148000083
  0
ARC
  5
1108
330
10C4
100
AcDbEntity
  8
0
 62
     3
100
AcDbCircle
 10
206.6451435093045
 20
252.0208948680495
 30
0.0
 40
36.3
100
AcDbArc
 50
98.31001192998948
 51
110.4942851999916
  0
ARC
  5
1109
330
10C4
100
AcDbEntity
  8
0
 62
     3
100
AcDbCircle
 10
206.6451435093045
 20
315.5296372680494
 30
0.0
 40
36.3
100
AcDbArc
 50
249.5057148000083
 51
261.6899880699973
  0
LINE
  5
110A
330
10C4
100
AcDbEntity
  8
0
 62
     3
100
AcDbLine
 10
220.8619391993043
 20
280.8082998080495
 30
0.0
 11
218.1054937193044
 21
280.8082998080495
 31
0.0
  0
LINE
  5
110B
330
10C4
100
AcDbEntity
  8
0
 62
     3
100
AcDbLine
 10
220.8619391993043
 20
281.1105300180494
 30
0.0
 11
220.8619391993043
 21
280.8082998080495
 31
0.0
  0
LINE
  5
110C
330
10C4
100
AcDbEntity
  8
0
 62
     3
100
AcDbLine
 10
217.8098400693043
 20
286.7420912980494
 30
0.0
 11
215.0208935993044
 21
286.7420912980494
 31
0.0
  0
LINE
  5
110D
330
10C4
100
AcDbEntity
  8
0
 62
     3
100
AcDbLine
 10
217.8098400693043
 20
286.7420912980494
 30
0.0
 11
217.8098400693043
 21
286.4400021180495
 31
0.0
  0
LINE
  5
110E
330
10C4
100
AcDbEntity
  8
0
 62
     3
100
AcDbLine
 10
217.8098400693043
 20
281.1105300180494
 30
0.0
 11
217.8098400693043
 21
280.8081587880495
 31
0.0
  0
LINE
  5
110F
330
10C4
100
AcDbEntity
  8
0
 62
     3
100
AcDbLine
 10
217.8098400693043
 20
280.8081587880495
 30
0.0
 11
215.0208935993044
 21
280.8081587880495
 31
0.0
  0
LINE
  5
1110
330
10C4
100
AcDbEntity
  8
0
 62
     3
100
AcDbLine
 10
220.8619391993043
 20
286.7422323280495
 30
0.0
 11
220.8619391993043
 21
286.4400021180495
 31
0.0
  0
LINE
  5
1111
330
10C4
100
AcDbEntity
  8
0
 62
     3
100
AcDbLine
 10
220.8619391993043
 20
286.7422323280495
 30
0.0
 11
218.1054937193044
 21
286.7422323280495
 31
0.0
  0
LINE
  5
1112
330
10C4
100
AcDbEntity
  8
0
 62
     3
100
AcDbLine
 10
218.1054937193044
 20
286.7422323280495
 30
0.0
 11
218.1054937193044
 21
286.4400021180495
 31
0.0
  0
LINE
  5
1113
330
10C4
100
AcDbEntity
  8
0
 62
     3
100
AcDbLine
 10
221.1681649093043
 20
281.1105300180494
 30
0.0
 11
221.1681649093043
 21
280.8082998080495
 31
0.0
  0
LINE
  5
1114
330
10C4
100
AcDbEntity
  8
0
 62
     3
100
AcDbLine
 10
224.0028799993043
 20
280.8082998080495
 30
0.0
 11
221.1681649093043
 21
280.8082998080495
 31
0.0
  0
LINE
  5
1115
330
10C4
100
AcDbEntity
  8
0
 62
     3
100
AcDbLine
 10
223.3021133893044
 20
285.7882758680495
 30
0.0
 11
223.3021133893044
 21
281.7622562680494
 31
0.0
  0
LINE
  5
1116
330
10C4
100
AcDbEntity
  8
0
 62
     3
100
AcDbLine
 10
223.3021133893044
 20
281.7622562680494
 30
0.0
 11
223.5736119093044
 21
281.7622562680494
 31
0.0
  0
ARC
  5
1117
330
10C4
100
AcDbEntity
  8
0
 62
     3
100
AcDbCircle
 10
222.1853465693043
 20
283.7752660680494
 30
0.0
 40
2.44529939
100
AcDbArc
 50
304.5919552700016
 51
55.40804472999841
  0
LINE
  5
1118
330
10C4
100
AcDbEntity
  8
0
 62
     3
100
AcDbLine
 10
224.0028799993043
 20
286.7422323280495
 30
0.0
 11
221.1681649093043
 21
286.7422323280495
 31
0.0
  0
LINE
  5
1119
330
10C4
100
AcDbEntity
  8
0
 62
     3
100
AcDbLine
 10
221.1681649093043
 20
286.7422323280495
 30
0.0
 11
221.1681649093043
 21
286.4400021180495
 31
0.0
  0
LINE
  5
111A
330
10C4
100
AcDbEntity
  8
0
 62
     3
100
AcDbLine
 10
218.1054937193044
 20
281.1105300180494
 30
0.0
 11
218.1054937193044
 21
280.8082998080495
 31
0.0
  0
LINE
  5
111B
330
10C4
100
AcDbEntity
  8
0
 62
     3
100
AcDbLine
 10
223.3021133893044
 20
285.7882758680495
 30
0.0
 11
223.5736119093044
 21
285.7882758680495
 31
0.0
  0
LINE
  5
111C
330
10C4
100
AcDbEntity
  8
0
 62
     3
100
AcDbLine
 10
206.6690281493043
 20
281.1105300180494
 30
0.0
 11
206.6690228793043
 21
280.8082715680495
 31
0.0
  0
LINE
  5
111D
330
10C4
100
AcDbEntity
  8
0
 62
     3
100
AcDbLine
 10
203.9125773993044
 20
280.8083280580495
 30
0.0
 11
206.6690228793043
 21
280.8082799480494
 31
0.0
  0
LINE
  5
111E
330
10C4
100
AcDbEntity
  8
0
 62
     3
100
AcDbLine
 10
197.7748890393043
 20
280.8082998080495
 30
0.0
 11
199.9738395093043
 21
280.8082998080495
 31
0.0
  0
ARC
  5
111F
330
10C4
100
AcDbEntity
  8
0
 62
     3
100
AcDbCircle
 10
190.6578280693043
 20
283.8451326780495
 30
0.0
 40
21.01937947
100
AcDbArc
 50
353.8660061899987
 51
357.6940342600001
  0
LINE
  5
1120
330
10C4
100
AcDbEntity
  8
0
 62
     3
100
AcDbLine
 10
210.2529421593045
 20
283.0046074580494
 30
0.0
 11
211.6601862793043
 21
282.9994004880494
 31
0.0
  0
LWPOLYLINE
  5
1121
330
10C4
100
AcDbEntity
  8
0
 62
     3
100
AcDbPolyline
 90
       64
 70
     0
 43
0.0
 10
210.2586256093043
 20
284.5406285180494
 10
210.2320148593044
 20
284.7110110380495
 10
210.2000560293045
 20
284.8741607280494
 10
210.1629961293042
 20
285.0288165280495
 10
210.1211216293043
 20
285.1737830280494
 10
210.0747561993044
 20
285.3079397180495
 10
210.0242582093042
 20
285.4302496180494
 10
209.9700179893043
 20
285.5397673580494
 10
209.9124547893043
 20
285.6356464080494
 10
209.8520135393044
 20
285.7171456780494
 10
209.7891614193045
 20
285.7836352180494
 10
209.7243842393043
 20
285.8346010980495
 10
209.6581827093043
 20
285.8696493780494
 10
209.5910685193044
 20
285.8885091480495
 10
209.5235604293043
 20
285.8910346480494
 10
209.4561802393043
 20
285.8772063380494
 10
209.3894487693044
 20
285.8471311080494
 10
209.3238818293043
 20
285.8010414380494
 10
209.2599861893043
 20
285.7392935580494
 10
209.1982557593044
 20
285.6623647680494
 10
209.1391676693042
 20
285.5708496680495
 10
209.0831786393044
 20
285.4654556380495
 10
209.0307214393042
 20
285.3469973080495
 10
208.9822015393042
 20
285.2163902980494
 10
208.9379939593043
 20
285.0746441480494
 10
208.8984404193043
 20
284.9228544780494
 10
208.8638466393045
 20
284.7621945380495
 10
208.8344800093044
 20
284.5939061480494
 10
208.8105675193044
 20
284.4192900880495
 10
208.7922940093045
 20
284.2396960580495
 10
208.7798007093042
 20
284.0565122180494
 10
208.7731841993043
 20
283.8711544980494
 10
208.7724956093043
 20
283.6850555980494
 10
208.7777402693043
 20
283.4996539880494
 10
208.7888776393043
 20
283.3163827180495
 10
208.8058216393042
 20
283.1366583780495
 10
208.8284412893045
 20
282.9618701480494
 10
208.8565617593044
 20
282.7933690480495
 10
208.8899656893043
 20
282.6324575080495
 10
208.9283948893044
 20
282.4803792880494
 10
208.9715523093043
 20
282.3383098780496
 10
209.0191043793043
 20
282.2073473980495
 10
209.0706835293044
 20
282.0885041180495
 10
209.1258910993042
 20
281.9826986480494
 10
209.1843003493043
 20
281.8907487880494
 10
209.2454598093043
 20
281.8133652880494
 10
209.3088967493045
 20
281.7511462680494
 10
209.3741208293045
 20
281.7045726580494
 10
209.4406279093043
 20
281.6740044280495
 10
209.5079039193042
 20
281.6596778780495
 10
209.5754288493044
 20
281.6617037380495
 10
209.6426807693042
 20
281.6800663380494
 10
209.7091398493044
 20
281.7146237580494
 10
209.7742924093043
 20
281.7651088880495
 10
209.8376348393044
 20
281.8311314880494
 10
209.8986775393044
 20
281.9121812480495
 10
209.9569486793043
 20
282.0076316980494
 10
210.0119978593043
 20
282.1167450580495
 10
210.0633995793044
 20
282.2386779180495
 10
210.1107565193042
 20
282.3724878280494
 10
210.1537026393044
 20
282.5171404780494
 10
210.1919059893043
 20
282.6715177980494
 10
210.2250712793043
 20
282.8344265280494
 10
210.2529421593045
 20
283.0046074580494
  0
LINE
  5
1122
330
10C4
100
AcDbEntity
  8
0
 62
     3
100
AcDbLine
 10
210.2586256093043
 20
284.5406285180494
 30
0.0
 11
211.6658697293044
 21
284.5354215480495
 31
0.0
  0
ARC
  5
1123
330
10C4
100
AcDbEntity
  8
0
 62
     3
100
AcDbCircle
 10
190.6578280693043
 20
283.8451326780495
 30
0.0
 40
21.01937947
100
AcDbArc
 50
1.881965739999571
 51
5.709993809998523
  0
LINE
  5
1124
330
10C4
100
AcDbEntity
  8
0
 62
     3
100
AcDbLine
 10
206.6691264393043
 20
286.7422040780494
 30
0.0
 11
206.6691211693044
 21
286.4400021180495
 31
0.0
  0
LINE
  5
1125
330
10C4
100
AcDbEntity
  8
0
 62
     3
100
AcDbLine
 10
203.9126809593045
 20
286.7422605680495
 30
0.0
 11
206.6691264393043
 21
286.7422124580495
 31
0.0
  0
LINE
  5
1126
330
10C4
100
AcDbEntity
  8
0
 62
     3
100
AcDbLine
 10
203.9125826693044
 20
281.1105300180494
 30
0.0
 11
203.9125773993044
 21
280.8083280580495
 31
0.0
  0
LINE
  5
1127
330
10C4
100
AcDbEntity
  8
0
 62
     3
100
AcDbLine
 10
203.9126809593045
 20
286.7422605680495
 30
0.0
 11
203.9126756893042
 21
286.4400021180495
 31
0.0
  0
LINE
  5
1128
330
10C4
100
AcDbEntity
  8
0
 62
     3
100
AcDbLine
 10
199.9738395093043
 20
281.1105300180494
 30
0.0
 11
199.9738395093043
 21
280.8082998080495
 31
0.0
  0
LINE
  5
1129
330
10C4
100
AcDbEntity
  8
0
 62
     3
100
AcDbLine
 10
199.3513424993043
 20
284.2881399480494
 30
0.0
 11
201.5262425793044
 21
280.8082998080495
 31
0.0
  0
LINE
  5
112A
330
10C4
100
AcDbEntity
  8
0
 62
     3
100
AcDbLine
 10
201.5262425793044
 20
280.8082998080495
 30
0.0
 11
202.9825750493044
 21
280.8082998080495
 31
0.0
  0
LINE
  5
112B
330
10C4
100
AcDbEntity
  8
0
 62
     3
100
AcDbLine
 10
203.6050720493045
 20
286.7422323280495
 30
0.0
 11
203.6050720493045
 21
286.4400021180495
 31
0.0
  0
LINE
  5
112C
330
10C4
100
AcDbEntity
  8
0
 62
     3
100
AcDbLine
 10
201.4061215793045
 20
286.7422323280495
 30
0.0
 11
203.6050720493045
 21
286.7422323280495
 31
0.0
  0
LINE
  5
112D
330
10C4
100
AcDbEntity
  8
0
 62
     3
100
AcDbLine
 10
201.4061215793045
 20
286.7422323280495
 30
0.0
 11
201.4061215793045
 21
286.4400021180495
 31
0.0
  0
LINE
  5
112E
330
10C4
100
AcDbEntity
  8
0
 62
     3
100
AcDbLine
 10
202.0286185893044
 20
284.0545661180495
 30
0.0
 11
200.2648376493044
 21
286.7422323280495
 31
0.0
  0
LINE
  5
112F
330
10C4
100
AcDbEntity
  8
0
 62
     3
100
AcDbLine
 10
197.7748890393043
 20
286.7422323280495
 30
0.0
 11
200.2648376493044
 21
286.7422323280495
 31
0.0
  0
LINE
  5
1130
330
10C4
100
AcDbEntity
  8
0
 62
     3
100
AcDbLine
 10
211.9409095593044
 20
286.7420912980494
 30
0.0
 11
214.7298560393042
 21
286.7420912980494
 31
0.0
  0
LINE
  5
1131
330
10C4
100
AcDbEntity
  8
0
 62
     3
100
AcDbLine
 10
211.9409095593044
 20
286.4400021180495
 30
0.0
 11
211.9409095593044
 21
286.7420912980494
 31
0.0
  0
LINE
  5
1132
330
10C4
100
AcDbEntity
  8
0
 62
     3
100
AcDbLine
 10
211.9409095593044
 20
280.8081587880495
 30
0.0
 11
211.9409095593044
 21
281.1105300180494
 31
0.0
  0
LINE
  5
1133
330
10C4
100
AcDbEntity
  8
0
 62
     3
100
AcDbLine
 10
211.9409095593044
 20
280.8081587880495
 30
0.0
 11
214.7298560393042
 21
280.8081587880495
 31
0.0
  0
LINE
  5
1134
330
10C4
100
AcDbEntity
  8
0
 62
     3
100
AcDbLine
 10
215.0208935993044
 20
281.1105300180494
 30
0.0
 11
215.0208935993044
 21
280.8081587880495
 31
0.0
  0
LINE
  5
1135
330
10C4
100
AcDbEntity
  8
0
 62
     3
100
AcDbLine
 10
214.7298560393042
 20
281.1105300180494
 30
0.0
 11
214.7298560393042
 21
280.8081587880495
 31
0.0
  0
LINE
  5
1136
330
10C4
100
AcDbEntity
  8
0
 62
     3
100
AcDbLine
 10
214.7298560393042
 20
286.4400021180495
 30
0.0
 11
214.7298560393042
 21
286.7420912980494
 31
0.0
  0
LINE
  5
1137
330
10C4
100
AcDbEntity
  8
0
 62
     3
100
AcDbLine
 10
215.0208935993044
 20
286.4400021180495
 30
0.0
 11
215.0208935993044
 21
286.7420912980494
 31
0.0
  0
LINE
  5
1138
330
10C4
100
AcDbEntity
  8
0
 62
     3
100
AcDbLine
 10
197.7748890393043
 20
281.1105300180494
 30
0.0
 11
197.7748890393043
 21
280.8082998080495
 31
0.0
  0
LINE
  5
1139
330
10C4
100
AcDbEntity
  8
0
 62
     3
100
AcDbLine
 10
197.7748890393043
 20
286.7422323280495
 30
0.0
 11
197.7748890393043
 21
286.4400021180495
 31
0.0
  0
ARC
  5
113A
330
10C4
100
AcDbEntity
  8
0
 62
     3
100
AcDbCircle
 10
224.3028799993044
 20
284.3977630780495
 30
0.0
 40
2.344469249999999
100
AcDbArc
 50
17.30874897999644
 51
23.76507095999633
  0
ARC
  5
113B
330
10C4
100
AcDbEntity
  8
0
 62
     3
100
AcDbCircle
 10
222.3053465693042
 20
283.7752660680494
 30
0.0
 40
4.43675086
100
AcDbArc
 50
342.6912510200036
 51
17.30856643999929
  0
ARC
  5
113C
330
10C4
100
AcDbEntity
  8
0
 62
     3
100
AcDbCircle
 10
224.3028799993044
 20
283.1527690580495
 30
0.0
 40
2.344469249999999
100
AcDbArc
 50
336.2349290400003
 51
342.6912510200036
  0
ARC
  5
113D
330
10C4
100
AcDbEntity
  8
0
 62
     3
100
AcDbCircle
 10
224.0028799993043
 20
284.3977630780495
 30
0.0
 40
2.344469249999999
100
AcDbArc
 50
17.30874897999644
 51
90.0
  0
ARC
  5
113E
330
10C4
100
AcDbEntity
  8
0
 62
     3
100
AcDbCircle
 10
222.0053465693045
 20
283.7752660680494
 30
0.0
 40
4.43675086
100
AcDbArc
 50
342.6912510200036
 51
17.30856643999929
  0
ARC
  5
113F
330
10C4
100
AcDbEntity
  8
0
 62
     3
100
AcDbCircle
 10
224.0028799993043
 20
283.1527690580495
 30
0.0
 40
2.344469249999999
100
AcDbArc
 50
270.0
 51
342.6912510200036
  0
ARC
  5
1140
330
10C4
100
AcDbEntity
  8
0
 62
     3
100
AcDbCircle
 10
209.5401080293043
 20
283.7752660680494
 30
0.0
 40
2.966966259999998
100
AcDbArc
 50
46.75287960999425
 51
89.74999828999569
  0
ARC
  5
1141
330
10C4
100
AcDbEntity
  8
0
 62
     3
100
AcDbCircle
 10
209.5401080293043
 20
283.7752660680494
 30
0.0
 40
2.966966259999998
100
AcDbArc
 50
273.976333149997
 51
312.8231203899988
  0
ARC
  5
1142
330
10C4
100
AcDbEntity
  8
0
 62
     3
100
AcDbCircle
 10
225.8855479593044
 20
283.7294638880495
 30
0.0
 40
3.936984289999998
100
AcDbArc
 50
0.6665840599997753
 51
23.90392827000137
  0
ARC
  5
1143
330
10C4
100
AcDbEntity
  8
0
 62
     3
100
AcDbCircle
 10
231.4792083493044
 20
283.7294638880495
 30
0.0
 40
3.936984289999998
100
AcDbArc
 50
156.0960717299986
 51
179.3334159400002
  0
ARC
  5
1144
330
10C4
100
AcDbEntity
  8
0
 62
     3
100
AcDbCircle
 10
225.8855479593044
 20
283.8210682480494
 30
0.0
 40
3.936984289999998
100
AcDbArc
 50
336.0960717299986
 51
359.3334159400003
  0
ARC
  5
1145
330
10C4
100
AcDbEntity
  8
0
 62
     3
100
AcDbCircle
 10
231.4792083493044
 20
283.8210682480494
 30
0.0
 40
3.936984289999998
100
AcDbArc
 50
180.6665840599997
 51
203.9039282700014
  0
LINE
  5
1146
330
10C4
100
AcDbEntity
  8
0
 62
     3
100
AcDbLine
 10
238.6567247493044
 20
283.9999999780495
 30
0.0
 11
409.9999995693042
 21
283.9999999780495
 31
0.0
  0
LINE
  5
1147
330
10C4
100
AcDbEntity
  8
0
 62
     3
100
AcDbLine
 10
190.1026900793045
 20
283.9999999780495
 30
0.0
 11
19.99999956930423
 21
283.9999999780495
 31
0.0
  0
LINE
  5
1148
330
10C4
100
AcDbEntity
  8
0
 62
     3
100
AcDbLine
 10
7.598075779304281
 20
150.4446389280494
 30
0.0
 11
4.999999569304236
 21
148.9446389280494
 31
0.0
  0
LINE
  5
1149
330
10C4
100
AcDbEntity
  8
0
 62
     3
100
AcDbLine
 10
7.598075779304281
 20
150.4446389280494
 30
0.0
 11
4.999999569304236
 21
151.9446389280494
 31
0.0
  0
LINE
  5
114A
330
10C4
100
AcDbEntity
  8
0
 62
     3
100
AcDbLine
 10
4.999999569304236
 20
148.9446389280494
 30
0.0
 11
4.999999569304236
 21
151.9446389280494
 31
0.0
  0
LINE
  5
114B
330
10C4
100
AcDbEntity
  8
0
 62
   254
370
     0
100
AcDbLine
 10
-0.0000004306955361
 20
-0.0000000219505125
 30
0.0
 11
-0.0000004306955361
 21
291.9999999780495
 31
0.0
  0
LINE
  5
114C
330
10C4
100
AcDbEntity
  8
0
 62
   254
370
     0
100
AcDbLine
 10
-0.0000004306955361
 20
291.9999999780495
 30
0.0
 11
419.9999995693041
 21
291.9999999780495
 31
0.0
  0
LINE
  5
114D
330
10C4
100
AcDbEntity
  8
0
 62
     3
100
AcDbLine
 10
357.9999995693045
 20
9.999999978049487
 30
0.0
 11
357.9999995693045
 21
49.99999997804948
 31
0.0
  0
LINE
  5
114E
330
10C4
100
AcDbEntity
  8
0
 62
     3
100
AcDbLine
 10
370.9999995693045
 20
19.99999997804948
 30
0.0
 11
370.9999995693045
 21
47.99999997804948
 31
0.0
  0
LINE
  5
114F
330
10C4
100
AcDbEntity
  8
0
 62
     3
100
AcDbLine
 10
330.9999995693045
 20
19.99999997804948
 30
0.0
 11
330.9999995693045
 21
33.99999997804949
 31
0.0
  0
LINE
  5
1150
330
10C4
100
AcDbEntity
  8
0
 62
     3
100
AcDbLine
 10
340.9999995693045
 20
33.99999997804949
 30
0.0
 11
340.9999995693045
 21
9.999999978049487
 31
0.0
  0
LINE
  5
1151
330
10C4
100
AcDbEntity
  8
0
 62
     3
100
AcDbLine
 10
311.9999995693045
 20
49.99999997804948
 30
0.0
 11
311.9999995693045
 21
26.99999997804949
 31
0.0
  0
LINE
  5
1152
330
10C4
100
AcDbEntity
  8
0
 62
     3
100
AcDbLine
 10
370.9999995693045
 20
47.99999997804948
 30
0.0
 11
370.9999995693045
 21
49.99999997804948
 31
0.0
  0
LINE
  5
1153
330
10C4
100
AcDbEntity
  8
0
 62
     3
100
AcDbLine
 10
383.9999995693045
 20
26.99999997804949
 30
0.0
 11
383.9999995693045
 21
49.99999997804948
 31
0.0
  0
LINE
  5
1154
330
10C4
100
AcDbEntity
  8
0
 62
     3
100
AcDbLine
 10
409.9999995693043
 20
49.99999997804948
 30
0.0
 11
298.7545649293045
 21
49.99999997804948
 31
0.0
  0
LINE
  5
1155
330
10C4
100
AcDbEntity
  8
0
 62
     3
100
AcDbLine
 10
409.9999995693043
 20
40.99999997804949
 30
0.0
 11
298.7545649293045
 21
40.99999997804949
 31
0.0
  0
LINE
  5
1156
330
10C4
100
AcDbEntity
  8
0
 62
     3
100
AcDbLine
 10
409.9999995693043
 20
26.99999997804949
 30
0.0
 11
298.7545649293045
 21
26.99999997804949
 31
0.0
  0
LINE
  5
1157
330
10C4
100
AcDbEntity
  8
0
 62
     3
100
AcDbLine
 10
409.9999995693043
 20
19.99999997804948
 30
0.0
 11
298.6965570693044
 21
19.99999997804948
 31
0.0
  0
LINE
  5
1158
330
10C4
100
AcDbEntity
  8
0
 62
     3
100
AcDbLine
 10
396.9999995693044
 20
26.99999997804949
 30
0.0
 11
396.9999995693044
 21
49.99999997804948
 31
0.0
  0
LINE
  5
1159
330
10C4
100
AcDbEntity
  8
0
 62
     3
100
AcDbLine
 10
298.7545649293045
 20
49.99999997804948
 30
0.0
 11
298.7545649293045
 21
9.999999978049487
 31
0.0
  0
LINE
  5
115A
330
10C4
100
AcDbEntity
  8
0
 62
     3
100
AcDbLine
 10
357.9999995693045
 20
33.99999997804949
 30
0.0
 11
298.7545649293045
 21
33.99999997804947
 31
0.0
  0
LINE
  5
115B
330
10C4
100
AcDbEntity
  8
0
 62
     3
100
AcDbLine
 10
341.2783244993043
 20
14.83286123804947
 30
0.0
 11
357.9999995693045
 21
14.83286123804947
 31
0.0
  0
TEXT
  5
115C
330
10C4
100
AcDbEntity
  8
0
 62
     3
100
AcDbText
 10
342.1643249826202
 20
29.07309683141483
 30
0.0
 40
2.5
  1
******
  7
高2.5
100
AcDbText
  0
TEXT
  5
115D
330
10C4
100
AcDbEntity
  8
0
 62
     3
100
AcDbText
 10
313.1963682645567
 20
29.2978143830334
 30
0.0
 40
2.5
  1
*****
  7
高2.5
100
AcDbText
  0
TEXT
  5
115E
330
10C4
100
AcDbEntity
  8
0
 62
     3
100
AcDbText
 10
313.461276019254
 20
42.31224950180735
 30
0.0
 40
4.5
  1
**********
  7
高4.5
100
AcDbText
1001
ACAD
1000
ACAD_MTEXT_DEFINED_HEIGHT_BEGIN
1070
    46
1040
0.0
1000
ACAD_MTEXT_DEFINED_HEIGHT_END
  0
TEXT
  5
115F
330
10C4
100
AcDbEntity
  8
0
 62
     3
100
AcDbText
 10
400.0655886627783
 20
46.51369207675307
 30
0.0
 40
2.0
  1
DEF
  7
高2
100
AcDbText
  0
TEXT
  5
1160
330
10C4
100
AcDbEntity
  8
0
 62
     3
100
AcDbText
 10
386.1264903090703
 20
46.51369207675299
 30
0.0
 40
2.0
  1
DESN
  7
高2
100
AcDbText
  0
TEXT
  5
1161
330
10C4
100
AcDbEntity
  8
0
 62
     3
100
AcDbText
 10
359.8721233690702
 20
46.51369207675307
 30
0.0
 40
2.0
  1
APPD
  7
高2
100
AcDbText
  0
TEXT
  5
1162
330
10C4
100
AcDbEntity
  8
0
 62
     3
100
AcDbText
 10
372.9848594693044
 20
46.5136920767531
 30
0.0
 40
2.0
  1
CHCK
  7
高2
100
AcDbText
  0
TEXT
  5
1163
330
10C4
100
AcDbEntity
  8
0
 62
     3
100
AcDbText
 10
331.9271652084572
 20
24.16839880128021
 30
0.0
 40
2.0
  1
SCALE
 41
0.8
  7
高2
100
AcDbText
  0
TEXT
  5
1164
330
10C4
100
AcDbEntity
  8
0
 62
     3
100
AcDbText
 10
300.4391436323506
 20
24.16839880128022
 30
0.0
 40
2.0
  1
3AD　ANGLE
 41
1.5
  7
高2
100
AcDbText
  0
TEXT
  5
1165
330
10C4
100
AcDbEntity
  8
0
 62
     3
100
AcDbText
 10
331.1965708993059
 20
30.91993687023731
 30
0.0
 40
2.0
  1
REMARKS
 41
0.7
  7
高2
100
AcDbText
  0
TEXT
  5
1166
330
10C4
100
AcDbEntity
  8
0
 62
     3
100
AcDbText
 10
300.2222352793044
 20
30.99999997804949
 30
0.0
 40
2.0
  1
MATERIAL
 41
0.7
  7
高2
100
AcDbText
  0
TEXT
  5
1167
330
10C4
100
AcDbEntity
  8
0
 62
     3
100
AcDbText
 10
300.7987224820586
 20
37.99999997804948
 30
0.0
 40
2.0
  1
MODEL
  7
高2
100
AcDbText
  0
TEXT
  5
1168
330
10C4
100
AcDbEntity
  8
0
 62
     3
100
AcDbText
 10
300.4356433633898
 20
46.70702132864849
 30
0.0
 40
2.0
  1
CONPONENTS
 41
0.5
  7
高2
100
AcDbText
  0
TEXT
  5
1169
330
10C4
100
AcDbEntity
  8
0
 62
     3
100
AcDbText
 10
313.1427588345566
 20
35.08748110586143
 30
0.0
 40
4.5
  1
********
  7
高4.5
100
AcDbText
  0
TEXT
  5
116A
330
10C4
100
AcDbEntity
  8
0
 62
     3
100
AcDbText
 10
361.0650452999231
 20
12.03846137341507
 30
0.0
 40
6.299999999999998
  1
*-********
 41
0.6
  7
高6.3
100
AcDbText
1001
ACAD
1000
ACAD_MTEXT_DEFINED_HEIGHT_BEGIN
1070
    46
1040
0.0
1000
ACAD_MTEXT_DEFINED_HEIGHT_END
  0
TEXT
  5
116B
330
10C4
100
AcDbEntity
  8
0
 62
     3
100
AcDbText
 10
374.563509319634
 20
21.10088913628249
 30
0.0
 40
3.2
  1
******
  7
高3.2
100
AcDbText
1001
ACAD
1000
ACAD_MTEXT_DEFINED_HEIGHT_BEGIN
1070
    46
1040
0.0
1000
ACAD_MTEXT_DEFINED_HEIGHT_END
  0
TEXT
  5
116C
330
10C4
100
AcDbEntity
  8
0
 62
     3
100
AcDbText
 10
344.7875974639508
 20
21.10091698061736
 30
0.0
 40
3.2
  1
1/1
  7
高3.2
100
AcDbText
  0
TEXT
  5
116D
330
10C4
100
AcDbEntity
  8
0
 62
     3
100
AcDbText
 10
341.8649264393043
 20
10.81687815118545
 30
0.0
 40
3.2
  1
ZK-A3X
 41
0.8
  7
高3.2
100
AcDbText
  0
TEXT
  5
116E
330
10C4
100
AcDbEntity
  8
0
 62
     3
100
AcDbText
 10
299.5852659693044
 20
16.52462040023731
 30
0.0
 40
2.0
  1
NICHIDO IND.CO.LTD
 41
1.3
  7
高2
100
AcDbText
  0
TEXT
  5
116F
330
10C4
100
AcDbEntity
  8
0
 62
     3
100
AcDbText
 10
300.7667892342615
 20
42.14052818593439
 30
0.0
 40
3.2
  1
品 名
  7
高3.2
100
AcDbText
1001
ACAD
1000
ACAD_MTEXT_DEFINED_HEIGHT_BEGIN
1070
    46
1040
0.0
1000
ACAD_MTEXT_DEFINED_HEIGHT_END
  0
TEXT
  5
1170
330
10C4
100
AcDbEntity
  8
0
 62
     3
100
AcDbText
 10
300.7667892342615
 20
34.49999997804948
 30
0.0
 40
3.2
  1
型 式
  7
高3.2
100
AcDbText
1001
ACAD
1000
ACAD_MTEXT_DEFINED_HEIGHT_BEGIN
1070
    46
1040
3.064735913775952
1000
ACAD_MTEXT_DEFINED_HEIGHT_END
  0
TEXT
  5
1171
330
10C4
100
AcDbEntity
  8
0
 62
     3
100
AcDbText
 10
300.7667892342615
 20
27.49999997804949
 30
0.0
 40
3.2
  1
材 質
  7
高3.2
100
AcDbText
1001
ACAD
1000
ACAD_MTEXT_DEFINED_HEIGHT_BEGIN
1070
    46
1040
0.0
1000
ACAD_MTEXT_DEFINED_HEIGHT_END
  0
TEXT
  5
1172
330
10C4
100
AcDbEntity
  8
0
 62
     3
100
AcDbText
 10
300.4617542842617
 20
20.46743997029573
 30
0.0
 40
3.2
  1
第 三 角 法
  7
高3.2
100
AcDbText
1001
ACAD
1000
ACAD_MTEXT_DEFINED_HEIGHT_BEGIN
1070
    46
1040
0.0
1000
ACAD_MTEXT_DEFINED_HEIGHT_END
  0
TEXT
  5
1173
330
10C4
100
AcDbEntity
  8
0
 62
     3
100
AcDbText
 10
298.8682868917904
 20
11.14052818593441
 30
0.0
 40
3.2
  1
日動工業株式会社
 41
1.199999999999999
  7
高3.2
100
AcDbText
1001
ACAD
1000
ACAD_MTEXT_DEFINED_HEIGHT_BEGIN
1070
    46
1040
0.0
1000
ACAD_MTEXT_DEFINED_HEIGHT_END
  0
TEXT
  5
1174
330
10C4
100
AcDbEntity
  8
0
 62
     3
100
AcDbText
 10
332.5039110912689
 20
27.38457851121705
 30
0.0
 40
3.2
  1
備考
  7
高3.2
100
AcDbText
1001
ACAD
1000
ACAD_MTEXT_DEFINED_HEIGHT_BEGIN
1070
    46
1040
0.0
1000
ACAD_MTEXT_DEFINED_HEIGHT_END
  0
TEXT
  5
1175
330
10C4
100
AcDbEntity
  8
0
 62
     3
100
AcDbText
 10
342.1529685383043
 20
16.14623000361978
 30
0.0
 40
2.5
  1
出図コード
  7
高2.5
100
AcDbText
1001
ACAD
1000
ACAD_MTEXT_DEFINED_HEIGHT_BEGIN
1070
    46
1040
0.0
1000
ACAD_MTEXT_DEFINED_HEIGHT_END
  0
TEXT
  5
1176
330
10C4
100
AcDbEntity
  8
0
 62
     3
100
AcDbText
 10
332.3451449731815
 20
20.45323488846241
 30
0.0
 40
3.2
  1
尺度
  7
高3.2
100
AcDbText
1001
ACAD
1000
ACAD_MTEXT_DEFINED_HEIGHT_BEGIN
1070
    46
1040
0.0
1000
ACAD_MTEXT_DEFINED_HEIGHT_END
  0
TEXT
  5
1177
330
10C4
100
AcDbEntity
  8
0
 62
     3
100
AcDbText
 10
359.4914064549603
 20
21.5847133365799
 30
0.0
 40
3.2
  1
作成日
  7
高3.2
100
AcDbText
1001
ACAD
1000
ACAD_MTEXT_DEFINED_HEIGHT_BEGIN
1070
    46
1040
0.0
1000
ACAD_MTEXT_DEFINED_HEIGHT_END
  0
TEXT
  5
1178
330
10C4
100
AcDbEntity
  8
0
 62
     3
100
AcDbText
 10
359.3858804618242
 20
42.14052818593439
 30
0.0
 40
3.2
  1
承 認
  7
高3.2
100
AcDbText
1001
ACAD
1000
ACAD_MTEXT_DEFINED_HEIGHT_BEGIN
1070
    46
1040
0.0
1000
ACAD_MTEXT_DEFINED_HEIGHT_END
  0
TEXT
  5
1179
330
10C4
100
AcDbEntity
  8
0
 62
     3
100
AcDbText
 10
372.3858804618242
 20
42.14052818593439
 30
0.0
 40
3.2
  1
検 図
  7
高3.2
100
AcDbText
1001
ACAD
1000
ACAD_MTEXT_DEFINED_HEIGHT_BEGIN
1070
    46
1040
0.0
1000
ACAD_MTEXT_DEFINED_HEIGHT_END
  0
TEXT
  5
117A
330
10C4
100
AcDbEntity
  8
0
 62
     3
100
AcDbText
 10
385.3858804618242
 20
42.14052818593439
 30
0.0
 40
3.2
  1
設 計
  7
高3.2
100
AcDbText
1001
ACAD
1000
ACAD_MTEXT_DEFINED_HEIGHT_BEGIN
1070
    46
1040
0.0
1000
ACAD_MTEXT_DEFINED_HEIGHT_END
  0
TEXT
  5
117B
330
10C4
100
AcDbEntity
  8
0
 62
     3
100
AcDbText
 10
398.6865169818242
 20
42.14052818593439
 30
0.0
 40
3.2
  1
製 図
  7
高3.2
100
AcDbText
1001
ACAD
1000
ACAD_MTEXT_DEFINED_HEIGHT_BEGIN
1070
    46
1040
0.0
1000
ACAD_MTEXT_DEFINED_HEIGHT_END
  0
TEXT
  5
117C
330
10C4
100
AcDbEntity
  8
0
 62
     3
100
AcDbText
 10
397.4999995693043
 20
274.4999999780495
 30
0.0
 40
3.2
  1
担　当
  7
高3.2
100
AcDbText
  0
TEXT
  5
117D
330
10C4
100
AcDbEntity
  8
0
 62
     3
100
AcDbText
 10
353.4999995693042
 20
274.4999999780495
 30
0.0
 40
3.2
  1
変更・追記内容
  7
高3.2
100
AcDbText
  0
TEXT
  5
117E
330
10C4
100
AcDbEntity
  8
0
 62
     3
100
AcDbText
 10
328.6135145696436
 20
269.8294614681412
 30
0.0
 40
2.0
  1
1
  7
高2
100
AcDbText
  0
TEXT
  5
117F
330
10C4
100
AcDbEntity
  8
0
 62
     3
100
AcDbText
 10
328.3050030928862
 20
264.6596447558683
 30
0.0
 40
2.0
  1
2
  7
高2
100
AcDbText
  0
TEXT
  5
1180
330
10C4
100
AcDbEntity
  8
0
 62
     3
100
AcDbText
 10
335.4999995693042
 20
274.4999999780495
 30
0.0
 40
3.2
  1
日　付
  7
高3.2
100
AcDbText
  0
TEXT
  5
1181
330
10C4
100
AcDbEntity
  8
0
 62
     3
100
AcDbText
 10
335.4999995693042
 20
279.4999999780495
 30
0.0
 40
3.2
  1
図　　　　面　　　　略　　　　歴
  7
高3.2
100
AcDbText
  0
TEXT
  5
1182
330
10C4
100
AcDbEntity
  8
0
 62
     3
100
AcDbText
 10
325.4999995693042
 20
274.4999999780495
 30
0.0
 40
3.2
  1
記号
  7
高3.2
100
AcDbText
  0
LINE
  5
1183
330
10C4
100
AcDbEntity
  8
0
 62
     7
100
AcDbLine
 10
328.9999995693043
 20
267.7908959780495
 30
0.0
 11
327.0999995693044
 21
264.4999999780495
 31
0.0
  0
LINE
  5
1184
330
10C4
100
AcDbEntity
  8
0
 62
     7
100
AcDbLine
 10
328.9999995693043
 20
267.7908959780495
 30
0.0
 11
330.8999995693043
 21
264.4999999780495
 31
0.0
  0
LINE
  5
1185
330
10C4
100
AcDbEntity
  8
0
 62
     7
100
AcDbLine
 10
327.0999995693044
 20
264.4999999780495
 30
0.0
 11
330.8999995693043
 21
264.4999999780495
 31
0.0
  0
LINE
  5
1186
330
10C4
100
AcDbEntity
  8
0
 62
     7
100
AcDbLine
 10
328.9999995693043
 20
272.7908969780496
 30
0.0
 11
327.0999995693044
 21
269.4999999780494
 31
0.0
  0
LINE
  5
1187
330
10C4
100
AcDbEntity
  8
0
 62
     7
100
AcDbLine
 10
328.9999995693043
 20
272.7908969780496
 30
0.0
 11
330.8999995693043
 21
269.4999999780494
 31
0.0
  0
LINE
  5
1188
330
10C4
100
AcDbEntity
  8
0
 62
     7
100
AcDbLine
 10
327.0999995693044
 20
269.4999999780494
 30
0.0
 11
330.8999995693043
 21
269.4999999780494
 31
0.0
  0
LINE
  5
1189
330
10C4
100
AcDbEntity
  8
0
 62
     3
100
AcDbLine
 10
323.9999995693042
 20
278.9999999780495
 30
0.0
 11
409.9999995693042
 21
278.9999999780495
 31
0.0
  0
LINE
  5
118A
330
10C4
100
AcDbEntity
  8
0
 62
     3
100
AcDbLine
 10
323.9999995693042
 20
273.9999999780494
 30
0.0
 11
409.9999995693042
 21
273.9999999780494
 31
0.0
  0
LINE
  5
118B
330
10C4
100
AcDbEntity
  8
0
 62
     7
100
AcDbLine
 10
323.9999995693042
 20
268.9999999780495
 30
0.0
 11
409.9999995693042
 21
268.9999999780495
 31
0.0
  0
LINE
  5
118C
330
10C4
100
AcDbEntity
  8
0
 62
     3
100
AcDbLine
 10
323.9999995693042
 20
263.9999999780495
 30
0.0
 11
409.9999995693042
 21
263.9999999780495
 31
0.0
  0
LINE
  5
118D
330
10C4
100
AcDbEntity
  8
0
 62
     7
100
AcDbLine
 10
395.9999995693042
 20
263.9999999780495
 30
0.0
 11
395.9999995693042
 21
278.9999999780495
 31
0.0
  0
LINE
  5
118E
330
10C4
100
AcDbEntity
  8
0
 62
     7
100
AcDbLine
 10
351.9999995693043
 20
263.9999999780495
 30
0.0
 11
351.9999995693043
 21
278.9999999780495
 31
0.0
  0
LINE
  5
118F
330
10C4
100
AcDbEntity
  8
0
 62
     7
100
AcDbLine
 10
333.9999995693042
 20
263.9999999780495
 30
0.0
 11
333.9999995693042
 21
278.9999999780495
 31
0.0
  0
LINE
  5
1190
330
10C4
100
AcDbEntity
  8
0
 62
     3
100
AcDbLine
 10
323.9999995693042
 20
263.9999999780495
 30
0.0
 11
323.9999995693042
 21
283.9999999780495
 31
0.0
  0
ENDBLK
  5
1194
330
10C4
100
AcDbEntity
  8
0
100
AcDbBlockEnd
  0
BLOCK
  5
1311
330
1310
100
AcDbEntity
  8
0
100
AcDbBlockBegin
  2
*D4
 70
     1
 10
0.0
 20
0.0
 30
0.0
  3
*D4
  1

  0
LINE
  5
1817
330
1310
100
AcDbEntity
  8
0
 62
     0
370
    -2
100
AcDbLine
 10
1689.240580886886
 20
243.4258608042458
 30
0.0
 11
1689.240580886886
 21
275.9683502478336
 31
0.0
  0
LINE
  5
1818
330
1310
100
AcDbEntity
  8
0
 62
     0
370
    -2
100
AcDbLine
 10
1453.240580886886
 20
245.4758608042458
 30
0.0
 11
1453.240580886886
 21
275.9683502478336
 31
0.0
  0
LINE
  5
1819
330
1310
100
AcDbEntity
  8
0
 62
     0
370
    -2
100
AcDbLine
 10
1686.740580886886
 20
274.7183502478336
 30
0.0
 11
1455.740580886886
 21
274.7183502478336
 31
0.0
  0
INSERT
  5
181A
330
1310
100
AcDbEntity
  8
0
 62
     0
370
    -2
100
AcDbBlockReference
  2
_Open30
 10
1689.240580886886
 20
274.7183502478336
 30
0.0
 41
2.5
 42
2.5
 43
2.5
  0
INSERT
  5
181B
330
1310
100
AcDbEntity
  8
0
 62
     0
370
    -2
100
AcDbBlockReference
  2
_Open30
 10
1453.240580886886
 20
274.7183502478336
 30
0.0
 41
2.5
 42
2.5
 43
2.5
 50
180.0
  0
MTEXT
  5
181C
330
1310
100
AcDbEntity
  8
0
 62
     4
100
AcDbMText
 10
1571.240580886885
 20
276.8433502478336
 30
0.0
 40
3.0
 41
0.0
 71
     5
 72
     1
  1
236
 73
     1
 44
1.0
1001
ACAD
1000
MTEXTBEGIN
1070
    73
1070
     1
1070
    44
1040
1.0
1070
    74
1070
     0
1000
MTEXTEND
  0
POINT
  5
181D
330
1310
100
AcDbEntity
  8
Defpoints
 62
     0
100
AcDbPoint
 10
1689.240580886886
 20
243.1758608042458
 30
0.0
  0
POINT
  5
181E
330
1310
100
AcDbEntity
  8
Defpoints
 62
     0
100
AcDbPoint
 10
1453.240580886886
 20
245.2258608042458
 30
0.0
  0
POINT
  5
181F
330
1310
100
AcDbEntity
  8
Defpoints
 62
     0
100
AcDbPoint
 10
1453.240580886886
 20
274.7183502478336
 30
0.0
  0
ENDBLK
  5
1312
330
1310
100
AcDbEntity
  8
0
100
AcDbBlockEnd
  0
BLOCK
  5
1329
330
1328
100
AcDbEntity
  8
0
100
AcDbBlockBegin
  2
*D5
 70
     1
 10
0.0
 20
0.0
 30
0.0
  3
*D5
  1

  0
LINE
  5
1335
330
1328
100
AcDbEntity
  8
0
 62
     0
370
    -2
100
AcDbLine
 10
1408.96375204759
 20
275.3840186777328
 30
0.0
 11
1446.992132546543
 21
275.3840186777328
 31
0.0
  0
LINE
  5
1336
330
1328
100
AcDbEntity
  8
0
 62
     0
370
    -2
100
AcDbLine
 10
1408.96375204759
 20
222.1840186777332
 30
0.0
 11
1446.992132546543
 21
222.1840186777332
 31
0.0
  0
LINE
  5
1337
330
1328
100
AcDbEntity
  8
0
 62
     0
370
    -2
100
AcDbLine
 10
1445.742132546543
 20
272.8840186777327
 30
0.0
 11
1445.742132546543
 21
224.6840186777333
 31
0.0
  0
INSERT
  5
1338
330
1328
100
AcDbEntity
  8
0
 62
     0
370
    -2
100
AcDbBlockReference
  2
_Open30
 10
1445.742132546543
 20
275.3840186777328
 30
0.0
 41
2.5
 42
2.5
 43
2.5
 50
90.0
  0
INSERT
  5
1339
330
1328
100
AcDbEntity
  8
0
 62
     0
370
    -2
100
AcDbBlockReference
  2
_Open30
 10
1445.742132546543
 20
222.1840186777332
 30
0.0
 41
2.5
 42
2.5
 43
2.5
 50
270.0
  0
MTEXT
  5
133A
330
1328
100
AcDbEntity
  8
0
 62
     4
100
AcDbMText
 10
1443.617132546543
 20
250.6577296686514
 30
0.0
 40
3.0
 41
0.0
 71
     5
 72
     1
  1
53.2
 11
0.0000000000000001
 21
1.0
 31
0.0
 73
     1
 44
1.0
1001
ACAD
1000
MTEXTBEGIN
1070
    73
1070
     1
1070
    44
1040
1.0
1070
    74
1070
     0
1000
MTEXTEND
  0
POINT
  5
133B
330
1328
100
AcDbEntity
  8
Defpoints
 62
     0
100
AcDbPoint
 10
1408.71375204759
 20
275.3840186777328
 30
0.0
  0
POINT
  5
133C
330
1328
100
AcDbEntity
  8
Defpoints
 62
     0
100
AcDbPoint
 10
1408.71375204759
 20
222.1840186777332
 30
0.0
  0
POINT
  5
133D
330
1328
100
AcDbEntity
  8
Defpoints
 62
     0
100
AcDbPoint
 10
1445.742132546543
 20
222.1840186777332
 30
0.0
  0
ENDBLK
  5
132A
330
1328
100
AcDbEntity
  8
0
100
AcDbBlockEnd
  0
BLOCK
  5
1341
330
1340
100
AcDbEntity
  8
0
100
AcDbBlockBegin
  2
*D6
 70
     1
 10
0.0
 20
0.0
 30
0.0
  3
*D6
  1

  0
LINE
  5
1673
330
1340
100
AcDbEntity
  8
0
 62
     0
370
    -2
100
AcDbLine
 10
1497.990580886886
 20
250.5258608042458
 30
0.0
 11
1446.158227226066
 21
250.5258608042459
 31
0.0
  0
LINE
  5
1674
330
1340
100
AcDbEntity
  8
0
 62
     0
370
    -2
100
AcDbLine
 10
1497.990580886886
 20
197.8258608042457
 30
0.0
 11
1446.158227226066
 21
197.8258608042457
 31
0.0
  0
LINE
  5
1675
330
1340
100
AcDbEntity
  8
0
 62
     0
370
    -2
100
AcDbLine
 10
1447.408227226066
 20
248.0258608042458
 30
0.0
 11
1447.408227226066
 21
200.3258608042457
 31
0.0
  0
INSERT
  5
1676
330
1340
100
AcDbEntity
  8
0
 62
     0
370
    -2
100
AcDbBlockReference
  2
_Open30
 10
1447.408227226066
 20
250.5258608042459
 30
0.0
 41
2.5
 42
2.5
 43
2.5
 50
90.0
  0
INSERT
  5
1677
330
1340
100
AcDbEntity
  8
0
 62
     0
370
    -2
100
AcDbBlockReference
  2
_Open30
 10
1447.408227226066
 20
197.8258608042457
 30
0.0
 41
2.5
 42
2.5
 43
2.5
 50
270.0
  0
MTEXT
  5
1678
330
1340
100
AcDbEntity
  8
0
 62
     4
100
AcDbMText
 10
1445.283227226066
 20
224.9137115353176
 30
0.0
 40
3.0
 41
0.0
 71
     5
 72
     1
  1
52.7
 11
0.0000000000000001
 21
1.0
 31
0.0
 73
     1
 44
1.0
1001
ACAD
1000
MTEXTBEGIN
1070
    73
1070
     1
1070
    44
1040
1.0
1070
    74
1070
     0
1000
MTEXTEND
  0
POINT
  5
1679
330
1340
100
AcDbEntity
  8
Defpoints
 62
     0
100
AcDbPoint
 10
1498.240580886886
 20
250.5258608042458
 30
0.0
  0
POINT
  5
167A
330
1340
100
AcDbEntity
  8
Defpoints
 62
     0
100
AcDbPoint
 10
1498.240580886886
 20
197.8258608042457
 30
0.0
  0
POINT
  5
167B
330
1340
100
AcDbEntity
  8
Defpoints
 62
     0
100
AcDbPoint
 10
1447.408227226066
 20
197.8258608042457
 30
0.0
  0
ENDBLK
  5
1342
330
1340
100
AcDbEntity
  8
0
100
AcDbBlockEnd
  0
BLOCK
  5
1359
330
1358
100
AcDbEntity
  8
0
100
AcDbBlockBegin
  2
*D7
 70
     1
 10
0.0
 20
0.0
 30
0.0
  3
*D7
  1

  0
LINE
  5
1820
330
1358
100
AcDbEntity
  8
0
 62
     0
370
    -2
100
AcDbLine
 10
1689.490580886886
 20
207.1758608042458
 30
0.0
 11
1696.954580354917
 21
207.1758608042458
 31
0.0
  0
LINE
  5
1821
330
1358
100
AcDbEntity
  8
0
 62
     0
370
    -2
100
AcDbLine
 10
1689.490580886886
 20
243.1758608042458
 30
0.0
 11
1696.954580354917
 21
243.1758608042458
 31
0.0
  0
LINE
  5
1822
330
1358
100
AcDbEntity
  8
0
 62
     0
370
    -2
100
AcDbLine
 10
1695.704580354918
 20
209.6758608042458
 30
0.0
 11
1695.704580354918
 21
240.6758608042458
 31
0.0
  0
INSERT
  5
1823
330
1358
100
AcDbEntity
  8
0
 62
     0
370
    -2
100
AcDbBlockReference
  2
_Open30
 10
1695.704580354918
 20
207.1758608042458
 30
0.0
 41
2.5
 42
2.5
 43
2.5
 50
270.0
  0
INSERT
  5
1824
330
1358
100
AcDbEntity
  8
0
 62
     0
370
    -2
100
AcDbBlockReference
  2
_Open30
 10
1695.704580354918
 20
243.1758608042458
 30
0.0
 41
2.5
 42
2.5
 43
2.5
 50
90.0
  0
MTEXT
  5
1825
330
1358
100
AcDbEntity
  8
0
 62
     4
100
AcDbMText
 10
1693.579580354918
 20
225.3787687928022
 30
0.0
 40
3.0
 41
0.0
 71
     5
 72
     1
  1
36
 11
0.0000000000000001
 21
1.0
 31
0.0
 73
     1
 44
1.0
1001
ACAD
1000
MTEXTBEGIN
1070
    73
1070
     1
1070
    44
1040
1.0
1070
    74
1070
     0
1000
MTEXTEND
  0
POINT
  5
1826
330
1358
100
AcDbEntity
  8
Defpoints
 62
     0
100
AcDbPoint
 10
1689.240580886886
 20
207.1758608042458
 30
0.0
  0
POINT
  5
1827
330
1358
100
AcDbEntity
  8
Defpoints
 62
     0
100
AcDbPoint
 10
1689.240580886886
 20
243.1758608042458
 30
0.0
  0
POINT
  5
1828
330
1358
100
AcDbEntity
  8
Defpoints
 62
     0
100
AcDbPoint
 10
1695.704580354918
 20
243.1758608042458
 30
0.0
  0
ENDBLK
  5
135A
330
1358
100
AcDbEntity
  8
0
100
AcDbBlockEnd
  0
BLOCK
  5
1371
330
1370
100
AcDbEntity
  8
0
100
AcDbBlockBegin
  2
*D8
 70
     1
 10
0.0
 20
0.0
 30
0.0
  3
*D8
  1

  0
LINE
  5
1829
330
1370
100
AcDbEntity
  8
0
 62
     0
370
    -2
100
AcDbLine
 10
1738.128581501532
 20
224.6758608042458
 30
0.0
 11
1738.128581501532
 21
275.9683502478336
 31
0.0
  0
LINE
  5
182A
330
1370
100
AcDbEntity
  8
0
 62
     0
370
    -2
100
AcDbLine
 10
1702.128581501533
 20
224.6758608042458
 30
0.0
 11
1702.128581501533
 21
275.9683502478336
 31
0.0
  0
LINE
  5
182B
330
1370
100
AcDbEntity
  8
0
 62
     0
370
    -2
100
AcDbLine
 10
1735.628581501532
 20
274.7183502478336
 30
0.0
 11
1704.628581501532
 21
274.7183502478336
 31
0.0
  0
INSERT
  5
182C
330
1370
100
AcDbEntity
  8
0
 62
     0
370
    -2
100
AcDbBlockReference
  2
_Open30
 10
1738.128581501532
 20
274.7183502478336
 30
0.0
 41
2.5
 42
2.5
 43
2.5
  0
INSERT
  5
182D
330
1370
100
AcDbEntity
  8
0
 62
     0
370
    -2
100
AcDbBlockReference
  2
_Open30
 10
1702.128581501533
 20
274.7183502478336
 30
0.0
 41
2.5
 42
2.5
 43
2.5
 50
180.0
  0
MTEXT
  5
182E
330
1370
100
AcDbEntity
  8
0
 62
     4
100
AcDbMText
 10
1719.940481523259
 20
276.8433502478336
 30
0.0
 40
3.0
 41
0.0
 71
     5
 72
     1
  1
36
 73
     1
 44
1.0
1001
ACAD
1000
MTEXTBEGIN
1070
    73
1070
     1
1070
    44
1040
1.0
1070
    74
1070
     0
1000
MTEXTEND
  0
POINT
  5
182F
330
1370
100
AcDbEntity
  8
Defpoints
 62
     0
100
AcDbPoint
 10
1738.128581501532
 20
224.4258608042458
 30
0.0
  0
POINT
  5
1830
330
1370
100
AcDbEntity
  8
Defpoints
 62
     0
100
AcDbPoint
 10
1702.128581501533
 20
224.4258608042458
 30
0.0
  0
POINT
  5
1831
330
1370
100
AcDbEntity
  8
Defpoints
 62
     0
100
AcDbPoint
 10
1702.128581501533
 20
274.7183502478336
 30
0.0
  0
ENDBLK
  5
1372
330
1370
100
AcDbEntity
  8
0
100
AcDbBlockEnd
  0
BLOCK
  5
1389
330
1388
100
AcDbEntity
  8
0
100
AcDbBlockBegin
  2
*D9
 70
     1
 10
0.0
 20
0.0
 30
0.0
  3
*D9
  1

  0
LINE
  5
1832
330
1388
100
AcDbEntity
  8
0
 62
     0
370
    -2
100
AcDbLine
 10
1437.11375204759
 20
229.1165063440613
 30
0.0
 11
1437.11375204759
 21
275.9683502478336
 31
0.0
  0
LINE
  5
1833
330
1388
100
AcDbEntity
  8
0
 62
     0
370
    -2
100
AcDbLine
 10
1382.117899280813
 20
224.5752417977262
 30
0.0
 11
1382.117899280813
 21
275.9683502478336
 31
0.0
  0
LINE
  5
1834
330
1388
100
AcDbEntity
  8
0
 62
     0
370
    -2
100
AcDbLine
 10
1434.61375204759
 20
274.7183502478336
 30
0.0
 11
1384.617899280813
 21
274.7183502478336
 31
0.0
  0
INSERT
  5
1835
330
1388
100
AcDbEntity
  8
0
 62
     0
370
    -2
100
AcDbBlockReference
  2
_Open30
 10
1437.11375204759
 20
274.7183502478336
 30
0.0
 41
2.5
 42
2.5
 43
2.5
  0
INSERT
  5
1836
330
1388
100
AcDbEntity
  8
0
 62
     0
370
    -2
100
AcDbBlockReference
  2
_Open30
 10
1382.117899280813
 20
274.7183502478336
 30
0.0
 41
2.5
 42
2.5
 43
2.5
 50
180.0
  0
MTEXT
  5
1837
330
1388
100
AcDbEntity
  8
0
 62
     4
100
AcDbMText
 10
1408.056660639092
 20
276.8433502478336
 30
0.0
 40
3.0
 41
0.0
 71
     5
 72
     1
  1
55
 73
     1
 44
1.0
1001
ACAD
1000
MTEXTBEGIN
1070
    73
1070
     1
1070
    44
1040
1.0
1070
    74
1070
     0
1000
MTEXTEND
  0
POINT
  5
1838
330
1388
100
AcDbEntity
  8
Defpoints
 62
     0
100
AcDbPoint
 10
1437.11375204759
 20
228.8665063440613
 30
0.0
  0
POINT
  5
1839
330
1388
100
AcDbEntity
  8
Defpoints
 62
     0
100
AcDbPoint
 10
1382.117899280813
 20
224.3252417977262
 30
0.0
  0
POINT
  5
183A
330
1388
100
AcDbEntity
  8
Defpoints
 62
     0
100
AcDbPoint
 10
1382.117899280813
 20
274.7183502478336
 30
0.0
  0
ENDBLK
  5
138A
330
1388
100
AcDbEntity
  8
0
100
AcDbBlockEnd
  0
BLOCK
  5
1587
330
1585
100
AcDbEntity
  8
0
100
AcDbBlockBegin
  2
_DotSmall
 70
     0
 10
0.0
 20
0.0
 30
0.0
  3
_DotSmall
  1

  0
LWPOLYLINE
  5
1586
330
1585
100
AcDbEntity
  8
0
  6
ByBlock
 62
     0
100
AcDbPolyline
 90
        2
 70
     1
 43
0.5
 10
-0.0625
 20
0.0
 42
1.0
 10
0.0625
 20
0.0
 42
1.0
  0
ENDBLK
  5
1588
330
1585
100
AcDbEntity
  8
0
100
AcDbBlockEnd
  0
BLOCK
  5
167F
330
167E
100
AcDbEntity
  8
0
100
AcDbBlockBegin
  2
*D11
 70
     1
 10
0.0
 20
0.0
 30
0.0
  3
*D11
  1

  0
LINE
  5
183B
330
167E
100
AcDbEntity
  8
0
 62
     0
370
    -2
100
AcDbLine
 10
1497.990580886886
 20
251.0258608042458
 30
0.0
 11
1445.92699536616
 21
251.0258608042458
 31
0.0
  0
LINE
  5
183C
330
167E
100
AcDbEntity
  8
0
 62
     0
370
    -2
100
AcDbLine
 10
1497.990580886886
 20
197.8258608042457
 30
0.0
 11
1445.92699536616
 21
197.8258608042457
 31
0.0
  0
LINE
  5
183D
330
167E
100
AcDbEntity
  8
0
 62
     0
370
    -2
100
AcDbLine
 10
1447.17699536616
 20
248.5258608042459
 30
0.0
 11
1447.17699536616
 21
200.3258608042457
 31
0.0
  0
INSERT
  5
183E
330
167E
100
AcDbEntity
  8
0
 62
     0
370
    -2
100
AcDbBlockReference
  2
_Open30
 10
1447.17699536616
 20
251.0258608042458
 30
0.0
 41
2.5
 42
2.5
 43
2.5
 50
90.0
  0
INSERT
  5
183F
330
167E
100
AcDbEntity
  8
0
 62
     0
370
    -2
100
AcDbBlockReference
  2
_Open30
 10
1447.17699536616
 20
197.8258608042457
 30
0.0
 41
2.5
 42
2.5
 43
2.5
 50
270.0
  0
MTEXT
  5
1840
330
167E
100
AcDbEntity
  8
0
 62
     4
100
AcDbMText
 10
1445.05199536616
 20
224.9531913174514
 30
0.0
 40
3.0
 41
0.0
 71
     5
 72
     1
  1
53
 11
0.0000000000000001
 21
1.0
 31
0.0
 73
     1
 44
1.0
1001
ACAD
1000
MTEXTBEGIN
1070
    73
1070
     1
1070
    44
1040
1.0
1070
    74
1070
     0
1000
MTEXTEND
  0
POINT
  5
1841
330
167E
100
AcDbEntity
  8
Defpoints
 62
     0
100
AcDbPoint
 10
1498.240580886886
 20
251.0258608042458
 30
0.0
  0
POINT
  5
1842
330
167E
100
AcDbEntity
  8
Defpoints
 62
     0
100
AcDbPoint
 10
1498.240580886886
 20
197.8258608042457
 30
0.0
  0
POINT
  5
1843
330
167E
100
AcDbEntity
  8
Defpoints
 62
     0
100
AcDbPoint
 10
1447.17699536616
 20
197.8258608042457
 30
0.0
  0
ENDBLK
  5
1680
330
167E
100
AcDbEntity
  8
0
100
AcDbBlockEnd
  0
ENDSEC
  0
SECTION
  2
ENTITIES
  0
LINE
  5
11A7
330
1F
100
AcDbEntity
  8
0
 62
     3
100
AcDbLine
 10
1689.240580886886
 20
210.3381534324949
 30
0.0
 11
1689.240580886886
 21
207.1758608042458
 31
0.0
  0
ARC
  5
11AA
330
1F
100
AcDbEntity
  8
0
 62
     3
100
AcDbCircle
 10
1720.128581501533
 20
224.4258608042458
 30
0.0
 40
17.25
100
AcDbArc
 50
128.9424412689804
 51
51.05755873101938
  0
LINE
  5
11AD
330
1F
100
AcDbEntity
  8
0
 62
     3
100
AcDbLine
 10
1522.169345890281
 20
207.1758608042458
 30
0.0
 11
1689.240580886886
 21
207.1758608042458
 31
0.0
  0
LINE
  5
11AE
330
1F
100
AcDbEntity
  8
0
 62
     3
100
AcDbLine
 10
1517.511767327563
 20
243.1758608042458
 30
0.0
 11
1689.240580886886
 21
243.1758608042458
 31
0.0
  0
ARC
  5
11AF
330
1F
100
AcDbEntity
  8
0
 62
     3
100
AcDbCircle
 10
1720.128581501533
 20
231.1758608042457
 30
0.0
 40
12.0
100
AcDbArc
 50
51.05755873101958
 51
128.9424412689803
  0
LINE
  5
11B0
330
1F
100
AcDbEntity
  8
0
 62
     3
100
AcDbLine
 10
1727.671053834189
 20
240.5091941375791
 30
0.0
 11
1730.970885479726
 21
237.8425274709126
 31
0.0
  0
LINE
  5
11B1
330
1F
100
AcDbEntity
  8
0
 62
     3
100
AcDbLine
 10
1712.586109168876
 20
240.5091941375791
 30
0.0
 11
1709.286277523339
 21
237.8425274709124
 31
0.0
  0
CIRCLE
  5
11B2
330
1F
100
AcDbEntity
  8
0
 62
     3
100
AcDbCircle
 10
1720.128581501533
 20
224.4258608042458
 30
0.0
 40
15.2
  0
CIRCLE
  5
11B3
330
1F
100
AcDbEntity
  8
0
 62
     3
100
AcDbCircle
 10
1720.128581501533
 20
224.4258608042458
 30
0.0
 40
11.2
  0
LINE
  5
11B4
330
1F
100
AcDbEntity
  8
0
 62
     3
100
AcDbLine
 10
1506.840580886885
 20
201.6349912390283
 30
0.0
 11
1506.840580886885
 21
247.2458344190215
 31
0.0
  0
LINE
  5
11BA
330
1F
100
AcDbEntity
  8
0
 62
     3
100
AcDbLine
 10
1456.240580886886
 20
247.7258608042458
 30
0.0
 11
1453.240580886886
 21
245.2258608042458
 31
0.0
  0
LINE
  5
11BB
330
1F
100
AcDbEntity
  8
0
 62
     3
100
AcDbLine
 10
1453.240580886886
 20
245.2258608042458
 30
0.0
 11
1453.240580886886
 21
203.6258608042457
 31
0.0
  0
LINE
  5
11BC
330
1F
100
AcDbEntity
  8
0
 62
     3
100
AcDbLine
 10
1453.240580886886
 20
203.6258608042457
 30
0.0
 11
1456.240580886886
 21
201.1258608042457
 31
0.0
  0
LINE
  5
11BD
330
1F
100
AcDbEntity
  8
0
 62
     3
100
AcDbLine
 10
1498.240580886886
 20
250.5258608042457
 30
0.0
 11
1498.240580886886
 21
243.5749034924892
 31
0.0
  0
LINE
  5
11C0
330
1F
100
AcDbEntity
  8
0
 62
     3
100
AcDbLine
 10
1498.240580886886
 20
250.5258608042458
 30
0.0
 11
1456.240580886886
 21
247.7258608042458
 31
0.0
  0
LINE
  5
11C1
330
1F
100
AcDbEntity
  8
0
 62
     3
100
AcDbLine
 10
1456.240580886886
 20
247.7258608042458
 30
0.0
 11
1456.240580886886
 21
201.1258608042457
 31
0.0
  0
LINE
  5
11C2
330
1F
100
AcDbEntity
  8
0
 62
     3
100
AcDbLine
 10
1456.240580886886
 20
201.1258608042457
 30
0.0
 11
1498.240580886886
 21
198.3258608042456
 31
0.0
  0
LINE
  5
11C3
330
1F
100
AcDbEntity
  8
0
 62
     3
100
AcDbLine
 10
1521.240580886886
 20
241.3812485075357
 30
0.0
 11
1521.240580886886
 21
207.4531534741848
 31
0.0
  0
LINE
  5
11C4
330
1F
100
AcDbEntity
  8
0
 62
     3
100
AcDbLine
 10
1520.373770727203
 20
206.8423273297592
 30
0.0
 11
1498.240580886886
 21
198.3258608042456
 31
0.0
  0
LINE
  5
11C5
330
1F
100
AcDbEntity
  8
0
 62
     3
100
AcDbLine
 10
1521.240580886886
 20
241.7536972158552
 30
0.0
 11
1498.240580886886
 21
250.5258608042458
 31
0.0
  0
LINE
  5
11CB
330
1F
100
AcDbEntity
  8
0
 62
     3
100
AcDbLine
 10
1686.7280100492
 20
233.6311673487562
 30
0.0
 11
1684.753151724571
 21
232.2205542597354
 31
0.0
  0
LINE
  5
11CC
330
1F
100
AcDbEntity
  8
0
 62
     3
100
AcDbLine
 10
1682.240580886886
 20
227.3381534324949
 30
0.0
 11
1682.240580886886
 21
221.5135681759966
 31
0.0
  0
LINE
  5
11CD
330
1F
100
AcDbEntity
  8
0
 62
     3
100
AcDbLine
 10
1684.753151724571
 20
216.6311673487562
 30
0.0
 11
1686.7280100492
 21
215.2205542597354
 31
0.0
  0
LINE
  5
11CE
330
1F
100
AcDbEntity
  8
0
 62
     3
100
AcDbLine
 10
1689.240580886886
 20
238.5135681759966
 30
0.0
 11
1689.240580886886
 21
243.1758608042458
 31
0.0
  0
ARC
  5
11CF
330
1F
100
AcDbEntity
  8
0
 62
     3
100
AcDbCircle
 10
1683.240580886885
 20
238.5135681759968
 30
0.0
 40
6.0
100
AcDbArc
 50
305.5376777919786
 51
359.9999999999976
  0
ARC
  5
11D0
330
1F
100
AcDbEntity
  8
0
 62
     3
100
AcDbCircle
 10
1683.240580886885
 20
210.3381534324947
 30
0.0
 40
6.0
100
AcDbArc
 50
0.0000000000024427
 51
54.46232220802147
  0
ARC
  5
11D2
330
1F
100
AcDbEntity
  8
0
 62
     3
100
AcDbCircle
 10
1688.240580886885
 20
227.3381534324949
 30
0.0
 40
6.0
100
AcDbArc
 50
125.5376777919744
 51
180.0
  0
ARC
  5
11D3
330
1F
100
AcDbEntity
  8
0
 62
     3
100
AcDbCircle
 10
1688.240580886885
 20
221.5135681759966
 30
0.0
 40
6.0
100
AcDbArc
 50
180.0
 51
234.4623222080255
  0
LINE
  5
11D4
330
1F
100
AcDbEntity
  8
0
 62
     3
100
AcDbLine
 10
1684.240580886886
 20
217.041432220997
 30
0.0
 11
1684.240580886886
 21
231.8102893874945
 31
0.0
  0
ARC
  5
11D8
330
1F
100
AcDbEntity
  8
0
 62
     3
100
AcDbCircle
 10
1670.560580886886
 20
224.4258608042457
 30
0.0
 40
17.68000000000006
100
AcDbArc
 50
330.6526494480606
 51
29.34735055193939
  0
LINE
  5
11DE
330
1F
100
AcDbEntity
  8
0
 62
     3
100
AcDbLine
 10
1514.740580886886
 20
234.9258608042458
 30
0.0
 11
1498.240580886886
 21
231.4258608042457
 31
0.0
  0
LINE
  5
11DF
330
1F
100
AcDbEntity
  8
0
 62
     3
100
AcDbLine
 10
1514.740580886886
 20
213.9258608042458
 30
0.0
 11
1498.240580886886
 21
217.4258608042458
 31
0.0
  0
LINE
  5
11E3
330
1F
100
AcDbEntity
  8
0
 62
     3
100
AcDbLine
 10
1514.740580886886
 20
234.9258608042458
 30
0.0
 11
1513.740580886886
 21
229.4258608042458
 31
0.0
  0
LINE
  5
11E4
330
1F
100
AcDbEntity
  8
0
 62
     3
100
AcDbLine
 10
1514.740580886886
 20
213.9258608042458
 30
0.0
 11
1513.740580886886
 21
219.4258608042458
 31
0.0
  0
LINE
  5
11E9
330
1F
100
AcDbEntity
  8
0
 62
     3
100
AcDbLine
 10
1513.740580886886
 20
229.4258608042458
 30
0.0
 11
1509.582467003877
 21
228.0398228432429
 31
0.0
  0
LINE
  5
11EA
330
1F
100
AcDbEntity
  8
0
 62
     3
100
AcDbLine
 10
1509.240580886886
 20
227.5654811942177
 30
0.0
 11
1509.240580886886
 21
221.2862404142738
 31
0.0
  0
LINE
  5
11EB
330
1F
100
AcDbEntity
  8
0
 62
     3
100
AcDbLine
 10
1509.582467003877
 20
220.8118987652486
 30
0.0
 11
1513.740580886886
 21
219.4258608042458
 31
0.0
  0
ARC
  5
11EC
330
1F
100
AcDbEntity
  8
0
 62
     3
100
AcDbCircle
 10
1509.740580886886
 20
227.5654811942177
 30
0.0
 40
0.5
100
AcDbArc
 50
108.4349488229219
 51
180.0
  0
ARC
  5
11ED
330
1F
100
AcDbEntity
  8
0
 62
     3
100
AcDbCircle
 10
1509.740580886886
 20
221.2862404142738
 30
0.0
 40
0.5
100
AcDbArc
 50
180.0
 51
251.5650511770779
  0
LINE
  5
11EF
330
1F
100
AcDbEntity
  8
0
 62
     3
100
AcDbLine
 10
1498.240580886886
 20
231.4258608042457
 30
0.0
 11
1493.740580886886
 21
231.4258608042457
 31
0.0
  0
LINE
  5
11F0
330
1F
100
AcDbEntity
  8
0
 62
     3
100
AcDbLine
 10
1498.240580886886
 20
217.4258608042458
 30
0.0
 11
1493.740580886886
 21
217.4258608042458
 31
0.0
  0
ARC
  5
11F1
330
1F
100
AcDbEntity
  8
0
 62
     3
100
AcDbCircle
 10
1493.740580886886
 20
230.4258608042458
 30
0.0
 40
1.0
100
AcDbArc
 50
90.0
 51
198.9246444160537
  0
ARC
  5
11F2
330
1F
100
AcDbEntity
  8
0
 62
     3
100
AcDbCircle
 10
1493.740580886886
 20
218.4258608042457
 30
0.0
 40
1.0
100
AcDbArc
 50
161.0753555839463
 51
270.0
  0
ARC
  5
11F4
330
1F
100
AcDbEntity
  8
0
 62
     3
100
AcDbCircle
 10
1476.240580886886
 20
224.4258608042458
 30
0.0
 40
17.5
100
AcDbArc
 50
341.0753555839489
 51
356.7241710402012
  0
LINE
  5
11F6
330
1F
100
AcDbEntity
  8
0
 62
     3
100
AcDbLine
 10
1505.340580886885
 20
219.4258608042458
 30
0.0
 11
1505.340580886885
 21
229.4258608042458
 31
0.0
  0
LINE
  5
11F7
330
1F
100
AcDbEntity
  8
0
 62
     3
100
AcDbLine
 10
1505.340580886885
 20
229.4258608042458
 30
0.0
 11
1498.240580886886
 21
229.4258608042458
 31
0.0
  0
LINE
  5
11F8
330
1F
100
AcDbEntity
  8
0
 62
     3
100
AcDbLine
 10
1505.340580886885
 20
219.4258608042458
 30
0.0
 11
1498.240580886886
 21
219.4258608042458
 31
0.0
  0
LINE
  5
11F9
330
1F
100
AcDbEntity
  8
0
 62
     3
100
AcDbLine
 10
1506.840580886885
 20
229.764570481665
 30
0.0
 11
1505.340580886885
 21
229.4258608042458
 31
0.0
  0
LINE
  5
11FB
330
1F
100
AcDbEntity
  8
0
 62
     3
100
AcDbLine
 10
1506.840580886885
 20
219.0871511268265
 30
0.0
 11
1505.340580886885
 21
219.4258608042458
 31
0.0
  0
ARC
  5
11FC
330
1F
100
AcDbEntity
  8
0
 62
     3
100
AcDbCircle
 10
1500.862217056937
 20
247.5418175301704
 30
0.0
 40
18.75556841865454
100
AcDbArc
 50
288.5874320963982
 51
317.7279784257517
  0
ARC
  5
1203
330
1F
100
AcDbEntity
  8
0
 62
     3
100
AcDbCircle
 10
1500.862217056937
 20
201.3099040783211
 30
0.0
 40
18.75556841865454
100
AcDbArc
 50
42.27202157424826
 51
71.41256790360134
  0
LINE
  5
1204
330
1F
100
AcDbEntity
  8
0
 62
     3
100
AcDbLine
 10
1498.240580886886
 20
229.4258608042458
 30
0.0
 11
1493.740580886886
 21
230.4258608042458
 31
0.0
  0
LINE
  5
1205
330
1F
100
AcDbEntity
  8
0
 62
     3
100
AcDbLine
 10
1498.240580886886
 20
219.4258608042458
 30
0.0
 11
1493.740580886886
 21
218.4258608042457
 31
0.0
  0
ARC
  5
1206
330
1F
100
AcDbEntity
  8
0
 62
     3
100
AcDbCircle
 10
1519.787909239537
 20
224.4258608042457
 30
0.0
 40
22.11984084791203
100
AcDbArc
 50
166.9358756722061
 51
193.0641243277937
  0
LINE
  5
1207
330
1F
100
AcDbEntity
  8
0
 62
     3
100
AcDbLine
 10
1498.240580886886
 20
219.4258608042457
 30
0.0
 11
1498.240580886886
 21
217.4258608042457
 31
0.0
  0
CIRCLE
  5
120D
330
1F
100
AcDbEntity
  8
0
 62
     3
100
AcDbCircle
 10
1501.340580886886
 20
224.4258608042458
 30
0.0
 40
2.25
  0
ARC
  5
1210
330
1F
100
AcDbEntity
  8
0
 62
     3
100
AcDbCircle
 10
1522.169345890281
 20
202.1758608042456
 30
0.0
 40
5.0
100
AcDbArc
 50
90.0
 51
111.0458570966682
  0
ARC
  5
1212
330
1F
100
AcDbEntity
  8
0
 62
     3
100
AcDbCircle
 10
1408.71375204759
 20
224.4258608042458
 30
0.0
 40
26.09999999999999
100
AcDbArc
 50
2.195778042934199
 51
42.80422195706544
  0
CIRCLE
  5
1215
330
1F
100
AcDbEntity
  8
0
 62
     3
100
AcDbCircle
 10
1408.71375204759
 20
224.4258608042458
 30
0.0
 40
23.30000000000001
  0
CIRCLE
  5
1216
330
1F
100
AcDbEntity
  8
0
 62
     3
100
AcDbCircle
 10
1408.71375204759
 20
224.4258608042458
 30
0.0
 40
20.80000000000001
  0
CIRCLE
  5
1217
330
1F
100
AcDbEntity
  8
0
 62
     3
100
AcDbCircle
 10
1408.71375204759
 20
224.4258608042458
 30
0.0
 40
18.5
  0
CIRCLE
  5
1218
330
1F
100
AcDbEntity
  8
0
 62
     3
100
AcDbCircle
 10
1408.71375204759
 20
224.4258608042458
 30
0.0
 40
17.75
  0
LINE
  5
121F
330
1F
100
AcDbEntity
  8
0
 62
     3
100
AcDbLine
 10
1432.626184890035
 20
225.4258608042458
 30
0.0
 11
1434.794587923765
 21
225.4258608042458
 31
0.0
  0
LINE
  5
1220
330
1F
100
AcDbEntity
  8
0
 62
     3
100
AcDbLine
 10
1432.626184890035
 20
223.4258608042458
 30
0.0
 11
1434.794587923765
 21
223.4258608042458
 31
0.0
  0
ARC
  5
1221
330
1F
100
AcDbEntity
  8
0
 62
     3
100
AcDbCircle
 10
1434.091083406588
 20
224.4258608042457
 30
0.0
 40
1.22266864100136
100
AcDbArc
 50
305.1265595459362
 51
54.87344045406531
  0
ARC
  5
1222
330
1F
100
AcDbEntity
  8
0
 62
     3
100
AcDbCircle
 10
1433.430259665438
 20
224.4258608042457
 30
0.0
 40
1.283174284514426
100
AcDbArc
 50
128.8018837503915
 51
231.1981162496065
  0
LINE
  5
1225
330
1F
100
AcDbEntity
  8
0
 62
     3
100
AcDbLine
 10
1459.240580886886
 20
225.4258608042458
 30
0.0
 11
1493.711986096542
 21
225.4258608042458
 31
0.0
  0
LINE
  5
1226
330
1F
100
AcDbEntity
  8
0
 62
     3
100
AcDbLine
 10
1459.240580886886
 20
223.4258608042458
 30
0.0
 11
1493.711986096542
 21
223.4258608042458
 31
0.0
  0
ARC
  5
1227
330
1F
100
AcDbEntity
  8
0
 62
     3
100
AcDbCircle
 10
1459.240580886886
 20
224.4258608042458
 30
0.0
 40
1.0
100
AcDbArc
 50
90.0
 51
270.0
  0
ARC
  5
1228
330
1F
100
AcDbEntity
  8
0
 62
     3
100
AcDbCircle
 10
1493.158946819193
 20
224.4258608042458
 30
0.0
 40
1.142739008824909
100
AcDbArc
 50
298.9443171606417
 51
61.05568283935812
  0
ARC
  5
1229
330
1F
100
AcDbEntity
  8
0
 62
     3
100
AcDbCircle
 10
1476.240580886886
 20
224.4258608042458
 30
0.0
 40
17.5
100
AcDbArc
 50
3.275828959798793
 51
18.92464441605114
  0
LINE
  5
122A
330
1F
100
AcDbEntity
  8
0
 62
     3
100
AcDbLine
 10
1426.329502246337
 20
240.6273974406199
 30
0.0
 11
1427.862794735833
 21
242.1606899301159
 31
0.0
  0
LINE
  5
122B
330
1F
100
AcDbEntity
  8
0
 62
     3
100
AcDbLine
 10
1424.915288683964
 20
242.041611002993
 30
0.0
 11
1426.44858117346
 21
243.574903492489
 31
0.0
  0
ARC
  5
122C
330
1F
100
AcDbEntity
  8
0
 62
     3
100
AcDbCircle
 10
1426.658235139956
 20
242.3703438966115
 30
0.0
 40
1.22266864100136
100
AcDbArc
 50
350.1265595459332
 51
99.87344045406707
  0
ARC
  5
122D
330
1F
100
AcDbEntity
  8
0
 62
     3
100
AcDbCircle
 10
1426.190962191419
 20
241.9030709480746
 30
0.0
 40
1.283174284514426
100
AcDbArc
 50
173.8018837503938
 51
276.1981162496062
  0
LINE
  5
122F
330
1F
100
AcDbEntity
  8
0
 62
     3
100
AcDbLine
 10
1409.71375204759
 20
248.3382936466905
 30
0.0
 11
1409.71375204759
 21
250.5066966804209
 31
0.0
  0
LINE
  5
1230
330
1F
100
AcDbEntity
  8
0
 62
     3
100
AcDbLine
 10
1407.71375204759
 20
248.3382936466905
 30
0.0
 11
1407.71375204759
 21
250.5066966804209
 31
0.0
  0
ARC
  5
1231
330
1F
100
AcDbEntity
  8
0
 62
     3
100
AcDbCircle
 10
1408.71375204759
 20
249.8031921632442
 30
0.0
 40
1.22266864100136
100
AcDbArc
 50
35.12655954592768
 51
144.8734404540723
  0
ARC
  5
1232
330
1F
100
AcDbEntity
  8
0
 62
     3
100
AcDbCircle
 10
1408.71375204759
 20
249.1423684220933
 30
0.0
 40
1.283174284514426
100
AcDbArc
 50
218.8018837503979
 51
321.198116249602
  0
LINE
  5
1234
330
1F
100
AcDbEntity
  8
0
 62
     3
100
AcDbLine
 10
1392.512215411216
 20
242.0416110029929
 30
0.0
 11
1390.97892292172
 21
243.5749034924892
 31
0.0
  0
LINE
  5
1235
330
1F
100
AcDbEntity
  8
0
 62
     3
100
AcDbLine
 10
1391.098001848843
 20
240.6273974406198
 30
0.0
 11
1389.564709359346
 21
242.1606899301161
 31
0.0
  0
ARC
  5
1236
330
1F
100
AcDbEntity
  8
0
 62
     3
100
AcDbCircle
 10
1390.769268955224
 20
242.3703438966116
 30
0.0
 40
1.22266864100136
100
AcDbArc
 50
80.1265595459265
 51
189.8734404540669
  0
ARC
  5
1237
330
1F
100
AcDbEntity
  8
0
 62
     3
100
AcDbCircle
 10
1391.236541903761
 20
241.9030709480747
 30
0.0
 40
1.283174284514426
100
AcDbArc
 50
263.8018837503937
 51
6.198116249606162
  0
LINE
  5
1239
330
1F
100
AcDbEntity
  8
0
 62
     3
100
AcDbLine
 10
1384.801319205145
 20
225.4258608042459
 30
0.0
 11
1382.632916171415
 21
225.4258608042459
 31
0.0
  0
LINE
  5
123A
330
1F
100
AcDbEntity
  8
0
 62
     3
100
AcDbLine
 10
1384.801319205145
 20
223.4258608042459
 30
0.0
 11
1382.632916171415
 21
223.4258608042459
 31
0.0
  0
ARC
  5
123B
330
1F
100
AcDbEntity
  8
0
 62
     3
100
AcDbCircle
 10
1383.336420688592
 20
224.4258608042459
 30
0.0
 40
1.22266864100136
100
AcDbArc
 50
125.1265595459419
 51
234.8734404540581
  0
ARC
  5
123C
330
1F
100
AcDbEntity
  8
0
 62
     3
100
AcDbCircle
 10
1383.997244429742
 20
224.4258608042459
 30
0.0
 40
1.283174284514426
100
AcDbArc
 50
308.8018837503835
 51
51.19811624961428
  0
LINE
  5
123E
330
1F
100
AcDbEntity
  8
0
 62
     3
100
AcDbLine
 10
1391.098001848843
 20
208.2243241678716
 30
0.0
 11
1389.564709359346
 21
206.6910316783756
 31
0.0
  0
LINE
  5
123F
330
1F
100
AcDbEntity
  8
0
 62
     3
100
AcDbLine
 10
1392.512215411216
 20
206.8101106054987
 30
0.0
 11
1390.978922921719
 21
205.2768181160022
 31
0.0
  0
ARC
  5
1240
330
1F
100
AcDbEntity
  8
0
 62
     3
100
AcDbCircle
 10
1390.769268955224
 20
206.48137771188
 30
0.0
 40
1.22266864100136
100
AcDbArc
 50
170.1265595459397
 51
279.8734404540735
  0
ARC
  5
1241
330
1F
100
AcDbEntity
  8
0
 62
     3
100
AcDbCircle
 10
1391.236541903761
 20
206.9486506604169
 30
0.0
 40
1.283174284514426
100
AcDbArc
 50
353.8018837503938
 51
96.19811624960631
  0
LINE
  5
1243
330
1F
100
AcDbEntity
  8
0
 62
     3
100
AcDbLine
 10
1407.71375204759
 20
200.513427961801
 30
0.0
 11
1407.71375204759
 21
198.3450249280706
 31
0.0
  0
LINE
  5
1244
330
1F
100
AcDbEntity
  8
0
 62
     3
100
AcDbLine
 10
1409.71375204759
 20
200.513427961801
 30
0.0
 11
1409.71375204759
 21
198.3450249280706
 31
0.0
  0
ARC
  5
1245
330
1F
100
AcDbEntity
  8
0
 62
     3
100
AcDbCircle
 10
1408.71375204759
 20
199.0485294452474
 30
0.0
 40
1.22266864100136
100
AcDbArc
 50
215.1265595459277
 51
324.8734404540723
  0
ARC
  5
1246
330
1F
100
AcDbEntity
  8
0
 62
     3
100
AcDbCircle
 10
1408.71375204759
 20
199.7093531863981
 30
0.0
 40
1.283174284514426
100
AcDbArc
 50
38.80188375039793
 51
141.198116249602
  0
LINE
  5
1248
330
1F
100
AcDbEntity
  8
0
 62
     3
100
AcDbLine
 10
1424.915288683964
 20
206.8101106054986
 30
0.0
 11
1426.44858117346
 21
205.2768181160025
 31
0.0
  0
LINE
  5
1249
330
1F
100
AcDbEntity
  8
0
 62
     3
100
AcDbLine
 10
1426.329502246337
 20
208.2243241678717
 30
0.0
 11
1427.862794735833
 21
206.6910316783756
 31
0.0
  0
ARC
  5
124A
330
1F
100
AcDbEntity
  8
0
 62
     3
100
AcDbCircle
 10
1426.658235139956
 20
206.48137771188
 30
0.0
 40
1.22266864100136
100
AcDbArc
 50
260.1265595459361
 51
9.873440454060297
  0
ARC
  5
124B
330
1F
100
AcDbEntity
  8
0
 62
     3
100
AcDbCircle
 10
1426.190962191419
 20
206.9486506604168
 30
0.0
 40
1.283174284514426
100
AcDbArc
 50
83.80188375039043
 51
186.1981162496061
  0
LINE
  5
124E
330
1F
100
AcDbEntity
  8
0
 62
     3
100
AcDbLine
 10
1498.240580886886
 20
251.0258608042457
 30
0.0
 11
1458.705182656797
 21
248.3901675889065
 31
0.0
  0
ARC
  5
124F
330
1F
100
AcDbEntity
  8
0
 62
     3
100
AcDbCircle
 10
1458.738368497505
 20
247.8923799782871
 30
0.0
 40
0.4988925789282364
100
AcDbArc
 50
93.81407483429793
 51
183.8140748342921
  0
LINE
  5
1250
330
1F
100
AcDbEntity
  8
0
 62
     3
100
AcDbLine
 10
1498.240580886886
 20
197.8258608042458
 30
0.0
 11
1458.705182656797
 21
200.461554019585
 31
0.0
  0
ARC
  5
1251
330
1F
100
AcDbEntity
  8
0
 62
     3
100
AcDbCircle
 10
1458.738368497505
 20
200.9593416302045
 30
0.0
 40
0.4988925789282364
100
AcDbArc
 50
176.1859251657085
 51
266.185925165702
  0
LINE
  5
125A
330
1F
100
AcDbEntity
  8
0
 62
     3
100
AcDbLine
 10
1498.240580886886
 20
243.5749034924891
 30
0.0
 11
1459.213515617754
 21
242.0789058408831
 31
0.0
  0
LINE
  5
125B
330
1F
100
AcDbEntity
  8
0
 62
     3
100
AcDbLine
 10
1498.240580886886
 20
242.1606899301159
 30
0.0
 11
1459.267646156016
 21
240.6667672272047
 31
0.0
  0
ELLIPSE
  5
1262
330
1F
100
AcDbEntity
  8
0
 62
     3
100
AcDbEllipse
 10
1459.240580886886
 20
241.3728365340438
 30
0.0
 11
-0.9999999999999962
 21
-0.038332312237493
 31
0.0
210
0.0
220
0.0
230
1.0
 40
0.7060693068392281
 41
4.712388980384688
 42
7.853981633974482
  0
LINE
  5
1269
330
1F
100
AcDbEntity
  8
0
 62
     3
100
AcDbLine
 10
1433.857538556387
 20
231.4258608042457
 30
0.0
 11
1436.637123522736
 21
229.7186109732022
 31
0.0
  0
LINE
  5
126A
330
1F
100
AcDbEntity
  8
0
 62
     3
100
AcDbLine
 10
1437.11375204759
 20
228.8665063440613
 30
0.0
 11
1437.11375204759
 21
219.9852152644302
 31
0.0
  0
LINE
  5
126B
330
1F
100
AcDbEntity
  8
0
 62
     3
100
AcDbLine
 10
1436.637123522736
 20
219.1331106352894
 30
0.0
 11
1433.857538556387
 21
217.4258608042458
 31
0.0
  0
ARC
  5
126C
330
1F
100
AcDbEntity
  8
0
 62
     3
100
AcDbCircle
 10
1436.11375204759
 20
228.8665063440613
 30
0.0
 40
1.0
100
AcDbArc
 50
0.0
 51
58.44132367570106
  0
ARC
  5
126D
330
1F
100
AcDbEntity
  8
0
 62
     3
100
AcDbCircle
 10
1436.11375204759
 20
219.9852152644302
 30
0.0
 40
1.0
100
AcDbArc
 50
301.5586763242989
 51
0.0
  0
ARC
  5
126E
330
1F
100
AcDbEntity
  8
0
 62
     3
100
AcDbCircle
 10
1408.71375204759
 20
224.4258608042458
 30
0.0
 40
26.09999999999999
100
AcDbArc
 50
47.19577804293388
 51
87.80422195706568
  0
ARC
  5
126F
330
1F
100
AcDbEntity
  8
0
 62
     3
100
AcDbCircle
 10
1408.71375204759
 20
224.4258608042458
 30
0.0
 40
26.09999999999999
100
AcDbArc
 50
92.19577804293331
 51
132.8042219570658
  0
ARC
  5
1270
330
1F
100
AcDbEntity
  8
0
 62
     3
100
AcDbCircle
 10
1408.71375204759
 20
224.4258608042458
 30
0.0
 40
26.09999999999999
100
AcDbArc
 50
137.1957780429334
 51
177.8042219570666
  0
ARC
  5
1271
330
1F
100
AcDbEntity
  8
0
 62
     3
100
AcDbCircle
 10
1408.71375204759
 20
224.4258608042458
 30
0.0
 40
26.09999999999999
100
AcDbArc
 50
182.1957780429333
 51
222.8042219570662
  0
ARC
  5
1272
330
1F
100
AcDbEntity
  8
0
 62
     3
100
AcDbCircle
 10
1408.71375204759
 20
224.4258608042458
 30
0.0
 40
26.09999999999999
100
AcDbArc
 50
227.1957780429339
 51
267.8042219570667
  0
ARC
  5
1273
330
1F
100
AcDbEntity
  8
0
 62
     3
100
AcDbCircle
 10
1408.71375204759
 20
224.4258608042458
 30
0.0
 40
26.09999999999999
100
AcDbArc
 50
272.1957780429343
 51
312.8042219570661
  0
ARC
  5
1274
330
1F
100
AcDbEntity
  8
0
 62
     3
100
AcDbCircle
 10
1408.71375204759
 20
224.4258608042458
 30
0.0
 40
26.09999999999999
100
AcDbArc
 50
317.1957780429344
 51
357.8042219570658
  0
LINE
  5
1276
330
1F
100
AcDbEntity
  8
0
 62
     3
100
AcDbLine
 10
1501.472713817936
 20
249.7931304211761
 30
0.0
 11
1498.240580886886
 21
251.0258608042458
 31
0.0
  0
ARC
  5
127E
330
1F
100
AcDbEntity
  8
0
 62
     3
100
AcDbCircle
 10
1501.008074424825
 20
248.5748783977288
 30
0.0
 40
1.303851125805802
100
AcDbArc
 50
19.04166284910659
 51
69.12322807326693
  0
LINE
  5
1284
330
1F
100
AcDbEntity
  8
0
 62
     3
100
AcDbLine
 10
1501.41847039929
 20
242.7171914596375
 30
0.0
 11
1498.240580886886
 21
243.5749034924891
 31
0.0
  0
LINE
  5
1285
330
1F
100
AcDbEntity
  8
0
 62
     3
100
AcDbLine
 10
1501.062691374481
 20
241.399002617263
 30
0.0
 11
1498.240580886886
 21
242.1606899301159
 31
0.0
  0
ELLIPSE
  5
1289
330
1F
100
AcDbEntity
  8
0
 62
     3
100
AcDbEllipse
 10
1501.240580886886
 20
242.0580970384502
 30
0.0
 11
-0.9999999999999598
 21
0.2698998909509447
 31
0.0
210
0.0
220
0.0
230
1.0
 40
0.6590944211872606
 41
1.570796326794896
 42
4.712388980384688
  0
LINE
  5
128A
330
1F
100
AcDbEntity
  8
0
 62
     3
100
AcDbLine
 10
1498.240580886886
 20
205.2768181160024
 30
0.0
 11
1459.213515617754
 21
206.7728157676084
 31
0.0
  0
LINE
  5
128B
330
1F
100
AcDbEntity
  8
0
 62
     3
100
AcDbLine
 10
1498.240580886886
 20
206.6910316783756
 30
0.0
 11
1459.267646156016
 21
208.1849543812868
 31
0.0
  0
ELLIPSE
  5
128C
330
1F
100
AcDbEntity
  8
0
 62
     3
100
AcDbEllipse
 10
1459.240580886886
 20
207.4788850744477
 30
0.0
 11
-0.9999999999999962
 21
0.038332312237493
 31
0.0
210
0.0
220
0.0
230
-1.0
 40
0.7060693068392281
 41
4.712388980384688
 42
7.853981633974482
  0
LINE
  5
128D
330
1F
100
AcDbEntity
  8
0
 62
     3
100
AcDbLine
 10
1501.41847039929
 20
206.134530148854
 30
0.0
 11
1498.240580886886
 21
205.2768181160024
 31
0.0
  0
LINE
  5
128E
330
1F
100
AcDbEntity
  8
0
 62
     3
100
AcDbLine
 10
1501.062691374481
 20
207.4527189912285
 30
0.0
 11
1498.240580886886
 21
206.6910316783756
 31
0.0
  0
ELLIPSE
  5
128F
330
1F
100
AcDbEntity
  8
0
 62
     3
100
AcDbEllipse
 10
1501.240580886886
 20
206.7936245700412
 30
0.0
 11
-0.9999999999999598
 21
-0.2698998909509447
 31
0.0
210
0.0
220
0.0
230
-1.0
 40
0.6590944211872606
 41
1.570796326794896
 42
4.712388980384688
  0
LINE
  5
1290
330
1F
100
AcDbEntity
  8
0
 62
     3
100
AcDbLine
 10
1498.240580886886
 20
242.1606899301159
 30
0.0
 11
1498.240580886886
 21
231.4258608042457
 31
0.0
  0
LINE
  5
1291
330
1F
100
AcDbEntity
  8
0
 62
     3
100
AcDbLine
 10
1498.240580886886
 20
205.2768181160024
 30
0.0
 11
1498.240580886886
 21
198.3258608042456
 31
0.0
  0
LINE
  5
1294
330
1F
100
AcDbEntity
  8
0
 62
     3
100
AcDbLine
 10
1501.472713817936
 20
199.0585911873154
 30
0.0
 11
1498.240580886886
 21
197.8258608042457
 31
0.0
  0
ARC
  5
1295
330
1F
100
AcDbEntity
  8
0
 62
     3
100
AcDbCircle
 10
1501.008074424825
 20
200.2768432107628
 30
0.0
 40
1.303851125805802
100
AcDbArc
 50
290.8767719267327
 51
340.9583371508934
  0
LINE
  5
129C
330
1F
100
AcDbEntity
  8
0
 62
     3
100
AcDbLine
 10
1681.698691820884
 20
195.2670142861726
 30
0.0
 11
1682.740580886886
 21
201.1758608042462
 31
0.0
  0
ARC
  5
129E
330
1F
100
AcDbEntity
  8
0
 62
     3
100
AcDbCircle
 10
1680.713884067871
 20
195.4406624638395
 30
0.0
 40
1.0
100
AcDbArc
 50
240.4298864875066
 51
350.0000000000361
  0
ARC
  5
129F
330
1F
100
AcDbEntity
  8
0
 62
     3
100
AcDbCircle
 10
1657.240580886886
 20
216.1758608042458
 30
0.0
 40
20.0
100
AcDbArc
 50
251.8051276612336
 51
288.1948723387663
  0
LINE
  5
12A3
330
1F
100
AcDbEntity
  8
0
 62
     3
100
AcDbLine
 10
1587.240580886885
 20
199.1602987631629
 30
0.0
 11
1587.240580886885
 21
203.6758608042458
 31
0.0
  0
LINE
  5
12A4
330
1F
100
AcDbEntity
  8
0
 62
     3
100
AcDbLine
 10
1650.995582888487
 20
197.1758608042456
 30
0.0
 11
1588.224897772134
 21
198.16042175077
 31
0.0
  0
ARC
  5
12A6
330
1F
100
AcDbEntity
  8
0
 62
     3
100
AcDbCircle
 10
1670.350630701496
 20
177.1758608042456
 30
0.0
 40
20.0
100
AcDbArc
 50
60.42988648750611
 51
90.0
  0
LINE
  5
12A7
330
1F
100
AcDbEntity
  8
0
 62
     3
100
AcDbLine
 10
1663.485578885284
 20
197.1758608042456
 30
0.0
 11
1670.350630701496
 21
197.1758608042456
 31
0.0
  0
LINE
  5
12A8
330
1F
100
AcDbEntity
  8
0
 62
     3
100
AcDbLine
 10
1597.240580886886
 20
204.6758608042458
 30
0.0
 11
1650.881687603719
 21
204.6758608042458
 31
0.0
  0
ARC
  5
12A9
330
1F
100
AcDbEntity
  8
0
 62
     3
100
AcDbCircle
 10
1588.240580886886
 20
199.160298763163
 30
0.0
 40
1.0
100
AcDbArc
 50
180.0000000000081
 51
269.1013868753797
  0
LINE
  5
12AB
330
1F
100
AcDbEntity
  8
0
 62
     3
100
AcDbLine
 10
1597.240580886885
 20
207.1758608042458
 30
0.0
 11
1597.240580886886
 21
204.6758608042458
 31
0.0
  0
LINE
  5
12AD
330
1F
100
AcDbEntity
  8
0
 62
     3
100
AcDbLine
 10
1594.746355108669
 20
207.1758608042458
 30
0.0
 11
1587.240580886885
 21
203.6758608042458
 31
0.0
  0
CIRCLE
  5
12AF
330
1F
100
AcDbEntity
  8
0
 62
     3
100
AcDbCircle
 10
1657.240580886886
 20
202.6758608042458
 30
0.0
 40
1.5
  0
ARC
  5
12B1
330
1F
100
AcDbEntity
  8
0
 62
     3
100
AcDbCircle
 10
1657.240580886886
 20
219.1758608042458
 30
0.0
 40
20.0
100
AcDbArc
 50
251.8051276612336
 51
288.1948723387663
  0
LINE
  5
12B3
330
1F
100
AcDbEntity
  8
0
 62
     3
100
AcDbLine
 10
1588.224897772134
 20
198.16042175077
 30
0.0
 11
1650.995582888487
 21
200.1758608042457
 31
0.0
  0
ARC
  5
12B4
330
1F
100
AcDbEntity
  8
0
 62
     3
100
AcDbCircle
 10
1665.239598164139
 20
177.6276532443554
 30
0.0
 40
22.61632701820734
100
AcDbArc
 50
48.51770202812458
 51
94.44806630328523
  0
ARC
  5
12B5
330
1F
100
AcDbEntity
  8
0
 62
     3
100
AcDbCircle
 10
1657.240580886886
 20
202.6758608042458
 30
0.0
 40
4.5
100
AcDbArc
 50
33.74898859588866
 51
115.0000000000003
  0
LINE
  5
12B7
330
1F
100
AcDbEntity
  8
0
 62
     3
100
AcDbLine
 10
1682.740580886886
 20
201.1758608042462
 30
0.0
 11
1660.98223827366
 21
205.1758608042458
 31
0.0
  0
LINE
  5
12BA
330
1F
100
AcDbEntity
  8
0
 62
     3
100
AcDbLine
 10
1655.338798709052
 20
206.7542458459107
 30
0.0
 11
1650.881687603719
 21
204.6758608042458
 31
0.0
  0
ARC
  5
12C0
330
1F
100
AcDbEntity
  8
0
 62
     3
100
AcDbCircle
 10
1668.436079042772
 20
202.1758608042456
 30
0.0
 40
5.0
100
AcDbArc
 50
90.0
 51
150.8858648775721
  0
ARC
  5
12C1
330
1F
100
AcDbEntity
  8
0
 62
     3
100
AcDbCircle
 10
1646.045082730999
 20
202.1758608042456
 30
0.0
 40
5.0
100
AcDbArc
 50
30.0
 51
90.0
  0
LINE
  5
12C2
330
1F
100
AcDbEntity
  8
0
 62
     3
100
AcDbLine
 10
1723.378581501533
 20
201.8795220269737
 30
0.0
 11
1723.378581501533
 21
207.4847864581483
 31
0.0
  0
LINE
  5
12C3
330
1F
100
AcDbEntity
  8
0
 62
     3
100
AcDbLine
 10
1716.878581501533
 20
201.8795220269737
 30
0.0
 11
1716.878581501533
 21
207.4847864581483
 31
0.0
  0
LINE
  5
12C6
330
1F
100
AcDbEntity
  8
0
 62
     3
100
AcDbLine
 10
1732.628581501533
 20
207.1758608042458
 30
0.0
 11
1732.628581501533
 21
199.1758608042457
 31
0.0
  0
LINE
  5
12C7
330
1F
100
AcDbEntity
  8
0
 62
     3
100
AcDbLine
 10
1707.628581501533
 20
207.1758608042458
 30
0.0
 11
1707.628581501533
 21
199.1758608042457
 31
0.0
  0
ARC
  5
12CA
330
1F
100
AcDbEntity
  8
0
 62
     3
100
AcDbCircle
 10
1720.128581501533
 20
223.7175274709119
 30
0.0
 40
27.5416666666662
100
AcDbArc
 50
243.0085334384079
 51
253.6182872559629
  0
ARC
  5
12CD
330
1F
100
AcDbEntity
  8
0
 62
     3
100
AcDbCircle
 10
1720.128581501533
 20
206.4406624638396
 30
0.0
 40
12.0
100
AcDbArc
 50
220.7071836243603
 51
319.2928163756397
  0
ARC
  5
12CF
330
1F
100
AcDbEntity
  8
0
 62
     3
100
AcDbCircle
 10
1732.628581501533
 20
195.6862392796308
 30
0.0
 40
4.489621524614991
100
AcDbArc
 50
90.0
 51
139.2928163756402
  0
ARC
  5
12D0
330
1F
100
AcDbEntity
  8
0
 62
     3
100
AcDbCircle
 10
1707.628581501533
 20
195.6862392796308
 30
0.0
 40
4.489621524614991
100
AcDbArc
 50
40.70718362435461
 51
90.0
  0
LINE
  5
12D1
330
1F
100
AcDbEntity
  8
0
 62
     3
100
AcDbLine
 10
1707.628581501533
 20
207.1758608042458
 30
0.0
 11
1709.628581501533
 21
207.1758608042458
 31
0.0
  0
LINE
  5
12D2
330
1F
100
AcDbEntity
  8
0
 62
     3
100
AcDbLine
 10
1730.628581501533
 20
207.1758608042458
 30
0.0
 11
1730.628581501533
 21
205.1758608042458
 31
0.0
  0
LINE
  5
12D3
330
1F
100
AcDbEntity
  8
0
 62
     3
100
AcDbLine
 10
1709.628581501533
 20
207.1758608042458
 30
0.0
 11
1709.628581501533
 21
205.1758608042458
 31
0.0
  0
LINE
  5
12D4
330
1F
100
AcDbEntity
  8
0
 62
     3
100
AcDbLine
 10
1730.628581501533
 20
207.1758608042458
 30
0.0
 11
1732.628581501533
 21
207.1758608042458
 31
0.0
  0
ARC
  5
12D6
330
1F
100
AcDbEntity
  8
0
 62
     3
100
AcDbCircle
 10
1720.128581501533
 20
223.7175274709119
 30
0.0
 40
27.5416666666662
100
AcDbArc
 50
286.381712744037
 51
296.9914665615919
  0
LINE
  5
12D8
330
1F
100
AcDbEntity
  8
0
 62
     3
100
AcDbLine
 10
1707.628581501533
 20
205.1758608042458
 30
0.0
 11
1716.878581501533
 21
205.1758608042458
 31
0.0
  0
ARC
  5
12DA
330
1F
100
AcDbEntity
  8
0
 62
     3
100
AcDbCircle
 10
1720.128581501533
 20
220.4258608042463
 30
0.0
 40
19.25
100
AcDbArc
 50
234.5106567498906
 51
305.4893432501093
  0
ARC
  5
12DC
330
1F
100
AcDbEntity
  8
0
 62
     3
100
AcDbCircle
 10
1732.628581501533
 20
202.8946108042435
 30
0.0
 40
2.28125000000224
100
AcDbArc
 50
90.0
 51
125.4893432501107
  0
ARC
  5
12DD
330
1F
100
AcDbEntity
  8
0
 62
     3
100
AcDbCircle
 10
1707.628581501533
 20
202.8946108042435
 30
0.0
 40
2.28125000000224
100
AcDbArc
 50
54.51065674988928
 51
90.0
  0
ARC
  5
12DE
330
1F
100
AcDbEntity
  8
0
 62
     3
100
AcDbCircle
 10
1720.128581501533
 20
217.1491103831205
 30
0.0
 40
15.61162478943734
100
AcDbArc
 50
231.7763778265301
 51
308.2236221734699
  0
ARC
  5
12E0
330
1F
100
AcDbEntity
  8
0
 62
     3
100
AcDbCircle
 10
1730.628581501533
 20
203.8173042591225
 30
0.0
 40
1.358556545123264
100
AcDbArc
 50
90.0
 51
128.2236221734706
  0
ARC
  5
12E1
330
1F
100
AcDbEntity
  8
0
 62
     3
100
AcDbCircle
 10
1709.628581501533
 20
203.8173042591225
 30
0.0
 40
1.358556545123264
100
AcDbArc
 50
51.77637782652996
 51
90.0
  0
LINE
  5
12E2
330
1F
100
AcDbEntity
  8
0
 62
     3
100
AcDbLine
 10
1723.378581501533
 20
205.1758608042458
 30
0.0
 11
1732.628581501533
 21
205.1758608042458
 31
0.0
  0
LINE
  5
12E3
330
1F
100
AcDbEntity
  8
0
 62
     3
100
AcDbLine
 10
1725.378581501533
 20
205.1758608042458
 30
0.0
 11
1725.378581501533
 21
207.4847864581483
 31
0.0
  0
LINE
  5
12E4
330
1F
100
AcDbEntity
  8
0
 62
     3
100
AcDbLine
 10
1714.878581501533
 20
205.1758608042458
 30
0.0
 11
1714.878581501533
 21
207.4847864581483
 31
0.0
  0
LINE
  5
12E5
330
1F
100
AcDbEntity
  8
0
 62
     3
100
AcDbLine
 10
1714.878581501533
 20
207.4847864581483
 30
0.0
 11
1716.878581501533
 21
207.4847864581483
 31
0.0
  0
LINE
  5
12E6
330
1F
100
AcDbEntity
  8
0
 62
     3
100
AcDbLine
 10
1725.378581501533
 20
207.4847864581483
 30
0.0
 11
1723.378581501533
 21
207.4847864581483
 31
0.0
  0
ARC
  5
12E8
330
1F
100
AcDbEntity
  8
0
 62
     3
100
AcDbCircle
 10
1720.128581501533
 20
224.4258608042458
 30
0.0
 40
17.75
100
AcDbArc
 50
313.8524136036683
 51
46.14758639633177
  0
ARC
  5
12E9
330
1F
100
AcDbEntity
  8
0
 62
     3
100
AcDbCircle
 10
1720.128581501533
 20
224.4258608042458
 30
0.0
 40
18.0
100
AcDbArc
 50
139.2486367043277
 51
220.7513632956722
  0
LINE
  5
12EA
330
1F
100
AcDbEntity
  8
0
 62
     3
100
AcDbLine
 10
1645.6924648032
 20
237.2258608042458
 30
0.0
 11
1544.240580886885
 21
237.2258608042458
 31
0.0
  0
LINE
  5
12EB
330
1F
100
AcDbEntity
  8
0
 62
     3
100
AcDbLine
 10
1658.740580886886
 20
211.6258608042457
 30
0.0
 11
1557.288696970571
 21
211.6258608042457
 31
0.0
  0
LINE
  5
12EC
330
1F
100
AcDbEntity
  8
0
 62
     3
100
AcDbLine
 10
1707.831325710097
 20
211.6258608042457
 30
0.0
 11
1708.56473698511
 21
211.6258608042457
 31
0.0
  0
LINE
  5
12ED
330
1F
100
AcDbEntity
  8
0
 62
     3
100
AcDbLine
 10
1707.831325710097
 20
237.2258608042458
 30
0.0
 11
1708.56473698511
 21
237.2258608042458
 31
0.0
  0
LINE
  5
12EE
330
1F
100
AcDbEntity
  8
0
 62
     3
100
AcDbLine
 10
1731.692426017955
 20
211.6258608042457
 30
0.0
 11
1732.425837292969
 21
211.6258608042457
 31
0.0
  0
LINE
  5
12EF
330
1F
100
AcDbEntity
  8
0
 62
     3
100
AcDbLine
 10
1731.692426017955
 20
237.2258608042458
 30
0.0
 11
1732.425837292969
 21
237.2258608042458
 31
0.0
  0
ARC
  5
12F0
330
1F
100
AcDbEntity
  8
0
 62
     3
100
AcDbCircle
 10
1720.128581501533
 20
224.4258608042458
 30
0.0
 40
17.75
100
AcDbArc
 50
133.8524136036682
 51
226.1475863963319
  0
LINE
  5
12F1
330
1F
100
AcDbEntity
  8
0
 62
     3
100
AcDbLine
 10
1645.6924648032
 20
236.1758608042458
 30
0.0
 11
1544.240580886885
 21
236.1758608042458
 31
0.0
  0
LINE
  5
12F2
330
1F
100
AcDbEntity
  8
0
 62
     3
100
AcDbLine
 10
1658.740580886886
 20
212.6758608042457
 30
0.0
 11
1557.288696970572
 21
212.6758608042458
 31
0.0
  0
LINE
  5
12F3
330
1F
100
AcDbEntity
  8
0
 62
     3
100
AcDbLine
 10
1706.492691358239
 20
212.6758608042457
 30
0.0
 11
1706.824446805883
 21
212.6758608042457
 31
0.0
  0
LINE
  5
12F4
330
1F
100
AcDbEntity
  8
0
 62
     3
100
AcDbLine
 10
1706.492691358239
 20
236.1758608042458
 30
0.0
 11
1706.824446805883
 21
236.1758608042458
 31
0.0
  0
ARC
  5
12F5
330
1F
100
AcDbEntity
  8
0
 62
     3
100
AcDbCircle
 10
1720.128581501533
 20
224.4258608042458
 30
0.0
 40
18.0
100
AcDbArc
 50
319.2486367043278
 51
40.75136329567221
  0
LINE
  5
12F6
330
1F
100
AcDbEntity
  8
0
 62
     3
100
AcDbLine
 10
1733.432716197183
 20
236.1758608042458
 30
0.0
 11
1733.764471644828
 21
236.1758608042458
 31
0.0
  0
LINE
  5
12F7
330
1F
100
AcDbEntity
  8
0
 62
     3
100
AcDbLine
 10
1733.432716197183
 20
212.6758608042457
 30
0.0
 11
1733.764471644828
 21
212.6758608042457
 31
0.0
  0
ARC
  5
12FA
330
1F
100
AcDbEntity
  8
0
 62
     3
100
AcDbCircle
 10
1658.740580886886
 20
214.1258608042457
 30
0.0
 40
2.5
100
AcDbArc
 50
270.0
 51
30.00000000000095
  0
LINE
  5
12FB
330
1F
100
AcDbEntity
  8
0
 62
     3
100
AcDbLine
 10
1660.905644396347
 20
215.3758608042458
 30
0.0
 11
1649.58957912023
 21
234.9758608042458
 31
0.0
  0
ARC
  5
12FC
330
1F
100
AcDbEntity
  8
0
 62
     3
100
AcDbCircle
 10
1645.6924648032
 20
232.7258608042457
 30
0.0
 40
4.5
100
AcDbArc
 50
30.00000000000191
 51
90.00000000000289
  0
LINE
  5
12FD
330
1F
100
AcDbEntity
  8
0
 62
     3
100
AcDbLine
 10
1659.996317722373
 20
214.8508608042458
 30
0.0
 11
1648.680252446256
 21
234.4508608042458
 31
0.0
  0
ARC
  5
12FE
330
1F
100
AcDbEntity
  8
0
 62
     3
100
AcDbCircle
 10
1658.740580886886
 20
214.1258608042457
 30
0.0
 40
1.449999999999965
100
AcDbArc
 50
270.0
 51
30.0000000000019
  0
ARC
  5
12FF
330
1F
100
AcDbEntity
  8
0
 62
     3
100
AcDbCircle
 10
1645.6924648032
 20
232.7258608042457
 30
0.0
 40
3.449999999999906
100
AcDbArc
 50
30.00000000000003
 51
90.0
  0
ARC
  5
1301
330
1F
100
AcDbEntity
  8
0
 62
     3
100
AcDbCircle
 10
1544.240580886885
 20
234.7258608042458
 30
0.0
 40
2.5
100
AcDbArc
 50
90.0
 51
210.000000000001
  0
LINE
  5
1302
330
1F
100
AcDbEntity
  8
0
 62
     3
100
AcDbLine
 10
1542.984844051398
 20
234.0008608042458
 30
0.0
 11
1554.300909327515
 21
214.4008608042457
 31
0.0
  0
LINE
  5
1303
330
1F
100
AcDbEntity
  8
0
 62
     3
100
AcDbLine
 10
1542.075517377424
 20
233.4758608042458
 30
0.0
 11
1553.391582653541
 21
213.8758608042457
 31
0.0
  0
ARC
  5
1304
330
1F
100
AcDbEntity
  8
0
 62
     3
100
AcDbCircle
 10
1557.288696970572
 20
216.1258608042461
 30
0.0
 40
4.5
100
AcDbArc
 50
210.000000000001
 51
269.9999999999942
  0
ARC
  5
1305
330
1F
100
AcDbEntity
  8
0
 62
     3
100
AcDbCircle
 10
1544.240580886885
 20
234.7258608042458
 30
0.0
 40
1.44999999999993
100
AcDbArc
 50
90.0
 51
210.000000000001
  0
ARC
  5
1307
330
1F
100
AcDbEntity
  8
0
 62
     3
100
AcDbCircle
 10
1557.288696970572
 20
216.1258608042461
 30
0.0
 40
3.450000000000328
100
AcDbArc
 50
210.0
 51
270.0
  0
TEXT
  5
1309
330
1F
100
AcDbEntity
  8
0
100
AcDbText
 10
1557.386769877684
 20
226.8765506609973
 30
0.0
 40
4.5
  1
STREAMLIGHT.
 41
1.149999999999999
  7
高4.5
100
AcDbText
  0
TEXT
  5
130A
330
1F
100
AcDbEntity
  8
0
100
AcDbText
 10
1557.386769877684
 20
216.8834758623468
 30
0.0
 40
6.299999999999998
  1
PROPOLYMER
 41
0.9
  7
高6.3
100
AcDbText
  0
TEXT
  5
130B
330
1F
100
AcDbEntity
  8
0
100
AcDbText
 10
1625.817465041038
 20
224.9153766535347
 30
0.0
 40
6.299999999999998
  1
3C
 41
2.0
  7
高6.3
100
AcDbText
  0
TEXT
  5
130C
330
1F
100
AcDbEntity
  8
0
100
AcDbText
 10
1621.392022954175
 20
217.0342669028171
 30
0.0
 40
4.5
  1
HAZ-LO.
 41
1.199999999999999
  7
高4.5
100
AcDbText
  0
LINE
  5
130E
330
1F
100
AcDbEntity
  8
0
 62
     3
100
AcDbLine
 10
1617.240580886885
 20
233.198114171081
 30
0.0
 11
1617.240580886885
 21
214.5159155210097
 31
0.0
  0
LINE
  5
139F
330
1F
100
AcDbEntity
  8
0
 62
     3
100
AcDbLine
 10
1498.240580886886
 20
217.4258608042457
 30
0.0
 11
1498.240580886886
 21
206.6910316783756
 31
0.0
  0
LINE
  5
13A0
330
1F
100
AcDbEntity
  8
0
 62
     3
100
AcDbLine
 10
1498.240580886886
 20
231.4258608042457
 30
0.0
 11
1498.240580886886
 21
229.4258608042458
 31
0.0
  0
LINE
  5
13A1
330
1F
100
AcDbEntity
  8
0
 62
     3
100
AcDbLine
 10
1369.710012384285
 20
333.1844933972188
 30
0.0
 11
1369.710012384285
 21
59.18449339721886
 31
0.0
  0
LINE
  5
13A2
330
1F
100
AcDbEntity
  8
0
 62
     3
100
AcDbLine
 10
1759.710012384285
 20
59.18449339721886
 30
0.0
 11
1759.710012384285
 21
333.1844933972188
 31
0.0
  0
LINE
  5
13A3
330
1F
100
AcDbEntity
  8
0
 62
     3
100
AcDbLine
 10
1369.710012384285
 20
59.18449339721886
 30
0.0
 11
1759.710012384285
 21
59.18449339721886
 31
0.0
  0
LINE
  5
13A4
330
1F
100
AcDbEntity
  8
0
 62
     3
100
AcDbLine
 10
1547.484901854285
 20
335.6244955372189
 30
0.0
 11
1548.107398864285
 21
335.2995410572189
 31
0.0
  0
LINE
  5
13A5
330
1F
100
AcDbEntity
  8
0
 62
     3
100
AcDbLine
 10
1547.484901854285
 20
330.2950234372188
 30
0.0
 11
1548.107398864285
 21
330.6199779172189
 31
0.0
  0
LINE
  5
13A6
330
1F
100
AcDbEntity
  8
0
 62
     3
100
AcDbLine
 10
1548.107398864285
 20
335.2995410572189
 30
0.0
 11
1548.107398864285
 21
330.6199779172189
 31
0.0
  0
LINE
  5
13A7
330
1F
100
AcDbEntity
  8
0
 62
     3
100
AcDbLine
 10
1549.683852324285
 20
330.2950234372188
 30
0.0
 11
1549.061355314285
 21
330.6199779172189
 31
0.0
  0
LINE
  5
13A8
330
1F
100
AcDbEntity
  8
0
 62
     3
100
AcDbLine
 10
1549.061355314285
 20
333.4726333672188
 30
0.0
 11
1549.061355314285
 21
330.6199779172189
 31
0.0
  0
LINE
  5
13A9
330
1F
100
AcDbEntity
  8
0
 62
     3
100
AcDbLine
 10
1553.315084864285
 20
335.6244955372189
 30
0.0
 11
1552.692587864285
 21
335.2995410572189
 31
0.0
  0
LINE
  5
13AA
330
1F
100
AcDbEntity
  8
0
 62
     3
100
AcDbLine
 10
1551.116134394285
 20
335.6244955372189
 30
0.0
 11
1551.738631404285
 21
335.2995410572189
 31
0.0
  0
LINE
  5
13AB
330
1F
100
AcDbEntity
  8
0
 62
     3
100
AcDbLine
 10
1551.738631404285
 20
335.2995410572189
 30
0.0
 11
1551.738631404285
 21
333.2390595372189
 31
0.0
  0
LINE
  5
13AC
330
1F
100
AcDbEntity
  8
0
 62
     3
100
AcDbLine
 10
1552.692587864285
 20
335.2995410572189
 30
0.0
 11
1552.692587864285
 21
329.9927932272189
 31
0.0
  0
LINE
  5
13AD
330
1F
100
AcDbEntity
  8
0
 62
     3
100
AcDbLine
 10
1553.622652304285
 20
335.6244917872189
 30
0.0
 11
1554.245147064285
 21
335.2995330172188
 31
0.0
  0
LINE
  5
13AE
330
1F
100
AcDbEntity
  8
0
 62
     3
100
AcDbLine
 10
1553.622540914285
 20
330.2950948272188
 30
0.0
 11
1554.245049264285
 21
330.6200275772188
 31
0.0
  0
LINE
  5
13AF
330
1F
100
AcDbEntity
  8
0
 62
     3
100
AcDbLine
 10
1554.245147064285
 20
335.2995330172188
 30
0.0
 11
1554.245147064285
 21
330.6200275772188
 31
0.0
  0
LINE
  5
13B0
330
1F
100
AcDbEntity
  8
0
 62
     3
100
AcDbLine
 10
1556.379132864285
 20
335.6244579672189
 30
0.0
 11
1555.756631304285
 21
335.2995122072189
 31
0.0
  0
LINE
  5
13B1
330
1F
100
AcDbEntity
  8
0
 62
     3
100
AcDbLine
 10
1555.756631304285
 20
335.2995122072189
 30
0.0
 11
1555.756631304285
 21
330.6200067672188
 31
0.0
  0
LINE
  5
13B2
330
1F
100
AcDbEntity
  8
0
 62
     3
100
AcDbLine
 10
1556.379132864285
 20
330.2950610072188
 30
0.0
 11
1555.756631304285
 21
330.6200067672188
 31
0.0
  0
LINE
  5
13B3
330
1F
100
AcDbEntity
  8
0
 62
     3
100
AcDbLine
 10
1561.650923494285
 20
335.6243993972189
 30
0.0
 11
1562.273419374285
 21
335.2994427772188
 31
0.0
  0
LINE
  5
13B4
330
1F
100
AcDbEntity
  8
0
 62
     3
100
AcDbLine
 10
1562.273419374285
 20
335.2994427772188
 30
0.0
 11
1562.273337704285
 21
330.6199373272189
 31
0.0
  0
LINE
  5
13B5
330
1F
100
AcDbEntity
  8
0
 62
     3
100
AcDbLine
 10
1561.650830474285
 20
330.2950024372188
 30
0.0
 11
1562.273337704285
 21
330.6199373272189
 31
0.0
  0
LINE
  5
13B6
330
1F
100
AcDbEntity
  8
0
 62
     3
100
AcDbLine
 10
1564.439867734285
 20
335.6243993972189
 30
0.0
 11
1563.817371844285
 21
335.2994427772188
 31
0.0
  0
LINE
  5
13B7
330
1F
100
AcDbEntity
  8
0
 62
     3
100
AcDbLine
 10
1564.439960744285
 20
330.2950024372188
 30
0.0
 11
1563.817453514285
 21
330.6199373272189
 31
0.0
  0
LINE
  5
13B8
330
1F
100
AcDbEntity
  8
0
 62
     3
100
AcDbLine
 10
1564.730907534285
 20
335.6243993972189
 30
0.0
 11
1565.353403414285
 21
335.2994427772188
 31
0.0
  0
LINE
  5
13B9
330
1F
100
AcDbEntity
  8
0
 62
     3
100
AcDbLine
 10
1564.730814514285
 20
330.2950024372188
 30
0.0
 11
1565.353321744285
 21
330.6199373272189
 31
0.0
  0
LINE
  5
13BA
330
1F
100
AcDbEntity
  8
0
 62
     3
100
AcDbLine
 10
1567.519851764285
 20
335.6243993972189
 30
0.0
 11
1566.897355884285
 21
335.2994427772188
 31
0.0
  0
LINE
  5
13BB
330
1F
100
AcDbEntity
  8
0
 62
     3
100
AcDbLine
 10
1566.897355884285
 20
335.2994427772188
 30
0.0
 11
1566.897437554285
 21
330.6199373272189
 31
0.0
  0
LINE
  5
13BC
330
1F
100
AcDbEntity
  8
0
 62
     3
100
AcDbLine
 10
1567.519944784285
 20
330.2950024372188
 30
0.0
 11
1566.897437554285
 21
330.6199373272189
 31
0.0
  0
LINE
  5
13BD
330
1F
100
AcDbEntity
  8
0
 62
     3
100
AcDbLine
 10
1565.353367834285
 20
333.2606811772189
 30
0.0
 11
1563.817407424285
 21
333.2606811772189
 31
0.0
  0
LINE
  5
13BE
330
1F
100
AcDbEntity
  8
0
 62
     3
100
AcDbLine
 10
1565.353357334285
 20
332.6588377972188
 30
0.0
 11
1563.817417924285
 21
332.6588377972188
 31
0.0
  0
LINE
  5
13BF
330
1F
100
AcDbEntity
  8
0
 62
     3
100
AcDbLine
 10
1565.353403414285
 20
335.2994427772188
 30
0.0
 11
1565.353367834285
 21
333.2606811772189
 31
0.0
  0
LINE
  5
13C0
330
1F
100
AcDbEntity
  8
0
 62
     3
100
AcDbLine
 10
1565.353357334285
 20
332.6588377972188
 30
0.0
 11
1565.353321744285
 21
330.6199373272189
 31
0.0
  0
LINE
  5
13C1
330
1F
100
AcDbEntity
  8
0
 62
     3
100
AcDbLine
 10
1563.817371844285
 20
335.2994427772188
 30
0.0
 11
1563.817407424285
 21
333.2606811772189
 31
0.0
  0
LINE
  5
13C2
330
1F
100
AcDbEntity
  8
0
 62
     3
100
AcDbLine
 10
1563.817417924285
 20
332.6588377972188
 30
0.0
 11
1563.817453514285
 21
330.6199373272189
 31
0.0
  0
LINE
  5
13C3
330
1F
100
AcDbEntity
  8
0
 62
     3
100
AcDbLine
 10
1567.815507654285
 20
335.6243993972189
 30
0.0
 11
1568.438003544285
 21
335.2994427772188
 31
0.0
  0
LINE
  5
13C4
330
1F
100
AcDbEntity
  8
0
 62
     3
100
AcDbLine
 10
1568.438003544285
 20
335.2994427772188
 30
0.0
 11
1568.437921864285
 21
330.6199373272189
 31
0.0
  0
LINE
  5
13C5
330
1F
100
AcDbEntity
  8
0
 62
     3
100
AcDbLine
 10
1567.815414634285
 20
330.2950024372188
 30
0.0
 11
1568.437921864285
 21
330.6199373272189
 31
0.0
  0
LINE
  5
13C6
330
1F
100
AcDbEntity
  8
0
 62
     3
100
AcDbLine
 10
1570.571950894285
 20
335.6243993972189
 30
0.0
 11
1569.949455004285
 21
335.2994427772188
 31
0.0
  0
LINE
  5
13C7
330
1F
100
AcDbEntity
  8
0
 62
     3
100
AcDbLine
 10
1569.949455004285
 20
335.2994427772188
 30
0.0
 11
1569.949536684285
 21
330.6199373272189
 31
0.0
  0
LINE
  5
13C8
330
1F
100
AcDbEntity
  8
0
 62
     3
100
AcDbLine
 10
1570.572043914285
 20
330.2950024372188
 30
0.0
 11
1569.949536684285
 21
330.6199373272189
 31
0.0
  0
LINE
  5
13C9
330
1F
100
AcDbEntity
  8
0
 62
     3
100
AcDbLine
 10
1570.878178844285
 20
335.6243993972189
 30
0.0
 11
1571.500674734285
 21
335.2994427772188
 31
0.0
  0
LINE
  5
13CA
330
1F
100
AcDbEntity
  8
0
 62
     3
100
AcDbLine
 10
1571.500674734285
 20
335.2994427772188
 30
0.0
 11
1571.500593064285
 21
330.6199373272189
 31
0.0
  0
LINE
  5
13CB
330
1F
100
AcDbEntity
  8
0
 62
     3
100
AcDbLine
 10
1570.878085834285
 20
330.2950024372188
 30
0.0
 11
1571.500593064285
 21
330.6199373272189
 31
0.0
  0
ARC
  5
13CC
330
1F
100
AcDbEntity
  8
0
 62
     3
100
AcDbCircle
 10
1559.662478824285
 20
332.9731734272189
 30
0.0
 40
2.98040844
100
AcDbArc
 50
97.70152350999723
 51
270.0
  0
ARC
  5
13CD
330
1F
100
AcDbEntity
  8
0
 62
     3
100
AcDbCircle
 10
1578.063337164285
 20
332.9432353872188
 30
0.0
 40
3.012776259999998
100
AcDbArc
 50
0.314250269999259
 51
69.00558245000303
  0
ARC
  5
13CE
330
1F
100
AcDbEntity
  8
0
 62
     3
100
AcDbCircle
 10
1578.721444774285
 20
332.9432353872188
 30
0.0
 40
3.012776259999998
100
AcDbArc
 50
110.9944175499969
 51
148.1166110200045
  0
ARC
  5
13CF
330
1F
100
AcDbEntity
  8
0
 62
     3
100
AcDbCircle
 10
1578.063337164285
 20
332.9762835872188
 30
0.0
 40
3.012776259999998
100
AcDbArc
 50
290.9944175499969
 51
359.6857497300007
  0
ARC
  5
13D0
330
1F
100
AcDbEntity
  8
0
 62
     3
100
AcDbCircle
 10
1578.721444774285
 20
332.9762835872188
 30
0.0
 40
3.012776259999998
100
AcDbArc
 50
211.8833889799954
 51
249.005582450003
  0
ARC
  5
13D1
330
1F
100
AcDbEntity
  8
0
 62
     3
100
AcDbCircle
 10
1578.392390974285
 20
334.1923386172189
 30
0.0
 40
1.73438712
100
AcDbArc
 50
64.3651718999996
 51
115.6348281000004
  0
ARC
  5
13D2
330
1F
100
AcDbEntity
  8
0
 62
     3
100
AcDbCircle
 10
1578.392390974285
 20
331.7271803572188
 30
0.0
 40
1.73438712
100
AcDbArc
 50
244.3651718999996
 51
295.6348281000004
  0
ARC
  5
13D3
330
1F
100
AcDbEntity
  8
0
 62
     3
100
AcDbCircle
 10
1578.392390974285
 20
334.2252838772188
 30
0.0
 40
0.85122233
100
AcDbArc
 50
19.48660554000439
 51
160.5133944599956
  0
ARC
  5
13D4
330
1F
100
AcDbEntity
  8
0
 62
     3
100
AcDbCircle
 10
1578.392390974285
 20
331.7271803572188
 30
0.0
 40
1.73438712
100
AcDbArc
 50
244.3651718999996
 51
295.6348281000004
  0
ARC
  5
13D5
330
1F
100
AcDbEntity
  8
0
 62
     3
100
AcDbCircle
 10
1578.392390974285
 20
331.6942350972188
 30
0.0
 40
0.85122233
100
AcDbArc
 50
199.4866055400044
 51
340.5133944599956
  0
ARC
  5
13D6
330
1F
100
AcDbEntity
  8
0
 62
     3
100
AcDbCircle
 10
1571.617430254285
 20
301.2053882872189
 30
0.0
 40
37.20000000000001
100
AcDbArc
 50
69.50571480000848
 51
81.68998807001051
  0
ARC
  5
13D7
330
1F
100
AcDbEntity
  8
0
 62
     3
100
AcDbCircle
 10
1571.617430254285
 20
364.7141306872188
 30
0.0
 40
37.20000000000001
100
AcDbArc
 50
278.3100119299894
 51
290.4942851999915
  0
ARC
  5
13D8
330
1F
100
AcDbEntity
  8
0
 62
     3
100
AcDbCircle
 10
1583.486293294285
 20
332.9597594872188
 30
0.0
 40
3.299999999999998
100
AcDbArc
 50
290.4942851999915
 51
69.50571480000848
  0
ARC
  5
13D9
330
1F
100
AcDbEntity
  8
0
 62
     3
100
AcDbCircle
 10
1544.486293294285
 20
332.9597594872188
 30
0.0
 40
3.299999999999998
100
AcDbArc
 50
110.4942851999915
 51
249.5057148000085
  0
ARC
  5
13DA
330
1F
100
AcDbEntity
  8
0
 62
     3
100
AcDbCircle
 10
1556.355156324285
 20
301.2053882872189
 30
0.0
 40
37.20000000000001
100
AcDbArc
 50
98.31001192998948
 51
110.4942851999915
  0
ARC
  5
13DB
330
1F
100
AcDbEntity
  8
0
 62
     3
100
AcDbCircle
 10
1556.355156324285
 20
364.7141306872188
 30
0.0
 40
37.20000000000001
100
AcDbArc
 50
249.5057148000085
 51
261.6899880699973
  0
ARC
  5
13DC
330
1F
100
AcDbEntity
  8
0
 62
     3
100
AcDbCircle
 10
1563.986293294285
 20
248.9597594872188
 30
0.0
 40
89.99999981
100
AcDbArc
 50
81.68998807001051
 51
98.31001192998948
  0
ARC
  5
13DD
330
1F
100
AcDbEntity
  8
0
 62
     3
100
AcDbCircle
 10
1563.986293294285
 20
416.9597594872187
 30
0.0
 40
89.99999981
100
AcDbArc
 50
261.6899880699973
 51
278.3100119299894
  0
ARC
  5
13DE
330
1F
100
AcDbEntity
  8
0
 62
     3
100
AcDbCircle
 10
1563.986293294285
 20
248.9597594872188
 30
0.0
 40
89.09999981
100
AcDbArc
 50
81.68998807001051
 51
98.31001192998948
  0
ARC
  5
13DF
330
1F
100
AcDbEntity
  8
0
 62
     3
100
AcDbCircle
 10
1563.986293294285
 20
416.9597594872187
 30
0.0
 40
89.09999981
100
AcDbArc
 50
261.6899880699973
 51
278.3100119299894
  0
ARC
  5
13E0
330
1F
100
AcDbEntity
  8
0
 62
     3
100
AcDbCircle
 10
1571.617430254285
 20
364.7141306872188
 30
0.0
 40
36.3
100
AcDbArc
 50
278.3100119299894
 51
290.4942851999915
  0
ARC
  5
13E1
330
1F
100
AcDbEntity
  8
0
 62
     3
100
AcDbCircle
 10
1571.617430254285
 20
301.2053882872189
 30
0.0
 40
36.3
100
AcDbArc
 50
69.50571480000848
 51
81.68998807001051
  0
ARC
  5
13E2
330
1F
100
AcDbEntity
  8
0
 62
     3
100
AcDbCircle
 10
1583.486293294285
 20
332.9597594872188
 30
0.0
 40
2.399999999999999
100
AcDbArc
 50
290.4942851999915
 51
69.50571480000848
  0
ARC
  5
13E3
330
1F
100
AcDbEntity
  8
0
 62
     3
100
AcDbCircle
 10
1544.486293294285
 20
332.9597594872188
 30
0.0
 40
2.399999999999999
100
AcDbArc
 50
110.4942851999915
 51
249.5057148000085
  0
ARC
  5
13E4
330
1F
100
AcDbEntity
  8
0
 62
     3
100
AcDbCircle
 10
1556.355156324285
 20
301.2053882872189
 30
0.0
 40
36.3
100
AcDbArc
 50
98.31001192998948
 51
110.4942851999915
  0
ARC
  5
13E5
330
1F
100
AcDbEntity
  8
0
 62
     3
100
AcDbCircle
 10
1556.355156324285
 20
364.7141306872188
 30
0.0
 40
36.3
100
AcDbArc
 50
249.5057148000085
 51
261.6899880699973
  0
LINE
  5
13E6
330
1F
100
AcDbEntity
  8
0
 62
     3
100
AcDbLine
 10
1570.571952014285
 20
329.9927932272189
 30
0.0
 11
1567.815506534285
 21
329.9927932272189
 31
0.0
  0
LINE
  5
13E7
330
1F
100
AcDbEntity
  8
0
 62
     3
100
AcDbLine
 10
1570.571952014285
 20
330.2950234372188
 30
0.0
 11
1570.571952014285
 21
329.9927932272189
 31
0.0
  0
LINE
  5
13E8
330
1F
100
AcDbEntity
  8
0
 62
     3
100
AcDbLine
 10
1567.519852884285
 20
335.9265847172188
 30
0.0
 11
1564.730906414285
 21
335.9265847172188
 31
0.0
  0
LINE
  5
13E9
330
1F
100
AcDbEntity
  8
0
 62
     3
100
AcDbLine
 10
1567.519852884285
 20
335.9265847172188
 30
0.0
 11
1567.519852884285
 21
335.6244955372189
 31
0.0
  0
LINE
  5
13EA
330
1F
100
AcDbEntity
  8
0
 62
     3
100
AcDbLine
 10
1567.519852884285
 20
330.2950234372188
 30
0.0
 11
1567.519852884285
 21
329.9926522072188
 31
0.0
  0
LINE
  5
13EB
330
1F
100
AcDbEntity
  8
0
 62
     3
100
AcDbLine
 10
1567.519852884285
 20
329.9926522072188
 30
0.0
 11
1564.730906414285
 21
329.9926522072188
 31
0.0
  0
LINE
  5
13EC
330
1F
100
AcDbEntity
  8
0
 62
     3
100
AcDbLine
 10
1570.571952014285
 20
335.9267257472188
 30
0.0
 11
1570.571952014285
 21
335.6244955372189
 31
0.0
  0
LINE
  5
13ED
330
1F
100
AcDbEntity
  8
0
 62
     3
100
AcDbLine
 10
1570.571952014285
 20
335.9267257472188
 30
0.0
 11
1567.815506534285
 21
335.9267257472188
 31
0.0
  0
LINE
  5
13EE
330
1F
100
AcDbEntity
  8
0
 62
     3
100
AcDbLine
 10
1567.815506534285
 20
335.9267257472188
 30
0.0
 11
1567.815506534285
 21
335.6244955372189
 31
0.0
  0
LINE
  5
13EF
330
1F
100
AcDbEntity
  8
0
 62
     3
100
AcDbLine
 10
1570.878177724285
 20
330.2950234372188
 30
0.0
 11
1570.878177724285
 21
329.9927932272189
 31
0.0
  0
LINE
  5
13F0
330
1F
100
AcDbEntity
  8
0
 62
     3
100
AcDbLine
 10
1573.712892814285
 20
329.9927932272189
 30
0.0
 11
1570.878177724285
 21
329.9927932272189
 31
0.0
  0
LINE
  5
13F1
330
1F
100
AcDbEntity
  8
0
 62
     3
100
AcDbLine
 10
1573.012126204285
 20
334.9727692872189
 30
0.0
 11
1573.012126204285
 21
330.9467496872188
 31
0.0
  0
LINE
  5
13F2
330
1F
100
AcDbEntity
  8
0
 62
     3
100
AcDbLine
 10
1573.012126204285
 20
330.9467496872188
 30
0.0
 11
1573.283624724285
 21
330.9467496872188
 31
0.0
  0
ARC
  5
13F3
330
1F
100
AcDbEntity
  8
0
 62
     3
100
AcDbCircle
 10
1571.895359384285
 20
332.9597594872188
 30
0.0
 40
2.44529939
100
AcDbArc
 50
304.5919552700021
 51
55.40804472999793
  0
LINE
  5
13F4
330
1F
100
AcDbEntity
  8
0
 62
     3
100
AcDbLine
 10
1573.712892814285
 20
335.9267257472188
 30
0.0
 11
1570.878177724285
 21
335.9267257472188
 31
0.0
  0
LINE
  5
13F5
330
1F
100
AcDbEntity
  8
0
 62
     3
100
AcDbLine
 10
1570.878177724285
 20
335.9267257472188
 30
0.0
 11
1570.878177724285
 21
335.6244955372189
 31
0.0
  0
LINE
  5
13F6
330
1F
100
AcDbEntity
  8
0
 62
     3
100
AcDbLine
 10
1567.815506534285
 20
330.2950234372188
 30
0.0
 11
1567.815506534285
 21
329.9927932272189
 31
0.0
  0
LINE
  5
13F7
330
1F
100
AcDbEntity
  8
0
 62
     3
100
AcDbLine
 10
1573.012126204285
 20
334.9727692872189
 30
0.0
 11
1573.283624724285
 21
334.9727692872189
 31
0.0
  0
LINE
  5
13F8
330
1F
100
AcDbEntity
  8
0
 62
     3
100
AcDbLine
 10
1556.379040964285
 20
330.2950234372188
 30
0.0
 11
1556.379035694285
 21
329.9927649872188
 31
0.0
  0
LINE
  5
13F9
330
1F
100
AcDbEntity
  8
0
 62
     3
100
AcDbLine
 10
1553.622590214285
 20
329.9928214772188
 30
0.0
 11
1556.379035694285
 21
329.9927733672188
 31
0.0
  0
LINE
  5
13FA
330
1F
100
AcDbEntity
  8
0
 62
     3
100
AcDbLine
 10
1547.484901854285
 20
329.9927932272189
 30
0.0
 11
1549.683852324285
 21
329.9927932272189
 31
0.0
  0
ARC
  5
13FB
330
1F
100
AcDbEntity
  8
0
 62
     3
100
AcDbCircle
 10
1540.367840884285
 20
333.0296260972188
 30
0.0
 40
21.01937947
100
AcDbArc
 50
353.8660061899983
 51
357.6940342600001
  0
LINE
  5
13FC
330
1F
100
AcDbEntity
  8
0
 62
     3
100
AcDbLine
 10
1559.962954974285
 20
332.1891008772188
 30
0.0
 11
1561.370199094285
 21
332.1838939072188
 31
0.0
  0
LINE
  5
13FE
330
1F
100
AcDbEntity
  8
0
 62
     3
100
AcDbLine
 10
1559.968638424285
 20
333.7251219372188
 30
0.0
 11
1561.375882544285
 21
333.7199149672189
 31
0.0
  0
ARC
  5
13FF
330
1F
100
AcDbEntity
  8
0
 62
     3
100
AcDbCircle
 10
1540.367840884285
 20
333.0296260972188
 30
0.0
 40
21.01937947
100
AcDbArc
 50
1.881965739999571
 51
5.709993809998117
  0
LINE
  5
1400
330
1F
100
AcDbEntity
  8
0
 62
     3
100
AcDbLine
 10
1556.379139254285
 20
335.9266974972188
 30
0.0
 11
1556.379133984285
 21
335.6244955372189
 31
0.0
  0
LINE
  5
1401
330
1F
100
AcDbEntity
  8
0
 62
     3
100
AcDbLine
 10
1553.622693774285
 20
335.9267539872188
 30
0.0
 11
1556.379139254285
 21
335.9267058772189
 31
0.0
  0
LINE
  5
1402
330
1F
100
AcDbEntity
  8
0
 62
     3
100
AcDbLine
 10
1553.622595484285
 20
330.2950234372188
 30
0.0
 11
1553.622590214285
 21
329.9928214772188
 31
0.0
  0
LINE
  5
1403
330
1F
100
AcDbEntity
  8
0
 62
     3
100
AcDbLine
 10
1553.622693774285
 20
335.9267539872188
 30
0.0
 11
1553.622688504285
 21
335.6244955372189
 31
0.0
  0
LINE
  5
1404
330
1F
100
AcDbEntity
  8
0
 62
     3
100
AcDbLine
 10
1549.683852324285
 20
330.2950234372188
 30
0.0
 11
1549.683852324285
 21
329.9927932272189
 31
0.0
  0
LINE
  5
1405
330
1F
100
AcDbEntity
  8
0
 62
     3
100
AcDbLine
 10
1549.061355314285
 20
333.4726333672188
 30
0.0
 11
1551.236255394285
 21
329.9927932272189
 31
0.0
  0
LINE
  5
1406
330
1F
100
AcDbEntity
  8
0
 62
     3
100
AcDbLine
 10
1551.236255394285
 20
329.9927932272189
 30
0.0
 11
1552.692587864285
 21
329.9927932272189
 31
0.0
  0
LINE
  5
1407
330
1F
100
AcDbEntity
  8
0
 62
     3
100
AcDbLine
 10
1553.315084864285
 20
335.9267257472188
 30
0.0
 11
1553.315084864285
 21
335.6244955372189
 31
0.0
  0
LINE
  5
1408
330
1F
100
AcDbEntity
  8
0
 62
     3
100
AcDbLine
 10
1551.116134394285
 20
335.9267257472188
 30
0.0
 11
1553.315084864285
 21
335.9267257472188
 31
0.0
  0
LINE
  5
1409
330
1F
100
AcDbEntity
  8
0
 62
     3
100
AcDbLine
 10
1551.116134394285
 20
335.9267257472188
 30
0.0
 11
1551.116134394285
 21
335.6244955372189
 31
0.0
  0
LINE
  5
140A
330
1F
100
AcDbEntity
  8
0
 62
     3
100
AcDbLine
 10
1551.738631404285
 20
333.2390595372189
 30
0.0
 11
1549.974850464285
 21
335.9267257472188
 31
0.0
  0
LINE
  5
140B
330
1F
100
AcDbEntity
  8
0
 62
     3
100
AcDbLine
 10
1547.484901854285
 20
335.9267257472188
 30
0.0
 11
1549.974850464285
 21
335.9267257472188
 31
0.0
  0
LINE
  5
140C
330
1F
100
AcDbEntity
  8
0
 62
     3
100
AcDbLine
 10
1561.650922374285
 20
335.9265847172188
 30
0.0
 11
1564.439868854285
 21
335.9265847172188
 31
0.0
  0
LINE
  5
140D
330
1F
100
AcDbEntity
  8
0
 62
     3
100
AcDbLine
 10
1561.650922374285
 20
335.6244955372189
 30
0.0
 11
1561.650922374285
 21
335.9265847172188
 31
0.0
  0
LINE
  5
140E
330
1F
100
AcDbEntity
  8
0
 62
     3
100
AcDbLine
 10
1561.650922374285
 20
329.9926522072188
 30
0.0
 11
1561.650922374285
 21
330.2950234372188
 31
0.0
  0
LINE
  5
140F
330
1F
100
AcDbEntity
  8
0
 62
     3
100
AcDbLine
 10
1561.650922374285
 20
329.9926522072188
 30
0.0
 11
1564.439868854285
 21
329.9926522072188
 31
0.0
  0
LINE
  5
1410
330
1F
100
AcDbEntity
  8
0
 62
     3
100
AcDbLine
 10
1564.730906414285
 20
330.2950234372188
 30
0.0
 11
1564.730906414285
 21
329.9926522072188
 31
0.0
  0
LINE
  5
1411
330
1F
100
AcDbEntity
  8
0
 62
     3
100
AcDbLine
 10
1564.439868854285
 20
330.2950234372188
 30
0.0
 11
1564.439868854285
 21
329.9926522072188
 31
0.0
  0
LINE
  5
1412
330
1F
100
AcDbEntity
  8
0
 62
     3
100
AcDbLine
 10
1564.439868854285
 20
335.6244955372189
 30
0.0
 11
1564.439868854285
 21
335.9265847172188
 31
0.0
  0
LINE
  5
1413
330
1F
100
AcDbEntity
  8
0
 62
     3
100
AcDbLine
 10
1564.730906414285
 20
335.6244955372189
 30
0.0
 11
1564.730906414285
 21
335.9265847172188
 31
0.0
  0
LINE
  5
1414
330
1F
100
AcDbEntity
  8
0
 62
     3
100
AcDbLine
 10
1547.484901854285
 20
330.2950234372188
 30
0.0
 11
1547.484901854285
 21
329.9927932272189
 31
0.0
  0
LINE
  5
1415
330
1F
100
AcDbEntity
  8
0
 62
     3
100
AcDbLine
 10
1547.484901854285
 20
335.9267257472188
 30
0.0
 11
1547.484901854285
 21
335.6244955372189
 31
0.0
  0
ARC
  5
1416
330
1F
100
AcDbEntity
  8
0
 62
     3
100
AcDbCircle
 10
1574.012892814285
 20
333.5822564972188
 30
0.0
 40
2.344469249999999
100
AcDbArc
 50
17.30874897999489
 51
23.76507095999558
  0
ARC
  5
1417
330
1F
100
AcDbEntity
  8
0
 62
     3
100
AcDbCircle
 10
1572.015359384285
 20
332.9597594872188
 30
0.0
 40
4.43675086
100
AcDbArc
 50
342.6912510200051
 51
17.30856643999812
  0
ARC
  5
1418
330
1F
100
AcDbEntity
  8
0
 62
     3
100
AcDbCircle
 10
1574.012892814285
 20
332.3372624772188
 30
0.0
 40
2.344469249999999
100
AcDbArc
 50
336.2349290400014
 51
342.6912510200051
  0
ARC
  5
1419
330
1F
100
AcDbEntity
  8
0
 62
     3
100
AcDbCircle
 10
1573.712892814285
 20
333.5822564972188
 30
0.0
 40
2.344469249999999
100
AcDbArc
 50
17.30874897999489
 51
90.0
  0
ARC
  5
141A
330
1F
100
AcDbEntity
  8
0
 62
     3
100
AcDbCircle
 10
1571.715359384285
 20
332.9597594872188
 30
0.0
 40
4.43675086
100
AcDbArc
 50
342.6912510200051
 51
17.30856643999812
  0
ARC
  5
141B
330
1F
100
AcDbEntity
  8
0
 62
     3
100
AcDbCircle
 10
1573.712892814285
 20
332.3372624772188
 30
0.0
 40
2.344469249999999
100
AcDbArc
 50
270.0
 51
342.6912510200051
  0
ARC
  5
141C
330
1F
100
AcDbEntity
  8
0
 62
     3
100
AcDbCircle
 10
1559.250120844285
 20
332.9597594872188
 30
0.0
 40
2.966966259999998
100
AcDbArc
 50
46.75287960999344
 51
89.74999828999569
  0
ARC
  5
141D
330
1F
100
AcDbEntity
  8
0
 62
     3
100
AcDbCircle
 10
1559.250120844285
 20
332.9597594872188
 30
0.0
 40
2.966966259999998
100
AcDbArc
 50
273.976333149997
 51
312.8231203899988
  0
ARC
  5
141E
330
1F
100
AcDbEntity
  8
0
 62
     3
100
AcDbCircle
 10
1575.595560774285
 20
332.9139573072189
 30
0.0
 40
3.936984289999998
100
AcDbArc
 50
0.6665840599997753
 51
23.90392827000137
  0
ARC
  5
141F
330
1F
100
AcDbEntity
  8
0
 62
     3
100
AcDbCircle
 10
1581.189221164285
 20
332.9139573072189
 30
0.0
 40
3.936984289999998
100
AcDbArc
 50
156.0960717299986
 51
179.3334159400002
  0
ARC
  5
1420
330
1F
100
AcDbEntity
  8
0
 62
     3
100
AcDbCircle
 10
1575.595560774285
 20
333.0055616672189
 30
0.0
 40
3.936984289999998
100
AcDbArc
 50
336.0960717299986
 51
359.3334159400003
  0
ARC
  5
1421
330
1F
100
AcDbEntity
  8
0
 62
     3
100
AcDbCircle
 10
1581.189221164285
 20
333.0055616672189
 30
0.0
 40
3.936984289999998
100
AcDbArc
 50
180.6665840599997
 51
203.9039282700014
  0
LINE
  5
1422
330
1F
100
AcDbEntity
  8
0
 62
     3
100
AcDbLine
 10
1588.366737564285
 20
333.1844933972188
 30
0.0
 11
1759.710012384285
 21
333.1844933972188
 31
0.0
  0
LINE
  5
1423
330
1F
100
AcDbEntity
  8
0
 62
     3
100
AcDbLine
 10
1539.812702894285
 20
333.1844933972188
 30
0.0
 11
1369.710012384285
 21
333.1844933972188
 31
0.0
  0
LINE
  5
1424
330
1F
100
AcDbEntity
  8
0
 62
     3
100
AcDbLine
 10
1357.308088594285
 20
199.6291323472188
 30
0.0
 11
1354.710012384285
 21
198.1291323472188
 31
0.0
  0
LINE
  5
1425
330
1F
100
AcDbEntity
  8
0
 62
     3
100
AcDbLine
 10
1357.308088594285
 20
199.6291323472188
 30
0.0
 11
1354.710012384285
 21
201.1291323472188
 31
0.0
  0
LINE
  5
1426
330
1F
100
AcDbEntity
  8
0
 62
     3
100
AcDbLine
 10
1354.710012384285
 20
198.1291323472188
 30
0.0
 11
1354.710012384285
 21
201.1291323472188
 31
0.0
  0
LINE
  5
1429
330
1F
100
AcDbEntity
  8
0
 62
     3
100
AcDbLine
 10
1707.710012384285
 20
59.18449339721886
 30
0.0
 11
1707.710012384285
 21
99.18449339721886
 31
0.0
  0
LINE
  5
142A
330
1F
100
AcDbEntity
  8
0
 62
     3
100
AcDbLine
 10
1720.710012384285
 20
69.18449339721886
 30
0.0
 11
1720.710012384285
 21
97.18449339721885
 31
0.0
  0
LINE
  5
142B
330
1F
100
AcDbEntity
  8
0
 62
     3
100
AcDbLine
 10
1680.710012384285
 20
69.18449339721886
 30
0.0
 11
1680.710012384285
 21
83.18449339721885
 31
0.0
  0
LINE
  5
142C
330
1F
100
AcDbEntity
  8
0
 62
     3
100
AcDbLine
 10
1690.710012384285
 20
83.18449339721885
 30
0.0
 11
1690.710012384285
 21
59.18449339721886
 31
0.0
  0
LINE
  5
142D
330
1F
100
AcDbEntity
  8
0
 62
     3
100
AcDbLine
 10
1661.710012384285
 20
99.18449339721886
 30
0.0
 11
1661.710012384285
 21
76.18449339721886
 31
0.0
  0
LINE
  5
142E
330
1F
100
AcDbEntity
  8
0
 62
     3
100
AcDbLine
 10
1720.710012384285
 20
97.18449339721885
 30
0.0
 11
1720.710012384285
 21
99.18449339721886
 31
0.0
  0
LINE
  5
142F
330
1F
100
AcDbEntity
  8
0
 62
     3
100
AcDbLine
 10
1733.710012384285
 20
76.18449339721886
 30
0.0
 11
1733.710012384285
 21
99.18449339721886
 31
0.0
  0
LINE
  5
1430
330
1F
100
AcDbEntity
  8
0
 62
     3
100
AcDbLine
 10
1759.710012384285
 20
99.18449339721886
 30
0.0
 11
1648.464577744285
 21
99.18449339721888
 31
0.0
  0
LINE
  5
1431
330
1F
100
AcDbEntity
  8
0
 62
     3
100
AcDbLine
 10
1759.710012384285
 20
90.18449339721886
 30
0.0
 11
1648.464577744285
 21
90.18449339721886
 31
0.0
  0
LINE
  5
1432
330
1F
100
AcDbEntity
  8
0
 62
     3
100
AcDbLine
 10
1759.710012384285
 20
76.18449339721886
 30
0.0
 11
1648.464577744285
 21
76.18449339721886
 31
0.0
  0
LINE
  5
1433
330
1F
100
AcDbEntity
  8
0
 62
     3
100
AcDbLine
 10
1759.710012384285
 20
69.18449339721886
 30
0.0
 11
1648.406569884285
 21
69.18449339721886
 31
0.0
  0
LINE
  5
1434
330
1F
100
AcDbEntity
  8
0
 62
     3
100
AcDbLine
 10
1746.710012384285
 20
76.18449339721886
 30
0.0
 11
1746.710012384285
 21
99.18449339721886
 31
0.0
  0
LINE
  5
1435
330
1F
100
AcDbEntity
  8
0
 62
     3
100
AcDbLine
 10
1648.464577744285
 20
99.18449339721888
 30
0.0
 11
1648.464577744285
 21
59.18449339721886
 31
0.0
  0
LINE
  5
1436
330
1F
100
AcDbEntity
  8
0
 62
     3
100
AcDbLine
 10
1707.710012384285
 20
83.18449339721885
 30
0.0
 11
1648.464577744285
 21
83.18449339721885
 31
0.0
  0
LINE
  5
1437
330
1F
100
AcDbEntity
  8
0
 62
     3
100
AcDbLine
 10
1690.988337314285
 20
64.01735465721884
 30
0.0
 11
1707.710012384285
 21
64.01735465721884
 31
0.0
  0
TEXT
  5
1438
330
1F
100
AcDbEntity
  8
0
 62
     3
100
AcDbText
 10
1691.874337797601
 20
78.2575902505842
 30
0.0
 40
2.5
  1
-
  7
高2.5
100
AcDbText
  0
TEXT
  5
1439
330
1F
100
AcDbEntity
  8
0
 62
     3
100
AcDbText
 10
1662.906381079537
 20
78.48230780220276
 30
0.0
 40
2.5
  1
別記
  7
高2.5
100
AcDbText
  0
TEXT
  5
143A
330
1F
100
AcDbEntity
  8
0
 62
     3
100
AcDbText
 10
1663.171288834235
 20
91.49674292097676
 30
0.0
 40
4.5
  1
防爆懐中電灯(プロポリマー3C)
 41
0.55
  7
高4.5
100
AcDbText
1001
ACAD
1000
ACAD_MTEXT_DEFINED_HEIGHT_BEGIN
1070
    46
1040
0.0
1000
ACAD_MTEXT_DEFINED_HEIGHT_END
  0
TEXT
  5
143B
330
1F
100
AcDbEntity
  8
0
 62
     3
100
AcDbText
 10
1749.775601477759
 20
95.69818549592243
 30
0.0
 40
2.0
  1
DEF
  7
高2
100
AcDbText
  0
TEXT
  5
143C
330
1F
100
AcDbEntity
  8
0
 62
     3
100
AcDbText
 10
1735.836503124051
 20
95.69818549592236
 30
0.0
 40
2.0
  1
DESN
  7
高2
100
AcDbText
  0
TEXT
  5
143D
330
1F
100
AcDbEntity
  8
0
 62
     3
100
AcDbText
 10
1709.582136184051
 20
95.69818549592243
 30
0.0
 40
2.0
  1
APPD
  7
高2
100
AcDbText
  0
TEXT
  5
143E
330
1F
100
AcDbEntity
  8
0
 62
     3
100
AcDbText
 10
1722.694872284285
 20
95.69818549592243
 30
0.0
 40
2.0
  1
CHCK
  7
高2
100
AcDbText
  0
TEXT
  5
143F
330
1F
100
AcDbEntity
  8
0
 62
     3
100
AcDbText
 10
1681.637178023438
 20
73.35289222044956
 30
0.0
 40
2.0
  1
SCALE
 41
0.8
  7
高2
100
AcDbText
  0
TEXT
  5
1440
330
1F
100
AcDbEntity
  8
0
 62
     3
100
AcDbText
 10
1650.149156447331
 20
73.35289222044959
 30
0.0
 40
2.0
  1
3AD　ANGLE
 41
1.5
  7
高2
100
AcDbText
  0
TEXT
  5
1441
330
1F
100
AcDbEntity
  8
0
 62
     3
100
AcDbText
 10
1680.906583714287
 20
80.10443028940668
 30
0.0
 40
2.0
  1
REMARKS
 41
0.7
  7
高2
100
AcDbText
  0
TEXT
  5
1442
330
1F
100
AcDbEntity
  8
0
 62
     3
100
AcDbText
 10
1649.932248094285
 20
80.18449339721886
 30
0.0
 40
2.0
  1
MATERIAL
 41
0.7
  7
高2
100
AcDbText
  0
TEXT
  5
1443
330
1F
100
AcDbEntity
  8
0
 62
     3
100
AcDbText
 10
1650.508735297039
 20
87.18449339721884
 30
0.0
 40
2.0
  1
MODEL
  7
高2
100
AcDbText
  0
TEXT
  5
1444
330
1F
100
AcDbEntity
  8
0
 62
     3
100
AcDbText
 10
1650.145656178371
 20
95.89151474781786
 30
0.0
 40
2.0
  1
CONPONENTS
 41
0.5
  7
高2
100
AcDbText
  0
TEXT
  5
1445
330
1F
100
AcDbEntity
  8
0
 62
     3
100
AcDbText
 10
1662.852771649538
 20
84.27197452503079
 30
0.0
 40
4.5
  1
088J
  7
高4.5
100
AcDbText
  0
TEXT
  5
1446
330
1F
100
AcDbEntity
  8
0
 62
     3
100
AcDbText
 10
1710.775058114904
 20
60.66814344127578
 30
0.0
 40
6.299999999999998
  1
088J
  7
高6.3
100
AcDbText
1001
ACAD
1000
ACAD_MTEXT_DEFINED_HEIGHT_BEGIN
1070
    46
1040
0.0
1000
ACAD_MTEXT_DEFINED_HEIGHT_END
  0
TEXT
  5
1447
330
1F
100
AcDbEntity
  8
0
 62
     3
100
AcDbText
 10
1724.273522134614
 20
70.28538255545186
 30
0.0
 40
3.2
  1
2016.12.19
  7
高3.2
100
AcDbText
1001
ACAD
1000
ACAD_MTEXT_DEFINED_HEIGHT_BEGIN
1070
    46
1040
0.0
1000
ACAD_MTEXT_DEFINED_HEIGHT_END
  0
TEXT
  5
1448
330
1F
100
AcDbEntity
  8
0
 62
     3
100
AcDbText
 10
1694.497610278932
 20
70.28541039978673
 30
0.0
 40
3.2
  1
1/1
  7
高3.2
100
AcDbText
  0
TEXT
  5
1449
330
1F
100
AcDbEntity
  8
0
 62
     3
100
AcDbText
 10
1691.574939254285
 20
60.00137157035482
 30
0.0
 40
3.2
  1
ZK-A3X
 41
0.8
  7
高3.2
100
AcDbText
  0
TEXT
  5
144A
330
1F
100
AcDbEntity
  8
0
 62
     3
100
AcDbText
 10
1649.295278784285
 20
65.70911381940668
 30
0.0
 40
2.0
  1
NICHIDO IND.CO.LTD
 41
1.3
  7
高2
100
AcDbText
  0
TEXT
  5
144B
330
1F
100
AcDbEntity
  8
0
 62
     3
100
AcDbText
 10
1650.476802049242
 20
91.32502160510378
 30
0.0
 40
3.2
  1
品 名
  7
高3.2
100
AcDbText
1001
ACAD
1000
ACAD_MTEXT_DEFINED_HEIGHT_BEGIN
1070
    46
1040
0.0
1000
ACAD_MTEXT_DEFINED_HEIGHT_END
  0
TEXT
  5
144C
330
1F
100
AcDbEntity
  8
0
 62
     3
100
AcDbText
 10
1650.476802049242
 20
83.68449339721884
 30
0.0
 40
3.2
  1
型 式
  7
高3.2
100
AcDbText
1001
ACAD
1000
ACAD_MTEXT_DEFINED_HEIGHT_BEGIN
1070
    46
1040
3.064735913775952
1000
ACAD_MTEXT_DEFINED_HEIGHT_END
  0
TEXT
  5
144D
330
1F
100
AcDbEntity
  8
0
 62
     3
100
AcDbText
 10
1650.476802049242
 20
76.68449339721886
 30
0.0
 40
3.2
  1
材 質
  7
高3.2
100
AcDbText
1001
ACAD
1000
ACAD_MTEXT_DEFINED_HEIGHT_BEGIN
1070
    46
1040
0.0
1000
ACAD_MTEXT_DEFINED_HEIGHT_END
  0
TEXT
  5
144E
330
1F
100
AcDbEntity
  8
0
 62
     3
100
AcDbText
 10
1650.171767099243
 20
69.6519333894651
 30
0.0
 40
3.2
  1
第 三 角 法
  7
高3.2
100
AcDbText
1001
ACAD
1000
ACAD_MTEXT_DEFINED_HEIGHT_BEGIN
1070
    46
1040
0.0
1000
ACAD_MTEXT_DEFINED_HEIGHT_END
  0
TEXT
  5
144F
330
1F
100
AcDbEntity
  8
0
 62
     3
100
AcDbText
 10
1648.578299706771
 20
60.32502160510379
 30
0.0
 40
3.2
  1
日動工業株式会社
 41
1.199999999999999
  7
高3.2
100
AcDbText
1001
ACAD
1000
ACAD_MTEXT_DEFINED_HEIGHT_BEGIN
1070
    46
1040
0.0
1000
ACAD_MTEXT_DEFINED_HEIGHT_END
  0
TEXT
  5
1450
330
1F
100
AcDbEntity
  8
0
 62
     3
100
AcDbText
 10
1682.21392390625
 20
76.56907193038641
 30
0.0
 40
3.2
  1
備考
  7
高3.2
100
AcDbText
1001
ACAD
1000
ACAD_MTEXT_DEFINED_HEIGHT_BEGIN
1070
    46
1040
0.0
1000
ACAD_MTEXT_DEFINED_HEIGHT_END
  0
TEXT
  5
1451
330
1F
100
AcDbEntity
  8
0
 62
     3
100
AcDbText
 10
1691.862981353285
 20
65.33072342278915
 30
0.0
 40
2.5
  1
出図コード
  7
高2.5
100
AcDbText
1001
ACAD
1000
ACAD_MTEXT_DEFINED_HEIGHT_BEGIN
1070
    46
1040
0.0
1000
ACAD_MTEXT_DEFINED_HEIGHT_END
  0
TEXT
  5
1452
330
1F
100
AcDbEntity
  8
0
 62
     3
100
AcDbText
 10
1682.055157788162
 20
69.63772830763177
 30
0.0
 40
3.2
  1
尺度
  7
高3.2
100
AcDbText
1001
ACAD
1000
ACAD_MTEXT_DEFINED_HEIGHT_BEGIN
1070
    46
1040
0.0
1000
ACAD_MTEXT_DEFINED_HEIGHT_END
  0
TEXT
  5
1453
330
1F
100
AcDbEntity
  8
0
 62
     3
100
AcDbText
 10
1709.201419269941
 20
70.76920675574926
 30
0.0
 40
3.2
  1
作成日
  7
高3.2
100
AcDbText
1001
ACAD
1000
ACAD_MTEXT_DEFINED_HEIGHT_BEGIN
1070
    46
1040
0.0
1000
ACAD_MTEXT_DEFINED_HEIGHT_END
  0
TEXT
  5
1454
330
1F
100
AcDbEntity
  8
0
 62
     3
100
AcDbText
 10
1709.095893276805
 20
91.32502160510378
 30
0.0
 40
3.2
  1
承 認
  7
高3.2
100
AcDbText
1001
ACAD
1000
ACAD_MTEXT_DEFINED_HEIGHT_BEGIN
1070
    46
1040
0.0
1000
ACAD_MTEXT_DEFINED_HEIGHT_END
  0
TEXT
  5
1455
330
1F
100
AcDbEntity
  8
0
 62
     3
100
AcDbText
 10
1722.095893276805
 20
91.32502160510378
 30
0.0
 40
3.2
  1
検 図
  7
高3.2
100
AcDbText
1001
ACAD
1000
ACAD_MTEXT_DEFINED_HEIGHT_BEGIN
1070
    46
1040
0.0
1000
ACAD_MTEXT_DEFINED_HEIGHT_END
  0
TEXT
  5
1456
330
1F
100
AcDbEntity
  8
0
 62
     3
100
AcDbText
 10
1735.095893276805
 20
91.32502160510378
 30
0.0
 40
3.2
  1
設 計
  7
高3.2
100
AcDbText
1001
ACAD
1000
ACAD_MTEXT_DEFINED_HEIGHT_BEGIN
1070
    46
1040
0.0
1000
ACAD_MTEXT_DEFINED_HEIGHT_END
  0
TEXT
  5
1457
330
1F
100
AcDbEntity
  8
0
 62
     3
100
AcDbText
 10
1748.396529796805
 20
91.32502160510378
 30
0.0
 40
3.2
  1
製 図
  7
高3.2
100
AcDbText
1001
ACAD
1000
ACAD_MTEXT_DEFINED_HEIGHT_BEGIN
1070
    46
1040
0.0
1000
ACAD_MTEXT_DEFINED_HEIGHT_END
  0
TEXT
  5
1458
330
1F
100
AcDbEntity
  8
0
 62
     3
100
AcDbText
 10
1747.210012384285
 20
323.6844933972188
 30
0.0
 40
3.2
  1
担　当
  7
高3.2
100
AcDbText
  0
TEXT
  5
1459
330
1F
100
AcDbEntity
  8
0
 62
     3
100
AcDbText
 10
1703.210012384285
 20
323.6844933972188
 30
0.0
 40
3.2
  1
変更・追記内容
  7
高3.2
100
AcDbText
  0
TEXT
  5
145A
330
1F
100
AcDbEntity
  8
0
 62
     3
100
AcDbText
 10
1678.323527384624
 20
319.0139548873105
 30
0.0
 40
2.0
  1
1
  7
高2
100
AcDbText
  0
TEXT
  5
145B
330
1F
100
AcDbEntity
  8
0
 62
     3
100
AcDbText
 10
1678.015015907867
 20
313.8441381750376
 30
0.0
 40
2.0
  1
2
  7
高2
100
AcDbText
  0
TEXT
  5
145C
330
1F
100
AcDbEntity
  8
0
 62
     3
100
AcDbText
 10
1685.210012384285
 20
323.6844933972188
 30
0.0
 40
3.2
  1
日　付
  7
高3.2
100
AcDbText
  0
TEXT
  5
145D
330
1F
100
AcDbEntity
  8
0
 62
     3
100
AcDbText
 10
1685.210012384285
 20
328.6844933972188
 30
0.0
 40
3.2
  1
図　　　　面　　　　略　　　　歴
  7
高3.2
100
AcDbText
  0
TEXT
  5
145E
330
1F
100
AcDbEntity
  8
0
 62
     3
100
AcDbText
 10
1675.210012384285
 20
323.6844933972188
 30
0.0
 40
3.2
  1
記号
  7
高3.2
100
AcDbText
  0
LINE
  5
145F
330
1F
100
AcDbEntity
  8
0
 62
     7
100
AcDbLine
 10
1678.710012384285
 20
316.9753893972189
 30
0.0
 11
1676.810012384285
 21
313.6844933972188
 31
0.0
  0
LINE
  5
1460
330
1F
100
AcDbEntity
  8
0
 62
     7
100
AcDbLine
 10
1678.710012384285
 20
316.9753893972189
 30
0.0
 11
1680.610012384285
 21
313.6844933972188
 31
0.0
  0
LINE
  5
1461
330
1F
100
AcDbEntity
  8
0
 62
     7
100
AcDbLine
 10
1676.810012384285
 20
313.6844933972188
 30
0.0
 11
1680.610012384285
 21
313.6844933972188
 31
0.0
  0
LINE
  5
1462
330
1F
100
AcDbEntity
  8
0
 62
     7
100
AcDbLine
 10
1678.710012384285
 20
321.9753903972188
 30
0.0
 11
1676.810012384285
 21
318.6844933972188
 31
0.0
  0
LINE
  5
1463
330
1F
100
AcDbEntity
  8
0
 62
     7
100
AcDbLine
 10
1678.710012384285
 20
321.9753903972188
 30
0.0
 11
1680.610012384285
 21
318.6844933972188
 31
0.0
  0
LINE
  5
1464
330
1F
100
AcDbEntity
  8
0
 62
     7
100
AcDbLine
 10
1676.810012384285
 20
318.6844933972188
 30
0.0
 11
1680.610012384285
 21
318.6844933972188
 31
0.0
  0
LINE
  5
1465
330
1F
100
AcDbEntity
  8
0
 62
     3
100
AcDbLine
 10
1673.710012384285
 20
328.1844933972188
 30
0.0
 11
1759.710012384285
 21
328.1844933972188
 31
0.0
  0
LINE
  5
1466
330
1F
100
AcDbEntity
  8
0
 62
     3
100
AcDbLine
 10
1673.710012384285
 20
323.1844933972188
 30
0.0
 11
1759.710012384285
 21
323.1844933972188
 31
0.0
  0
LINE
  5
1467
330
1F
100
AcDbEntity
  8
0
 62
     7
100
AcDbLine
 10
1673.710012384285
 20
318.1844933972188
 30
0.0
 11
1759.710012384285
 21
318.1844933972188
 31
0.0
  0
LINE
  5
1468
330
1F
100
AcDbEntity
  8
0
 62
     3
100
AcDbLine
 10
1673.710012384285
 20
313.1844933972188
 30
0.0
 11
1759.710012384285
 21
313.1844933972188
 31
0.0
  0
LINE
  5
1469
330
1F
100
AcDbEntity
  8
0
 62
     7
100
AcDbLine
 10
1745.710012384285
 20
313.1844933972188
 30
0.0
 11
1745.710012384285
 21
328.1844933972188
 31
0.0
  0
LINE
  5
146A
330
1F
100
AcDbEntity
  8
0
 62
     7
100
AcDbLine
 10
1701.710012384285
 20
313.1844933972188
 30
0.0
 11
1701.710012384285
 21
328.1844933972188
 31
0.0
  0
LINE
  5
146B
330
1F
100
AcDbEntity
  8
0
 62
     7
100
AcDbLine
 10
1683.710012384285
 20
313.1844933972188
 30
0.0
 11
1683.710012384285
 21
328.1844933972188
 31
0.0
  0
LINE
  5
146C
330
1F
100
AcDbEntity
  8
0
 62
     3
100
AcDbLine
 10
1673.710012384285
 20
313.1844933972188
 30
0.0
 11
1673.710012384285
 21
333.1844933972188
 31
0.0
  0
LINE
  5
146D
330
1F
100
AcDbEntity
  8
0
 62
     3
100
AcDbLine
 10
1759.710012384285
 20
105.1844933972188
 30
0.0
 11
1707.710012384285
 21
105.1844933972188
 31
0.0
  0
LINE
  5
146E
330
1F
100
AcDbEntity
  8
0
 62
     3
100
AcDbLine
 10
1733.710012384285
 20
99.18449339721886
 30
0.0
 11
1733.710012384285
 21
105.1844933972188
 31
0.0
  0
LINE
  5
146F
330
1F
100
AcDbEntity
  8
0
 62
     3
100
AcDbLine
 10
1707.710012384285
 20
99.18449339721886
 30
0.0
 11
1707.710012384285
 21
105.1844933972188
 31
0.0
  0
TEXT
  5
1470
330
1F
100
AcDbEntity
  8
0
 62
     3
100
AcDbText
 10
1713.190051288035
 20
99.83435382418793
 30
0.0
 40
4.5
  1
コード
  7
高4.5
100
AcDbText
  0
TEXT
  5
1471
330
1F
100
AcDbEntity
  8
0
 62
     3
100
AcDbText
 10
1738.986227309498
 20
99.83435382418793
 30
0.0
 40
4.5
  1
7059
  7
高4.5
100
AcDbText
  0
TEXT
  5
1472
330
1F
100
AcDbEntity
  8
0
100
AcDbText
 10
1752.896506691045
 20
81.24212166499592
 30
0.0
 40
3.2
  1
I
  7
高3.2
100
AcDbText
  0
CIRCLE
  5
1473
330
1F
100
AcDbEntity
  8
0
  6
HIDDEN
100
AcDbCircle
 10
1408.71375204759
 20
224.4258608042458
 30
0.0
 40
6.0
  0
CIRCLE
  5
1474
330
1F
100
AcDbEntity
  8
0
  6
HIDDEN
100
AcDbCircle
 10
1408.71375204759
 20
224.4258608042458
 30
0.0
 40
3.0
  0
CIRCLE
  5
1475
330
1F
100
AcDbEntity
  8
0
  6
HIDDEN
 62
     3
100
AcDbCircle
 10
1408.71375204759
 20
224.4258608042458
 30
0.0
 40
1.0
  0
LINE
  5
14E6
330
1F
100
AcDbEntity
  8
0
 62
     7
100
AcDbLine
 10
1498.842796437686
 20
64.18449339721886
 30
0.0
 11
1369.710012384285
 21
64.18449339721886
 31
0.0
  0
LINE
  5
14E7
330
1F
100
AcDbEntity
  8
0
 62
     7
100
AcDbLine
 10
1498.842796437686
 20
69.18449339721886
 30
0.0
 11
1369.710012384285
 21
69.18449339721886
 31
0.0
  0
LINE
  5
14E8
330
1F
100
AcDbEntity
  8
0
 62
     7
100
AcDbLine
 10
1498.842796437686
 20
74.18449339721886
 30
0.0
 11
1369.710012384285
 21
74.18449339721886
 31
0.0
  0
LINE
  5
14E9
330
1F
100
AcDbEntity
  8
0
 62
     7
100
AcDbLine
 10
1498.842796437686
 20
79.18449339721887
 30
0.0
 11
1369.710012384285
 21
79.18449339721887
 31
0.0
  0
LINE
  5
14EA
330
1F
100
AcDbEntity
  8
0
 62
     7
100
AcDbLine
 10
1498.842796437686
 20
84.18449339721886
 30
0.0
 11
1369.710012384285
 21
84.18449339721886
 31
0.0
  0
LINE
  5
14EB
330
1F
100
AcDbEntity
  8
0
 62
     7
100
AcDbLine
 10
1498.842796437686
 20
89.18449339721886
 30
0.0
 11
1369.710012384285
 21
89.18449339721886
 31
0.0
  0
LINE
  5
14EC
330
1F
100
AcDbEntity
  8
0
 62
     3
100
AcDbLine
 10
1498.842796437686
 20
94.18449339721886
 30
0.0
 11
1369.710012384285
 21
94.18449339721886
 31
0.0
  0
TEXT
  5
14ED
330
1F
100
AcDbEntity
  8
0
 62
     3
100
AcDbText
 10
1440.849462613172
 20
59.81841527221885
 30
0.0
 40
3.2
  1
備　　　　　考　
 41
0.8
  7
高3.2
100
AcDbText
  0
TEXT
  5
14EE
330
1F
100
AcDbEntity
  8
0
 62
     3
100
AcDbText
 10
1474.590904245876
 20
59.81841527221885
 30
0.0
 40
3.2
  1
個数
 41
0.8
  7
高3.2
100
AcDbText
  0
TEXT
  5
14EF
330
1F
100
AcDbEntity
  8
0
 62
     3
100
AcDbText
 10
1371.210012384285
 20
59.68449339721884
 30
0.0
 40
3.2
  1
No
 41
0.8
  7
高3.2
100
AcDbText
  0
TEXT
  5
14F0
330
1F
100
AcDbEntity
  8
0
 62
     3
100
AcDbText
 10
1371.210012384285
 20
74.68449339721884
 30
0.0
 40
3.2
  1
3
 41
0.8
  7
高3.2
100
AcDbText
  0
TEXT
  5
14F1
330
1F
100
AcDbEntity
  8
0
 62
     3
100
AcDbText
 10
1371.210012384285
 20
79.68449339721884
 30
0.0
 40
3.2
  1
4
 41
0.8
  7
高3.2
100
AcDbText
  0
TEXT
  5
14F2
330
1F
100
AcDbEntity
  8
0
 62
     3
100
AcDbText
 10
1371.210012384285
 20
84.68449339721887
 30
0.0
 40
3.2
  1
5
 41
0.8
  7
高3.2
100
AcDbText
  0
TEXT
  5
14F3
330
1F
100
AcDbEntity
  8
0
 62
     3
100
AcDbText
 10
1371.210012384285
 20
64.68449339721884
 30
0.0
 40
3.2
  1
1
 41
0.8
  7
高3.2
100
AcDbText
  0
TEXT
  5
14F4
330
1F
100
AcDbEntity
  8
0
 62
     3
100
AcDbText
 10
1371.210012384285
 20
69.68449339721884
 30
0.0
 40
3.2
  1
2
 41
0.8
  7
高3.2
100
AcDbText
  0
TEXT
  5
14F5
330
1F
100
AcDbEntity
  8
0
 62
     3
100
AcDbText
 10
1379.024353675386
 20
64.68449339721884
 30
0.0
 40
3.2
  1
ケース本体
 41
0.8
  7
高3.2
100
AcDbText
  0
TEXT
  5
14F6
330
1F
100
AcDbEntity
  8
0
 62
     3
100
AcDbText
 10
1474.590904245876
 20
64.68449339721884
 30
0.0
 40
3.2
  1
1
 41
0.8
  7
高3.2
100
AcDbText
  0
TEXT
  5
14F7
330
1F
100
AcDbEntity
  8
0
 62
     3
100
AcDbText
 10
1398.131865151564
 20
79.68449339721884
 30
0.0
 40
3.2
  1
-
 41
0.8
  7
高3.2
100
AcDbText
  0
TEXT
  5
14F8
330
1F
100
AcDbEntity
  8
0
 62
     3
100
AcDbText
 10
1474.590904245876
 20
69.68449339721884
 30
0.0
 40
3.2
  1
1
 41
0.8
  7
高3.2
100
AcDbText
  0
TEXT
  5
14F9
330
1F
100
AcDbEntity
  8
0
 62
     3
100
AcDbText
 10
1398.131865151564
 20
74.68449339721884
 30
0.0
 40
3.2
  1
-
 41
0.8
  7
高3.2
100
AcDbText
  0
TEXT
  5
14FA
330
1F
100
AcDbEntity
  8
0
 62
     3
100
AcDbText
 10
1379.024353675386
 20
74.68449339721884
 30
0.0
 40
3.2
  1
電池
 41
0.8
  7
高3.2
100
AcDbText
  0
TEXT
  5
14FB
330
1F
100
AcDbEntity
  8
0
 62
     3
100
AcDbText
 10
1379.024353675386
 20
79.68449339721884
 30
0.0
 40
3.2
  1
LED
 41
0.8
  7
高3.2
100
AcDbText
  0
TEXT
  5
14FC
330
1F
100
AcDbEntity
  8
0
 62
     3
100
AcDbText
 10
1379.024353675386
 20
84.68449339721887
 30
0.0
 40
3.2
  1
スイッチ
 41
0.8
  7
高3.2
100
AcDbText
  0
TEXT
  5
14FD
330
1F
100
AcDbEntity
  8
0
 62
     3
100
AcDbText
 10
1440.849462613172
 20
84.68449339721887
 30
0.0
 40
3.2
  1
プッシュ式
 41
0.8
  7
高3.2
100
AcDbText
  0
TEXT
  5
14FE
330
1F
100
AcDbEntity
  8
0
 62
     3
100
AcDbText
 10
1398.131865151564
 20
84.68449339721887
 30
0.0
 40
3.2
  1
合成ゴム
 41
0.8
  7
高3.2
100
AcDbText
  0
TEXT
  5
14FF
330
1F
100
AcDbEntity
  8
0
 62
     3
100
AcDbText
 10
1379.024353675386
 20
59.81841527221885
 30
0.0
 40
3.2
  1
部　品　名
 41
0.8
  7
高3.2
100
AcDbText
  0
TEXT
  5
1500
330
1F
100
AcDbEntity
  8
0
 62
     3
100
AcDbText
 10
1398.131865151564
 20
59.81841527221885
 30
0.0
 40
3.2
  1
材　質
 41
0.8
  7
高3.2
100
AcDbText
  0
TEXT
  5
1501
330
1F
100
AcDbEntity
  8
0
 62
     3
100
AcDbText
 10
1474.590904245876
 20
84.68449339721887
 30
0.0
 40
3.2
  1
1
 41
0.8
  7
高3.2
100
AcDbText
  0
TEXT
  5
1502
330
1F
100
AcDbEntity
  8
0
 62
     3
100
AcDbText
 10
1681.766752744186
 20
136.1309763972189
 30
0.0
 40
3.2
  1
型　式
  7
高3.2
100
AcDbText
  0
TEXT
  5
1503
330
1F
100
AcDbEntity
  8
0
 62
     3
100
AcDbText
 10
1681.766752744186
 20
130.1309763972189
 30
0.0
 40
3.2
  1
電　源
  7
高3.2
100
AcDbText
  0
TEXT
  5
1504
330
1F
100
AcDbEntity
  8
0
 62
     3
100
AcDbText
 10
1681.766752744186
 20
124.1309763972189
 30
0.0
 40
3.2
  1
連続点灯
  7
高3.2
100
AcDbText
  0
TEXT
  5
1505
330
1F
100
AcDbEntity
  8
0
 62
     3
100
AcDbText
 10
1693.146114124545
 20
143.6637708990877
 30
0.0
 40
4.5
  1
主　　仕　　様
  7
高4.5
100
AcDbText
  0
TEXT
  5
1506
330
1F
100
AcDbEntity
  8
0
 62
     3
100
AcDbText
 10
1440.849462613172
 20
69.68449339721884
 30
0.0
 40
3.2
  1
-
 41
0.8
  7
高3.2
100
AcDbText
  0
TEXT
  5
1507
330
1F
100
AcDbEntity
  8
0
 62
     3
100
AcDbText
 10
1440.849462613172
 20
64.68449339721884
 30
0.0
 40
3.2
  1
-
 41
0.8
  7
高3.2
100
AcDbText
  0
TEXT
  5
1508
330
1F
100
AcDbEntity
  8
0
 62
     3
100
AcDbText
 10
1379.024353675386
 20
69.68449339721884
 30
0.0
 40
3.2
  1
キャップ
 41
0.8
  7
高3.2
100
AcDbText
  0
LINE
  5
1509
330
1F
100
AcDbEntity
  8
0
 62
     7
100
AcDbLine
 10
1377.524353675386
 20
59.31841527221886
 30
0.0
 11
1377.524353675386
 21
94.31841527221887
 31
0.0
  0
LINE
  5
150A
330
1F
100
AcDbEntity
  8
0
 62
     7
100
AcDbLine
 10
1482.803617174135
 20
59.31841527221886
 30
0.0
 11
1482.803617174135
 21
94.31841527221887
 31
0.0
  0
LINE
  5
150B
330
1F
100
AcDbEntity
  8
0
 62
     7
100
AcDbLine
 10
1396.631865151564
 20
59.31841527221886
 30
0.0
 11
1396.631865151564
 21
94.31841527221887
 31
0.0
  0
LINE
  5
150C
330
1F
100
AcDbEntity
  8
0
 62
     7
100
AcDbLine
 10
1473.090904245876
 20
59.31841527221886
 30
0.0
 11
1473.090904245876
 21
94.31841527221887
 31
0.0
  0
LINE
  5
150D
330
1F
100
AcDbEntity
  8
0
 62
     7
100
AcDbLine
 10
1439.349462613172
 20
59.31841527221886
 30
0.0
 11
1439.349462613172
 21
94.31841527221887
 31
0.0
  0
TEXT
  5
150F
330
1F
100
AcDbEntity
  8
0
 62
     3
100
AcDbText
 10
1474.590904245876
 20
74.68449339721884
 30
0.0
 40
3.2
  1
3
 41
0.8
  7
高3.2
100
AcDbText
  0
TEXT
  5
1510
330
1F
100
AcDbEntity
  8
0
 62
     3
100
AcDbText
 10
1474.590904245876
 20
79.68449339721884
 30
0.0
 40
3.2
  1
1
 41
0.8
  7
高3.2
100
AcDbText
  0
TEXT
  5
1511
330
1F
100
AcDbEntity
  8
0
 62
     3
100
AcDbText
 10
1440.849462613172
 20
79.68449339721884
 30
0.0
 40
3.2
  1
-
 41
0.8
  7
高3.2
100
AcDbText
  0
TEXT
  5
1512
330
1F
100
AcDbEntity
  8
0
 62
     3
100
AcDbText
 10
1699.017500384286
 20
136.1309763972189
 30
0.0
 40
3.2
  1
088J
  7
高3.2
100
AcDbText
  0
TEXT
  5
1513
330
1F
100
AcDbEntity
  8
0
 62
     3
100
AcDbText
 10
1699.017500384286
 20
124.1309763972189
 30
0.0
 40
3.2
  1
18時間
  7
高3.2
100
AcDbText
  0
LINE
  5
1514
330
1F
100
AcDbEntity
  8
0
 62
     3
100
AcDbLine
 10
1680.266752744187
 20
141.1309763972189
 30
0.0
 11
1740.003536135651
 21
141.1309763972189
 31
0.0
  0
LINE
  5
1515
330
1F
100
AcDbEntity
  8
0
 62
     7
100
AcDbLine
 10
1680.266752744187
 20
129.1309763972189
 30
0.0
 11
1740.003536135651
 21
129.1309763972189
 31
0.0
  0
LINE
  5
1516
330
1F
100
AcDbEntity
  8
0
 62
     7
100
AcDbLine
 10
1680.266752744187
 20
123.1309763972189
 30
0.0
 11
1740.003536135651
 21
123.1309763972189
 31
0.0
  0
LINE
  5
1517
330
1F
100
AcDbEntity
  8
0
 62
     7
100
AcDbLine
 10
1680.266752744187
 20
135.1309763972189
 30
0.0
 11
1740.003536135651
 21
135.1309763972189
 31
0.0
  0
LINE
  5
1518
330
1F
100
AcDbEntity
  8
0
 62
     7
100
AcDbLine
 10
1680.266752744187
 20
117.1309763972189
 30
0.0
 11
1740.003536135651
 21
117.1309763972189
 31
0.0
  0
TEXT
  5
151A
330
1F
100
AcDbEntity
  8
0
 62
     3
100
AcDbText
 10
1484.303617174135
 20
59.81841527221885
 30
0.0
 40
3.2
  1
コード
 41
0.8
  7
高3.2
100
AcDbText
  0
TEXT
  5
151B
330
1F
100
AcDbEntity
  8
0
 62
     3
100
AcDbText
 10
1440.849462613172
 20
74.68449339721884
 30
0.0
 40
3.2
  1
単2形アルカリ乾電池
 41
0.8
  7
高3.2
100
AcDbText
  0
TEXT
  5
151C
330
1F
100
AcDbEntity
  8
0
 62
     3
100
AcDbText
 10
1484.303617174135
 20
79.68449339721884
 30
0.0
 40
3.2
  1
-
 41
0.8
  7
高3.2
100
AcDbText
  0
TEXT
  5
151D
330
1F
100
AcDbEntity
  8
0
 62
     3
100
AcDbText
 10
1484.303617174135
 20
74.68449339721884
 30
0.0
 40
3.2
  1
-
 41
0.8
  7
高3.2
100
AcDbText
  0
TEXT
  5
151E
330
1F
100
AcDbEntity
  8
0
 62
     3
100
AcDbText
 10
1484.303617174135
 20
84.68449339721887
 30
0.0
 40
3.2
  1
-
 41
0.8
  7
高3.2
100
AcDbText
  0
TEXT
  5
151F
330
1F
100
AcDbEntity
  8
0
 62
     3
100
AcDbText
 10
1484.303617174135
 20
69.68449339721884
 30
0.0
 40
3.2
  1
-
 41
0.8
  7
高3.2
100
AcDbText
  0
TEXT
  5
1520
330
1F
100
AcDbEntity
  8
0
 62
     3
100
AcDbText
 10
1484.303617174135
 20
64.68449339721884
 30
0.0
 40
3.2
  1
-
 41
0.8
  7
高3.2
100
AcDbText
  0
TEXT
  5
1521
330
1F
100
AcDbEntity
  8
0
 62
     3
100
AcDbText
 10
1423.713318384285
 20
138.8573773972189
 30
0.0
 40
4.5
  1
防爆認証：
  7
高4.5
100
AcDbText
  0
TEXT
  5
1522
330
1F
100
AcDbEntity
  8
0
 62
     3
100
AcDbText
 10
1423.713318384285
 20
132.3033353972188
 30
0.0
 40
4.5
  1
国内防爆:Ex ia IIC T4 Ga  　型式検定合格番号:第TC22069号
  7
高4.5
100
AcDbText
  0
LINE
  5
1523
330
1F
100
AcDbEntity
  8
0
 62
     7
100
AcDbLine
 10
1423.713318384285
 20
138.2934930146433
 30
0.0
 11
1464.696726871673
 21
138.2934930146433
 31
0.0
  0
LINE
  5
1524
330
1F
100
AcDbEntity
  8
0
 62
     7
100
AcDbLine
 10
1423.713318384285
 20
131.4932885150164
 30
0.0
 11
1598.04058289025
 21
131.4932885150164
 31
0.0
  0
TEXT
  5
1525
330
1F
100
AcDbEntity
  8
0
 62
     3
100
AcDbText
 10
1699.017500384286
 20
112.1309763972189
 30
0.0
 40
3.2
  1
394g(電池含)
  7
高3.2
100
AcDbText
  0
LINE
  5
1526
330
1F
100
AcDbEntity
  8
0
 62
     3
100
AcDbLine
 10
1680.266752744187
 20
111.1309763972189
 30
0.0
 11
1740.003536135651
 21
111.1309763972189
 31
0.0
  0
TEXT
  5
1527
330
1F
100
AcDbEntity
  8
0
 62
     3
100
AcDbText
 10
1681.766752744186
 20
112.1309763972189
 30
0.0
 40
3.2
  1
質　量
  7
高3.2
100
AcDbText
  0
TEXT
  5
1528
330
1F
100
AcDbEntity
  8
0
 62
     3
100
AcDbText
 10
1681.766752744186
 20
118.1309763972189
 30
0.0
 40
3.2
  1
定格光束
  7
高3.2
100
AcDbText
  0
TEXT
  5
1529
330
1F
100
AcDbEntity
  8
0
 62
     3
100
AcDbText
 10
1699.017500384286
 20
118.1309763972189
 30
0.0
 40
3.2
  1
150Lm
  7
高3.2
100
AcDbText
  0
TEXT
  5
152A
330
1F
100
AcDbEntity
  8
0
 62
     3
100
AcDbText
 10
1699.017500384286
 20
130.1309763972189
 30
0.0
 40
3.2
  1
単2アルカリ乾電池x3
  7
高3.2
100
AcDbText
  0
LINE
  5
152B
330
1F
100
AcDbEntity
  8
0
 62
     3
100
AcDbLine
 10
1680.266752744187
 20
141.1309763972189
 30
0.0
 11
1680.266752744187
 21
111.1309763972189
 31
0.0
  0
LINE
  5
152C
330
1F
100
AcDbEntity
  8
0
 62
     3
100
AcDbLine
 10
1740.003536135651
 20
111.1309763972189
 30
0.0
 11
1740.003536135651
 21
141.1309763972189
 31
0.0
  0
LINE
  5
152D
330
1F
100
AcDbEntity
  8
0
 62
     7
100
AcDbLine
 10
1697.517500384285
 20
141.1309763972189
 30
0.0
 11
1697.517500384285
 21
111.1309763972189
 31
0.0
  0
TEXT
  5
152E
330
1F
100
AcDbEntity
  8
0
 62
     3
100
AcDbText
 10
1371.210012384285
 20
89.68449339721876
 30
0.0
 40
3.2
  1
6
 41
0.8
  7
高3.2
100
AcDbText
  0
TEXT
  5
152F
330
1F
100
AcDbEntity
  8
0
 62
     3
100
AcDbText
 10
1379.024353675386
 20
89.68449339721876
 30
0.0
 40
3.2
  1
レンズ
 41
0.8
  7
高3.2
100
AcDbText
  0
TEXT
  5
1530
330
1F
100
AcDbEntity
  8
0
 62
     3
100
AcDbText
 10
1440.849462613172
 20
89.68449339721876
 30
0.0
 40
3.2
  1
-
 41
0.8
  7
高3.2
100
AcDbText
  0
TEXT
  5
1531
330
1F
100
AcDbEntity
  8
0
 62
     3
100
AcDbText
 10
1398.131865151564
 20
89.68449339721876
 30
0.0
 40
3.2
  1
PC樹脂
 41
0.8
  7
高3.2
100
AcDbText
  0
TEXT
  5
1532
330
1F
100
AcDbEntity
  8
0
 62
     3
100
AcDbText
 10
1474.590904245876
 20
89.68449339721876
 30
0.0
 40
3.2
  1
1
 41
0.8
  7
高3.2
100
AcDbText
  0
TEXT
  5
1533
330
1F
100
AcDbEntity
  8
0
 62
     3
100
AcDbText
 10
1484.303617174135
 20
89.68449339721876
 30
0.0
 40
3.2
  1
-
 41
0.8
  7
高3.2
100
AcDbText
  0
LINE
  5
1534
330
1F
100
AcDbEntity
  8
0
  6
Continuous
100
AcDbLine
 10
1691.14556886448
 20
142.6533168751672
 30
0.0
 11
1730.263642305317
 21
142.6533168751672
 31
0.0
  0
TEXT
  5
1535
330
1F
100
AcDbEntity
  8
0
 62
     3
100
AcDbText
 10
1398.131865151564
 20
64.68449339721884
 30
0.0
 40
3.2
  1
耐衝撃・耐薬品ポリマー樹脂
 41
0.8
  7
高3.2
100
AcDbText
  0
LINE
  5
1536
330
1F
100
AcDbEntity
  8
0
 62
     3
100
AcDbLine
 10
1498.842796437686
 20
59.31841527221886
 30
0.0
 11
1498.842796437686
 21
94.31841527221887
 31
0.0
  0
TEXT
  5
153A
330
1F
100
AcDbEntity
  8
0
 62
     3
100
AcDbText
 10
1398.131865151564
 20
69.68449339721884
 30
0.0
 40
3.2
  1
耐衝撃・耐薬品ポリマー樹脂
 41
0.8
  7
高3.2
100
AcDbText
  0
CIRCLE
  5
154D
330
1F
100
AcDbEntity
  8
0
 62
     7
100
AcDbCircle
 10
1661.680436356497
 20
263.0078665536542
 30
0.0
 40
5.0
  0
TEXT
  5
154E
330
1F
100
AcDbEntity
  8
0
 62
     4
100
AcDbText
 10
1659.642311867194
 20
259.7663559149959
 30
0.0
 40
6.299999999999998
  1
3
  7
高6.3
100
AcDbText
  0
CIRCLE
  5
154F
330
1F
100
AcDbEntity
  8
0
 62
     7
100
AcDbCircle
 10
1469.741349344432
 20
263.0078665536542
 30
0.0
 40
5.0
  0
TEXT
  5
1550
330
1F
100
AcDbEntity
  8
0
 62
     4
100
AcDbText
 10
1467.762032547748
 20
259.9742245267911
 30
0.0
 40
6.299999999999998
  1
2
  7
高6.3
100
AcDbText
  0
CIRCLE
  5
1551
330
1F
100
AcDbEntity
  8
0
 62
     7
100
AcDbCircle
 10
1399.828980565992
 20
263.0078665536542
 30
0.0
 40
5.0
  0
TEXT
  5
1552
330
1F
100
AcDbEntity
  8
0
 62
     4
100
AcDbText
 10
1397.435382324765
 20
259.9135381018876
 30
0.0
 40
6.299999999999998
  1
4
  7
高6.3
100
AcDbText
  0
CIRCLE
  5
1553
330
1F
100
AcDbEntity
  8
0
 62
     7
100
AcDbCircle
 10
1558.190330299369
 20
263.0078665536542
 30
0.0
 40
5.0
  0
TEXT
  5
1554
330
1F
100
AcDbEntity
  8
0
 62
     4
100
AcDbText
 10
1557.350836365171
 20
259.8496203019283
 30
0.0
 40
6.299999999999998
  1
1
  7
高6.3
100
AcDbText
  0
CIRCLE
  5
1555
330
1F
100
AcDbEntity
  8
0
 62
     7
100
AcDbCircle
 10
1713.77914387644
 20
263.0078665536542
 30
0.0
 40
5.0
  0
TEXT
  5
1556
330
1F
100
AcDbEntity
  8
0
 62
     4
100
AcDbText
 10
1711.742315066364
 20
259.5430471756054
 30
0.0
 40
6.299999999999998
  1
5
  7
高6.3
100
AcDbText
  0
CIRCLE
  5
1557
330
1F
100
AcDbEntity
  8
0
 62
     7
100
AcDbCircle
 10
1417.896212049531
 20
263.0078665536542
 30
0.0
 40
5.0
  0
TEXT
  5
1558
330
1F
100
AcDbEntity
  8
0
 62
     4
100
AcDbText
 10
1415.675631268093
 20
259.9127850768423
 30
0.0
 40
6.299999999999998
  1
6
  7
高6.3
100
AcDbText
  0
TEXT
  5
1669
330
1F
100
AcDbEntity
  8
0
 62
     3
100
AcDbText
 10
1423.713318384285
 20
125.5031308975919
 30
0.0
 40
4.5
  1
IEC:IECEx FTZU 14.0011X; Ex ia IIC T4 Ga; Ex ia IIIC T99\U+00B0C Da 
  7
高4.5
100
AcDbText
  0
LINE
  5
166A
330
1F
100
AcDbEntity
  8
0
 62
     7
100
AcDbLine
 10
1423.713318384285
 20
124.6930840153895
 30
0.0
 11
1641.277235222213
 21
124.6930840153895
 31
0.0
  0
LINE
  5
16A8
330
1F
100
AcDbEntity
  8
0
  6
HIDDEN
100
AcDbLine
 10
1673.92131304794
 20
237.5258608042457
 30
0.0
 11
1523.92131304794
 21
237.5258608042457
 31
0.0
  0
LINE
  5
16A9
330
1F
100
AcDbEntity
  8
0
  6
HIDDEN
100
AcDbLine
 10
1673.92131304794
 20
211.3258608042458
 30
0.0
 11
1523.92131304794
 21
211.3258608042458
 31
0.0
  0
LINE
  5
16AA
330
1F
100
AcDbEntity
  8
0
  6
HIDDEN
100
AcDbLine
 10
1523.92131304794
 20
211.3258608042458
 30
0.0
 11
1523.92131304794
 21
237.5258608042457
 31
0.0
  0
LINE
  5
16AB
330
1F
100
AcDbEntity
  8
0
  6
HIDDEN
100
AcDbLine
 10
1573.92131304794
 20
211.3258608042458
 30
0.0
 11
1573.92131304794
 21
237.5258608042457
 31
0.0
  0
LINE
  5
16AC
330
1F
100
AcDbEntity
  8
0
  6
HIDDEN
100
AcDbLine
 10
1623.92131304794
 20
211.3258608042458
 30
0.0
 11
1623.92131304794
 21
237.5258608042457
 31
0.0
  0
LINE
  5
16AD
330
1F
100
AcDbEntity
  8
0
  6
HIDDEN
100
AcDbLine
 10
1673.92131304794
 20
211.3258608042458
 30
0.0
 11
1673.92131304794
 21
237.5258608042457
 31
0.0
  0
LINE
  5
189B
330
1F
100
AcDbEntity
  8
0
100
AcDbLine
 10
1497.990580886886
 20
251.0258608042458
 30
0.0
 11
1445.92699536616
 21
251.0258608042458
 31
0.0
  0
LINE
  5
189E
330
1F
100
AcDbEntity
  8
0
100
AcDbLine
 10
1497.990580886886
 20
197.8258608042457
 30
0.0
 11
1445.92699536616
 21
197.8258608042457
 31
0.0
  0
LINE
  5
189F
330
1F
100
AcDbEntity
  8
0
100
AcDbLine
 10
1447.17699536616
 20
248.5258608042459
 30
0.0
 11
1447.17699536616
 21
200.3258608042457
 31
0.0
  0
LINE
  5
18AF
330
1F
100
AcDbEntity
  8
0
100
AcDbLine
 10
1437.11375204759
 20
229.1165063440613
 30
0.0
 11
1437.11375204759
 21
275.9683502478336
 31
0.0
  0
LINE
  5
18B0
330
1F
100
AcDbEntity
  8
0
100
AcDbLine
 10
1382.117899280813
 20
224.5752417977262
 30
0.0
 11
1382.117899280813
 21
275.9683502478336
 31
0.0
  0
LINE
  5
18B1
330
1F
100
AcDbEntity
  8
0
100
AcDbLine
 10
1434.61375204759
 20
274.7183502478336
 30
0.0
 11
1384.617899280813
 21
274.7183502478336
 31
0.0
  0
LINE
  5
18B5
330
1F
100
AcDbEntity
  8
0
100
AcDbLine
 10
1738.128581501532
 20
224.6758608042458
 30
0.0
 11
1738.128581501532
 21
275.9683502478336
 31
0.0
  0
LINE
  5
18B6
330
1F
100
AcDbEntity
  8
0
100
AcDbLine
 10
1702.128581501533
 20
224.6758608042458
 30
0.0
 11
1702.128581501533
 21
275.9683502478336
 31
0.0
  0
LINE
  5
18B7
330
1F
100
AcDbEntity
  8
0
100
AcDbLine
 10
1735.628581501532
 20
274.7183502478336
 30
0.0
 11
1704.628581501532
 21
274.7183502478336
 31
0.0
  0
LINE
  5
18BB
330
1F
100
AcDbEntity
  8
0
100
AcDbLine
 10
1689.490580886886
 20
207.1758608042458
 30
0.0
 11
1696.954580354917
 21
207.1758608042458
 31
0.0
  0
LINE
  5
18BC
330
1F
100
AcDbEntity
  8
0
100
AcDbLine
 10
1689.490580886886
 20
243.1758608042458
 30
0.0
 11
1696.954580354917
 21
243.1758608042458
 31
0.0
  0
LINE
  5
18BD
330
1F
100
AcDbEntity
  8
0
100
AcDbLine
 10
1695.704580354918
 20
209.6758608042458
 30
0.0
 11
1695.704580354918
 21
240.6758608042458
 31
0.0
  0
LINE
  5
18C1
330
1F
100
AcDbEntity
  8
0
100
AcDbLine
 10
1689.240580886886
 20
243.4258608042458
 30
0.0
 11
1689.240580886886
 21
275.9683502478336
 31
0.0
  0
LINE
  5
18C2
330
1F
100
AcDbEntity
  8
0
100
AcDbLine
 10
1453.240580886886
 20
245.4758608042458
 30
0.0
 11
1453.240580886886
 21
275.9683502478336
 31
0.0
  0
LINE
  5
18C3
330
1F
100
AcDbEntity
  8
0
100
AcDbLine
 10
1686.740580886886
 20
274.7183502478336
 30
0.0
 11
1455.740580886886
 21
274.7183502478336
 31
0.0
  0
LINE
  5
18C7
330
1F
100
AcDbEntity
  8
0
100
AcDbLine
 10
1708.963857270651
 20
225.3140797234276
 30
0.0
 11
1719.24036258235
 21
235.5905850351267
 31
0.0
1001
GradientColor1ACI
1070
     5
1001
GradientColor2ACI
1070
     2
1001
ACAD
1010
0.0
1020
0.0
1030
0.0
  0
LINE
  5
18C8
330
1F
100
AcDbEntity
  8
0
100
AcDbLine
 10
1709.388657090337
 20
221.2487514825785
 30
0.0
 11
1723.305690823199
 21
235.165785215441
 31
0.0
1001
GradientColor1ACI
1070
     5
1001
GradientColor2ACI
1070
     2
1001
ACAD
1010
0.0
1020
0.0
1030
0.0
  0
LINE
  5
18C9
330
1F
100
AcDbEntity
  8
0
100
AcDbLine
 10
1710.823090761923
 20
218.1930570936302
 30
0.0
 11
1726.361385212148
 21
233.7313515438549
 31
0.0
1001
GradientColor1ACI
1070
     5
1001
GradientColor2ACI
1070
     2
1001
ACAD
1010
0.0
1020
0.0
1030
0.0
  0
LINE
  5
18CA
330
1F
100
AcDbEntity
  8
0
100
AcDbLine
 10
1712.94948132775
 20
215.8293195989229
 30
0.0
 11
1728.725122706855
 21
231.6049609780276
 31
0.0
1001
GradientColor1ACI
1070
     5
1001
GradientColor2ACI
1070
     2
1001
ACAD
1010
0.0
1020
0.0
1030
0.0
  0
LINE
  5
18CB
330
1F
100
AcDbEntity
  8
0
100
AcDbLine
 10
1715.734226360847
 20
214.1239365714849
 30
0.0
 11
1730.430505734293
 21
228.820215944931
 31
0.0
1001
GradientColor1ACI
1070
     5
1001
GradientColor2ACI
1070
     2
1001
ACAD
1010
0.0
1020
0.0
1030
0.0
  0
LINE
  5
18CC
330
1F
100
AcDbEntity
  8
0
100
AcDbLine
 10
1719.353154098218
 20
213.2527362483214
 30
0.0
 11
1731.301706057456
 21
225.20128820756
 31
0.0
1001
GradientColor1ACI
1070
     5
1001
GradientColor2ACI
1070
     2
1001
ACAD
1010
0.0
1020
0.0
1030
0.0
  0
LINE
  5
18CD
330
1F
100
AcDbEntity
  8
0
100
AcDbLine
 10
1724.869132292565
 20
214.2785863821339
 30
0.0
 11
1730.275855923644
 21
219.6853100132129
 31
0.0
1001
GradientColor1ACI
1070
     5
1001
GradientColor2ACI
1070
     2
1001
ACAD
1010
0.0
1020
0.0
1030
0.0
  0
LINE
  5
18CE
330
1F
100
AcDbEntity
  8
0
100
AcDbLine
 10
1713.296590119016
 20
215.550958340036
 30
0.0
 11
1711.253679037322
 21
217.5938694217298
 31
0.0
1001
GradientColor1ACI
1070
     5
1001
GradientColor2ACI
1070
     2
1001
ACAD
1010
0.0
1020
0.0
1030
0.0
  0
LINE
  5
18CF
330
1F
100
AcDbEntity
  8
0
100
AcDbLine
 10
1720.111803147783
 20
213.2258733718038
 30
0.0
 11
1708.92859406909
 21
224.4090824504965
 31
0.0
1001
GradientColor1ACI
1070
     5
1001
GradientColor2ACI
1070
     2
1001
ACAD
1010
0.0
1020
0.0
1030
0.0
  0
LINE
  5
18D0
330
1F
100
AcDbEntity
  8
0
100
AcDbLine
 10
1723.93520589001
 20
213.8925986901114
 30
0.0
 11
1709.595319387398
 21
228.2324851927234
 31
0.0
1001
GradientColor1ACI
1070
     5
1001
GradientColor2ACI
1070
     2
1001
ACAD
1010
0.0
1020
0.0
1030
0.0
  0
LINE
  5
18D1
330
1F
100
AcDbEntity
  8
0
100
AcDbLine
 10
1726.850575780413
 20
215.4673568602433
 30
0.0
 11
1711.17007755753
 21
231.1478550831264
 31
0.0
1001
GradientColor1ACI
1070
     5
1001
GradientColor2ACI
1070
     2
1001
ACAD
1010
0.0
1020
0.0
1030
0.0
  0
LINE
  5
18D2
330
1F
100
AcDbEntity
  8
0
100
AcDbLine
 10
1729.094414939025
 20
217.7136457621648
 30
0.0
 11
1713.416366459451
 21
233.3916942417393
 31
0.0
1001
GradientColor1ACI
1070
     5
1001
GradientColor2ACI
1070
     2
1001
ACAD
1010
0.0
1020
0.0
1030
0.0
  0
LINE
  5
18D3
330
1F
100
AcDbEntity
  8
0
100
AcDbLine
 10
1730.666379019817
 20
220.6318097419075
 30
0.0
 11
1716.334530439194
 21
234.9636583225311
 31
0.0
1001
GradientColor1ACI
1070
     5
1001
GradientColor2ACI
1070
     2
1001
ACAD
1010
0.0
1020
0.0
1030
0.0
  0
LINE
  5
18D4
330
1F
100
AcDbEntity
  8
0
100
AcDbLine
 10
1731.328530118976
 20
224.4597867032834
 30
0.0
 11
1720.16250740057
 21
235.6258094216897
 31
0.0
1001
GradientColor1ACI
1070
     5
1001
GradientColor2ACI
1070
     2
1001
ACAD
1010
0.0
1020
0.0
1030
0.0
  0
LINE
  5
18D5
330
1F
100
AcDbEntity
  8
0
100
AcDbLine
 10
1728.943964004195
 20
231.3344808785991
 30
0.0
 11
1727.037201575885
 21
233.2412433069086
 31
0.0
1001
GradientColor1ACI
1070
     5
1001
GradientColor2ACI
1070
     2
1001
ACAD
1010
0.0
1020
0.0
1030
0.0
  0
LINE
  5
18D6
330
1F
100
AcDbEntity
  8
0
100
AcDbLine
 10
1684.240580886886
 20
227.5315717028694
 30
0.0
 11
1687.176330934286
 21
230.4673217502692
 31
0.0
1001
GradientColor1ACI
1070
     5
1001
GradientColor2ACI
1070
     2
1001
ACAD
1010
0.0
1020
0.0
1030
0.0
  0
LINE
  5
18D7
330
1F
100
AcDbEntity
  8
0
100
AcDbLine
 10
1684.240580886886
 20
223.0414436423349
 30
0.0
 11
1688.070616580644
 21
226.8714793360928
 31
0.0
1001
GradientColor1ACI
1070
     5
1001
GradientColor2ACI
1070
     2
1001
ACAD
1010
0.0
1020
0.0
1030
0.0
  0
LINE
  5
18D8
330
1F
100
AcDbEntity
  8
0
100
AcDbLine
 10
1684.240580886886
 20
218.5513155818003
 30
0.0
 11
1688.128626263748
 21
222.4393609586623
 31
0.0
1001
GradientColor1ACI
1070
     5
1001
GradientColor2ACI
1070
     2
1001
ACAD
1010
0.0
1020
0.0
1030
0.0
  0
LINE
  5
18D9
330
1F
100
AcDbEntity
  8
0
100
AcDbLine
 10
1685.953306968624
 20
215.7739136030039
 30
0.0
 11
1686.01141890342
 21
215.8320255377999
 31
0.0
1001
GradientColor1ACI
1070
     5
1001
GradientColor2ACI
1070
     2
1001
ACAD
1010
0.0
1020
0.0
1030
0.0
  0
LINE
  5
18DA
330
1F
100
AcDbEntity
  8
0
100
AcDbLine
 10
1686.034010641276
 20
215.8727694545683
 30
0.0
 11
1684.240580886886
 21
217.6661992089587
 31
0.0
1001
GradientColor1ACI
1070
     5
1001
GradientColor2ACI
1070
     2
1001
ACAD
1010
0.0
1020
0.0
1030
0.0
  0
LINE
  5
18DB
330
1F
100
AcDbEntity
  8
0
100
AcDbLine
 10
1687.389730415552
 20
219.0071777408272
 30
0.0
 11
1684.240580886886
 21
222.1563272694934
 31
0.0
1001
GradientColor1ACI
1070
     5
1001
GradientColor2ACI
1070
     2
1001
ACAD
1010
0.0
1020
0.0
1030
0.0
  0
LINE
  5
18DC
330
1F
100
AcDbEntity
  8
0
100
AcDbLine
 10
1688.158881748017
 20
222.7281544688965
 30
0.0
 11
1684.240580886886
 21
226.6464553300279
 31
0.0
1001
GradientColor1ACI
1070
     5
1001
GradientColor2ACI
1070
     2
1001
ACAD
1010
0.0
1020
0.0
1030
0.0
  0
LINE
  5
18DD
330
1F
100
AcDbEntity
  8
0
100
AcDbLine
 10
1687.990982477234
 20
227.3861818002143
 30
0.0
 11
1684.240580886886
 21
231.1365833905626
 31
0.0
1001
GradientColor1ACI
1070
     5
1001
GradientColor2ACI
1070
     2
1001
ACAD
1010
0.0
1020
0.0
1030
0.0
  0
LINE
  5
18DE
330
1F
100
AcDbEntity
  8
0
 62
     3
100
AcDbLine
 10
1559.968638424285
 20
333.7251219372188
 30
0.0
 11
1559.942027674285
 21
333.8955044572188
 31
0.0
  0
LINE
  5
18DF
330
1F
100
AcDbEntity
  8
0
 62
     3
100
AcDbLine
 10
1559.942027674285
 20
333.8955044572188
 30
0.0
 11
1559.910068844285
 21
334.0586541472188
 31
0.0
  0
LINE
  5
18E0
330
1F
100
AcDbEntity
  8
0
 62
     3
100
AcDbLine
 10
1559.910068844285
 20
334.0586541472188
 30
0.0
 11
1559.873008944285
 21
334.2133099472188
 31
0.0
  0
LINE
  5
18E1
330
1F
100
AcDbEntity
  8
0
 62
     3
100
AcDbLine
 10
1559.873008944285
 20
334.2133099472188
 30
0.0
 11
1559.831134444285
 21
334.3582764472188
 31
0.0
  0
LINE
  5
18E2
330
1F
100
AcDbEntity
  8
0
 62
     3
100
AcDbLine
 10
1559.831134444285
 20
334.3582764472188
 30
0.0
 11
1559.784769014285
 21
334.4924331372189
 31
0.0
  0
LINE
  5
18E3
330
1F
100
AcDbEntity
  8
0
 62
     3
100
AcDbLine
 10
1559.784769014285
 20
334.4924331372189
 30
0.0
 11
1559.734271024285
 21
334.6147430372188
 31
0.0
  0
LINE
  5
18E4
330
1F
100
AcDbEntity
  8
0
 62
     3
100
AcDbLine
 10
1559.734271024285
 20
334.6147430372188
 30
0.0
 11
1559.680030804285
 21
334.7242607772188
 31
0.0
  0
LINE
  5
18E5
330
1F
100
AcDbEntity
  8
0
 62
     3
100
AcDbLine
 10
1559.680030804285
 20
334.7242607772188
 30
0.0
 11
1559.622467604285
 21
334.8201398272188
 31
0.0
  0
LINE
  5
18E6
330
1F
100
AcDbEntity
  8
0
 62
     3
100
AcDbLine
 10
1559.622467604285
 20
334.8201398272188
 30
0.0
 11
1559.562026354285
 21
334.9016390972189
 31
0.0
  0
LINE
  5
18E7
330
1F
100
AcDbEntity
  8
0
 62
     3
100
AcDbLine
 10
1559.562026354285
 20
334.9016390972189
 30
0.0
 11
1559.499174234285
 21
334.9681286372188
 31
0.0
  0
LINE
  5
18E8
330
1F
100
AcDbEntity
  8
0
 62
     3
100
AcDbLine
 10
1559.499174234285
 20
334.9681286372188
 30
0.0
 11
1559.434397054285
 21
335.0190945172188
 31
0.0
  0
LINE
  5
18E9
330
1F
100
AcDbEntity
  8
0
 62
     3
100
AcDbLine
 10
1559.434397054285
 20
335.0190945172188
 30
0.0
 11
1559.368195524285
 21
335.0541427972189
 31
0.0
  0
LINE
  5
18EA
330
1F
100
AcDbEntity
  8
0
 62
     3
100
AcDbLine
 10
1559.368195524285
 20
335.0541427972189
 30
0.0
 11
1559.301081334285
 21
335.0730025672188
 31
0.0
  0
LINE
  5
18EB
330
1F
100
AcDbEntity
  8
0
 62
     3
100
AcDbLine
 10
1559.301081334285
 20
335.0730025672188
 30
0.0
 11
1559.233573244285
 21
335.0755280672188
 31
0.0
  0
LINE
  5
18EC
330
1F
100
AcDbEntity
  8
0
 62
     3
100
AcDbLine
 10
1559.233573244285
 20
335.0755280672188
 30
0.0
 11
1559.166193054285
 21
335.0616997572188
 31
0.0
  0
LINE
  5
18ED
330
1F
100
AcDbEntity
  8
0
 62
     3
100
AcDbLine
 10
1559.166193054285
 20
335.0616997572188
 30
0.0
 11
1559.099461584285
 21
335.0316245272188
 31
0.0
  0
LINE
  5
18EE
330
1F
100
AcDbEntity
  8
0
 62
     3
100
AcDbLine
 10
1559.099461584285
 20
335.0316245272188
 30
0.0
 11
1559.033894644285
 21
334.9855348572188
 31
0.0
  0
LINE
  5
18EF
330
1F
100
AcDbEntity
  8
0
 62
     3
100
AcDbLine
 10
1559.033894644285
 20
334.9855348572188
 30
0.0
 11
1558.969999004285
 21
334.9237869772188
 31
0.0
  0
LINE
  5
18F0
330
1F
100
AcDbEntity
  8
0
 62
     3
100
AcDbLine
 10
1558.969999004285
 20
334.9237869772188
 30
0.0
 11
1558.908268574285
 21
334.8468581872188
 31
0.0
  0
LINE
  5
18F1
330
1F
100
AcDbEntity
  8
0
 62
     3
100
AcDbLine
 10
1558.908268574285
 20
334.8468581872188
 30
0.0
 11
1558.849180484285
 21
334.7553430872189
 31
0.0
  0
LINE
  5
18F2
330
1F
100
AcDbEntity
  8
0
 62
     3
100
AcDbLine
 10
1558.849180484285
 20
334.7553430872189
 30
0.0
 11
1558.793191454285
 21
334.6499490572188
 31
0.0
  0
LINE
  5
18F3
330
1F
100
AcDbEntity
  8
0
 62
     3
100
AcDbLine
 10
1558.793191454285
 20
334.6499490572188
 30
0.0
 11
1558.740734254285
 21
334.5314907272189
 31
0.0
  0
LINE
  5
18F4
330
1F
100
AcDbEntity
  8
0
 62
     3
100
AcDbLine
 10
1558.740734254285
 20
334.5314907272189
 30
0.0
 11
1558.692214354285
 21
334.4008837172188
 31
0.0
  0
LINE
  5
18F5
330
1F
100
AcDbEntity
  8
0
 62
     3
100
AcDbLine
 10
1558.692214354285
 20
334.4008837172188
 30
0.0
 11
1558.648006774285
 21
334.2591375672189
 31
0.0
  0
LINE
  5
18F6
330
1F
100
AcDbEntity
  8
0
 62
     3
100
AcDbLine
 10
1558.648006774285
 20
334.2591375672189
 30
0.0
 11
1558.608453234285
 21
334.1073478972188
 31
0.0
  0
LINE
  5
18F7
330
1F
100
AcDbEntity
  8
0
 62
     3
100
AcDbLine
 10
1558.608453234285
 20
334.1073478972188
 30
0.0
 11
1558.573859454285
 21
333.9466879572189
 31
0.0
  0
LINE
  5
18F8
330
1F
100
AcDbEntity
  8
0
 62
     3
100
AcDbLine
 10
1558.573859454285
 20
333.9466879572189
 30
0.0
 11
1558.544492824285
 21
333.7783995672188
 31
0.0
  0
LINE
  5
18F9
330
1F
100
AcDbEntity
  8
0
 62
     3
100
AcDbLine
 10
1558.544492824285
 20
333.7783995672188
 30
0.0
 11
1558.520580334285
 21
333.6037835072188
 31
0.0
  0
LINE
  5
18FA
330
1F
100
AcDbEntity
  8
0
 62
     3
100
AcDbLine
 10
1558.520580334285
 20
333.6037835072188
 30
0.0
 11
1558.502306824285
 21
333.4241894772189
 31
0.0
  0
LINE
  5
18FB
330
1F
100
AcDbEntity
  8
0
 62
     3
100
AcDbLine
 10
1558.502306824285
 20
333.4241894772189
 30
0.0
 11
1558.489813524285
 21
333.2410056372188
 31
0.0
  0
LINE
  5
18FC
330
1F
100
AcDbEntity
  8
0
 62
     3
100
AcDbLine
 10
1558.489813524285
 20
333.2410056372188
 30
0.0
 11
1558.483197014285
 21
333.0556479172188
 31
0.0
  0
LINE
  5
18FD
330
1F
100
AcDbEntity
  8
0
 62
     3
100
AcDbLine
 10
1558.483197014285
 20
333.0556479172188
 30
0.0
 11
1558.482508424285
 21
332.8695490172188
 31
0.0
  0
LINE
  5
18FE
330
1F
100
AcDbEntity
  8
0
 62
     3
100
AcDbLine
 10
1558.482508424285
 20
332.8695490172188
 30
0.0
 11
1558.487753084285
 21
332.6841474072188
 31
0.0
  0
LINE
  5
18FF
330
1F
100
AcDbEntity
  8
0
 62
     3
100
AcDbLine
 10
1558.487753084285
 20
332.6841474072188
 30
0.0
 11
1558.498890454285
 21
332.5008761372188
 31
0.0
  0
LINE
  5
1900
330
1F
100
AcDbEntity
  8
0
 62
     3
100
AcDbLine
 10
1558.498890454285
 20
332.5008761372188
 30
0.0
 11
1558.515834454285
 21
332.3211517972188
 31
0.0
  0
LINE
  5
1901
330
1F
100
AcDbEntity
  8
0
 62
     3
100
AcDbLine
 10
1558.515834454285
 20
332.3211517972188
 30
0.0
 11
1558.538454104285
 21
332.1463635672188
 31
0.0
  0
LINE
  5
1902
330
1F
100
AcDbEntity
  8
0
 62
     3
100
AcDbLine
 10
1558.538454104285
 20
332.1463635672188
 30
0.0
 11
1558.566574574285
 21
331.9778624672189
 31
0.0
  0
LINE
  5
1903
330
1F
100
AcDbEntity
  8
0
 62
     3
100
AcDbLine
 10
1558.566574574285
 20
331.9778624672189
 30
0.0
 11
1558.599978504285
 21
331.8169509272189
 31
0.0
  0
LINE
  5
1904
330
1F
100
AcDbEntity
  8
0
 62
     3
100
AcDbLine
 10
1558.599978504285
 20
331.8169509272189
 30
0.0
 11
1558.638407704285
 21
331.6648727072188
 31
0.0
  0
LINE
  5
1905
330
1F
100
AcDbEntity
  8
0
 62
     3
100
AcDbLine
 10
1558.638407704285
 20
331.6648727072188
 30
0.0
 11
1558.681565124285
 21
331.5228032972188
 31
0.0
  0
LINE
  5
1906
330
1F
100
AcDbEntity
  8
0
 62
     3
100
AcDbLine
 10
1558.681565124285
 20
331.5228032972188
 30
0.0
 11
1558.729117194285
 21
331.3918408172189
 31
0.0
  0
LINE
  5
1907
330
1F
100
AcDbEntity
  8
0
 62
     3
100
AcDbLine
 10
1558.729117194285
 20
331.3918408172189
 30
0.0
 11
1558.780696344285
 21
331.2729975372189
 31
0.0
  0
LINE
  5
1908
330
1F
100
AcDbEntity
  8
0
 62
     3
100
AcDbLine
 10
1558.780696344285
 20
331.2729975372189
 30
0.0
 11
1558.835903914285
 21
331.1671920672188
 31
0.0
  0
LINE
  5
1909
330
1F
100
AcDbEntity
  8
0
 62
     3
100
AcDbLine
 10
1558.835903914285
 20
331.1671920672188
 30
0.0
 11
1558.894313164285
 21
331.0752422072188
 31
0.0
  0
LINE
  5
190A
330
1F
100
AcDbEntity
  8
0
 62
     3
100
AcDbLine
 10
1558.894313164285
 20
331.0752422072188
 30
0.0
 11
1558.955472624285
 21
330.9978587072188
 31
0.0
  0
LINE
  5
190B
330
1F
100
AcDbEntity
  8
0
 62
     3
100
AcDbLine
 10
1558.955472624285
 20
330.9978587072188
 30
0.0
 11
1559.018909564285
 21
330.9356396872189
 31
0.0
  0
LINE
  5
190C
330
1F
100
AcDbEntity
  8
0
 62
     3
100
AcDbLine
 10
1559.018909564285
 20
330.9356396872189
 30
0.0
 11
1559.084133644285
 21
330.8890660772188
 31
0.0
  0
LINE
  5
190D
330
1F
100
AcDbEntity
  8
0
 62
     3
100
AcDbLine
 10
1559.084133644285
 20
330.8890660772188
 30
0.0
 11
1559.150640724285
 21
330.8584978472188
 31
0.0
  0
LINE
  5
190E
330
1F
100
AcDbEntity
  8
0
 62
     3
100
AcDbLine
 10
1559.150640724285
 20
330.8584978472188
 30
0.0
 11
1559.217916734285
 21
330.8441712972189
 31
0.0
  0
LINE
  5
190F
330
1F
100
AcDbEntity
  8
0
 62
     3
100
AcDbLine
 10
1559.217916734285
 20
330.8441712972189
 30
0.0
 11
1559.285441664285
 21
330.8461971572189
 31
0.0
  0
LINE
  5
1910
330
1F
100
AcDbEntity
  8
0
 62
     3
100
AcDbLine
 10
1559.285441664285
 20
330.8461971572189
 30
0.0
 11
1559.352693584285
 21
330.8645597572188
 31
0.0
  0
LINE
  5
1911
330
1F
100
AcDbEntity
  8
0
 62
     3
100
AcDbLine
 10
1559.352693584285
 20
330.8645597572188
 30
0.0
 11
1559.419152664285
 21
330.8991171772188
 31
0.0
  0
LINE
  5
1912
330
1F
100
AcDbEntity
  8
0
 62
     3
100
AcDbLine
 10
1559.419152664285
 20
330.8991171772188
 30
0.0
 11
1559.484305224285
 21
330.9496023072188
 31
0.0
  0
LINE
  5
1913
330
1F
100
AcDbEntity
  8
0
 62
     3
100
AcDbLine
 10
1559.484305224285
 20
330.9496023072188
 30
0.0
 11
1559.547647654285
 21
331.0156249072188
 31
0.0
  0
LINE
  5
1914
330
1F
100
AcDbEntity
  8
0
 62
     3
100
AcDbLine
 10
1559.547647654285
 20
331.0156249072188
 30
0.0
 11
1559.608690354285
 21
331.0966746672189
 31
0.0
  0
LINE
  5
1915
330
1F
100
AcDbEntity
  8
0
 62
     3
100
AcDbLine
 10
1559.608690354285
 20
331.0966746672189
 30
0.0
 11
1559.666961494285
 21
331.1921251172188
 31
0.0
  0
LINE
  5
1916
330
1F
100
AcDbEntity
  8
0
 62
     3
100
AcDbLine
 10
1559.666961494285
 20
331.1921251172188
 30
0.0
 11
1559.722010674285
 21
331.3012384772188
 31
0.0
  0
LINE
  5
1917
330
1F
100
AcDbEntity
  8
0
 62
     3
100
AcDbLine
 10
1559.722010674285
 20
331.3012384772188
 30
0.0
 11
1559.773412394285
 21
331.4231713372188
 31
0.0
  0
LINE
  5
1918
330
1F
100
AcDbEntity
  8
0
 62
     3
100
AcDbLine
 10
1559.773412394285
 20
331.4231713372188
 30
0.0
 11
1559.820769334285
 21
331.5569812472188
 31
0.0
  0
LINE
  5
1919
330
1F
100
AcDbEntity
  8
0
 62
     3
100
AcDbLine
 10
1559.820769334285
 20
331.5569812472188
 30
0.0
 11
1559.863715454285
 21
331.7016338972188
 31
0.0
  0
LINE
  5
191A
330
1F
100
AcDbEntity
  8
0
 62
     3
100
AcDbLine
 10
1559.863715454285
 20
331.7016338972188
 30
0.0
 11
1559.901918804285
 21
331.8560112172188
 31
0.0
  0
LINE
  5
191B
330
1F
100
AcDbEntity
  8
0
 62
     3
100
AcDbLine
 10
1559.901918804285
 20
331.8560112172188
 30
0.0
 11
1559.935084094285
 21
332.0189199472188
 31
0.0
  0
LINE
  5
191C
330
1F
100
AcDbEntity
  8
0
 62
     3
100
AcDbLine
 10
1559.935084094285
 20
332.0189199472188
 30
0.0
 11
1559.962954974285
 21
332.1891008772188
 31
0.0
  0
TEXT
  5
191D
330
1F
100
AcDbEntity
  8
0
 62
     4
100
AcDbText
 10
1446.55199536616
 20
222.4531913174514
 30
0.0
 40
3.0
  1
53
 50
90.0
100
AcDbText
  0
LINE
  5
191E
330
1F
100
AcDbEntity
  8
0
  6
ByBlock
 62
     0
370
    -2
100
AcDbLine
 10
1447.84686786616
 20
200.3258608042457
 30
0.0
 11
1447.17699536616
 21
197.8258608042457
 31
0.0
  0
LINE
  5
191F
330
1F
100
AcDbEntity
  8
0
  6
ByBlock
 62
     0
370
    -2
100
AcDbLine
 10
1447.17699536616
 20
197.8258608042457
 30
0.0
 11
1446.50712286616
 21
200.3258608042457
 31
0.0
  0
LINE
  5
1920
330
1F
100
AcDbEntity
  8
0
  6
ByBlock
 62
     0
370
    -2
100
AcDbLine
 10
1447.17699536616
 20
197.8258608042457
 30
0.0
 11
1447.17699536616
 21
200.3258608042457
 31
0.0
  0
LINE
  5
1921
330
1F
100
AcDbEntity
  8
0
  6
ByBlock
 62
     0
370
    -2
100
AcDbLine
 10
1446.50712286616
 20
248.5258608042459
 30
0.0
 11
1447.17699536616
 21
251.0258608042458
 31
0.0
  0
LINE
  5
1922
330
1F
100
AcDbEntity
  8
0
  6
ByBlock
 62
     0
370
    -2
100
AcDbLine
 10
1447.17699536616
 20
251.0258608042458
 30
0.0
 11
1447.84686786616
 21
248.5258608042459
 31
0.0
  0
LINE
  5
1923
330
1F
100
AcDbEntity
  8
0
  6
ByBlock
 62
     0
370
    -2
100
AcDbLine
 10
1447.17699536616
 20
251.0258608042458
 30
0.0
 11
1447.17699536616
 21
248.5258608042459
 31
0.0
  0
LINE
  5
1924
330
1F
100
AcDbEntity
  8
0
100
AcDbLine
 10
1407.928319126762
 20
227.8365931489013
 30
0.0
 11
1400.951027595746
 21
258.1353917755748
 31
0.0
1001
ACAD
1000
DSTYLE
1002
{
1070
   147
1040
0.625
1070
    77
1070
     0
1002
}
  0
LINE
  5
1925
330
1F
100
AcDbEntity
  8
0
  6
ByBlock
 62
     0
370
    -2
100
AcDbLine
 10
1408.581106498918
 20
227.9869188386892
 30
0.0
 11
1408.489342641639
 21
225.4003557598617
 31
0.0
  0
LINE
  5
1926
330
1F
100
AcDbEntity
  8
0
  6
ByBlock
 62
     0
370
    -2
100
AcDbLine
 10
1408.489342641639
 20
225.4003557598617
 30
0.0
 11
1407.275531754606
 21
227.6862674591135
 31
0.0
  0
LINE
  5
1927
330
1F
100
AcDbEntity
  8
0
  6
ByBlock
 62
     0
370
    -2
100
AcDbLine
 10
1408.489342641639
 20
225.4003557598617
 30
0.0
 11
1407.928319126762
 21
227.8365931489013
 31
0.0
  0
LINE
  5
1928
330
1F
100
AcDbEntity
  8
0
100
AcDbLine
 10
1413.973679203249
 20
237.140728210846
 30
0.0
 11
1417.146574351566
 21
258.0643816167105
 31
0.0
1001
ACAD
1000
DSTYLE
1002
{
1070
   341
1005
1585
1070
   147
1040
0.625
1070
    77
1070
     0
1002
}
  0
LINE
  5
192A
330
1F
100
AcDbEntity
  8
0
100
AcDbLine
 10
1460.211542615477
 20
250.3853817816398
 30
0.0
 11
1466.728629427071
 21
259.0174381681875
 31
0.0
1001
ACAD
1000
DSTYLE
1002
{
1070
   147
1040
0.625
1070
    77
1070
     0
1002
}
  0
LINE
  5
192B
330
1F
100
AcDbEntity
  8
0
  6
ByBlock
 62
     0
370
    -2
100
AcDbLine
 10
1460.746158263206
 20
249.9817541370714
 30
0.0
 11
1458.705182656797
 21
248.3901675889065
 31
0.0
  0
LINE
  5
192C
330
1F
100
AcDbEntity
  8
0
  6
ByBlock
 62
     0
370
    -2
100
AcDbLine
 10
1458.705182656797
 20
248.3901675889065
 30
0.0
 11
1459.676926967748
 21
250.7890094262083
 31
0.0
  0
LINE
  5
192D
330
1F
100
AcDbEntity
  8
0
  6
ByBlock
 62
     0
370
    -2
100
AcDbLine
 10
1458.705182656797
 20
248.3901675889065
 30
0.0
 11
1460.211542615477
 21
250.3853817816398
 31
0.0
  0
LINE
  5
192E
330
1F
100
AcDbEntity
  8
0
100
AcDbLine
 10
1551.331296296353
 20
245.5035381661183
 30
0.0
 11
1556.366139411303
 21
258.3525118299092
 31
0.0
1001
ACAD
1000
DSTYLE
1002
{
1070
   147
1040
0.625
1070
    77
1070
     0
1002
}
  0
LINE
  5
192F
330
1F
100
AcDbEntity
  8
0
  6
ByBlock
 62
     0
370
    -2
100
AcDbLine
 10
1551.95499511779
 20
245.259143103985
 30
0.0
 11
1550.41920085232
 21
243.1758608042458
 31
0.0
  0
LINE
  5
1930
330
1F
100
AcDbEntity
  8
0
  6
ByBlock
 62
     0
370
    -2
100
AcDbLine
 10
1550.41920085232
 20
243.1758608042458
 30
0.0
 11
1550.707597474917
 21
245.7479332282515
 31
0.0
  0
LINE
  5
1931
330
1F
100
AcDbEntity
  8
0
  6
ByBlock
 62
     0
370
    -2
100
AcDbLine
 10
1550.41920085232
 20
243.1758608042458
 30
0.0
 11
1551.331296296353
 21
245.5035381661183
 31
0.0
  0
LINE
  5
1932
330
1F
100
AcDbEntity
  8
0
100
AcDbLine
 10
1661.193728929783
 20
240.0253352114176
 30
0.0
 11
1661.562555826709
 21
258.0092563287319
 31
0.0
1001
ACAD
1000
DSTYLE
1002
{
1070
   147
1040
0.625
1070
    77
1070
     0
1002
}
  0
LINE
  5
1933
330
1F
100
AcDbEntity
  8
0
  6
ByBlock
 62
     0
370
    -2
100
AcDbLine
 10
1661.86346059771
 20
240.011599883552
 30
0.0
 11
1661.142467951516
 21
237.5258608042457
 31
0.0
  0
LINE
  5
1934
330
1F
100
AcDbEntity
  8
0
  6
ByBlock
 62
     0
370
    -2
100
AcDbLine
 10
1661.142467951516
 20
237.5258608042457
 30
0.0
 11
1660.523997261855
 21
240.0390705392831
 31
0.0
  0
LINE
  5
1935
330
1F
100
AcDbEntity
  8
0
  6
ByBlock
 62
     0
370
    -2
100
AcDbLine
 10
1661.142467951516
 20
237.5258608042457
 30
0.0
 11
1661.193728929783
 21
240.0253352114176
 31
0.0
  0
LINE
  5
1936
330
1F
100
AcDbEntity
  8
0
100
AcDbLine
 10
1717.903898165566
 20
237.9440257704927
 30
0.0
 11
1714.591072101246
 21
258.0742297046589
 31
0.0
1001
ACAD
1000
DSTYLE
1002
{
1070
   147
1040
0.625
1070
    77
1070
     0
1002
}
  0
LINE
  5
1937
330
1F
100
AcDbEntity
  8
0
  6
ByBlock
 62
     0
370
    -2
100
AcDbLine
 10
1718.564879695592
 20
238.052803448447
 30
0.0
 11
1718.309862277969
 21
235.4772073459951
 31
0.0
  0
LINE
  5
1938
330
1F
100
AcDbEntity
  8
0
  6
ByBlock
 62
     0
370
    -2
100
AcDbLine
 10
1718.309862277969
 20
235.4772073459951
 30
0.0
 11
1717.24291663554
 21
237.8352480925385
 31
0.0
  0
LINE
  5
1939
330
1F
100
AcDbEntity
  8
0
  6
ByBlock
 62
     0
370
    -2
100
AcDbLine
 10
1718.309862277969
 20
235.4772073459951
 30
0.0
 11
1717.903898165566
 21
237.9440257704927
 31
0.0
  0
TEXT
  5
193A
330
1F
100
AcDbEntity
  8
0
 62
     4
100
AcDbText
 10
1405.556660639092
 20
275.3433502478336
 30
0.0
 40
3.0
  1
55
100
AcDbText
  0
LINE
  5
193B
330
1F
100
AcDbEntity
  8
0
  6
ByBlock
 62
     0
370
    -2
100
AcDbLine
 10
1384.617899280813
 20
274.0484777478336
 30
0.0
 11
1382.117899280813
 21
274.7183502478336
 31
0.0
  0
LINE
  5
193C
330
1F
100
AcDbEntity
  8
0
  6
ByBlock
 62
     0
370
    -2
100
AcDbLine
 10
1382.117899280813
 20
274.7183502478336
 30
0.0
 11
1384.617899280813
 21
275.3882227478336
 31
0.0
  0
LINE
  5
193D
330
1F
100
AcDbEntity
  8
0
  6
ByBlock
 62
     0
370
    -2
100
AcDbLine
 10
1382.117899280813
 20
274.7183502478336
 30
0.0
 11
1384.617899280813
 21
274.7183502478336
 31
0.0
  0
LINE
  5
193E
330
1F
100
AcDbEntity
  8
0
  6
ByBlock
 62
     0
370
    -2
100
AcDbLine
 10
1434.61375204759
 20
275.3882227478336
 30
0.0
 11
1437.11375204759
 21
274.7183502478336
 31
0.0
  0
LINE
  5
193F
330
1F
100
AcDbEntity
  8
0
  6
ByBlock
 62
     0
370
    -2
100
AcDbLine
 10
1437.11375204759
 20
274.7183502478336
 30
0.0
 11
1434.61375204759
 21
274.0484777478336
 31
0.0
  0
LINE
  5
1940
330
1F
100
AcDbEntity
  8
0
  6
ByBlock
 62
     0
370
    -2
100
AcDbLine
 10
1437.11375204759
 20
274.7183502478336
 30
0.0
 11
1434.61375204759
 21
274.7183502478336
 31
0.0
  0
TEXT
  5
1941
330
1F
100
AcDbEntity
  8
0
 62
     4
100
AcDbText
 10
1717.440481523259
 20
275.3433502478336
 30
0.0
 40
3.0
  1
36
100
AcDbText
  0
LINE
  5
1942
330
1F
100
AcDbEntity
  8
0
  6
ByBlock
 62
     0
370
    -2
100
AcDbLine
 10
1704.628581501532
 20
274.0484777478336
 30
0.0
 11
1702.128581501533
 21
274.7183502478336
 31
0.0
  0
LINE
  5
1943
330
1F
100
AcDbEntity
  8
0
  6
ByBlock
 62
     0
370
    -2
100
AcDbLine
 10
1702.128581501533
 20
274.7183502478336
 30
0.0
 11
1704.628581501532
 21
275.3882227478336
 31
0.0
  0
LINE
  5
1944
330
1F
100
AcDbEntity
  8
0
  6
ByBlock
 62
     0
370
    -2
100
AcDbLine
 10
1702.128581501533
 20
274.7183502478336
 30
0.0
 11
1704.628581501532
 21
274.7183502478336
 31
0.0
  0
LINE
  5
1945
330
1F
100
AcDbEntity
  8
0
  6
ByBlock
 62
     0
370
    -2
100
AcDbLine
 10
1735.628581501532
 20
275.3882227478336
 30
0.0
 11
1738.128581501532
 21
274.7183502478336
 31
0.0
  0
LINE
  5
1946
330
1F
100
AcDbEntity
  8
0
  6
ByBlock
 62
     0
370
    -2
100
AcDbLine
 10
1738.128581501532
 20
274.7183502478336
 30
0.0
 11
1735.628581501532
 21
274.0484777478336
 31
0.0
  0
LINE
  5
1947
330
1F
100
AcDbEntity
  8
0
  6
ByBlock
 62
     0
370
    -2
100
AcDbLine
 10
1738.128581501532
 20
274.7183502478336
 30
0.0
 11
1735.628581501532
 21
274.7183502478336
 31
0.0
  0
TEXT
  5
1948
330
1F
100
AcDbEntity
  8
0
 62
     4
100
AcDbText
 10
1695.079580354918
 20
222.8787687928022
 30
0.0
 40
3.0
  1
36
 50
90.0
100
AcDbText
  0
LINE
  5
1949
330
1F
100
AcDbEntity
  8
0
  6
ByBlock
 62
     0
370
    -2
100
AcDbLine
 10
1695.034707854918
 20
240.6758608042458
 30
0.0
 11
1695.704580354918
 21
243.1758608042458
 31
0.0
  0
LINE
  5
194A
330
1F
100
AcDbEntity
  8
0
  6
ByBlock
 62
     0
370
    -2
100
AcDbLine
 10
1695.704580354918
 20
243.1758608042458
 30
0.0
 11
1696.374452854918
 21
240.6758608042458
 31
0.0
  0
LINE
  5
194B
330
1F
100
AcDbEntity
  8
0
  6
ByBlock
 62
     0
370
    -2
100
AcDbLine
 10
1695.704580354918
 20
243.1758608042458
 30
0.0
 11
1695.704580354918
 21
240.6758608042458
 31
0.0
  0
LINE
  5
194C
330
1F
100
AcDbEntity
  8
0
  6
ByBlock
 62
     0
370
    -2
100
AcDbLine
 10
1696.374452854918
 20
209.6758608042458
 30
0.0
 11
1695.704580354918
 21
207.1758608042458
 31
0.0
  0
LINE
  5
194D
330
1F
100
AcDbEntity
  8
0
  6
ByBlock
 62
     0
370
    -2
100
AcDbLine
 10
1695.704580354918
 20
207.1758608042458
 30
0.0
 11
1695.034707854918
 21
209.6758608042458
 31
0.0
  0
LINE
  5
194E
330
1F
100
AcDbEntity
  8
0
  6
ByBlock
 62
     0
370
    -2
100
AcDbLine
 10
1695.704580354918
 20
207.1758608042458
 30
0.0
 11
1695.704580354918
 21
209.6758608042458
 31
0.0
  0
TEXT
  5
194F
330
1F
100
AcDbEntity
  8
0
 62
     4
100
AcDbText
 10
1567.240580886885
 20
275.3433502478336
 30
0.0
 40
3.0
  1
236
100
AcDbText
  0
LINE
  5
1950
330
1F
100
AcDbEntity
  8
0
  6
ByBlock
 62
     0
370
    -2
100
AcDbLine
 10
1455.740580886886
 20
274.0484777478336
 30
0.0
 11
1453.240580886886
 21
274.7183502478336
 31
0.0
  0
LINE
  5
1951
330
1F
100
AcDbEntity
  8
0
  6
ByBlock
 62
     0
370
    -2
100
AcDbLine
 10
1453.240580886886
 20
274.7183502478336
 30
0.0
 11
1455.740580886886
 21
275.3882227478336
 31
0.0
  0
LINE
  5
1952
330
1F
100
AcDbEntity
  8
0
  6
ByBlock
 62
     0
370
    -2
100
AcDbLine
 10
1453.240580886886
 20
274.7183502478336
 30
0.0
 11
1455.740580886886
 21
274.7183502478336
 31
0.0
  0
LINE
  5
1953
330
1F
100
AcDbEntity
  8
0
  6
ByBlock
 62
     0
370
    -2
100
AcDbLine
 10
1686.740580886886
 20
275.3882227478336
 30
0.0
 11
1689.240580886886
 21
274.7183502478336
 31
0.0
  0
LINE
  5
1954
330
1F
100
AcDbEntity
  8
0
  6
ByBlock
 62
     0
370
    -2
100
AcDbLine
 10
1689.240580886886
 20
274.7183502478336
 30
0.0
 11
1686.740580886886
 21
274.0484777478336
 31
0.0
  0
LINE
  5
1955
330
1F
100
AcDbEntity
  8
0
  6
ByBlock
 62
     0
370
    -2
100
AcDbLine
 10
1689.240580886886
 20
274.7183502478336
 30
0.0
 11
1686.740580886886
 21
274.7183502478336
 31
0.0
  0
ARC
  5
1956
330
1F
100
AcDbEntity
  8
0
  6
ByBlock
 62
     0
100
AcDbCircle
 10
1413.973679203249
 20
237.140728210846
 30
0.0
 40
0.1562500000000137
100
AcDbArc
 50
81.37727260303256
 51
261.3772726030325
  0
ARC
  5
1957
330
1F
100
AcDbEntity
  8
0
  6
ByBlock
 62
     0
100
AcDbCircle
 10
1413.973679203249
 20
237.140728210846
 30
0.0
 40
0.1562500000000137
100
AcDbArc
 50
261.3772726030325
 51
81.37727260303256
  0
ENDSEC
  0
SECTION
  2
OBJECTS
  0
DICTIONARY
  5
C
330
0
100
AcDbDictionary
281
     1
  3
ACAD_2007HEADERVARS_RT
350
195C
  3
ACAD_COLOR
350
73
  3
ACAD_GROUP
350
D
  3
ACAD_LAYOUT
350
1A
  3
ACAD_MATERIAL
350
72
  3
ACAD_MLEADERSTYLE
350
168
  3
ACAD_MLINESTYLE
350
17
  3
ACAD_PLOTSETTINGS
350
19
  3
ACAD_PLOTSTYLENAME
350
E
  3
ACAD_SCALELIST
350
156
  3
ACAD_TABLESTYLE
350
86
  3
ACAD_VISUALSTYLE
350
99
  3
ACDB_RECOMPOSE_DATA
350
195A
  3
AcDbVariableDictionary
350
66
  3
AEC_PROPERTY_SET_DEFS
350
14E2
  3
DWGPROPS
350
195B
  0
DICTIONARY
  5
DD
330
2
100
AcDbDictionary
280
     1
281
     1
  3
ACAD_LAYERSTATES
360
DE
  0
DICTIONARY
  5
8E9
330
10
100
AcDbDictionary
280
     1
281
     1
  3
ADSK_XREC_LAYER_RECONCILED
360
15B6
  0
DICTIONARY
  5
324
330
1F
100
AcDbDictionary
280
     1
281
     1
  3
ACAD_SORTENTS
360
325
  0
DICTIONARY
  5
E25
330
D57
100
AcDbDictionary
280
     1
281
     1
  3
ACAD_SORTENTS
360
E26
  0
DICTIONARY
  5
1191
330
10C4
100
AcDbDictionary
280
     1
281
     1
  3
ACAD_SORTENTS
360
1192
  0
DICTIONARY
  5
195C
102
{ACAD_REACTORS
330
C
102
}
330
C
100
AcDbDictionary
281
     1
  3
DIMARCSYM
350
195E
  3
DIMFXL
350
195D
  3
DIMJOGANG
350
195F
  0
DICTIONARY
  5
73
102
{ACAD_REACTORS
330
C
102
}
330
C
100
AcDbDictionary
281
     1
  0
DICTIONARY
  5
D
102
{ACAD_REACTORS
330
C
102
}
330
C
100
AcDbDictionary
281
     1
  0
DICTIONARY
  5
1A
102
{ACAD_REACTORS
330
C
102
}
330
C
100
AcDbDictionary
281
     1
  3
Model
350
22
  3
レイアウト1
350
59
  3
レイアウト2
350
5E
  0
DICTIONARY
  5
72
102
{ACAD_REACTORS
330
C
102
}
330
C
100
AcDbDictionary
281
     1
  3
ByBlock
350
97
  3
ByLayer
350
96
  3
Global
350
98
  0
DICTIONARY
  5
168
102
{ACAD_REACTORS
330
C
102
}
330
C
100
AcDbDictionary
281
     1
  3
Standard
350
169
  0
DICTIONARY
  5
17
102
{ACAD_REACTORS
330
C
102
}
330
C
100
AcDbDictionary
281
     1
  3
Standard
350
18
  0
DICTIONARY
  5
19
102
{ACAD_REACTORS
330
C
102
}
330
C
100
AcDbDictionary
281
     1
  0
ACDBDICTIONARYWDFLT
  5
E
102
{ACAD_REACTORS
330
C
102
}
330
C
100
AcDbDictionary
281
     1
  3
Normal
350
F
100
AcDbDictionaryWithDefault
340
F
  0
DICTIONARY
  5
156
102
{ACAD_REACTORS
330
C
102
}
330
C
100
AcDbDictionary
281
     1
  3
A0
350
157
  3
A1
350
158
  3
A2
350
159
  3
A3
350
15A
  3
A4
350
15B
  3
A5
350
15C
  3
A6
350
15D
  3
A7
350
15E
  3
A8
350
15F
  3
A9
350
160
  3
B0
350
161
  3
B1
350
162
  3
B2
350
163
  3
B3
350
164
  3
B4
350
165
  3
B5
350
166
  3
B6
350
167
  0
DICTIONARY
  5
86
102
{ACAD_REACTORS
330
C
102
}
330
C
100
AcDbDictionary
281
     1
  3
Standard
350
87
  3
部品表
350
C45
  0
DICTIONARY
  5
99
102
{ACAD_REACTORS
330
C
102
}
330
C
100
AcDbDictionary
281
     1
  3
2dWireframe
350
9F
  3
3D Hidden
350
A1
  3
3dWireframe
350
A0
  3
Basic
350
9E
  3
Brighten
350
A5
  3
ColorChange
350
A9
  3
Conceptual
350
A2
  3
Dim
350
A4
  3
EdgeColorOff
350
155
  3
Facepattern
350
A8
  3
Flat
350
9A
  3
FlatWithEdges
350
9B
  3
Gouraud
350
9C
  3
GouraudWithEdges
350
9D
  3
Hidden
350
14D
  3
JitterOff
350
153
  3
Linepattern
350
A7
  3
OverhangOff
350
154
  3
Realistic
350
A3
  3
Shaded
350
152
  3
Shaded with edges
350
151
  3
Shades of Gray
350
14E
  3
Sketchy
350
14F
  3
Thicken
350
A6
  3
Wireframe
350
14C
  3
X-Ray
350
150
  0
XRECORD
  5
195A
102
{ACAD_REACTORS
330
C
102
}
330
C
100
AcDbXrecord
280
     1
 90
        1
330
87
330
C45
  0
DICTIONARY
  5
66
102
{ACAD_REACTORS
330
C
102
}
330
C
100
AcDbDictionary
281
     1
  3
CANNOSCALE
350
24A
  3
CMLEADERSTYLE
350
248
  3
CTABLESTYLE
350
89
  3
DIMASSOC
350
67
  3
HIDETEXT
350
6B
  3
INDEXCTL
350
15B8
  3
LAYEREVAL
350
24C
  3
LAYERNOTIFY
350
24D
  3
LIGHTINGUNITS
350
24B
  3
MSLTSCALE
350
249
  3
SORTENTS
350
15B7
  3
XCLIPFRAME
350
184E
  0
DICTIONARY
  5
14E2
102
{ACAD_REACTORS
330
C
102
}
330
C
100
AcDbDictionary
281
     1
  0
XRECORD
  5
195B
102
{ACAD_REACTORS
330
C
102
}
330
C
100
AcDbXrecord
280
     1
  1
DWGPROPS COOKIE
  2

  3

  4

  6

  7

  8
kaiha
  9

300
=
301
=
302
=
303
=
304
=
305
=
306
=
307
=
308
=
309
=
 40
0.2048919675925926
 41
2457742.468873704
 42
2458579.745093079
  1

 90
        0
  0
DICTIONARY
  5
DE
102
{ACAD_REACTORS
330
DD
102
}
330
DD
100
AcDbDictionary
281
     1
  0
XRECORD
  5
15B6
102
{ACAD_REACTORS
330
8E9
102
}
330
8E9
100
AcDbXrecord
280
     1
290
     1
  0
SORTENTSTABLE
  5
325
102
{ACAD_REACTORS
330
324
102
}
330
324
100
AcDbSortentsTable
330
1F
331
1524
  5
18FF
331
14ED
  5
18CA
331
1446
  5
13AE
331
140F
  5
12E6
331
1520
  5
18FB
331
14E9
  5
18C6
331
1442
  5
13AA
331
12DE
  5
151D
331
12A7
  5
1405
331
13CC
  5
120D
331
140B
  5
12E2
331
151C
  5
18F7
331
143E
  5
13A6
331
12DA
  5
151A
331
12A3
  5
14FF
331
126C
  5
14EF
331
13C8
  5
1209
331
1407
  5
12DC
331
1518
  5
18F4
331
143A
  5
13A2
331
1403
  5
12D6
331
12D6
  5
1511
331
129F
  5
1503
331
1239
  5
1465
331
13C4
  5
1205
331
1235
  5
1462
331
12D2
  5
13F9
331
11F6
  5
13D9
331
13C0
  5
11FB
331
1231
  5
145F
331
11F2
  5
143C
331
11C2
  5
1425
331
11BA
  5
141A
331
18CC
  5
140F
331
18C8
  5
140B
331
193E
  5
18B4
331
18FF
  5
1298
331
193A
  5
18BA
331
18FB
  5
1294
331
1936
  5
1931
331
18F7
  5
128E
331
1932
  5
1935
331
18F3
  5
128A
331
1514
  5
18F0
331
1475
  5
18C2
331
1436
  5
1387
331
13FF
  5
12D2
331
1557
  5
192C
331
1510
  5
18EC
331
1471
  5
18BE
331
1432
  5
130C
331
13BC
  5
11F6
331
13FB
  5
124E
331
1553
  5
1928
331
150C
  5
18E9
331
146D
  5
130A
331
142E
  5
1305
331
12CA
  5
1510
331
122D
  5
145C
331
13B8
  5
11F2
331
13F7
  5
1248
331
1508
  5
18E5
331
1469
  5
13D3
331
142A
  5
1301
331
1305
  5
1530
331
128F
  5
14FC
331
12C6
  5
13F8
331
1229
  5
143E
331
13B4
  5
11EC
331
13F3
  5
1243
331
11EA
  5
1435
331
1301
  5
152C
331
128B
  5
14F8
331
12C2
  5
13FC
331
1225
  5
1455
331
13B0
  5
11E4
331
1250
  5
14E8
331
1221
  5
1453
331
11B2
  5
1409
331
18BC
  5
16AC
331
192E
  5
1939
331
18EF
  5
1277
331
192A
  5
193D
331
18B0
  5
18B2
331
18EB
  5
1273
331
1926
  5
1943
331
1309
  5
1532
331
18E7
  5
126C
331
1922
  5
194C
331
18E3
  5
1262
331
154F
  5
1924
331
1504
  5
18E1
331
1465
  5
13CF
331
13EF
  5
123E
331
1426
  5
12FF
331
1500
  5
18DD
331
1461
  5
13CB
331
13EB
  5
1239
331
1422
  5
12FB
331
12FD
  5
1527
331
13AC
  5
11DC
331
14FC
  5
18D9
331
145D
  5
13C7
331
141E
  5
12F6
331
12BA
  5
150F
331
11DE
  5
1430
331
13A8
  5
11D4
331
13E7
  5
1234
331
14F8
  5
18D5
331
1459
  5
13C3
331
141A
  5
12F2
331
12F5
  5
1525
331
1248
  5
1476
331
13A4
  5
11CD
331
13E3
  5
122F
331
13A0
  5
141E
331
1244
  5
1473
331
12F1
  5
13E9
331
1215
  5
144F
331
1240
  5
146B
331
11D2
  5
142A
331
11AE
  5
1404
331
11AA
  5
13FE
331
1954
  5
1552
331
191E
  5
194E
331
1950
  5
1557
331
18DF
  5
1252
331
194C
  5
18A0
331
18DB
  5
13E2
331
191A
  5
12C2
331
1948
  5
18A6
331
1916
  5
12BA
331
16AA
  5
1954
331
1912
  5
12B4
331
1533
  5
191D
331
1455
  5
13BD
331
13DF
  5
122A
331
152F
  5
1919
331
1451
  5
13B9
331
12ED
  5
13F0
331
13DB
  5
1224
331
152B
  5
1912
331
14F4
  5
18D1
331
144D
  5
13B5
331
1416
  5
12EE
331
12E9
  5
1524
331
120D
  5
1446
331
13D7
  5
121C
331
14F0
  5
18CD
331
1449
  5
13B1
331
1412
  5
12EA
331
12E5
  5
1520
331
13D3
  5
1218
331
12E1
  5
151F
331
1273
  5
144D
331
1205
  5
1444
331
11CD
  5
142B
331
18D7
  5
13DE
331
18D3
  5
1416
331
190E
  5
12B0
331
190A
  5
12A9
331
1945
  5
18AA
331
1906
  5
12A2
331
1941
  5
18B0
331
1902
  5
129C
331
1527
  5
1902
331
166A
  5
1947
331
1523
  5
18FE
331
14EC
  5
18C9
331
1445
  5
13AD
331
140E
  5
12E5
331
13CF
  5
1211
331
151F
  5
18FA
331
14E8
  5
18C5
331
1441
  5
13A9
331
12DD
  5
151C
331
12A6
  5
1505
331
126F
  5
1449
331
13CB
  5
120C
331
140A
  5
12E1
331
151B
  5
18F6
331
143D
  5
13A5
331
126B
  5
14F0
331
123C
  5
1468
331
13C7
  5
1208
331
1406
  5
12DA
331
1439
  5
13A1
331
1402
  5
12D5
331
129E
  5
1502
331
11F9
  5
143F
331
13C3
  5
1204
331
12D1
  5
1515
331
1234
  5
1461
331
1230
  5
145E
331
11F1
  5
143B
331
11C5
  5
1427
331
11C1
  5
1424
331
11BD
  5
141C
331
18CF
  5
1412
331
18CB
  5
140E
331
18C7
  5
140A
331
193D
  5
18B9
331
18C3
  5
154D
331
18FE
  5
1297
331
1939
  5
1930
331
18FA
  5
1291
331
1935
  5
1934
331
18F6
  5
128D
331
1931
  5
1938
331
18F2
  5
1289
331
1517
  5
18F3
331
1513
  5
18EF
331
1474
  5
18C1
331
1435
  5
136F
331
13FE
  5
12CA
331
13BF
  5
11F9
331
1556
  5
192B
331
150F
  5
18EB
331
1470
  5
18BD
331
1431
  5
130B
331
12CD
  5
1512
331
13BB
  5
11F5
331
13FA
  5
124D
331
1552
  5
1927
331
150B
  5
18E8
331
146C
  5
13D6
331
142D
  5
1304
331
125B
  5
14EB
331
122C
  5
145B
331
11ED
  5
1436
331
13B7
  5
11F0
331
13F6
  5
1246
331
1468
  5
13D2
331
1429
  5
1300
331
1304
  5
152F
331
128E
  5
14FB
331
1228
  5
1458
331
11E9
  5
1434
331
13B3
  5
11EB
331
13F2
  5
1241
331
128A
  5
14F7
331
12C1
  5
1400
331
1220
  5
13F2
331
11B1
  5
1408
331
18BB
  5
16AB
331
18B7
  5
18A9
331
192D
  5
193C
331
18EE
  5
1276
331
130C
  5
1535
331
18EA
  5
1272
331
1925
  5
1942
331
18E6
  5
126B
331
1921
  5
194B
331
18E2
  5
1261
331
154E
  5
1923
331
1507
  5
18E4
331
1503
  5
18E0
331
1464
  5
13CE
331
13EE
  5
123C
331
1425
  5
12FE
331
13AF
  5
11E3
331
14FF
  5
18DC
331
1460
  5
13CA
331
12FC
  5
1529
331
124F
  5
14E7
331
13AB
  5
11DB
331
13EA
  5
1237
331
1421
  5
12FA
331
153A
  5
1921
331
14FB
  5
18D8
331
145C
  5
13C6
331
141D
  5
12F5
331
124B
  5
1482
331
13A7
  5
11D2
331
13E6
  5
1232
331
1458
  5
13C0
331
1419
  5
12F1
331
12B5
  5
150C
331
12F4
  5
13EA
331
127E
  5
14F3
331
1218
  5
1452
331
13A3
  5
11CC
331
13E2
  5
122D
331
12F0
  5
1523
331
12B1
  5
1509
331
1243
  5
1472
331
1210
  5
1403
331
11AD
  5
13FF
331
18AF
  5
18B1
331
1957
  5
1940
331
1953
  5
1551
331
191D
  5
1951
331
194F
  5
16AA
331
18DE
  5
1251
331
194B
  5
18A5
331
18DA
  5
13E1
331
1919
  5
12BF
331
16AD
  5
1957
331
1915
  5
12B7
331
16A9
  5
1952
331
1911
  5
12B3
331
1536
  5
1920
331
1532
  5
191C
331
1454
  5
13BC
331
13DE
  5
1228
331
152E
  5
1918
331
14F7
  5
18D4
331
1450
  5
13B8
331
12EC
  5
13ED
331
13DA
  5
1223
331
152A
  5
1911
331
14F3
  5
18D0
331
144C
  5
13B4
331
1415
  5
12ED
331
12E8
  5
1522
331
13D6
  5
121B
331
1448
  5
13B0
331
1411
  5
12E9
331
12AD
  5
1507
331
12E4
  5
13FB
331
1276
  5
14F2
331
139F
  5
1420
331
13D2
  5
1217
331
12E0
  5
151E
331
12A9
  5
1506
331
1272
  5
144C
331
1204
  5
1443
331
11CC
  5
1429
331
189F
  5
194A
331
189B
  5
1948
331
18D6
  5
13DD
331
18D2
  5
1415
331
190D
  5
12AF
331
1909
  5
12A8
331
1944
  5
18AF
331
1905
  5
12A1
331
1940
  5
18B6
331
1901
  5
129A
331
1526
  5
1901
331
14EF
  5
18CC
331
1669
  5
1946
331
1522
  5
18FD
331
14EB
  5
18C8
331
1444
  5
13AC
331
140D
  5
12E4
331
13CE
  5
1210
331
151E
  5
18F9
331
14E7
  5
18C4
331
1440
  5
13A8
331
12DC
  5
151B
331
123F
  5
146A
331
126E
  5
1448
331
13CA
  5
120B
331
1409
  5
12DF
331
151A
  5
18F5
331
143C
  5
13A4
331
1405
  5
12D8
331
12D8
  5
1517
331
126A
  5
14EE
331
123B
  5
1467
331
13C6
  5
1207
331
11FC
  5
1441
331
1438
  5
13A0
331
1401
  5
12D4
331
12D4
  5
1516
331
1237
  5
1464
331
11F8
  5
13F4
331
13C2
  5
1203
331
12D0
  5
1514
331
1262
  5
14EC
331
11F4
  5
143D
331
11F0
  5
143A
331
11C4
  5
1426
331
11C0
  5
1423
331
11BC
  5
1422
331
18CE
  5
1411
331
18CA
  5
140D
331
193C
  5
18B8
331
18C2
  5
153A
331
18FD
  5
1296
331
1938
  5
192F
331
18F9
  5
1290
331
1934
  5
1933
331
18F5
  5
128C
331
1930
  5
1937
331
18F1
  5
1282
331
1516
  5
18F2
331
1512
  5
18EE
331
1473
  5
18C0
331
1434
  5
1357
331
13BE
  5
11F8
331
1555
  5
192A
331
146F
  5
18BC
331
1430
  5
1309
331
1295
  5
14FE
331
122F
  5
145D
331
13BA
  5
11F4
331
13F9
  5
124B
331
1551
  5
1926
331
150A
  5
18E7
331
146B
  5
13D5
331
142C
  5
1303
331
1307
  5
1531
331
125A
  5
14EA
331
1291
  5
1421
331
122B
  5
145A
331
11EC
  5
1437
331
13B6
  5
11EE
331
13F5
  5
1245
331
1303
  5
152E
331
128D
  5
14FA
331
1227
  5
1457
331
13B2
  5
11EA
331
13F1
  5
1240
331
1289
  5
14F6
331
12C0
  5
1401
331
11E4
  5
1433
331
11B4
  5
13D8
331
11B0
  5
1407
331
18B6
  5
18A8
331
192C
  5
193B
331
18ED
  5
1275
331
1928
  5
1941
331
130B
  5
1534
331
18E9
  5
1270
331
1924
  5
1945
331
18E5
  5
126A
331
1920
  5
1950
331
18E1
  5
125B
331
154D
  5
1922
331
1506
  5
18E3
331
1467
  5
13D1
331
1502
  5
18DF
331
1463
  5
13CD
331
13ED
  5
123B
331
1424
  5
12FD
331
12FF
  5
152B
331
13AE
  5
11DE
331
14FE
  5
18DB
331
145F
  5
13C9
331
12FB
  5
1526
331
1285
  5
14F5
331
124E
  5
14E6
331
13AA
  5
11DA
331
13E9
  5
1236
331
121F
  5
13F3
331
1420
  5
12F8
331
14FA
  5
18D7
331
145B
  5
13C5
331
141C
  5
12F4
331
124A
  5
1481
331
12F7
  5
13E8
331
13A6
  5
11D0
331
13E5
  5
1231
331
1418
  5
12F0
331
12B4
  5
150B
331
12F3
  5
13E7
331
1246
  5
1475
331
1217
  5
1451
331
13A2
  5
11CB
331
13E1
  5
122C
331
11D8
  5
142F
331
11D4
  5
13E5
331
11D0
  5
142E
331
1956
  5
193F
331
1952
  5
1669
331
194E
  5
18A2
331
18DD
  5
13E4
331
191C
  5
12C7
331
194A
  5
18A4
331
18D9
  5
13E0
331
1918
  5
12BD
331
16AC
  5
1956
331
1914
  5
12B6
331
16A8
  5
1953
331
1910
  5
12B2
331
1535
  5
191F
331
1457
  5
13BF
331
1531
  5
191B
331
1453
  5
13BB
331
12EF
  5
13F1
331
13DD
  5
1227
331
152D
  5
1917
331
14F6
  5
18D3
331
144F
  5
13B7
331
12EB
  5
13EC
331
13D9
  5
121E
331
1529
  5
1910
331
14F2
  5
18CF
331
144B
  5
13B3
331
1414
  5
12EC
331
13D5
  5
121A
331
1410
  5
12E8
331
1207
  5
141F
331
12E3
  5
13FD
331
13D1
  5
1213
331
1271
  5
144B
331
12A8
  5
1402
331
1203
  5
1442
331
11CF
  5
142D
331
11CB
  5
1428
331
189E
  5
1949
331
18D5
  5
1418
331
18D1
  5
1414
331
190C
  5
12AB
331
1947
  5
18AC
331
1908
  5
12A7
331
1943
  5
18AE
331
1904
  5
129F
331
1900
  5
1299
331
1525
  5
1900
331
14EE
  5
18CB
331
1447
  5
13AF
331
1521
  5
18FC
331
14EA
  5
18C7
331
1443
  5
13AB
331
13CD
  5
120E
331
140C
  5
12E3
331
151D
  5
18F8
331
14E6
  5
18C3
331
143F
  5
13A7
331
12A4
  5
1504
331
126D
  5
14F1
331
123E
  5
1469
331
13C9
  5
120A
331
1408
  5
12DE
331
143B
  5
13A3
331
1404
  5
12D7
331
1269
  5
14ED
331
123A
  5
1466
331
11FB
  5
1440
331
13C5
  5
1206
331
1400
  5
12D3
331
129C
  5
1501
331
12D3
  5
13F7
331
1236
  5
1463
331
11F7
  5
13F5
331
13C1
  5
11FC
331
1232
  5
1460
331
11C3
  5
13D7
331
11BB
  5
141B
331
18CD
  5
1410
331
18C9
  5
140C
331
193F
  5
18B5
331
193B
  5
18B7
331
18C1
  5
1536
331
18FC
  5
1295
331
1937
  5
192E
331
18F8
  5
128F
331
1933
  5
1932
331
18F4
  5
128B
331
18F0
  5
127F
331
1515
  5
18F1
331
1437
  5
139F
331
1558
  5
192D
331
1511
  5
18ED
331
1472
  5
18BF
331
1433
  5
130D
331
13FC
  5
124F
331
12CF
  5
1513
331
13BD
  5
11F7
331
1554
  5
1929
331
150D
  5
18EA
331
146E
  5
18BB
331
142F
  5
1307
331
1294
  5
14FD
331
11EF
  5
1439
331
13B9
  5
11F3
331
13F8
  5
124A
331
1550
  5
1925
331
1509
  5
18E6
331
146A
  5
13D4
331
142B
  5
1302
331
122A
  5
1459
331
1290
  5
141D
331
12C7
  5
13F6
331
11EB
  5
1438
331
13B5
  5
11ED
331
13F4
  5
1244
331
1302
  5
152D
331
128C
  5
14F9
331
12C3
  5
13FA
331
1226
  5
1456
331
13B1
  5
11E5
331
13F0
  5
123F
331
1251
  5
14E9
331
1222
  5
1454
331
11E3
  5
1432
331
11B3
  5
1419
331
18BD
  5
189F
331
192F
  5
1936
331
18B5
  5
18A7
331
18B1
  5
18B3
331
192B
  5
193A
331
130E
  5
13DB
331
18EC
  5
1274
331
1927
  5
1944
331
130A
  5
1533
331
18E8
  5
126E
331
1923
  5
194D
331
18E4
  5
1269
331
18E0
  5
125A
331
1505
  5
18E2
331
1466
  5
13D0
331
1501
  5
18DE
331
1462
  5
13CC
331
13EC
  5
123A
331
1423
  5
12FC
331
12FE
  5
152A
331
13AD
  5
11DD
331
14FD
  5
18DA
331
145E
  5
13C8
331
141F
  5
12F7
331
12FA
  5
1528
331
1284
  5
14F4
331
11DF
  5
1431
331
13A9
  5
11D6
331
13E8
  5
1235
331
14F9
  5
18D6
331
145A
  5
13C4
331
141B
  5
12F3
331
12B7
  5
150D
331
12F6
  5
13EB
331
1249
  5
1477
331
13A5
  5
11CE
331
13E4
  5
1230
331
12B3
  5
150A
331
12F2
  5
13E6
331
1245
  5
1474
331
1216
  5
1450
331
13A1
  5
11BE
331
13E0
  5
122B
331
1241
  5
146C
331
1212
  5
1447
331
11D3
  5
142C
331
11AF
  5
1406
331
11A7
  5
13DA
331
1955
  5
1553
331
191F
  5
194F
331
1951
  5
1558
331
194D
  5
18A1
331
18DC
  5
13E3
331
191B
  5
12C3
331
1949
  5
18A3
331
18D8
  5
13DF
331
1917
  5
12BC
331
16AB
  5
1955
331
1913
  5
12B5
331
1534
  5
191E
331
1456
  5
13BE
331
1530
  5
191A
331
1452
  5
13BA
331
12EE
  5
13EE
331
13DC
  5
1226
331
152C
  5
1913
331
14F5
  5
18D2
331
144E
  5
13B6
331
12EA
  5
13EF
331
13D8
  5
121D
331
1417
  5
12EF
331
1528
  5
190F
331
14F1
  5
18CE
331
144A
  5
13B2
331
1413
  5
12EB
331
12E6
  5
1521
331
12AF
  5
1508
331
13D4
  5
1219
331
12E2
  5
1518
331
12AB
  5
1500
331
1274
  5
144E
331
1206
  5
1445
331
13D0
  5
1212
331
1270
  5
144A
331
11CE
  5
13DC
331
18D4
  5
1417
331
190F
  5
12B1
331
18D0
  5
1413
331
190B
  5
12AA
331
1946
  5
18AB
331
1907
  5
12A6
331
1942
  5
18AD
331
1903
  5
129E
  0
SORTENTSTABLE
  5
E26
102
{ACAD_REACTORS
330
E25
102
}
330
E25
100
AcDbSortentsTable
330
D57
  0
SORTENTSTABLE
  5
1192
102
{ACAD_REACTORS
330
1191
102
}
330
1191
100
AcDbSortentsTable
330
10C4
  0
XRECORD
  5
195E
102
{ACAD_REACTORS
330
195C
102
}
330
195C
100
AcDbXrecord
280
     1
 70
     2
  0
XRECORD
  5
195D
102
{ACAD_REACTORS
330
195C
102
}
330
195C
100
AcDbXrecord
280
     1
 40
1.25
  0
XRECORD
  5
195F
102
{ACAD_REACTORS
330
195C
102
}
330
195C
100
AcDbXrecord
280
     1
 40
1.570796326794896
  0
LAYOUT
  5
22
102
{ACAD_XDICTIONARY
360
1960
102
}
102
{ACAD_REACTORS
330
1A
102
}
330
1A
100
AcDbPlotSettings
  1

  2
none_device
  4
ANSI_A_(8.50_x_11.00_Inches)
  6

 40
6.349999904632567
 41
19.04999923706055
 42
6.350006103515625
 43
19.04998779296875
 44
215.8999938964844
 45
279.3999938964844
 46
0.0
 47
0.0
 48
0.0
 49
0.0
140
0.0
141
0.0
142
1.0
143
2.584895464708373
 70
 11952
 72
     0
 73
     1
 74
     0
  7

 75
     0
147
0.3868628397755418
148
0.0
149
0.0
100
AcDbLayout
  1
Model
 70
     1
 71
     0
 10
0.0
 20
0.0
 11
12.0
 21
9.0
 12
0.0
 22
0.0
 32
0.0
 14
0.0
 24
0.0
 34
0.0
 15
0.0
 25
0.0
 35
0.0
146
0.0
 13
0.0
 23
0.0
 33
0.0
 16
1.0
 26
0.0
 36
0.0
 17
0.0
 27
1.0
 37
0.0
 76
     0
330
1F
331
94
  0
LAYOUT
  5
59
102
{ACAD_XDICTIONARY
360
1962
102
}
102
{ACAD_REACTORS
330
1A
102
}
330
1A
100
AcDbPlotSettings
  1

  2
None
  4

  6

 40
0.0
 41
0.0
 42
0.0
 43
0.0
 44
0.0
 45
0.0
 46
0.0
 47
0.0
 48
0.0
 49
0.0
140
0.0
141
0.0
142
1.0
143
1.0
 70
   688
 72
     0
 73
     0
 74
     5
  7

 75
    16
147
1.0
148
0.0
149
0.0
100
AcDbLayout
  1
レイアウト1
 70
     1
 71
     1
 10
0.0
 20
0.0
 11
12.0
 21
9.0
 12
0.0
 22
0.0
 32
0.0
 14
0.0
 24
0.0
 34
0.0
 15
0.0
 25
0.0
 35
0.0
146
0.0
 13
0.0
 23
0.0
 33
0.0
 16
1.0
 26
0.0
 36
0.0
 17
0.0
 27
1.0
 37
0.0
 76
     0
330
58
  0
LAYOUT
  5
5E
102
{ACAD_XDICTIONARY
360
1964
102
}
102
{ACAD_REACTORS
330
1A
102
}
330
1A
100
AcDbPlotSettings
  1

  2
None
  4

  6

 40
0.0
 41
0.0
 42
0.0
 43
0.0
 44
0.0
 45
0.0
 46
0.0
 47
0.0
 48
0.0
 49
0.0
140
0.0
141
0.0
142
1.0
143
1.0
 70
   688
 72
     0
 73
     0
 74
     5
  7

 75
    16
147
1.0
148
0.0
149
0.0
100
AcDbLayout
  1
レイアウト2
 70
     1
 71
     2
 10
0.0
 20
0.0
 11
12.0
 21
9.0
 12
0.0
 22
0.0
 32
0.0
 14
0.0
 24
0.0
 34
0.0
 15
0.0
 25
0.0
 35
0.0
146
0.0
 13
0.0
 23
0.0
 33
0.0
 16
1.0
 26
0.0
 36
0.0
 17
0.0
 27
1.0
 37
0.0
 76
     0
330
5D
  0
MATERIAL
  5
97
102
{ACAD_XDICTIONARY
360
15CC
102
}
102
{ACAD_REACTORS
330
72
102
}
330
72
100
AcDbMaterial
  1
ByBlock
 73
     1
 78
     1
172
     1
176
     1
270
     1
274
     1
  0
MATERIAL
  5
96
102
{ACAD_XDICTIONARY
360
15CA
102
}
102
{ACAD_REACTORS
330
72
102
}
330
72
100
AcDbMaterial
  1
ByLayer
 73
     1
 78
     1
172
     1
176
     1
270
     1
274
     1
  0
MATERIAL
  5
98
102
{ACAD_XDICTIONARY
360
15CE
102
}
102
{ACAD_REACTORS
330
72
102
}
330
72
100
AcDbMaterial
  1
Global
 73
     1
 78
     1
172
     1
176
     1
270
     1
274
     1
  0
MLEADERSTYLE
  5
169
102
{ACAD_REACTORS
330
168
102
}
330
168
100
AcDbMLeaderStyle
170
     2
171
     1
172
     0
 90
        2
 40
0.0
 41
0.0
173
     1
 91
-1056964608
340
14
 92
       -2
290
     1
 42
2.0
291
     1
 43
0.36
  3
Standard
 44
4.0
300

342
11
174
     1
178
     6
175
     1
176
     0
 93
-1056964608
 45
4.0
292
     0
297
     0
 46
4.0
 94
-1056964608
 47
1.0
 49
1.0
140
1.0
293
     1
141
0.0
294
     1
177
     0
142
1.0
295
     0
296
     0
143
0.125
1001
ACAD_MLEADERVER
1070
     2
  0
MLINESTYLE
  5
18
102
{ACAD_REACTORS
330
17
102
}
330
17
100
AcDbMlineStyle
  2
STANDARD
 70
     0
  3

 62
   256
 51
90.0
 52
90.0
 71
     2
 49
0.5
 62
   256
  6
BYLAYER
 49
-0.5
 62
   256
  6
BYLAYER
  0
ACDBPLACEHOLDER
  5
F
102
{ACAD_REACTORS
330
E
102
}
330
E
  0
SCALE
  5
157
102
{ACAD_REACTORS
330
156
102
}
330
156
100
AcDbScale
 70
     0
300
1:1
140
1.0
141
1.0
290
     1
  0
SCALE
  5
158
102
{ACAD_REACTORS
330
156
102
}
330
156
100
AcDbScale
 70
     0
300
1:2
140
1.0
141
2.0
290
     0
  0
SCALE
  5
159
102
{ACAD_REACTORS
330
156
102
}
330
156
100
AcDbScale
 70
     0
300
1:4
140
1.0
141
4.0
290
     0
  0
SCALE
  5
15A
102
{ACAD_REACTORS
330
156
102
}
330
156
100
AcDbScale
 70
     0
300
1:5
140
1.0
141
5.0
290
     0
  0
SCALE
  5
15B
102
{ACAD_REACTORS
330
156
102
}
330
156
100
AcDbScale
 70
     0
300
1:8
140
1.0
141
8.0
290
     0
  0
SCALE
  5
15C
102
{ACAD_REACTORS
330
156
102
}
330
156
100
AcDbScale
 70
     0
300
1:10
140
1.0
141
10.0
290
     0
  0
SCALE
  5
15D
102
{ACAD_REACTORS
330
156
102
}
330
156
100
AcDbScale
 70
     0
300
1:16
140
1.0
141
16.0
290
     0
  0
SCALE
  5
15E
102
{ACAD_REACTORS
330
156
102
}
330
156
100
AcDbScale
 70
     0
300
1:20
140
1.0
141
20.0
290
     0
  0
SCALE
  5
15F
102
{ACAD_REACTORS
330
156
102
}
330
156
100
AcDbScale
 70
     0
300
1:30
140
1.0
141
30.0
290
     0
  0
SCALE
  5
160
102
{ACAD_REACTORS
330
156
102
}
330
156
100
AcDbScale
 70
     0
300
1:40
140
1.0
141
40.0
290
     0
  0
SCALE
  5
161
102
{ACAD_REACTORS
330
156
102
}
330
156
100
AcDbScale
 70
     0
300
1:50
140
1.0
141
50.0
290
     0
  0
SCALE
  5
162
102
{ACAD_REACTORS
330
156
102
}
330
156
100
AcDbScale
 70
     0
300
1:100
140
1.0
141
100.0
290
     0
  0
SCALE
  5
163
102
{ACAD_REACTORS
330
156
102
}
330
156
100
AcDbScale
 70
     0
300
2:1
140
2.0
141
1.0
290
     0
  0
SCALE
  5
164
102
{ACAD_REACTORS
330
156
102
}
330
156
100
AcDbScale
 70
     0
300
4:1
140
4.0
141
1.0
290
     0
  0
SCALE
  5
165
102
{ACAD_REACTORS
330
156
102
}
330
156
100
AcDbScale
 70
     0
300
8:1
140
8.0
141
1.0
290
     0
  0
SCALE
  5
166
102
{ACAD_REACTORS
330
156
102
}
330
156
100
AcDbScale
 70
     0
300
10:1
140
10.0
141
1.0
290
     0
  0
SCALE
  5
167
102
{ACAD_REACTORS
330
156
102
}
330
156
100
AcDbScale
 70
     0
300
100:1
140
100.0
141
1.0
290
     0
  0
TABLESTYLE
  5
87
102
{ACAD_XDICTIONARY
360
15BA
102
}
102
{ACAD_REACTORS
330
86
102
}
330
86
100
AcDbTableStyle
  3
Standard
 70
     0
 71
     0
 40
0.06
 41
0.06
280
     0
281
     0
  7
Standard
140
0.18
170
     2
 62
     0
 63
     7
283
     0
274
    -2
284
     1
 64
     0
275
    -2
285
     1
 65
     0
276
    -2
286
     1
 66
     0
277
    -2
287
     1
 67
     0
278
    -2
288
     1
 68
     0
279
    -2
289
     1
 69
     0
  7
Standard
140
0.25
170
     5
 62
     0
 63
     7
283
     0
274
    -2
284
     1
 64
     0
275
    -2
285
     1
 65
     0
276
    -2
286
     1
 66
     0
277
    -2
287
     1
 67
     0
278
    -2
288
     1
 68
     0
279
    -2
289
     1
 69
     0
  7
Standard
140
0.18
170
     5
 62
     0
 63
     7
283
     0
274
    -2
284
     1
 64
     0
275
    -2
285
     1
 65
     0
276
    -2
286
     1
 66
     0
277
    -2
287
     1
 67
     0
278
    -2
288
     1
 68
     0
279
    -2
289
     1
 69
     0
  0
TABLESTYLE
  5
C45
102
{ACAD_XDICTIONARY
360
C46
102
}
102
{ACAD_REACTORS
330
86
102
}
330
86
100
AcDbTableStyle
  3
Standard
 70
     1
 71
     0
 40
1.5
 41
0.5
280
     0
281
     0
  7
高3.2
140
0.18
170
     7
 62
     3
 63
     7
283
     0
274
    -2
284
     1
 64
     3
275
    -2
285
     1
 65
     7
276
    -2
286
     1
 66
     3
277
    -2
287
     1
 67
     3
278
    -2
288
     1
 68
     7
279
    -2
289
     1
 69
     3
  7
高3.2
140
0.25
170
     8
 62
     3
 63
     7
283
     0
274
    -2
284
     1
 64
     0
275
    -2
285
     1
 65
     0
276
    -2
286
     1
 66
     0
277
    -2
287
     1
 67
     0
278
    -2
288
     1
 68
     0
279
    -2
289
     1
 69
     0
  7
高3.2
140
0.18
170
     7
 62
     3
 63
     7
283
     0
274
    -2
284
     1
 64
     3
275
    -2
285
     1
 65
     7
276
    -2
286
     1
 66
     3
277
    -2
287
     1
 67
     3
278
    -2
288
     1
 68
     7
279
    -2
289
     1
 69
     3
  0
VISUALSTYLE
  5
9F
102
{ACAD_XDICTIONARY
360
1971
102
}
102
{ACAD_REACTORS
330
99
102
}
330
99
100
AcDbVisualStyle
  2

 70
     4
 71
     0
 72
     2
 73
     1
 90
        0
 40
-0.6
 41
-30.0
 62
     5
 63
     7
 74
     1
 91
        4
 64
     7
 65
   257
 75
     1
175
     1
 42
1.0
 92
        0
 66
   257
 43
1.0
 76
     1
 77
     6
 78
     2
 67
     7
 79
     5
170
     0
171
     0
290
     0
174
     0
 93
        1
 44
0.0
173
     0
291
     0
 45
0.0
1001
ACAD
1000
AcDbSavedByObjectVersion
1070
     0
  0
VISUALSTYLE
  5
A1
102
{ACAD_XDICTIONARY
360
1975
102
}
102
{ACAD_REACTORS
330
99
102
}
330
99
100
AcDbVisualStyle
  2

 70
     6
 71
     1
 72
     2
 73
     2
 90
        0
 40
-0.6
 41
-30.0
 62
     5
 63
     7
 74
     2
 91
        2
 64
     7
 65
   257
 75
     2
175
     1
 42
40.0
 92
        0
 66
   257
 43
1.0
 76
     1
 77
     6
 78
     2
 67
     7
 79
     3
170
     0
171
     0
290
     0
174
     0
 93
        1
 44
0.0
173
     0
291
     0
 45
0.0
1001
ACAD
1000
AcDbSavedByObjectVersion
1070
     0
  0
VISUALSTYLE
  5
A0
102
{ACAD_XDICTIONARY
360
1973
102
}
102
{ACAD_REACTORS
330
99
102
}
330
99
100
AcDbVisualStyle
  2

 70
     5
 71
     0
 72
     2
 73
     1
 90
        0
 40
-0.6
 41
-30.0
 62
     5
 63
     7
 74
     1
 91
        4
 64
     7
 65
   257
 75
     1
175
     1
 42
1.0
 92
        0
 66
   257
 43
1.0
 76
     1
 77
     6
 78
     2
 67
     7
 79
     5
170
     0
171
     0
290
     0
174
     0
 93
        1
 44
0.0
173
     0
291
     0
 45
0.0
1001
ACAD
1000
AcDbSavedByObjectVersion
1070
     0
  0
VISUALSTYLE
  5
9E
102
{ACAD_XDICTIONARY
360
196F
102
}
102
{ACAD_REACTORS
330
99
102
}
330
99
100
AcDbVisualStyle
  2

 70
     7
 71
     1
 72
     0
 73
     1
 90
        0
 40
-0.6
 41
-30.0
 62
     5
 63
     7
 74
     0
 91
        4
 64
     7
 65
   257
 75
     1
175
     1
 42
1.0
 92
        8
 66
     7
 43
1.0
 76
     1
 77
     6
 78
     2
 67
     7
 79
     5
170
     0
171
     0
290
     0
174
     0
 93
        1
 44
0.0
173
     0
291
     1
 45
0.0
1001
ACAD
1000
AcDbSavedByObjectVersion
1070
     0
  0
VISUALSTYLE
  5
A5
102
{ACAD_XDICTIONARY
360
197D
102
}
102
{ACAD_REACTORS
330
99
102
}
330
99
100
AcDbVisualStyle
  2

 70
    12
 71
     2
 72
     2
 73
     1
 90
        0
 40
-0.6
 41
-30.0
 62
     5
 63
     7
 74
     1
 91
        4
 64
     7
 65
   257
 75
     1
175
     1
 42
1.0
 92
        8
 66
     7
 43
1.0
 76
     1
 77
     6
 78
     2
 67
     7
 79
     5
170
     0
171
     0
290
     0
174
     0
 93
        1
 44
50.0
173
     0
291
     1
 45
0.0
1001
ACAD
1000
AcDbSavedByObjectVersion
1070
     0
  0
VISUALSTYLE
  5
A9
102
{ACAD_XDICTIONARY
360
1985
102
}
102
{ACAD_REACTORS
330
99
102
}
330
99
100
AcDbVisualStyle
  2

 70
    16
 71
     2
 72
     2
 73
     3
 90
        0
 40
-0.6
 41
-30.0
 62
     5
 63
     8
 74
     1
 91
        4
 64
     7
 65
   257
 75
     1
175
     1
 42
1.0
 92
        8
 66
     8
 43
1.0
 76
     1
 77
     6
 78
     2
 67
     7
 79
     5
170
     0
171
     0
290
     0
174
     0
 93
        1
 44
0.0
173
     0
291
     1
 45
0.0
1001
ACAD
1000
AcDbSavedByObjectVersion
1070
     0
  0
VISUALSTYLE
  5
A2
102
{ACAD_XDICTIONARY
360
1977
102
}
102
{ACAD_REACTORS
330
99
102
}
330
99
100
AcDbVisualStyle
  2

 70
     9
 71
     3
 72
     2
 73
     1
 90
        0
 40
-0.6
 41
-30.0
 62
     5
 63
     7
 74
     2
 91
        2
 64
     7
 65
   257
 75
     1
175
     1
 42
40.0
 92
        8
 66
     7
 43
1.0
 76
     1
 77
     6
 78
     2
 67
     7
 79
     3
170
     0
171
     0
290
     0
174
     0
 93
        1
 44
0.0
173
     0
291
     0
 45
0.0
1001
ACAD
1000
AcDbSavedByObjectVersion
1070
     0
  0
VISUALSTYLE
  5
A4
102
{ACAD_XDICTIONARY
360
197B
102
}
102
{ACAD_REACTORS
330
99
102
}
330
99
100
AcDbVisualStyle
  2

 70
    11
 71
     2
 72
     2
 73
     1
 90
        0
 40
-0.6
 41
-30.0
 62
     5
 63
     7
 74
     1
 91
        4
 64
     7
 65
   257
 75
     1
175
     1
 42
1.0
 92
        8
 66
     7
 43
1.0
 76
     1
 77
     6
 78
     2
 67
     7
 79
     5
170
     0
171
     0
290
     0
174
     0
 93
        1
 44
-50.0
173
     0
291
     1
 45
0.0
1001
ACAD
1000
AcDbSavedByObjectVersion
1070
     0
  0
VISUALSTYLE
  5
155
102
{ACAD_XDICTIONARY
360
1999
102
}
102
{ACAD_REACTORS
330
99
102
}
330
99
100
AcDbVisualStyle
  2

 70
    22
 71
     2
 72
     2
 73
     0
 90
        0
 40
-0.6
 41
-30.0
 62
     5
 63
     7
 74
     1
 91
        4
 64
     7
 65
   257
 75
     1
175
     1
 42
1.0
 92
        8
 66
     7
 43
1.0
 76
     1
 77
     6
 78
     2
 67
     7
 79
     5
170
     0
171
     0
290
     0
174
     0
 93
        1
 44
0.0
173
     0
291
     1
 45
0.0
1001
ACAD
1000
AcDbSavedByObjectVersion
1070
     0
  0
VISUALSTYLE
  5
A8
102
{ACAD_XDICTIONARY
360
1983
102
}
102
{ACAD_REACTORS
330
99
102
}
330
99
100
AcDbVisualStyle
  2

 70
    15
 71
     2
 72
     2
 73
     1
 90
        0
 40
-0.6
 41
-30.0
 62
     5
 63
     7
 74
     1
 91
        4
 64
     7
 65
   257
 75
     1
175
     1
 42
1.0
 92
        8
 66
     7
 43
1.0
 76
     1
 77
     6
 78
     2
 67
     7
 79
     5
170
     0
171
     0
290
     0
174
     0
 93
        1
 44
0.0
173
     0
291
     1
 45
0.0
1001
ACAD
1000
AcDbSavedByObjectVersion
1070
     0
  0
VISUALSTYLE
  5
9A
102
{ACAD_XDICTIONARY
360
1967
102
}
102
{ACAD_REACTORS
330
99
102
}
330
99
100
AcDbVisualStyle
  2

 70
     0
 71
     2
 72
     1
 73
     1
 90
        2
 40
-0.6
 41
30.0
 62
     5
 63
     7
 74
     0
 91
        4
 64
     7
 65
   257
 75
     1
175
     1
 42
1.0
 92
        8
 66
     7
 43
1.0
 76
     1
 77
     6
 78
     2
 67
     7
 79
     5
170
     0
171
     0
290
     0
174
     0
 93
        1
 44
0.0
173
     0
291
     1
 45
0.0
1001
ACAD
1000
AcDbSavedByObjectVersion
1070
     0
  0
VISUALSTYLE
  5
9B
102
{ACAD_XDICTIONARY
360
1969
102
}
102
{ACAD_REACTORS
330
99
102
}
330
99
100
AcDbVisualStyle
  2

 70
     1
 71
     2
 72
     1
 73
     1
 90
        2
 40
-0.6
 41
30.0
 62
     5
 63
     7
 74
     1
 91
        4
 64
     7
 65
   257
 75
     1
175
     1
 42
1.0
 92
        0
 66
   257
 43
1.0
 76
     1
 77
     6
 78
     2
 67
     7
 79
     5
170
     0
171
     0
290
     0
174
     0
 93
        1
 44
0.0
173
     0
291
     1
 45
0.0
1001
ACAD
1000
AcDbSavedByObjectVersion
1070
     0
  0
VISUALSTYLE
  5
9C
102
{ACAD_XDICTIONARY
360
196B
102
}
102
{ACAD_REACTORS
330
99
102
}
330
99
100
AcDbVisualStyle
  2

 70
     2
 71
     2
 72
     2
 73
     1
 90
        2
 40
-0.6
 41
30.0
 62
     5
 63
     7
 74
     0
 91
        4
 64
     7
 65
   257
 75
     1
175
     1
 42
1.0
 92
        0
 66
     7
 43
1.0
 76
     1
 77
     6
 78
     2
 67
     7
 79
     5
170
     0
171
     0
290
     0
174
     0
 93
        1
 44
0.0
173
     0
291
     1
 45
0.0
1001
ACAD
1000
AcDbSavedByObjectVersion
1070
     0
  0
VISUALSTYLE
  5
9D
102
{ACAD_XDICTIONARY
360
196D
102
}
102
{ACAD_REACTORS
330
99
102
}
330
99
100
AcDbVisualStyle
  2

 70
     3
 71
     2
 72
     2
 73
     1
 90
        2
 40
-0.6
 41
30.0
 62
     5
 63
     7
 74
     1
 91
        4
 64
     7
 65
   257
 75
     1
175
     1
 42
1.0
 92
        0
 66
   257
 43
1.0
 76
     1
 77
     6
 78
     2
 67
     7
 79
     5
170
     0
171
     0
290
     0
174
     0
 93
        1
 44
0.0
173
     0
291
     1
 45
0.0
1001
ACAD
1000
AcDbSavedByObjectVersion
1070
     0
  0
VISUALSTYLE
  5
14D
102
{ACAD_XDICTIONARY
360
1989
102
}
102
{ACAD_REACTORS
330
99
102
}
330
99
100
AcDbVisualStyle
  2

 70
     6
 71
     1
 72
     2
 73
     2
 90
        0
 40
-0.6
 41
-30.0
 62
     5
 63
     7
 74
     2
 91
        2
 64
     7
 65
   257
 75
     2
175
     1
 42
40.0
 92
        0
 66
   257
 43
1.0
 76
     1
 77
     6
 78
     2
 67
     7
 79
     3
170
     0
171
     0
290
     0
174
     0
 93
        1
 44
0.0
173
     0
291
     0
 45
0.0
1001
ACAD
1000
AcDbSavedByObjectVersion
1070
     0
  0
VISUALSTYLE
  5
153
102
{ACAD_XDICTIONARY
360
1995
102
}
102
{ACAD_REACTORS
330
99
102
}
330
99
100
AcDbVisualStyle
  2

 70
    20
 71
     2
 72
     2
 73
     0
 90
        0
 40
-0.6
 41
-30.0
 62
     5
 63
     7
 74
     1
 91
        4
 64
     7
 65
   257
 75
     1
175
     1
 42
1.0
 92
       10
 66
     7
 43
1.0
 76
     1
 77
     6
 78
     2
 67
     7
 79
     5
170
     0
171
     0
290
     0
174
     0
 93
        1
 44
0.0
173
     0
291
     1
 45
0.0
1001
ACAD
1000
AcDbSavedByObjectVersion
1070
     0
  0
VISUALSTYLE
  5
A7
102
{ACAD_XDICTIONARY
360
1981
102
}
102
{ACAD_REACTORS
330
99
102
}
330
99
100
AcDbVisualStyle
  2

 70
    14
 71
     2
 72
     2
 73
     1
 90
        0
 40
-0.6
 41
-30.0
 62
     5
 63
     7
 74
     1
 91
        4
 64
     7
 65
   257
 75
     7
175
     7
 42
1.0
 92
        8
 66
     7
 43
1.0
 76
     1
 77
     6
 78
     2
 67
     7
 79
     5
170
     0
171
     0
290
     0
174
     0
 93
        1
 44
0.0
173
     0
291
     1
 45
0.0
1001
ACAD
1000
AcDbSavedByObjectVersion
1070
     0
  0
VISUALSTYLE
  5
154
102
{ACAD_XDICTIONARY
360
1997
102
}
102
{ACAD_REACTORS
330
99
102
}
330
99
100
AcDbVisualStyle
  2

 70
    21
 71
     2
 72
     2
 73
     0
 90
        0
 40
-0.6
 41
-30.0
 62
     5
 63
     7
 74
     1
 91
        4
 64
     7
 65
   257
 75
     1
175
     1
 42
1.0
 92
        9
 66
     7
 43
1.0
 76
     1
 77
     6
 78
     2
 67
     7
 79
     5
170
     0
171
     0
290
     0
174
     0
 93
        1
 44
0.0
173
     0
291
     1
 45
0.0
1001
ACAD
1000
AcDbSavedByObjectVersion
1070
     0
  0
VISUALSTYLE
  5
A3
102
{ACAD_XDICTIONARY
360
1979
102
}
102
{ACAD_REACTORS
330
99
102
}
330
99
100
AcDbVisualStyle
  2

 70
     8
 71
     2
 72
     2
 73
     1
 90
        0
 40
-0.6
 41
-30.0
 62
     5
 63
     7
 74
     1
 91
        0
 64
     7
 65
   257
 75
     1
175
     1
 42
1.0
 92
        8
 66
     8
 43
1.0
 76
     1
 77
     6
 78
     2
 67
     7
 79
     5
170
     0
171
     0
290
     0
174
     0
 93
       13
 44
0.0
173
     0
291
     0
 45
0.0
1001
ACAD
1000
AcDbSavedByObjectVersion
1070
     0
  0
VISUALSTYLE
  5
152
102
{ACAD_XDICTIONARY
360
1993
102
}
102
{ACAD_REACTORS
330
99
102
}
330
99
100
AcDbVisualStyle
  2

 70
    27
 71
     2
 72
     2
 73
     1
 90
        2
 40
-0.6
 41
30.0
 62
     5
 63
     7
 74
     0
 91
        4
 64
     7
 65
   257
 75
     1
175
     1
 42
1.0
 92
        8
 66
   257
 43
1.0
 76
     1
 77
     6
 78
     2
 67
     8
 79
     3
170
     0
171
     0
290
     0
174
     0
 93
        5
 44
0.0
173
     0
291
     0
 45
0.0
1001
ACAD
1000
AcDbSavedByObjectVersion
1070
     0
  0
VISUALSTYLE
  5
151
102
{ACAD_XDICTIONARY
360
1991
102
}
102
{ACAD_REACTORS
330
99
102
}
330
99
100
AcDbVisualStyle
  2

 70
    26
 71
     2
 72
     2
 73
     1
 90
        2
 40
-0.6
 41
30.0
 62
     5
 63
     7
 74
     1
 91
       10
 64
     7
 65
   257
 75
     2
175
     1
 42
1.0
 92
        8
 66
   257
 43
1.0
 76
     1
 77
     6
 78
     2
 67
     7
 79
     3
170
     0
171
     0
290
     0
174
     0
 93
        5
 44
0.0
173
     0
291
     0
 45
0.0
1001
ACAD
1000
AcDbSavedByObjectVersion
1070
     0
  0
VISUALSTYLE
  5
14E
102
{ACAD_XDICTIONARY
360
198B
102
}
102
{ACAD_REACTORS
330
99
102
}
330
99
100
AcDbVisualStyle
  2

 70
    23
 71
     2
 72
     2
 73
     3
 90
        0
 40
-0.6
 41
-30.0
 62
     5
 63
     7
 74
     2
 91
        2
 64
     7
 65
     7
 75
     1
175
     1
 42
40.0
 92
        8
 66
     7
 43
1.0
 76
     1
 77
     6
 78
     2
 67
     7
 79
     3
170
     0
171
     0
290
     0
174
     0
 93
        1
 44
0.0
173
     0
291
     0
 45
0.0
1001
ACAD
1000
AcDbSavedByObjectVersion
1070
     0
  0
VISUALSTYLE
  5
14F
102
{ACAD_XDICTIONARY
360
198D
102
}
102
{ACAD_REACTORS
330
99
102
}
330
99
100
AcDbVisualStyle
  2

 70
    24
 71
     1
 72
     2
 73
     2
 90
        0
 40
-0.6
 41
-30.0
 62
     5
 63
     7
 74
     2
 91
        2
 64
     7
 65
     7
 75
     1
175
     1
 42
40.0
 92
       11
 66
     7
 43
1.0
 76
     1
 77
     6
 78
     2
 67
     7
 79
     6
170
     0
171
     0
290
     0
174
     0
 93
        1
 44
0.0
173
     0
291
     0
 45
0.0
1001
ACAD
1000
AcDbSavedByObjectVersion
1070
     0
  0
VISUALSTYLE
  5
A6
102
{ACAD_XDICTIONARY
360
197F
102
}
102
{ACAD_REACTORS
330
99
102
}
330
99
100
AcDbVisualStyle
  2

 70
    13
 71
     2
 72
     2
 73
     1
 90
        0
 40
-0.6
 41
-30.0
 62
     5
 63
     7
 74
     1
 91
        4
 64
     7
 65
   257
 75
     1
175
     1
 42
1.0
 92
       12
 66
     7
 43
1.0
 76
     1
 77
     6
 78
     2
 67
     7
 79
     5
170
     0
171
     0
290
     0
174
     0
 93
        1
 44
0.0
173
     0
291
     1
 45
0.0
1001
ACAD
1000
AcDbSavedByObjectVersion
1070
     0
  0
VISUALSTYLE
  5
14C
102
{ACAD_XDICTIONARY
360
1987
102
}
102
{ACAD_REACTORS
330
99
102
}
330
99
100
AcDbVisualStyle
  2

 70
     5
 71
     0
 72
     2
 73
     0
 90
        0
 40
-0.6
 41
-30.0
 62
     5
 63
     7
 74
     1
 91
        4
 64
     7
 65
   257
 75
     1
175
     1
 42
1.0
 92
        0
 66
   257
 43
1.0
 76
     1
 77
     6
 78
     2
 67
     7
 79
     3
170
     0
171
     0
290
     0
174
     0
 93
        1
 44
0.0
173
     0
291
     0
 45
0.0
1001
ACAD
1000
AcDbSavedByObjectVersion
1070
     0
  0
VISUALSTYLE
  5
150
102
{ACAD_XDICTIONARY
360
198F
102
}
102
{ACAD_REACTORS
330
99
102
}
330
99
100
AcDbVisualStyle
  2

 70
    25
 71
     2
 72
     2
 73
     1
 90
        1
 40
0.5
 41
-30.0
 62
     5
 63
     7
 74
     1
 91
        0
 64
     7
 65
   257
 75
     1
175
     1
 42
1.0
 92
        8
 66
     7
 43
1.0
 76
     1
 77
     6
 78
     2
 67
     7
 79
     3
170
     0
171
     0
290
     0
174
     0
 93
       13
 44
0.0
173
     0
291
     0
 45
0.0
1001
ACAD
1000
AcDbSavedByObjectVersion
1070
     0
  0
DICTIONARYVAR
  5
24A
102
{ACAD_REACTORS
330
66
102
}
330
66
100
DictionaryVariables
280
     0
  1
1:1
  0
DICTIONARYVAR
  5
248
102
{ACAD_REACTORS
330
66
102
}
330
66
100
DictionaryVariables
280
     0
  1
STANDARD
  0
DICTIONARYVAR
  5
89
102
{ACAD_REACTORS
330
66
102
}
330
66
100
DictionaryVariables
280
     0
  1
STANDARD
  0
DICTIONARYVAR
  5
67
102
{ACAD_REACTORS
330
66
102
}
330
66
100
DictionaryVariables
280
     0
  1
2
  0
DICTIONARYVAR
  5
6B
102
{ACAD_REACTORS
330
66
102
}
330
66
100
DictionaryVariables
280
     0
  1
1
  0
DICTIONARYVAR
  5
15B8
102
{ACAD_REACTORS
330
66
102
}
330
66
100
DictionaryVariables
280
     0
  1
0
  0
DICTIONARYVAR
  5
24C
102
{ACAD_REACTORS
330
66
102
}
330
66
100
DictionaryVariables
280
     0
  1
1
  0
DICTIONARYVAR
  5
24D
102
{ACAD_REACTORS
330
66
102
}
330
66
100
DictionaryVariables
280
     0
  1
15
  0
DICTIONARYVAR
  5
24B
102
{ACAD_REACTORS
330
66
102
}
330
66
100
DictionaryVariables
280
     0
  1
0
  0
DICTIONARYVAR
  5
249
102
{ACAD_REACTORS
330
66
102
}
330
66
100
DictionaryVariables
280
     0
  1
0
  0
DICTIONARYVAR
  5
15B7
102
{ACAD_REACTORS
330
66
102
}
330
66
100
DictionaryVariables
280
     0
  1
127
  0
DICTIONARYVAR
  5
184E
102
{ACAD_REACTORS
330
66
102
}
330
66
100
DictionaryVariables
280
     0
  1
2
  0
DICTIONARY
  5
1960
330
22
100
AcDbDictionary
280
     1
281
     1
  3
ACAD_XREC_ROUNDTRIP
360
1961
  0
DICTIONARY
  5
1962
330
59
100
AcDbDictionary
280
     1
281
     1
  3
ACAD_XREC_ROUNDTRIP
360
1963
  0
DICTIONARY
  5
1964
330
5E
100
AcDbDictionary
280
     1
281
     1
  3
ACAD_XREC_ROUNDTRIP
360
1965
  0
DICTIONARY
  5
15CC
330
97
100
AcDbDictionary
280
     1
281
     1
  3
ACAD_XREC_ROUNDTRIP
360
15CD
  0
DICTIONARY
  5
15CA
330
96
100
AcDbDictionary
280
     1
281
     1
  3
ACAD_XREC_ROUNDTRIP
360
15CB
  0
DICTIONARY
  5
15CE
330
98
100
AcDbDictionary
280
     1
281
     1
  3
ACAD_XREC_ROUNDTRIP
360
15CF
  0
DICTIONARY
  5
15BA
330
87
100
AcDbDictionary
280
     1
281
     1
  3
ACAD_ROUNDTRIP_2008_TABLESTYLE_CELLSTYLEMAP
360
1958
  3
ACAD_XREC_ROUNDTRIP
360
1966
  0
DICTIONARY
  5
C46
330
C45
100
AcDbDictionary
280
     1
281
     1
  3
ACAD_ROUNDTRIP_2008_TABLESTYLE_CELLSTYLEMAP
360
1959
  3
ACAD_XREC_ROUNDTRIP
360
199B
  0
DICTIONARY
  5
1971
330
9F
100
AcDbDictionary
280
     1
281
     1
  3
ACAD_XREC_ROUNDTRIP
360
1972
  0
DICTIONARY
  5
1975
330
A1
100
AcDbDictionary
280
     1
281
     1
  3
ACAD_XREC_ROUNDTRIP
360
1976
  0
DICTIONARY
  5
1973
330
A0
100
AcDbDictionary
280
     1
281
     1
  3
ACAD_XREC_ROUNDTRIP
360
1974
  0
DICTIONARY
  5
196F
330
9E
100
AcDbDictionary
280
     1
281
     1
  3
ACAD_XREC_ROUNDTRIP
360
1970
  0
DICTIONARY
  5
197D
330
A5
100
AcDbDictionary
280
     1
281
     1
  3
ACAD_XREC_ROUNDTRIP
360
197E
  0
DICTIONARY
  5
1985
330
A9
100
AcDbDictionary
280
     1
281
     1
  3
ACAD_XREC_ROUNDTRIP
360
1986
  0
DICTIONARY
  5
1977
330
A2
100
AcDbDictionary
280
     1
281
     1
  3
ACAD_XREC_ROUNDTRIP
360
1978
  0
DICTIONARY
  5
197B
330
A4
100
AcDbDictionary
280
     1
281
     1
  3
ACAD_XREC_ROUNDTRIP
360
197C
  0
DICTIONARY
  5
1999
330
155
100
AcDbDictionary
280
     1
281
     1
  3
ACAD_XREC_ROUNDTRIP
360
199A
  0
DICTIONARY
  5
1983
330
A8
100
AcDbDictionary
280
     1
281
     1
  3
ACAD_XREC_ROUNDTRIP
360
1984
  0
DICTIONARY
  5
1967
330
9A
100
AcDbDictionary
280
     1
281
     1
  3
ACAD_XREC_ROUNDTRIP
360
1968
  0
DICTIONARY
  5
1969
330
9B
100
AcDbDictionary
280
     1
281
     1
  3
ACAD_XREC_ROUNDTRIP
360
196A
  0
DICTIONARY
  5
196B
330
9C
100
AcDbDictionary
280
     1
281
     1
  3
ACAD_XREC_ROUNDTRIP
360
196C
  0
DICTIONARY
  5
196D
330
9D
100
AcDbDictionary
280
     1
281
     1
  3
ACAD_XREC_ROUNDTRIP
360
196E
  0
DICTIONARY
  5
1989
330
14D
100
AcDbDictionary
280
     1
281
     1
  3
ACAD_XREC_ROUNDTRIP
360
198A
  0
DICTIONARY
  5
1995
330
153
100
AcDbDictionary
280
     1
281
     1
  3
ACAD_XREC_ROUNDTRIP
360
1996
  0
DICTIONARY
  5
1981
330
A7
100
AcDbDictionary
280
     1
281
     1
  3
ACAD_XREC_ROUNDTRIP
360
1982
  0
DICTIONARY
  5
1997
330
154
100
AcDbDictionary
280
     1
281
     1
  3
ACAD_XREC_ROUNDTRIP
360
1998
  0
DICTIONARY
  5
1979
330
A3
100
AcDbDictionary
280
     1
281
     1
  3
ACAD_XREC_ROUNDTRIP
360
197A
  0
DICTIONARY
  5
1993
330
152
100
AcDbDictionary
280
     1
281
     1
  3
ACAD_XREC_ROUNDTRIP
360
1994
  0
DICTIONARY
  5
1991
330
151
100
AcDbDictionary
280
     1
281
     1
  3
ACAD_XREC_ROUNDTRIP
360
1992
  0
DICTIONARY
  5
198B
330
14E
100
AcDbDictionary
280
     1
281
     1
  3
ACAD_XREC_ROUNDTRIP
360
198C
  0
DICTIONARY
  5
198D
330
14F
100
AcDbDictionary
280
     1
281
     1
  3
ACAD_XREC_ROUNDTRIP
360
198E
  0
DICTIONARY
  5
197F
330
A6
100
AcDbDictionary
280
     1
281
     1
  3
ACAD_XREC_ROUNDTRIP
360
1980
  0
DICTIONARY
  5
1987
330
14C
100
AcDbDictionary
280
     1
281
     1
  3
ACAD_XREC_ROUNDTRIP
360
1988
  0
DICTIONARY
  5
198F
330
150
100
AcDbDictionary
280
     1
281
     1
  3
ACAD_XREC_ROUNDTRIP
360
1990
  0
XRECORD
  5
1961
102
{ACAD_REACTORS
330
1960
102
}
330
1960
100
AcDbXrecord
280
     1
102
SHADEPLOT
 70
     0
102
SHADEPLOTRESLEVEL
 70
     2
102
SHADEPLOTCUSTOMDPI
 70
   300
  0
XRECORD
  5
1963
102
{ACAD_REACTORS
330
1962
102
}
330
1962
100
AcDbXrecord
280
     1
102
SHADEPLOT
 70
     0
102
SHADEPLOTRESLEVEL
 70
     2
102
SHADEPLOTCUSTOMDPI
 70
   300
  0
XRECORD
  5
1965
102
{ACAD_REACTORS
330
1964
102
}
330
1964
100
AcDbXrecord
280
     1
102
SHADEPLOT
 70
     0
102
SHADEPLOTRESLEVEL
 70
     2
102
SHADEPLOTCUSTOMDPI
 70
   300
  0
XRECORD
  5
15CD
102
{ACAD_REACTORS
330
15CC
102
}
330
15CC
100
AcDbXrecord
280
     1
102
MATERIAL
148
0.0
149
0.0
149
0.0
 93
        0
 94
      127
282
     0
 72
     1
 77
     1
171
     1
175
     1
179
     1
273
     0
  0
XRECORD
  5
15CB
102
{ACAD_REACTORS
330
15CA
102
}
330
15CA
100
AcDbXrecord
280
     1
102
MATERIAL
148
0.0
149
0.0
149
0.0
 93
        0
 94
      127
282
     0
 72
     1
 77
     1
171
     1
175
     1
179
     1
273
     0
  0
XRECORD
  5
15CF
102
{ACAD_REACTORS
330
15CE
102
}
330
15CE
100
AcDbXrecord
280
     1
102
MATERIAL
148
0.0
149
0.0
149
0.0
 93
        0
 94
      127
282
     0
 72
     1
 77
     1
171
     1
175
     1
179
     1
273
     0
  0
CELLSTYLEMAP
  5
1958
102
{ACAD_REACTORS
330
15BA
102
}
330
15BA
100
AcDbCellStyleMap
 90
        3
300
CELLSTYLE
  1
TABLEFORMAT_BEGIN
 90
        5
170
     1
 91
        0
 92
    32768
 62
   257
 93
        1
300
CONTENTFORMAT
  1
CONTENTFORMAT_BEGIN
 90
        0
 91
        0
 92
      512
 93
        0
300

 40
0.0
140
1.0
 94
        5
 62
     0
340
11
144
0.25
309
CONTENTFORMAT_END
171
     1
301
MARGIN
  1
CELLMARGIN_BEGIN
 40
0.06
 40
0.06
 40
0.06
 40
0.06
 40
0.18
 40
0.18
309
CELLMARGIN_END
 94
        6
 95
        1
302
GRIDFORMAT
  1
GRIDFORMAT_BEGIN
 90
        0
 91
        1
 62
     0
 92
       -2
340
0
 93
        0
 40
0.045
309
GRIDFORMAT_END
 95
        2
302
GRIDFORMAT
  1
GRIDFORMAT_BEGIN
 90
        0
 91
        1
 62
     0
 92
       -2
340
0
 93
        0
 40
0.045
309
GRIDFORMAT_END
 95
        4
302
GRIDFORMAT
  1
GRIDFORMAT_BEGIN
 90
        0
 91
        1
 62
     0
 92
       -2
340
0
 93
        0
 40
0.045
309
GRIDFORMAT_END
 95
        8
302
GRIDFORMAT
  1
GRIDFORMAT_BEGIN
 90
        0
 91
        1
 62
     0
 92
       -2
340
0
 93
        0
 40
0.045
309
GRIDFORMAT_END
 95
       16
302
GRIDFORMAT
  1
GRIDFORMAT_BEGIN
 90
        0
 91
        1
 62
     0
 92
       -2
340
0
 93
        0
 40
0.045
309
GRIDFORMAT_END
 95
       32
302
GRIDFORMAT
  1
GRIDFORMAT_BEGIN
 90
        0
 91
        1
 62
     0
 92
       -2
340
0
 93
        0
 40
0.045
309
GRIDFORMAT_END
309
TABLEFORMAT_END
  1
CELLSTYLE_BEGIN
 90
        1
 91
        1
300
_TITLE
309
CELLSTYLE_END
300
CELLSTYLE
  1
TABLEFORMAT_BEGIN
 90
        5
170
     1
 91
        0
 92
        0
 62
   257
 93
        1
300
CONTENTFORMAT
  1
CONTENTFORMAT_BEGIN
 90
        0
 91
        0
 92
      512
 93
        0
300

 40
0.0
140
1.0
 94
        5
 62
     0
340
11
144
0.18
309
CONTENTFORMAT_END
171
     1
301
MARGIN
  1
CELLMARGIN_BEGIN
 40
0.06
 40
0.06
 40
0.06
 40
0.06
 40
0.18
 40
0.18
309
CELLMARGIN_END
 94
        6
 95
        1
302
GRIDFORMAT
  1
GRIDFORMAT_BEGIN
 90
        0
 91
        1
 62
     0
 92
       -2
340
0
 93
        0
 40
0.045
309
GRIDFORMAT_END
 95
        2
302
GRIDFORMAT
  1
GRIDFORMAT_BEGIN
 90
        0
 91
        1
 62
     0
 92
       -2
340
0
 93
        0
 40
0.045
309
GRIDFORMAT_END
 95
        4
302
GRIDFORMAT
  1
GRIDFORMAT_BEGIN
 90
        0
 91
        1
 62
     0
 92
       -2
340
0
 93
        0
 40
0.045
309
GRIDFORMAT_END
 95
        8
302
GRIDFORMAT
  1
GRIDFORMAT_BEGIN
 90
        0
 91
        1
 62
     0
 92
       -2
340
0
 93
        0
 40
0.045
309
GRIDFORMAT_END
 95
       16
302
GRIDFORMAT
  1
GRIDFORMAT_BEGIN
 90
        0
 91
        1
 62
     0
 92
       -2
340
0
 93
        0
 40
0.045
309
GRIDFORMAT_END
 95
       32
302
GRIDFORMAT
  1
GRIDFORMAT_BEGIN
 90
        0
 91
        1
 62
     0
 92
       -2
340
0
 93
        0
 40
0.045
309
GRIDFORMAT_END
309
TABLEFORMAT_END
  1
CELLSTYLE_BEGIN
 90
        2
 91
        1
300
_HEADER
309
CELLSTYLE_END
300
CELLSTYLE
  1
TABLEFORMAT_BEGIN
 90
        5
170
     1
 91
        0
 92
        0
 62
   257
 93
        1
300
CONTENTFORMAT
  1
CONTENTFORMAT_BEGIN
 90
        0
 91
        0
 92
      512
 93
        0
300

 40
0.0
140
1.0
 94
        2
 62
     0
340
11
144
0.18
309
CONTENTFORMAT_END
171
     1
301
MARGIN
  1
CELLMARGIN_BEGIN
 40
0.06
 40
0.06
 40
0.06
 40
0.06
 40
0.18
 40
0.18
309
CELLMARGIN_END
 94
        6
 95
        1
302
GRIDFORMAT
  1
GRIDFORMAT_BEGIN
 90
        0
 91
        1
 62
     0
 92
       -2
340
0
 93
        0
 40
0.045
309
GRIDFORMAT_END
 95
        2
302
GRIDFORMAT
  1
GRIDFORMAT_BEGIN
 90
        0
 91
        1
 62
     0
 92
       -2
340
0
 93
        0
 40
0.045
309
GRIDFORMAT_END
 95
        4
302
GRIDFORMAT
  1
GRIDFORMAT_BEGIN
 90
        0
 91
        1
 62
     0
 92
       -2
340
0
 93
        0
 40
0.045
309
GRIDFORMAT_END
 95
        8
302
GRIDFORMAT
  1
GRIDFORMAT_BEGIN
 90
        0
 91
        1
 62
     0
 92
       -2
340
0
 93
        0
 40
0.045
309
GRIDFORMAT_END
 95
       16
302
GRIDFORMAT
  1
GRIDFORMAT_BEGIN
 90
        0
 91
        1
 62
     0
 92
       -2
340
0
 93
        0
 40
0.045
309
GRIDFORMAT_END
 95
       32
302
GRIDFORMAT
  1
GRIDFORMAT_BEGIN
 90
        0
 91
        1
 62
     0
 92
       -2
340
0
 93
        0
 40
0.045
309
GRIDFORMAT_END
309
TABLEFORMAT_END
  1
CELLSTYLE_BEGIN
 90
        3
 91
        2
300
_DATA
309
CELLSTYLE_END
  0
XRECORD
  5
1966
102
{ACAD_REACTORS
330
15BA
102
}
330
15BA
100
AcDbXrecord
280
     1
102
ACAD_ROUNDTRIP_PRE2007_TABLESTYLE
 90
      512
 91
        0
  1

 92
      512
 93
        0
  2

 94
      512
 95
        0
  3

  0
CELLSTYLEMAP
  5
1959
102
{ACAD_REACTORS
330
C46
102
}
330
C46
100
AcDbCellStyleMap
 90
        3
300
CELLSTYLE
  1
TABLEFORMAT_BEGIN
 90
        5
170
     1
 91
        0
 92
    32768
 62
   257
 93
        1
300
CONTENTFORMAT
  1
CONTENTFORMAT_BEGIN
 90
        0
 91
        0
 92
      512
 93
        0
300

 40
0.0
140
1.0
 94
        8
 62
     3
340
11D
144
0.25
309
CONTENTFORMAT_END
171
     1
301
MARGIN
  1
CELLMARGIN_BEGIN
 40
0.5
 40
10.0
 40
0.06
 40
0.06
 40
0.18
 40
0.18
309
CELLMARGIN_END
 94
        6
 95
        1
302
GRIDFORMAT
  1
GRIDFORMAT_BEGIN
 90
        0
 91
        1
 62
     0
 92
       -2
340
0
 93
        0
 40
0.045
309
GRIDFORMAT_END
 95
        2
302
GRIDFORMAT
  1
GRIDFORMAT_BEGIN
 90
        0
 91
        1
 62
     0
 92
       -2
340
0
 93
        0
 40
0.045
309
GRIDFORMAT_END
 95
        4
302
GRIDFORMAT
  1
GRIDFORMAT_BEGIN
 90
        0
 91
        1
 62
     0
 92
       -2
340
0
 93
        0
 40
0.045
309
GRIDFORMAT_END
 95
        8
302
GRIDFORMAT
  1
GRIDFORMAT_BEGIN
 90
        0
 91
        1
 62
     0
 92
       -2
340
0
 93
        0
 40
0.045
309
GRIDFORMAT_END
 95
       16
302
GRIDFORMAT
  1
GRIDFORMAT_BEGIN
 90
        0
 91
        1
 62
     0
 92
       -2
340
0
 93
        0
 40
0.045
309
GRIDFORMAT_END
 95
       32
302
GRIDFORMAT
  1
GRIDFORMAT_BEGIN
 90
        0
 91
        1
 62
     0
 92
       -2
340
0
 93
        0
 40
0.045
309
GRIDFORMAT_END
309
TABLEFORMAT_END
  1
CELLSTYLE_BEGIN
 90
        1
 91
        1
300
_TITLE
309
CELLSTYLE_END
300
CELLSTYLE
  1
TABLEFORMAT_BEGIN
 90
        5
170
     1
 91
        0
 92
        0
 62
   257
 93
        1
300
CONTENTFORMAT
  1
CONTENTFORMAT_BEGIN
 90
        0
 91
        0
 92
      512
 93
        0
300

 40
0.0
140
1.0
 94
        7
 62
     3
340
11D
144
0.18
309
CONTENTFORMAT_END
171
     1
301
MARGIN
  1
CELLMARGIN_BEGIN
 40
0.5
 40
1.5
 40
0.06
 40
0.06
 40
0.18
 40
0.18
309
CELLMARGIN_END
 94
        6
 95
        1
302
GRIDFORMAT
  1
GRIDFORMAT_BEGIN
 90
        0
 91
        1
 62
     3
 92
       -2
340
14
 93
        0
 40
0.045
309
GRIDFORMAT_END
 95
        2
302
GRIDFORMAT
  1
GRIDFORMAT_BEGIN
 90
        0
 91
        1
 62
     7
 92
       -2
340
14
 93
        0
 40
0.045
309
GRIDFORMAT_END
 95
        4
302
GRIDFORMAT
  1
GRIDFORMAT_BEGIN
 90
        0
 91
        1
 62
     3
 92
       -2
340
14
 93
        0
 40
0.045
309
GRIDFORMAT_END
 95
        8
302
GRIDFORMAT
  1
GRIDFORMAT_BEGIN
 90
        0
 91
        1
 62
     3
 92
       -2
340
14
 93
        0
 40
0.045
309
GRIDFORMAT_END
 95
       16
302
GRIDFORMAT
  1
GRIDFORMAT_BEGIN
 90
        0
 91
        1
 62
     7
 92
       -2
340
14
 93
        0
 40
0.045
309
GRIDFORMAT_END
 95
       32
302
GRIDFORMAT
  1
GRIDFORMAT_BEGIN
 90
        0
 91
        1
 62
     3
 92
       -2
340
14
 93
        0
 40
0.045
309
GRIDFORMAT_END
309
TABLEFORMAT_END
  1
CELLSTYLE_BEGIN
 90
        2
 91
        1
300
_HEADER
309
CELLSTYLE_END
300
CELLSTYLE
  1
TABLEFORMAT_BEGIN
 90
        5
170
     1
 91
        0
 92
        0
 62
   257
 93
        1
300
CONTENTFORMAT
  1
CONTENTFORMAT_BEGIN
 90
        0
 91
        0
 92
      512
 93
        0
300

 40
0.0
140
1.0
 94
        7
 62
     3
340
11D
144
0.18
309
CONTENTFORMAT_END
171
     1
301
MARGIN
  1
CELLMARGIN_BEGIN
 40
0.5
 40
1.5
 40
0.06
 40
0.06
 40
0.18
 40
0.18
309
CELLMARGIN_END
 94
        6
 95
        1
302
GRIDFORMAT
  1
GRIDFORMAT_BEGIN
 90
        0
 91
        1
 62
     3
 92
       -2
340
14
 93
        0
 40
0.045
309
GRIDFORMAT_END
 95
        2
302
GRIDFORMAT
  1
GRIDFORMAT_BEGIN
 90
        0
 91
        1
 62
     7
 92
       -2
340
14
 93
        0
 40
0.045
309
GRIDFORMAT_END
 95
        4
302
GRIDFORMAT
  1
GRIDFORMAT_BEGIN
 90
        0
 91
        1
 62
     3
 92
       -2
340
14
 93
        0
 40
0.045
309
GRIDFORMAT_END
 95
        8
302
GRIDFORMAT
  1
GRIDFORMAT_BEGIN
 90
        0
 91
        1
 62
     3
 92
       -2
340
14
 93
        0
 40
0.045
309
GRIDFORMAT_END
 95
       16
302
GRIDFORMAT
  1
GRIDFORMAT_BEGIN
 90
        0
 91
        1
 62
     7
 92
       -2
340
14
 93
        0
 40
0.045
309
GRIDFORMAT_END
 95
       32
302
GRIDFORMAT
  1
GRIDFORMAT_BEGIN
 90
        0
 91
        1
 62
     3
 92
       -2
340
14
 93
        0
 40
0.045
309
GRIDFORMAT_END
309
TABLEFORMAT_END
  1
CELLSTYLE_BEGIN
 90
        3
 91
        2
300
_DATA
309
CELLSTYLE_END
  0
XRECORD
  5
199B
102
{ACAD_REACTORS
330
C46
102
}
330
C46
100
AcDbXrecord
280
     1
102
ACAD_ROUNDTRIP_PRE2007_TABLESTYLE
 90
      512
 91
        0
  1

 92
      512
 93
        0
  2

 94
      512
 95
        0
  3

  0
XRECORD
  5
1972
102
{ACAD_REACTORS
330
1971
102
}
330
1971
100
AcDbXrecord
280
     1
102
RTVSPropertyOp0
 70
     1
102
RTVSPropertyOp1
 70
     1
102
RTVSPropertyOp2
 70
     1
102
RTVSPropertyOp3
 70
     1
102
RTVSPropertyOp4
 70
     1
102
RTVSPropertyOp5
 70
     1
102
RTVSPropertyOp6
 70
     1
102
RTVSPropertyOp7
 70
     1
102
RTVSPropertyOp8
 70
     1
102
RTVSPropertyOp9
 70
     1
102
RTVSPropertyOp10
 70
     1
102
RTVSPropertyOp11
 70
     1
102
RTVSPropertyOp12
 70
     1
102
RTVSPropertyOp13
 70
     1
102
RTVSPropertyOp14
 70
     1
102
RTVSPropertyOp15
 70
     1
102
RTVSPropertyOp16
 70
     1
102
RTVSPropertyOp17
 70
     1
102
RTVSPropertyOp18
 70
     1
102
RTVSPropertyOp19
 70
     1
102
RTVSPropertyOp20
 70
     1
102
RTVSPropertyOp21
 70
     1
102
RTVSPropertyOp22
 70
     1
102
RTVSPropertyOp23
 70
     1
102
RTVSPropertyOp24
 70
     1
102
RTVSPropertyOp25
 70
     1
102
RTVSPropertyOp26
 70
     1
102
RTVSPropertyOp27
 70
     1
102
RTVSPropertyOp28
 70
     1
102
RTVSPropertyOp29
 70
     1
102
RTVSPropertyOp30
 70
     1
102
RTVSPropertyOp31
 70
     1
102
RTVSPropertyOp32
 70
     1
  0
XRECORD
  5
1976
102
{ACAD_REACTORS
330
1975
102
}
330
1975
100
AcDbXrecord
280
     1
102
RTVSPropertyOp0
 70
     1
102
RTVSPropertyOp1
 70
     1
102
RTVSPropertyOp2
 70
     1
102
RTVSPropertyOp3
 70
     1
102
RTVSPropertyOp4
 70
     1
102
RTVSPropertyOp5
 70
     1
102
RTVSPropertyOp6
 70
     1
102
RTVSPropertyOp7
 70
     1
102
RTVSPropertyOp8
 70
     1
102
RTVSPropertyOp9
 70
     1
102
RTVSPropertyOp10
 70
     1
102
RTVSPropertyOp11
 70
     1
102
RTVSPropertyOp12
 70
     1
102
RTVSPropertyOp13
 70
     1
102
RTVSPropertyOp14
 70
     1
102
RTVSPropertyOp15
 70
     1
102
RTVSPropertyOp16
 70
     1
102
RTVSPropertyOp17
 70
     1
102
RTVSPropertyOp18
 70
     1
102
RTVSPropertyOp19
 70
     1
102
RTVSPropertyOp20
 70
     1
102
RTVSPropertyOp21
 70
     1
102
RTVSPropertyOp22
 70
     1
102
RTVSPropertyOp23
 70
     1
102
RTVSPropertyOp24
 70
     1
102
RTVSPropertyOp25
 70
     1
102
RTVSPropertyOp26
 70
     1
102
RTVSPropertyOp27
 70
     1
102
RTVSPropertyOp28
 70
     1
102
RTVSPropertyOp29
 70
     1
102
RTVSPropertyOp30
 70
     1
102
RTVSPropertyOp31
 70
     1
102
RTVSPropertyOp32
 70
     1
  0
XRECORD
  5
1974
102
{ACAD_REACTORS
330
1973
102
}
330
1973
100
AcDbXrecord
280
     1
102
RTVSPropertyOp0
 70
     1
102
RTVSPropertyOp1
 70
     1
102
RTVSPropertyOp2
 70
     1
102
RTVSPropertyOp3
 70
     1
102
RTVSPropertyOp4
 70
     1
102
RTVSPropertyOp5
 70
     1
102
RTVSPropertyOp6
 70
     1
102
RTVSPropertyOp7
 70
     1
102
RTVSPropertyOp8
 70
     1
102
RTVSPropertyOp9
 70
     1
102
RTVSPropertyOp10
 70
     1
102
RTVSPropertyOp11
 70
     1
102
RTVSPropertyOp12
 70
     1
102
RTVSPropertyOp13
 70
     1
102
RTVSPropertyOp14
 70
     1
102
RTVSPropertyOp15
 70
     1
102
RTVSPropertyOp16
 70
     1
102
RTVSPropertyOp17
 70
     1
102
RTVSPropertyOp18
 70
     1
102
RTVSPropertyOp19
 70
     1
102
RTVSPropertyOp20
 70
     1
102
RTVSPropertyOp21
 70
     1
102
RTVSPropertyOp22
 70
     1
102
RTVSPropertyOp23
 70
     1
102
RTVSPropertyOp24
 70
     1
102
RTVSPropertyOp25
 70
     1
102
RTVSPropertyOp26
 70
     1
102
RTVSPropertyOp27
 70
     1
102
RTVSPropertyOp28
 70
     1
102
RTVSPropertyOp29
 70
     1
102
RTVSPropertyOp30
 70
     1
102
RTVSPropertyOp31
 70
     1
102
RTVSPropertyOp32
 70
     1
  0
XRECORD
  5
1970
102
{ACAD_REACTORS
330
196F
102
}
330
196F
100
AcDbXrecord
280
     1
102
RTVSPropertyOp0
 70
     1
102
RTVSPropertyOp1
 70
     1
102
RTVSPropertyOp2
 70
     1
102
RTVSPropertyOp3
 70
     1
102
RTVSPropertyOp4
 70
     1
102
RTVSPropertyOp5
 70
     1
102
RTVSPropertyOp6
 70
     1
102
RTVSPropertyOp7
 70
     1
102
RTVSPropertyOp8
 70
     1
102
RTVSPropertyOp9
 70
     1
102
RTVSPropertyOp10
 70
     1
102
RTVSPropertyOp11
 70
     1
102
RTVSPropertyOp12
 70
     1
102
RTVSPropertyOp13
 70
     1
102
RTVSPropertyOp14
 70
     1
102
RTVSPropertyOp15
 70
     1
102
RTVSPropertyOp16
 70
     1
102
RTVSPropertyOp17
 70
     1
102
RTVSPropertyOp18
 70
     1
102
RTVSPropertyOp19
 70
     1
102
RTVSPropertyOp20
 70
     1
102
RTVSPropertyOp21
 70
     1
102
RTVSPropertyOp22
 70
     1
102
RTVSPropertyOp23
 70
     1
102
RTVSPropertyOp24
 70
     1
102
RTVSPropertyOp25
 70
     1
102
RTVSPropertyOp26
 70
     1
102
RTVSPropertyOp27
 70
     1
102
RTVSPropertyOp28
 70
     1
102
RTVSPropertyOp29
 70
     1
102
RTVSPropertyOp30
 70
     1
102
RTVSPropertyOp31
 70
     1
102
RTVSPropertyOp32
 70
     1
  0
XRECORD
  5
197E
102
{ACAD_REACTORS
330
197D
102
}
330
197D
100
AcDbXrecord
280
     1
102
RTVSPropertyOp0
 70
     1
102
RTVSPropertyOp1
 70
     1
102
RTVSPropertyOp2
 70
     1
102
RTVSPropertyOp3
 70
     1
102
RTVSPropertyOp4
 70
     1
102
RTVSPropertyOp5
 70
     1
102
RTVSPropertyOp6
 70
     1
102
RTVSPropertyOp7
 70
     1
102
RTVSPropertyOp8
 70
     1
102
RTVSPropertyOp9
 70
     1
102
RTVSPropertyOp10
 70
     1
102
RTVSPropertyOp11
 70
     1
102
RTVSPropertyOp12
 70
     1
102
RTVSPropertyOp13
 70
     1
102
RTVSPropertyOp14
 70
     1
102
RTVSPropertyOp15
 70
     1
102
RTVSPropertyOp16
 70
     1
102
RTVSPropertyOp17
 70
     1
102
RTVSPropertyOp18
 70
     1
102
RTVSPropertyOp19
 70
     1
102
RTVSPropertyOp20
 70
     1
102
RTVSPropertyOp21
 70
     1
102
RTVSPropertyOp22
 70
     1
102
RTVSPropertyOp23
 70
     1
102
RTVSPropertyOp24
 70
     1
102
RTVSPropertyOp25
 70
     1
102
RTVSPropertyOp26
 70
     1
102
RTVSPropertyOp27
 70
     1
102
RTVSPropertyOp28
 70
     1
102
RTVSPropertyOp29
 70
     1
102
RTVSPropertyOp30
 70
     1
102
RTVSPropertyOp31
 70
     1
102
RTVSPropertyOp32
 70
     1
  0
XRECORD
  5
1986
102
{ACAD_REACTORS
330
1985
102
}
330
1985
100
AcDbXrecord
280
     1
102
RTVSPropertyOp0
 70
     1
102
RTVSPropertyOp1
 70
     1
102
RTVSPropertyOp2
 70
     1
102
RTVSPropertyOp3
 70
     1
102
RTVSPropertyOp4
 70
     1
102
RTVSPropertyOp5
 70
     1
102
RTVSPropertyOp6
 70
     1
102
RTVSPropertyOp7
 70
     1
102
RTVSPropertyOp8
 70
     1
102
RTVSPropertyOp9
 70
     1
102
RTVSPropertyOp10
 70
     1
102
RTVSPropertyOp11
 70
     1
102
RTVSPropertyOp12
 70
     1
102
RTVSPropertyOp13
 70
     1
102
RTVSPropertyOp14
 70
     1
102
RTVSPropertyOp15
 70
     1
102
RTVSPropertyOp16
 70
     1
102
RTVSPropertyOp17
 70
     1
102
RTVSPropertyOp18
 70
     1
102
RTVSPropertyOp19
 70
     1
102
RTVSPropertyOp20
 70
     1
102
RTVSPropertyOp21
 70
     1
102
RTVSPropertyOp22
 70
     1
102
RTVSPropertyOp23
 70
     1
102
RTVSPropertyOp24
 70
     1
102
RTVSPropertyOp25
 70
     1
102
RTVSPropertyOp26
 70
     1
102
RTVSPropertyOp27
 70
     1
102
RTVSPropertyOp28
 70
     1
102
RTVSPropertyOp29
 70
     1
102
RTVSPropertyOp30
 70
     1
102
RTVSPropertyOp31
 70
     1
102
RTVSPropertyOp32
 70
     1
  0
XRECORD
  5
1978
102
{ACAD_REACTORS
330
1977
102
}
330
1977
100
AcDbXrecord
280
     1
102
RTVSPropertyOp0
 70
     1
102
RTVSPropertyOp1
 70
     1
102
RTVSPropertyOp2
 70
     1
102
RTVSPropertyOp3
 70
     1
102
RTVSPropertyOp4
 70
     1
102
RTVSPropertyOp5
 70
     1
102
RTVSPropertyOp6
 70
     1
102
RTVSPropertyOp7
 70
     1
102
RTVSPropertyOp8
 70
     1
102
RTVSPropertyOp9
 70
     1
102
RTVSPropertyOp10
 70
     1
102
RTVSPropertyOp11
 70
     1
102
RTVSPropertyOp12
 70
     1
102
RTVSPropertyOp13
 70
     1
102
RTVSPropertyOp14
 70
     1
102
RTVSPropertyOp15
 70
     1
102
RTVSPropertyOp16
 70
     1
102
RTVSPropertyOp17
 70
     1
102
RTVSPropertyOp18
 70
     1
102
RTVSPropertyOp19
 70
     1
102
RTVSPropertyOp20
 70
     1
102
RTVSPropertyOp21
 70
     1
102
RTVSPropertyOp22
 70
     1
102
RTVSPropertyOp23
 70
     1
102
RTVSPropertyOp24
 70
     1
102
RTVSPropertyOp25
 70
     1
102
RTVSPropertyOp26
 70
     1
102
RTVSPropertyOp27
 70
     1
102
RTVSPropertyOp28
 70
     1
102
RTVSPropertyOp29
 70
     1
102
RTVSPropertyOp30
 70
     1
102
RTVSPropertyOp31
 70
     1
102
RTVSPropertyOp32
 70
     1
  0
XRECORD
  5
197C
102
{ACAD_REACTORS
330
197B
102
}
330
197B
100
AcDbXrecord
280
     1
102
RTVSPropertyOp0
 70
     1
102
RTVSPropertyOp1
 70
     1
102
RTVSPropertyOp2
 70
     1
102
RTVSPropertyOp3
 70
     1
102
RTVSPropertyOp4
 70
     1
102
RTVSPropertyOp5
 70
     1
102
RTVSPropertyOp6
 70
     1
102
RTVSPropertyOp7
 70
     1
102
RTVSPropertyOp8
 70
     1
102
RTVSPropertyOp9
 70
     1
102
RTVSPropertyOp10
 70
     1
102
RTVSPropertyOp11
 70
     1
102
RTVSPropertyOp12
 70
     1
102
RTVSPropertyOp13
 70
     1
102
RTVSPropertyOp14
 70
     1
102
RTVSPropertyOp15
 70
     1
102
RTVSPropertyOp16
 70
     1
102
RTVSPropertyOp17
 70
     1
102
RTVSPropertyOp18
 70
     1
102
RTVSPropertyOp19
 70
     1
102
RTVSPropertyOp20
 70
     1
102
RTVSPropertyOp21
 70
     1
102
RTVSPropertyOp22
 70
     1
102
RTVSPropertyOp23
 70
     1
102
RTVSPropertyOp24
 70
     1
102
RTVSPropertyOp25
 70
     1
102
RTVSPropertyOp26
 70
     1
102
RTVSPropertyOp27
 70
     1
102
RTVSPropertyOp28
 70
     1
102
RTVSPropertyOp29
 70
     1
102
RTVSPropertyOp30
 70
     1
102
RTVSPropertyOp31
 70
     1
102
RTVSPropertyOp32
 70
     1
  0
XRECORD
  5
199A
102
{ACAD_REACTORS
330
1999
102
}
330
1999
100
AcDbXrecord
280
     1
102
RTVSPropertyOp0
 70
     0
102
RTVSPropertyOp1
 70
     0
102
RTVSPropertyOp2
 70
     0
102
RTVSPropertyOp3
 70
     0
102
RTVSPropertyOp4
 70
     0
102
RTVSPropertyOp5
 70
     0
102
RTVSPropertyOp6
 70
     0
102
RTVSPropertyOp7
 70
     0
102
RTVSPropertyOp8
 70
     0
102
RTVSPropertyOp9
 70
     0
102
RTVSPropertyOp10
 70
     0
102
RTVSPropertyOp11
 70
     0
102
RTVSPropertyOp12
 70
     0
102
RTVSPropertyOp13
 70
     0
102
RTVSPropertyOp14
 70
     2
102
RTVSPropertyOp15
 70
     0
102
RTVSPropertyOp16
 70
     0
102
RTVSPropertyOp17
 70
     0
102
RTVSPropertyOp18
 70
     0
102
RTVSPropertyOp19
 70
     0
102
RTVSPropertyOp20
 70
     0
102
RTVSPropertyOp21
 70
     0
102
RTVSPropertyOp22
 70
     0
102
RTVSPropertyOp23
 70
     0
102
RTVSPropertyOp24
 70
     0
102
RTVSPropertyOp25
 70
     0
102
RTVSPropertyOp26
 70
     0
102
RTVSPropertyOp27
 70
     0
102
RTVSPropertyOp28
 70
     1
102
RTVSPropertyOp29
 70
     1
102
RTVSPropertyOp30
 70
     1
102
RTVSPropertyOp31
 70
     1
102
RTVSPropertyOp32
 70
     1
  0
XRECORD
  5
1984
102
{ACAD_REACTORS
330
1983
102
}
330
1983
100
AcDbXrecord
280
     1
102
RTVSPropertyOp0
 70
     1
102
RTVSPropertyOp1
 70
     1
102
RTVSPropertyOp2
 70
     1
102
RTVSPropertyOp3
 70
     1
102
RTVSPropertyOp4
 70
     1
102
RTVSPropertyOp5
 70
     1
102
RTVSPropertyOp6
 70
     1
102
RTVSPropertyOp7
 70
     1
102
RTVSPropertyOp8
 70
     1
102
RTVSPropertyOp9
 70
     1
102
RTVSPropertyOp10
 70
     1
102
RTVSPropertyOp11
 70
     1
102
RTVSPropertyOp12
 70
     1
102
RTVSPropertyOp13
 70
     1
102
RTVSPropertyOp14
 70
     1
102
RTVSPropertyOp15
 70
     1
102
RTVSPropertyOp16
 70
     1
102
RTVSPropertyOp17
 70
     1
102
RTVSPropertyOp18
 70
     1
102
RTVSPropertyOp19
 70
     1
102
RTVSPropertyOp20
 70
     1
102
RTVSPropertyOp21
 70
     1
102
RTVSPropertyOp22
 70
     1
102
RTVSPropertyOp23
 70
     1
102
RTVSPropertyOp24
 70
     1
102
RTVSPropertyOp25
 70
     1
102
RTVSPropertyOp26
 70
     1
102
RTVSPropertyOp27
 70
     1
102
RTVSPropertyOp28
 70
     1
102
RTVSPropertyOp29
 70
     1
102
RTVSPropertyOp30
 70
     1
102
RTVSPropertyOp31
 70
     1
102
RTVSPropertyOp32
 70
     1
  0
XRECORD
  5
1968
102
{ACAD_REACTORS
330
1967
102
}
330
1967
100
AcDbXrecord
280
     1
102
RTVSPropertyOp0
 70
     1
102
RTVSPropertyOp1
 70
     1
102
RTVSPropertyOp2
 70
     1
102
RTVSPropertyOp3
 70
     1
102
RTVSPropertyOp4
 70
     1
102
RTVSPropertyOp5
 70
     1
102
RTVSPropertyOp6
 70
     1
102
RTVSPropertyOp7
 70
     1
102
RTVSPropertyOp8
 70
     1
102
RTVSPropertyOp9
 70
     1
102
RTVSPropertyOp10
 70
     1
102
RTVSPropertyOp11
 70
     1
102
RTVSPropertyOp12
 70
     1
102
RTVSPropertyOp13
 70
     1
102
RTVSPropertyOp14
 70
     1
102
RTVSPropertyOp15
 70
     1
102
RTVSPropertyOp16
 70
     1
102
RTVSPropertyOp17
 70
     1
102
RTVSPropertyOp18
 70
     1
102
RTVSPropertyOp19
 70
     1
102
RTVSPropertyOp20
 70
     1
102
RTVSPropertyOp21
 70
     1
102
RTVSPropertyOp22
 70
     1
102
RTVSPropertyOp23
 70
     1
102
RTVSPropertyOp24
 70
     1
102
RTVSPropertyOp25
 70
     1
102
RTVSPropertyOp26
 70
     1
102
RTVSPropertyOp27
 70
     1
102
RTVSPropertyOp28
 70
     1
102
RTVSPropertyOp29
 70
     1
102
RTVSPropertyOp30
 70
     1
102
RTVSPropertyOp31
 70
     1
102
RTVSPropertyOp32
 70
     1
  0
XRECORD
  5
196A
102
{ACAD_REACTORS
330
1969
102
}
330
1969
100
AcDbXrecord
280
     1
102
RTVSPropertyOp0
 70
     1
102
RTVSPropertyOp1
 70
     1
102
RTVSPropertyOp2
 70
     1
102
RTVSPropertyOp3
 70
     1
102
RTVSPropertyOp4
 70
     1
102
RTVSPropertyOp5
 70
     1
102
RTVSPropertyOp6
 70
     1
102
RTVSPropertyOp7
 70
     1
102
RTVSPropertyOp8
 70
     1
102
RTVSPropertyOp9
 70
     1
102
RTVSPropertyOp10
 70
     1
102
RTVSPropertyOp11
 70
     1
102
RTVSPropertyOp12
 70
     1
102
RTVSPropertyOp13
 70
     1
102
RTVSPropertyOp14
 70
     1
102
RTVSPropertyOp15
 70
     1
102
RTVSPropertyOp16
 70
     1
102
RTVSPropertyOp17
 70
     1
102
RTVSPropertyOp18
 70
     1
102
RTVSPropertyOp19
 70
     1
102
RTVSPropertyOp20
 70
     1
102
RTVSPropertyOp21
 70
     1
102
RTVSPropertyOp22
 70
     1
102
RTVSPropertyOp23
 70
     1
102
RTVSPropertyOp24
 70
     1
102
RTVSPropertyOp25
 70
     1
102
RTVSPropertyOp26
 70
     1
102
RTVSPropertyOp27
 70
     1
102
RTVSPropertyOp28
 70
     1
102
RTVSPropertyOp29
 70
     1
102
RTVSPropertyOp30
 70
     1
102
RTVSPropertyOp31
 70
     1
102
RTVSPropertyOp32
 70
     1
  0
XRECORD
  5
196C
102
{ACAD_REACTORS
330
196B
102
}
330
196B
100
AcDbXrecord
280
     1
102
RTVSPropertyOp0
 70
     1
102
RTVSPropertyOp1
 70
     1
102
RTVSPropertyOp2
 70
     1
102
RTVSPropertyOp3
 70
     1
102
RTVSPropertyOp4
 70
     1
102
RTVSPropertyOp5
 70
     1
102
RTVSPropertyOp6
 70
     1
102
RTVSPropertyOp7
 70
     1
102
RTVSPropertyOp8
 70
     1
102
RTVSPropertyOp9
 70
     1
102
RTVSPropertyOp10
 70
     1
102
RTVSPropertyOp11
 70
     1
102
RTVSPropertyOp12
 70
     1
102
RTVSPropertyOp13
 70
     1
102
RTVSPropertyOp14
 70
     1
102
RTVSPropertyOp15
 70
     1
102
RTVSPropertyOp16
 70
     1
102
RTVSPropertyOp17
 70
     1
102
RTVSPropertyOp18
 70
     1
102
RTVSPropertyOp19
 70
     1
102
RTVSPropertyOp20
 70
     1
102
RTVSPropertyOp21
 70
     1
102
RTVSPropertyOp22
 70
     1
102
RTVSPropertyOp23
 70
     1
102
RTVSPropertyOp24
 70
     1
102
RTVSPropertyOp25
 70
     1
102
RTVSPropertyOp26
 70
     1
102
RTVSPropertyOp27
 70
     1
102
RTVSPropertyOp28
 70
     1
102
RTVSPropertyOp29
 70
     1
102
RTVSPropertyOp30
 70
     1
102
RTVSPropertyOp31
 70
     1
102
RTVSPropertyOp32
 70
     1
  0
XRECORD
  5
196E
102
{ACAD_REACTORS
330
196D
102
}
330
196D
100
AcDbXrecord
280
     1
102
RTVSPropertyOp0
 70
     1
102
RTVSPropertyOp1
 70
     1
102
RTVSPropertyOp2
 70
     1
102
RTVSPropertyOp3
 70
     1
102
RTVSPropertyOp4
 70
     1
102
RTVSPropertyOp5
 70
     1
102
RTVSPropertyOp6
 70
     1
102
RTVSPropertyOp7
 70
     1
102
RTVSPropertyOp8
 70
     1
102
RTVSPropertyOp9
 70
     1
102
RTVSPropertyOp10
 70
     1
102
RTVSPropertyOp11
 70
     1
102
RTVSPropertyOp12
 70
     1
102
RTVSPropertyOp13
 70
     1
102
RTVSPropertyOp14
 70
     1
102
RTVSPropertyOp15
 70
     1
102
RTVSPropertyOp16
 70
     1
102
RTVSPropertyOp17
 70
     1
102
RTVSPropertyOp18
 70
     1
102
RTVSPropertyOp19
 70
     1
102
RTVSPropertyOp20
 70
     1
102
RTVSPropertyOp21
 70
     1
102
RTVSPropertyOp22
 70
     1
102
RTVSPropertyOp23
 70
     1
102
RTVSPropertyOp24
 70
     1
102
RTVSPropertyOp25
 70
     1
102
RTVSPropertyOp26
 70
     1
102
RTVSPropertyOp27
 70
     1
102
RTVSPropertyOp28
 70
     1
102
RTVSPropertyOp29
 70
     1
102
RTVSPropertyOp30
 70
     1
102
RTVSPropertyOp31
 70
     1
102
RTVSPropertyOp32
 70
     1
  0
XRECORD
  5
198A
102
{ACAD_REACTORS
330
1989
102
}
330
1989
100
AcDbXrecord
280
     1
102
RTVSPropertyOp0
 70
     1
102
RTVSPropertyOp1
 70
     1
102
RTVSPropertyOp2
 70
     1
102
RTVSPropertyOp3
 70
     1
102
RTVSPropertyOp4
 70
     1
102
RTVSPropertyOp5
 70
     1
102
RTVSPropertyOp6
 70
     1
102
RTVSPropertyOp7
 70
     1
102
RTVSPropertyOp8
 70
     1
102
RTVSPropertyOp9
 70
     1
102
RTVSPropertyOp10
 70
     1
102
RTVSPropertyOp11
 70
     1
102
RTVSPropertyOp12
 70
     1
102
RTVSPropertyOp13
 70
     1
102
RTVSPropertyOp14
 70
     1
102
RTVSPropertyOp15
 70
     1
102
RTVSPropertyOp16
 70
     1
102
RTVSPropertyOp17
 70
     1
102
RTVSPropertyOp18
 70
     1
102
RTVSPropertyOp19
 70
     1
102
RTVSPropertyOp20
 70
     1
102
RTVSPropertyOp21
 70
     1
102
RTVSPropertyOp22
 70
     1
102
RTVSPropertyOp23
 70
     1
102
RTVSPropertyOp24
 70
     1
102
RTVSPropertyOp25
 70
     1
102
RTVSPropertyOp26
 70
     1
102
RTVSPropertyOp27
 70
     1
102
RTVSPropertyOp28
 70
     1
102
RTVSPropertyOp29
 70
     1
102
RTVSPropertyOp30
 70
     1
102
RTVSPropertyOp31
 70
     1
102
RTVSPropertyOp32
 70
     1
  0
XRECORD
  5
1996
102
{ACAD_REACTORS
330
1995
102
}
330
1995
100
AcDbXrecord
280
     1
102
RTVSPropertyOp0
 70
     0
102
RTVSPropertyOp1
 70
     0
102
RTVSPropertyOp2
 70
     0
102
RTVSPropertyOp3
 70
     0
102
RTVSPropertyOp4
 70
     0
102
RTVSPropertyOp5
 70
     0
102
RTVSPropertyOp6
 70
     0
102
RTVSPropertyOp7
 70
     0
102
RTVSPropertyOp8
 70
     0
102
RTVSPropertyOp9
 70
     0
102
RTVSPropertyOp10
 70
     0
102
RTVSPropertyOp11
 70
     0
102
RTVSPropertyOp12
 70
     0
102
RTVSPropertyOp13
 70
     0
102
RTVSPropertyOp14
 70
     2
102
RTVSPropertyOp15
 70
     0
102
RTVSPropertyOp16
 70
     0
102
RTVSPropertyOp17
 70
     0
102
RTVSPropertyOp18
 70
     0
102
RTVSPropertyOp19
 70
     0
102
RTVSPropertyOp20
 70
     0
102
RTVSPropertyOp21
 70
     0
102
RTVSPropertyOp22
 70
     0
102
RTVSPropertyOp23
 70
     0
102
RTVSPropertyOp24
 70
     0
102
RTVSPropertyOp25
 70
     0
102
RTVSPropertyOp26
 70
     0
102
RTVSPropertyOp27
 70
     0
102
RTVSPropertyOp28
 70
     1
102
RTVSPropertyOp29
 70
     1
102
RTVSPropertyOp30
 70
     1
102
RTVSPropertyOp31
 70
     1
102
RTVSPropertyOp32
 70
     1
  0
XRECORD
  5
1982
102
{ACAD_REACTORS
330
1981
102
}
330
1981
100
AcDbXrecord
280
     1
102
RTVSPropertyOp0
 70
     1
102
RTVSPropertyOp1
 70
     1
102
RTVSPropertyOp2
 70
     1
102
RTVSPropertyOp3
 70
     1
102
RTVSPropertyOp4
 70
     1
102
RTVSPropertyOp5
 70
     1
102
RTVSPropertyOp6
 70
     1
102
RTVSPropertyOp7
 70
     1
102
RTVSPropertyOp8
 70
     1
102
RTVSPropertyOp9
 70
     1
102
RTVSPropertyOp10
 70
     1
102
RTVSPropertyOp11
 70
     1
102
RTVSPropertyOp12
 70
     1
102
RTVSPropertyOp13
 70
     1
102
RTVSPropertyOp14
 70
     1
102
RTVSPropertyOp15
 70
     1
102
RTVSPropertyOp16
 70
     1
102
RTVSPropertyOp17
 70
     1
102
RTVSPropertyOp18
 70
     1
102
RTVSPropertyOp19
 70
     1
102
RTVSPropertyOp20
 70
     1
102
RTVSPropertyOp21
 70
     1
102
RTVSPropertyOp22
 70
     1
102
RTVSPropertyOp23
 70
     1
102
RTVSPropertyOp24
 70
     1
102
RTVSPropertyOp25
 70
     1
102
RTVSPropertyOp26
 70
     1
102
RTVSPropertyOp27
 70
     1
102
RTVSPropertyOp28
 70
     1
102
RTVSPropertyOp29
 70
     1
102
RTVSPropertyOp30
 70
     1
102
RTVSPropertyOp31
 70
     1
102
RTVSPropertyOp32
 70
     1
  0
XRECORD
  5
1998
102
{ACAD_REACTORS
330
1997
102
}
330
1997
100
AcDbXrecord
280
     1
102
RTVSPropertyOp0
 70
     0
102
RTVSPropertyOp1
 70
     0
102
RTVSPropertyOp2
 70
     0
102
RTVSPropertyOp3
 70
     0
102
RTVSPropertyOp4
 70
     0
102
RTVSPropertyOp5
 70
     0
102
RTVSPropertyOp6
 70
     0
102
RTVSPropertyOp7
 70
     0
102
RTVSPropertyOp8
 70
     0
102
RTVSPropertyOp9
 70
     0
102
RTVSPropertyOp10
 70
     0
102
RTVSPropertyOp11
 70
     0
102
RTVSPropertyOp12
 70
     0
102
RTVSPropertyOp13
 70
     0
102
RTVSPropertyOp14
 70
     2
102
RTVSPropertyOp15
 70
     0
102
RTVSPropertyOp16
 70
     0
102
RTVSPropertyOp17
 70
     0
102
RTVSPropertyOp18
 70
     0
102
RTVSPropertyOp19
 70
     0
102
RTVSPropertyOp20
 70
     0
102
RTVSPropertyOp21
 70
     0
102
RTVSPropertyOp22
 70
     0
102
RTVSPropertyOp23
 70
     0
102
RTVSPropertyOp24
 70
     0
102
RTVSPropertyOp25
 70
     0
102
RTVSPropertyOp26
 70
     0
102
RTVSPropertyOp27
 70
     0
102
RTVSPropertyOp28
 70
     1
102
RTVSPropertyOp29
 70
     1
102
RTVSPropertyOp30
 70
     1
102
RTVSPropertyOp31
 70
     1
102
RTVSPropertyOp32
 70
     1
  0
XRECORD
  5
197A
102
{ACAD_REACTORS
330
1979
102
}
330
1979
100
AcDbXrecord
280
     1
102
RTVSPropertyOp0
 70
     1
102
RTVSPropertyOp1
 70
     1
102
RTVSPropertyOp2
 70
     1
102
RTVSPropertyOp3
 70
     1
102
RTVSPropertyOp4
 70
     1
102
RTVSPropertyOp5
 70
     1
102
RTVSPropertyOp6
 70
     1
102
RTVSPropertyOp7
 70
     1
102
RTVSPropertyOp8
 70
     1
102
RTVSPropertyOp9
 70
     1
102
RTVSPropertyOp10
 70
     1
102
RTVSPropertyOp11
 70
     1
102
RTVSPropertyOp12
 70
     1
102
RTVSPropertyOp13
 70
     1
102
RTVSPropertyOp14
 70
     1
102
RTVSPropertyOp15
 70
     1
102
RTVSPropertyOp16
 70
     1
102
RTVSPropertyOp17
 70
     1
102
RTVSPropertyOp18
 70
     1
102
RTVSPropertyOp19
 70
     1
102
RTVSPropertyOp20
 70
     1
102
RTVSPropertyOp21
 70
     1
102
RTVSPropertyOp22
 70
     1
102
RTVSPropertyOp23
 70
     1
102
RTVSPropertyOp24
 70
     1
102
RTVSPropertyOp25
 70
     1
102
RTVSPropertyOp26
 70
     1
102
RTVSPropertyOp27
 70
     1
102
RTVSPropertyOp28
 70
     1
102
RTVSPropertyOp29
 70
     1
102
RTVSPropertyOp30
 70
     1
102
RTVSPropertyOp31
 70
     1
102
RTVSPropertyOp32
 70
     1
  0
XRECORD
  5
1994
102
{ACAD_REACTORS
330
1993
102
}
330
1993
100
AcDbXrecord
280
     1
102
RTVSPropertyOp0
 70
     1
102
RTVSPropertyOp1
 70
     1
102
RTVSPropertyOp2
 70
     1
102
RTVSPropertyOp3
 70
     1
102
RTVSPropertyOp4
 70
     1
102
RTVSPropertyOp5
 70
     1
102
RTVSPropertyOp6
 70
     1
102
RTVSPropertyOp7
 70
     1
102
RTVSPropertyOp8
 70
     1
102
RTVSPropertyOp9
 70
     1
102
RTVSPropertyOp10
 70
     1
102
RTVSPropertyOp11
 70
     1
102
RTVSPropertyOp12
 70
     1
102
RTVSPropertyOp13
 70
     1
102
RTVSPropertyOp14
 70
     1
102
RTVSPropertyOp15
 70
     1
102
RTVSPropertyOp16
 70
     1
102
RTVSPropertyOp17
 70
     1
102
RTVSPropertyOp18
 70
     1
102
RTVSPropertyOp19
 70
     1
102
RTVSPropertyOp20
 70
     1
102
RTVSPropertyOp21
 70
     1
102
RTVSPropertyOp22
 70
     1
102
RTVSPropertyOp23
 70
     1
102
RTVSPropertyOp24
 70
     1
102
RTVSPropertyOp25
 70
     1
102
RTVSPropertyOp26
 70
     1
102
RTVSPropertyOp27
 70
     1
102
RTVSPropertyOp28
 70
     1
102
RTVSPropertyOp29
 70
     1
102
RTVSPropertyOp30
 70
     1
102
RTVSPropertyOp31
 70
     1
102
RTVSPropertyOp32
 70
     1
  0
XRECORD
  5
1992
102
{ACAD_REACTORS
330
1991
102
}
330
1991
100
AcDbXrecord
280
     1
102
RTVSPropertyOp0
 70
     1
102
RTVSPropertyOp1
 70
     1
102
RTVSPropertyOp2
 70
     1
102
RTVSPropertyOp3
 70
     1
102
RTVSPropertyOp4
 70
     1
102
RTVSPropertyOp5
 70
     1
102
RTVSPropertyOp6
 70
     1
102
RTVSPropertyOp7
 70
     1
102
RTVSPropertyOp8
 70
     1
102
RTVSPropertyOp9
 70
     1
102
RTVSPropertyOp10
 70
     1
102
RTVSPropertyOp11
 70
     1
102
RTVSPropertyOp12
 70
     1
102
RTVSPropertyOp13
 70
     1
102
RTVSPropertyOp14
 70
     1
102
RTVSPropertyOp15
 70
     1
102
RTVSPropertyOp16
 70
     1
102
RTVSPropertyOp17
 70
     1
102
RTVSPropertyOp18
 70
     1
102
RTVSPropertyOp19
 70
     1
102
RTVSPropertyOp20
 70
     1
102
RTVSPropertyOp21
 70
     1
102
RTVSPropertyOp22
 70
     1
102
RTVSPropertyOp23
 70
     1
102
RTVSPropertyOp24
 70
     1
102
RTVSPropertyOp25
 70
     1
102
RTVSPropertyOp26
 70
     1
102
RTVSPropertyOp27
 70
     1
102
RTVSPropertyOp28
 70
     1
102
RTVSPropertyOp29
 70
     1
102
RTVSPropertyOp30
 70
     1
102
RTVSPropertyOp31
 70
     1
102
RTVSPropertyOp32
 70
     1
  0
XRECORD
  5
198C
102
{ACAD_REACTORS
330
198B
102
}
330
198B
100
AcDbXrecord
280
     1
102
RTVSPropertyOp0
 70
     1
102
RTVSPropertyOp1
 70
     1
102
RTVSPropertyOp2
 70
     1
102
RTVSPropertyOp3
 70
     1
102
RTVSPropertyOp4
 70
     1
102
RTVSPropertyOp5
 70
     1
102
RTVSPropertyOp6
 70
     1
102
RTVSPropertyOp7
 70
     1
102
RTVSPropertyOp8
 70
     1
102
RTVSPropertyOp9
 70
     1
102
RTVSPropertyOp10
 70
     1
102
RTVSPropertyOp11
 70
     1
102
RTVSPropertyOp12
 70
     1
102
RTVSPropertyOp13
 70
     1
102
RTVSPropertyOp14
 70
     1
102
RTVSPropertyOp15
 70
     1
102
RTVSPropertyOp16
 70
     1
102
RTVSPropertyOp17
 70
     1
102
RTVSPropertyOp18
 70
     1
102
RTVSPropertyOp19
 70
     1
102
RTVSPropertyOp20
 70
     1
102
RTVSPropertyOp21
 70
     1
102
RTVSPropertyOp22
 70
     1
102
RTVSPropertyOp23
 70
     1
102
RTVSPropertyOp24
 70
     1
102
RTVSPropertyOp25
 70
     1
102
RTVSPropertyOp26
 70
     1
102
RTVSPropertyOp27
 70
     1
102
RTVSPropertyOp28
 70
     1
102
RTVSPropertyOp29
 70
     1
102
RTVSPropertyOp30
 70
     1
102
RTVSPropertyOp31
 70
     1
102
RTVSPropertyOp32
 70
     1
  0
XRECORD
  5
198E
102
{ACAD_REACTORS
330
198D
102
}
330
198D
100
AcDbXrecord
280
     1
102
RTVSPropertyOp0
 70
     1
102
RTVSPropertyOp1
 70
     1
102
RTVSPropertyOp2
 70
     1
102
RTVSPropertyOp3
 70
     1
102
RTVSPropertyOp4
 70
     1
102
RTVSPropertyOp5
 70
     1
102
RTVSPropertyOp6
 70
     1
102
RTVSPropertyOp7
 70
     1
102
RTVSPropertyOp8
 70
     1
102
RTVSPropertyOp9
 70
     1
102
RTVSPropertyOp10
 70
     1
102
RTVSPropertyOp11
 70
     1
102
RTVSPropertyOp12
 70
     1
102
RTVSPropertyOp13
 70
     1
102
RTVSPropertyOp14
 70
     1
102
RTVSPropertyOp15
 70
     1
102
RTVSPropertyOp16
 70
     1
102
RTVSPropertyOp17
 70
     1
102
RTVSPropertyOp18
 70
     1
102
RTVSPropertyOp19
 70
     1
102
RTVSPropertyOp20
 70
     1
102
RTVSPropertyOp21
 70
     1
102
RTVSPropertyOp22
 70
     1
102
RTVSPropertyOp23
 70
     1
102
RTVSPropertyOp24
 70
     1
102
RTVSPropertyOp25
 70
     1
102
RTVSPropertyOp26
 70
     1
102
RTVSPropertyOp27
 70
     1
102
RTVSPropertyOp28
 70
     1
102
RTVSPropertyOp29
 70
     1
102
RTVSPropertyOp30
 70
     1
102
RTVSPropertyOp31
 70
     1
102
RTVSPropertyOp32
 70
     1
  0
XRECORD
  5
1980
102
{ACAD_REACTORS
330
197F
102
}
330
197F
100
AcDbXrecord
280
     1
102
RTVSPropertyOp0
 70
     1
102
RTVSPropertyOp1
 70
     1
102
RTVSPropertyOp2
 70
     1
102
RTVSPropertyOp3
 70
     1
102
RTVSPropertyOp4
 70
     1
102
RTVSPropertyOp5
 70
     1
102
RTVSPropertyOp6
 70
     1
102
RTVSPropertyOp7
 70
     1
102
RTVSPropertyOp8
 70
     1
102
RTVSPropertyOp9
 70
     1
102
RTVSPropertyOp10
 70
     1
102
RTVSPropertyOp11
 70
     1
102
RTVSPropertyOp12
 70
     1
102
RTVSPropertyOp13
 70
     1
102
RTVSPropertyOp14
 70
     1
102
RTVSPropertyOp15
 70
     1
102
RTVSPropertyOp16
 70
     1
102
RTVSPropertyOp17
 70
     1
102
RTVSPropertyOp18
 70
     1
102
RTVSPropertyOp19
 70
     1
102
RTVSPropertyOp20
 70
     1
102
RTVSPropertyOp21
 70
     1
102
RTVSPropertyOp22
 70
     1
102
RTVSPropertyOp23
 70
     1
102
RTVSPropertyOp24
 70
     1
102
RTVSPropertyOp25
 70
     1
102
RTVSPropertyOp26
 70
     1
102
RTVSPropertyOp27
 70
     1
102
RTVSPropertyOp28
 70
     1
102
RTVSPropertyOp29
 70
     1
102
RTVSPropertyOp30
 70
     1
102
RTVSPropertyOp31
 70
     1
102
RTVSPropertyOp32
 70
     1
  0
XRECORD
  5
1988
102
{ACAD_REACTORS
330
1987
102
}
330
1987
100
AcDbXrecord
280
     1
102
RTVSPropertyOp0
 70
     1
102
RTVSPropertyOp1
 70
     1
102
RTVSPropertyOp2
 70
     1
102
RTVSPropertyOp3
 70
     1
102
RTVSPropertyOp4
 70
     1
102
RTVSPropertyOp5
 70
     1
102
RTVSPropertyOp6
 70
     1
102
RTVSPropertyOp7
 70
     1
102
RTVSPropertyOp8
 70
     1
102
RTVSPropertyOp9
 70
     1
102
RTVSPropertyOp10
 70
     1
102
RTVSPropertyOp11
 70
     1
102
RTVSPropertyOp12
 70
     1
102
RTVSPropertyOp13
 70
     1
102
RTVSPropertyOp14
 70
     1
102
RTVSPropertyOp15
 70
     1
102
RTVSPropertyOp16
 70
     1
102
RTVSPropertyOp17
 70
     1
102
RTVSPropertyOp18
 70
     1
102
RTVSPropertyOp19
 70
     1
102
RTVSPropertyOp20
 70
     1
102
RTVSPropertyOp21
 70
     1
102
RTVSPropertyOp22
 70
     1
102
RTVSPropertyOp23
 70
     1
102
RTVSPropertyOp24
 70
     1
102
RTVSPropertyOp25
 70
     1
102
RTVSPropertyOp26
 70
     1
102
RTVSPropertyOp27
 70
     1
102
RTVSPropertyOp28
 70
     1
102
RTVSPropertyOp29
 70
     1
102
RTVSPropertyOp30
 70
     1
102
RTVSPropertyOp31
 70
     1
102
RTVSPropertyOp32
 70
     1
  0
XRECORD
  5
1990
102
{ACAD_REACTORS
330
198F
102
}
330
198F
100
AcDbXrecord
280
     1
102
RTVSPropertyOp0
 70
     1
102
RTVSPropertyOp1
 70
     1
102
RTVSPropertyOp2
 70
     1
102
RTVSPropertyOp3
 70
     1
102
RTVSPropertyOp4
 70
     1
102
RTVSPropertyOp5
 70
     1
102
RTVSPropertyOp6
 70
     1
102
RTVSPropertyOp7
 70
     1
102
RTVSPropertyOp8
 70
     1
102
RTVSPropertyOp9
 70
     1
102
RTVSPropertyOp10
 70
     1
102
RTVSPropertyOp11
 70
     1
102
RTVSPropertyOp12
 70
     1
102
RTVSPropertyOp13
 70
     1
102
RTVSPropertyOp14
 70
     1
102
RTVSPropertyOp15
 70
     1
102
RTVSPropertyOp16
 70
     1
102
RTVSPropertyOp17
 70
     1
102
RTVSPropertyOp18
 70
     1
102
RTVSPropertyOp19
 70
     1
102
RTVSPropertyOp20
 70
     1
102
RTVSPropertyOp21
 70
     1
102
RTVSPropertyOp22
 70
     1
102
RTVSPropertyOp23
 70
     1
102
RTVSPropertyOp24
 70
     1
102
RTVSPropertyOp25
 70
     1
102
RTVSPropertyOp26
 70
     1
102
RTVSPropertyOp27
 70
     1
102
RTVSPropertyOp28
 70
     1
102
RTVSPropertyOp29
 70
     1
102
RTVSPropertyOp30
 70
     1
102
RTVSPropertyOp31
 70
     1
102
RTVSPropertyOp32
 70
     1
  0
ENDSEC
  0
EOF
