  0
SECTION
  2
HEADER
  9
$ACADVER
  1
AC1015
  9
$ACADMAINTVER
 70
    20
  9
$DWGCODEPAGE
  3
ANSI_932
  9
$INSBASE
 10
0.0
 20
0.0
 30
0.0
  9
$EXTMIN
 10
210.002826
 20
-6.141777999999997
 30
0.0
  9
$EXTMAX
 10
487.0028259999998
 20
186.33084
 30
0.0
  9
$LIMMIN
 10
210.001823
 20
-6.142777999999997
  9
$LIMMAX
 10
487.1324089999998
 20
186.331841
  9
$ORTHOMODE
 70
     1
  9
$REGENMODE
 70
     1
  9
$FILLMODE
 70
     1
  9
$QTEXTMODE
 70
     0
  9
$MIRRTEXT
 70
     0
  9
$LTSCALE
 40
4.618809999999998
  9
$ATTMODE
 70
     1
  9
$TEXTSIZE
 40
3.2
  9
$TRACEWID
 40
0.05
  9
$TEXTSTYLE
  7
高3.2
  9
$CLAYER
  8
0
  9
$CELTYPE
  6
CONTINUOUS
  9
$CECOLOR
 62
   256
  9
$CELTSCALE
 40
1.0
  9
$DISPSILH
 70
     0
  9
$DIMSCALE
 40
1.0
  9
$DIMASZ
 40
2.5
  9
$DIMEXO
 40
0.25
  9
$DIMDLI
 40
0.2
  9
$DIMRND
 40
0.0
  9
$DIMDLE
 40
0.0
  9
$DIMEXE
 40
1.25
  9
$DIMTP
 40
0.0
  9
$DIMTM
 40
0.0
  9
$DIMTXT
 40
3.0
  9
$DIMCEN
 40
0.0
  9
$DIMTSZ
 40
0.0
  9
$DIMTOL
 70
     0
  9
$DIMLIM
 70
     0
  9
$DIMTIH
 70
     0
  9
$DIMTOH
 70
     0
  9
$DIMSE1
 70
     0
  9
$DIMSE2
 70
     0
  9
$DIMTAD
 70
     3
  9
$DIMZIN
 70
     8
  9
$DIMBLK
  1
Open30
  9
$DIMASO
 70
     1
  9
$DIMSHO
 70
     1
  9
$DIMPOST
  1

  9
$DIMAPOST
  1

  9
$DIMALT
 70
     0
  9
$DIMALTD
 70
     3
  9
$DIMALTF
 40
0.03937007874016
  9
$DIMLFAC
 40
1.0
  9
$DIMTOFL
 70
     1
  9
$DIMTVP
 40
0.0
  9
$DIMTIX
 70
     0
  9
$DIMSOXD
 70
     0
  9
$DIMSAH
 70
     0
  9
$DIMBLK1
  1

  9
$DIMBLK2
  1

  9
$DIMSTYLE
  2
1：1
  9
$DIMCLRD
 70
     0
  9
$DIMCLRE
 70
     0
  9
$DIMCLRT
 70
     4
  9
$DIMTFAC
 40
1.0
  9
$DIMGAP
 40
0.625
  9
$DIMJUST
 70
     0
  9
$DIMSD1
 70
     0
  9
$DIMSD2
 70
     0
  9
$DIMTOLJ
 70
     0
  9
$DIMTZIN
 70
     8
  9
$DIMALTZ
 70
     0
  9
$DIMALTTZ
 70
     0
  9
$DIMUPT
 70
     1
  9
$DIMDEC
 70
     2
  9
$DIMTDEC
 70
     2
  9
$DIMALTU
 70
     2
  9
$DIMALTTD
 70
     3
  9
$DIMTXSTY
  7
STANDARD
  9
$DIMAUNIT
 70
     0
  9
$DIMADEC
 70
     1
  9
$DIMALTRND
 40
0.0
  9
$DIMAZIN
 70
     2
  9
$DIMDSEP
 70
    46
  9
$DIMATFIT
 70
     0
  9
$DIMFRAC
 70
     0
  9
$DIMLDRBLK
  1
Open30
  9
$DIMLUNIT
 70
     2
  9
$DIMLWD
 70
    -2
  9
$DIMLWE
 70
    -2
  9
$DIMTMOVE
 70
     0
  9
$LUNITS
 70
     2
  9
$LUPREC
 70
     4
  9
$SKETCHINC
 40
0.1
  9
$FILLETRAD
 40
0.0
  9
$AUNITS
 70
     0
  9
$AUPREC
 70
     0
  9
$MENU
  1
.
  9
$ELEVATION
 40
0.0
  9
$PELEVATION
 40
0.0
  9
$THICKNESS
 40
0.0
  9
$LIMCHECK
 70
     0
  9
$CHAMFERA
 40
0.0
  9
$CHAMFERB
 40
0.0
  9
$CHAMFERC
 40
0.0
  9
$CHAMFERD
 40
0.0
  9
$SKPOLY
 70
     0
  9
$TDCREATE
 40
2456358.851678299
  9
$TDUCREATE
 40
2456358.476678299
  9
$TDUPDATE
 40
2459020.679578727
  9
$TDUUPDATE
 40
2459020.304578727
  9
$TDINDWG
 40
0.0194595139
  9
$TDUSRTIMER
 40
0.0194594560
  9
$USRTIMER
 70
     1
  9
$ANGBASE
 50
0.0
  9
$ANGDIR
 70
     0
  9
$PDMODE
 70
     0
  9
$PDSIZE
 40
0.0
  9
$PLINEWID
 40
0.0
  9
$SPLFRAME
 70
     0
  9
$SPLINETYPE
 70
     6
  9
$SPLINESEGS
 70
     8
  9
$HANDSEED
  5
69E
  9
$SURFTAB1
 70
     6
  9
$SURFTAB2
 70
     6
  9
$SURFTYPE
 70
     6
  9
$SURFU
 70
     6
  9
$SURFV
 70
     6
  9
$UCSBASE
  2

  9
$UCSNAME
  2

  9
$UCSORG
 10
0.0
 20
0.0
 30
0.0
  9
$UCSXDIR
 10
1.0
 20
0.0
 30
0.0
  9
$UCSYDIR
 10
0.0
 20
1.0
 30
0.0
  9
$UCSORTHOREF
  2

  9
$UCSORTHOVIEW
 70
     0
  9
$UCSORGTOP
 10
0.0
 20
0.0
 30
0.0
  9
$UCSORGBOTTOM
 10
0.0
 20
0.0
 30
0.0
  9
$UCSORGLEFT
 10
0.0
 20
0.0
 30
0.0
  9
$UCSORGRIGHT
 10
0.0
 20
0.0
 30
0.0
  9
$UCSORGFRONT
 10
0.0
 20
0.0
 30
0.0
  9
$UCSORGBACK
 10
0.0
 20
0.0
 30
0.0
  9
$PUCSBASE
  2

  9
$PUCSNAME
  2

  9
$PUCSORG
 10
0.0
 20
0.0
 30
0.0
  9
$PUCSXDIR
 10
1.0
 20
0.0
 30
0.0
  9
$PUCSYDIR
 10
0.0
 20
1.0
 30
0.0
  9
$PUCSORTHOREF
  2

  9
$PUCSORTHOVIEW
 70
     0
  9
$PUCSORGTOP
 10
0.0
 20
0.0
 30
0.0
  9
$PUCSORGBOTTOM
 10
0.0
 20
0.0
 30
0.0
  9
$PUCSORGLEFT
 10
0.0
 20
0.0
 30
0.0
  9
$PUCSORGRIGHT
 10
0.0
 20
0.0
 30
0.0
  9
$PUCSORGFRONT
 10
0.0
 20
0.0
 30
0.0
  9
$PUCSORGBACK
 10
0.0
 20
0.0
 30
0.0
  9
$USERI1
 70
     0
  9
$USERI2
 70
     0
  9
$USERI3
 70
     0
  9
$USERI4
 70
     0
  9
$USERI5
 70
     0
  9
$USERR1
 40
0.0
  9
$USERR2
 40
0.0
  9
$USERR3
 40
0.0
  9
$USERR4
 40
0.0
  9
$USERR5
 40
0.0
  9
$WORLDVIEW
 70
     1
  9
$SHADEDGE
 70
     3
  9
$SHADEDIF
 70
    70
  9
$TILEMODE
 70
     1
  9
$MAXACTVP
 70
    64
  9
$PINSBASE
 10
0.0
 20
0.0
 30
0.0
  9
$PLIMCHECK
 70
     0
  9
$PEXTMIN
 10
1.000000000000000E+20
 20
1.000000000000000E+20
 30
1.000000000000000E+20
  9
$PEXTMAX
 10
-1.000000000000000E+20
 20
-1.000000000000000E+20
 30
-1.000000000000000E+20
  9
$PLIMMIN
 10
0.0
 20
0.0
  9
$PLIMMAX
 10
12.0
 20
9.0
  9
$UNITMODE
 70
     0
  9
$VISRETAIN
 70
     1
  9
$PLINEGEN
 70
     0
  9
$PSLTSCALE
 70
     1
  9
$TREEDEPTH
 70
  3020
  9
$CMLSTYLE
  2
Standard
  9
$CMLJUST
 70
     0
  9
$CMLSCALE
 40
1.0
  9
$PROXYGRAPHICS
 70
     1
  9
$MEASUREMENT
 70
     0
  9
$CELWEIGHT
370
    -1
  9
$ENDCAPS
280
     0
  9
$JOINSTYLE
280
     0
  9
$LWDISPLAY
290
     0
  9
$INSUNITS
 70
     0
  9
$HYPERLINKBASE
  1

  9
$STYLESHEET
  1

  9
$XEDIT
290
     1
  9
$CEPSNTYPE
380
     0
  9
$PSTYLEMODE
290
     1
  9
$FINGERPRINTGUID
  2
{FBBEC3EA-2C0B-44CA-8238-0F2D16F6FBB4}
  9
$VERSIONGUID
  2
{72ED0F41-82AD-4D4E-9987-521657781BD5}
  9
$EXTNAMES
290
     1
  9
$PSVPSCALE
 40
0.0
  9
$OLESTARTUP
290
     0
  0
ENDSEC
  0
SECTION
  2
CLASSES
  0
CLASS
  1
ACDBDICTIONARYWDFLT
  2
AcDbDictionaryWithDefault
  3
ObjectDBX Classes
 90
        0
280
     0
281
     0
  0
CLASS
  1
MATERIAL
  2
AcDbMaterial
  3
ObjectDBX Classes
 90
     1153
280
     0
281
     0
  0
CLASS
  1
VISUALSTYLE
  2
AcDbVisualStyle
  3
ObjectDBX Classes
 90
     4095
280
     0
281
     0
  0
CLASS
  1
SCALE
  2
AcDbScale
  3
ObjectDBX Classes
 90
     1153
280
     0
281
     0
  0
CLASS
  1
TABLESTYLE
  2
AcDbTableStyle
  3
ObjectDBX Classes
 90
     4095
280
     0
281
     0
  0
CLASS
  1
MLEADERSTYLE
  2
AcDbMLeaderStyle
  3
ACDB_MLEADERSTYLE_CLASS
 90
     4095
280
     0
281
     0
  0
CLASS
  1
SORTENTSTABLE
  2
AcDbSortentsTable
  3
ObjectDBX Classes
 90
        0
280
     0
281
     0
  0
CLASS
  1
DICTIONARYVAR
  2
AcDbDictionaryVar
  3
ObjectDBX Classes
 90
        0
280
     0
281
     0
  0
CLASS
  1
CELLSTYLEMAP
  2
AcDbCellStyleMap
  3
ObjectDBX Classes
 90
     1152
280
     0
281
     0
  0
CLASS
  1
ACDBPLACEHOLDER
  2
AcDbPlaceHolder
  3
ObjectDBX Classes
 90
        0
280
     0
281
     0
  0
CLASS
  1
LAYOUT
  2
AcDbLayout
  3
ObjectDBX Classes
 90
        0
280
     0
281
     0
  0
ENDSEC
  0
SECTION
  2
TABLES
  0
TABLE
  2
VPORT
  5
8
330
0
100
AcDbSymbolTable
 70
     1
  0
VPORT
  5
8B
330
8
100
AcDbSymbolTableRecord
100
AcDbViewportTableRecord
  2
*Active
 70
     0
 10
0.0
 20
0.0
 11
1.0
 21
1.0
 12
456.9017465610862
 22
72.69498682574146
 13
0.0
 23
0.0
 14
1.0
 24
1.0
 15
0.0
 25
0.0
 16
0.0
 26
0.0
 36
1.0
 17
0.0
 27
0.0
 37
0.0
 40
393.3231191329503
 41
2.138028169014084
 42
50.0
 43
0.0
 44
0.0
 50
0.0
 51
0.0
 71
     0
 72
   100
 73
     1
 74
     1
 75
     0
 76
     0
 77
     0
 78
     0
281
     0
 65
     1
110
0.0
120
0.0
130
0.0
111
1.0
121
0.0
131
0.0
112
0.0
122
1.0
132
0.0
 79
     0
146
0.0
  0
ENDTAB
  0
TABLE
  2
LTYPE
  5
5
330
0
100
AcDbSymbolTable
 70
     3
  0
LTYPE
  5
5A
330
5
100
AcDbSymbolTableRecord
100
AcDbLinetypeTableRecord
  2
ByBlock
 70
     0
  3

 72
    65
 73
     0
 40
0.0
  0
LTYPE
  5
5B
330
5
100
AcDbSymbolTableRecord
100
AcDbLinetypeTableRecord
  2
ByLayer
 70
     0
  3

 72
    65
 73
     0
 40
0.0
  0
LTYPE
  5
5C
330
5
100
AcDbSymbolTableRecord
100
AcDbLinetypeTableRecord
  2
CONTINUOUS
 70
     0
  3
Solid-line
 72
    65
 73
     0
 40
0.0
  0
LTYPE
  5
72
330
5
100
AcDbSymbolTableRecord
100
AcDbLinetypeTableRecord
  2
CENTER
 70
     0
  3
CENTER
 72
    65
 73
     4
 40
2.0
 49
1.25
 74
     0
 49
-0.25
 74
     0
 49
0.25
 74
     0
 49
-0.25
 74
     0
  0
ENDTAB
  0
TABLE
  2
LAYER
  5
2
102
{ACAD_XDICTIONARY
360
294
102
}
330
0
100
AcDbSymbolTable
 70
     2
  0
LAYER
  5
54
102
{ACAD_XDICTIONARY
360
40C
102
}
330
2
100
AcDbSymbolTableRecord
100
AcDbLayerTableRecord
  2
0
 70
     0
 62
     7
  6
CONTINUOUS
370
    -3
390
F
  0
LAYER
  5
27D
330
2
100
AcDbSymbolTableRecord
100
AcDbLayerTableRecord
  2
Defpoints
 70
     0
 62
     7
  6
CONTINUOUS
290
     0
370
    -3
390
F
  0
ENDTAB
  0
TABLE
  2
STYLE
  5
3
330
0
100
AcDbSymbolTable
 70
     5
  0
STYLE
  5
55
330
3
100
AcDbSymbolTableRecord
100
AcDbTextStyleTableRecord
  2
STANDARD
 70
     0
 40
0.0
 41
1.0
 50
0.0
 71
     0
 42
0.2
  3
TXT
  4
BIGFONT
  0
STYLE
  5
27E
330
3
100
AcDbSymbolTableRecord
100
AcDbTextStyleTableRecord
  2
高3.2
 70
     0
 40
3.2
 41
1.0
 50
0.0
 71
     0
 42
3.2
  3
txt.shx
  4
bigfont.shx
  0
STYLE
  5
27F
330
3
100
AcDbSymbolTableRecord
100
AcDbTextStyleTableRecord
  2
高6.3
 70
     0
 40
6.299999999999998
 41
1.0
 50
0.0
 71
     0
 42
6.299999999999998
  3
txt.shx
  4
bigfont.shx
  0
STYLE
  5
281
330
3
100
AcDbSymbolTableRecord
100
AcDbTextStyleTableRecord
  2
高4.5
 70
     0
 40
4.5
 41
1.0
 50
0.0
 71
     0
 42
6.299999999999998
  3
txt.shx
  4
bigfont.shx
  0
STYLE
  5
282
330
3
100
AcDbSymbolTableRecord
100
AcDbTextStyleTableRecord
  2
高2
 70
     0
 40
2.0
 41
1.0
 50
0.0
 71
     0
 42
2.0
  3
txt.shx
  4
bigfont.shx
  0
ENDTAB
  0
TABLE
  2
VIEW
  5
6
330
0
100
AcDbSymbolTable
 70
     0
  0
ENDTAB
  0
TABLE
  2
UCS
  5
7
330
0
100
AcDbSymbolTable
 70
     0
  0
ENDTAB
  0
TABLE
  2
APPID
  5
9
330
0
100
AcDbSymbolTable
 70
    10
  0
APPID
  5
56
330
9
100
AcDbSymbolTableRecord
100
AcDbRegAppTableRecord
  2
ACAD
 70
     0
  0
APPID
  5
5D
330
9
100
AcDbSymbolTableRecord
100
AcDbRegAppTableRecord
  2
AcadAnnotative
 70
     0
  0
APPID
  5
28D
330
9
100
AcDbSymbolTableRecord
100
AcDbRegAppTableRecord
  2
ACAD_DSTYLE_DIMJOGGED_JOGANGLE_SYMBOL
 70
     0
  0
APPID
  5
28E
330
9
100
AcDbSymbolTableRecord
100
AcDbRegAppTableRecord
  2
ACAD_DSTYLE_DIMJAG
 70
     0
  0
APPID
  5
28F
330
9
100
AcDbSymbolTableRecord
100
AcDbRegAppTableRecord
  2
ACAD_DSTYLE_DIMBREAK
 70
     0
  0
APPID
  5
290
330
9
100
AcDbSymbolTableRecord
100
AcDbRegAppTableRecord
  2
ACAD_DSTYLE_DIMTALN
 70
     0
  0
APPID
  5
3F6
330
9
100
AcDbSymbolTableRecord
100
AcDbRegAppTableRecord
  2
ACAD_EXEMPT_FROM_CAD_STANDARDS
 70
     0
  0
APPID
  5
455
330
9
100
AcDbSymbolTableRecord
100
AcDbRegAppTableRecord
  2
ACAD_MLEADERVER
 70
     0
  0
APPID
  5
45A
330
9
100
AcDbSymbolTableRecord
100
AcDbRegAppTableRecord
  2
ACAD_DSTYLE_DIMARC_LENGTH_SYMBOL
 70
     0
  0
APPID
  5
45B
330
9
100
AcDbSymbolTableRecord
100
AcDbRegAppTableRecord
  2
ACAD_DSTYLE_DIMEXT_LENGTH
 70
     0
  0
ENDTAB
  0
TABLE
  2
DIMSTYLE
  5
A
330
0
100
AcDbSymbolTable
 70
     2
100
AcDbDimStyleTable
 71
     2
340
283
340
57
  0
DIMSTYLE
105
57
330
A
100
AcDbSymbolTableRecord
100
AcDbDimStyleTableRecord
  2
Standard
 70
     0
340
55
  0
DIMSTYLE
105
283
102
{ACAD_REACTORS
330
3FD
102
}
330
A
100
AcDbSymbolTableRecord
100
AcDbDimStyleTableRecord
  2
1：1
 70
     0
 41
2.5
 42
0.25
 43
0.2
 44
1.25
 73
     0
 74
     0
 77
     3
 78
     8
 79
     2
140
3.0
141
0.0
143
0.03937007874016
147
0.625
171
     3
172
     1
178
     4
179
     1
271
     2
272
     2
274
     3
283
     0
284
     8
288
     1
289
     0
340
55
341
1ED
342
1ED
1001
ACAD_DSTYLE_DIMARC_LENGTH_SYMBOL
1070
   379
1070
     2
1001
ACAD_DSTYLE_DIMEXT_LENGTH
1070
   378
1040
1.25
1001
ACAD_DSTYLE_DIMJOGGED_JOGANGLE_SYMBOL
1070
   384
1040
1.570796326794896
  0
ENDTAB
  0
TABLE
  2
BLOCK_RECORD
  5
1
330
0
100
AcDbSymbolTable
 70
     3
  0
BLOCK_RECORD
  5
6B
102
{ACAD_XDICTIONARY
360
622
102
}
330
1
100
AcDbSymbolTableRecord
100
AcDbBlockTableRecord
  2
*Model_Space
340
6E
  0
BLOCK_RECORD
  5
67
330
1
100
AcDbSymbolTableRecord
100
AcDbBlockTableRecord
  2
*Paper_Space
340
6A
  0
BLOCK_RECORD
  5
1ED
330
1
100
AcDbSymbolTableRecord
100
AcDbBlockTableRecord
  2
_Open30
340
0
102
{BLKREFS
331
57D
331
57E
331
586
331
587
102
}
  0
BLOCK_RECORD
  5
3D4
330
1
100
AcDbSymbolTableRecord
100
AcDbBlockTableRecord
  2
*D1
340
0
  0
BLOCK_RECORD
  5
3E0
330
1
100
AcDbSymbolTableRecord
100
AcDbBlockTableRecord
  2
*D2
340
0
  0
ENDTAB
  0
ENDSEC
  0
SECTION
  2
BLOCKS
  0
BLOCK
  5
6C
330
6B
100
AcDbEntity
  8
0
100
AcDbBlockBegin
  2
*Model_Space
 70
     0
 10
0.0
 20
0.0
 30
0.0
  3
*Model_Space
  1

  0
ENDBLK
  5
6D
330
6B
100
AcDbEntity
  8
0
100
AcDbBlockEnd
  0
BLOCK
  5
68
330
67
100
AcDbEntity
 67
     1
  8
0
100
AcDbBlockBegin
  2
*Paper_Space
 70
     0
 10
0.0
 20
0.0
 30
0.0
  3
*Paper_Space
  1

  0
ENDBLK
  5
69
330
67
100
AcDbEntity
 67
     1
  8
0
100
AcDbBlockEnd
  0
BLOCK
  5
1EE
330
1ED
100
AcDbEntity
  8
0
100
AcDbBlockBegin
  2
_Open30
 70
     0
 10
0.0
 20
0.0
 30
0.0
  3
_Open30
  1

  0
LINE
  5
1EF
330
1ED
100
AcDbEntity
  8
0
  6
ByBlock
 62
     0
370
    -2
100
AcDbLine
 10
-1.0
 20
0.267949
 30
0.0
 11
0.0
 21
0.0
 31
0.0
  0
LINE
  5
1F0
330
1ED
100
AcDbEntity
  8
0
  6
ByBlock
 62
     0
370
    -2
100
AcDbLine
 10
0.0
 20
0.0
 30
0.0
 11
-1.0
 21
-0.267949
 31
0.0
  0
LINE
  5
1F1
330
1ED
100
AcDbEntity
  8
0
  6
ByBlock
 62
     0
370
    -2
100
AcDbLine
 10
0.0
 20
0.0
 30
0.0
 11
-1.0
 21
0.0
 31
0.0
  0
ENDBLK
  5
1F2
330
1ED
100
AcDbEntity
  8
0
100
AcDbBlockEnd
  0
BLOCK
  5
3D5
330
3D4
100
AcDbEntity
  8
0
100
AcDbBlockBegin
  2
*D1
 70
     1
 10
0.0
 20
0.0
 30
0.0
  3
*D1
  1

  0
LINE
  5
57A
330
3D4
100
AcDbEntity
  8
0
 62
     0
370
    -2
100
AcDbLine
 10
299.775737
 20
129.712747
 30
0.0
 11
299.775737
 21
144.102998
 31
0.0
  0
LINE
  5
57B
330
3D4
100
AcDbEntity
  8
0
 62
     0
370
    -2
100
AcDbLine
 10
374.775737
 20
129.712747
 30
0.0
 11
374.775737
 21
144.102998
 31
0.0
  0
LINE
  5
57C
330
3D4
100
AcDbEntity
  8
0
 62
     0
370
    -2
100
AcDbLine
 10
302.275737
 20
142.852998
 30
0.0
 11
372.275737
 21
142.852998
 31
0.0
  0
INSERT
  5
57D
330
3D4
100
AcDbEntity
  8
0
 62
     0
370
    -2
100
AcDbBlockReference
  2
_Open30
 10
299.775737
 20
142.852998
 30
0.0
 41
2.5
 42
2.5
 43
2.5
 50
180.0
  0
INSERT
  5
57E
330
3D4
100
AcDbEntity
  8
0
 62
     0
370
    -2
100
AcDbBlockReference
  2
_Open30
 10
374.775737
 20
142.852998
 30
0.0
 41
2.5
 42
2.5
 43
2.5
  0
MTEXT
  5
57F
330
3D4
100
AcDbEntity
  8
0
 62
     4
100
AcDbMText
 10
337.275737
 20
144.977998
 30
0.0
 40
3.0
 41
0.0
 71
     5
 72
     1
  1
75
 73
     1
 44
1.0
1001
ACAD
1000
MTEXTBEGIN
1070
    73
1070
     1
1070
    44
1040
1.0
1070
    74
1070
     0
1000
MTEXTEND
  0
POINT
  5
580
330
3D4
100
AcDbEntity
  8
Defpoints
 62
     0
100
AcDbPoint
 10
299.775737
 20
129.462747
 30
0.0
  0
POINT
  5
581
330
3D4
100
AcDbEntity
  8
Defpoints
 62
     0
100
AcDbPoint
 10
374.775737
 20
129.462747
 30
0.0
  0
POINT
  5
582
330
3D4
100
AcDbEntity
  8
Defpoints
 62
     0
100
AcDbPoint
 10
374.775737
 20
142.852998
 30
0.0
  0
ENDBLK
  5
3D6
330
3D4
100
AcDbEntity
  8
0
100
AcDbBlockEnd
  0
BLOCK
  5
3E1
330
3E0
100
AcDbEntity
  8
0
100
AcDbBlockBegin
  2
*D2
 70
     1
 10
0.0
 20
0.0
 30
0.0
  3
*D2
  1

  0
LINE
  5
583
330
3E0
100
AcDbEntity
  8
0
 62
     0
370
    -2
100
AcDbLine
 10
299.525737
 20
109.462747
 30
0.0
 11
289.9333939999999
 21
109.462747
 31
0.0
  0
LINE
  5
584
330
3E0
100
AcDbEntity
  8
0
 62
     0
370
    -2
100
AcDbLine
 10
299.525737
 20
129.462747
 30
0.0
 11
289.933394
 21
129.462747
 31
0.0
  0
LINE
  5
585
330
3E0
100
AcDbEntity
  8
0
 62
     0
370
    -2
100
AcDbLine
 10
291.183394
 20
111.962747
 30
0.0
 11
291.183394
 21
126.962747
 31
0.0
  0
INSERT
  5
586
330
3E0
100
AcDbEntity
  8
0
 62
     0
370
    -2
100
AcDbBlockReference
  2
_Open30
 10
291.183394
 20
109.462747
 30
0.0
 41
2.5
 42
2.5
 43
2.5
 50
270.0
  0
INSERT
  5
587
330
3E0
100
AcDbEntity
  8
0
 62
     0
370
    -2
100
AcDbBlockReference
  2
_Open30
 10
291.183394
 20
129.462747
 30
0.0
 41
2.5
 42
2.5
 43
2.5
 50
90.0
  0
MTEXT
  5
588
330
3E0
100
AcDbEntity
  8
0
 62
     4
100
AcDbMText
 10
289.0583939999999
 20
119.462747
 30
0.0
 40
3.0
 41
0.0
 71
     5
 72
     1
  1
%%C20
 11
0.0000000000000001
 21
1.0
 31
0.0
 73
     1
 44
1.0
1001
ACAD
1000
MTEXTBEGIN
1070
    73
1070
     1
1070
    44
1040
1.0
1070
    74
1070
     0
1000
MTEXTEND
  0
POINT
  5
589
330
3E0
100
AcDbEntity
  8
Defpoints
 62
     0
100
AcDbPoint
 10
299.775737
 20
109.462747
 30
0.0
  0
POINT
  5
58A
330
3E0
100
AcDbEntity
  8
Defpoints
 62
     0
100
AcDbPoint
 10
299.775737
 20
129.462747
 30
0.0
  0
POINT
  5
58B
330
3E0
100
AcDbEntity
  8
Defpoints
 62
     0
100
AcDbPoint
 10
291.183394
 20
129.462747
 30
0.0
  0
ENDBLK
  5
3E2
330
3E0
100
AcDbEntity
  8
0
100
AcDbBlockEnd
  0
ENDSEC
  0
SECTION
  2
ENTITIES
  0
LINE
  5
AE
330
6B
100
AcDbEntity
  8
0
 62
     3
100
AcDbLine
 10
299.775737
 20
109.462747
 30
0.0
 11
374.775737
 21
109.462747
 31
0.0
  0
LINE
  5
AF
330
6B
100
AcDbEntity
  8
0
 62
     3
100
AcDbLine
 10
299.775737
 20
129.462747
 30
0.0
 11
374.775737
 21
129.462747
 31
0.0
  0
LINE
  5
B0
330
6B
100
AcDbEntity
  8
0
 62
     3
100
AcDbLine
 10
299.775737
 20
109.462747
 30
0.0
 11
299.775737
 21
129.462747
 31
0.0
  0
LINE
  5
B1
330
6B
100
AcDbEntity
  8
0
 62
     3
100
AcDbLine
 10
374.775737
 20
109.462747
 30
0.0
 11
374.775737
 21
129.462747
 31
0.0
  0
LINE
  5
B2
330
6B
100
AcDbEntity
  8
0
 62
     3
100
AcDbLine
 10
333.275737
 20
109.462747
 30
0.0
 11
333.275737
 21
129.462747
 31
0.0
  0
LINE
  5
B3
330
6B
100
AcDbEntity
  8
0
 62
     3
100
AcDbLine
 10
352.275737
 20
109.462747
 30
0.0
 11
352.275737
 21
129.462747
 31
0.0
  0
CIRCLE
  5
B4
330
6B
100
AcDbEntity
  8
0
 62
     3
100
AcDbCircle
 10
266.102733
 20
119.462747
 30
0.0
 40
10.0
  0
CIRCLE
  5
B5
330
6B
100
AcDbEntity
  8
0
 62
     3
100
AcDbCircle
 10
396.769694
 20
119.462747
 30
0.0
 40
10.0
  0
LINE
  5
B6
330
6B
100
AcDbEntity
  8
0
 62
     3
100
AcDbLine
 10
434.527215
 20
109.482375
 30
0.0
 11
443.881358
 21
118.836518
 31
0.0
  0
ARC
  5
B7
330
6B
100
AcDbEntity
  8
0
 62
     3
100
AcDbCircle
 10
433.900986
 20
119.462747
 30
0.0
 40
10.0
100
AcDbArc
 50
266.409622
 51
273.590378
  0
LINE
  5
B8
330
6B
100
AcDbEntity
  8
0
 62
     3
100
AcDbLine
 10
443.881358
 20
120.088976
 30
0.0
 11
434.527215
 21
129.44312
 31
0.0
  0
LINE
  5
B9
330
6B
100
AcDbEntity
  8
0
 62
     3
100
AcDbLine
 10
433.274757
 20
129.44312
 30
0.0
 11
423.920613
 21
120.088976
 31
0.0
  0
LINE
  5
BA
330
6B
100
AcDbEntity
  8
0
 62
     3
100
AcDbLine
 10
423.920613
 20
118.836518
 30
0.0
 11
433.274757
 21
109.482375
 31
0.0
  0
ARC
  5
BB
330
6B
100
AcDbEntity
  8
0
 62
     3
100
AcDbCircle
 10
433.900986
 20
119.462747
 30
0.0
 40
10.0
100
AcDbArc
 50
356.409622
 51
3.590377999999998
  0
ARC
  5
BC
330
6B
100
AcDbEntity
  8
0
 62
     3
100
AcDbCircle
 10
433.900986
 20
119.462747
 30
0.0
 40
10.0
100
AcDbArc
 50
86.409622
 51
93.59037800000001
  0
ARC
  5
BD
330
6B
100
AcDbEntity
  8
0
 62
     3
100
AcDbCircle
 10
433.900986
 20
119.462747
 30
0.0
 40
10.0
100
AcDbArc
 50
176.409622
 51
183.590378
  0
CIRCLE
  5
BE
330
6B
100
AcDbEntity
  8
0
 62
     3
100
AcDbCircle
 10
266.102733
 20
119.462747
 30
0.0
 40
2.5
  0
TEXT
  5
BF
330
6B
100
AcDbEntity
  8
0
 62
     4
100
AcDbText
 10
346.555234
 20
137.279222
 30
0.0
 40
3.2
  1
A
  7
高3.2
100
AcDbText
  0
TEXT
  5
C0
330
6B
100
AcDbEntity
  8
0
 62
     4
100
AcDbText
 10
346.555234
 20
100.355037
 30
0.0
 40
3.2
  1
A
  7
高3.2
100
AcDbText
  0
TEXT
  5
C1
330
6B
100
AcDbEntity
  8
0
 62
     4
100
AcDbText
 10
429.215601
 20
98.328564
 30
0.0
 40
3.2
  1
A-A
  7
高3.2
100
AcDbText
  0
LINE
  5
C2
330
6B
100
AcDbEntity
  8
0
  6
CENTER
 62
     7
100
AcDbLine
 10
418.9009859999998
 20
119.462747
 30
0.0
 11
448.900986
 21
119.462747
 31
0.0
  0
LINE
  5
C3
330
6B
100
AcDbEntity
  8
0
  6
CENTER
 62
     7
100
AcDbLine
 10
433.900986
 20
134.462747
 30
0.0
 11
433.900986
 21
104.462747
 31
0.0
  0
LINE
  5
C4
330
6B
100
AcDbEntity
  8
0
  6
CENTER
 62
     7
100
AcDbLine
 10
381.769694
 20
119.462747
 30
0.0
 11
411.769694
 21
119.462747
 31
0.0
  0
LINE
  5
C5
330
6B
100
AcDbEntity
  8
0
 62
     7
100
AcDbLine
 10
370.775737
 20
119.462747
 30
0.0
 11
364.775737
 21
119.462747
 31
0.0
  0
LINE
  5
C6
330
6B
100
AcDbEntity
  8
0
 62
     7
100
AcDbLine
 10
311.275737
 20
109.462747
 30
0.0
 11
311.275737
 21
129.462747
 31
0.0
  0
LINE
  5
C7
330
6B
100
AcDbEntity
  8
0
 62
     7
100
AcDbLine
 10
313.275737
 20
109.462747
 30
0.0
 11
313.275737
 21
129.462747
 31
0.0
  0
LINE
  5
C8
330
6B
100
AcDbEntity
  8
0
 62
     7
100
AcDbLine
 10
315.275737
 20
109.462747
 30
0.0
 11
315.275737
 21
129.462747
 31
0.0
  0
LINE
  5
C9
330
6B
100
AcDbEntity
  8
0
 62
     7
100
AcDbLine
 10
317.275737
 20
109.462747
 30
0.0
 11
317.275737
 21
129.462747
 31
0.0
  0
LINE
  5
CA
330
6B
100
AcDbEntity
  8
0
 62
     7
100
AcDbLine
 10
321.275737
 20
109.462747
 30
0.0
 11
321.275737
 21
129.462747
 31
0.0
  0
LINE
  5
CB
330
6B
100
AcDbEntity
  8
0
 62
     7
100
AcDbLine
 10
323.275737
 20
109.462747
 30
0.0
 11
323.275737
 21
129.462747
 31
0.0
  0
LINE
  5
CC
330
6B
100
AcDbEntity
  8
0
 62
     7
100
AcDbLine
 10
325.275737
 20
109.462747
 30
0.0
 11
325.275737
 21
129.462747
 31
0.0
  0
LINE
  5
CD
330
6B
100
AcDbEntity
  8
0
 62
     7
100
AcDbLine
 10
327.275737
 20
109.462747
 30
0.0
 11
327.275737
 21
129.462747
 31
0.0
  0
LINE
  5
CE
330
6B
100
AcDbEntity
  8
0
 62
     7
100
AcDbLine
 10
370.775737
 20
109.462747
 30
0.0
 11
370.775737
 21
129.462747
 31
0.0
  0
LINE
  5
CF
330
6B
100
AcDbEntity
  8
0
 62
     7
100
AcDbLine
 10
368.775737
 20
109.462747
 30
0.0
 11
368.775737
 21
129.462747
 31
0.0
  0
LINE
  5
D0
330
6B
100
AcDbEntity
  8
0
 62
     7
100
AcDbLine
 10
366.775737
 20
109.462747
 30
0.0
 11
366.775737
 21
129.462747
 31
0.0
  0
LINE
  5
D1
330
6B
100
AcDbEntity
  8
0
 62
     7
100
AcDbLine
 10
364.775737
 20
109.462747
 30
0.0
 11
364.775737
 21
129.462747
 31
0.0
  0
LINE
  5
D2
330
6B
100
AcDbEntity
  8
0
 62
     7
100
AcDbLine
 10
349.075737
 20
109.482375
 30
0.0
 11
349.075737
 21
118.836518
 31
0.0
  0
LINE
  5
D3
330
6B
100
AcDbEntity
  8
0
 62
     7
100
AcDbLine
 10
336.475737
 20
129.44312
 30
0.0
 11
336.475737
 21
120.088976
 31
0.0
  0
LINE
  5
D4
330
6B
100
AcDbEntity
  8
0
 62
     7
100
AcDbLine
 10
349.075737
 20
118.836518
 30
0.0
 11
336.475737
 21
118.836518
 31
0.0
  0
LINE
  5
D5
330
6B
100
AcDbEntity
  8
0
 62
     7
100
AcDbLine
 10
349.075737
 20
120.088976
 30
0.0
 11
336.475737
 21
120.088976
 31
0.0
  0
LINE
  5
D6
330
6B
100
AcDbEntity
  8
0
 62
     7
100
AcDbLine
 10
349.075737
 20
109.482375
 30
0.0
 11
336.475737
 21
109.482375
 31
0.0
  0
LINE
  5
D7
330
6B
100
AcDbEntity
  8
0
 62
     7
100
AcDbLine
 10
349.075737
 20
129.44312
 30
0.0
 11
336.475737
 21
129.44312
 31
0.0
  0
ARC
  5
D8
330
6B
100
AcDbEntity
  8
0
 62
     7
100
AcDbCircle
 10
343.491913
 20
124.766048
 30
0.0
 40
7.283824
100
AcDbArc
 50
320.05009
 51
39.94991
  0
ARC
  5
D9
330
6B
100
AcDbEntity
  8
0
 62
     7
100
AcDbCircle
 10
343.491913
 20
114.159446
 30
0.0
 40
7.283824
100
AcDbArc
 50
320.05009
 51
39.94991
  0
LINE
  5
DA
330
6B
100
AcDbEntity
  8
0
 62
     7
100
AcDbLine
 10
349.075737
 20
120.088976
 30
0.0
 11
349.075737
 21
129.44312
 31
0.0
  0
LINE
  5
DB
330
6B
100
AcDbEntity
  8
0
 62
     7
100
AcDbLine
 10
336.475737
 20
118.836518
 30
0.0
 11
336.475737
 21
109.482375
 31
0.0
  0
LINE
  5
DC
330
6B
100
AcDbEntity
  8
0
 62
     7
100
AcDbLine
 10
336.475737
 20
109.482375
 30
0.0
 11
336.475737
 21
118.836518
 31
0.0
  0
LINE
  5
DD
330
6B
100
AcDbEntity
  8
0
 62
     7
100
AcDbLine
 10
336.475737
 20
120.088976
 30
0.0
 11
336.475737
 21
129.44312
 31
0.0
  0
ARC
  5
DE
330
6B
100
AcDbEntity
  8
0
 62
     7
100
AcDbCircle
 10
342.05956
 20
124.766048
 30
0.0
 40
7.283824
100
AcDbArc
 50
140.05009
 51
219.94991
  0
ARC
  5
DF
330
6B
100
AcDbEntity
  8
0
 62
     7
100
AcDbCircle
 10
342.05956
 20
114.159446
 30
0.0
 40
7.283824
100
AcDbArc
 50
140.05009
 51
219.94991
  0
CIRCLE
  5
E0
330
6B
100
AcDbEntity
  8
0
 62
     7
100
AcDbCircle
 10
266.102733
 20
119.462747
 30
0.0
 40
8.0
  0
CIRCLE
  5
E1
330
6B
100
AcDbEntity
  8
0
 62
     7
100
AcDbCircle
 10
396.769694
 20
119.462747
 30
0.0
 40
8.0
  0
LINE
  5
E2
330
6B
100
AcDbEntity
  8
0
  6
CENTER
 62
     7
100
AcDbLine
 10
396.769694
 20
134.462747
 30
0.0
 11
396.769694
 21
104.462747
 31
0.0
  0
LINE
  5
E3
330
6B
100
AcDbEntity
  8
0
  6
CENTER
 62
     7
100
AcDbLine
 10
251.102733
 20
119.462747
 30
0.0
 11
281.102733
 21
119.462747
 31
0.0
  0
LINE
  5
E4
330
6B
100
AcDbEntity
  8
0
  6
CENTER
 62
     7
100
AcDbLine
 10
266.102733
 20
134.462747
 30
0.0
 11
266.102733
 21
104.462747
 31
0.0
  0
LINE
  5
E5
330
6B
100
AcDbEntity
  8
0
 62
     7
100
AcDbLine
 10
370.775737
 20
117.962747
 30
0.0
 11
364.775737
 21
117.962747
 31
0.0
  0
LINE
  5
E6
330
6B
100
AcDbEntity
  8
0
 62
     7
100
AcDbLine
 10
370.775737
 20
116.462747
 30
0.0
 11
364.775737
 21
116.462747
 31
0.0
  0
LINE
  5
E7
330
6B
100
AcDbEntity
  8
0
 62
     7
100
AcDbLine
 10
370.775737
 20
114.962747
 30
0.0
 11
364.775737
 21
114.962747
 31
0.0
  0
LINE
  5
E8
330
6B
100
AcDbEntity
  8
0
 62
     7
100
AcDbLine
 10
370.775737
 20
113.462747
 30
0.0
 11
364.775737
 21
113.462747
 31
0.0
  0
LINE
  5
E9
330
6B
100
AcDbEntity
  8
0
 62
     7
100
AcDbLine
 10
370.775737
 20
111.962747
 30
0.0
 11
364.775737
 21
111.962747
 31
0.0
  0
LINE
  5
EA
330
6B
100
AcDbEntity
  8
0
 62
     7
100
AcDbLine
 10
370.775737
 20
110.462747
 30
0.0
 11
364.775737
 21
110.462747
 31
0.0
  0
LINE
  5
EB
330
6B
100
AcDbEntity
  8
0
 62
     7
100
AcDbLine
 10
370.775737
 20
120.962747
 30
0.0
 11
364.775737
 21
120.962747
 31
0.0
  0
LINE
  5
EC
330
6B
100
AcDbEntity
  8
0
 62
     7
100
AcDbLine
 10
370.775737
 20
122.462747
 30
0.0
 11
364.775737
 21
122.462747
 31
0.0
  0
LINE
  5
ED
330
6B
100
AcDbEntity
  8
0
 62
     7
100
AcDbLine
 10
370.775737
 20
123.962747
 30
0.0
 11
364.775737
 21
123.962747
 31
0.0
  0
LINE
  5
EE
330
6B
100
AcDbEntity
  8
0
 62
     7
100
AcDbLine
 10
370.775737
 20
125.462747
 30
0.0
 11
364.775737
 21
125.462747
 31
0.0
  0
LINE
  5
EF
330
6B
100
AcDbEntity
  8
0
 62
     7
100
AcDbLine
 10
370.775737
 20
126.962747
 30
0.0
 11
364.775737
 21
126.962747
 31
0.0
  0
LINE
  5
F0
330
6B
100
AcDbEntity
  8
0
 62
     7
100
AcDbLine
 10
370.775737
 20
128.462747
 30
0.0
 11
364.775737
 21
128.462747
 31
0.0
  0
LINE
  5
F1
330
6B
100
AcDbEntity
  8
0
 62
     7
100
AcDbLine
 10
327.275737
 20
110.462747
 30
0.0
 11
321.275737
 21
110.462747
 31
0.0
  0
LINE
  5
F2
330
6B
100
AcDbEntity
  8
0
 62
     7
100
AcDbLine
 10
327.275737
 20
111.962747
 30
0.0
 11
321.275737
 21
111.962747
 31
0.0
  0
LINE
  5
F3
330
6B
100
AcDbEntity
  8
0
 62
     7
100
AcDbLine
 10
327.275737
 20
113.462747
 30
0.0
 11
321.275737
 21
113.462747
 31
0.0
  0
LINE
  5
F4
330
6B
100
AcDbEntity
  8
0
 62
     7
100
AcDbLine
 10
327.275737
 20
114.962747
 30
0.0
 11
321.275737
 21
114.962747
 31
0.0
  0
LINE
  5
F5
330
6B
100
AcDbEntity
  8
0
 62
     7
100
AcDbLine
 10
327.275737
 20
116.462747
 30
0.0
 11
321.275737
 21
116.462747
 31
0.0
  0
LINE
  5
F6
330
6B
100
AcDbEntity
  8
0
 62
     7
100
AcDbLine
 10
327.275737
 20
117.962747
 30
0.0
 11
321.275737
 21
117.962747
 31
0.0
  0
LINE
  5
F7
330
6B
100
AcDbEntity
  8
0
 62
     7
100
AcDbLine
 10
327.275737
 20
128.462747
 30
0.0
 11
321.275737
 21
128.462747
 31
0.0
  0
LINE
  5
F8
330
6B
100
AcDbEntity
  8
0
 62
     7
100
AcDbLine
 10
327.275737
 20
126.962747
 30
0.0
 11
321.275737
 21
126.962747
 31
0.0
  0
LINE
  5
F9
330
6B
100
AcDbEntity
  8
0
 62
     7
100
AcDbLine
 10
327.275737
 20
125.462747
 30
0.0
 11
321.275737
 21
125.462747
 31
0.0
  0
LINE
  5
FA
330
6B
100
AcDbEntity
  8
0
 62
     7
100
AcDbLine
 10
327.275737
 20
123.962747
 30
0.0
 11
321.275737
 21
123.962747
 31
0.0
  0
LINE
  5
FB
330
6B
100
AcDbEntity
  8
0
 62
     7
100
AcDbLine
 10
327.275737
 20
122.462747
 30
0.0
 11
321.275737
 21
122.462747
 31
0.0
  0
LINE
  5
FC
330
6B
100
AcDbEntity
  8
0
 62
     7
100
AcDbLine
 10
327.275737
 20
120.962747
 30
0.0
 11
321.275737
 21
120.962747
 31
0.0
  0
LINE
  5
FD
330
6B
100
AcDbEntity
  8
0
 62
     7
100
AcDbLine
 10
327.275737
 20
119.462747
 30
0.0
 11
321.275737
 21
119.462747
 31
0.0
  0
LINE
  5
FE
330
6B
100
AcDbEntity
  8
0
 62
     7
100
AcDbLine
 10
317.275737
 20
110.462747
 30
0.0
 11
311.275737
 21
110.462747
 31
0.0
  0
LINE
  5
FF
330
6B
100
AcDbEntity
  8
0
 62
     7
100
AcDbLine
 10
317.275737
 20
111.962747
 30
0.0
 11
311.275737
 21
111.962747
 31
0.0
  0
LINE
  5
100
330
6B
100
AcDbEntity
  8
0
 62
     7
100
AcDbLine
 10
317.275737
 20
113.462747
 30
0.0
 11
311.275737
 21
113.462747
 31
0.0
  0
LINE
  5
101
330
6B
100
AcDbEntity
  8
0
 62
     7
100
AcDbLine
 10
317.275737
 20
114.962747
 30
0.0
 11
311.275737
 21
114.962747
 31
0.0
  0
LINE
  5
102
330
6B
100
AcDbEntity
  8
0
 62
     7
100
AcDbLine
 10
317.275737
 20
116.462747
 30
0.0
 11
311.275737
 21
116.462747
 31
0.0
  0
LINE
  5
103
330
6B
100
AcDbEntity
  8
0
 62
     7
100
AcDbLine
 10
317.275737
 20
117.962747
 30
0.0
 11
311.275737
 21
117.962747
 31
0.0
  0
LINE
  5
104
330
6B
100
AcDbEntity
  8
0
 62
     7
100
AcDbLine
 10
317.275737
 20
128.462747
 30
0.0
 11
311.275737
 21
128.462747
 31
0.0
  0
LINE
  5
105
330
6B
100
AcDbEntity
  8
0
 62
     7
100
AcDbLine
 10
317.275737
 20
126.962747
 30
0.0
 11
311.275737
 21
126.962747
 31
0.0
  0
LINE
  5
106
330
6B
100
AcDbEntity
  8
0
 62
     7
100
AcDbLine
 10
317.275737
 20
125.462747
 30
0.0
 11
311.275737
 21
125.462747
 31
0.0
  0
LINE
  5
107
330
6B
100
AcDbEntity
  8
0
 62
     7
100
AcDbLine
 10
317.275737
 20
123.962747
 30
0.0
 11
311.275737
 21
123.962747
 31
0.0
  0
LINE
  5
108
330
6B
100
AcDbEntity
  8
0
 62
     7
100
AcDbLine
 10
317.275737
 20
122.462747
 30
0.0
 11
311.275737
 21
122.462747
 31
0.0
  0
LINE
  5
109
330
6B
100
AcDbEntity
  8
0
 62
     7
100
AcDbLine
 10
317.275737
 20
120.962747
 30
0.0
 11
311.275737
 21
120.962747
 31
0.0
  0
LINE
  5
10A
330
6B
100
AcDbEntity
  8
0
 62
     7
100
AcDbLine
 10
317.275737
 20
119.462747
 30
0.0
 11
311.275737
 21
119.462747
 31
0.0
  0
LINE
  5
10B
330
6B
100
AcDbEntity
  8
0
  6
CENTER
 62
     7
100
AcDbLine
 10
342.775737
 20
135.395051
 30
0.0
 11
342.775737
 21
105.05757
 31
0.0
  0
LINE
  5
110
330
6B
100
AcDbEntity
  8
0
 62
     7
100
AcDbLine
 10
428.7575589999998
 20
97.671421
 30
0.0
 11
438.167606
 21
97.671421
 31
0.0
  0
CIRCLE
  5
111
330
6B
100
AcDbEntity
  8
0
 62
     3
100
AcDbCircle
 10
396.769694
 20
119.462747
 30
0.0
 40
5.0
  0
LINE
  5
114
330
6B
100
AcDbEntity
  8
0
 62
     3
100
AcDbLine
 10
461.303462
 20
10.523945
 30
0.0
 11
461.303462
 21
33.52394500000001
 31
0.0
  0
LINE
  5
116
330
6B
100
AcDbEntity
  8
0
 62
     3
100
AcDbLine
 10
408.2498529999998
 20
3.523944999999998
 30
0.0
 11
408.2498529999998
 21
17.523945
 31
0.0
  0
TEXT
  5
118
330
6B
100
AcDbEntity
  8
0
 62
     3
100
AcDbText
 10
437.31378
 20
29.729061
 30
0.0
 40
2.0
  1
A
 41
0.7
100
AcDbText
  0
TEXT
  5
119
330
6B
100
AcDbEntity
  8
0
 62
     3
100
AcDbText
 10
439.849066
 20
29.729061
 30
0.0
 40
2.0
  1
P
 41
0.7
100
AcDbText
  0
TEXT
  5
11A
330
6B
100
AcDbEntity
  8
0
 62
     3
100
AcDbText
 10
442.384353
 20
29.729061
 30
0.0
 40
2.0
  1
P
 41
0.7
100
AcDbText
  0
TEXT
  5
11B
330
6B
100
AcDbEntity
  8
0
 62
     3
100
AcDbText
 10
444.919639
 20
29.729061
 30
0.0
 40
2.0
  1
D
 41
0.7
100
AcDbText
  0
TEXT
  5
11C
330
6B
100
AcDbEntity
  8
0
 62
     3
100
AcDbText
 10
450.288322
 20
29.729061
 30
0.0
 40
2.0
  1
C
 41
0.7
100
AcDbText
  0
TEXT
  5
11D
330
6B
100
AcDbEntity
  8
0
 62
     3
100
AcDbText
 10
452.823608
 20
29.729061
 30
0.0
 40
2.0
  1
H
 41
0.7
100
AcDbText
  0
TEXT
  5
11E
330
6B
100
AcDbEntity
  8
0
 62
     3
100
AcDbText
 10
455.358894
 20
29.729061
 30
0.0
 40
2.0
  1
C
 41
0.7
100
AcDbText
  0
TEXT
  5
11F
330
6B
100
AcDbEntity
  8
0
 62
     3
100
AcDbText
 10
457.8941809999998
 20
29.729061
 30
0.0
 40
2.0
  1
K
 41
0.7
100
AcDbText
  0
TEXT
  5
120
330
6B
100
AcDbEntity
  8
0
 62
     3
100
AcDbText
 10
463.5681469999998
 20
29.729061
 30
0.0
 40
2.0
  1
DESN
 41
1.216762999999998
100
AcDbText
  0
TEXT
  5
121
330
6B
100
AcDbEntity
  8
0
 62
     3
100
AcDbText
 10
378.561788
 20
0.3825630000000002
 30
0.0
 40
2.0
  1
NICHIDO IND.CO.LTD
 41
1.274876
100
AcDbText
  0
LINE
  5
122
330
6B
100
AcDbEntity
  8
0
 62
     3
100
AcDbLine
 10
388.944818
 20
33.52394500000001
 30
0.0
 11
388.944818
 21
10.523945
 31
0.0
  0
LINE
  5
123
330
6B
100
AcDbEntity
  8
0
 62
     3
100
AcDbLine
 10
435.3034619999998
 20
33.52394500000001
 30
0.0
 11
435.303462
 21
-6.141777999999997
 31
0.0
  0
LINE
  5
128
330
6B
100
AcDbEntity
  8
0
 62
     3
100
AcDbLine
 10
448.303462
 20
33.52394500000001
 30
0.0
 11
448.303462
 21
3.523944999999998
 31
0.0
  0
TEXT
  5
129
330
6B
100
AcDbEntity
  8
0
 62
     3
100
AcDbText
 10
436.581945
 20
5.229200999999997
 30
0.0
 40
3.2
  1
作成日
 41
1.017225999999997
100
AcDbText
  0
LINE
  5
12A
330
6B
100
AcDbEntity
  8
0
 62
     3
100
AcDbLine
 10
487.0028259999998
 20
33.52394500000001
 30
0.0
 11
375.6993829999998
 21
33.52394500000001
 31
0.0
  0
LINE
  5
12B
330
6B
100
AcDbEntity
  8
0
 62
     3
100
AcDbLine
 10
487.0028259999998
 20
24.523945
 30
0.0
 11
375.6993829999998
 21
24.523945
 31
0.0
  0
LINE
  5
12C
330
6B
100
AcDbEntity
  8
0
 62
     3
100
AcDbLine
 10
487.0028259999998
 20
10.523945
 30
0.0
 11
375.6993829999998
 21
10.523945
 31
0.0
  0
LINE
  5
12D
330
6B
100
AcDbEntity
  8
0
 62
     3
100
AcDbLine
 10
487.0028259999998
 20
3.523944999999998
 30
0.0
 11
375.6993829999998
 21
3.523944999999998
 31
0.0
  0
LINE
  5
12E
330
6B
100
AcDbEntity
  8
0
 62
     3
100
AcDbLine
 10
474.303462
 20
10.523945
 30
0.0
 11
474.303462
 21
33.52394500000001
 31
0.0
  0
TEXT
  5
12F
330
6B
100
AcDbEntity
  8
0
 62
     3
100
AcDbText
 10
477.627265
 20
29.814879
 30
0.0
 40
1.8
  1
D
 41
0.666667
100
AcDbText
  0
TEXT
  5
130
330
6B
100
AcDbEntity
  8
0
 62
     3
100
AcDbText
 10
480.4438939999998
 20
29.814879
 30
0.0
 40
1.8
  1
E
 41
0.666667
100
AcDbText
  0
TEXT
  5
131
330
6B
100
AcDbEntity
  8
0
 62
     3
100
AcDbText
 10
483.2605219999998
 20
29.814879
 30
0.0
 40
1.8
  1
F
 41
0.666667
100
AcDbText
  0
TEXT
  5
132
330
6B
100
AcDbEntity
  8
0
 62
     3
100
AcDbText
 10
477.627265
 20
25.822326
 30
0.0
 40
3.2
  1
製図
 41
1.076369
100
AcDbText
  0
LINE
  5
133
330
6B
100
AcDbEntity
  8
0
 62
     3
100
AcDbLine
 10
375.6993829999998
 20
33.52394500000001
 30
0.0
 11
375.6993829999998
 21
-6.141777999999997
 31
0.0
  0
LINE
  5
134
330
6B
100
AcDbEntity
  8
0
 62
     3
100
AcDbLine
 10
435.303462
 20
17.523945
 30
0.0
 11
375.6993829999998
 21
17.523945
 31
0.0
  0
TEXT
  5
135
330
6B
100
AcDbEntity
  8
0
 62
     3
100
AcDbText
 10
377.076036
 20
-5.809312
 30
0.0
 40
5.0
  1
日動工業株式会社
 41
0.833333
100
AcDbText
  0
LINE
  5
136
330
6B
100
AcDbEntity
  8
0
 62
     3
100
AcDbLine
 10
418.5817869999998
 20
17.523945
 30
0.0
 11
418.5817869999998
 21
-6.141777999999997
 31
0.0
  0
LINE
  5
137
330
6B
100
AcDbEntity
  8
0
 62
     3
100
AcDbLine
 10
418.5817869999998
 20
-1.308916999999998
 30
0.0
 11
435.303462
 21
-1.308916999999998
 31
0.0
  0
TEXT
  5
138
330
6B
100
AcDbEntity
  8
0
 62
     3
100
AcDbText
 10
419.168389
 20
-0.4924859999999998
 30
0.0
 40
3.2
  1
出図コード
 41
0.8356860000000001
100
AcDbText
  0
TEXT
  5
139
330
6B
100
AcDbEntity
  8
0
 62
     3
100
AcDbText
 10
419.168389
 20
-5.325346999999998
 30
0.0
 40
3.2
  1
HM-A4
 41
0.999426
100
AcDbText
  0
LINE
  5
14B
330
6B
100
AcDbEntity
  8
0
 62
     3
100
AcDbLine
 10
348.502826
 20
186.33084
 30
0.0
 11
348.502826
 21
185.082281
 31
0.0
  0
LINE
  5
151
330
6B
100
AcDbEntity
  8
0
 62
     3
100
AcDbLine
 10
210.002826
 20
173.858222
 30
0.0
 11
210.002826
 21
-6.141777999999997
 31
0.0
  0
LINE
  5
152
330
6B
100
AcDbEntity
  8
0
 62
     3
100
AcDbLine
 10
487.0028259999998
 20
-6.141777999999997
 30
0.0
 11
487.0028259999998
 21
173.858222
 31
0.0
  0
LINE
  5
153
330
6B
100
AcDbEntity
  8
0
 62
     3
100
AcDbLine
 10
210.002826
 20
-6.141777999999997
 30
0.0
 11
487.0028259999998
 21
-6.141777999999997
 31
0.0
  0
LINE
  5
154
330
6B
100
AcDbEntity
  8
0
 62
     3
100
AcDbLine
 10
210.002826
 20
173.858222
 30
0.0
 11
487.0028259999998
 21
173.858222
 31
0.0
  0
TEXT
  5
155
330
6B
100
AcDbEntity
  8
0
 62
     3
100
AcDbText
 10
377.51678
 20
29.69347
 30
0.0
 40
2.0
  1
CONPONENTS
 41
0.5331600000000001
100
AcDbText
  0
TEXT
  5
156
330
6B
100
AcDbEntity
  8
0
 62
     3
100
AcDbText
 10
377.167053
 20
10.761294
 30
0.0
 40
3.0
  1
材
 41
0.833333
100
AcDbText
  0
TEXT
  5
157
330
6B
100
AcDbEntity
  8
0
 62
     3
100
AcDbText
 10
384.702696
 20
10.761294
 30
0.0
 40
3.0
  1
質
 41
0.833333
100
AcDbText
  0
TEXT
  5
158
330
6B
100
AcDbEntity
  8
0
 62
     3
100
AcDbText
 10
377.255124
 20
21.385818
 30
0.0
 40
2.0
  1
MODEL
 41
1.031072999999999
100
AcDbText
  0
TEXT
  5
159
330
6B
100
AcDbEntity
  8
0
 62
     3
100
AcDbText
 10
377.167053
 20
14.443602
 30
0.0
 40
2.0
  1
MATERIAL
 41
0.659278
100
AcDbText
  0
TEXT
  5
15A
330
6B
100
AcDbEntity
  8
0
 62
     3
100
AcDbText
 10
408.474334
 20
10.761294
 30
0.0
 40
3.0
  1
備
 41
0.833333
100
AcDbText
  0
TEXT
  5
15B
330
6B
100
AcDbEntity
  8
0
 62
     3
100
AcDbText
 10
415.2073349999998
 20
10.761294
 30
0.0
 40
3.0
  1
考
 41
0.833333
100
AcDbText
  0
TEXT
  5
15C
330
6B
100
AcDbEntity
  8
0
 62
     3
100
AcDbText
 10
408.711823575487
 20
14.443602
 30
0.0
 40
2.0
  1
REMARKS
 41
0.675794
100
AcDbText
  0
TEXT
  5
15D
330
6B
100
AcDbEntity
  8
0
 62
     3
100
AcDbText
 10
378.756782
 20
7.523481000000001
 30
0.0
 40
2.0
  1
3AD
 41
1.42614
100
AcDbText
  0
TEXT
  5
15E
330
6B
100
AcDbEntity
  8
0
 62
     3
100
AcDbText
 10
388.067762
 20
7.689214999999999
 30
0.0
 40
2.0
  1
ANGLE
 41
1.669883999999995
100
AcDbText
  0
TEXT
  5
15F
330
6B
100
AcDbEntity
  8
0
 62
     3
100
AcDbText
 10
409.001649
 20
7.312374
 30
0.0
 40
2.0
  1
SCALE
 41
0.7719630000000001
100
AcDbText
  0
TEXT
  5
160
330
6B
100
AcDbEntity
  8
0
 62
     3
100
AcDbText
 10
378.442912
 20
3.523944999999998
 30
0.0
 40
3.0
  1
第
 41
0.833333
100
AcDbText
  0
TEXT
  5
161
330
6B
100
AcDbEntity
  8
0
 62
     3
100
AcDbText
 10
386.229762
 20
3.523944999999998
 30
0.0
 40
3.0
  1
三
 41
0.833333
100
AcDbText
  0
TEXT
  5
162
330
6B
100
AcDbEntity
  8
0
 62
     3
100
AcDbText
 10
394.016612
 20
3.523944999999998
 30
0.0
 40
3.0
  1
角
 41
0.833333
100
AcDbText
  0
TEXT
  5
163
330
6B
100
AcDbEntity
  8
0
 62
     3
100
AcDbText
 10
401.8034619999999
 20
3.523944999999998
 30
0.0
 40
3.0
  1
法
 41
0.833333
100
AcDbText
  0
TEXT
  5
164
330
6B
100
AcDbEntity
  8
0
 62
     3
100
AcDbText
 10
408.8648539999998
 20
3.812373999999998
 30
0.0
 40
3.0
  1
尺
 41
0.833333
100
AcDbText
  0
TEXT
  5
165
330
6B
100
AcDbEntity
  8
0
 62
     3
100
AcDbText
 10
415.5978559999998
 20
3.812373999999998
 30
0.0
 40
3.0
  1
度
 41
0.833333
100
AcDbText
  0
TEXT
  5
166
330
6B
100
AcDbEntity
  8
0
 62
     3
100
AcDbText
 10
438.1811259999998
 20
25.981674
 30
0.0
 40
3.0
  1
承認
 41
1.089472999999999
100
AcDbText
  0
TEXT
  5
167
330
6B
100
AcDbEntity
  8
0
 62
     3
100
AcDbText
 10
451.4240069999998
 20
25.923945
 30
0.0
 40
3.0
  1
検図
 41
0.931761
100
AcDbText
  0
TEXT
  5
168
330
6B
100
AcDbEntity
  8
0
 62
     3
100
AcDbText
 10
464.424403
 20
25.923945
 30
0.0
 40
3.0
  1
設
 41
0.833333
100
AcDbText
  0
TEXT
  5
169
330
6B
100
AcDbEntity
  8
0
 62
     3
100
AcDbText
 10
468.9142709999998
 20
25.923945
 30
0.0
 40
3.0
  1
計
 41
0.833333
100
AcDbText
  0
TEXT
  5
16A
330
6B
100
AcDbEntity
  8
0
 62
     3
100
AcDbText
 10
377.586887
 20
26.096497
 30
0.0
 40
3.0
  1
品
 41
0.833333
100
AcDbText
  0
TEXT
  5
16B
330
6B
100
AcDbEntity
  8
0
 62
     3
100
AcDbText
 10
385.122529
 20
26.096497
 30
0.0
 40
3.0
  1
名
 41
0.833333
100
AcDbText
  0
TEXT
  5
16C
330
6B
100
AcDbEntity
  8
0
 62
     3
100
AcDbText
 10
377.255124
 20
17.87903567186456
 30
0.0
 40
3.0
  1
型
 41
0.833333
100
AcDbText
  0
TEXT
  5
16D
330
6B
100
AcDbEntity
  8
0
 62
     3
100
AcDbText
 10
384.803215
 20
17.87903567186456
 30
0.0
 40
3.0
  1
式
 41
0.833333
100
AcDbText
  0
LINE
  5
16E
330
6B
100
AcDbEntity
  8
0
 62
     3
100
AcDbLine
 10
487.0028259999998
 20
39.523945
 30
0.0
 11
435.303462
 21
39.523945
 31
0.0
  0
LINE
  5
16F
330
6B
100
AcDbEntity
  8
0
 62
     3
100
AcDbLine
 10
461.303462
 20
33.52394500000001
 30
0.0
 11
461.303462
 21
39.523945
 31
0.0
  0
LINE
  5
170
330
6B
100
AcDbEntity
  8
0
 62
     3
100
AcDbLine
 10
435.303462
 20
33.52394500000001
 30
0.0
 11
435.303462
 21
39.523945
 31
0.0
  0
TEXT
  5
171
330
6B
100
AcDbEntity
  8
0
 62
     3
100
AcDbText
 10
440.3276447486955
 20
34.08003
 30
0.0
 40
4.5
  1
コード
  7
高4.5
100
AcDbText
  0
TEXT
  5
172
330
6B
100
AcDbEntity
  8
0
 62
     3
100
AcDbText
 10
270.1488734095276
 20
-5.641777999999997
 30
0.0
 40
3.2
  1
　備　　　　　考　
 41
0.8
  7
高3.2
100
AcDbText
  0
TEXT
  5
173
330
6B
100
AcDbEntity
  8
0
 62
     3
100
AcDbText
 10
247.4926234095277
 20
-5.641777999999997
 30
0.0
 40
3.2
  1
個数
 41
0.8
  7
高3.2
100
AcDbText
  0
TEXT
  5
174
330
6B
100
AcDbEntity
  8
0
 62
     3
100
AcDbText
 10
211.502826
 20
-5.641777999999997
 30
0.0
 40
3.2
  1
No.
 41
0.8
  7
高3.2
100
AcDbText
  0
TEXT
  5
175
330
6B
100
AcDbEntity
  8
0
 62
     3
100
AcDbText
 10
211.502826
 20
9.358222000000003
 30
0.0
 40
3.2
  1
3
 41
0.8
  7
高3.2
100
AcDbText
  0
TEXT
  5
176
330
6B
100
AcDbEntity
  8
0
 62
     3
100
AcDbText
 10
211.502826
 20
14.358222
 30
0.0
 40
3.2
  1
4
 41
0.8
  7
高3.2
100
AcDbText
  0
TEXT
  5
177
330
6B
100
AcDbEntity
  8
0
 62
     3
100
AcDbText
 10
211.502826
 20
19.358222
 30
0.0
 40
3.2
  1
5
 41
0.8
  7
高3.2
100
AcDbText
  0
TEXT
  5
178
330
6B
100
AcDbEntity
  8
0
 62
     3
100
AcDbText
 10
247.4926234095277
 20
9.358222000000003
 30
0.0
 40
3.2
  1
1
 41
0.8
  7
高3.2
100
AcDbText
  0
TEXT
  5
179
330
6B
100
AcDbEntity
  8
0
 62
     3
100
AcDbText
 10
211.502826
 20
-0.6417779999999996
 30
0.0
 40
3.2
  1
1
 41
0.8
  7
高3.2
100
AcDbText
  0
TEXT
  5
17A
330
6B
100
AcDbEntity
  8
0
 62
     3
100
AcDbText
 10
211.502826
 20
4.358222
 30
0.0
 40
3.2
  1
2
 41
0.8
  7
高3.2
100
AcDbText
  0
TEXT
  5
17B
330
6B
100
AcDbEntity
  8
0
 62
     3
100
AcDbText
 10
219.6555977081135
 20
-0.6417779999999996
 30
0.0
 40
3.2
  1
ケース本体
 41
0.8
  7
高3.2
100
AcDbText
  0
TEXT
  5
17C
330
6B
100
AcDbEntity
  8
0
 62
     3
100
AcDbText
 10
247.4926234095277
 20
14.358222
 30
0.0
 40
3.2
  1
1
 41
0.8
  7
高3.2
100
AcDbText
  0
TEXT
  5
17D
330
6B
100
AcDbEntity
  8
0
 62
     3
100
AcDbText
 10
247.4926234095277
 20
-0.6417779999999996
 30
0.0
 40
3.2
  1
1式
 41
0.8
  7
高3.2
100
AcDbText
  0
TEXT
  5
17E
330
6B
100
AcDbEntity
  8
0
 62
     3
100
AcDbText
 10
257.6488734095277
 20
14.358222
 30
0.0
 40
3.2
  1
-
 41
0.8
  7
高3.2
100
AcDbText
  0
TEXT
  5
17F
330
6B
100
AcDbEntity
  8
0
 62
     3
100
AcDbText
 10
247.4926234095277
 20
4.358222
 30
0.0
 40
3.2
  1
1
 41
0.8
  7
高3.2
100
AcDbText
  0
TEXT
  5
180
330
6B
100
AcDbEntity
  8
0
 62
     3
100
AcDbText
 10
257.6488734095277
 20
9.358222000000003
 30
0.0
 40
3.2
  1
-
 41
0.8
  7
高3.2
100
AcDbText
  0
CIRCLE
  5
181
330
6B
100
AcDbEntity
  8
0
 62
     7
100
AcDbCircle
 10
358.817087
 20
90.02622
 30
0.0
 40
5.0
  0
TEXT
  5
182
330
6B
100
AcDbEntity
  8
0
 62
     4
100
AcDbText
 10
356.6608537958316
 20
86.81639205773059
 30
0.0
 40
6.299999999999998
  1
3
  7
高6.3
100
AcDbText
  0
TEXT
  5
183
330
6B
100
AcDbEntity
  8
0
 62
     3
100
AcDbText
 10
219.6555977081135
 20
4.358222
 30
0.0
 40
3.2
  1
電池蓋
 41
0.8
  7
高3.2
100
AcDbText
  0
TEXT
  5
184
330
6B
100
AcDbEntity
  8
0
 62
     3
100
AcDbText
 10
219.6555977081135
 20
9.358222000000003
 30
0.0
 40
3.2
  1
電池
 41
0.8
  7
高3.2
100
AcDbText
  0
TEXT
  5
185
330
6B
100
AcDbEntity
  8
0
 62
     3
100
AcDbText
 10
219.6555977081135
 20
14.358222
 30
0.0
 40
3.2
  1
LED
 41
0.8
  7
高3.2
100
AcDbText
  0
TEXT
  5
186
330
6B
100
AcDbEntity
  8
0
 62
     3
100
AcDbText
 10
219.6555977081135
 20
19.358222
 30
0.0
 40
3.2
  1
スイッチ
 41
0.8
  7
高3.2
100
AcDbText
  0
TEXT
  5
187
330
6B
100
AcDbEntity
  8
0
 62
     3
100
AcDbText
 10
270.1488734095276
 20
19.358222
 30
0.0
 40
3.2
  1
プッシュ式
 41
0.8
  7
高3.2
100
AcDbText
  0
TEXT
  5
188
330
6B
100
AcDbEntity
  8
0
 62
     3
100
AcDbText
 10
270.1488734095276
 20
9.358222000000003
 30
0.0
 40
3.2
  1
リチウムイオン充電池
 41
0.8
  7
高3.2
100
AcDbText
  0
TEXT
  5
189
330
6B
100
AcDbEntity
  8
0
 62
     3
100
AcDbText
 10
257.6488734095277
 20
-0.6417779999999996
 30
0.0
 40
3.2
  1
AL
 41
0.8
  7
高3.2
100
AcDbText
  0
TEXT
  5
18A
330
6B
100
AcDbEntity
  8
0
 62
     3
100
AcDbText
 10
257.6488734095277
 20
4.358222
 30
0.0
 40
3.2
  1
AL
 41
0.8
  7
高3.2
100
AcDbText
  0
TEXT
  5
18B
330
6B
100
AcDbEntity
  8
0
 62
     3
100
AcDbText
 10
257.6488734095277
 20
19.358222
 30
0.0
 40
3.2
  1
ゴム
 41
0.8
  7
高3.2
100
AcDbText
  0
LINE
  5
18C
330
6B
100
AcDbEntity
  8
0
 62
     7
100
AcDbLine
 10
218.1555977081135
 20
-6.141777999999997
 30
0.0
 11
218.1555977081135
 21
38.85822200000003
 31
0.0
  0
LINE
  5
18D
330
6B
100
AcDbEntity
  8
0
 62
     3
100
AcDbLine
 10
302.5043275376582
 20
-6.141777999999997
 30
0.0
 11
302.5043275376581
 21
38.85822200000003
 31
0.0
  0
LINE
  5
18E
330
6B
100
AcDbEntity
  8
0
 62
     7
100
AcDbLine
 10
256.1488734095277
 20
-6.141777999999997
 30
0.0
 11
256.1488734095277
 21
38.85822200000003
 31
0.0
  0
LINE
  5
18F
330
6B
100
AcDbEntity
  8
0
 62
     7
100
AcDbLine
 10
245.9926234095277
 20
-6.141777999999997
 30
0.0
 11
245.9926234095277
 21
38.85822200000003
 31
0.0
  0
LINE
  5
190
330
6B
100
AcDbEntity
  8
0
 62
     7
100
AcDbLine
 10
268.6488734095277
 20
-6.141777999999997
 30
0.0
 11
268.6488734095277
 21
38.85822200000003
 31
0.0
  0
TEXT
  5
191
330
6B
100
AcDbEntity
  8
0
 62
     3
100
AcDbText
 10
219.6555977081135
 20
-5.641777999999997
 30
0.0
 40
3.2
  1
部品名
 41
0.8
  7
高3.2
100
AcDbText
  0
TEXT
  5
192
330
6B
100
AcDbEntity
  8
0
 62
     3
100
AcDbText
 10
257.6488734095277
 20
-5.641777999999997
 30
0.0
 40
3.2
  1
材　質
 41
0.8
  7
高3.2
100
AcDbText
  0
TEXT
  5
193
330
6B
100
AcDbEntity
  8
0
 62
     3
100
AcDbText
 10
389.6492248894385
 20
25.049886
 30
0.0
 40
4.5
  1
スーパーLEDライト
 41
0.9
  7
高4.5
100
AcDbText
  0
TEXT
  5
194
330
6B
100
AcDbEntity
  8
0
 62
     3
100
AcDbText
 10
450.6941953800515
 20
4.332537999999996
 30
0.0
 40
3.2
  1
2008.09.08
  7
高3.2
100
AcDbText
  0
TEXT
  5
195
330
6B
100
AcDbEntity
  8
0
 62
     3
100
AcDbText
 10
422.1558819999998
 20
4.716810999999998
 30
0.0
 40
3.2
  1
1/1
  7
高3.2
100
AcDbText
  0
TEXT
  5
196
330
6B
100
AcDbEntity
  8
0
 62
     3
100
AcDbText
 10
247.4926234095277
 20
19.358222
 30
0.0
 40
3.2
  1
1
 41
0.8
  7
高3.2
100
AcDbText
  0
CIRCLE
  5
1A4
330
6B
100
AcDbEntity
  8
0
 62
     7
100
AcDbCircle
 10
253.254921
 20
90.21254799999999
 30
0.0
 40
5.0
  0
TEXT
  5
1A5
330
6B
100
AcDbEntity
  8
0
 62
     4
100
AcDbText
 10
251.0986877958315
 20
87.0027200577306
 30
0.0
 40
6.299999999999998
  1
4
  7
高6.3
100
AcDbText
  0
CIRCLE
  5
1AC
330
6B
100
AcDbEntity
  8
0
 62
     7
100
AcDbCircle
 10
303.174428
 20
90.02622
 30
0.0
 40
5.0
  0
TEXT
  5
1AD
330
6B
100
AcDbEntity
  8
0
 62
     4
100
AcDbText
 10
302.0993789003392
 20
86.85366003903368
 30
0.0
 40
6.299999999999998
  1
1
  7
高6.3
100
AcDbText
  0
CIRCLE
  5
1B4
330
6B
100
AcDbEntity
  8
0
 62
     7
100
AcDbCircle
 10
370.817087
 20
90.02622
 30
0.0
 40
5.0
  0
TEXT
  5
1B5
330
6B
100
AcDbEntity
  8
0
 62
     4
100
AcDbText
 10
368.6608537958315
 20
86.81639205773059
 30
0.0
 40
6.299999999999998
  1
2
  7
高6.3
100
AcDbText
  0
CIRCLE
  5
1BC
330
6B
100
AcDbEntity
  8
0
 62
     7
100
AcDbCircle
 10
383.994345
 20
90.337417
 30
0.0
 40
5.0
  0
TEXT
  5
1BD
330
6B
100
AcDbEntity
  8
0
 62
     4
100
AcDbText
 10
381.8381117958315
 20
87.12758905773062
 30
0.0
 40
6.299999999999998
  1
5
  7
高6.3
100
AcDbText
  0
TEXT
  5
1BE
330
6B
100
AcDbEntity
  8
0
 62
     3
100
AcDbText
 10
270.1488734095276
 20
4.358222
 30
0.0
 40
3.2
  1
アルマイト
 41
0.8
  7
高3.2
100
AcDbText
  0
TEXT
  5
1BF
330
6B
100
AcDbEntity
  8
0
 62
     3
100
AcDbText
 10
270.1488734095276
 20
-0.6417779999999996
 30
0.0
 40
3.2
  1
アルマイト
 41
0.8
  7
高3.2
100
AcDbText
  0
TEXT
  5
1C0
330
6B
100
AcDbEntity
  8
0
 62
     3
100
AcDbText
 10
397.447148
 20
81.685879
 30
0.0
 40
3.2
  1
型　式
  7
高3.2
100
AcDbText
  0
TEXT
  5
1C1
330
6B
100
AcDbEntity
  8
0
 62
     3
100
AcDbText
 10
397.447148
 20
75.685879
 30
0.0
 40
3.2
  1
電　源
  7
高3.2
100
AcDbText
  0
TEXT
  5
1C2
330
6B
100
AcDbEntity
  8
0
 62
     3
100
AcDbText
 10
397.447148
 20
69.685879
 30
0.0
 40
3.2
  1
連続点灯
  7
高3.2
100
AcDbText
  0
TEXT
  5
1C3
330
6B
100
AcDbEntity
  8
0
 62
     3
100
AcDbText
 10
397.447148
 20
51.685879
 30
0.0
 40
3.2
  1
照射角
  7
高3.2
100
AcDbText
  0
TEXT
  5
1C4
330
6B
100
AcDbEntity
  8
0
 62
     3
100
AcDbText
 10
397.715705
 20
45.68587899999999
 30
0.0
 40
3.2
  1
質　量
  7
高3.2
100
AcDbText
  0
TEXT
  5
1C5
330
6B
100
AcDbEntity
  8
0
 62
     3
100
AcDbText
 10
397.447148
 20
63.68587900000001
 30
0.0
 40
3.2
  1
出　力
  7
高3.2
100
AcDbText
  0
TEXT
  5
1C6
330
6B
100
AcDbEntity
  8
0
 62
     3
100
AcDbText
 10
416.047538588289
 20
87.38946
 30
0.0
 40
4.5
  1
主　　仕　　様
  7
高4.5
100
AcDbText
  0
TEXT
  5
1C7
330
6B
100
AcDbEntity
  8
0
 62
     3
100
AcDbText
 10
397.447148
 20
57.685879
 30
0.0
 40
3.2
  1
定格光束
  7
高3.2
100
AcDbText
  0
LINE
  5
1C8
330
6B
100
AcDbEntity
  8
0
 62
     3
100
AcDbLine
 10
396.054557
 20
92.68587899999999
 30
0.0
 11
396.054557
 21
44.685879
 31
0.0
  0
LINE
  5
1C9
330
6B
100
AcDbEntity
  8
0
 62
     3
100
AcDbLine
 10
473.8413019999998
 20
44.685879
 30
0.0
 11
473.8413019999998
 21
92.68587899999999
 31
0.0
  0
LINE
  5
1CA
330
6B
100
AcDbEntity
  8
0
 62
     7
100
AcDbLine
 10
416.816573
 20
86.685879
 30
0.0
 11
416.816573
 21
44.685879
 31
0.0
  0
TEXT
  5
1CB
330
6B
100
AcDbEntity
  8
0
 62
     3
100
AcDbText
 10
418.8165729999998
 20
81.685879
 30
0.0
 40
3.2
  1
SL-5WCH-SLIM
  7
高3.2
100
AcDbText
  0
TEXT
  5
1CC
330
6B
100
AcDbEntity
  8
0
 62
     3
100
AcDbText
 10
418.8165729999998
 20
75.685879
 30
0.0
 40
3.2
  1
リチウムイオン充電池
  7
高3.2
100
AcDbText
  0
TEXT
  5
1CD
330
6B
100
AcDbEntity
  8
0
 62
     3
100
AcDbText
 10
418.8165729999998
 20
69.685879
 30
0.0
 40
3.2
  1
50分以上
  7
高3.2
100
AcDbText
  0
TEXT
  5
1CE
330
6B
100
AcDbEntity
  8
0
 62
     3
100
AcDbText
 10
418.8165729999998
 20
63.68587900000001
 30
0.0
 40
3.2
  1
5W
  7
高3.2
100
AcDbText
  0
TEXT
  5
1CF
330
6B
100
AcDbEntity
  8
0
 62
     3
100
AcDbText
 10
418.8165729999998
 20
51.685879
 30
0.0
 40
3.2
  1
拡散型
  7
高3.2
100
AcDbText
  0
TEXT
  5
1D0
330
6B
100
AcDbEntity
  8
0
 62
     3
100
AcDbText
 10
418.8165729999998
 20
57.685879
 30
0.0
 40
3.2
  1
180Lm
  7
高3.2
100
AcDbText
  0
TEXT
  5
1D1
330
6B
100
AcDbEntity
  8
0
 62
     3
100
AcDbText
 10
418.8165729999998
 20
45.68587899999999
 30
0.0
 40
3.2
  1
約30g(電池含46g)
  7
高3.2
100
AcDbText
  0
LINE
  5
1D2
330
6B
100
AcDbEntity
  8
0
 62
     3
100
AcDbLine
 10
396.054557
 20
92.68587899999999
 30
0.0
 11
473.8413019999998
 21
92.68587899999999
 31
0.0
  0
LINE
  5
1D3
330
6B
100
AcDbEntity
  8
0
 62
     3
100
AcDbLine
 10
396.054557
 20
86.685879
 30
0.0
 11
473.8413019999998
 21
86.685879
 31
0.0
  0
LINE
  5
1D4
330
6B
100
AcDbEntity
  8
0
 62
     3
100
AcDbLine
 10
396.054557
 20
44.685879
 30
0.0
 11
473.8413019999998
 21
44.685879
 31
0.0
  0
LINE
  5
1D5
330
6B
100
AcDbEntity
  8
0
 62
     7
100
AcDbLine
 10
396.054557
 20
74.685879
 30
0.0
 11
473.8413019999998
 21
74.685879
 31
0.0
  0
LINE
  5
1D6
330
6B
100
AcDbEntity
  8
0
 62
     7
100
AcDbLine
 10
396.054557
 20
68.685879
 30
0.0
 11
473.8413019999998
 21
68.685879
 31
0.0
  0
LINE
  5
1D7
330
6B
100
AcDbEntity
  8
0
 62
     7
100
AcDbLine
 10
396.054557
 20
80.685879
 30
0.0
 11
473.8413019999998
 21
80.685879
 31
0.0
  0
LINE
  5
1D8
330
6B
100
AcDbEntity
  8
0
 62
     7
100
AcDbLine
 10
396.054557
 20
62.685879
 30
0.0
 11
473.8413019999998
 21
62.685879
 31
0.0
  0
LINE
  5
1D9
330
6B
100
AcDbEntity
  8
0
 62
     7
100
AcDbLine
 10
396.054557
 20
50.685879
 30
0.0
 11
473.8413019999998
 21
50.685879
 31
0.0
  0
LINE
  5
1DA
330
6B
100
AcDbEntity
  8
0
 62
     7
100
AcDbLine
 10
396.054557
 20
56.68587900000001
 30
0.0
 11
473.8413019999998
 21
56.68587900000001
 31
0.0
  0
TEXT
  5
1DB
330
6B
100
AcDbEntity
  8
0
 62
     3
100
AcDbText
 10
390.685341
 20
18.41659335366864
 30
0.0
 40
4.5
  1
SL-5WCH-SLIM
 41
0.8
  7
高4.5
100
AcDbText
  0
TEXT
  5
1DC
330
6B
100
AcDbEntity
  8
0
 62
     3
100
AcDbText
 10
438.3438286592652
 20
-5.163506856046296
 30
0.0
 40
6.299999999999998
  1
SL-5WCH-SLIM
 41
0.6
  7
高6.3
100
AcDbText
  0
TEXT
  5
1DD
330
6B
100
AcDbEntity
  8
0
 62
     3
100
AcDbText
 10
467.101231691164
 20
34.02230100000001
 30
0.0
 40
4.5
  1
9107
  7
高4.5
100
AcDbText
  0
TEXT
  5
1DE
330
6B
100
AcDbEntity
  8
0
 62
     3
100
AcDbText
 10
270.1488734095276
 20
14.358222
 30
0.0
 40
3.2
  1
5W
 41
0.8
  7
高3.2
100
AcDbText
  0
TEXT
  5
1DF
330
6B
100
AcDbEntity
  8
0
 62
     3
100
AcDbText
 10
304.0043275376582
 20
-5.641777999999997
 30
0.0
 40
3.2
  1
コード
 41
0.8
  7
高3.2
100
AcDbText
  0
LINE
  5
1E0
330
6B
100
AcDbEntity
  8
0
 62
     3
100
AcDbLine
 10
317.1136877479225
 20
-6.141777999999997
 30
0.0
 11
317.1136877479225
 21
38.85822200000003
 31
0.0
  0
LINE
  5
1E1
330
6B
100
AcDbEntity
  8
0
 62
     7
100
AcDbLine
 10
210.002826
 20
3.858221999999998
 30
0.0
 11
317.1136877479225
 21
3.858221999999998
 31
0.0
  0
LINE
  5
1E2
330
6B
100
AcDbEntity
  8
0
 62
     7
100
AcDbLine
 10
210.002826
 20
8.858222000000003
 30
0.0
 11
317.1136877479225
 21
8.858222000000003
 31
0.0
  0
LINE
  5
1E3
330
6B
100
AcDbEntity
  8
0
 62
     7
100
AcDbLine
 10
210.002826
 20
13.858222
 30
0.0
 11
317.1136877479225
 21
13.858222
 31
0.0
  0
LINE
  5
1E4
330
6B
100
AcDbEntity
  8
0
 62
     7
100
AcDbLine
 10
210.002826
 20
18.858222
 30
0.0
 11
317.1136877479225
 21
18.858222
 31
0.0
  0
LINE
  5
1E5
330
6B
100
AcDbEntity
  8
0
 62
     3
100
AcDbLine
 10
210.002826
 20
-1.141777999999997
 30
0.0
 11
317.1136877479225
 21
-1.141777999999997
 31
0.0
  0
LINE
  5
1E6
330
6B
100
AcDbEntity
  8
0
 62
     7
100
AcDbLine
 10
210.002826
 20
23.85822200000001
 30
0.0
 11
317.1136877479225
 21
23.85822200000001
 31
0.0
  0
TEXT
  5
1E7
330
6B
100
AcDbEntity
  8
0
 62
     3
100
AcDbText
 10
304.0043275376582
 20
19.358222
 30
0.0
 40
3.2
  1
-
 41
0.8
  7
高3.2
100
AcDbText
  0
TEXT
  5
1E8
330
6B
100
AcDbEntity
  8
0
 62
     3
100
AcDbText
 10
304.0043275376582
 20
14.358222
 30
0.0
 40
3.2
  1
-
 41
0.8
  7
高3.2
100
AcDbText
  0
TEXT
  5
1E9
330
6B
100
AcDbEntity
  8
0
 62
     3
100
AcDbText
 10
304.0043275376582
 20
4.358222
 30
0.0
 40
3.2
  1
-
 41
0.8
  7
高3.2
100
AcDbText
  0
TEXT
  5
1EA
330
6B
100
AcDbEntity
  8
0
 62
     3
100
AcDbText
 10
304.0043275376582
 20
-0.6417779999999996
 30
0.0
 40
3.2
  1
-
 41
0.8
  7
高3.2
100
AcDbText
  0
TEXT
  5
1EB
330
6B
100
AcDbEntity
  8
0
 62
     3
100
AcDbText
 10
304.0043275376582
 20
9.358222000000003
 30
0.0
 40
3.2
  1
53602
 41
0.8
  7
高3.2
100
AcDbText
  0
TEXT
  5
2C9
330
6B
100
AcDbEntity
  8
0
 62
     3
100
AcDbText
 10
474.5028259999998
 20
164.358222
 30
0.0
 40
3.2
  1
担　当
  7
高3.2
100
AcDbText
  0
TEXT
  5
2CA
330
6B
100
AcDbEntity
  8
0
 62
     3
100
AcDbText
 10
430.5028259999998
 20
164.358222
 30
0.0
 40
3.2
  1
変更・追記内容
  7
高3.2
100
AcDbText
  0
TEXT
  5
2CB
330
6B
100
AcDbEntity
  8
0
 62
     3
100
AcDbText
 10
405.616341000339
 20
159.6876834900917
 30
0.0
 40
2.0
  1
1
  7
高2
100
AcDbText
  0
TEXT
  5
2CC
330
6B
100
AcDbEntity
  8
0
 62
     3
100
AcDbText
 10
405.3078295235819
 20
154.5178667778188
 30
0.0
 40
2.0
  1
2
  7
高2
100
AcDbText
  0
TEXT
  5
2CD
330
6B
100
AcDbEntity
  8
0
 62
     3
100
AcDbText
 10
412.5028259999998
 20
164.358222
 30
0.0
 40
3.2
  1
日　付
  7
高3.2
100
AcDbText
  0
TEXT
  5
2CE
330
6B
100
AcDbEntity
  8
0
 62
     3
100
AcDbText
 10
412.5028259999998
 20
169.358222
 30
0.0
 40
3.2
  1
図　　　　面　　　　略　　　　歴
  7
高3.2
100
AcDbText
  0
TEXT
  5
2CF
330
6B
100
AcDbEntity
  8
0
 62
     3
100
AcDbText
 10
402.502826
 20
164.358222
 30
0.0
 40
3.2
  1
記号
  7
高3.2
100
AcDbText
  0
LINE
  5
2D0
330
6B
100
AcDbEntity
  8
0
 62
     7
100
AcDbLine
 10
406.002826
 20
157.649118
 30
0.0
 11
404.102826
 21
154.358222
 31
0.0
  0
LINE
  5
2D1
330
6B
100
AcDbEntity
  8
0
 62
     7
100
AcDbLine
 10
406.002826
 20
157.649118
 30
0.0
 11
407.9028259999998
 21
154.358222
 31
0.0
  0
LINE
  5
2D2
330
6B
100
AcDbEntity
  8
0
 62
     7
100
AcDbLine
 10
404.102826
 20
154.358222
 30
0.0
 11
407.9028259999998
 21
154.358222
 31
0.0
  0
LINE
  5
2D3
330
6B
100
AcDbEntity
  8
0
 62
     7
100
AcDbLine
 10
406.002826
 20
162.6491190000001
 30
0.0
 11
404.102826
 21
159.358222
 31
0.0
  0
LINE
  5
2D4
330
6B
100
AcDbEntity
  8
0
 62
     7
100
AcDbLine
 10
406.002826
 20
162.6491190000001
 30
0.0
 11
407.9028259999998
 21
159.358222
 31
0.0
  0
LINE
  5
2D5
330
6B
100
AcDbEntity
  8
0
 62
     7
100
AcDbLine
 10
404.102826
 20
159.358222
 30
0.0
 11
407.9028259999998
 21
159.358222
 31
0.0
  0
LINE
  5
2D6
330
6B
100
AcDbEntity
  8
0
 62
     3
100
AcDbLine
 10
401.0028259999998
 20
168.8582219999999
 30
0.0
 11
487.0028259999998
 21
168.8582219999999
 31
0.0
  0
LINE
  5
2D7
330
6B
100
AcDbEntity
  8
0
 62
     3
100
AcDbLine
 10
401.0028259999998
 20
163.858222
 30
0.0
 11
487.0028259999998
 21
163.858222
 31
0.0
  0
LINE
  5
2D8
330
6B
100
AcDbEntity
  8
0
 62
     7
100
AcDbLine
 10
401.0028259999998
 20
158.858222
 30
0.0
 11
487.0028259999998
 21
158.858222
 31
0.0
  0
LINE
  5
2D9
330
6B
100
AcDbEntity
  8
0
 62
     3
100
AcDbLine
 10
401.0028259999998
 20
153.858222
 30
0.0
 11
487.0028259999998
 21
153.858222
 31
0.0
  0
LINE
  5
2DA
330
6B
100
AcDbEntity
  8
0
 62
     7
100
AcDbLine
 10
473.002826
 20
153.858222
 30
0.0
 11
473.002826
 21
168.8582219999999
 31
0.0
  0
LINE
  5
2DB
330
6B
100
AcDbEntity
  8
0
 62
     7
100
AcDbLine
 10
429.0028259999998
 20
153.858222
 30
0.0
 11
429.0028259999998
 21
168.8582219999999
 31
0.0
  0
LINE
  5
2DC
330
6B
100
AcDbEntity
  8
0
 62
     7
100
AcDbLine
 10
411.0028259999998
 20
153.858222
 30
0.0
 11
411.0028259999998
 21
168.8582219999999
 31
0.0
  0
LINE
  5
2DD
330
6B
100
AcDbEntity
  8
0
 62
     3
100
AcDbLine
 10
401.0028259999998
 20
153.858222
 30
0.0
 11
401.0028259999998
 21
173.858222
 31
0.0
  0
TEXT
  5
58E
330
6B
100
AcDbEntity
  8
0
 62
     3
100
AcDbText
 10
211.502826
 20
24.35822200000001
 30
0.0
 40
3.2
  1
付属
 41
0.8
  7
高3.2
100
AcDbText
  0
TEXT
  5
58F
330
6B
100
AcDbEntity
  8
0
 62
     3
100
AcDbText
 10
219.6555977081135
 20
24.35822200000001
 30
0.0
 40
3.2
  1
充電アダプター
 41
0.8
  7
高3.2
100
AcDbText
  0
TEXT
  5
590
330
6B
100
AcDbEntity
  8
0
 62
     3
100
AcDbText
 10
270.1488734095276
 20
24.35822200000001
 30
0.0
 40
3.2
  1
-
 41
0.8
  7
高3.2
100
AcDbText
  0
TEXT
  5
591
330
6B
100
AcDbEntity
  8
0
 62
     3
100
AcDbText
 10
257.6488734095277
 20
24.35822200000001
 30
0.0
 40
3.2
  1
-
 41
0.8
  7
高3.2
100
AcDbText
  0
TEXT
  5
592
330
6B
100
AcDbEntity
  8
0
 62
     3
100
AcDbText
 10
247.4926234095277
 20
24.35822200000001
 30
0.0
 40
3.2
  1
1
 41
0.8
  7
高3.2
100
AcDbText
  0
LINE
  5
593
330
6B
100
AcDbEntity
  8
0
 62
     7
100
AcDbLine
 10
210.002826
 20
28.85822200000001
 30
0.0
 11
317.1136877479225
 21
28.85822200000001
 31
0.0
  0
TEXT
  5
594
330
6B
100
AcDbEntity
  8
0
 62
     3
100
AcDbText
 10
304.0043275376582
 20
24.35822200000001
 30
0.0
 40
3.2
  1
57234
 41
0.8
  7
高3.2
100
AcDbText
  0
TEXT
  5
595
330
6B
100
AcDbEntity
  8
0
 62
     3
100
AcDbText
 10
211.502826
 20
29.35822200000002
 30
0.0
 40
3.2
  1
付属
 41
0.8
  7
高3.2
100
AcDbText
  0
TEXT
  5
596
330
6B
100
AcDbEntity
  8
0
 62
     3
100
AcDbText
 10
219.6555977081135
 20
29.35822200000002
 30
0.0
 40
3.2
  1
充電台
 41
0.8
  7
高3.2
100
AcDbText
  0
TEXT
  5
597
330
6B
100
AcDbEntity
  8
0
 62
     3
100
AcDbText
 10
270.1488734095276
 20
29.35822200000002
 30
0.0
 40
3.2
  1
-
 41
0.8
  7
高3.2
100
AcDbText
  0
TEXT
  5
598
330
6B
100
AcDbEntity
  8
0
 62
     3
100
AcDbText
 10
257.6488734095277
 20
29.35822200000002
 30
0.0
 40
3.2
  1
-
 41
0.8
  7
高3.2
100
AcDbText
  0
TEXT
  5
599
330
6B
100
AcDbEntity
  8
0
 62
     3
100
AcDbText
 10
247.4926234095277
 20
29.35822200000002
 30
0.0
 40
3.2
  1
1
 41
0.8
  7
高3.2
100
AcDbText
  0
LINE
  5
59A
330
6B
100
AcDbEntity
  8
0
 62
     7
100
AcDbLine
 10
210.002826
 20
33.85822200000003
 30
0.0
 11
317.1136877479225
 21
33.85822200000003
 31
0.0
  0
TEXT
  5
59B
330
6B
100
AcDbEntity
  8
0
 62
     3
100
AcDbText
 10
304.0043275376582
 20
29.35822200000002
 30
0.0
 40
3.2
  1
57233
 41
0.8
  7
高3.2
100
AcDbText
  0
TEXT
  5
59C
330
6B
100
AcDbEntity
  8
0
 62
     3
100
AcDbText
 10
211.502826
 20
34.35822200000003
 30
0.0
 40
3.2
  1
付属
 41
0.8
  7
高3.2
100
AcDbText
  0
TEXT
  5
59D
330
6B
100
AcDbEntity
  8
0
 62
     3
100
AcDbText
 10
219.6555977081135
 20
34.35822200000003
 30
0.0
 40
3.2
  1
ストラップ
 41
0.8
  7
高3.2
100
AcDbText
  0
TEXT
  5
59E
330
6B
100
AcDbEntity
  8
0
 62
     3
100
AcDbText
 10
270.1488734095276
 20
34.35822200000003
 30
0.0
 40
3.2
  1
-
 41
0.8
  7
高3.2
100
AcDbText
  0
TEXT
  5
59F
330
6B
100
AcDbEntity
  8
0
 62
     3
100
AcDbText
 10
257.6488734095277
 20
34.35822200000003
 30
0.0
 40
3.2
  1
-
 41
0.8
  7
高3.2
100
AcDbText
  0
TEXT
  5
5A0
330
6B
100
AcDbEntity
  8
0
 62
     3
100
AcDbText
 10
247.4926234095277
 20
34.35822200000003
 30
0.0
 40
3.2
  1
1
 41
0.8
  7
高3.2
100
AcDbText
  0
LINE
  5
5A1
330
6B
100
AcDbEntity
  8
0
 62
     3
100
AcDbLine
 10
210.002826
 20
38.85822200000003
 30
0.0
 11
317.1136877479225
 21
38.85822200000003
 31
0.0
  0
TEXT
  5
5A2
330
6B
100
AcDbEntity
  8
0
 62
     3
100
AcDbText
 10
304.0043275376582
 20
34.35822200000003
 30
0.0
 40
3.2
  1
-
 41
0.8
  7
高3.2
100
AcDbText
  0
LINE
  5
62E
330
6B
100
AcDbEntity
  8
0
100
AcDbLine
 10
299.525737
 20
109.462747
 30
0.0
 11
289.9333939999999
 21
109.462747
 31
0.0
  0
LINE
  5
62F
330
6B
100
AcDbEntity
  8
0
100
AcDbLine
 10
299.525737
 20
129.462747
 30
0.0
 11
289.933394
 21
129.462747
 31
0.0
  0
LINE
  5
630
330
6B
100
AcDbEntity
  8
0
100
AcDbLine
 10
291.183394
 20
111.962747
 30
0.0
 11
291.183394
 21
126.962747
 31
0.0
  0
LINE
  5
634
330
6B
100
AcDbEntity
  8
0
100
AcDbLine
 10
299.775737
 20
129.712747
 30
0.0
 11
299.775737
 21
144.102998
 31
0.0
  0
LINE
  5
635
330
6B
100
AcDbEntity
  8
0
100
AcDbLine
 10
374.775737
 20
129.712747
 30
0.0
 11
374.775737
 21
144.102998
 31
0.0
  0
LINE
  5
636
330
6B
100
AcDbEntity
  8
0
100
AcDbLine
 10
302.275737
 20
142.852998
 30
0.0
 11
372.275737
 21
142.852998
 31
0.0
  0
LINE
  5
63A
330
6B
100
AcDbEntity
  8
0
  6
Continuous
100
AcDbLine
 10
264.0919611496946
 20
114.8848876131228
 30
0.0
 11
255.2656928503054
 21
94.79040738687713
 31
0.0
1001
ACAD
1000
DSTYLE
1002
{
1070
   147
1040
0.625
1070
    77
1070
     0
1002
}
  0
LINE
  5
63B
330
6B
100
AcDbEntity
  8
0
  6
ByBlock
 62
     0
370
    -2
100
AcDbLine
 10
263.4786447272674
 20
115.1542797663816
 30
0.0
 11
265.0973470748473
 21
117.1738173065614
 31
0.0
  0
LINE
  5
63C
330
6B
100
AcDbEntity
  8
0
  6
ByBlock
 62
     0
370
    -2
100
AcDbLine
 10
265.0973470748473
 20
117.1738173065614
 30
0.0
 11
264.7052775721217
 21
114.6154954598641
 31
0.0
  0
LINE
  5
63D
330
6B
100
AcDbEntity
  8
0
  6
ByBlock
 62
     0
370
    -2
100
AcDbLine
 10
265.0973470748473
 20
117.1738173065614
 30
0.0
 11
264.0919611496946
 21
114.8848876131228
 31
0.0
  0
LINE
  5
63E
330
6B
100
AcDbEntity
  8
0
  6
Continuous
100
AcDbLine
 10
310.3139197373049
 20
107.1551708792226
 30
0.0
 11
305.0980625253901
 21
94.64137224155468
 31
0.0
1001
ACAD
1000
DSTYLE
1002
{
1070
   147
1040
0.625
1070
    77
1070
     0
1002
}
  0
LINE
  5
63F
330
6B
100
AcDbEntity
  8
0
  6
ByBlock
 62
     0
370
    -2
100
AcDbLine
 10
309.6956070233188
 20
107.4128888529445
 30
0.0
 11
311.275737
 21
109.462747
 31
0.0
  0
LINE
  5
640
330
6B
100
AcDbEntity
  8
0
  6
ByBlock
 62
     0
370
    -2
100
AcDbLine
 10
311.275737
 20
109.462747
 30
0.0
 11
310.9322324512911
 21
106.8974529055007
 31
0.0
  0
LINE
  5
641
330
6B
100
AcDbEntity
  8
0
  6
ByBlock
 62
     0
370
    -2
100
AcDbLine
 10
311.275737
 20
109.462747
 30
0.0
 11
310.3139197373049
 21
107.1551708792226
 31
0.0
  0
LINE
  5
642
330
6B
100
AcDbEntity
  8
0
  6
Continuous
100
AcDbLine
 10
367.2846659357623
 20
107.0150968333414
 30
0.0
 11
369.7992291284754
 21
94.92152033331718
 31
0.0
1001
ACAD
1000
DSTYLE
1002
{
1070
   147
1040
0.625
1070
    77
1070
     0
1002
}
  0
LINE
  5
643
330
6B
100
AcDbEntity
  8
0
  6
ByBlock
 62
     0
370
    -2
100
AcDbLine
 10
366.6288205212563
 20
106.8787298339328
 30
0.0
 11
366.775737
 21
109.462747
 31
0.0
  0
LINE
  5
644
330
6B
100
AcDbEntity
  8
0
  6
ByBlock
 62
     0
370
    -2
100
AcDbLine
 10
366.775737
 20
109.462747
 30
0.0
 11
367.9405113502683
 21
107.15146383275
 31
0.0
  0
LINE
  5
645
330
6B
100
AcDbEntity
  8
0
  6
ByBlock
 62
     0
370
    -2
100
AcDbLine
 10
366.775737
 20
109.462747
 30
0.0
 11
367.2846659357623
 21
107.0150968333414
 31
0.0
  0
LINE
  5
646
330
6B
100
AcDbEntity
  8
0
  6
Continuous
100
AcDbLine
 10
393.7570189042082
 20
112.5944292461977
 30
0.0
 11
386.0027950638612
 21
94.91629550253485
 31
0.0
1001
ACAD
1000
DSTYLE
1002
{
1070
   147
1040
0.625
1070
    77
1070
     0
1002
}
  0
LINE
  5
647
330
6B
100
AcDbEntity
  8
0
  6
ByBlock
 62
     0
370
    -2
100
AcDbLine
 10
393.1435659462704
 20
112.8635103392785
 30
0.0
 11
394.7612439361389
 21
114.8838684974651
 31
0.0
  0
LINE
  5
648
330
6B
100
AcDbEntity
  8
0
  6
ByBlock
 62
     0
370
    -2
100
AcDbLine
 10
394.7612439361389
 20
114.8838684974651
 30
0.0
 11
394.3704718621461
 21
112.3253481531169
 31
0.0
  0
LINE
  5
649
330
6B
100
AcDbEntity
  8
0
  6
ByBlock
 62
     0
370
    -2
100
AcDbLine
 10
394.7612439361389
 20
114.8838684974651
 30
0.0
 11
393.7570189042082
 21
112.5944292461977
 31
0.0
  0
LINE
  5
64A
330
6B
100
AcDbEntity
  8
0
  6
Continuous
100
AcDbLine
 10
345.275737
 20
135.395051
 30
0.0
 11
349.4235303744235
 21
135.395051
 31
0.0
  0
LINE
  5
64B
330
6B
100
AcDbEntity
  8
0
  6
ByBlock
 62
     0
370
    -2
100
AcDbLine
 10
345.275737
 20
134.7251785
 30
0.0
 11
342.775737
 21
135.395051
 31
0.0
  0
LINE
  5
64C
330
6B
100
AcDbEntity
  8
0
  6
ByBlock
 62
     0
370
    -2
100
AcDbLine
 10
342.775737
 20
135.395051
 30
0.0
 11
345.275737
 21
136.0649235
 31
0.0
  0
LINE
  5
64D
330
6B
100
AcDbEntity
  8
0
  6
ByBlock
 62
     0
370
    -2
100
AcDbLine
 10
342.775737
 20
135.395051
 30
0.0
 11
345.275737
 21
135.395051
 31
0.0
  0
LINE
  5
64E
330
6B
100
AcDbEntity
  8
0
  6
Continuous
100
AcDbLine
 10
345.275737
 20
105.05757
 30
0.0
 11
349.4235303744235
 21
105.05757
 31
0.0
  0
LINE
  5
64F
330
6B
100
AcDbEntity
  8
0
  6
ByBlock
 62
     0
370
    -2
100
AcDbLine
 10
345.275737
 20
104.3876975
 30
0.0
 11
342.775737
 21
105.05757
 31
0.0
  0
LINE
  5
650
330
6B
100
AcDbEntity
  8
0
  6
ByBlock
 62
     0
370
    -2
100
AcDbLine
 10
342.775737
 20
105.05757
 30
0.0
 11
345.275737
 21
105.7274425
 31
0.0
  0
LINE
  5
651
330
6B
100
AcDbEntity
  8
0
  6
ByBlock
 62
     0
370
    -2
100
AcDbLine
 10
342.775737
 20
105.05757
 30
0.0
 11
345.275737
 21
105.05757
 31
0.0
  0
TEXT
  5
652
330
6B
100
AcDbEntity
  8
0
  6
Continuous
 62
     4
100
AcDbText
 10
290.5583939999999
 20
115.712747
 30
0.0
 40
3.0
  1
\U+220520
 50
90.0
100
AcDbText
  0
LINE
  5
653
330
6B
100
AcDbEntity
  8
0
  6
ByBlock
 62
     0
370
    -2
100
AcDbLine
 10
290.5135215000001
 20
126.962747
 30
0.0
 11
291.183394
 21
129.462747
 31
0.0
  0
LINE
  5
654
330
6B
100
AcDbEntity
  8
0
  6
ByBlock
 62
     0
370
    -2
100
AcDbLine
 10
291.183394
 20
129.462747
 30
0.0
 11
291.8532665
 21
126.962747
 31
0.0
  0
LINE
  5
655
330
6B
100
AcDbEntity
  8
0
  6
ByBlock
 62
     0
370
    -2
100
AcDbLine
 10
291.183394
 20
129.462747
 30
0.0
 11
291.183394
 21
126.962747
 31
0.0
  0
LINE
  5
656
330
6B
100
AcDbEntity
  8
0
  6
ByBlock
 62
     0
370
    -2
100
AcDbLine
 10
291.8532665
 20
111.962747
 30
0.0
 11
291.183394
 21
109.462747
 31
0.0
  0
LINE
  5
657
330
6B
100
AcDbEntity
  8
0
  6
ByBlock
 62
     0
370
    -2
100
AcDbLine
 10
291.183394
 20
109.462747
 30
0.0
 11
290.5135214999999
 21
111.962747
 31
0.0
  0
LINE
  5
658
330
6B
100
AcDbEntity
  8
0
  6
ByBlock
 62
     0
370
    -2
100
AcDbLine
 10
291.183394
 20
109.462747
 30
0.0
 11
291.183394
 21
111.962747
 31
0.0
  0
TEXT
  5
659
330
6B
100
AcDbEntity
  8
0
  6
Continuous
 62
     4
100
AcDbText
 10
334.775737
 20
143.477998
 30
0.0
 40
3.0
  1
75
100
AcDbText
  0
LINE
  5
65A
330
6B
100
AcDbEntity
  8
0
  6
ByBlock
 62
     0
370
    -2
100
AcDbLine
 10
372.275737
 20
143.5228705
 30
0.0
 11
374.775737
 21
142.852998
 31
0.0
  0
LINE
  5
65B
330
6B
100
AcDbEntity
  8
0
  6
ByBlock
 62
     0
370
    -2
100
AcDbLine
 10
374.775737
 20
142.852998
 30
0.0
 11
372.275737
 21
142.1831255
 31
0.0
  0
LINE
  5
65C
330
6B
100
AcDbEntity
  8
0
  6
ByBlock
 62
     0
370
    -2
100
AcDbLine
 10
374.775737
 20
142.852998
 30
0.0
 11
372.275737
 21
142.852998
 31
0.0
  0
LINE
  5
65D
330
6B
100
AcDbEntity
  8
0
  6
ByBlock
 62
     0
370
    -2
100
AcDbLine
 10
302.275737
 20
142.1831255
 30
0.0
 11
299.775737
 21
142.852998
 31
0.0
  0
LINE
  5
65E
330
6B
100
AcDbEntity
  8
0
  6
ByBlock
 62
     0
370
    -2
100
AcDbLine
 10
299.775737
 20
142.852998
 30
0.0
 11
302.275737
 21
143.5228705
 31
0.0
  0
LINE
  5
65F
330
6B
100
AcDbEntity
  8
0
  6
ByBlock
 62
     0
370
    -2
100
AcDbLine
 10
299.775737
 20
142.852998
 30
0.0
 11
302.275737
 21
142.852998
 31
0.0
  0
ENDSEC
  0
SECTION
  2
OBJECTS
  0
DICTIONARY
  5
C
330
0
100
AcDbDictionary
281
     1
  3
ACAD_2007HEADERVARS_RT
350
663
  3
ACAD_COLOR
350
62
  3
ACAD_GROUP
350
D
  3
ACAD_LAYOUT
350
61
  3
ACAD_MATERIAL
350
10
  3
ACAD_MLEADERSTYLE
350
65
  3
ACAD_MLINESTYLE
350
5E
  3
ACAD_PLOTSETTINGS
350
60
  3
ACAD_PLOTSTYLENAME
350
E
  3
ACAD_SCALELIST
350
42
  3
ACAD_TABLESTYLE
350
63
  3
ACAD_VISUALSTYLE
350
29
  3
ACDB_RECOMPOSE_DATA
350
661
  3
AcDbVariableDictionary
350
410
  3
DWGPROPS
350
662
  0
DICTIONARY
  5
294
330
2
100
AcDbDictionary
280
     1
281
     1
  3
ACAD_LAYERSTATES
360
295
  0
DICTIONARY
  5
40C
330
54
100
AcDbDictionary
280
     1
281
     1
  3
ADSK_XREC_LAYER_RECONCILED
360
40D
  0
DICTIONARY
  5
622
330
6B
100
AcDbDictionary
280
     1
281
     1
  3
ACAD_SORTENTS
360
623
  0
DICTIONARY
  5
663
102
{ACAD_REACTORS
330
C
102
}
330
C
100
AcDbDictionary
281
     1
  3
DIMARCSYM
350
665
  3
DIMFXL
350
664
  3
DIMJOGANG
350
666
  0
DICTIONARY
  5
62
102
{ACAD_REACTORS
330
C
102
}
330
C
100
AcDbDictionary
281
     1
  0
DICTIONARY
  5
D
102
{ACAD_REACTORS
330
C
102
}
330
C
100
AcDbDictionary
281
     1
  0
DICTIONARY
  5
61
102
{ACAD_REACTORS
330
C
102
}
330
C
100
AcDbDictionary
281
     1
  3
Model
350
6E
  3
レイアウト1
350
6A
  0
DICTIONARY
  5
10
102
{ACAD_REACTORS
330
C
102
}
330
C
100
AcDbDictionary
281
     1
  3
ByBlock
350
19
  3
ByLayer
350
11
  3
Global
350
21
  0
DICTIONARY
  5
65
102
{ACAD_REACTORS
330
C
102
}
330
C
100
AcDbDictionary
281
     1
  3
Standard
350
66
  0
DICTIONARY
  5
5E
102
{ACAD_REACTORS
330
C
102
}
330
C
100
AcDbDictionary
281
     1
  3
Standard
350
5F
  0
DICTIONARY
  5
60
102
{ACAD_REACTORS
330
C
102
}
330
C
100
AcDbDictionary
281
     1
  0
ACDBDICTIONARYWDFLT
  5
E
102
{ACAD_REACTORS
330
C
102
}
330
C
100
AcDbDictionary
281
     1
  3
Normal
350
F
100
AcDbDictionaryWithDefault
340
F
  0
DICTIONARY
  5
42
102
{ACAD_REACTORS
330
C
102
}
330
C
100
AcDbDictionary
281
     1
  3
A0
350
43
  3
A1
350
44
  3
A2
350
45
  3
A3
350
46
  3
A4
350
47
  3
A5
350
48
  3
A6
350
49
  3
A7
350
4A
  3
A8
350
4B
  3
A9
350
4C
  3
B0
350
4D
  3
B1
350
4E
  3
B2
350
4F
  3
B3
350
50
  3
B4
350
51
  3
B5
350
52
  3
B6
350
53
  0
DICTIONARY
  5
63
102
{ACAD_REACTORS
330
C
102
}
330
C
100
AcDbDictionary
281
     1
  3
Standard
350
64
  0
DICTIONARY
  5
29
102
{ACAD_REACTORS
330
C
102
}
330
C
100
AcDbDictionary
281
     1
  3
2dWireframe
350
2F
  3
3dWireframe
350
291
  3
Basic
350
2E
  3
Brighten
350
35
  3
ColorChange
350
39
  3
Conceptual
350
32
  3
Dim
350
34
  3
EdgeColorOff
350
41
  3
Facepattern
350
38
  3
Flat
350
2A
  3
FlatWithEdges
350
2B
  3
Gouraud
350
2C
  3
GouraudWithEdges
350
2D
  3
Hidden
350
31
  3
JitterOff
350
3F
  3
Linepattern
350
37
  3
OverhangOff
350
40
  3
Realistic
350
33
  3
Shaded
350
3E
  3
Shaded with edges
350
3D
  3
Shades of Gray
350
3A
  3
Sketchy
350
3B
  3
Thicken
350
36
  3
Wireframe
350
30
  3
X-Ray
350
3C
  0
XRECORD
  5
661
102
{ACAD_REACTORS
330
C
102
}
330
C
100
AcDbXrecord
280
     1
 90
        1
330
64
  0
DICTIONARY
  5
410
102
{ACAD_REACTORS
330
C
102
}
330
C
100
AcDbDictionary
281
     1
  3
CANNOSCALE
350
413
  3
CMLEADERSTYLE
350
412
  3
CTABLESTYLE
350
411
  3
DIMASSOC
350
416
  3
INDEXCTL
350
415
  3
SORTENTS
350
414
  3
XCLIPFRAME
350
5A3
  0
XRECORD
  5
662
102
{ACAD_REACTORS
330
C
102
}
330
C
100
AcDbXrecord
280
     1
  1
DWGPROPS COOKIE
  2

  3

  4

  6

  7

  8
imamura
  9

300
=
301
=
302
=
303
=
304
=
305
=
306
=
307
=
308
=
309
=
 40
0.0194594212962963
 41
2456358.851678299
 42
2459020.679578727
  1

 90
        0
  0
DICTIONARY
  5
295
102
{ACAD_REACTORS
330
294
102
}
330
294
100
AcDbDictionary
281
     1
  0
XRECORD
  5
40D
102
{ACAD_REACTORS
330
40C
102
}
330
40C
100
AcDbXrecord
280
     1
290
     1
  0
SORTENTSTABLE
  5
623
102
{ACAD_REACTORS
330
622
102
}
330
622
100
AcDbSortentsTable
330
6B
331
590
  5
64D
331
5A1
  5
65E
331
130
  5
160
331
63E
  5
646
331
185
  5
1BE
331
174
  5
18E
331
163
  5
17D
331
152
  5
16C
331
64F
  5
633
331
196
  5
1CF
331
1E8
  5
58F
331
1DB
  5
2D2
331
1C0
  5
1DA
331
2CC
  5
596
331
DB
  5
F5
331
EC
  5
106
331
2DD
  5
632
331
FD
  5
11F
331
11F
  5
153
331
C6
  5
E0
331
BD
  5
D7
331
591
  5
64E
331
120
  5
154
331
5A2
  5
65F
331
131
  5
161
331
175
  5
18F
331
164
  5
17E
331
153
  5
16D
331
63F
  5
643
331
186
  5
1BF
331
62E
  5
BE
331
650
  5
634
331
1E9
  5
590
331
1DC
  5
2D3
331
2CD
  5
597
331
DC
  5
F6
331
ED
  5
107
331
FE
  5
120
331
BE
  5
D8
331
C7
  5
E1
331
1C1
  5
1DB
331
592
  5
64F
331
121
  5
155
331
110
  5
132
331
C8
  5
E2
331
176
  5
190
331
165
  5
17F
331
154
  5
16E
331
14B
  5
16A
331
132
  5
162
331
640
  5
644
331
187
  5
1C0
331
62F
  5
BF
331
651
  5
635
331
1EA
  5
591
331
1DD
  5
2D4
331
2CE
  5
598
331
DD
  5
F7
331
EE
  5
108
331
FF
  5
121
331
BF
  5
D9
331
1C2
  5
1DC
331
100
  5
122
331
593
  5
650
331
122
  5
156
331
111
  5
133
331
C9
  5
E3
331
177
  5
191
331
166
  5
180
331
155
  5
16F
331
133
  5
163
331
641
  5
645
331
188
  5
1C1
331
630
  5
C0
331
1EB
  5
592
331
652
  5
C7
331
1DE
  5
2D5
331
1C3
  5
1DD
331
2CF
  5
599
331
EF
  5
109
331
DE
  5
F8
331
2D0
  5
625
331
B0
  5
CA
331
101
  5
123
331
F0
  5
10A
331
594
  5
651
331
123
  5
157
331
CA
  5
E4
331
189
  5
1C2
331
178
  5
192
331
167
  5
181
331
156
  5
170
331
134
  5
164
331
1DF
  5
2D6
331
1C4
  5
1DE
331
653
  5
C4
331
DF
  5
F9
331
1E0
  5
2D7
331
E0
  5
FA
331
2D1
  5
626
331
B1
  5
CB
331
102
  5
128
331
F1
  5
10B
331
595
  5
652
331
CB
  5
E5
331
643
  5
63F
331
18A
  5
1C3
331
179
  5
193
331
168
  5
182
331
157
  5
171
331
135
  5
165
331
1C5
  5
1DF
331
1B4
  5
1D4
331
654
  5
C5
331
1D0
  5
1EA
331
1E1
  5
2D8
331
D0
  5
EA
331
E1
  5
FB
331
2D2
  5
627
331
B2
  5
CC
331
103
  5
129
331
F2
  5
110
331
596
  5
653
331
114
  5
134
331
CC
  5
E6
331
644
  5
640
331
18B
  5
1C4
331
17A
  5
194
331
169
  5
183
331
158
  5
172
331
136
  5
166
331
1A4
  5
1D0
331
1C6
  5
1E0
331
1B5
  5
1D5
331
655
  5
C6
331
1D1
  5
1EB
331
1E2
  5
2D9
331
D1
  5
EB
331
E2
  5
FC
331
2D3
  5
628
331
B3
  5
CD
331
104
  5
12A
331
F3
  5
111
331
597
  5
654
331
CD
  5
E7
331
17B
  5
195
331
16A
  5
184
331
159
  5
173
331
137
  5
167
331
645
  5
641
331
18C
  5
1C5
331
1A5
  5
1D1
331
1C7
  5
1E1
331
656
  5
C1
331
634
  5
AE
331
1D2
  5
2C9
331
1C8
  5
1E2
331
1E3
  5
2DA
331
D2
  5
EC
331
E3
  5
FD
331
2D4
  5
629
331
B4
  5
CE
331
105
  5
12B
331
F4
  5
114
331
598
  5
655
331
116
  5
135
331
CE
  5
E8
331
17C
  5
196
331
16B
  5
185
331
15A
  5
174
331
138
  5
168
331
646
  5
63E
331
18D
  5
1C6
331
657
  5
C2
331
635
  5
AF
331
1D3
  5
2CA
331
1C9
  5
1E3
331
658
  5
C3
331
1E4
  5
2DB
331
D3
  5
ED
331
E4
  5
FE
331
2D5
  5
62A
331
B5
  5
CF
331
106
  5
12C
331
F5
  5
116
331
599
  5
656
331
128
  5
158
331
CF
  5
E9
331
17D
  5
1A4
331
16C
  5
186
331
15B
  5
175
331
139
  5
169
331
647
  5
63B
331
18E
  5
1C7
331
AE
  5
C8
331
636
  5
B0
331
648
  5
63C
331
1D4
  5
2CB
331
1CA
  5
1E4
331
659
  5
BD
331
1E5
  5
2DC
331
D4
  5
EE
331
E5
  5
FF
331
2D6
  5
62B
331
B6
  5
D0
331
59A
  5
657
331
129
  5
159
331
118
  5
136
331
107
  5
12D
331
F6
  5
118
331
17E
  5
1A5
331
16D
  5
187
331
15C
  5
176
331
18F
  5
1C8
331
AF
  5
C9
331
649
  5
63D
331
190
  5
1C9
331
1D5
  5
2CC
331
1CB
  5
1E5
331
65A
  5
BA
331
1E6
  5
2DD
331
D5
  5
EF
331
E6
  5
100
331
2D7
  5
62C
331
B7
  5
D1
331
F7
  5
119
331
59B
  5
658
331
12A
  5
15A
331
119
  5
137
331
108
  5
12E
331
C0
  5
DA
331
17F
  5
1AC
331
16E
  5
188
331
15D
  5
177
331
64A
  5
63A
331
191
  5
1CA
331
180
  5
1AD
331
1D6
  5
2CD
331
1CC
  5
1E6
331
65B
  5
BB
331
1E7
  5
58E
331
E7
  5
101
331
2D8
  5
62D
331
B8
  5
D2
331
F8
  5
11A
331
59C
  5
659
331
12B
  5
15B
331
11A
  5
138
331
109
  5
12F
331
C1
  5
DB
331
16F
  5
189
331
15E
  5
178
331
D6
  5
F0
331
63A
  5
64A
331
181
  5
1B4
331
170
  5
18A
331
64B
  5
637
331
192
  5
1CB
331
1D7
  5
2CE
331
1CD
  5
1E7
331
1BC
  5
1D6
331
65C
  5
BC
331
E8
  5
102
331
D7
  5
F1
331
2D9
  5
62E
331
B9
  5
D3
331
F9
  5
11B
331
59D
  5
65A
331
12C
  5
15C
331
11B
  5
139
331
10A
  5
130
331
15F
  5
179
331
C2
  5
DC
331
63B
  5
647
331
182
  5
1B5
331
171
  5
18B
331
160
  5
17A
331
64C
  5
638
331
193
  5
1CC
331
1AC
  5
1D2
331
1D8
  5
2CF
331
1CE
  5
1E8
331
1BD
  5
1D7
331
2C9
  5
593
331
D8
  5
F2
331
65D
  5
B4
331
E9
  5
103
331
2DA
  5
62F
331
BA
  5
D4
331
59E
  5
65B
331
12D
  5
15D
331
11C
  5
14B
331
10B
  5
131
331
C3
  5
DD
331
FA
  5
11C
331
63C
  5
648
331
183
  5
1BC
331
172
  5
18C
331
161
  5
17B
331
64D
  5
639
331
194
  5
1CD
331
1AD
  5
1D3
331
1D9
  5
2D0
331
1CF
  5
1E9
331
1BE
  5
1D8
331
2CA
  5
594
331
D9
  5
F3
331
65E
  5
B5
331
EA
  5
104
331
2DB
  5
630
331
BB
  5
D5
331
58E
  5
64B
331
11D
  5
151
331
C4
  5
DE
331
59F
  5
65C
331
12E
  5
15E
331
FB
  5
11D
331
5A0
  5
65D
331
63D
  5
649
331
184
  5
1BD
331
173
  5
18D
331
162
  5
17C
331
151
  5
16B
331
64E
  5
636
331
195
  5
1CE
331
1DA
  5
2D1
331
1BF
  5
1D9
331
65F
  5
B6
331
2CB
  5
595
331
DA
  5
F4
331
EB
  5
105
331
2DC
  5
631
331
BC
  5
D6
331
58F
  5
64C
331
11E
  5
152
331
C5
  5
DF
331
12F
  5
15F
331
FC
  5
11E
  0
XRECORD
  5
665
102
{ACAD_REACTORS
330
663
102
}
330
663
100
AcDbXrecord
280
     1
 70
     2
  0
XRECORD
  5
664
102
{ACAD_REACTORS
330
663
102
}
330
663
100
AcDbXrecord
280
     1
 40
1.25
  0
XRECORD
  5
666
102
{ACAD_REACTORS
330
663
102
}
330
663
100
AcDbXrecord
280
     1
 40
1.570796326794896
  0
LAYOUT
  5
6E
102
{ACAD_XDICTIONARY
360
69A
102
}
102
{ACAD_REACTORS
330
61
102
}
330
61
100
AcDbPlotSettings
  1

  2
FX DP 205
  4

  6

 40
0.0
 41
0.0
 42
0.0
 43
0.0
 44
0.0
 45
0.0
 46
0.0
 47
0.0
 48
0.0
 49
0.0
140
0.0
141
0.0
142
1.0
143
1.0
 70
  1712
 72
     0
 73
     0
 74
     0
  7

 75
     0
147
1.0
148
0.0
149
0.0
100
AcDbLayout
  1
Model
 70
     1
 71
     0
 10
0.0
 20
0.0
 11
12.0
 21
9.0
 12
0.0
 22
0.0
 32
0.0
 14
0.0
 24
0.0
 34
0.0
 15
0.0
 25
0.0
 35
0.0
146
0.0
 13
0.0
 23
0.0
 33
0.0
 16
1.0
 26
0.0
 36
0.0
 17
0.0
 27
1.0
 37
0.0
 76
     0
330
6B
331
8B
  0
LAYOUT
  5
6A
102
{ACAD_XDICTIONARY
360
698
102
}
102
{ACAD_REACTORS
330
61
102
}
330
61
100
AcDbPlotSettings
  1

  2
FX DP 205
  4

  6

 40
0.0
 41
0.0
 42
0.0
 43
0.0
 44
0.0
 45
0.0
 46
0.0
 47
0.0
 48
0.0
 49
0.0
140
0.0
141
0.0
142
1.0
143
1.0
 70
   688
 72
     0
 73
     0
 74
     5
  7

 75
    16
147
1.0
148
0.0
149
0.0
100
AcDbLayout
  1
レイアウト1
 70
     1
 71
     1
 10
0.0
 20
0.0
 11
12.0
 21
9.0
 12
0.0
 22
0.0
 32
0.0
 14
1.000000000000000E+20
 24
1.000000000000000E+20
 34
1.000000000000000E+20
 15
-1.000000000000000E+20
 25
-1.000000000000000E+20
 35
-1.000000000000000E+20
146
0.0
 13
0.0
 23
0.0
 33
0.0
 16
1.0
 26
0.0
 36
0.0
 17
0.0
 27
1.0
 37
0.0
 76
     0
330
67
  0
MATERIAL
  5
19
102
{ACAD_XDICTIONARY
360
1A
102
}
102
{ACAD_REACTORS
330
10
102
}
330
10
100
AcDbMaterial
  1
ByBlock
 72
     0
 43
0.0208333333333333
 43
0.0
 43
0.0
 43
0.0
 43
0.0
 43
0.0208333333333333
 43
0.0
 43
0.0
 43
0.0
 43
0.0
 43
1.0
 43
0.0
 43
0.0
 43
0.0
 43
0.0
 43
1.0
 77
     0
 47
0.0208333333333333
 47
0.0
 47
0.0
 47
0.0
 47
0.0
 47
0.0208333333333333
 47
0.0
 47
0.0
 47
0.0
 47
0.0
 47
1.0
 47
0.0
 47
0.0
 47
0.0
 47
0.0
 47
1.0
171
     0
 49
0.0208333333333333
 49
0.0
 49
0.0
 49
0.0
 49
0.0
 49
0.0208333333333333
 49
0.0
 49
0.0
 49
0.0
 49
0.0
 49
1.0
 49
0.0
 49
0.0
 49
0.0
 49
0.0
 49
1.0
175
     0
142
0.0208333333333333
142
0.0
142
0.0
142
0.0
142
0.0
142
0.0208333333333333
142
0.0
142
0.0
142
0.0
142
0.0
142
1.0
142
0.0
142
0.0
142
0.0
142
0.0
142
1.0
179
     0
144
0.0208333333333333
144
0.0
144
0.0
144
0.0
144
0.0
144
0.0208333333333333
144
0.0
144
0.0
144
0.0
144
0.0
144
1.0
144
0.0
144
0.0
144
0.0
144
0.0
144
1.0
147
0.0208333333333333
147
0.0
147
0.0
147
0.0
147
0.0
147
0.0208333333333333
147
0.0
147
0.0
147
0.0
147
0.0
147
1.0
147
0.0
147
0.0
147
0.0
147
0.0
147
1.0
  0
MATERIAL
  5
11
102
{ACAD_XDICTIONARY
360
12
102
}
102
{ACAD_REACTORS
330
10
102
}
330
10
100
AcDbMaterial
  1
ByLayer
 72
     0
 43
0.0208333333333333
 43
0.0
 43
0.0
 43
0.0
 43
0.0
 43
0.0208333333333333
 43
0.0
 43
0.0
 43
0.0
 43
0.0
 43
1.0
 43
0.0
 43
0.0
 43
0.0
 43
0.0
 43
1.0
 77
     0
 47
0.0208333333333333
 47
0.0
 47
0.0
 47
0.0
 47
0.0
 47
0.0208333333333333
 47
0.0
 47
0.0
 47
0.0
 47
0.0
 47
1.0
 47
0.0
 47
0.0
 47
0.0
 47
0.0
 47
1.0
171
     0
 49
0.0208333333333333
 49
0.0
 49
0.0
 49
0.0
 49
0.0
 49
0.0208333333333333
 49
0.0
 49
0.0
 49
0.0
 49
0.0
 49
1.0
 49
0.0
 49
0.0
 49
0.0
 49
0.0
 49
1.0
175
     0
142
0.0208333333333333
142
0.0
142
0.0
142
0.0
142
0.0
142
0.0208333333333333
142
0.0
142
0.0
142
0.0
142
0.0
142
1.0
142
0.0
142
0.0
142
0.0
142
0.0
142
1.0
179
     0
144
0.0208333333333333
144
0.0
144
0.0
144
0.0
144
0.0
144
0.0208333333333333
144
0.0
144
0.0
144
0.0
144
0.0
144
1.0
144
0.0
144
0.0
144
0.0
144
0.0
144
1.0
147
0.0208333333333333
147
0.0
147
0.0
147
0.0
147
0.0
147
0.0208333333333333
147
0.0
147
0.0
147
0.0
147
0.0
147
1.0
147
0.0
147
0.0
147
0.0
147
0.0
147
1.0
  0
MATERIAL
  5
21
102
{ACAD_XDICTIONARY
360
22
102
}
102
{ACAD_REACTORS
330
10
102
}
330
10
100
AcDbMaterial
  1
Global
 72
     0
 43
0.0208333333333333
 43
0.0
 43
0.0
 43
0.0
 43
0.0
 43
0.0208333333333333
 43
0.0
 43
0.0
 43
0.0
 43
0.0
 43
1.0
 43
0.0
 43
0.0
 43
0.0
 43
0.0
 43
1.0
 77
     0
 47
0.0208333333333333
 47
0.0
 47
0.0
 47
0.0
 47
0.0
 47
0.0208333333333333
 47
0.0
 47
0.0
 47
0.0
 47
0.0
 47
1.0
 47
0.0
 47
0.0
 47
0.0
 47
0.0
 47
1.0
171
     0
 49
0.0208333333333333
 49
0.0
 49
0.0
 49
0.0
 49
0.0
 49
0.0208333333333333
 49
0.0
 49
0.0
 49
0.0
 49
0.0
 49
1.0
 49
0.0
 49
0.0
 49
0.0
 49
0.0
 49
1.0
175
     0
142
0.0208333333333333
142
0.0
142
0.0
142
0.0
142
0.0
142
0.0208333333333333
142
0.0
142
0.0
142
0.0
142
0.0
142
1.0
142
0.0
142
0.0
142
0.0
142
0.0
142
1.0
179
     0
144
0.0208333333333333
144
0.0
144
0.0
144
0.0
144
0.0
144
0.0208333333333333
144
0.0
144
0.0
144
0.0
144
0.0
144
1.0
144
0.0
144
0.0
144
0.0
144
0.0
144
1.0
147
0.0208333333333333
147
0.0
147
0.0
147
0.0
147
0.0
147
0.0208333333333333
147
0.0
147
0.0
147
0.0
147
0.0
147
1.0
147
0.0
147
0.0
147
0.0
147
0.0
147
1.0
  0
MLEADERSTYLE
  5
66
102
{ACAD_REACTORS
330
65
102
}
330
65
100
AcDbMLeaderStyle
170
     2
171
     1
172
     0
 90
        2
 40
0.0
 41
0.0
173
     1
 91
-1056964608
340
5A
 92
       -2
290
     1
 42
0.09
291
     1
 43
0.36
  3
Standard
 44
0.18
300

342
55
174
     1
178
     6
175
     1
176
     0
 93
-1056964608
 45
0.18
292
     0
297
     0
 46
0.18
 94
-1056964608
 47
1.0
 49
1.0
140
1.0
293
     1
141
0.0
294
     1
177
     0
142
1.0
295
     0
296
     0
143
0.125
1001
ACAD_MLEADERVER
1070
     2
  0
MLINESTYLE
  5
5F
102
{ACAD_REACTORS
330
5E
102
}
330
5E
100
AcDbMlineStyle
  2
STANDARD
 70
     0
  3

 62
   256
 51
90.0
 52
90.0
 71
     2
 49
0.5
 62
   256
  6
BYLAYER
 49
-0.5
 62
   256
  6
BYLAYER
  0
ACDBPLACEHOLDER
  5
F
102
{ACAD_REACTORS
330
E
102
}
330
E
  0
SCALE
  5
43
102
{ACAD_REACTORS
330
42
102
}
330
42
100
AcDbScale
 70
     0
300
1:1
140
1.0
141
1.0
290
     1
  0
SCALE
  5
44
102
{ACAD_REACTORS
330
42
102
}
330
42
100
AcDbScale
 70
     0
300
1/128" = 1'-0"
140
0.0078125
141
12.0
290
     0
  0
SCALE
  5
45
102
{ACAD_REACTORS
330
42
102
}
330
42
100
AcDbScale
 70
     0
300
1/64" = 1'-0"
140
0.015625
141
12.0
290
     0
  0
SCALE
  5
46
102
{ACAD_REACTORS
330
42
102
}
330
42
100
AcDbScale
 70
     0
300
1/32" = 1'-0"
140
0.03125
141
12.0
290
     0
  0
SCALE
  5
47
102
{ACAD_REACTORS
330
42
102
}
330
42
100
AcDbScale
 70
     0
300
1/16" = 1'-0"
140
0.0625
141
12.0
290
     0
  0
SCALE
  5
48
102
{ACAD_REACTORS
330
42
102
}
330
42
100
AcDbScale
 70
     0
300
3/32" = 1'-0"
140
0.09375
141
12.0
290
     0
  0
SCALE
  5
49
102
{ACAD_REACTORS
330
42
102
}
330
42
100
AcDbScale
 70
     0
300
1/8" = 1'-0"
140
0.125
141
12.0
290
     0
  0
SCALE
  5
4A
102
{ACAD_REACTORS
330
42
102
}
330
42
100
AcDbScale
 70
     0
300
3/16" = 1'-0"
140
0.1875
141
12.0
290
     0
  0
SCALE
  5
4B
102
{ACAD_REACTORS
330
42
102
}
330
42
100
AcDbScale
 70
     0
300
1/4" = 1'-0"
140
0.25
141
12.0
290
     0
  0
SCALE
  5
4C
102
{ACAD_REACTORS
330
42
102
}
330
42
100
AcDbScale
 70
     0
300
3/8" = 1'-0"
140
0.375
141
12.0
290
     0
  0
SCALE
  5
4D
102
{ACAD_REACTORS
330
42
102
}
330
42
100
AcDbScale
 70
     0
300
1/2" = 1'-0"
140
0.5
141
12.0
290
     0
  0
SCALE
  5
4E
102
{ACAD_REACTORS
330
42
102
}
330
42
100
AcDbScale
 70
     0
300
3/4" = 1'-0"
140
0.75
141
12.0
290
     0
  0
SCALE
  5
4F
102
{ACAD_REACTORS
330
42
102
}
330
42
100
AcDbScale
 70
     0
300
1" = 1'-0"
140
1.0
141
12.0
290
     0
  0
SCALE
  5
50
102
{ACAD_REACTORS
330
42
102
}
330
42
100
AcDbScale
 70
     0
300
1-1/2" = 1'-0"
140
1.5
141
12.0
290
     0
  0
SCALE
  5
51
102
{ACAD_REACTORS
330
42
102
}
330
42
100
AcDbScale
 70
     0
300
3" = 1'-0"
140
3.0
141
12.0
290
     0
  0
SCALE
  5
52
102
{ACAD_REACTORS
330
42
102
}
330
42
100
AcDbScale
 70
     0
300
6" = 1'-0"
140
6.0
141
12.0
290
     0
  0
SCALE
  5
53
102
{ACAD_REACTORS
330
42
102
}
330
42
100
AcDbScale
 70
     0
300
1'-0" = 1'-0"
140
12.0
141
12.0
290
     0
  0
TABLESTYLE
  5
64
102
{ACAD_XDICTIONARY
360
418
102
}
102
{ACAD_REACTORS
330
63
102
}
330
63
100
AcDbTableStyle
  3
Standard
 70
     0
 71
     0
 40
0.06
 41
0.06
280
     0
281
     0
  7
STANDARD
140
0.18
170
     2
 62
     0
 63
     7
283
     0
274
    -2
284
     1
 64
     0
275
    -2
285
     1
 65
     0
276
    -2
286
     1
 66
     0
277
    -2
287
     1
 67
     0
278
    -2
288
     1
 68
     0
279
    -2
289
     1
 69
     0
  7
STANDARD
140
0.25
170
     5
 62
     0
 63
     7
283
     0
274
    -2
284
     1
 64
     0
275
    -2
285
     1
 65
     0
276
    -2
286
     1
 66
     0
277
    -2
287
     1
 67
     0
278
    -2
288
     1
 68
     0
279
    -2
289
     1
 69
     0
  7
STANDARD
140
0.18
170
     5
 62
     0
 63
     7
283
     0
274
    -2
284
     1
 64
     0
275
    -2
285
     1
 65
     0
276
    -2
286
     1
 66
     0
277
    -2
287
     1
 67
     0
278
    -2
288
     1
 68
     0
279
    -2
289
     1
 69
     0
  0
VISUALSTYLE
  5
2F
102
{ACAD_XDICTIONARY
360
671
102
}
102
{ACAD_REACTORS
330
29
102
}
330
29
100
AcDbVisualStyle
  2

 70
     4
 71
     0
 72
     2
 73
     0
 90
        0
 40
-0.6
 41
-30.0
 62
     5
 63
     7
 74
     1
 91
        4
 64
     7
 65
   257
 75
     1
175
     1
 42
1.0
 92
        0
 66
   257
 43
1.0
 76
     1
 77
     6
 78
     2
 67
     7
 79
     5
170
     0
171
     0
290
     0
174
     0
 93
        1
 44
0.0
173
     0
291
     0
 45
0.0
1001
ACAD
1000
AcDbSavedByObjectVersion
1070
     0
  0
VISUALSTYLE
  5
291
102
{ACAD_XDICTIONARY
360
69C
102
}
102
{ACAD_REACTORS
330
29
102
}
330
29
100
AcDbVisualStyle
  2

 70
     5
 71
     0
 72
     2
 73
     1
 90
        0
 40
-0.6
 41
-30.0
 62
     5
 63
     7
 74
     1
 91
        4
 64
     7
 65
   257
 75
     1
175
     1
 42
1.0
 92
        0
 66
   257
 43
1.0
 76
     1
 77
     6
 78
     2
 67
     7
 79
     5
170
     0
171
     0
290
     0
174
     0
 93
        1
 44
0.0
173
     0
291
     0
 45
0.0
1001
ACAD
1000
AcDbSavedByObjectVersion
1070
     0
  0
VISUALSTYLE
  5
2E
102
{ACAD_XDICTIONARY
360
66F
102
}
102
{ACAD_REACTORS
330
29
102
}
330
29
100
AcDbVisualStyle
  2

 70
     7
 71
     1
 72
     0
 73
     1
 90
        0
 40
-0.6
 41
-30.0
 62
     5
 63
     7
 74
     0
 91
        4
 64
     7
 65
   257
 75
     1
175
     1
 42
1.0
 92
        8
 66
     7
 43
1.0
 76
     1
 77
     6
 78
     2
 67
     7
 79
     5
170
     0
171
     0
290
     0
174
     0
 93
        1
 44
0.0
173
     0
291
     1
 45
0.0
1001
ACAD
1000
AcDbSavedByObjectVersion
1070
     0
  0
VISUALSTYLE
  5
35
102
{ACAD_XDICTIONARY
360
67D
102
}
102
{ACAD_REACTORS
330
29
102
}
330
29
100
AcDbVisualStyle
  2

 70
    12
 71
     2
 72
     2
 73
     0
 90
        0
 40
-0.6
 41
-30.0
 62
     5
 63
     7
 74
     1
 91
        4
 64
     7
 65
   257
 75
     1
175
     1
 42
1.0
 92
        8
 66
     7
 43
1.0
 76
     1
 77
     6
 78
     2
 67
     7
 79
     5
170
     0
171
     0
290
     0
174
     0
 93
        1
 44
50.0
173
     0
291
     1
 45
0.0
1001
ACAD
1000
AcDbSavedByObjectVersion
1070
     0
  0
VISUALSTYLE
  5
39
102
{ACAD_XDICTIONARY
360
685
102
}
102
{ACAD_REACTORS
330
29
102
}
330
29
100
AcDbVisualStyle
  2

 70
    16
 71
     2
 72
     2
 73
     3
 90
        0
 40
-0.6
 41
-30.0
 62
     5
 63
     8
 74
     1
 91
        4
 64
     7
 65
   257
 75
     1
175
     1
 42
1.0
 92
        8
 66
     8
 43
1.0
 76
     1
 77
     6
 78
     2
 67
     7
 79
     5
170
     0
171
     0
290
     0
174
     0
 93
        1
 44
0.0
173
     0
291
     1
 45
0.0
1001
ACAD
1000
AcDbSavedByObjectVersion
1070
     0
  0
VISUALSTYLE
  5
32
102
{ACAD_XDICTIONARY
360
677
102
}
102
{ACAD_REACTORS
330
29
102
}
330
29
100
AcDbVisualStyle
  2

 70
     9
 71
     3
 72
     2
 73
     0
 90
        0
 40
-0.6
 41
-30.0
 62
     5
 63
     7
 74
     2
 91
        2
 64
     7
 65
   257
 75
     1
175
     1
 42
179.0
 92
        8
 66
     7
 43
1.0
 76
     1
 77
     6
 78
     2
 67
     7
 79
     3
170
     0
171
     0
290
     0
174
     0
 93
        1
 44
0.0
173
     0
291
     0
 45
0.0
1001
ACAD
1000
AcDbSavedByObjectVersion
1070
     0
  0
VISUALSTYLE
  5
34
102
{ACAD_XDICTIONARY
360
67B
102
}
102
{ACAD_REACTORS
330
29
102
}
330
29
100
AcDbVisualStyle
  2

 70
    11
 71
     2
 72
     2
 73
     0
 90
        0
 40
-0.6
 41
-30.0
 62
     5
 63
     7
 74
     1
 91
        4
 64
     7
 65
   257
 75
     1
175
     1
 42
1.0
 92
        8
 66
     7
 43
1.0
 76
     1
 77
     6
 78
     2
 67
     7
 79
     5
170
     0
171
     0
290
     0
174
     0
 93
        1
 44
-50.0
173
     0
291
     1
 45
0.0
1001
ACAD
1000
AcDbSavedByObjectVersion
1070
     0
  0
VISUALSTYLE
  5
41
102
{ACAD_XDICTIONARY
360
695
102
}
102
{ACAD_REACTORS
330
29
102
}
330
29
100
AcDbVisualStyle
  2

 70
    22
 71
     2
 72
     2
 73
     0
 90
        0
 40
-0.6
 41
-30.0
 62
     5
 63
     7
 74
     1
 91
        4
 64
     7
 65
   257
 75
     1
175
     1
 42
1.0
 92
        8
 66
     7
 43
1.0
 76
     1
 77
     6
 78
     2
 67
     7
 79
     5
170
     0
171
     0
290
     0
174
     0
 93
        1
 44
0.0
173
     0
291
     1
 45
0.0
1001
ACAD
1000
AcDbSavedByObjectVersion
1070
     0
  0
VISUALSTYLE
  5
38
102
{ACAD_XDICTIONARY
360
683
102
}
102
{ACAD_REACTORS
330
29
102
}
330
29
100
AcDbVisualStyle
  2

 70
    15
 71
     2
 72
     2
 73
     0
 90
        0
 40
-0.6
 41
-30.0
 62
     5
 63
     7
 74
     1
 91
        4
 64
     7
 65
   257
 75
     1
175
     1
 42
1.0
 92
        8
 66
     7
 43
1.0
 76
     1
 77
     6
 78
     2
 67
     7
 79
     5
170
     0
171
     0
290
     0
174
     0
 93
        1
 44
0.0
173
     0
291
     1
 45
0.0
1001
ACAD
1000
AcDbSavedByObjectVersion
1070
     0
  0
VISUALSTYLE
  5
2A
102
{ACAD_XDICTIONARY
360
667
102
}
102
{ACAD_REACTORS
330
29
102
}
330
29
100
AcDbVisualStyle
  2

 70
     0
 71
     2
 72
     1
 73
     1
 90
        2
 40
-0.6
 41
30.0
 62
     5
 63
     7
 74
     0
 91
        0
 64
     7
 65
   257
 75
     1
175
     1
 42
1.0
 92
        8
 66
     7
 43
1.0
 76
     1
 77
     6
 78
     2
 67
     7
 79
     5
170
     0
171
     0
290
     0
174
     0
 93
       13
 44
0.0
173
     0
291
     1
 45
0.0
1001
ACAD
1000
AcDbSavedByObjectVersion
1070
     0
  0
VISUALSTYLE
  5
2B
102
{ACAD_XDICTIONARY
360
669
102
}
102
{ACAD_REACTORS
330
29
102
}
330
29
100
AcDbVisualStyle
  2

 70
     1
 71
     2
 72
     1
 73
     1
 90
        2
 40
-0.6
 41
30.0
 62
     5
 63
     7
 74
     1
 91
        0
 64
     7
 65
   257
 75
     1
175
     1
 42
1.0
 92
        0
 66
   257
 43
1.0
 76
     1
 77
     6
 78
     2
 67
     7
 79
     5
170
     0
171
     0
290
     0
174
     0
 93
       13
 44
0.0
173
     0
291
     1
 45
0.0
1001
ACAD
1000
AcDbSavedByObjectVersion
1070
     0
  0
VISUALSTYLE
  5
2C
102
{ACAD_XDICTIONARY
360
66B
102
}
102
{ACAD_REACTORS
330
29
102
}
330
29
100
AcDbVisualStyle
  2

 70
     2
 71
     2
 72
     2
 73
     1
 90
        2
 40
-0.6
 41
30.0
 62
     5
 63
     7
 74
     0
 91
        0
 64
     7
 65
   257
 75
     1
175
     1
 42
1.0
 92
        0
 66
     7
 43
1.0
 76
     1
 77
     6
 78
     2
 67
     7
 79
     5
170
     0
171
     0
290
     0
174
     0
 93
       13
 44
0.0
173
     0
291
     1
 45
0.0
1001
ACAD
1000
AcDbSavedByObjectVersion
1070
     0
  0
VISUALSTYLE
  5
2D
102
{ACAD_XDICTIONARY
360
66D
102
}
102
{ACAD_REACTORS
330
29
102
}
330
29
100
AcDbVisualStyle
  2

 70
     3
 71
     2
 72
     2
 73
     1
 90
        2
 40
-0.6
 41
30.0
 62
     5
 63
     7
 74
     1
 91
        0
 64
     7
 65
   257
 75
     1
175
     1
 42
1.0
 92
        0
 66
   257
 43
1.0
 76
     1
 77
     6
 78
     2
 67
     7
 79
     5
170
     0
171
     0
290
     0
174
     0
 93
       13
 44
0.0
173
     0
291
     1
 45
0.0
1001
ACAD
1000
AcDbSavedByObjectVersion
1070
     0
  0
VISUALSTYLE
  5
31
102
{ACAD_XDICTIONARY
360
675
102
}
102
{ACAD_REACTORS
330
29
102
}
330
29
100
AcDbVisualStyle
  2

 70
     6
 71
     1
 72
     2
 73
     2
 90
        0
 40
-0.6
 41
-30.0
 62
     5
 63
     7
 74
     2
 91
        2
 64
     7
 65
   257
 75
     2
175
     1
 42
40.0
 92
        0
 66
   257
 43
1.0
 76
     1
 77
     6
 78
     2
 67
     7
 79
     3
170
     0
171
     0
290
     0
174
     0
 93
        1
 44
0.0
173
     0
291
     0
 45
0.0
1001
ACAD
1000
AcDbSavedByObjectVersion
1070
     0
  0
VISUALSTYLE
  5
3F
102
{ACAD_XDICTIONARY
360
691
102
}
102
{ACAD_REACTORS
330
29
102
}
330
29
100
AcDbVisualStyle
  2

 70
    20
 71
     2
 72
     2
 73
     0
 90
        0
 40
-0.6
 41
-30.0
 62
     5
 63
     7
 74
     1
 91
        4
 64
     7
 65
   257
 75
     1
175
     1
 42
1.0
 92
       10
 66
     7
 43
1.0
 76
     1
 77
     6
 78
     2
 67
     7
 79
     5
170
     0
171
     0
290
     0
174
     0
 93
        1
 44
0.0
173
     0
291
     1
 45
0.0
1001
ACAD
1000
AcDbSavedByObjectVersion
1070
     0
  0
VISUALSTYLE
  5
37
102
{ACAD_XDICTIONARY
360
681
102
}
102
{ACAD_REACTORS
330
29
102
}
330
29
100
AcDbVisualStyle
  2

 70
    14
 71
     2
 72
     2
 73
     0
 90
        0
 40
-0.6
 41
-30.0
 62
     5
 63
     7
 74
     1
 91
        4
 64
     7
 65
   257
 75
     7
175
     7
 42
1.0
 92
        8
 66
     7
 43
1.0
 76
     1
 77
     6
 78
     2
 67
     7
 79
     5
170
     0
171
     0
290
     0
174
     0
 93
        1
 44
0.0
173
     0
291
     1
 45
0.0
1001
ACAD
1000
AcDbSavedByObjectVersion
1070
     0
  0
VISUALSTYLE
  5
40
102
{ACAD_XDICTIONARY
360
693
102
}
102
{ACAD_REACTORS
330
29
102
}
330
29
100
AcDbVisualStyle
  2

 70
    21
 71
     2
 72
     2
 73
     0
 90
        0
 40
-0.6
 41
-30.0
 62
     5
 63
     7
 74
     1
 91
        4
 64
     7
 65
   257
 75
     1
175
     1
 42
1.0
 92
        9
 66
     7
 43
1.0
 76
     1
 77
     6
 78
     2
 67
     7
 79
     5
170
     0
171
     0
290
     0
174
     0
 93
        1
 44
0.0
173
     0
291
     1
 45
0.0
1001
ACAD
1000
AcDbSavedByObjectVersion
1070
     0
  0
VISUALSTYLE
  5
33
102
{ACAD_XDICTIONARY
360
679
102
}
102
{ACAD_REACTORS
330
29
102
}
330
29
100
AcDbVisualStyle
  2

 70
     8
 71
     2
 72
     3
 73
     0
 90
        2
 40
-0.6
 41
30.0
 62
     5
 63
     7
 74
     0
 91
        0
 64
     7
 65
   257
 75
     1
175
     1
 42
1.0
 92
        8
 66
   257
 43
1.0
 76
     1
 77
     6
 78
     2
 67
     7
 79
     3
170
     0
171
     0
290
     0
174
     0
 93
       13
 44
0.0
173
     0
291
     0
 45
0.0
1001
ACAD
1000
AcDbSavedByObjectVersion
1070
     0
  0
VISUALSTYLE
  5
3E
102
{ACAD_XDICTIONARY
360
68F
102
}
102
{ACAD_REACTORS
330
29
102
}
330
29
100
AcDbVisualStyle
  2

 70
    27
 71
     2
 72
     2
 73
     1
 90
        2
 40
-0.6
 41
30.0
 62
     5
 63
     7
 74
     0
 91
        4
 64
     7
 65
   257
 75
     1
175
     1
 42
1.0
 92
        8
 66
   257
 43
1.0
 76
     1
 77
     6
 78
     2
 67
     8
 79
     3
170
     0
171
     0
290
     0
174
     0
 93
        5
 44
0.0
173
     0
291
     0
 45
0.0
1001
ACAD
1000
AcDbSavedByObjectVersion
1070
     0
  0
VISUALSTYLE
  5
3D
102
{ACAD_XDICTIONARY
360
68D
102
}
102
{ACAD_REACTORS
330
29
102
}
330
29
100
AcDbVisualStyle
  2

 70
    26
 71
     2
 72
     2
 73
     1
 90
        2
 40
-0.6
 41
30.0
 62
     5
 63
     7
 74
     1
 91
       10
 64
     7
 65
   257
 75
     2
175
     1
 42
1.0
 92
        8
 66
   257
 43
1.0
 76
     1
 77
     6
 78
     2
 67
     7
 79
     3
170
     0
171
     0
290
     0
174
     0
 93
        5
 44
0.0
173
     0
291
     0
 45
0.0
1001
ACAD
1000
AcDbSavedByObjectVersion
1070
     0
  0
VISUALSTYLE
  5
3A
102
{ACAD_XDICTIONARY
360
687
102
}
102
{ACAD_REACTORS
330
29
102
}
330
29
100
AcDbVisualStyle
  2

 70
    23
 71
     2
 72
     2
 73
     3
 90
        0
 40
-0.6
 41
-30.0
 62
     5
 63
     7
 74
     2
 91
        2
 64
     7
 65
     7
 75
     1
175
     1
 42
40.0
 92
        8
 66
     7
 43
1.0
 76
     1
 77
     6
 78
     2
 67
     7
 79
     3
170
     0
171
     0
290
     0
174
     0
 93
        1
 44
0.0
173
     0
291
     0
 45
0.0
1001
ACAD
1000
AcDbSavedByObjectVersion
1070
     0
  0
VISUALSTYLE
  5
3B
102
{ACAD_XDICTIONARY
360
689
102
}
102
{ACAD_REACTORS
330
29
102
}
330
29
100
AcDbVisualStyle
  2

 70
    24
 71
     1
 72
     2
 73
     2
 90
        0
 40
-0.6
 41
-30.0
 62
     5
 63
     7
 74
     2
 91
        2
 64
     7
 65
     7
 75
     1
175
     1
 42
40.0
 92
       11
 66
     7
 43
1.0
 76
     1
 77
     6
 78
     2
 67
     7
 79
     6
170
     0
171
     0
290
     0
174
     0
 93
        1
 44
0.0
173
     0
291
     0
 45
0.0
1001
ACAD
1000
AcDbSavedByObjectVersion
1070
     0
  0
VISUALSTYLE
  5
36
102
{ACAD_XDICTIONARY
360
67F
102
}
102
{ACAD_REACTORS
330
29
102
}
330
29
100
AcDbVisualStyle
  2

 70
    13
 71
     2
 72
     2
 73
     0
 90
        0
 40
-0.6
 41
-30.0
 62
     5
 63
     7
 74
     1
 91
        4
 64
     7
 65
   257
 75
     1
175
     1
 42
1.0
 92
       12
 66
     7
 43
1.0
 76
     1
 77
     6
 78
     2
 67
     7
 79
     5
170
     0
171
     0
290
     0
174
     0
 93
        1
 44
0.0
173
     0
291
     1
 45
0.0
1001
ACAD
1000
AcDbSavedByObjectVersion
1070
     0
  0
VISUALSTYLE
  5
30
102
{ACAD_XDICTIONARY
360
673
102
}
102
{ACAD_REACTORS
330
29
102
}
330
29
100
AcDbVisualStyle
  2

 70
     5
 71
     0
 72
     2
 73
     0
 90
        0
 40
-0.6
 41
-30.0
 62
     5
 63
     7
 74
     1
 91
        4
 64
     7
 65
   257
 75
     1
175
     1
 42
1.0
 92
        0
 66
   257
 43
1.0
 76
     1
 77
     6
 78
     2
 67
     7
 79
     3
170
     0
171
     0
290
     0
174
     0
 93
        1
 44
0.0
173
     0
291
     0
 45
0.0
1001
ACAD
1000
AcDbSavedByObjectVersion
1070
     0
  0
VISUALSTYLE
  5
3C
102
{ACAD_XDICTIONARY
360
68B
102
}
102
{ACAD_REACTORS
330
29
102
}
330
29
100
AcDbVisualStyle
  2

 70
    25
 71
     2
 72
     2
 73
     1
 90
        1
 40
0.5
 41
-30.0
 62
     5
 63
     7
 74
     1
 91
        0
 64
     7
 65
   257
 75
     1
175
     1
 42
1.0
 92
        8
 66
     7
 43
1.0
 76
     1
 77
     6
 78
     2
 67
     7
 79
     3
170
     0
171
     0
290
     0
174
     0
 93
       13
 44
0.0
173
     0
291
     0
 45
0.0
1001
ACAD
1000
AcDbSavedByObjectVersion
1070
     0
  0
DICTIONARYVAR
  5
413
102
{ACAD_REACTORS
330
410
102
}
330
410
100
DictionaryVariables
280
     0
  1
1:1
  0
DICTIONARYVAR
  5
412
102
{ACAD_REACTORS
330
410
102
}
330
410
100
DictionaryVariables
280
     0
  1
STANDARD
  0
DICTIONARYVAR
  5
411
102
{ACAD_REACTORS
330
410
102
}
330
410
100
DictionaryVariables
280
     0
  1
STANDARD
  0
DICTIONARYVAR
  5
416
102
{ACAD_REACTORS
330
410
102
}
330
410
100
DictionaryVariables
280
     0
  1
1
  0
DICTIONARYVAR
  5
415
102
{ACAD_REACTORS
330
410
102
}
330
410
100
DictionaryVariables
280
     0
  1
0
  0
DICTIONARYVAR
  5
414
102
{ACAD_REACTORS
330
410
102
}
330
410
100
DictionaryVariables
280
     0
  1
127
  0
DICTIONARYVAR
  5
5A3
102
{ACAD_REACTORS
330
410
102
}
330
410
100
DictionaryVariables
280
     0
  1
2
  0
DICTIONARY
  5
69A
330
6E
100
AcDbDictionary
280
     1
281
     1
  3
ACAD_XREC_ROUNDTRIP
360
69B
  0
DICTIONARY
  5
698
330
6A
100
AcDbDictionary
280
     1
281
     1
  3
ACAD_XREC_ROUNDTRIP
360
699
  0
DICTIONARY
  5
1A
330
19
100
AcDbDictionary
280
     1
281
     1
  3
ACAD_XREC_ROUNDTRIP
360
422
  3
BUMPTILE
360
1C
  3
DIFFUSETILE
360
1B
  3
OPACITYTILE
360
1F
  3
REFLECTIONTILE
360
1E
  3
REFRACTIONTILE
360
20
  3
SPECULARTILE
360
1D
  0
DICTIONARY
  5
12
330
11
100
AcDbDictionary
280
     1
281
     1
  3
ACAD_XREC_ROUNDTRIP
360
421
  3
BUMPTILE
360
14
  3
DIFFUSETILE
360
13
  3
OPACITYTILE
360
17
  3
REFLECTIONTILE
360
16
  3
REFRACTIONTILE
360
18
  3
SPECULARTILE
360
15
  0
DICTIONARY
  5
22
330
21
100
AcDbDictionary
280
     1
281
     1
  3
ACAD_XREC_ROUNDTRIP
360
423
  3
BUMPTILE
360
24
  3
DIFFUSETILE
360
23
  3
OPACITYTILE
360
27
  3
REFLECTIONTILE
360
26
  3
REFRACTIONTILE
360
28
  3
SPECULARTILE
360
25
  0
DICTIONARY
  5
418
330
64
100
AcDbDictionary
280
     1
281
     1
  3
ACAD_ROUNDTRIP_2008_TABLESTYLE_CELLSTYLEMAP
360
660
  3
ACAD_XREC_ROUNDTRIP
360
697
  0
DICTIONARY
  5
671
330
2F
100
AcDbDictionary
280
     1
281
     1
  3
ACAD_XREC_ROUNDTRIP
360
672
  0
DICTIONARY
  5
69C
330
291
100
AcDbDictionary
280
     1
281
     1
  3
ACAD_XREC_ROUNDTRIP
360
69D
  0
DICTIONARY
  5
66F
330
2E
100
AcDbDictionary
280
     1
281
     1
  3
ACAD_XREC_ROUNDTRIP
360
670
  0
DICTIONARY
  5
67D
330
35
100
AcDbDictionary
280
     1
281
     1
  3
ACAD_XREC_ROUNDTRIP
360
67E
  0
DICTIONARY
  5
685
330
39
100
AcDbDictionary
280
     1
281
     1
  3
ACAD_XREC_ROUNDTRIP
360
686
  0
DICTIONARY
  5
677
330
32
100
AcDbDictionary
280
     1
281
     1
  3
ACAD_XREC_ROUNDTRIP
360
678
  0
DICTIONARY
  5
67B
330
34
100
AcDbDictionary
280
     1
281
     1
  3
ACAD_XREC_ROUNDTRIP
360
67C
  0
DICTIONARY
  5
695
330
41
100
AcDbDictionary
280
     1
281
     1
  3
ACAD_XREC_ROUNDTRIP
360
696
  0
DICTIONARY
  5
683
330
38
100
AcDbDictionary
280
     1
281
     1
  3
ACAD_XREC_ROUNDTRIP
360
684
  0
DICTIONARY
  5
667
330
2A
100
AcDbDictionary
280
     1
281
     1
  3
ACAD_XREC_ROUNDTRIP
360
668
  0
DICTIONARY
  5
669
330
2B
100
AcDbDictionary
280
     1
281
     1
  3
ACAD_XREC_ROUNDTRIP
360
66A
  0
DICTIONARY
  5
66B
330
2C
100
AcDbDictionary
280
     1
281
     1
  3
ACAD_XREC_ROUNDTRIP
360
66C
  0
DICTIONARY
  5
66D
330
2D
100
AcDbDictionary
280
     1
281
     1
  3
ACAD_XREC_ROUNDTRIP
360
66E
  0
DICTIONARY
  5
675
330
31
100
AcDbDictionary
280
     1
281
     1
  3
ACAD_XREC_ROUNDTRIP
360
676
  0
DICTIONARY
  5
691
330
3F
100
AcDbDictionary
280
     1
281
     1
  3
ACAD_XREC_ROUNDTRIP
360
692
  0
DICTIONARY
  5
681
330
37
100
AcDbDictionary
280
     1
281
     1
  3
ACAD_XREC_ROUNDTRIP
360
682
  0
DICTIONARY
  5
693
330
40
100
AcDbDictionary
280
     1
281
     1
  3
ACAD_XREC_ROUNDTRIP
360
694
  0
DICTIONARY
  5
679
330
33
100
AcDbDictionary
280
     1
281
     1
  3
ACAD_XREC_ROUNDTRIP
360
67A
  0
DICTIONARY
  5
68F
330
3E
100
AcDbDictionary
280
     1
281
     1
  3
ACAD_XREC_ROUNDTRIP
360
690
  0
DICTIONARY
  5
68D
330
3D
100
AcDbDictionary
280
     1
281
     1
  3
ACAD_XREC_ROUNDTRIP
360
68E
  0
DICTIONARY
  5
687
330
3A
100
AcDbDictionary
280
     1
281
     1
  3
ACAD_XREC_ROUNDTRIP
360
688
  0
DICTIONARY
  5
689
330
3B
100
AcDbDictionary
280
     1
281
     1
  3
ACAD_XREC_ROUNDTRIP
360
68A
  0
DICTIONARY
  5
67F
330
36
100
AcDbDictionary
280
     1
281
     1
  3
ACAD_XREC_ROUNDTRIP
360
680
  0
DICTIONARY
  5
673
330
30
100
AcDbDictionary
280
     1
281
     1
  3
ACAD_XREC_ROUNDTRIP
360
674
  0
DICTIONARY
  5
68B
330
3C
100
AcDbDictionary
280
     1
281
     1
  3
ACAD_XREC_ROUNDTRIP
360
68C
  0
XRECORD
  5
69B
102
{ACAD_REACTORS
330
69A
102
}
330
69A
100
AcDbXrecord
280
     1
102
SHADEPLOT
 70
     0
102
SHADEPLOTRESLEVEL
 70
     2
102
SHADEPLOTCUSTOMDPI
 70
   300
  0
XRECORD
  5
699
102
{ACAD_REACTORS
330
698
102
}
330
698
100
AcDbXrecord
280
     1
102
SHADEPLOT
 70
     0
102
SHADEPLOTRESLEVEL
 70
     2
102
SHADEPLOTCUSTOMDPI
 70
   300
  0
XRECORD
  5
422
102
{ACAD_REACTORS
330
1A
102
}
330
1A
100
AcDbXrecord
280
     1
102
MATERIAL
148
0.0
149
0.0
149
0.0
 93
        0
 94
      127
282
     0
 72
     0
 77
     0
171
     0
175
     0
179
     0
273
     0
  0
XRECORD
  5
1C
102
{ACAD_REACTORS
330
1A
102
}
330
1A
100
AcDbXrecord
280
     1
270
     1
271
     1
  0
XRECORD
  5
1B
102
{ACAD_REACTORS
330
1A
102
}
330
1A
100
AcDbXrecord
280
     1
270
     1
271
     1
  0
XRECORD
  5
1F
102
{ACAD_REACTORS
330
1A
102
}
330
1A
100
AcDbXrecord
280
     1
270
     1
271
     1
  0
XRECORD
  5
1E
102
{ACAD_REACTORS
330
1A
102
}
330
1A
100
AcDbXrecord
280
     1
270
     1
271
     1
  0
XRECORD
  5
20
102
{ACAD_REACTORS
330
1A
102
}
330
1A
100
AcDbXrecord
280
     1
270
     1
271
     1
  0
XRECORD
  5
1D
102
{ACAD_REACTORS
330
1A
102
}
330
1A
100
AcDbXrecord
280
     1
270
     1
271
     1
  0
XRECORD
  5
421
102
{ACAD_REACTORS
330
12
102
}
330
12
100
AcDbXrecord
280
     1
102
MATERIAL
148
0.0
149
0.0
149
0.0
 93
        0
 94
      127
282
     0
 72
     0
 77
     0
171
     0
175
     0
179
     0
273
     0
  0
XRECORD
  5
14
102
{ACAD_REACTORS
330
12
102
}
330
12
100
AcDbXrecord
280
     1
270
     1
271
     1
  0
XRECORD
  5
13
102
{ACAD_REACTORS
330
12
102
}
330
12
100
AcDbXrecord
280
     1
270
     1
271
     1
  0
XRECORD
  5
17
102
{ACAD_REACTORS
330
12
102
}
330
12
100
AcDbXrecord
280
     1
270
     1
271
     1
  0
XRECORD
  5
16
102
{ACAD_REACTORS
330
12
102
}
330
12
100
AcDbXrecord
280
     1
270
     1
271
     1
  0
XRECORD
  5
18
102
{ACAD_REACTORS
330
12
102
}
330
12
100
AcDbXrecord
280
     1
270
     1
271
     1
  0
XRECORD
  5
15
102
{ACAD_REACTORS
330
12
102
}
330
12
100
AcDbXrecord
280
     1
270
     1
271
     1
  0
XRECORD
  5
423
102
{ACAD_REACTORS
330
22
102
}
330
22
100
AcDbXrecord
280
     1
102
MATERIAL
148
0.0
149
0.0
149
0.0
 93
        0
 94
      127
282
     0
 72
     0
 77
     0
171
     0
175
     0
179
     0
273
     0
  0
XRECORD
  5
24
102
{ACAD_REACTORS
330
22
102
}
330
22
100
AcDbXrecord
280
     1
270
     1
271
     1
  0
XRECORD
  5
23
102
{ACAD_REACTORS
330
22
102
}
330
22
100
AcDbXrecord
280
     1
270
     1
271
     1
  0
XRECORD
  5
27
102
{ACAD_REACTORS
330
22
102
}
330
22
100
AcDbXrecord
280
     1
270
     1
271
     1
  0
XRECORD
  5
26
102
{ACAD_REACTORS
330
22
102
}
330
22
100
AcDbXrecord
280
     1
270
     1
271
     1
  0
XRECORD
  5
28
102
{ACAD_REACTORS
330
22
102
}
330
22
100
AcDbXrecord
280
     1
270
     1
271
     1
  0
XRECORD
  5
25
102
{ACAD_REACTORS
330
22
102
}
330
22
100
AcDbXrecord
280
     1
270
     1
271
     1
  0
CELLSTYLEMAP
  5
660
102
{ACAD_REACTORS
330
418
102
}
330
418
100
AcDbCellStyleMap
 90
        3
300
CELLSTYLE
  1
TABLEFORMAT_BEGIN
 90
        5
170
     1
 91
        0
 92
    32768
 62
   257
 93
        1
300
CONTENTFORMAT
  1
CONTENTFORMAT_BEGIN
 90
        0
 91
        0
 92
      512
 93
        0
300

 40
0.0
140
1.0
 94
        5
 62
     0
340
55
144
0.25
309
CONTENTFORMAT_END
171
     1
301
MARGIN
  1
CELLMARGIN_BEGIN
 40
0.06
 40
0.06
 40
0.06
 40
0.06
 40
0.18
 40
0.18
309
CELLMARGIN_END
 94
        6
 95
        1
302
GRIDFORMAT
  1
GRIDFORMAT_BEGIN
 90
        0
 91
        1
 62
     0
 92
       -2
340
0
 93
        0
 40
0.045
309
GRIDFORMAT_END
 95
        2
302
GRIDFORMAT
  1
GRIDFORMAT_BEGIN
 90
        0
 91
        1
 62
     0
 92
       -2
340
0
 93
        0
 40
0.045
309
GRIDFORMAT_END
 95
        4
302
GRIDFORMAT
  1
GRIDFORMAT_BEGIN
 90
        0
 91
        1
 62
     0
 92
       -2
340
0
 93
        0
 40
0.045
309
GRIDFORMAT_END
 95
        8
302
GRIDFORMAT
  1
GRIDFORMAT_BEGIN
 90
        0
 91
        1
 62
     0
 92
       -2
340
0
 93
        0
 40
0.045
309
GRIDFORMAT_END
 95
       16
302
GRIDFORMAT
  1
GRIDFORMAT_BEGIN
 90
        0
 91
        1
 62
     0
 92
       -2
340
0
 93
        0
 40
0.045
309
GRIDFORMAT_END
 95
       32
302
GRIDFORMAT
  1
GRIDFORMAT_BEGIN
 90
        0
 91
        1
 62
     0
 92
       -2
340
0
 93
        0
 40
0.045
309
GRIDFORMAT_END
309
TABLEFORMAT_END
  1
CELLSTYLE_BEGIN
 90
        1
 91
        1
300
_TITLE
309
CELLSTYLE_END
300
CELLSTYLE
  1
TABLEFORMAT_BEGIN
 90
        5
170
     1
 91
        0
 92
        0
 62
   257
 93
        1
300
CONTENTFORMAT
  1
CONTENTFORMAT_BEGIN
 90
        0
 91
        0
 92
      512
 93
        0
300

 40
0.0
140
1.0
 94
        5
 62
     0
340
55
144
0.18
309
CONTENTFORMAT_END
171
     1
301
MARGIN
  1
CELLMARGIN_BEGIN
 40
0.06
 40
0.06
 40
0.06
 40
0.06
 40
0.18
 40
0.18
309
CELLMARGIN_END
 94
        6
 95
        1
302
GRIDFORMAT
  1
GRIDFORMAT_BEGIN
 90
        0
 91
        1
 62
     0
 92
       -2
340
0
 93
        0
 40
0.045
309
GRIDFORMAT_END
 95
        2
302
GRIDFORMAT
  1
GRIDFORMAT_BEGIN
 90
        0
 91
        1
 62
     0
 92
       -2
340
0
 93
        0
 40
0.045
309
GRIDFORMAT_END
 95
        4
302
GRIDFORMAT
  1
GRIDFORMAT_BEGIN
 90
        0
 91
        1
 62
     0
 92
       -2
340
0
 93
        0
 40
0.045
309
GRIDFORMAT_END
 95
        8
302
GRIDFORMAT
  1
GRIDFORMAT_BEGIN
 90
        0
 91
        1
 62
     0
 92
       -2
340
0
 93
        0
 40
0.045
309
GRIDFORMAT_END
 95
       16
302
GRIDFORMAT
  1
GRIDFORMAT_BEGIN
 90
        0
 91
        1
 62
     0
 92
       -2
340
0
 93
        0
 40
0.045
309
GRIDFORMAT_END
 95
       32
302
GRIDFORMAT
  1
GRIDFORMAT_BEGIN
 90
        0
 91
        1
 62
     0
 92
       -2
340
0
 93
        0
 40
0.045
309
GRIDFORMAT_END
309
TABLEFORMAT_END
  1
CELLSTYLE_BEGIN
 90
        2
 91
        1
300
_HEADER
309
CELLSTYLE_END
300
CELLSTYLE
  1
TABLEFORMAT_BEGIN
 90
        5
170
     1
 91
        0
 92
        0
 62
   257
 93
        1
300
CONTENTFORMAT
  1
CONTENTFORMAT_BEGIN
 90
        0
 91
        0
 92
      512
 93
        0
300

 40
0.0
140
1.0
 94
        2
 62
     0
340
55
144
0.18
309
CONTENTFORMAT_END
171
     1
301
MARGIN
  1
CELLMARGIN_BEGIN
 40
0.06
 40
0.06
 40
0.06
 40
0.06
 40
0.18
 40
0.18
309
CELLMARGIN_END
 94
        6
 95
        1
302
GRIDFORMAT
  1
GRIDFORMAT_BEGIN
 90
        0
 91
        1
 62
     0
 92
       -2
340
0
 93
        0
 40
0.045
309
GRIDFORMAT_END
 95
        2
302
GRIDFORMAT
  1
GRIDFORMAT_BEGIN
 90
        0
 91
        1
 62
     0
 92
       -2
340
0
 93
        0
 40
0.045
309
GRIDFORMAT_END
 95
        4
302
GRIDFORMAT
  1
GRIDFORMAT_BEGIN
 90
        0
 91
        1
 62
     0
 92
       -2
340
0
 93
        0
 40
0.045
309
GRIDFORMAT_END
 95
        8
302
GRIDFORMAT
  1
GRIDFORMAT_BEGIN
 90
        0
 91
        1
 62
     0
 92
       -2
340
0
 93
        0
 40
0.045
309
GRIDFORMAT_END
 95
       16
302
GRIDFORMAT
  1
GRIDFORMAT_BEGIN
 90
        0
 91
        1
 62
     0
 92
       -2
340
0
 93
        0
 40
0.045
309
GRIDFORMAT_END
 95
       32
302
GRIDFORMAT
  1
GRIDFORMAT_BEGIN
 90
        0
 91
        1
 62
     0
 92
       -2
340
0
 93
        0
 40
0.045
309
GRIDFORMAT_END
309
TABLEFORMAT_END
  1
CELLSTYLE_BEGIN
 90
        3
 91
        2
300
_DATA
309
CELLSTYLE_END
  0
XRECORD
  5
697
102
{ACAD_REACTORS
330
418
102
}
330
418
100
AcDbXrecord
280
     1
102
ACAD_ROUNDTRIP_PRE2007_TABLESTYLE
 90
      512
 91
        0
  1

 92
      512
 93
        0
  2

 94
      512
 95
        0
  3

  0
XRECORD
  5
672
102
{ACAD_REACTORS
330
671
102
}
330
671
100
AcDbXrecord
280
     1
102
RTVSPropertyOp0
 70
     1
102
RTVSPropertyOp1
 70
     1
102
RTVSPropertyOp2
 70
     1
102
RTVSPropertyOp3
 70
     1
102
RTVSPropertyOp4
 70
     1
102
RTVSPropertyOp5
 70
     1
102
RTVSPropertyOp6
 70
     1
102
RTVSPropertyOp7
 70
     1
102
RTVSPropertyOp8
 70
     1
102
RTVSPropertyOp9
 70
     1
102
RTVSPropertyOp10
 70
     1
102
RTVSPropertyOp11
 70
     1
102
RTVSPropertyOp12
 70
     1
102
RTVSPropertyOp13
 70
     1
102
RTVSPropertyOp14
 70
     1
102
RTVSPropertyOp15
 70
     1
102
RTVSPropertyOp16
 70
     1
102
RTVSPropertyOp17
 70
     1
102
RTVSPropertyOp18
 70
     1
102
RTVSPropertyOp19
 70
     1
102
RTVSPropertyOp20
 70
     1
102
RTVSPropertyOp21
 70
     1
102
RTVSPropertyOp22
 70
     1
102
RTVSPropertyOp23
 70
     1
102
RTVSPropertyOp24
 70
     1
102
RTVSPropertyOp25
 70
     1
102
RTVSPropertyOp26
 70
     1
102
RTVSPropertyOp27
 70
     1
102
RTVSPropertyOp28
 70
     1
102
RTVSPropertyOp29
 70
     1
102
RTVSPropertyOp30
 70
     1
102
RTVSPropertyOp31
 70
     1
102
RTVSPropertyOp32
 70
     1
  0
XRECORD
  5
69D
102
{ACAD_REACTORS
330
69C
102
}
330
69C
100
AcDbXrecord
280
     1
102
RTVSPropertyOp0
 70
     1
102
RTVSPropertyOp1
 70
     1
102
RTVSPropertyOp2
 70
     1
102
RTVSPropertyOp3
 70
     1
102
RTVSPropertyOp4
 70
     1
102
RTVSPropertyOp5
 70
     1
102
RTVSPropertyOp6
 70
     1
102
RTVSPropertyOp7
 70
     1
102
RTVSPropertyOp8
 70
     1
102
RTVSPropertyOp9
 70
     1
102
RTVSPropertyOp10
 70
     1
102
RTVSPropertyOp11
 70
     1
102
RTVSPropertyOp12
 70
     1
102
RTVSPropertyOp13
 70
     1
102
RTVSPropertyOp14
 70
     1
102
RTVSPropertyOp15
 70
     1
102
RTVSPropertyOp16
 70
     1
102
RTVSPropertyOp17
 70
     1
102
RTVSPropertyOp18
 70
     1
102
RTVSPropertyOp19
 70
     1
102
RTVSPropertyOp20
 70
     1
102
RTVSPropertyOp21
 70
     1
102
RTVSPropertyOp22
 70
     1
102
RTVSPropertyOp23
 70
     1
102
RTVSPropertyOp24
 70
     1
102
RTVSPropertyOp25
 70
     1
102
RTVSPropertyOp26
 70
     1
102
RTVSPropertyOp27
 70
     1
102
RTVSPropertyOp28
 70
     1
102
RTVSPropertyOp29
 70
     1
102
RTVSPropertyOp30
 70
     1
102
RTVSPropertyOp31
 70
     1
102
RTVSPropertyOp32
 70
     1
  0
XRECORD
  5
670
102
{ACAD_REACTORS
330
66F
102
}
330
66F
100
AcDbXrecord
280
     1
102
RTVSPropertyOp0
 70
     1
102
RTVSPropertyOp1
 70
     1
102
RTVSPropertyOp2
 70
     1
102
RTVSPropertyOp3
 70
     1
102
RTVSPropertyOp4
 70
     1
102
RTVSPropertyOp5
 70
     1
102
RTVSPropertyOp6
 70
     1
102
RTVSPropertyOp7
 70
     1
102
RTVSPropertyOp8
 70
     1
102
RTVSPropertyOp9
 70
     1
102
RTVSPropertyOp10
 70
     1
102
RTVSPropertyOp11
 70
     1
102
RTVSPropertyOp12
 70
     1
102
RTVSPropertyOp13
 70
     1
102
RTVSPropertyOp14
 70
     1
102
RTVSPropertyOp15
 70
     1
102
RTVSPropertyOp16
 70
     1
102
RTVSPropertyOp17
 70
     1
102
RTVSPropertyOp18
 70
     1
102
RTVSPropertyOp19
 70
     1
102
RTVSPropertyOp20
 70
     1
102
RTVSPropertyOp21
 70
     1
102
RTVSPropertyOp22
 70
     1
102
RTVSPropertyOp23
 70
     1
102
RTVSPropertyOp24
 70
     1
102
RTVSPropertyOp25
 70
     1
102
RTVSPropertyOp26
 70
     1
102
RTVSPropertyOp27
 70
     1
102
RTVSPropertyOp28
 70
     1
102
RTVSPropertyOp29
 70
     1
102
RTVSPropertyOp30
 70
     1
102
RTVSPropertyOp31
 70
     1
102
RTVSPropertyOp32
 70
     1
  0
XRECORD
  5
67E
102
{ACAD_REACTORS
330
67D
102
}
330
67D
100
AcDbXrecord
280
     1
102
RTVSPropertyOp0
 70
     1
102
RTVSPropertyOp1
 70
     1
102
RTVSPropertyOp2
 70
     1
102
RTVSPropertyOp3
 70
     1
102
RTVSPropertyOp4
 70
     1
102
RTVSPropertyOp5
 70
     1
102
RTVSPropertyOp6
 70
     1
102
RTVSPropertyOp7
 70
     1
102
RTVSPropertyOp8
 70
     1
102
RTVSPropertyOp9
 70
     1
102
RTVSPropertyOp10
 70
     1
102
RTVSPropertyOp11
 70
     1
102
RTVSPropertyOp12
 70
     1
102
RTVSPropertyOp13
 70
     1
102
RTVSPropertyOp14
 70
     1
102
RTVSPropertyOp15
 70
     1
102
RTVSPropertyOp16
 70
     1
102
RTVSPropertyOp17
 70
     1
102
RTVSPropertyOp18
 70
     1
102
RTVSPropertyOp19
 70
     1
102
RTVSPropertyOp20
 70
     1
102
RTVSPropertyOp21
 70
     1
102
RTVSPropertyOp22
 70
     1
102
RTVSPropertyOp23
 70
     1
102
RTVSPropertyOp24
 70
     1
102
RTVSPropertyOp25
 70
     1
102
RTVSPropertyOp26
 70
     1
102
RTVSPropertyOp27
 70
     1
102
RTVSPropertyOp28
 70
     1
102
RTVSPropertyOp29
 70
     1
102
RTVSPropertyOp30
 70
     1
102
RTVSPropertyOp31
 70
     1
102
RTVSPropertyOp32
 70
     1
  0
XRECORD
  5
686
102
{ACAD_REACTORS
330
685
102
}
330
685
100
AcDbXrecord
280
     1
102
RTVSPropertyOp0
 70
     1
102
RTVSPropertyOp1
 70
     1
102
RTVSPropertyOp2
 70
     1
102
RTVSPropertyOp3
 70
     1
102
RTVSPropertyOp4
 70
     1
102
RTVSPropertyOp5
 70
     1
102
RTVSPropertyOp6
 70
     1
102
RTVSPropertyOp7
 70
     1
102
RTVSPropertyOp8
 70
     1
102
RTVSPropertyOp9
 70
     1
102
RTVSPropertyOp10
 70
     1
102
RTVSPropertyOp11
 70
     1
102
RTVSPropertyOp12
 70
     1
102
RTVSPropertyOp13
 70
     1
102
RTVSPropertyOp14
 70
     1
102
RTVSPropertyOp15
 70
     1
102
RTVSPropertyOp16
 70
     1
102
RTVSPropertyOp17
 70
     1
102
RTVSPropertyOp18
 70
     1
102
RTVSPropertyOp19
 70
     1
102
RTVSPropertyOp20
 70
     1
102
RTVSPropertyOp21
 70
     1
102
RTVSPropertyOp22
 70
     1
102
RTVSPropertyOp23
 70
     1
102
RTVSPropertyOp24
 70
     1
102
RTVSPropertyOp25
 70
     1
102
RTVSPropertyOp26
 70
     1
102
RTVSPropertyOp27
 70
     1
102
RTVSPropertyOp28
 70
     1
102
RTVSPropertyOp29
 70
     1
102
RTVSPropertyOp30
 70
     1
102
RTVSPropertyOp31
 70
     1
102
RTVSPropertyOp32
 70
     1
  0
XRECORD
  5
678
102
{ACAD_REACTORS
330
677
102
}
330
677
100
AcDbXrecord
280
     1
102
RTVSPropertyOp0
 70
     1
102
RTVSPropertyOp1
 70
     1
102
RTVSPropertyOp2
 70
     1
102
RTVSPropertyOp3
 70
     1
102
RTVSPropertyOp4
 70
     1
102
RTVSPropertyOp5
 70
     1
102
RTVSPropertyOp6
 70
     1
102
RTVSPropertyOp7
 70
     1
102
RTVSPropertyOp8
 70
     1
102
RTVSPropertyOp9
 70
     1
102
RTVSPropertyOp10
 70
     1
102
RTVSPropertyOp11
 70
     1
102
RTVSPropertyOp12
 70
     1
102
RTVSPropertyOp13
 70
     1
102
RTVSPropertyOp14
 70
     1
102
RTVSPropertyOp15
 70
     1
102
RTVSPropertyOp16
 70
     1
102
RTVSPropertyOp17
 70
     1
102
RTVSPropertyOp18
 70
     1
102
RTVSPropertyOp19
 70
     1
102
RTVSPropertyOp20
 70
     1
102
RTVSPropertyOp21
 70
     1
102
RTVSPropertyOp22
 70
     1
102
RTVSPropertyOp23
 70
     1
102
RTVSPropertyOp24
 70
     1
102
RTVSPropertyOp25
 70
     1
102
RTVSPropertyOp26
 70
     1
102
RTVSPropertyOp27
 70
     1
102
RTVSPropertyOp28
 70
     1
102
RTVSPropertyOp29
 70
     1
102
RTVSPropertyOp30
 70
     1
102
RTVSPropertyOp31
 70
     1
102
RTVSPropertyOp32
 70
     1
  0
XRECORD
  5
67C
102
{ACAD_REACTORS
330
67B
102
}
330
67B
100
AcDbXrecord
280
     1
102
RTVSPropertyOp0
 70
     1
102
RTVSPropertyOp1
 70
     1
102
RTVSPropertyOp2
 70
     1
102
RTVSPropertyOp3
 70
     1
102
RTVSPropertyOp4
 70
     1
102
RTVSPropertyOp5
 70
     1
102
RTVSPropertyOp6
 70
     1
102
RTVSPropertyOp7
 70
     1
102
RTVSPropertyOp8
 70
     1
102
RTVSPropertyOp9
 70
     1
102
RTVSPropertyOp10
 70
     1
102
RTVSPropertyOp11
 70
     1
102
RTVSPropertyOp12
 70
     1
102
RTVSPropertyOp13
 70
     1
102
RTVSPropertyOp14
 70
     1
102
RTVSPropertyOp15
 70
     1
102
RTVSPropertyOp16
 70
     1
102
RTVSPropertyOp17
 70
     1
102
RTVSPropertyOp18
 70
     1
102
RTVSPropertyOp19
 70
     1
102
RTVSPropertyOp20
 70
     1
102
RTVSPropertyOp21
 70
     1
102
RTVSPropertyOp22
 70
     1
102
RTVSPropertyOp23
 70
     1
102
RTVSPropertyOp24
 70
     1
102
RTVSPropertyOp25
 70
     1
102
RTVSPropertyOp26
 70
     1
102
RTVSPropertyOp27
 70
     1
102
RTVSPropertyOp28
 70
     1
102
RTVSPropertyOp29
 70
     1
102
RTVSPropertyOp30
 70
     1
102
RTVSPropertyOp31
 70
     1
102
RTVSPropertyOp32
 70
     1
  0
XRECORD
  5
696
102
{ACAD_REACTORS
330
695
102
}
330
695
100
AcDbXrecord
280
     1
102
RTVSPropertyOp0
 70
     0
102
RTVSPropertyOp1
 70
     0
102
RTVSPropertyOp2
 70
     0
102
RTVSPropertyOp3
 70
     0
102
RTVSPropertyOp4
 70
     0
102
RTVSPropertyOp5
 70
     0
102
RTVSPropertyOp6
 70
     0
102
RTVSPropertyOp7
 70
     0
102
RTVSPropertyOp8
 70
     0
102
RTVSPropertyOp9
 70
     0
102
RTVSPropertyOp10
 70
     0
102
RTVSPropertyOp11
 70
     0
102
RTVSPropertyOp12
 70
     0
102
RTVSPropertyOp13
 70
     0
102
RTVSPropertyOp14
 70
     2
102
RTVSPropertyOp15
 70
     0
102
RTVSPropertyOp16
 70
     0
102
RTVSPropertyOp17
 70
     0
102
RTVSPropertyOp18
 70
     0
102
RTVSPropertyOp19
 70
     0
102
RTVSPropertyOp20
 70
     0
102
RTVSPropertyOp21
 70
     0
102
RTVSPropertyOp22
 70
     0
102
RTVSPropertyOp23
 70
     0
102
RTVSPropertyOp24
 70
     0
102
RTVSPropertyOp25
 70
     0
102
RTVSPropertyOp26
 70
     0
102
RTVSPropertyOp27
 70
     0
102
RTVSPropertyOp28
 70
     0
102
RTVSPropertyOp29
 70
     0
102
RTVSPropertyOp30
 70
     0
102
RTVSPropertyOp31
 70
     0
102
RTVSPropertyOp32
 70
     0
  0
XRECORD
  5
684
102
{ACAD_REACTORS
330
683
102
}
330
683
100
AcDbXrecord
280
     1
102
RTVSPropertyOp0
 70
     1
102
RTVSPropertyOp1
 70
     1
102
RTVSPropertyOp2
 70
     1
102
RTVSPropertyOp3
 70
     1
102
RTVSPropertyOp4
 70
     1
102
RTVSPropertyOp5
 70
     1
102
RTVSPropertyOp6
 70
     1
102
RTVSPropertyOp7
 70
     1
102
RTVSPropertyOp8
 70
     1
102
RTVSPropertyOp9
 70
     1
102
RTVSPropertyOp10
 70
     1
102
RTVSPropertyOp11
 70
     1
102
RTVSPropertyOp12
 70
     1
102
RTVSPropertyOp13
 70
     1
102
RTVSPropertyOp14
 70
     1
102
RTVSPropertyOp15
 70
     1
102
RTVSPropertyOp16
 70
     1
102
RTVSPropertyOp17
 70
     1
102
RTVSPropertyOp18
 70
     1
102
RTVSPropertyOp19
 70
     1
102
RTVSPropertyOp20
 70
     1
102
RTVSPropertyOp21
 70
     1
102
RTVSPropertyOp22
 70
     1
102
RTVSPropertyOp23
 70
     1
102
RTVSPropertyOp24
 70
     1
102
RTVSPropertyOp25
 70
     1
102
RTVSPropertyOp26
 70
     1
102
RTVSPropertyOp27
 70
     1
102
RTVSPropertyOp28
 70
     1
102
RTVSPropertyOp29
 70
     1
102
RTVSPropertyOp30
 70
     1
102
RTVSPropertyOp31
 70
     1
102
RTVSPropertyOp32
 70
     1
  0
XRECORD
  5
668
102
{ACAD_REACTORS
330
667
102
}
330
667
100
AcDbXrecord
280
     1
102
RTVSPropertyOp0
 70
     1
102
RTVSPropertyOp1
 70
     1
102
RTVSPropertyOp2
 70
     1
102
RTVSPropertyOp3
 70
     1
102
RTVSPropertyOp4
 70
     1
102
RTVSPropertyOp5
 70
     1
102
RTVSPropertyOp6
 70
     1
102
RTVSPropertyOp7
 70
     1
102
RTVSPropertyOp8
 70
     1
102
RTVSPropertyOp9
 70
     1
102
RTVSPropertyOp10
 70
     1
102
RTVSPropertyOp11
 70
     1
102
RTVSPropertyOp12
 70
     1
102
RTVSPropertyOp13
 70
     1
102
RTVSPropertyOp14
 70
     1
102
RTVSPropertyOp15
 70
     1
102
RTVSPropertyOp16
 70
     1
102
RTVSPropertyOp17
 70
     1
102
RTVSPropertyOp18
 70
     1
102
RTVSPropertyOp19
 70
     1
102
RTVSPropertyOp20
 70
     1
102
RTVSPropertyOp21
 70
     1
102
RTVSPropertyOp22
 70
     1
102
RTVSPropertyOp23
 70
     1
102
RTVSPropertyOp24
 70
     1
102
RTVSPropertyOp25
 70
     1
102
RTVSPropertyOp26
 70
     1
102
RTVSPropertyOp27
 70
     1
102
RTVSPropertyOp28
 70
     1
102
RTVSPropertyOp29
 70
     1
102
RTVSPropertyOp30
 70
     1
102
RTVSPropertyOp31
 70
     1
102
RTVSPropertyOp32
 70
     1
  0
XRECORD
  5
66A
102
{ACAD_REACTORS
330
669
102
}
330
669
100
AcDbXrecord
280
     1
102
RTVSPropertyOp0
 70
     1
102
RTVSPropertyOp1
 70
     1
102
RTVSPropertyOp2
 70
     1
102
RTVSPropertyOp3
 70
     1
102
RTVSPropertyOp4
 70
     1
102
RTVSPropertyOp5
 70
     1
102
RTVSPropertyOp6
 70
     1
102
RTVSPropertyOp7
 70
     1
102
RTVSPropertyOp8
 70
     1
102
RTVSPropertyOp9
 70
     1
102
RTVSPropertyOp10
 70
     1
102
RTVSPropertyOp11
 70
     1
102
RTVSPropertyOp12
 70
     1
102
RTVSPropertyOp13
 70
     1
102
RTVSPropertyOp14
 70
     1
102
RTVSPropertyOp15
 70
     1
102
RTVSPropertyOp16
 70
     1
102
RTVSPropertyOp17
 70
     1
102
RTVSPropertyOp18
 70
     1
102
RTVSPropertyOp19
 70
     1
102
RTVSPropertyOp20
 70
     1
102
RTVSPropertyOp21
 70
     1
102
RTVSPropertyOp22
 70
     1
102
RTVSPropertyOp23
 70
     1
102
RTVSPropertyOp24
 70
     1
102
RTVSPropertyOp25
 70
     1
102
RTVSPropertyOp26
 70
     1
102
RTVSPropertyOp27
 70
     1
102
RTVSPropertyOp28
 70
     1
102
RTVSPropertyOp29
 70
     1
102
RTVSPropertyOp30
 70
     1
102
RTVSPropertyOp31
 70
     1
102
RTVSPropertyOp32
 70
     1
  0
XRECORD
  5
66C
102
{ACAD_REACTORS
330
66B
102
}
330
66B
100
AcDbXrecord
280
     1
102
RTVSPropertyOp0
 70
     1
102
RTVSPropertyOp1
 70
     1
102
RTVSPropertyOp2
 70
     1
102
RTVSPropertyOp3
 70
     1
102
RTVSPropertyOp4
 70
     1
102
RTVSPropertyOp5
 70
     1
102
RTVSPropertyOp6
 70
     1
102
RTVSPropertyOp7
 70
     1
102
RTVSPropertyOp8
 70
     1
102
RTVSPropertyOp9
 70
     1
102
RTVSPropertyOp10
 70
     1
102
RTVSPropertyOp11
 70
     1
102
RTVSPropertyOp12
 70
     1
102
RTVSPropertyOp13
 70
     1
102
RTVSPropertyOp14
 70
     1
102
RTVSPropertyOp15
 70
     1
102
RTVSPropertyOp16
 70
     1
102
RTVSPropertyOp17
 70
     1
102
RTVSPropertyOp18
 70
     1
102
RTVSPropertyOp19
 70
     1
102
RTVSPropertyOp20
 70
     1
102
RTVSPropertyOp21
 70
     1
102
RTVSPropertyOp22
 70
     1
102
RTVSPropertyOp23
 70
     1
102
RTVSPropertyOp24
 70
     1
102
RTVSPropertyOp25
 70
     1
102
RTVSPropertyOp26
 70
     1
102
RTVSPropertyOp27
 70
     1
102
RTVSPropertyOp28
 70
     1
102
RTVSPropertyOp29
 70
     1
102
RTVSPropertyOp30
 70
     1
102
RTVSPropertyOp31
 70
     1
102
RTVSPropertyOp32
 70
     1
  0
XRECORD
  5
66E
102
{ACAD_REACTORS
330
66D
102
}
330
66D
100
AcDbXrecord
280
     1
102
RTVSPropertyOp0
 70
     1
102
RTVSPropertyOp1
 70
     1
102
RTVSPropertyOp2
 70
     1
102
RTVSPropertyOp3
 70
     1
102
RTVSPropertyOp4
 70
     1
102
RTVSPropertyOp5
 70
     1
102
RTVSPropertyOp6
 70
     1
102
RTVSPropertyOp7
 70
     1
102
RTVSPropertyOp8
 70
     1
102
RTVSPropertyOp9
 70
     1
102
RTVSPropertyOp10
 70
     1
102
RTVSPropertyOp11
 70
     1
102
RTVSPropertyOp12
 70
     1
102
RTVSPropertyOp13
 70
     1
102
RTVSPropertyOp14
 70
     1
102
RTVSPropertyOp15
 70
     1
102
RTVSPropertyOp16
 70
     1
102
RTVSPropertyOp17
 70
     1
102
RTVSPropertyOp18
 70
     1
102
RTVSPropertyOp19
 70
     1
102
RTVSPropertyOp20
 70
     1
102
RTVSPropertyOp21
 70
     1
102
RTVSPropertyOp22
 70
     1
102
RTVSPropertyOp23
 70
     1
102
RTVSPropertyOp24
 70
     1
102
RTVSPropertyOp25
 70
     1
102
RTVSPropertyOp26
 70
     1
102
RTVSPropertyOp27
 70
     1
102
RTVSPropertyOp28
 70
     1
102
RTVSPropertyOp29
 70
     1
102
RTVSPropertyOp30
 70
     1
102
RTVSPropertyOp31
 70
     1
102
RTVSPropertyOp32
 70
     1
  0
XRECORD
  5
676
102
{ACAD_REACTORS
330
675
102
}
330
675
100
AcDbXrecord
280
     1
102
RTVSPropertyOp0
 70
     1
102
RTVSPropertyOp1
 70
     1
102
RTVSPropertyOp2
 70
     1
102
RTVSPropertyOp3
 70
     1
102
RTVSPropertyOp4
 70
     1
102
RTVSPropertyOp5
 70
     1
102
RTVSPropertyOp6
 70
     1
102
RTVSPropertyOp7
 70
     1
102
RTVSPropertyOp8
 70
     1
102
RTVSPropertyOp9
 70
     1
102
RTVSPropertyOp10
 70
     1
102
RTVSPropertyOp11
 70
     1
102
RTVSPropertyOp12
 70
     1
102
RTVSPropertyOp13
 70
     1
102
RTVSPropertyOp14
 70
     1
102
RTVSPropertyOp15
 70
     1
102
RTVSPropertyOp16
 70
     1
102
RTVSPropertyOp17
 70
     1
102
RTVSPropertyOp18
 70
     1
102
RTVSPropertyOp19
 70
     1
102
RTVSPropertyOp20
 70
     1
102
RTVSPropertyOp21
 70
     1
102
RTVSPropertyOp22
 70
     1
102
RTVSPropertyOp23
 70
     1
102
RTVSPropertyOp24
 70
     1
102
RTVSPropertyOp25
 70
     1
102
RTVSPropertyOp26
 70
     1
102
RTVSPropertyOp27
 70
     1
102
RTVSPropertyOp28
 70
     1
102
RTVSPropertyOp29
 70
     1
102
RTVSPropertyOp30
 70
     1
102
RTVSPropertyOp31
 70
     1
102
RTVSPropertyOp32
 70
     1
  0
XRECORD
  5
692
102
{ACAD_REACTORS
330
691
102
}
330
691
100
AcDbXrecord
280
     1
102
RTVSPropertyOp0
 70
     0
102
RTVSPropertyOp1
 70
     0
102
RTVSPropertyOp2
 70
     0
102
RTVSPropertyOp3
 70
     0
102
RTVSPropertyOp4
 70
     0
102
RTVSPropertyOp5
 70
     0
102
RTVSPropertyOp6
 70
     0
102
RTVSPropertyOp7
 70
     0
102
RTVSPropertyOp8
 70
     0
102
RTVSPropertyOp9
 70
     0
102
RTVSPropertyOp10
 70
     0
102
RTVSPropertyOp11
 70
     0
102
RTVSPropertyOp12
 70
     0
102
RTVSPropertyOp13
 70
     0
102
RTVSPropertyOp14
 70
     2
102
RTVSPropertyOp15
 70
     0
102
RTVSPropertyOp16
 70
     0
102
RTVSPropertyOp17
 70
     0
102
RTVSPropertyOp18
 70
     0
102
RTVSPropertyOp19
 70
     0
102
RTVSPropertyOp20
 70
     0
102
RTVSPropertyOp21
 70
     0
102
RTVSPropertyOp22
 70
     0
102
RTVSPropertyOp23
 70
     0
102
RTVSPropertyOp24
 70
     0
102
RTVSPropertyOp25
 70
     0
102
RTVSPropertyOp26
 70
     0
102
RTVSPropertyOp27
 70
     0
102
RTVSPropertyOp28
 70
     0
102
RTVSPropertyOp29
 70
     0
102
RTVSPropertyOp30
 70
     0
102
RTVSPropertyOp31
 70
     0
102
RTVSPropertyOp32
 70
     0
  0
XRECORD
  5
682
102
{ACAD_REACTORS
330
681
102
}
330
681
100
AcDbXrecord
280
     1
102
RTVSPropertyOp0
 70
     1
102
RTVSPropertyOp1
 70
     1
102
RTVSPropertyOp2
 70
     1
102
RTVSPropertyOp3
 70
     1
102
RTVSPropertyOp4
 70
     1
102
RTVSPropertyOp5
 70
     1
102
RTVSPropertyOp6
 70
     1
102
RTVSPropertyOp7
 70
     1
102
RTVSPropertyOp8
 70
     1
102
RTVSPropertyOp9
 70
     1
102
RTVSPropertyOp10
 70
     1
102
RTVSPropertyOp11
 70
     1
102
RTVSPropertyOp12
 70
     1
102
RTVSPropertyOp13
 70
     1
102
RTVSPropertyOp14
 70
     1
102
RTVSPropertyOp15
 70
     1
102
RTVSPropertyOp16
 70
     1
102
RTVSPropertyOp17
 70
     1
102
RTVSPropertyOp18
 70
     1
102
RTVSPropertyOp19
 70
     1
102
RTVSPropertyOp20
 70
     1
102
RTVSPropertyOp21
 70
     1
102
RTVSPropertyOp22
 70
     1
102
RTVSPropertyOp23
 70
     1
102
RTVSPropertyOp24
 70
     1
102
RTVSPropertyOp25
 70
     1
102
RTVSPropertyOp26
 70
     1
102
RTVSPropertyOp27
 70
     1
102
RTVSPropertyOp28
 70
     1
102
RTVSPropertyOp29
 70
     1
102
RTVSPropertyOp30
 70
     1
102
RTVSPropertyOp31
 70
     1
102
RTVSPropertyOp32
 70
     1
  0
XRECORD
  5
694
102
{ACAD_REACTORS
330
693
102
}
330
693
100
AcDbXrecord
280
     1
102
RTVSPropertyOp0
 70
     0
102
RTVSPropertyOp1
 70
     0
102
RTVSPropertyOp2
 70
     0
102
RTVSPropertyOp3
 70
     0
102
RTVSPropertyOp4
 70
     0
102
RTVSPropertyOp5
 70
     0
102
RTVSPropertyOp6
 70
     0
102
RTVSPropertyOp7
 70
     0
102
RTVSPropertyOp8
 70
     0
102
RTVSPropertyOp9
 70
     0
102
RTVSPropertyOp10
 70
     0
102
RTVSPropertyOp11
 70
     0
102
RTVSPropertyOp12
 70
     0
102
RTVSPropertyOp13
 70
     0
102
RTVSPropertyOp14
 70
     2
102
RTVSPropertyOp15
 70
     0
102
RTVSPropertyOp16
 70
     0
102
RTVSPropertyOp17
 70
     0
102
RTVSPropertyOp18
 70
     0
102
RTVSPropertyOp19
 70
     0
102
RTVSPropertyOp20
 70
     0
102
RTVSPropertyOp21
 70
     0
102
RTVSPropertyOp22
 70
     0
102
RTVSPropertyOp23
 70
     0
102
RTVSPropertyOp24
 70
     0
102
RTVSPropertyOp25
 70
     0
102
RTVSPropertyOp26
 70
     0
102
RTVSPropertyOp27
 70
     0
102
RTVSPropertyOp28
 70
     0
102
RTVSPropertyOp29
 70
     0
102
RTVSPropertyOp30
 70
     0
102
RTVSPropertyOp31
 70
     0
102
RTVSPropertyOp32
 70
     0
  0
XRECORD
  5
67A
102
{ACAD_REACTORS
330
679
102
}
330
679
100
AcDbXrecord
280
     1
102
RTVSPropertyOp0
 70
     1
102
RTVSPropertyOp1
 70
     1
102
RTVSPropertyOp2
 70
     1
102
RTVSPropertyOp3
 70
     1
102
RTVSPropertyOp4
 70
     1
102
RTVSPropertyOp5
 70
     1
102
RTVSPropertyOp6
 70
     1
102
RTVSPropertyOp7
 70
     1
102
RTVSPropertyOp8
 70
     1
102
RTVSPropertyOp9
 70
     1
102
RTVSPropertyOp10
 70
     1
102
RTVSPropertyOp11
 70
     1
102
RTVSPropertyOp12
 70
     1
102
RTVSPropertyOp13
 70
     1
102
RTVSPropertyOp14
 70
     1
102
RTVSPropertyOp15
 70
     1
102
RTVSPropertyOp16
 70
     1
102
RTVSPropertyOp17
 70
     1
102
RTVSPropertyOp18
 70
     1
102
RTVSPropertyOp19
 70
     1
102
RTVSPropertyOp20
 70
     1
102
RTVSPropertyOp21
 70
     1
102
RTVSPropertyOp22
 70
     1
102
RTVSPropertyOp23
 70
     1
102
RTVSPropertyOp24
 70
     1
102
RTVSPropertyOp25
 70
     1
102
RTVSPropertyOp26
 70
     1
102
RTVSPropertyOp27
 70
     1
102
RTVSPropertyOp28
 70
     1
102
RTVSPropertyOp29
 70
     1
102
RTVSPropertyOp30
 70
     1
102
RTVSPropertyOp31
 70
     1
102
RTVSPropertyOp32
 70
     1
  0
XRECORD
  5
690
102
{ACAD_REACTORS
330
68F
102
}
330
68F
100
AcDbXrecord
280
     1
102
RTVSPropertyOp0
 70
     1
102
RTVSPropertyOp1
 70
     1
102
RTVSPropertyOp2
 70
     1
102
RTVSPropertyOp3
 70
     1
102
RTVSPropertyOp4
 70
     1
102
RTVSPropertyOp5
 70
     1
102
RTVSPropertyOp6
 70
     1
102
RTVSPropertyOp7
 70
     1
102
RTVSPropertyOp8
 70
     1
102
RTVSPropertyOp9
 70
     1
102
RTVSPropertyOp10
 70
     1
102
RTVSPropertyOp11
 70
     1
102
RTVSPropertyOp12
 70
     1
102
RTVSPropertyOp13
 70
     1
102
RTVSPropertyOp14
 70
     1
102
RTVSPropertyOp15
 70
     1
102
RTVSPropertyOp16
 70
     1
102
RTVSPropertyOp17
 70
     1
102
RTVSPropertyOp18
 70
     1
102
RTVSPropertyOp19
 70
     1
102
RTVSPropertyOp20
 70
     1
102
RTVSPropertyOp21
 70
     1
102
RTVSPropertyOp22
 70
     1
102
RTVSPropertyOp23
 70
     1
102
RTVSPropertyOp24
 70
     1
102
RTVSPropertyOp25
 70
     1
102
RTVSPropertyOp26
 70
     1
102
RTVSPropertyOp27
 70
     1
102
RTVSPropertyOp28
 70
     1
102
RTVSPropertyOp29
 70
     1
102
RTVSPropertyOp30
 70
     1
102
RTVSPropertyOp31
 70
     1
102
RTVSPropertyOp32
 70
     1
  0
XRECORD
  5
68E
102
{ACAD_REACTORS
330
68D
102
}
330
68D
100
AcDbXrecord
280
     1
102
RTVSPropertyOp0
 70
     1
102
RTVSPropertyOp1
 70
     1
102
RTVSPropertyOp2
 70
     1
102
RTVSPropertyOp3
 70
     1
102
RTVSPropertyOp4
 70
     1
102
RTVSPropertyOp5
 70
     1
102
RTVSPropertyOp6
 70
     1
102
RTVSPropertyOp7
 70
     1
102
RTVSPropertyOp8
 70
     1
102
RTVSPropertyOp9
 70
     1
102
RTVSPropertyOp10
 70
     1
102
RTVSPropertyOp11
 70
     1
102
RTVSPropertyOp12
 70
     1
102
RTVSPropertyOp13
 70
     1
102
RTVSPropertyOp14
 70
     1
102
RTVSPropertyOp15
 70
     1
102
RTVSPropertyOp16
 70
     1
102
RTVSPropertyOp17
 70
     1
102
RTVSPropertyOp18
 70
     1
102
RTVSPropertyOp19
 70
     1
102
RTVSPropertyOp20
 70
     1
102
RTVSPropertyOp21
 70
     1
102
RTVSPropertyOp22
 70
     1
102
RTVSPropertyOp23
 70
     1
102
RTVSPropertyOp24
 70
     1
102
RTVSPropertyOp25
 70
     1
102
RTVSPropertyOp26
 70
     1
102
RTVSPropertyOp27
 70
     1
102
RTVSPropertyOp28
 70
     1
102
RTVSPropertyOp29
 70
     1
102
RTVSPropertyOp30
 70
     1
102
RTVSPropertyOp31
 70
     1
102
RTVSPropertyOp32
 70
     1
  0
XRECORD
  5
688
102
{ACAD_REACTORS
330
687
102
}
330
687
100
AcDbXrecord
280
     1
102
RTVSPropertyOp0
 70
     1
102
RTVSPropertyOp1
 70
     1
102
RTVSPropertyOp2
 70
     1
102
RTVSPropertyOp3
 70
     1
102
RTVSPropertyOp4
 70
     1
102
RTVSPropertyOp5
 70
     1
102
RTVSPropertyOp6
 70
     1
102
RTVSPropertyOp7
 70
     1
102
RTVSPropertyOp8
 70
     1
102
RTVSPropertyOp9
 70
     1
102
RTVSPropertyOp10
 70
     1
102
RTVSPropertyOp11
 70
     1
102
RTVSPropertyOp12
 70
     1
102
RTVSPropertyOp13
 70
     1
102
RTVSPropertyOp14
 70
     1
102
RTVSPropertyOp15
 70
     1
102
RTVSPropertyOp16
 70
     1
102
RTVSPropertyOp17
 70
     1
102
RTVSPropertyOp18
 70
     1
102
RTVSPropertyOp19
 70
     1
102
RTVSPropertyOp20
 70
     1
102
RTVSPropertyOp21
 70
     1
102
RTVSPropertyOp22
 70
     1
102
RTVSPropertyOp23
 70
     1
102
RTVSPropertyOp24
 70
     1
102
RTVSPropertyOp25
 70
     1
102
RTVSPropertyOp26
 70
     1
102
RTVSPropertyOp27
 70
     1
102
RTVSPropertyOp28
 70
     1
102
RTVSPropertyOp29
 70
     1
102
RTVSPropertyOp30
 70
     1
102
RTVSPropertyOp31
 70
     1
102
RTVSPropertyOp32
 70
     1
  0
XRECORD
  5
68A
102
{ACAD_REACTORS
330
689
102
}
330
689
100
AcDbXrecord
280
     1
102
RTVSPropertyOp0
 70
     1
102
RTVSPropertyOp1
 70
     1
102
RTVSPropertyOp2
 70
     1
102
RTVSPropertyOp3
 70
     1
102
RTVSPropertyOp4
 70
     1
102
RTVSPropertyOp5
 70
     1
102
RTVSPropertyOp6
 70
     1
102
RTVSPropertyOp7
 70
     1
102
RTVSPropertyOp8
 70
     1
102
RTVSPropertyOp9
 70
     1
102
RTVSPropertyOp10
 70
     1
102
RTVSPropertyOp11
 70
     1
102
RTVSPropertyOp12
 70
     1
102
RTVSPropertyOp13
 70
     1
102
RTVSPropertyOp14
 70
     1
102
RTVSPropertyOp15
 70
     1
102
RTVSPropertyOp16
 70
     1
102
RTVSPropertyOp17
 70
     1
102
RTVSPropertyOp18
 70
     1
102
RTVSPropertyOp19
 70
     1
102
RTVSPropertyOp20
 70
     1
102
RTVSPropertyOp21
 70
     1
102
RTVSPropertyOp22
 70
     1
102
RTVSPropertyOp23
 70
     1
102
RTVSPropertyOp24
 70
     1
102
RTVSPropertyOp25
 70
     1
102
RTVSPropertyOp26
 70
     1
102
RTVSPropertyOp27
 70
     1
102
RTVSPropertyOp28
 70
     1
102
RTVSPropertyOp29
 70
     1
102
RTVSPropertyOp30
 70
     1
102
RTVSPropertyOp31
 70
     1
102
RTVSPropertyOp32
 70
     1
  0
XRECORD
  5
680
102
{ACAD_REACTORS
330
67F
102
}
330
67F
100
AcDbXrecord
280
     1
102
RTVSPropertyOp0
 70
     1
102
RTVSPropertyOp1
 70
     1
102
RTVSPropertyOp2
 70
     1
102
RTVSPropertyOp3
 70
     1
102
RTVSPropertyOp4
 70
     1
102
RTVSPropertyOp5
 70
     1
102
RTVSPropertyOp6
 70
     1
102
RTVSPropertyOp7
 70
     1
102
RTVSPropertyOp8
 70
     1
102
RTVSPropertyOp9
 70
     1
102
RTVSPropertyOp10
 70
     1
102
RTVSPropertyOp11
 70
     1
102
RTVSPropertyOp12
 70
     1
102
RTVSPropertyOp13
 70
     1
102
RTVSPropertyOp14
 70
     1
102
RTVSPropertyOp15
 70
     1
102
RTVSPropertyOp16
 70
     1
102
RTVSPropertyOp17
 70
     1
102
RTVSPropertyOp18
 70
     1
102
RTVSPropertyOp19
 70
     1
102
RTVSPropertyOp20
 70
     1
102
RTVSPropertyOp21
 70
     1
102
RTVSPropertyOp22
 70
     1
102
RTVSPropertyOp23
 70
     1
102
RTVSPropertyOp24
 70
     1
102
RTVSPropertyOp25
 70
     1
102
RTVSPropertyOp26
 70
     1
102
RTVSPropertyOp27
 70
     1
102
RTVSPropertyOp28
 70
     1
102
RTVSPropertyOp29
 70
     1
102
RTVSPropertyOp30
 70
     1
102
RTVSPropertyOp31
 70
     1
102
RTVSPropertyOp32
 70
     1
  0
XRECORD
  5
674
102
{ACAD_REACTORS
330
673
102
}
330
673
100
AcDbXrecord
280
     1
102
RTVSPropertyOp0
 70
     1
102
RTVSPropertyOp1
 70
     1
102
RTVSPropertyOp2
 70
     1
102
RTVSPropertyOp3
 70
     1
102
RTVSPropertyOp4
 70
     1
102
RTVSPropertyOp5
 70
     1
102
RTVSPropertyOp6
 70
     1
102
RTVSPropertyOp7
 70
     1
102
RTVSPropertyOp8
 70
     1
102
RTVSPropertyOp9
 70
     1
102
RTVSPropertyOp10
 70
     1
102
RTVSPropertyOp11
 70
     1
102
RTVSPropertyOp12
 70
     1
102
RTVSPropertyOp13
 70
     1
102
RTVSPropertyOp14
 70
     1
102
RTVSPropertyOp15
 70
     1
102
RTVSPropertyOp16
 70
     1
102
RTVSPropertyOp17
 70
     1
102
RTVSPropertyOp18
 70
     1
102
RTVSPropertyOp19
 70
     1
102
RTVSPropertyOp20
 70
     1
102
RTVSPropertyOp21
 70
     1
102
RTVSPropertyOp22
 70
     1
102
RTVSPropertyOp23
 70
     1
102
RTVSPropertyOp24
 70
     1
102
RTVSPropertyOp25
 70
     1
102
RTVSPropertyOp26
 70
     1
102
RTVSPropertyOp27
 70
     1
102
RTVSPropertyOp28
 70
     1
102
RTVSPropertyOp29
 70
     1
102
RTVSPropertyOp30
 70
     1
102
RTVSPropertyOp31
 70
     1
102
RTVSPropertyOp32
 70
     1
  0
XRECORD
  5
68C
102
{ACAD_REACTORS
330
68B
102
}
330
68B
100
AcDbXrecord
280
     1
102
RTVSPropertyOp0
 70
     1
102
RTVSPropertyOp1
 70
     1
102
RTVSPropertyOp2
 70
     1
102
RTVSPropertyOp3
 70
     1
102
RTVSPropertyOp4
 70
     1
102
RTVSPropertyOp5
 70
     1
102
RTVSPropertyOp6
 70
     1
102
RTVSPropertyOp7
 70
     1
102
RTVSPropertyOp8
 70
     1
102
RTVSPropertyOp9
 70
     1
102
RTVSPropertyOp10
 70
     1
102
RTVSPropertyOp11
 70
     1
102
RTVSPropertyOp12
 70
     1
102
RTVSPropertyOp13
 70
     1
102
RTVSPropertyOp14
 70
     1
102
RTVSPropertyOp15
 70
     1
102
RTVSPropertyOp16
 70
     1
102
RTVSPropertyOp17
 70
     1
102
RTVSPropertyOp18
 70
     1
102
RTVSPropertyOp19
 70
     1
102
RTVSPropertyOp20
 70
     1
102
RTVSPropertyOp21
 70
     1
102
RTVSPropertyOp22
 70
     1
102
RTVSPropertyOp23
 70
     1
102
RTVSPropertyOp24
 70
     1
102
RTVSPropertyOp25
 70
     1
102
RTVSPropertyOp26
 70
     1
102
RTVSPropertyOp27
 70
     1
102
RTVSPropertyOp28
 70
     1
102
RTVSPropertyOp29
 70
     1
102
RTVSPropertyOp30
 70
     1
102
RTVSPropertyOp31
 70
     1
102
RTVSPropertyOp32
 70
     1
  0
ENDSEC
  0
EOF
