  0
SECTION
  2
HEADER
  9
$ACADVER
  1
AC1015
  9
$ACADMAINTVER
 70
    20
  9
$DWGCODEPAGE
  3
ANSI_932
  9
$INSBASE
 10
0.0
 20
0.0
 30
0.0
  9
$EXTMIN
 10
-372.7419999999999
 20
-23.368
 30
0.0
  9
$EXTMAX
 10
32.258
 20
250.632
 30
0.0
  9
$LIMMIN
 10
-372.743004
 20
-23.369
  9
$LIMMAX
 10
32.28485900000001
 20
250.688363
  9
$ORTHOMODE
 70
     1
  9
$REGENMODE
 70
     1
  9
$FILLMODE
 70
     1
  9
$QTEXTMODE
 70
     0
  9
$MIRRTEXT
 70
     0
  9
$LTSCALE
 40
0.5
  9
$ATTMODE
 70
     1
  9
$TEXTSIZE
 40
3.2
  9
$TRACEWID
 40
0.05
  9
$TEXTSTYLE
  7
高3.2
  9
$CLAYER
  8
0
  9
$CELTYPE
  6
ByLayer
  9
$CECOLOR
 62
   256
  9
$CELTSCALE
 40
1.0
  9
$DISPSILH
 70
     0
  9
$DIMSCALE
 40
1.0
  9
$DIMASZ
 40
2.5
  9
$DIMEXO
 40
0.25
  9
$DIMDLI
 40
0.2
  9
$DIMRND
 40
0.0
  9
$DIMDLE
 40
0.0
  9
$DIMEXE
 40
1.25
  9
$DIMTP
 40
0.0
  9
$DIMTM
 40
0.0
  9
$DIMTXT
 40
3.0
  9
$DIMCEN
 40
0.0
  9
$DIMTSZ
 40
0.0
  9
$DIMTOL
 70
     0
  9
$DIMLIM
 70
     0
  9
$DIMTIH
 70
     0
  9
$DIMTOH
 70
     0
  9
$DIMSE1
 70
     0
  9
$DIMSE2
 70
     0
  9
$DIMTAD
 70
     3
  9
$DIMZIN
 70
     8
  9
$DIMBLK
  1

  9
$DIMASO
 70
     1
  9
$DIMSHO
 70
     1
  9
$DIMPOST
  1

  9
$DIMAPOST
  1

  9
$DIMALT
 70
     0
  9
$DIMALTD
 70
     3
  9
$DIMALTF
 40
0.03937007874016
  9
$DIMLFAC
 40
2.0
  9
$DIMTOFL
 70
     1
  9
$DIMTVP
 40
0.0
  9
$DIMTIX
 70
     0
  9
$DIMSOXD
 70
     0
  9
$DIMSAH
 70
     0
  9
$DIMBLK1
  1

  9
$DIMBLK2
  1

  9
$DIMSTYLE
  2
1／2
  9
$DIMCLRD
 70
     0
  9
$DIMCLRE
 70
     0
  9
$DIMCLRT
 70
     4
  9
$DIMTFAC
 40
1.0
  9
$DIMGAP
 40
0.625
  9
$DIMJUST
 70
     0
  9
$DIMSD1
 70
     0
  9
$DIMSD2
 70
     0
  9
$DIMTOLJ
 70
     0
  9
$DIMTZIN
 70
     8
  9
$DIMALTZ
 70
     0
  9
$DIMALTTZ
 70
     0
  9
$DIMUPT
 70
     1
  9
$DIMDEC
 70
     2
  9
$DIMTDEC
 70
     2
  9
$DIMALTU
 70
     2
  9
$DIMALTTD
 70
     3
  9
$DIMTXSTY
  7
STANDARD
  9
$DIMAUNIT
 70
     0
  9
$DIMADEC
 70
     1
  9
$DIMALTRND
 40
0.0
  9
$DIMAZIN
 70
     2
  9
$DIMDSEP
 70
    46
  9
$DIMATFIT
 70
     0
  9
$DIMFRAC
 70
     0
  9
$DIMLDRBLK
  1
Open30
  9
$DIMLUNIT
 70
     2
  9
$DIMLWD
 70
    -2
  9
$DIMLWE
 70
    -2
  9
$DIMTMOVE
 70
     0
  9
$LUNITS
 70
     2
  9
$LUPREC
 70
     4
  9
$SKETCHINC
 40
0.1
  9
$FILLETRAD
 40
0.0
  9
$AUNITS
 70
     0
  9
$AUPREC
 70
     0
  9
$MENU
  1
.
  9
$ELEVATION
 40
0.0
  9
$PELEVATION
 40
0.0
  9
$THICKNESS
 40
0.0
  9
$LIMCHECK
 70
     0
  9
$CHAMFERA
 40
0.0
  9
$CHAMFERB
 40
0.0
  9
$CHAMFERC
 40
0.0
  9
$CHAMFERD
 40
0.0
  9
$SKPOLY
 70
     0
  9
$TDCREATE
 40
2455467.488587593
  9
$TDUCREATE
 40
2455467.113587593
  9
$TDUPDATE
 40
2459159.394138021
  9
$TDUUPDATE
 40
2459159.019138021
  9
$TDINDWG
 40
0.0483660648
  9
$TDUSRTIMER
 40
0.0483654398
  9
$USRTIMER
 70
     1
  9
$ANGBASE
 50
0.0
  9
$ANGDIR
 70
     0
  9
$PDMODE
 70
     0
  9
$PDSIZE
 40
0.0
  9
$PLINEWID
 40
0.0
  9
$SPLFRAME
 70
     0
  9
$SPLINETYPE
 70
     6
  9
$SPLINESEGS
 70
     8
  9
$HANDSEED
  5
1B11
  9
$SURFTAB1
 70
     6
  9
$SURFTAB2
 70
     6
  9
$SURFTYPE
 70
     6
  9
$SURFU
 70
     6
  9
$SURFV
 70
     6
  9
$UCSBASE
  2

  9
$UCSNAME
  2

  9
$UCSORG
 10
0.0
 20
0.0
 30
0.0
  9
$UCSXDIR
 10
1.0
 20
0.0
 30
0.0
  9
$UCSYDIR
 10
0.0
 20
1.0
 30
0.0
  9
$UCSORTHOREF
  2

  9
$UCSORTHOVIEW
 70
     0
  9
$UCSORGTOP
 10
0.0
 20
0.0
 30
0.0
  9
$UCSORGBOTTOM
 10
0.0
 20
0.0
 30
0.0
  9
$UCSORGLEFT
 10
0.0
 20
0.0
 30
0.0
  9
$UCSORGRIGHT
 10
0.0
 20
0.0
 30
0.0
  9
$UCSORGFRONT
 10
0.0
 20
0.0
 30
0.0
  9
$UCSORGBACK
 10
0.0
 20
0.0
 30
0.0
  9
$PUCSBASE
  2

  9
$PUCSNAME
  2

  9
$PUCSORG
 10
0.0
 20
0.0
 30
0.0
  9
$PUCSXDIR
 10
1.0
 20
0.0
 30
0.0
  9
$PUCSYDIR
 10
0.0
 20
1.0
 30
0.0
  9
$PUCSORTHOREF
  2

  9
$PUCSORTHOVIEW
 70
     0
  9
$PUCSORGTOP
 10
0.0
 20
0.0
 30
0.0
  9
$PUCSORGBOTTOM
 10
0.0
 20
0.0
 30
0.0
  9
$PUCSORGLEFT
 10
0.0
 20
0.0
 30
0.0
  9
$PUCSORGRIGHT
 10
0.0
 20
0.0
 30
0.0
  9
$PUCSORGFRONT
 10
0.0
 20
0.0
 30
0.0
  9
$PUCSORGBACK
 10
0.0
 20
0.0
 30
0.0
  9
$USERI1
 70
     0
  9
$USERI2
 70
     0
  9
$USERI3
 70
     0
  9
$USERI4
 70
     0
  9
$USERI5
 70
     0
  9
$USERR1
 40
0.0
  9
$USERR2
 40
0.0
  9
$USERR3
 40
0.0
  9
$USERR4
 40
0.0
  9
$USERR5
 40
0.0
  9
$WORLDVIEW
 70
     1
  9
$SHADEDGE
 70
     3
  9
$SHADEDIF
 70
    70
  9
$TILEMODE
 70
     1
  9
$MAXACTVP
 70
    64
  9
$PINSBASE
 10
0.0
 20
0.0
 30
0.0
  9
$PLIMCHECK
 70
     0
  9
$PEXTMIN
 10
1.000000000000000E+20
 20
1.000000000000000E+20
 30
1.000000000000000E+20
  9
$PEXTMAX
 10
-1.000000000000000E+20
 20
-1.000000000000000E+20
 30
-1.000000000000000E+20
  9
$PLIMMIN
 10
0.0
 20
0.0
  9
$PLIMMAX
 10
12.0
 20
9.0
  9
$UNITMODE
 70
     0
  9
$VISRETAIN
 70
     1
  9
$PLINEGEN
 70
     0
  9
$PSLTSCALE
 70
     1
  9
$TREEDEPTH
 70
  3020
  9
$CMLSTYLE
  2
Standard
  9
$CMLJUST
 70
     0
  9
$CMLSCALE
 40
1.0
  9
$PROXYGRAPHICS
 70
     1
  9
$MEASUREMENT
 70
     0
  9
$CELWEIGHT
370
    -1
  9
$ENDCAPS
280
     0
  9
$JOINSTYLE
280
     0
  9
$LWDISPLAY
290
     0
  9
$INSUNITS
 70
     0
  9
$HYPERLINKBASE
  1

  9
$STYLESHEET
  1

  9
$XEDIT
290
     1
  9
$CEPSNTYPE
380
     0
  9
$PSTYLEMODE
290
     1
  9
$FINGERPRINTGUID
  2
{B0E91C78-6C59-4769-AA05-6577F052169A}
  9
$VERSIONGUID
  2
{F213E314-088D-4F3B-9BD1-48889312AE77}
  9
$EXTNAMES
290
     1
  9
$PSVPSCALE
 40
0.0
  9
$OLESTARTUP
290
     0
  0
ENDSEC
  0
SECTION
  2
CLASSES
  0
CLASS
  1
ACDBDICTIONARYWDFLT
  2
AcDbDictionaryWithDefault
  3
ObjectDBX Classes
 90
        0
280
     0
281
     0
  0
CLASS
  1
MATERIAL
  2
AcDbMaterial
  3
ObjectDBX Classes
 90
     1153
280
     0
281
     0
  0
CLASS
  1
VISUALSTYLE
  2
AcDbVisualStyle
  3
ObjectDBX Classes
 90
     4095
280
     0
281
     0
  0
CLASS
  1
TABLESTYLE
  2
AcDbTableStyle
  3
ObjectDBX Classes
 90
     4095
280
     0
281
     0
  0
CLASS
  1
DICTIONARYVAR
  2
AcDbDictionaryVar
  3
ObjectDBX Classes
 90
        0
280
     0
281
     0
  0
CLASS
  1
SORTENTSTABLE
  2
AcDbSortentsTable
  3
ObjectDBX Classes
 90
        0
280
     0
281
     0
  0
CLASS
  1
ACDBPLACEHOLDER
  2
AcDbPlaceHolder
  3
ObjectDBX Classes
 90
        0
280
     0
281
     0
  0
CLASS
  1
LAYOUT
  2
AcDbLayout
  3
ObjectDBX Classes
 90
        0
280
     0
281
     0
  0
CLASS
  1
SCALE
  2
AcDbScale
  3
ObjectDBX Classes
 90
     1153
280
     0
281
     0
  0
CLASS
  1
MLEADERSTYLE
  2
AcDbMLeaderStyle
  3
ACDB_MLEADERSTYLE_CLASS
 90
     4095
280
     0
281
     0
  0
CLASS
  1
CELLSTYLEMAP
  2
AcDbCellStyleMap
  3
ObjectDBX Classes
 90
     1152
280
     0
281
     0
  0
CLASS
  1
AEC_REFEDIT_STATUS_TRACKER
  2
AecDbRefEditStatusTracker
  3
AecArchBase60|Product Desc: Autodesk Architectural Desktop 2007 |Company: Autodesk,Inc. |WEB Address: www.autodesk.com
 90
      129
280
     0
281
     0
  0
CLASS
  1
NPOCOLLECTION
  2
AcDbImpNonPersistentObjectsCollection
  3
ObjectDBX Classes
 90
     1153
280
     0
281
     0
  0
ENDSEC
  0
SECTION
  2
TABLES
  0
TABLE
  2
VPORT
  5
8
330
0
100
AcDbSymbolTable
 70
     1
  0
VPORT
  5
56
330
8
100
AcDbSymbolTableRecord
100
AcDbViewportTableRecord
  2
*Active
 70
     0
 10
0.0
 20
0.0
 11
1.0
 21
1.0
 12
-169.5445377314301
 22
108.1240191060548
 13
0.0
 23
0.0
 14
1.0
 24
1.0
 15
0.0
 25
0.0
 16
0.0
 26
0.0
 36
1.0
 17
0.0
 27
0.0
 37
0.0
 40
432.6584856155793
 41
1.54388489208633
 42
50.0
 43
0.0
 44
0.0
 50
0.0
 51
0.0
 71
     0
 72
   100
 73
     1
 74
     1
 75
     0
 76
     0
 77
     0
 78
     0
281
     0
 65
     1
110
0.0
120
0.0
130
0.0
111
1.0
121
0.0
131
0.0
112
0.0
122
1.0
132
0.0
 79
     0
146
0.0
  0
ENDTAB
  0
TABLE
  2
LTYPE
  5
5
330
0
100
AcDbSymbolTable
 70
     5
  0
LTYPE
  5
28
330
5
100
AcDbSymbolTableRecord
100
AcDbLinetypeTableRecord
  2
ByBlock
 70
     0
  3

 72
    65
 73
     0
 40
0.0
  0
LTYPE
  5
29
330
5
100
AcDbSymbolTableRecord
100
AcDbLinetypeTableRecord
  2
ByLayer
 70
     0
  3

 72
    65
 73
     0
 40
0.0
  0
LTYPE
  5
2A
330
5
100
AcDbSymbolTableRecord
100
AcDbLinetypeTableRecord
  2
CONTINUOUS
 70
     0
  3
Solid-line
 72
    65
 73
     0
 40
0.0
  0
LTYPE
  5
3D
330
5
100
AcDbSymbolTableRecord
100
AcDbLinetypeTableRecord
  2
CENTER
 70
     0
  3
CENTER
 72
    65
 73
     4
 40
2.0
 49
1.25
 74
     0
 49
-0.25
 74
     0
 49
0.25
 74
     0
 49
-0.25
 74
     0
  0
LTYPE
  5
4F
330
5
100
AcDbSymbolTableRecord
100
AcDbLinetypeTableRecord
  2
PHANTOM
 70
     0
  3
PHANTOM
 72
    65
 73
     6
 40
2.5
 49
1.25
 74
     0
 49
-0.25
 74
     0
 49
0.25
 74
     0
 49
-0.25
 74
     0
 49
0.25
 74
     0
 49
-0.25
 74
     0
  0
LTYPE
  5
11A5
330
5
100
AcDbSymbolTableRecord
100
AcDbLinetypeTableRecord
  2
HIDDEN
 70
     0
  3
Hidden __ __ __ __ __ __ __ __ __ __ __ __ __ _
 72
    65
 73
     2
 40
9.524999999999996
 49
6.349999999999997
 74
     0
 49
-3.174999999999998
 74
     0
  0
ENDTAB
  0
TABLE
  2
LAYER
  5
2
102
{ACAD_XDICTIONARY
360
4AF
102
}
330
0
100
AcDbSymbolTable
 70
     2
  0
LAYER
  5
25
102
{ACAD_XDICTIONARY
360
1066
102
}
330
2
100
AcDbSymbolTableRecord
100
AcDbLayerTableRecord
  2
0
 70
     0
 62
     7
  6
CONTINUOUS
370
    -3
390
F
  0
LAYER
  5
4A2
330
2
100
AcDbSymbolTableRecord
100
AcDbLayerTableRecord
  2
Defpoints
 70
     0
 62
     7
  6
CONTINUOUS
290
     0
370
    -3
390
F
  0
ENDTAB
  0
TABLE
  2
STYLE
  5
3
330
0
100
AcDbSymbolTable
 70
     6
  0
STYLE
  5
26
330
3
100
AcDbSymbolTableRecord
100
AcDbTextStyleTableRecord
  2
STANDARD
 70
     0
 40
0.0
 41
1.0
 50
0.0
 71
     0
 42
0.2
  3
TXT
  4
BIGFONT
  0
STYLE
  5
4A3
330
3
100
AcDbSymbolTableRecord
100
AcDbTextStyleTableRecord
  2
高3.2
 70
     0
 40
3.2
 41
1.0
 50
0.0
 71
     0
 42
3.2
  3
txt.shx
  4
bigfont.shx
  0
STYLE
  5
4A4
330
3
100
AcDbSymbolTableRecord
100
AcDbTextStyleTableRecord
  2
高6.3
 70
     0
 40
6.299999999999998
 41
1.0
 50
0.0
 71
     0
 42
6.299999999999998
  3
txt.shx
  4
bigfont.shx
  0
STYLE
  5
4A6
330
3
100
AcDbSymbolTableRecord
100
AcDbTextStyleTableRecord
  2
高4.5
 70
     0
 40
4.5
 41
1.0
 50
0.0
 71
     0
 42
6.299999999999998
  3
txt.shx
  4
bigfont.shx
  0
STYLE
  5
EFD
330
3
100
AcDbSymbolTableRecord
100
AcDbTextStyleTableRecord
  2
高2
 70
     0
 40
2.0
 41
1.0
 50
0.0
 71
     0
 42
2.0
  3
txt.shx
  4
bigfont.shx
  0
STYLE
  5
11A6
330
3
100
AcDbSymbolTableRecord
100
AcDbTextStyleTableRecord
  2
高2.5
 70
     0
 40
2.5
 41
1.0
 50
0.0
 71
     0
 42
0.2
  3
txt.shx
  4
bigfont.shx
  0
ENDTAB
  0
TABLE
  2
VIEW
  5
6
330
0
100
AcDbSymbolTable
 70
     0
  0
ENDTAB
  0
TABLE
  2
UCS
  5
7
330
0
100
AcDbSymbolTable
 70
     0
  0
ENDTAB
  0
TABLE
  2
APPID
  5
9
330
0
100
AcDbSymbolTable
 70
     9
  0
APPID
  5
27
330
9
100
AcDbSymbolTableRecord
100
AcDbRegAppTableRecord
  2
ACAD
 70
     0
  0
APPID
  5
4AE
330
9
100
AcDbSymbolTableRecord
100
AcDbRegAppTableRecord
  2
ACAD_DSTYLE_DIMJOGGED_JOGANGLE_SYMBOL
 70
     0
  0
APPID
  5
D70
330
9
100
AcDbSymbolTableRecord
100
AcDbRegAppTableRecord
  2
ACAD_DSTYLE_DIMARC_LENGTH_SYMBOL
 70
     0
  0
APPID
  5
D71
330
9
100
AcDbSymbolTableRecord
100
AcDbRegAppTableRecord
  2
ACAD_DSTYLE_DIMEXT_LENGTH
 70
     0
  0
APPID
  5
E24
330
9
100
AcDbSymbolTableRecord
100
AcDbRegAppTableRecord
  2
ACAD_EXEMPT_FROM_CAD_STANDARDS
 70
     0
  0
APPID
  5
F01
330
9
100
AcDbSymbolTableRecord
100
AcDbRegAppTableRecord
  2
ACAD_DSTYLE_DIMJAG
 70
     0
  0
APPID
  5
F02
330
9
100
AcDbSymbolTableRecord
100
AcDbRegAppTableRecord
  2
ACAD_DSTYLE_DIMBREAK
 70
     0
  0
APPID
  5
F03
330
9
100
AcDbSymbolTableRecord
100
AcDbRegAppTableRecord
  2
ACAD_DSTYLE_DIMTALN
 70
     0
  0
APPID
  5
10EE
330
9
100
AcDbSymbolTableRecord
100
AcDbRegAppTableRecord
  2
ACAD_MLEADERVER
 70
     0
  0
ENDTAB
  0
TABLE
  2
DIMSTYLE
  5
A
330
0
100
AcDbSymbolTable
 70
     3
100
AcDbDimStyleTable
 71
     1
340
4AB
  0
DIMSTYLE
105
430
330
A
100
AcDbSymbolTableRecord
100
AcDbDimStyleTableRecord
  2
Standard
 70
     0
340
26
  0
DIMSTYLE
105
4AB
330
A
100
AcDbSymbolTableRecord
100
AcDbDimStyleTableRecord
  2
1／2
 70
     0
 41
2.5
 42
0.25
 43
0.2
 44
1.25
 73
     0
 74
     0
 77
     3
 78
     8
 79
     2
140
3.0
141
0.0
143
0.03937007874016
144
2.0
147
0.625
171
     3
172
     1
178
     4
179
     1
271
     2
272
     2
274
     3
283
     0
284
     8
288
     1
289
     0
340
26
341
432
342
432
1001
ACAD_DSTYLE_DIMARC_LENGTH_SYMBOL
1070
   379
1070
     2
1001
ACAD_DSTYLE_DIMEXT_LENGTH
1070
   378
1040
1.25
1001
ACAD_DSTYLE_DIMJOGGED_JOGANGLE_SYMBOL
1070
   384
1040
1.570796326794896
  0
DIMSTYLE
105
11A7
330
A
100
AcDbSymbolTableRecord
100
AcDbDimStyleTableRecord
  2
1：1
 70
     0
 41
2.5
 42
0.25
 43
0.2
 44
1.25
 73
     0
 74
     0
 77
     3
 78
     8
 79
     2
140
3.0
141
0.0
143
0.03937007874016
147
0.625
171
     3
172
     1
178
     4
179
     1
271
     2
272
     2
274
     3
283
     0
284
     8
288
     1
289
     0
340
26
341
432
342
432
1001
ACAD_DSTYLE_DIMARC_LENGTH_SYMBOL
1070
   379
1070
     2
1001
ACAD_DSTYLE_DIMEXT_LENGTH
1070
   378
1040
1.25
1001
ACAD_DSTYLE_DIMJOGGED_JOGANGLE_SYMBOL
1070
   384
1040
1.570796326794894
  0
ENDTAB
  0
TABLE
  2
BLOCK_RECORD
  5
1
330
0
100
AcDbSymbolTable
 70
    12
  0
BLOCK_RECORD
  5
36
102
{ACAD_XDICTIONARY
360
1A48
102
}
330
1
100
AcDbSymbolTableRecord
100
AcDbBlockTableRecord
  2
*Model_Space
340
39
  0
BLOCK_RECORD
  5
32
330
1
100
AcDbSymbolTableRecord
100
AcDbBlockTableRecord
  2
*Paper_Space
340
35
  0
BLOCK_RECORD
  5
432
330
1
100
AcDbSymbolTableRecord
100
AcDbBlockTableRecord
  2
_Open30
340
0
102
{BLKREFS
331
119A
331
119B
331
1182
331
1183
331
118E
331
118F
331
18C1
331
18C2
331
18CA
331
18CB
331
18D3
331
18D4
331
19AD
331
19AE
331
19B6
331
19B7
331
19BF
331
19C0
102
}
  0
BLOCK_RECORD
  5
D14
330
1
100
AcDbSymbolTableRecord
100
AcDbBlockTableRecord
  2
*D1
340
0
  0
BLOCK_RECORD
  5
D29
330
1
100
AcDbSymbolTableRecord
100
AcDbBlockTableRecord
  2
*D2
340
0
  0
BLOCK_RECORD
  5
D35
330
1
100
AcDbSymbolTableRecord
100
AcDbBlockTableRecord
  2
*D3
340
0
  0
BLOCK_RECORD
  5
117D
330
1
100
AcDbSymbolTableRecord
100
AcDbBlockTableRecord
  2
*D4
340
0
  0
BLOCK_RECORD
  5
1189
330
1
100
AcDbSymbolTableRecord
100
AcDbBlockTableRecord
  2
*D5
340
0
  0
BLOCK_RECORD
  5
1195
330
1
100
AcDbSymbolTableRecord
100
AcDbBlockTableRecord
  2
*D6
340
0
  0
BLOCK_RECORD
  5
11A1
330
1
100
AcDbSymbolTableRecord
100
AcDbBlockTableRecord
  2
_DotSmall
340
0
  0
BLOCK_RECORD
  5
187D
330
1
100
AcDbSymbolTableRecord
100
AcDbBlockTableRecord
  2
*D9
340
0
  0
BLOCK_RECORD
  5
1889
330
1
100
AcDbSymbolTableRecord
100
AcDbBlockTableRecord
  2
*D10
340
0
  0
BLOCK_RECORD
  5
1895
330
1
100
AcDbSymbolTableRecord
100
AcDbBlockTableRecord
  2
*D11
340
0
  0
ENDTAB
  0
ENDSEC
  0
SECTION
  2
BLOCKS
  0
BLOCK
  5
37
330
36
100
AcDbEntity
  8
0
100
AcDbBlockBegin
  2
*Model_Space
 70
     0
 10
0.0
 20
0.0
 30
0.0
  3
*Model_Space
  1

  0
ENDBLK
  5
38
330
36
100
AcDbEntity
  8
0
100
AcDbBlockEnd
  0
BLOCK
  5
33
330
32
100
AcDbEntity
 67
     1
  8
0
100
AcDbBlockBegin
  2
*Paper_Space
 70
     0
 10
0.0
 20
0.0
 30
0.0
  3
*Paper_Space
  1

  0
ENDBLK
  5
34
330
32
100
AcDbEntity
 67
     1
  8
0
100
AcDbBlockEnd
  0
BLOCK
  5
433
330
432
100
AcDbEntity
  8
0
100
AcDbBlockBegin
  2
_Open30
 70
     0
 10
0.0
 20
0.0
 30
0.0
  3
_Open30
  1

  0
LINE
  5
434
330
432
100
AcDbEntity
  8
0
  6
ByBlock
 62
     0
370
    -2
100
AcDbLine
 10
-1.0
 20
0.267949
 30
0.0
 11
0.0
 21
0.0
 31
0.0
  0
LINE
  5
435
330
432
100
AcDbEntity
  8
0
  6
ByBlock
 62
     0
370
    -2
100
AcDbLine
 10
0.0
 20
0.0
 30
0.0
 11
-1.0
 21
-0.267949
 31
0.0
  0
LINE
  5
436
330
432
100
AcDbEntity
  8
0
  6
ByBlock
 62
     0
370
    -2
100
AcDbLine
 10
0.0
 20
0.0
 30
0.0
 11
-1.0
 21
0.0
 31
0.0
  0
ENDBLK
  5
437
330
432
100
AcDbEntity
  8
0
100
AcDbBlockEnd
  0
BLOCK
  5
D1E
330
D14
100
AcDbEntity
  8
0
100
AcDbBlockBegin
  2
*D1
 70
     1
 10
0.0
 20
0.0
 30
0.0
  3
*D1
  1

  0
LINE
  5
19BC
330
D14
100
AcDbEntity
  8
0
 62
     0
370
    -2
100
AcDbLine
 10
-299.648122
 20
203.039042
 30
0.0
 11
-299.648122
 21
175.727763
 31
0.0
  0
LINE
  5
19BD
330
D14
100
AcDbEntity
  8
0
 62
     0
370
    -2
100
AcDbLine
 10
-124.648122
 20
203.039042
 30
0.0
 11
-124.648122
 21
175.727763
 31
0.0
  0
LINE
  5
19BE
330
D14
100
AcDbEntity
  8
0
 62
     0
370
    -2
100
AcDbLine
 10
-297.148122
 20
176.977763
 30
0.0
 11
-127.148122
 21
176.977763
 31
0.0
  0
INSERT
  5
19BF
330
D14
100
AcDbEntity
  8
0
 62
     0
370
    -2
100
AcDbBlockReference
  2
_Open30
 10
-299.648122
 20
176.977763
 30
0.0
 41
2.5
 42
2.5
 43
2.5
 50
180.0
  0
INSERT
  5
19C0
330
D14
100
AcDbEntity
  8
0
 62
     0
370
    -2
100
AcDbBlockReference
  2
_Open30
 10
-124.648122
 20
176.977763
 30
0.0
 41
2.5
 42
2.5
 43
2.5
  0
MTEXT
  5
19C1
330
D14
100
AcDbEntity
  8
0
 62
     4
100
AcDbMText
 10
-212.148122
 20
179.102763
 30
0.0
 40
3.0
 41
0.0
 71
     5
 72
     1
  1
350
 73
     1
 44
1.0
1001
ACAD
1000
MTEXTBEGIN
1070
    73
1070
     1
1070
    44
1040
1.0
1070
    74
1070
     0
1000
MTEXTEND
  0
POINT
  5
19C2
330
D14
100
AcDbEntity
  8
Defpoints
 62
     0
100
AcDbPoint
 10
-299.648122
 20
203.289042
 30
0.0
  0
POINT
  5
19C3
330
D14
100
AcDbEntity
  8
Defpoints
 62
     0
100
AcDbPoint
 10
-124.648122
 20
203.289042
 30
0.0
  0
POINT
  5
19C4
330
D14
100
AcDbEntity
  8
Defpoints
 62
     0
100
AcDbPoint
 10
-124.648122
 20
176.977763
 30
0.0
  0
ENDBLK
  5
D1F
330
D14
100
AcDbEntity
  8
0
100
AcDbBlockEnd
  0
BLOCK
  5
D33
330
D29
100
AcDbEntity
  8
0
100
AcDbBlockBegin
  2
*D2
 70
     1
 10
0.0
 20
0.0
 30
0.0
  3
*D2
  1

  0
LINE
  5
19AA
330
D29
100
AcDbEntity
  8
0
 62
     0
370
    -2
100
AcDbLine
 10
-212.398122
 20
189.176969
 30
0.0
 11
-317.771971
 21
189.176969
 31
0.0
  0
LINE
  5
19AB
330
D29
100
AcDbEntity
  8
0
 62
     0
370
    -2
100
AcDbLine
 10
-212.398122
 20
223.176969
 30
0.0
 11
-317.771971
 21
223.176969
 31
0.0
  0
LINE
  5
19AC
330
D29
100
AcDbEntity
  8
0
 62
     0
370
    -2
100
AcDbLine
 10
-316.521971
 20
191.676969
 30
0.0
 11
-316.521971
 21
220.676969
 31
0.0
  0
INSERT
  5
19AD
330
D29
100
AcDbEntity
  8
0
 62
     0
370
    -2
100
AcDbBlockReference
  2
_Open30
 10
-316.521971
 20
189.176969
 30
0.0
 41
2.5
 42
2.5
 43
2.5
 50
270.0
  0
INSERT
  5
19AE
330
D29
100
AcDbEntity
  8
0
 62
     0
370
    -2
100
AcDbBlockReference
  2
_Open30
 10
-316.521971
 20
223.176969
 30
0.0
 41
2.5
 42
2.5
 43
2.5
 50
90.0
  0
MTEXT
  5
19AF
330
D29
100
AcDbEntity
  8
0
 62
     4
100
AcDbMText
 10
-318.6469710000001
 20
206.176969
 30
0.0
 40
3.0
 41
0.0
 71
     5
 72
     1
  1
68
 11
0.0000000000000001
 21
1.0
 31
0.0
 73
     1
 44
1.0
1001
ACAD
1000
MTEXTBEGIN
1070
    73
1070
     1
1070
    44
1040
1.0
1070
    74
1070
     0
1000
MTEXTEND
  0
POINT
  5
19B0
330
D29
100
AcDbEntity
  8
Defpoints
 62
     0
100
AcDbPoint
 10
-212.148122
 20
189.176969
 30
0.0
  0
POINT
  5
19B1
330
D29
100
AcDbEntity
  8
Defpoints
 62
     0
100
AcDbPoint
 10
-212.148122
 20
223.176969
 30
0.0
  0
POINT
  5
19B2
330
D29
100
AcDbEntity
  8
Defpoints
 62
     0
100
AcDbPoint
 10
-316.521971
 20
223.176969
 30
0.0
  0
ENDBLK
  5
D34
330
D29
100
AcDbEntity
  8
0
100
AcDbBlockEnd
  0
BLOCK
  5
D3F
330
D35
100
AcDbEntity
  8
0
100
AcDbBlockBegin
  2
*D3
 70
     1
 10
0.0
 20
0.0
 30
0.0
  3
*D3
  1

  0
LINE
  5
19B3
330
D35
100
AcDbEntity
  8
0
 62
     0
370
    -2
100
AcDbLine
 10
-297.3981220000001
 20
109.454298
 30
0.0
 11
-312.1319190000001
 21
109.454298
 31
0.0
  0
LINE
  5
19B4
330
D35
100
AcDbEntity
  8
0
 62
     0
370
    -2
100
AcDbLine
 10
-297.3981220000001
 20
168.465408
 30
0.0
 11
-312.131919
 21
168.465408
 31
0.0
  0
LINE
  5
19B5
330
D35
100
AcDbEntity
  8
0
 62
     0
370
    -2
100
AcDbLine
 10
-310.8819190000001
 20
111.954298
 30
0.0
 11
-310.8819190000001
 21
165.965408
 31
0.0
  0
INSERT
  5
19B6
330
D35
100
AcDbEntity
  8
0
 62
     0
370
    -2
100
AcDbBlockReference
  2
_Open30
 10
-310.8819190000001
 20
109.454298
 30
0.0
 41
2.5
 42
2.5
 43
2.5
 50
270.0
  0
INSERT
  5
19B7
330
D35
100
AcDbEntity
  8
0
 62
     0
370
    -2
100
AcDbBlockReference
  2
_Open30
 10
-310.8819190000001
 20
168.465408
 30
0.0
 41
2.5
 42
2.5
 43
2.5
 50
90.0
  0
MTEXT
  5
19B8
330
D35
100
AcDbEntity
  8
0
 62
     4
100
AcDbMText
 10
-313.0069190000001
 20
138.959853
 30
0.0
 40
3.0
 41
0.0
 71
     5
 72
     1
  1
118
 11
0.0000000000000001
 21
1.0
 31
0.0
 73
     1
 44
1.0
1001
ACAD
1000
MTEXTBEGIN
1070
    73
1070
     1
1070
    44
1040
1.0
1070
    74
1070
     0
1000
MTEXTEND
  0
POINT
  5
19B9
330
D35
100
AcDbEntity
  8
Defpoints
 62
     0
100
AcDbPoint
 10
-297.1481220000001
 20
109.454298
 30
0.0
  0
POINT
  5
19BA
330
D35
100
AcDbEntity
  8
Defpoints
 62
     0
100
AcDbPoint
 10
-297.1481220000001
 20
168.465408
 30
0.0
  0
POINT
  5
19BB
330
D35
100
AcDbEntity
  8
Defpoints
 62
     0
100
AcDbPoint
 10
-310.8819190000001
 20
168.465408
 30
0.0
  0
ENDBLK
  5
D40
330
D35
100
AcDbEntity
  8
0
100
AcDbBlockEnd
  0
BLOCK
  5
117E
330
117D
100
AcDbEntity
  8
0
100
AcDbBlockBegin
  2
*D4
 70
     1
 10
0.0
 20
0.0
 30
0.0
  3
*D4
  1

  0
LINE
  5
117F
330
117D
100
AcDbEntity
  8
0
 62
     0
370
    -2
100
AcDbLine
 10
-302.4303549999999
 20
217.0941200000001
 30
0.0
 11
-302.4303549999999
 21
191.78284
 31
0.0
  0
LINE
  5
1180
330
117D
100
AcDbEntity
  8
0
 62
     0
370
    -2
100
AcDbLine
 10
-127.430355
 20
217.0941200000001
 30
0.0
 11
-127.430355
 21
191.78284
 31
0.0
  0
LINE
  5
1181
330
117D
100
AcDbEntity
  8
0
 62
     0
370
    -2
100
AcDbLine
 10
-299.9303549999999
 20
193.03284
 30
0.0
 11
-129.930355
 21
193.03284
 31
0.0
  0
INSERT
  5
1182
330
117D
100
AcDbEntity
  8
0
 62
     0
370
    -2
100
AcDbBlockReference
  2
_Open30
 10
-302.4303549999999
 20
193.03284
 30
0.0
 41
2.5
 42
2.5
 43
2.5
 50
180.0
  0
INSERT
  5
1183
330
117D
100
AcDbEntity
  8
0
 62
     0
370
    -2
100
AcDbBlockReference
  2
_Open30
 10
-127.430355
 20
193.03284
 30
0.0
 41
2.5
 42
2.5
 43
2.5
  0
MTEXT
  5
1184
330
117D
100
AcDbEntity
  8
0
 62
     4
100
AcDbMText
 10
-214.9303549999999
 20
195.15784
 30
0.0
 40
3.0
 41
0.0
 71
     5
 72
     1
  1
350
 73
     1
 44
1.0
1001
ACAD
1000
MTEXTBEGIN
1070
    73
1070
     1
1070
    44
1040
1.0
1070
    74
1070
     0
1000
MTEXTEND
  0
POINT
  5
1185
330
117D
100
AcDbEntity
  8
Defpoints
 62
     0
100
AcDbPoint
 10
-302.4303549999999
 20
217.34412
 30
0.0
  0
POINT
  5
1186
330
117D
100
AcDbEntity
  8
Defpoints
 62
     0
100
AcDbPoint
 10
-127.430355
 20
217.34412
 30
0.0
  0
POINT
  5
1187
330
117D
100
AcDbEntity
  8
Defpoints
 62
     0
100
AcDbPoint
 10
-127.430355
 20
193.03284
 30
0.0
  0
ENDBLK
  5
1188
330
117D
100
AcDbEntity
  8
0
100
AcDbBlockEnd
  0
BLOCK
  5
118A
330
1189
100
AcDbEntity
  8
0
100
AcDbBlockBegin
  2
*D5
 70
     1
 10
0.0
 20
0.0
 30
0.0
  3
*D5
  1

  0
LINE
  5
118B
330
1189
100
AcDbEntity
  8
0
 62
     0
370
    -2
100
AcDbLine
 10
-215.180355
 20
203.232046
 30
0.0
 11
-321.120403
 21
203.232046
 31
0.0
  0
LINE
  5
118C
330
1189
100
AcDbEntity
  8
0
 62
     0
370
    -2
100
AcDbLine
 10
-215.180355
 20
237.232046
 30
0.0
 11
-321.120403
 21
237.232046
 31
0.0
  0
LINE
  5
118D
330
1189
100
AcDbEntity
  8
0
 62
     0
370
    -2
100
AcDbLine
 10
-319.870403
 20
205.732046
 30
0.0
 11
-319.870403
 21
234.732046
 31
0.0
  0
INSERT
  5
118E
330
1189
100
AcDbEntity
  8
0
 62
     0
370
    -2
100
AcDbBlockReference
  2
_Open30
 10
-319.870403
 20
203.232046
 30
0.0
 41
2.5
 42
2.5
 43
2.5
 50
270.0
  0
INSERT
  5
118F
330
1189
100
AcDbEntity
  8
0
 62
     0
370
    -2
100
AcDbBlockReference
  2
_Open30
 10
-319.870403
 20
237.232046
 30
0.0
 41
2.5
 42
2.5
 43
2.5
 50
90.0
  0
MTEXT
  5
1190
330
1189
100
AcDbEntity
  8
0
 62
     4
100
AcDbMText
 10
-321.995403
 20
220.232046
 30
0.0
 40
3.0
 41
0.0
 71
     5
 72
     1
  1
68
 11
0.0000000000000001
 21
1.0
 31
0.0
 73
     1
 44
1.0
1001
ACAD
1000
MTEXTBEGIN
1070
    73
1070
     1
1070
    44
1040
1.0
1070
    74
1070
     0
1000
MTEXTEND
  0
POINT
  5
1191
330
1189
100
AcDbEntity
  8
Defpoints
 62
     0
100
AcDbPoint
 10
-214.930355
 20
203.232046
 30
0.0
  0
POINT
  5
1192
330
1189
100
AcDbEntity
  8
Defpoints
 62
     0
100
AcDbPoint
 10
-214.930355
 20
237.232046
 30
0.0
  0
POINT
  5
1193
330
1189
100
AcDbEntity
  8
Defpoints
 62
     0
100
AcDbPoint
 10
-319.870403
 20
237.232046
 30
0.0
  0
ENDBLK
  5
1194
330
1189
100
AcDbEntity
  8
0
100
AcDbBlockEnd
  0
BLOCK
  5
1196
330
1195
100
AcDbEntity
  8
0
100
AcDbBlockBegin
  2
*D6
 70
     1
 10
0.0
 20
0.0
 30
0.0
  3
*D6
  1

  0
LINE
  5
1197
330
1195
100
AcDbEntity
  8
0
 62
     0
370
    -2
100
AcDbLine
 10
-300.1803549999999
 20
122.963678
 30
0.0
 11
-314.9141520000001
 21
122.963678
 31
0.0
  0
LINE
  5
1198
330
1195
100
AcDbEntity
  8
0
 62
     0
370
    -2
100
AcDbLine
 10
-300.1803549999999
 20
181.974788
 30
0.0
 11
-314.914152
 21
181.974788
 31
0.0
  0
LINE
  5
1199
330
1195
100
AcDbEntity
  8
0
 62
     0
370
    -2
100
AcDbLine
 10
-313.6641520000001
 20
125.463678
 30
0.0
 11
-313.664152
 21
179.474788
 31
0.0
  0
INSERT
  5
119A
330
1195
100
AcDbEntity
  8
0
 62
     0
370
    -2
100
AcDbBlockReference
  2
_Open30
 10
-313.6641520000001
 20
122.963678
 30
0.0
 41
2.5
 42
2.5
 43
2.5
 50
270.0
  0
INSERT
  5
119B
330
1195
100
AcDbEntity
  8
0
 62
     0
370
    -2
100
AcDbBlockReference
  2
_Open30
 10
-313.664152
 20
181.974788
 30
0.0
 41
2.5
 42
2.5
 43
2.5
 50
90.0
  0
MTEXT
  5
119C
330
1195
100
AcDbEntity
  8
0
 62
     4
100
AcDbMText
 10
-315.7891520000001
 20
152.4692329999999
 30
0.0
 40
3.0
 41
0.0
 71
     5
 72
     1
  1
118
 11
0.0000000000000001
 21
1.0
 31
0.0
 73
     1
 44
1.0
1001
ACAD
1000
MTEXTBEGIN
1070
    73
1070
     1
1070
    44
1040
1.0
1070
    74
1070
     0
1000
MTEXTEND
  0
POINT
  5
119D
330
1195
100
AcDbEntity
  8
Defpoints
 62
     0
100
AcDbPoint
 10
-299.930355
 20
122.963678
 30
0.0
  0
POINT
  5
119E
330
1195
100
AcDbEntity
  8
Defpoints
 62
     0
100
AcDbPoint
 10
-299.930355
 20
181.974788
 30
0.0
  0
POINT
  5
119F
330
1195
100
AcDbEntity
  8
Defpoints
 62
     0
100
AcDbPoint
 10
-313.664152
 20
181.974788
 30
0.0
  0
ENDBLK
  5
11A0
330
1195
100
AcDbEntity
  8
0
100
AcDbBlockEnd
  0
BLOCK
  5
11A2
330
11A1
100
AcDbEntity
  8
0
100
AcDbBlockBegin
  2
_DotSmall
 70
     0
 10
0.0
 20
0.0
 30
0.0
  3
_DotSmall
  1

  0
LWPOLYLINE
  5
11A3
330
11A1
100
AcDbEntity
  8
0
  6
ByBlock
 62
     0
100
AcDbPolyline
 90
        2
 70
     1
 43
0.5
 10
-0.0625
 20
0.0
 42
1.0
 10
0.0625
 20
0.0
 42
1.0
  0
ENDBLK
  5
11A4
330
11A1
100
AcDbEntity
  8
0
100
AcDbBlockEnd
  0
BLOCK
  5
187E
330
187D
100
AcDbEntity
  8
0
100
AcDbBlockBegin
  2
*D9
 70
     1
 10
0.0
 20
0.0
 30
0.0
  3
*D9
  1

  0
LINE
  5
18BE
330
187D
100
AcDbEntity
  8
0
 62
     0
370
    -2
100
AcDbLine
 10
166.1999207008614
 20
109.454298
 30
0.0
 11
151.4661237008614
 21
109.454298
 31
0.0
  0
LINE
  5
18BF
330
187D
100
AcDbEntity
  8
0
 62
     0
370
    -2
100
AcDbLine
 10
166.1999207008614
 20
168.465408
 30
0.0
 11
151.4661237008614
 21
168.465408
 31
0.0
  0
LINE
  5
18C0
330
187D
100
AcDbEntity
  8
0
 62
     0
370
    -2
100
AcDbLine
 10
152.7161237008614
 20
111.954298
 30
0.0
 11
152.7161237008614
 21
165.965408
 31
0.0
  0
INSERT
  5
18C1
330
187D
100
AcDbEntity
  8
0
 62
     0
370
    -2
100
AcDbBlockReference
  2
_Open30
 10
152.7161237008614
 20
109.454298
 30
0.0
 41
2.5
 42
2.5
 43
2.5
 50
270.0
  0
INSERT
  5
18C2
330
187D
100
AcDbEntity
  8
0
 62
     0
370
    -2
100
AcDbBlockReference
  2
_Open30
 10
152.7161237008614
 20
168.465408
 30
0.0
 41
2.5
 42
2.5
 43
2.5
 50
90.0
  0
MTEXT
  5
18C3
330
187D
100
AcDbEntity
  8
0
 62
     4
100
AcDbMText
 10
150.5911237008613
 20
138.959853
 30
0.0
 40
3.0
 41
0.0
 71
     5
 72
     1
  1
118
 11
0.0000000000000001
 21
1.0
 31
0.0
 73
     1
 44
1.0
1001
ACAD
1000
MTEXTBEGIN
1070
    73
1070
     1
1070
    44
1040
1.0
1070
    74
1070
     0
1000
MTEXTEND
  0
POINT
  5
18C4
330
187D
100
AcDbEntity
  8
Defpoints
 62
     0
100
AcDbPoint
 10
166.4499207008614
 20
109.454298
 30
0.0
  0
POINT
  5
18C5
330
187D
100
AcDbEntity
  8
Defpoints
 62
     0
100
AcDbPoint
 10
166.4499207008614
 20
168.465408
 30
0.0
  0
POINT
  5
18C6
330
187D
100
AcDbEntity
  8
Defpoints
 62
     0
100
AcDbPoint
 10
152.7161237008614
 20
168.465408
 30
0.0
  0
ENDBLK
  5
187F
330
187D
100
AcDbEntity
  8
0
100
AcDbBlockEnd
  0
BLOCK
  5
188A
330
1889
100
AcDbEntity
  8
0
100
AcDbBlockBegin
  2
*D10
 70
     1
 10
0.0
 20
0.0
 30
0.0
  3
*D10
  1

  0
LINE
  5
18C7
330
1889
100
AcDbEntity
  8
0
 62
     0
370
    -2
100
AcDbLine
 10
163.9499207008614
 20
203.5847400000001
 30
0.0
 11
163.9499207008614
 21
178.27346
 31
0.0
  0
LINE
  5
18C8
330
1889
100
AcDbEntity
  8
0
 62
     0
370
    -2
100
AcDbLine
 10
338.9499207008614
 20
203.5847400000001
 30
0.0
 11
338.9499207008614
 21
178.27346
 31
0.0
  0
LINE
  5
18C9
330
1889
100
AcDbEntity
  8
0
 62
     0
370
    -2
100
AcDbLine
 10
166.4499207008614
 20
179.52346
 30
0.0
 11
336.4499207008614
 21
179.52346
 31
0.0
  0
INSERT
  5
18CA
330
1889
100
AcDbEntity
  8
0
 62
     0
370
    -2
100
AcDbBlockReference
  2
_Open30
 10
163.9499207008614
 20
179.52346
 30
0.0
 41
2.5
 42
2.5
 43
2.5
 50
180.0
  0
INSERT
  5
18CB
330
1889
100
AcDbEntity
  8
0
 62
     0
370
    -2
100
AcDbBlockReference
  2
_Open30
 10
338.9499207008614
 20
179.52346
 30
0.0
 41
2.5
 42
2.5
 43
2.5
  0
MTEXT
  5
18CC
330
1889
100
AcDbEntity
  8
0
 62
     4
100
AcDbMText
 10
251.4499207008614
 20
181.64846
 30
0.0
 40
3.0
 41
0.0
 71
     5
 72
     1
  1
350
 73
     1
 44
1.0
1001
ACAD
1000
MTEXTBEGIN
1070
    73
1070
     1
1070
    44
1040
1.0
1070
    74
1070
     0
1000
MTEXTEND
  0
POINT
  5
18CD
330
1889
100
AcDbEntity
  8
Defpoints
 62
     0
100
AcDbPoint
 10
163.9499207008614
 20
203.8347400000001
 30
0.0
  0
POINT
  5
18CE
330
1889
100
AcDbEntity
  8
Defpoints
 62
     0
100
AcDbPoint
 10
338.9499207008614
 20
203.8347400000001
 30
0.0
  0
POINT
  5
18CF
330
1889
100
AcDbEntity
  8
Defpoints
 62
     0
100
AcDbPoint
 10
338.9499207008614
 20
179.52346
 30
0.0
  0
ENDBLK
  5
188B
330
1889
100
AcDbEntity
  8
0
100
AcDbBlockEnd
  0
BLOCK
  5
1896
330
1895
100
AcDbEntity
  8
0
100
AcDbBlockBegin
  2
*D11
 70
     1
 10
0.0
 20
0.0
 30
0.0
  3
*D11
  1

  0
LINE
  5
18D0
330
1895
100
AcDbEntity
  8
0
 62
     0
370
    -2
100
AcDbLine
 10
251.1999207008614
 20
189.722666
 30
0.0
 11
145.2598727008614
 21
189.722666
 31
0.0
  0
LINE
  5
18D1
330
1895
100
AcDbEntity
  8
0
 62
     0
370
    -2
100
AcDbLine
 10
251.1999207008614
 20
223.7226660000001
 30
0.0
 11
145.2598727008614
 21
223.7226660000001
 31
0.0
  0
LINE
  5
18D2
330
1895
100
AcDbEntity
  8
0
 62
     0
370
    -2
100
AcDbLine
 10
146.5098727008614
 20
192.222666
 30
0.0
 11
146.5098727008614
 21
221.2226660000001
 31
0.0
  0
INSERT
  5
18D3
330
1895
100
AcDbEntity
  8
0
 62
     0
370
    -2
100
AcDbBlockReference
  2
_Open30
 10
146.5098727008614
 20
189.722666
 30
0.0
 41
2.5
 42
2.5
 43
2.5
 50
270.0
  0
INSERT
  5
18D4
330
1895
100
AcDbEntity
  8
0
 62
     0
370
    -2
100
AcDbBlockReference
  2
_Open30
 10
146.5098727008614
 20
223.7226660000001
 30
0.0
 41
2.5
 42
2.5
 43
2.5
 50
90.0
  0
MTEXT
  5
18D5
330
1895
100
AcDbEntity
  8
0
 62
     4
100
AcDbMText
 10
144.3848727008614
 20
206.7226660000001
 30
0.0
 40
3.0
 41
0.0
 71
     5
 72
     1
  1
68
 11
0.0000000000000001
 21
1.0
 31
0.0
 73
     1
 44
1.0
1001
ACAD
1000
MTEXTBEGIN
1070
    73
1070
     1
1070
    44
1040
1.0
1070
    74
1070
     0
1000
MTEXTEND
  0
POINT
  5
18D6
330
1895
100
AcDbEntity
  8
Defpoints
 62
     0
100
AcDbPoint
 10
251.4499207008614
 20
189.722666
 30
0.0
  0
POINT
  5
18D7
330
1895
100
AcDbEntity
  8
Defpoints
 62
     0
100
AcDbPoint
 10
251.4499207008614
 20
223.7226660000001
 30
0.0
  0
POINT
  5
18D8
330
1895
100
AcDbEntity
  8
Defpoints
 62
     0
100
AcDbPoint
 10
146.5098727008614
 20
223.7226660000001
 30
0.0
  0
ENDBLK
  5
1897
330
1895
100
AcDbEntity
  8
0
100
AcDbBlockEnd
  0
ENDSEC
  0
SECTION
  2
ENTITIES
  0
ARC
  5
93
330
36
100
AcDbEntity
  8
0
 62
     3
100
AcDbCircle
 10
-212.1481220000001
 20
-135.7957019999999
 30
0.0
 40
258.25
100
AcDbArc
 50
86.49096
 51
86.59479899999999
  0
LINE
  5
94
330
36
100
AcDbEntity
  8
0
 62
     3
100
AcDbLine
 10
-224.023122
 20
113.515115
 30
0.0
 11
-224.023122
 21
113.015115
 31
0.0
  0
LINE
  5
95
330
36
100
AcDbEntity
  8
0
 62
     3
100
AcDbLine
 10
-230.273122
 20
113.515115
 30
0.0
 11
-230.273122
 21
113.029351
 31
0.0
  0
ARC
  5
96
330
36
100
AcDbEntity
  8
0
 62
     3
100
AcDbCircle
 10
-136.648122
 20
203.289042
 30
0.0
 40
12.0
100
AcDbArc
 50
273.204804
 51
0.0
  0
LINE
  5
97
330
36
100
AcDbEntity
  8
0
 62
     3
100
AcDbLine
 10
-177.148122
 20
59.56194500000002
 30
0.0
 11
-177.148122
 21
66.81194500000002
 31
0.0
  0
LINE
  5
98
330
36
100
AcDbEntity
  8
0
 62
     3
100
AcDbLine
 10
-177.148122
 20
59.56194500000002
 30
0.0
 11
-177.148122
 21
55.65139100000003
 31
0.0
  0
LINE
  5
99
330
36
100
AcDbEntity
  8
0
 62
     3
100
AcDbLine
 10
-247.1481220000001
 20
55.65139100000003
 30
0.0
 11
-247.1481220000001
 21
66.81194500000002
 31
0.0
  0
LINE
  5
9A
330
36
100
AcDbEntity
  8
0
 62
     3
100
AcDbLine
 10
-177.148122
 20
54.56194500000002
 30
0.0
 11
-247.268255
 21
54.56194500000002
 31
0.0
  0
ARC
  5
9B
330
36
100
AcDbEntity
  8
0
 62
     3
100
AcDbCircle
 10
-252.1481220000001
 20
55.65139100000003
 30
0.0
 40
5.0
100
AcDbArc
 50
268.311482
 51
0.0
  0
LINE
  5
9C
330
36
100
AcDbEntity
  8
0
 62
     3
100
AcDbLine
 10
-229.6481220000001
 20
59.81194500000001
 30
0.0
 11
-224.6481220000001
 21
59.81194500000001
 31
0.0
  0
LINE
  5
9D
330
36
100
AcDbEntity
  8
0
 62
     3
100
AcDbLine
 10
-247.1481220000001
 20
74.56194500000004
 30
0.0
 11
-247.1481220000001
 21
67.311945
 31
0.0
  0
LINE
  5
9E
330
36
100
AcDbEntity
  8
0
 62
     3
100
AcDbLine
 10
-247.1481220000001
 20
74.56194500000004
 30
0.0
 11
-247.1481220000001
 21
78.47249800000003
 31
0.0
  0
LINE
  5
9F
330
36
100
AcDbEntity
  8
0
 62
     3
100
AcDbLine
 10
-177.148122
 20
78.47249800000003
 30
0.0
 11
-177.148122
 21
67.311945
 31
0.0
  0
LINE
  5
A0
330
36
100
AcDbEntity
  8
0
 62
     3
100
AcDbLine
 10
-194.648122
 20
74.31194500000003
 30
0.0
 11
-199.648122
 21
74.31194500000003
 31
0.0
  0
LINE
  5
A1
330
36
100
AcDbEntity
  8
0
 62
     3
100
AcDbLine
 10
-247.6481220000001
 20
67.311945
 30
0.0
 11
-247.6481220000001
 21
66.81194500000002
 31
0.0
  0
LINE
  5
A2
330
36
100
AcDbEntity
  8
0
 62
     3
100
AcDbLine
 10
-229.6481220000001
 20
74.31194500000003
 30
0.0
 11
-224.6481220000001
 21
74.31194500000003
 31
0.0
  0
LINE
  5
A3
330
36
100
AcDbEntity
  8
0
 62
     3
100
AcDbLine
 10
-194.648122
 20
59.81194500000001
 30
0.0
 11
-199.648122
 21
59.81194500000001
 31
0.0
  0
LINE
  5
A4
330
36
100
AcDbEntity
  8
0
 62
     3
100
AcDbLine
 10
-176.648122
 20
66.81194500000002
 30
0.0
 11
-176.648122
 21
67.311945
 31
0.0
  0
LINE
  5
A5
330
36
100
AcDbEntity
  8
0
100
AcDbLine
 10
-212.1481220000001
 20
66.81194500000002
 30
0.0
 11
-174.648122
 21
66.81194500000002
 31
0.0
  0
LINE
  5
A6
330
36
100
AcDbEntity
  8
0
100
AcDbLine
 10
-212.1481220000001
 20
66.81194500000002
 30
0.0
 11
-249.6481220000001
 21
66.81194500000002
 31
0.0
  0
LINE
  5
A7
330
36
100
AcDbEntity
  8
0
100
AcDbLine
 10
-269.0240070000001
 20
66.81194500000002
 30
0.0
 11
-266.524007
 21
66.81194500000002
 31
0.0
  0
LINE
  5
A8
330
36
100
AcDbEntity
  8
0
100
AcDbLine
 10
-155.2722370000001
 20
66.81194500000002
 30
0.0
 11
-157.772237
 21
66.81194500000002
 31
0.0
  0
TEXT
  5
BC
330
36
100
AcDbEntity
  8
0
 62
     3
100
AcDbText
 10
-31.701661
 20
-11.871188
 30
0.0
 40
3.2
  1
1/2
  7
高3.2
100
AcDbText
  0
CIRCLE
  5
BD
330
36
100
AcDbEntity
  8
0
100
AcDbCircle
 10
-128.148122
 20
165.556681
 30
0.0
 40
0.8
  0
CIRCLE
  5
BE
330
36
100
AcDbEntity
  8
0
100
AcDbCircle
 10
-166.211065
 20
152.465408
 30
0.0
 40
1.125
  0
CIRCLE
  5
BF
330
36
100
AcDbEntity
  8
0
100
AcDbCircle
 10
-160.766713
 20
114.454298
 30
0.0
 40
1.125
  0
CIRCLE
  5
C0
330
36
100
AcDbEntity
  8
0
100
AcDbCircle
 10
-128.148122
 20
112.363025
 30
0.0
 40
0.8
  0
CIRCLE
  5
C1
330
36
100
AcDbEntity
  8
0
100
AcDbCircle
 10
-239.648122
 20
114.454298
 30
0.0
 40
1.125
  0
CIRCLE
  5
C2
330
36
100
AcDbEntity
  8
0
100
AcDbCircle
 10
-157.850118
 20
154.249565
 30
0.0
 40
3.0
  0
CIRCLE
  5
C3
330
36
100
AcDbEntity
  8
0
100
AcDbCircle
 10
-157.850118
 20
148.249565
 30
0.0
 40
3.0
  0
CIRCLE
  5
C4
330
36
100
AcDbEntity
  8
0
100
AcDbCircle
 10
-157.850118
 20
142.249565
 30
0.0
 40
3.0
  0
CIRCLE
  5
C5
330
36
100
AcDbEntity
  8
0
100
AcDbCircle
 10
-157.850118
 20
136.249565
 30
0.0
 40
3.0
  0
CIRCLE
  5
C6
330
36
100
AcDbEntity
  8
0
100
AcDbCircle
 10
-157.850118
 20
130.249565
 30
0.0
 40
3.0
  0
CIRCLE
  5
C7
330
36
100
AcDbEntity
  8
0
100
AcDbCircle
 10
-157.850118
 20
124.249565
 30
0.0
 40
3.0
  0
CIRCLE
  5
C8
330
36
100
AcDbEntity
  8
0
100
AcDbCircle
 10
-266.446127
 20
153.749565
 30
0.0
 40
3.0
  0
CIRCLE
  5
C9
330
36
100
AcDbEntity
  8
0
100
AcDbCircle
 10
-266.446127
 20
147.749565
 30
0.0
 40
3.0
  0
CIRCLE
  5
CA
330
36
100
AcDbEntity
  8
0
100
AcDbCircle
 10
-266.446127
 20
141.749565
 30
0.0
 40
3.0
  0
CIRCLE
  5
CB
330
36
100
AcDbEntity
  8
0
100
AcDbCircle
 10
-266.446127
 20
135.749565
 30
0.0
 40
3.0
  0
CIRCLE
  5
CC
330
36
100
AcDbEntity
  8
0
100
AcDbCircle
 10
-266.446127
 20
129.749565
 30
0.0
 40
3.0
  0
CIRCLE
  5
CD
330
36
100
AcDbEntity
  8
0
100
AcDbCircle
 10
-266.446127
 20
123.749565
 30
0.0
 40
3.0
  0
LINE
  5
CE
330
36
100
AcDbEntity
  8
0
 62
     3
100
AcDbLine
 10
-70.496829
 20
85.79322600000002
 30
0.0
 11
-70.496829
 21
43.553226
 31
0.0
  0
LINE
  5
CF
330
36
100
AcDbEntity
  8
0
100
AcDbLine
 10
-70.496829
 20
70.433226
 30
0.0
 11
5.972483
 21
70.433226
 31
0.0
  0
LINE
  5
D0
330
36
100
AcDbEntity
  8
0
100
AcDbLine
 10
-70.496829
 20
63.713226
 30
0.0
 11
5.972483
 21
63.713226
 31
0.0
  0
LINE
  5
D1
330
36
100
AcDbEntity
  8
0
 62
     3
100
AcDbLine
 10
5.972483
 20
85.79322600000002
 30
0.0
 11
5.972483
 21
43.553226
 31
0.0
  0
LINE
  5
D2
330
36
100
AcDbEntity
  8
0
 62
     3
100
AcDbLine
 10
-70.496829
 20
85.79322600000002
 30
0.0
 11
5.972483
 21
85.79322600000002
 31
0.0
  0
TEXT
  5
D3
330
36
100
AcDbEntity
  8
0
 62
     3
100
AcDbText
 10
-51.92924935375071
 20
72.10373
 30
0.0
 40
4.5
  1
単相100V仕様
  7
高4.5
100
AcDbText
  0
LINE
  5
D6
330
36
100
AcDbEntity
  8
0
 62
     3
100
AcDbLine
 10
-177.148122
 20
133.898342
 30
0.0
 11
-178.139854
 21
133.898342
 31
0.0
  0
LINE
  5
D7
330
36
100
AcDbEntity
  8
0
 62
     3
100
AcDbLine
 10
-177.148122
 20
125.454298
 30
0.0
 11
-178.139854
 21
125.454298
 31
0.0
  0
TEXT
  5
D8
330
36
100
AcDbEntity
  8
0
 62
     3
100
AcDbText
 10
-62.498252
 20
-4.871188
 30
0.0
 40
3.2
  1
別　掲
  7
高3.2
100
AcDbText
  0
LINE
  5
D9
330
36
100
AcDbEntity
  8
0
100
AcDbLine
 10
-178.139854
 20
132.749565
 30
0.0
 11
-266.446127
 21
126.749565
 31
0.0
  0
LINE
  5
DA
330
36
100
AcDbEntity
  8
0
100
AcDbLine
 10
-178.139854
 20
126.749565
 30
0.0
 11
-266.446127
 21
120.749565
 31
0.0
  0
LINE
  5
ED
330
36
100
AcDbEntity
  8
0
100
AcDbLine
 10
-157.850118
 20
157.249565
 30
0.0
 11
-113.474916
 21
157.249565
 31
0.0
  0
LINE
  5
EE
330
36
100
AcDbEntity
  8
0
100
AcDbLine
 10
-157.850118
 20
151.249565
 30
0.0
 11
-113.072634
 21
151.249565
 31
0.0
  0
LINE
  5
EF
330
36
100
AcDbEntity
  8
0
100
AcDbLine
 10
-155.272237
 20
206.426969
 30
0.0
 11
-163.273122
 21
206.426969
 31
0.0
  0
LINE
  5
F0
330
36
100
AcDbEntity
  8
0
100
AcDbLine
 10
-269.024007
 20
206.426969
 30
0.0
 11
-261.023122
 21
206.426969
 31
0.0
  0
CIRCLE
  5
F2
330
36
100
AcDbEntity
  8
0
100
AcDbCircle
 10
-212.147926
 20
206.180052
 30
0.0
 40
3.5
  0
CIRCLE
  5
F3
330
36
100
AcDbEntity
  8
0
100
AcDbCircle
 10
-165.897926
 20
200.580052
 30
0.0
 40
1.125
  0
CIRCLE
  5
F4
330
36
100
AcDbEntity
  8
0
100
AcDbCircle
 10
-165.897926
 20
211.780052
 30
0.0
 40
1.125
  0
CIRCLE
  5
F5
330
36
100
AcDbEntity
  8
0
100
AcDbCircle
 10
-212.147926
 20
216.430052
 30
0.0
 40
1.125
  0
CIRCLE
  5
F6
330
36
100
AcDbEntity
  8
0
100
AcDbCircle
 10
-258.397926
 20
211.780052
 30
0.0
 40
1.125
  0
CIRCLE
  5
F7
330
36
100
AcDbEntity
  8
0
100
AcDbCircle
 10
-258.397926
 20
200.580052
 30
0.0
 40
1.125
  0
ARC
  5
F8
330
36
100
AcDbEntity
  8
0
100
AcDbCircle
 10
-170.797926
 20
215.280052
 30
0.0
 40
2.5
100
AcDbArc
 50
0.0
 51
90.0
  0
LINE
  5
F9
330
36
100
AcDbEntity
  8
0
100
AcDbLine
 10
-170.797926
 20
217.780052
 30
0.0
 11
-208.163268
 21
217.780052
 31
0.0
  0
LINE
  5
FA
330
36
100
AcDbEntity
  8
0
100
AcDbLine
 10
-168.297926
 20
197.080052
 30
0.0
 11
-168.297926
 21
215.280052
 31
0.0
  0
LINE
  5
FB
330
36
100
AcDbEntity
  8
0
100
AcDbLine
 10
-170.797926
 20
194.580052
 30
0.0
 11
-208.163268
 21
194.580052
 31
0.0
  0
ARC
  5
FC
330
36
100
AcDbEntity
  8
0
100
AcDbCircle
 10
-170.797926
 20
197.080052
 30
0.0
 40
2.5
100
AcDbArc
 50
270.0
 51
0.0
  0
ARC
  5
FD
330
36
100
AcDbEntity
  8
0
100
AcDbCircle
 10
-208.163268
 20
195.580052
 30
0.0
 40
1.0
100
AcDbArc
 50
174.9802
 51
270.0
  0
ARC
  5
FE
330
36
100
AcDbEntity
  8
0
100
AcDbCircle
 10
-212.147926
 20
195.930052
 30
0.0
 40
3.0
100
AcDbArc
 50
354.9802
 51
185.0198
  0
ARC
  5
FF
330
36
100
AcDbEntity
  8
0
100
AcDbCircle
 10
-216.132584
 20
195.580052
 30
0.0
 40
1.0
100
AcDbArc
 50
270.0
 51
5.0198
  0
LINE
  5
100
330
36
100
AcDbEntity
  8
0
100
AcDbLine
 10
-253.497926
 20
194.580052
 30
0.0
 11
-216.132584
 21
194.580052
 31
0.0
  0
ARC
  5
101
330
36
100
AcDbEntity
  8
0
100
AcDbCircle
 10
-253.497926
 20
197.080052
 30
0.0
 40
2.5
100
AcDbArc
 50
180.0
 51
270.0
  0
LINE
  5
102
330
36
100
AcDbEntity
  8
0
100
AcDbLine
 10
-255.997926
 20
197.080052
 30
0.0
 11
-255.997926
 21
215.280052
 31
0.0
  0
ARC
  5
103
330
36
100
AcDbEntity
  8
0
100
AcDbCircle
 10
-253.497926
 20
215.280052
 30
0.0
 40
2.5
100
AcDbArc
 50
90.0
 51
180.0
  0
LINE
  5
104
330
36
100
AcDbEntity
  8
0
100
AcDbLine
 10
-253.497926
 20
217.780052
 30
0.0
 11
-216.132584
 21
217.780052
 31
0.0
  0
ARC
  5
105
330
36
100
AcDbEntity
  8
0
100
AcDbCircle
 10
-208.163268
 20
216.780052
 30
0.0
 40
1.0
100
AcDbArc
 50
90.0
 51
185.0198
  0
ARC
  5
106
330
36
100
AcDbEntity
  8
0
100
AcDbCircle
 10
-212.147926
 20
216.430052
 30
0.0
 40
3.0
100
AcDbArc
 50
174.9802
 51
5.0198
  0
ARC
  5
107
330
36
100
AcDbEntity
  8
0
100
AcDbCircle
 10
-216.132584
 20
216.780052
 30
0.0
 40
1.0
100
AcDbArc
 50
354.9802
 51
90.0
  0
TEXT
  5
108
330
36
100
AcDbEntity
  8
0
100
AcDbText
 10
-185.455572
 20
200.499324
 30
0.0
 40
2.879999999999999
  1
通常回転
 50
90.00000300000001
 41
0.791667
100
AcDbText
  0
TEXT
  5
109
330
36
100
AcDbEntity
  8
0
100
AcDbText
 10
-204.470191
 20
200.500234
 30
0.0
 40
2.879999999999999
  1
減速可変
 50
90.00000300000001
 41
0.791667
100
AcDbText
  0
TEXT
  5
10A
330
36
100
AcDbEntity
  8
0
100
AcDbText
 10
-218.000575
 20
196.997364
 30
0.0
 40
1.6912
  1
スピードコントローラー
 50
90.00000300000001
 41
0.833333
100
AcDbText
  0
TEXT
  5
10B
330
36
100
AcDbEntity
  8
0
100
AcDbText
 10
-220.397926
 20
196.580052
 30
0.0
 40
2.073599999999998
  1
９０％減
 50
90.00000300000001
 41
0.791667
100
AcDbText
  0
TEXT
  5
10C
330
36
100
AcDbEntity
  8
0
100
AcDbText
 10
-220.397926
 20
207.796692
 30
0.0
 40
2.073599999999998
  1
２０％減
 50
90.00000300000001
 41
0.791667
100
AcDbText
  0
TEXT
  5
10D
330
36
100
AcDbEntity
  8
0
100
AcDbText
 10
-242.897926
 20
200.105051
 30
0.0
 40
3.149999999999999
  1
ヒューズ
 50
90.00000300000001
 41
0.833333
100
AcDbText
  0
TEXT
  5
10E
330
36
100
AcDbEntity
  8
0
 62
     3
100
AcDbText
 10
-62.31626041190635
 20
79.34682537644414
 30
0.0
 40
4.5
  1
ハンドスピコン（屋内型）
  7
高4.5
100
AcDbText
  0
LINE
  5
111
330
36
100
AcDbEntity
  8
0
100
AcDbLine
 10
-70.496829
 20
56.993226
 30
0.0
 11
5.972483
 21
56.993226
 31
0.0
  0
LINE
  5
112
330
36
100
AcDbEntity
  8
0
100
AcDbLine
 10
-36.681131
 20
70.433226
 30
0.0
 11
-36.681131
 21
43.553226
 31
0.0
  0
TEXT
  5
113
330
36
100
AcDbEntity
  8
0
 62
     3
100
AcDbText
 10
-66.339279
 20
65.06138599999998
 30
0.0
 40
3.2
  1
電圧・周波数
  7
高3.2
100
AcDbText
  0
TEXT
  5
114
330
36
100
AcDbEntity
  8
0
 62
     3
100
AcDbText
 10
-66.50648499999999
 20
58.342517
 30
0.0
 40
3.2
  1
最大負荷電流
  7
高3.2
100
AcDbText
  0
TEXT
  5
115
330
36
100
AcDbEntity
  8
0
 62
     3
100
AcDbText
 10
-66.898374
 20
51.749046
 30
0.0
 40
3.2
  1
連続使用時間
  7
高3.2
100
AcDbText
  0
TEXT
  5
116
330
36
100
AcDbEntity
  8
0
 62
     3
100
AcDbText
 10
-32.472558
 20
64.72697499999999
 30
0.0
 40
3.2
  1
100V 50/60HZ
  7
高3.2
100
AcDbText
  0
TEXT
  5
117
330
36
100
AcDbEntity
  8
0
 62
     3
100
AcDbText
 10
-32.582287
 20
58.170087
 30
0.0
 40
3.2
  1
15A(1500W)
  7
高3.2
100
AcDbText
  0
TEXT
  5
118
330
36
100
AcDbEntity
  8
0
 62
     3
100
AcDbText
 10
-28.294859
 20
51.206301
 30
0.0
 40
3.2
  1
30分以内
  7
高3.2
100
AcDbText
  0
TEXT
  5
119
330
36
100
AcDbEntity
  8
0
 62
     3
100
AcDbText
 10
-61.60633328814309
 20
8.690637874270349
 30
0.0
 40
4.5
  1
ハンドスピコン
  7
高4.5
100
AcDbText
  0
ARC
  5
11C
330
36
100
AcDbEntity
  8
0
100
AcDbCircle
 10
-158.272237
 20
164.965408
 30
0.0
 40
1.0
100
AcDbArc
 50
270.000002
 51
90.0
  0
ARC
  5
11D
330
36
100
AcDbEntity
  8
0
100
AcDbCircle
 10
-158.272237
 20
161.965408
 30
0.0
 40
1.0
100
AcDbArc
 50
270.0
 51
90.0
  0
LINE
  5
11E
330
36
100
AcDbEntity
  8
0
100
AcDbLine
 10
-266.024007
 20
160.965408
 30
0.0
 11
-158.272237
 21
160.965408
 31
0.0
  0
LINE
  5
11F
330
36
100
AcDbEntity
  8
0
100
AcDbLine
 10
-212.1481220000001
 20
162.965408
 30
0.0
 11
-158.272237
 21
162.965408
 31
0.0
  0
LINE
  5
120
330
36
100
AcDbEntity
  8
0
100
AcDbLine
 10
-212.1481220000001
 20
163.965408
 30
0.0
 11
-158.272237
 21
163.965408
 31
0.0
  0
LINE
  5
121
330
36
100
AcDbEntity
  8
0
100
AcDbLine
 10
-212.1481220000001
 20
165.965408
 30
0.0
 11
-158.272237
 21
165.965408
 31
0.0
  0
ARC
  5
122
330
36
100
AcDbEntity
  8
0
100
AcDbCircle
 10
-266.024007
 20
164.965408
 30
0.0
 40
1.0
100
AcDbArc
 50
90.0
 51
269.999998
  0
LINE
  5
123
330
36
100
AcDbEntity
  8
0
100
AcDbLine
 10
-212.1481220000001
 20
165.965408
 30
0.0
 11
-266.024007
 21
165.965408
 31
0.0
  0
LINE
  5
124
330
36
100
AcDbEntity
  8
0
100
AcDbLine
 10
-212.1481220000001
 20
163.965408
 30
0.0
 11
-266.024007
 21
163.965408
 31
0.0
  0
LINE
  5
125
330
36
100
AcDbEntity
  8
0
100
AcDbLine
 10
-212.1481220000001
 20
162.965408
 30
0.0
 11
-266.024007
 21
162.965408
 31
0.0
  0
LINE
  5
126
330
36
100
AcDbEntity
  8
0
100
AcDbLine
 10
-253.2659870000001
 20
111.954298
 30
0.0
 11
-266.024007
 21
111.954298
 31
0.0
  0
ARC
  5
127
330
36
100
AcDbEntity
  8
0
100
AcDbCircle
 10
-253.2659870000001
 20
112.954298
 30
0.0
 40
1.0
100
AcDbArc
 50
270.0
 51
90.0
  0
LINE
  5
128
330
36
100
AcDbEntity
  8
0
100
AcDbLine
 10
-253.154651
 20
113.954298
 30
0.0
 11
-266.024007
 21
113.954298
 31
0.0
  0
LINE
  5
129
330
36
100
AcDbEntity
  8
0
100
AcDbLine
 10
-253.265986
 20
114.954298
 30
0.0
 11
-266.024007
 21
114.954298
 31
0.0
  0
ARC
  5
12A
330
36
100
AcDbEntity
  8
0
100
AcDbCircle
 10
-253.265986
 20
115.954298
 30
0.0
 40
1.0
100
AcDbArc
 50
270.0
 51
89.99999800000002
  0
LINE
  5
12B
330
36
100
AcDbEntity
  8
0
100
AcDbLine
 10
-253.265986
 20
116.954298
 30
0.0
 11
-266.024007
 21
116.954298
 31
0.0
  0
ARC
  5
12C
330
36
100
AcDbEntity
  8
0
100
AcDbCircle
 10
-266.024007
 20
115.954298
 30
0.0
 40
1.0
100
AcDbArc
 50
90.0
 51
270.0
  0
ARC
  5
12D
330
36
100
AcDbEntity
  8
0
100
AcDbCircle
 10
-266.024007
 20
112.954298
 30
0.0
 40
1.0
100
AcDbArc
 50
90.00000199999997
 51
270.0
  0
LINE
  5
12E
330
36
100
AcDbEntity
  8
0
100
AcDbLine
 10
-171.030258
 20
111.954298
 30
0.0
 11
-158.272237
 21
111.954298
 31
0.0
  0
LINE
  5
12F
330
36
100
AcDbEntity
  8
0
100
AcDbLine
 10
-171.141594
 20
113.954298
 30
0.0
 11
-162.703204
 21
113.954298
 31
0.0
  0
ARC
  5
130
330
36
100
AcDbEntity
  8
0
100
AcDbCircle
 10
-171.030258
 20
112.954298
 30
0.0
 40
1.0
100
AcDbArc
 50
90.0
 51
270.0
  0
LINE
  5
131
330
36
100
AcDbEntity
  8
0
100
AcDbLine
 10
-171.030259
 20
114.954298
 30
0.0
 11
-162.703204
 21
114.954298
 31
0.0
  0
LINE
  5
132
330
36
100
AcDbEntity
  8
0
100
AcDbLine
 10
-171.030259
 20
116.954298
 30
0.0
 11
-158.272237
 21
116.954298
 31
0.0
  0
ARC
  5
133
330
36
100
AcDbEntity
  8
0
100
AcDbCircle
 10
-171.030259
 20
115.954298
 30
0.0
 40
1.0
100
AcDbArc
 50
90.00000199999997
 51
270.0
  0
CIRCLE
  5
134
330
36
100
AcDbEntity
  8
0
100
AcDbCircle
 10
-160.766713
 20
114.454298
 30
0.0
 40
2.0
  0
ARC
  5
135
330
36
100
AcDbEntity
  8
0
100
AcDbCircle
 10
-158.272237
 20
115.954298
 30
0.0
 40
1.0
100
AcDbArc
 50
270.0
 51
90.0
  0
ARC
  5
136
330
36
100
AcDbEntity
  8
0
100
AcDbCircle
 10
-158.272237
 20
112.954298
 30
0.0
 40
1.0
100
AcDbArc
 50
270.0
 51
89.99999800000002
  0
LINE
  5
137
330
36
100
AcDbEntity
  8
0
100
AcDbLine
 10
-158.830221
 20
113.954298
 30
0.0
 11
-158.272237
 21
113.954298
 31
0.0
  0
LINE
  5
138
330
36
100
AcDbEntity
  8
0
100
AcDbLine
 10
-158.830221
 20
114.954298
 30
0.0
 11
-158.272237
 21
114.954298
 31
0.0
  0
CIRCLE
  5
139
330
36
100
AcDbEntity
  8
0
100
AcDbCircle
 10
-128.148122
 20
165.556681
 30
0.0
 40
2.0
  0
CIRCLE
  5
13A
330
36
100
AcDbEntity
  8
0
100
AcDbCircle
 10
-166.211065
 20
152.465408
 30
0.0
 40
2.0
  0
CIRCLE
  5
13B
330
36
100
AcDbEntity
  8
0
100
AcDbCircle
 10
-239.648122
 20
114.454298
 30
0.0
 40
2.0
  0
CIRCLE
  5
13C
330
36
100
AcDbEntity
  8
0
100
AcDbCircle
 10
-128.148122
 20
112.363025
 30
0.0
 40
2.0
  0
CIRCLE
  5
13D
330
36
100
AcDbEntity
  8
0
100
AcDbCircle
 10
-258.397926
 20
200.580052
 30
0.0
 40
2.0
  0
CIRCLE
  5
13E
330
36
100
AcDbEntity
  8
0
100
AcDbCircle
 10
-258.397926
 20
211.780052
 30
0.0
 40
2.0
  0
CIRCLE
  5
13F
330
36
100
AcDbEntity
  8
0
100
AcDbCircle
 10
-249.647926
 20
206.180052
 30
0.0
 40
2.299999999999998
  0
CIRCLE
  5
140
330
36
100
AcDbEntity
  8
0
100
AcDbCircle
 10
-249.647926
 20
206.180052
 30
0.0
 40
0.75
  0
CIRCLE
  5
141
330
36
100
AcDbEntity
  8
0
100
AcDbCircle
 10
-249.647926
 20
206.180052
 30
0.0
 40
3.0
  0
CIRCLE
  5
142
330
36
100
AcDbEntity
  8
0
100
AcDbCircle
 10
-212.147926
 20
216.430052
 30
0.0
 40
2.0
  0
CIRCLE
  5
143
330
36
100
AcDbEntity
  8
0
100
AcDbCircle
 10
-212.147926
 20
195.930052
 30
0.0
 40
1.125
  0
CIRCLE
  5
144
330
36
100
AcDbEntity
  8
0
100
AcDbCircle
 10
-212.147926
 20
195.930052
 30
0.0
 40
2.0
  0
CIRCLE
  5
145
330
36
100
AcDbEntity
  8
0
100
AcDbCircle
 10
-165.897926
 20
200.580052
 30
0.0
 40
2.0
  0
CIRCLE
  5
146
330
36
100
AcDbEntity
  8
0
100
AcDbCircle
 10
-165.897926
 20
211.780052
 30
0.0
 40
2.0
  0
LINE
  5
147
330
36
100
AcDbEntity
  8
0
100
AcDbLine
 10
-131.648122
 20
67.06194500000002
 30
0.0
 11
-124.648122
 21
67.06194500000002
 31
0.0
  0
ARC
  5
148
330
36
100
AcDbEntity
  8
0
100
AcDbCircle
 10
-253.451273
 20
129.67632
 30
0.0
 40
7.586513
100
AcDbArc
 50
326.184746
 51
33.81525400000001
  0
LINE
  5
149
330
36
100
AcDbEntity
  8
0
100
AcDbLine
 10
-178.139854
 20
133.898342
 30
0.0
 11
-178.139854
 21
125.454298
 31
0.0
  0
CIRCLE
  5
14A
330
36
100
AcDbEntity
  8
0
100
AcDbCircle
 10
-212.147926
 20
206.180052
 30
0.0
 40
4.0
  0
LINE
  5
14B
330
36
100
AcDbEntity
  8
0
100
AcDbLine
 10
-124.648122
 20
206.176969
 30
0.0
 11
-131.648122
 21
206.176969
 31
0.0
  0
LINE
  5
14C
330
36
100
AcDbEntity
  8
0
100
AcDbLine
 10
-292.648122
 20
206.176969
 30
0.0
 11
-299.648122
 21
206.176969
 31
0.0
  0
LINE
  5
14D
330
36
100
AcDbEntity
  8
0
100
AcDbLine
 10
-228.453937
 20
199.083965
 30
0.0
 11
-228.3385
 21
198.862212
 31
0.0
  0
LINE
  5
14E
330
36
100
AcDbEntity
  8
0
100
AcDbLine
 10
-226.491071
 20
200.523197
 30
0.0
 11
-226.314295
 21
200.346421
 31
0.0
  0
ARC
  5
152
330
36
100
AcDbEntity
  8
0
100
AcDbCircle
 10
-232.147926
 20
206.180052
 30
0.0
 40
9.75
100
AcDbArc
 50
45.0
 51
67.5
  0
LINE
  5
153
330
36
100
AcDbEntity
  8
0
100
AcDbLine
 10
-226.491071
 20
211.836906
 30
0.0
 11
-225.253635
 21
213.074343
 31
0.0
  0
ARC
  5
154
330
36
100
AcDbEntity
  8
0
100
AcDbCircle
 10
-232.147926
 20
206.180052
 30
0.0
 40
8.0
100
AcDbArc
 50
45.0
 51
67.5
  0
LINE
  5
155
330
36
100
AcDbEntity
  8
0
100
AcDbLine
 10
-229.086458
 20
213.571088
 30
0.0
 11
-228.416762
 21
215.187877
 31
0.0
  0
ARC
  5
156
330
36
100
AcDbEntity
  8
0
100
AcDbCircle
 10
-232.147926
 20
206.180052
 30
0.0
 40
9.5
100
AcDbArc
 50
72.5
 51
112.5
  0
LINE
  5
157
330
36
100
AcDbEntity
  8
0
100
AcDbLine
 10
-229.742279
 20
213.809787
 30
0.0
 11
-229.291221
 21
215.240363
 31
0.0
  0
ARC
  5
158
330
36
100
AcDbEntity
  8
0
100
AcDbCircle
 10
-232.147926
 20
206.180052
 30
0.0
 40
8.0
100
AcDbArc
 50
72.5
 51
112.5
  0
LINE
  5
159
330
36
100
AcDbEntity
  8
0
100
AcDbLine
 10
-235.209393
 20
213.571088
 30
0.0
 11
-235.783418
 21
214.956907
 31
0.0
  0
ARC
  5
15A
330
36
100
AcDbEntity
  8
0
100
AcDbCircle
 10
-232.147926
 20
206.180052
 30
0.0
 40
9.25
100
AcDbArc
 50
117.5
 51
157.5
  0
LINE
  5
15B
330
36
100
AcDbEntity
  8
0
100
AcDbLine
 10
-235.841915
 20
213.276138
 30
0.0
 11
-236.4191
 21
214.384902
 31
0.0
  0
ARC
  5
15C
330
36
100
AcDbEntity
  8
0
100
AcDbCircle
 10
-232.147926
 20
206.180052
 30
0.0
 40
8.0
100
AcDbArc
 50
117.5
 51
157.5
  0
ARC
  5
15D
330
36
100
AcDbEntity
  8
0
100
AcDbCircle
 10
-232.147926
 20
206.180052
 30
0.0
 40
9.0
100
AcDbArc
 50
162.5
 51
202.5
  0
LINE
  5
15E
330
36
100
AcDbEntity
  8
0
100
AcDbLine
 10
-239.538962
 20
209.241519
 30
0.0
 11
-240.693811
 21
209.719873
 31
0.0
  0
LINE
  5
15F
330
36
100
AcDbEntity
  8
0
100
AcDbLine
 10
-239.777661
 20
208.585698
 30
0.0
 11
-240.731378
 21
208.886404
 31
0.0
  0
ARC
  5
160
330
36
100
AcDbEntity
  8
0
100
AcDbCircle
 10
-232.147926
 20
206.180052
 30
0.0
 40
8.0
100
AcDbArc
 50
162.5
 51
202.5
  0
LINE
  5
161
330
36
100
AcDbEntity
  8
0
100
AcDbLine
 10
-239.538962
 20
203.118584
 30
0.0
 11
-240.462841
 21
202.735901
 31
0.0
  0
ARC
  5
164
330
36
100
AcDbEntity
  8
0
100
AcDbCircle
 10
-232.147926
 20
206.180052
 30
0.0
 40
8.0
100
AcDbArc
 50
297.5
 51
315.0
  0
ARC
  5
165
330
36
100
AcDbEntity
  8
0
100
AcDbCircle
 10
-232.147926
 20
206.180052
 30
0.0
 40
8.5
100
AcDbArc
 50
252.5
 51
292.5
  0
ARC
  5
166
330
36
100
AcDbEntity
  8
0
100
AcDbCircle
 10
-232.147926
 20
206.180052
 30
0.0
 40
8.0
100
AcDbArc
 50
252.5
 51
292.5
  0
LINE
  5
167
330
36
100
AcDbEntity
  8
0
100
AcDbLine
 10
-229.086458
 20
198.789015
 30
0.0
 11
-228.895116
 21
198.327076
 31
0.0
  0
ARC
  5
168
330
36
100
AcDbEntity
  8
0
100
AcDbCircle
 10
-232.147926
 20
206.180052
 30
0.0
 40
8.25
100
AcDbArc
 50
297.5
 51
315.0
  0
LINE
  5
169
330
36
100
AcDbEntity
  8
0
100
AcDbLine
 10
-234.553572
 20
198.550316
 30
0.0
 11
-234.703925
 21
198.073458
 31
0.0
  0
LINE
  5
16A
330
36
100
AcDbEntity
  8
0
100
AcDbLine
 10
-235.209393
 20
198.789015
 30
0.0
 11
-235.496406
 21
198.096106
 31
0.0
  0
ARC
  5
16B
330
36
100
AcDbEntity
  8
0
100
AcDbCircle
 10
-232.147926
 20
206.180052
 30
0.0
 40
8.0
100
AcDbArc
 50
207.5
 51
247.5
  0
ARC
  5
16C
330
36
100
AcDbEntity
  8
0
100
AcDbCircle
 10
-232.147926
 20
206.180052
 30
0.0
 40
8.75
100
AcDbArc
 50
207.5
 51
247.5
  0
LINE
  5
16D
330
36
100
AcDbEntity
  8
0
100
AcDbLine
 10
-239.244012
 20
202.486063
 30
0.0
 11
-239.90927
 21
202.139751
 31
0.0
  0
LINE
  5
16E
330
36
100
AcDbEntity
  8
0
100
AcDbLine
 10
-200.9079548010922
 20
210.230052
 30
0.0
 11
-196.4079548010922
 21
210.230052
 31
0.0
  0
LINE
  5
16F
330
36
100
AcDbEntity
  8
0
100
AcDbLine
 10
-200.9079548010922
 20
210.230052
 30
0.0
 11
-200.9079548010922
 21
208.480052
 31
0.0
  0
LINE
  5
170
330
36
100
AcDbEntity
  8
0
100
AcDbLine
 10
-200.9079548010922
 20
208.480052
 30
0.0
 11
-196.4079548010922
 21
208.480052
 31
0.0
  0
LINE
  5
171
330
36
100
AcDbEntity
  8
0
100
AcDbLine
 10
-196.4079548010922
 20
210.230052
 30
0.0
 11
-196.4079548010922
 21
208.480052
 31
0.0
  0
LINE
  5
172
330
36
100
AcDbEntity
  8
0
100
AcDbLine
 10
-201.1579548010922
 20
203.880052
 30
0.0
 11
-196.1579548010922
 21
203.880052
 31
0.0
  0
LINE
  5
173
330
36
100
AcDbEntity
  8
0
100
AcDbLine
 10
-201.1579548010922
 20
202.130052
 30
0.0
 11
-201.1579548010922
 21
203.880052
 31
0.0
  0
LINE
  5
174
330
36
100
AcDbEntity
  8
0
100
AcDbLine
 10
-201.1579548010922
 20
202.130052
 30
0.0
 11
-196.1579548010922
 21
202.130052
 31
0.0
  0
LINE
  5
175
330
36
100
AcDbEntity
  8
0
100
AcDbLine
 10
-196.1579548010922
 20
202.130052
 30
0.0
 11
-196.1579548010922
 21
203.880052
 31
0.0
  0
LINE
  5
17A
330
36
100
AcDbEntity
  8
0
100
AcDbLine
 10
-202.6579548010922
 20
212.430052
 30
0.0
 11
-194.6579548010922
 21
212.430052
 31
0.0
  0
LINE
  5
17C
330
36
100
AcDbEntity
  8
0
100
AcDbLine
 10
-202.6579548010922
 20
199.930052
 30
0.0
 11
-194.6579548010922
 21
199.930052
 31
0.0
  0
LINE
  5
17D
330
36
100
AcDbEntity
  8
0
100
AcDbLine
 10
-202.6579548010922
 20
199.930052
 30
0.0
 11
-202.6579548010922
 21
212.430052
 31
0.0
  0
LINE
  5
17F
330
36
100
AcDbEntity
  8
0
100
AcDbLine
 10
-202.6579548010922
 20
199.930052
 30
0.0
 11
-203.1579548010922
 21
199.430052
 31
0.0
  0
LINE
  5
180
330
36
100
AcDbEntity
  8
0
100
AcDbLine
 10
-202.6579548010922
 20
212.430052
 30
0.0
 11
-203.1579548010922
 21
212.930052
 31
0.0
  0
LINE
  5
182
330
36
100
AcDbEntity
  8
0
100
AcDbLine
 10
-200.6579548010922
 20
209.980052
 30
0.0
 11
-200.9079548010922
 21
210.230052
 31
0.0
  0
LINE
  5
183
330
36
100
AcDbEntity
  8
0
100
AcDbLine
 10
-200.6579548010922
 20
208.730052
 30
0.0
 11
-200.9079548010922
 21
208.480052
 31
0.0
  0
LINE
  5
184
330
36
100
AcDbEntity
  8
0
100
AcDbLine
 10
-196.6579548010922
 20
208.730052
 30
0.0
 11
-196.4079548010922
 21
208.480052
 31
0.0
  0
LINE
  5
185
330
36
100
AcDbEntity
  8
0
100
AcDbLine
 10
-196.6579548010922
 20
209.980052
 30
0.0
 11
-196.4079548010922
 21
210.230052
 31
0.0
  0
LINE
  5
186
330
36
100
AcDbEntity
  8
0
100
AcDbLine
 10
-200.9079548010922
 20
203.630052
 30
0.0
 11
-201.1579548010922
 21
203.880052
 31
0.0
  0
LINE
  5
187
330
36
100
AcDbEntity
  8
0
100
AcDbLine
 10
-200.9079548010922
 20
202.380052
 30
0.0
 11
-201.1579548010922
 21
202.130052
 31
0.0
  0
LINE
  5
188
330
36
100
AcDbEntity
  8
0
100
AcDbLine
 10
-196.4079548010922
 20
203.630052
 30
0.0
 11
-196.1579548010922
 21
203.880052
 31
0.0
  0
LINE
  5
189
330
36
100
AcDbEntity
  8
0
100
AcDbLine
 10
-196.4079548010922
 20
202.380052
 30
0.0
 11
-196.1579548010922
 21
202.130052
 31
0.0
  0
LINE
  5
18C
330
36
100
AcDbEntity
  8
0
100
AcDbLine
 10
-203.1579548010922
 20
199.430052
 30
0.0
 11
-194.1579548010922
 21
199.4300519999999
 31
0.0
  0
LINE
  5
18D
330
36
100
AcDbEntity
  8
0
100
AcDbLine
 10
-203.1579548010922
 20
199.430052
 30
0.0
 11
-203.1579548010922
 21
212.930052
 31
0.0
  0
LINE
  5
18E
330
36
100
AcDbEntity
  8
0
100
AcDbLine
 10
-203.1579548010922
 20
212.930052
 30
0.0
 11
-194.1579548010922
 21
212.930052
 31
0.0
  0
LINE
  5
193
330
36
100
AcDbEntity
  8
0
100
AcDbLine
 10
-196.4079548010922
 20
202.380052
 30
0.0
 11
-196.4079548010922
 21
203.630052
 31
0.0
  0
LINE
  5
194
330
36
100
AcDbEntity
  8
0
100
AcDbLine
 10
-200.9079548010922
 20
203.630052
 30
0.0
 11
-196.4079548010922
 21
203.630052
 31
0.0
  0
LINE
  5
195
330
36
100
AcDbEntity
  8
0
100
AcDbLine
 10
-200.9079548010922
 20
202.380052
 30
0.0
 11
-196.4079548010922
 21
202.380052
 31
0.0
  0
LINE
  5
196
330
36
100
AcDbEntity
  8
0
100
AcDbLine
 10
-200.9079548010922
 20
202.380052
 30
0.0
 11
-200.9079548010922
 21
203.630052
 31
0.0
  0
LINE
  5
197
330
36
100
AcDbEntity
  8
0
100
AcDbLine
 10
-200.6579548010922
 20
208.730052
 30
0.0
 11
-196.6579548010922
 21
208.730052
 31
0.0
  0
LINE
  5
198
330
36
100
AcDbEntity
  8
0
100
AcDbLine
 10
-200.6579548010922
 20
209.980052
 30
0.0
 11
-200.6579548010922
 21
208.730052
 31
0.0
  0
LINE
  5
199
330
36
100
AcDbEntity
  8
0
100
AcDbLine
 10
-200.6579548010922
 20
209.980052
 30
0.0
 11
-196.6579548010922
 21
209.980052
 31
0.0
  0
LINE
  5
19A
330
36
100
AcDbEntity
  8
0
100
AcDbLine
 10
-196.6579548010922
 20
209.980052
 30
0.0
 11
-196.6579548010922
 21
208.730052
 31
0.0
  0
LINE
  5
19E
330
36
100
AcDbEntity
  8
0
100
AcDbLine
 10
-183.6579548010922
 20
212.430052
 30
0.0
 11
-175.6579548010922
 21
212.430052
 31
0.0
  0
LINE
  5
19F
330
36
100
AcDbEntity
  8
0
100
AcDbLine
 10
-183.6579548010922
 20
212.430052
 30
0.0
 11
-184.1579548010922
 21
212.930052
 31
0.0
  0
LINE
  5
1A0
330
36
100
AcDbEntity
  8
0
100
AcDbLine
 10
-183.6579548010922
 20
199.930052
 30
0.0
 11
-183.6579548010922
 21
212.430052
 31
0.0
  0
LINE
  5
1A1
330
36
100
AcDbEntity
  8
0
100
AcDbLine
 10
-183.6579548010922
 20
199.930052
 30
0.0
 11
-184.1579548010922
 21
199.430052
 31
0.0
  0
LINE
  5
1A2
330
36
100
AcDbEntity
  8
0
100
AcDbLine
 10
-183.6579548010922
 20
199.930052
 30
0.0
 11
-175.6579548010922
 21
199.930052
 31
0.0
  0
LINE
  5
1A4
330
36
100
AcDbEntity
  8
0
100
AcDbLine
 10
-177.1579548010922
 20
202.130052
 30
0.0
 11
-177.1579548010922
 21
203.880052
 31
0.0
  0
LINE
  5
1A5
330
36
100
AcDbEntity
  8
0
100
AcDbLine
 10
-182.1579548010921
 20
203.880052
 30
0.0
 11
-177.1579548010922
 21
203.880052
 31
0.0
  0
LINE
  5
1A6
330
36
100
AcDbEntity
  8
0
100
AcDbLine
 10
-182.1579548010921
 20
202.130052
 30
0.0
 11
-182.1579548010921
 21
203.880052
 31
0.0
  0
LINE
  5
1A7
330
36
100
AcDbEntity
  8
0
100
AcDbLine
 10
-182.1579548010921
 20
202.130052
 30
0.0
 11
-177.1579548010922
 21
202.130052
 31
0.0
  0
LINE
  5
1AC
330
36
100
AcDbEntity
  8
0
100
AcDbLine
 10
-181.9079548010922
 20
210.230052
 30
0.0
 11
-177.4079548010922
 21
210.230052
 31
0.0
  0
LINE
  5
1AD
330
36
100
AcDbEntity
  8
0
100
AcDbLine
 10
-181.9079548010922
 20
210.230052
 30
0.0
 11
-181.9079548010922
 21
208.480052
 31
0.0
  0
LINE
  5
1AE
330
36
100
AcDbEntity
  8
0
100
AcDbLine
 10
-181.9079548010922
 20
208.480052
 30
0.0
 11
-177.4079548010922
 21
208.480052
 31
0.0
  0
LINE
  5
1AF
330
36
100
AcDbEntity
  8
0
100
AcDbLine
 10
-177.4079548010922
 20
210.230052
 30
0.0
 11
-177.4079548010922
 21
208.480052
 31
0.0
  0
LINE
  5
1B2
330
36
100
AcDbEntity
  8
0
100
AcDbLine
 10
-177.4079548010922
 20
203.630052
 30
0.0
 11
-177.1579548010922
 21
203.880052
 31
0.0
  0
LINE
  5
1B3
330
36
100
AcDbEntity
  8
0
100
AcDbLine
 10
-177.4079548010922
 20
202.380052
 30
0.0
 11
-177.1579548010922
 21
202.130052
 31
0.0
  0
LINE
  5
1B4
330
36
100
AcDbEntity
  8
0
100
AcDbLine
 10
-181.9079548010922
 20
202.380052
 30
0.0
 11
-182.1579548010921
 21
202.130052
 31
0.0
  0
LINE
  5
1B5
330
36
100
AcDbEntity
  8
0
100
AcDbLine
 10
-181.9079548010922
 20
203.630052
 30
0.0
 11
-182.1579548010921
 21
203.880052
 31
0.0
  0
LINE
  5
1B6
330
36
100
AcDbEntity
  8
0
100
AcDbLine
 10
-181.6579548010922
 20
208.730052
 30
0.0
 11
-181.9079548010922
 21
208.480052
 31
0.0
  0
LINE
  5
1B7
330
36
100
AcDbEntity
  8
0
100
AcDbLine
 10
-181.6579548010922
 20
209.980052
 30
0.0
 11
-181.9079548010922
 21
210.230052
 31
0.0
  0
LINE
  5
1B8
330
36
100
AcDbEntity
  8
0
100
AcDbLine
 10
-177.6579548010922
 20
209.980052
 30
0.0
 11
-177.4079548010922
 21
210.230052
 31
0.0
  0
LINE
  5
1B9
330
36
100
AcDbEntity
  8
0
100
AcDbLine
 10
-177.6579548010922
 20
208.730052
 30
0.0
 11
-177.4079548010922
 21
208.480052
 31
0.0
  0
LINE
  5
1BA
330
36
100
AcDbEntity
  8
0
100
AcDbLine
 10
-181.6579548010922
 20
209.980052
 30
0.0
 11
-181.6579548010922
 21
208.730052
 31
0.0
  0
LINE
  5
1BB
330
36
100
AcDbEntity
  8
0
100
AcDbLine
 10
-181.6579548010922
 20
209.980052
 30
0.0
 11
-177.6579548010922
 21
209.980052
 31
0.0
  0
LINE
  5
1BC
330
36
100
AcDbEntity
  8
0
100
AcDbLine
 10
-181.6579548010922
 20
208.730052
 30
0.0
 11
-177.6579548010922
 21
208.730052
 31
0.0
  0
LINE
  5
1BD
330
36
100
AcDbEntity
  8
0
100
AcDbLine
 10
-177.6579548010922
 20
209.980052
 30
0.0
 11
-177.6579548010922
 21
208.730052
 31
0.0
  0
LINE
  5
1BE
330
36
100
AcDbEntity
  8
0
100
AcDbLine
 10
-181.9079548010922
 20
203.630052
 30
0.0
 11
-177.4079548010922
 21
203.630052
 31
0.0
  0
LINE
  5
1BF
330
36
100
AcDbEntity
  8
0
100
AcDbLine
 10
-181.9079548010922
 20
202.380052
 30
0.0
 11
-177.4079548010922
 21
202.380052
 31
0.0
  0
LINE
  5
1C0
330
36
100
AcDbEntity
  8
0
100
AcDbLine
 10
-181.9079548010922
 20
202.380052
 30
0.0
 11
-181.9079548010922
 21
203.630052
 31
0.0
  0
LINE
  5
1C1
330
36
100
AcDbEntity
  8
0
100
AcDbLine
 10
-177.4079548010922
 20
202.380052
 30
0.0
 11
-177.4079548010922
 21
203.630052
 31
0.0
  0
LINE
  5
1C6
330
36
100
AcDbEntity
  8
0
100
AcDbLine
 10
-184.1579548010922
 20
212.930052
 30
0.0
 11
-175.1579548010922
 21
212.930052
 31
0.0
  0
LINE
  5
1C7
330
36
100
AcDbEntity
  8
0
100
AcDbLine
 10
-184.1579548010922
 20
199.430052
 30
0.0
 11
-184.1579548010922
 21
212.930052
 31
0.0
  0
LINE
  5
1C8
330
36
100
AcDbEntity
  8
0
100
AcDbLine
 10
-184.1579548010922
 20
199.430052
 30
0.0
 11
-175.1579548010921
 21
199.4300519999999
 31
0.0
  0
LINE
  5
1CD
330
36
100
AcDbEntity
  8
0
100
AcDbLine
 10
-70.496829
 20
50.273226
 30
0.0
 11
5.972483
 21
50.273226
 31
0.0
  0
LINE
  5
1CE
330
36
100
AcDbEntity
  8
0
 62
     3
100
AcDbLine
 10
-70.496829
 20
43.553226
 30
0.0
 11
5.972483
 21
43.553226
 31
0.0
  0
TEXT
  5
1CF
330
36
100
AcDbEntity
  8
0
 62
     3
100
AcDbText
 10
-66.898374
 20
44.98287799999999
 30
0.0
 40
3.2
  1
速度調節範囲
  7
高3.2
100
AcDbText
  0
TEXT
  5
1D0
330
36
100
AcDbEntity
  8
0
 62
     3
100
AcDbText
 10
-32.027598
 20
44.690218
 30
0.0
 40
3.2
  1
－20%%%～-90%%%
  7
高3.2
100
AcDbText
  0
TEXT
  5
1D1
330
36
100
AcDbEntity
  8
0
 62
     3
100
AcDbText
 10
-293.0748709999999
 20
228.76216
 30
0.0
 40
3.2
  1
（ヒューズ　１５Ａ）
 41
0.833333
100
AcDbText
  0
TEXT
  5
1D2
330
36
100
AcDbEntity
  8
0
 62
     3
100
AcDbText
 10
-57.321716
 20
1.090298999999999
 30
0.0
 40
4.5
  1
SH-032
  7
高4.5
100
AcDbText
  0
TEXT
  5
1D3
330
36
100
AcDbEntity
  8
0
 62
     3
100
AcDbText
 10
-1.715088999999999
 20
-11.871188
 30
0.0
 40
3.2
  1
2006.7.30
  7
高3.2
100
AcDbText
  0
TEXT
  5
1D8
330
36
100
AcDbEntity
  8
0
 62
     3
100
AcDbText
 10
-12.73131089990761
 20
-22.34619612700567
 30
0.0
 40
6.299999999999998
  1
SH-032
  7
高6.3
100
AcDbText
  0
LINE
  5
1D9
330
36
100
AcDbEntity
  8
0
 62
     3
100
AcDbLine
 10
-247.1481220000001
 20
111.954298
 30
0.0
 11
-247.1481220000001
 21
125.454298
 31
0.0
  0
ARC
  5
1DA
330
36
100
AcDbEntity
  8
0
 62
     3
100
AcDbCircle
 10
-249.6481220000001
 20
117.640257
 30
0.0
 40
2.5
100
AcDbArc
 50
0.0
 51
90.0
  0
LINE
  5
1DB
330
36
100
AcDbEntity
  8
0
 62
     3
100
AcDbLine
 10
-249.6481220000001
 20
120.140257
 30
0.0
 11
-252.148122
 21
120.140257
 31
0.0
  0
LINE
  5
1DC
330
36
100
AcDbEntity
  8
0
 62
     3
100
AcDbLine
 10
-270.524007
 20
118.159071
 30
0.0
 11
-252.148122
 21
120.140257
 31
0.0
  0
ARC
  5
1DD
330
36
100
AcDbEntity
  8
0
 62
     3
100
AcDbCircle
 10
-249.6481220000001
 20
111.954298
 30
0.0
 40
2.5
100
AcDbArc
 50
318.555703
 51
0.0
  0
ARC
  5
1DE
330
36
100
AcDbEntity
  8
0
 62
     3
100
AcDbCircle
 10
-249.6481220000001
 20
111.954298
 30
0.0
 40
2.5
100
AcDbArc
 50
270.0
 51
318.555703
  0
LINE
  5
1DF
330
36
100
AcDbEntity
  8
0
 62
     3
100
AcDbLine
 10
-230.9011250000001
 20
109.454298
 30
0.0
 11
-237.1481220000001
 21
109.454298
 31
0.0
  0
ARC
  5
1E0
330
36
100
AcDbEntity
  8
0
 62
     3
100
AcDbCircle
 10
-230.9011250000001
 20
110.7073
 30
0.0
 40
1.253001999999999
100
AcDbArc
 50
270.0
 51
25.149305
  0
LINE
  5
1E1
330
36
100
AcDbEntity
  8
0
 62
     3
100
AcDbLine
 10
-229.766903
 20
111.239799
 30
0.0
 11
-229.976883
 21
111.687057
 31
0.0
  0
ARC
  5
1E2
330
36
100
AcDbEntity
  8
0
 62
     3
100
AcDbCircle
 10
-227.148122
 20
113.015115
 30
0.0
 40
3.125
100
AcDbArc
 50
180.0
 51
205.149305
  0
ARC
  5
1E3
330
36
100
AcDbEntity
  8
0
 62
     3
100
AcDbCircle
 10
-227.148122
 20
113.515115
 30
0.0
 40
3.125
100
AcDbArc
 50
0.0
 51
180.0
  0
LINE
  5
1E4
330
36
100
AcDbEntity
  8
0
 62
     3
100
AcDbLine
 10
-224.529342
 20
111.239799
 30
0.0
 11
-224.319362
 21
111.687057
 31
0.0
  0
ARC
  5
1E5
330
36
100
AcDbEntity
  8
0
 62
     3
100
AcDbCircle
 10
-227.148122
 20
113.015115
 30
0.0
 40
3.125
100
AcDbArc
 50
334.850695
 51
0.0
  0
ARC
  5
1E6
330
36
100
AcDbEntity
  8
0
 62
     3
100
AcDbCircle
 10
-223.39512
 20
110.7073
 30
0.0
 40
1.253001999999999
100
AcDbArc
 50
154.850695
 51
270.0
  0
LINE
  5
1E7
330
36
100
AcDbEntity
  8
0
 62
     3
100
AcDbLine
 10
-223.39512
 20
109.454298
 30
0.0
 11
-212.1481220000001
 21
109.454298
 31
0.0
  0
LINE
  5
1E8
330
36
100
AcDbEntity
  8
0
 62
     3
100
AcDbLine
 10
-200.901125
 20
109.454298
 30
0.0
 11
-212.1481220000001
 21
109.454298
 31
0.0
  0
ARC
  5
1E9
330
36
100
AcDbEntity
  8
0
 62
     3
100
AcDbCircle
 10
-200.901125
 20
110.7073
 30
0.0
 40
1.253001999999999
100
AcDbArc
 50
270.0
 51
25.149305
  0
LINE
  5
1EA
330
36
100
AcDbEntity
  8
0
 62
     3
100
AcDbLine
 10
-199.766903
 20
111.239799
 30
0.0
 11
-199.976883
 21
111.687057
 31
0.0
  0
ARC
  5
1EB
330
36
100
AcDbEntity
  8
0
 62
     3
100
AcDbCircle
 10
-197.148122
 20
113.015115
 30
0.0
 40
3.125
100
AcDbArc
 50
180.0
 51
205.149305
  0
ARC
  5
1EC
330
36
100
AcDbEntity
  8
0
 62
     3
100
AcDbCircle
 10
-197.148122
 20
113.515115
 30
0.0
 40
3.125
100
AcDbArc
 50
0.0
 51
180.0
  0
LINE
  5
1ED
330
36
100
AcDbEntity
  8
0
 62
     3
100
AcDbLine
 10
-194.023122
 20
113.515115
 30
0.0
 11
-194.023122
 21
113.029351
 31
0.0
  0
ARC
  5
1EE
330
36
100
AcDbEntity
  8
0
 62
     3
100
AcDbCircle
 10
-197.148122
 20
113.015115
 30
0.0
 40
3.125
100
AcDbArc
 50
334.850695
 51
0.0
  0
LINE
  5
1EF
330
36
100
AcDbEntity
  8
0
 62
     3
100
AcDbLine
 10
-194.529342
 20
111.239799
 30
0.0
 11
-194.319362
 21
111.687057
 31
0.0
  0
ARC
  5
1F0
330
36
100
AcDbEntity
  8
0
 62
     3
100
AcDbCircle
 10
-193.39512
 20
110.7073
 30
0.0
 40
1.253001999999999
100
AcDbArc
 50
154.850695
 51
270.0
  0
LINE
  5
1F1
330
36
100
AcDbEntity
  8
0
 62
     3
100
AcDbLine
 10
-193.39512
 20
109.454298
 30
0.0
 11
-187.148122
 21
109.454298
 31
0.0
  0
LINE
  5
1F2
330
36
100
AcDbEntity
  8
0
 62
     3
100
AcDbLine
 10
-200.273122
 20
113.515115
 30
0.0
 11
-200.273122
 21
113.015115
 31
0.0
  0
ARC
  5
1F3
330
36
100
AcDbEntity
  8
0
 62
     3
100
AcDbCircle
 10
-187.148122
 20
130.454298
 30
0.0
 40
21.0
100
AcDbArc
 50
270.0
 51
291.86529
  0
ARC
  5
1F4
330
36
100
AcDbEntity
  8
0
 62
     3
100
AcDbCircle
 10
-178.39612
 20
108.64484
 30
0.0
 40
2.5
100
AcDbArc
 50
41.44429699999998
 51
111.8652899999999
  0
ARC
  5
1F5
330
36
100
AcDbEntity
  8
0
 62
     3
100
AcDbCircle
 10
-174.648122
 20
111.954298
 30
0.0
 40
2.5
100
AcDbArc
 50
221.444297
 51
270.0
  0
LINE
  5
1F6
330
36
100
AcDbEntity
  8
0
 62
     3
100
AcDbLine
 10
-127.148122
 20
109.454298
 30
0.0
 11
-174.648122
 21
109.454298
 31
0.0
  0
ARC
  5
1F7
330
36
100
AcDbEntity
  8
0
 62
     3
100
AcDbCircle
 10
-127.148122
 20
111.954298
 30
0.0
 40
2.5
100
AcDbArc
 50
270.0
 51
0.0
  0
LINE
  5
1F8
330
36
100
AcDbEntity
  8
0
 62
     3
100
AcDbLine
 10
-124.648122
 20
114.121091
 30
0.0
 11
-124.648122
 21
111.954298
 31
0.0
  0
ARC
  5
1F9
330
36
100
AcDbEntity
  8
0
 62
     3
100
AcDbCircle
 10
-125.648122
 20
114.121091
 30
0.0
 40
1.0
100
AcDbArc
 50
0.0
 51
83.84645799999999
  0
LINE
  5
1FA
330
36
100
AcDbEntity
  8
0
 62
     3
100
AcDbLine
 10
-177.148122
 20
125.454298
 30
0.0
 11
-177.148122
 21
111.954298
 31
0.0
  0
ARC
  5
1FB
330
36
100
AcDbEntity
  8
0
 62
     3
100
AcDbCircle
 10
-174.648122
 20
117.640257
 30
0.0
 40
2.5
100
AcDbArc
 50
90.0
 51
180.0
  0
LINE
  5
1FC
330
36
100
AcDbEntity
  8
0
 62
     3
100
AcDbLine
 10
-174.648122
 20
120.140257
 30
0.0
 11
-172.148122
 21
120.140257
 31
0.0
  0
LINE
  5
1FD
330
36
100
AcDbEntity
  8
0
 62
     3
100
AcDbLine
 10
-125.540929
 20
115.115329
 30
0.0
 11
-172.148122
 21
120.140257
 31
0.0
  0
ARC
  5
1FE
330
36
100
AcDbEntity
  8
0
 62
     3
100
AcDbCircle
 10
-174.648122
 20
111.954298
 30
0.0
 40
2.5
100
AcDbArc
 50
180.0
 51
221.444297
  0
LINE
  5
1FF
330
36
100
AcDbEntity
  8
0
 62
     3
100
AcDbLine
 10
-182.148122
 20
120.454298
 30
0.0
 11
-191.747508
 21
120.454298
 31
0.0
  0
ARC
  5
200
330
36
100
AcDbEntity
  8
0
 62
     3
100
AcDbCircle
 10
-196.923122
 20
112.48793
 30
0.0
 40
9.5
100
AcDbArc
 50
56.98890200000001
 51
86.49096
  0
LINE
  5
201
330
36
100
AcDbEntity
  8
0
 62
     3
100
AcDbLine
 10
-200.948103
 20
121.998342
 30
0.0
 11
-197.937394
 21
121.998342
 31
0.0
  0
ARC
  5
202
330
36
100
AcDbEntity
  8
0
 62
     3
100
AcDbCircle
 10
-197.373122
 20
112.515115
 30
0.0
 40
9.5
100
AcDbArc
 50
86.59479899999999
 51
93.40520099999999
  0
ARC
  5
203
330
36
100
AcDbEntity
  8
0
 62
     3
100
AcDbCircle
 10
-200.948103
 20
116.998342
 30
0.0
 40
5.0
100
AcDbArc
 50
90.0
 51
115.5947679999999
  0
ARC
  5
204
330
36
100
AcDbEntity
  8
0
 62
     3
100
AcDbCircle
 10
-212.1481220000001
 20
140.380066
 30
0.0
 40
20.925768
100
AcDbArc
 50
270.684529
 51
295.594768
  0
ARC
  5
205
330
36
100
AcDbEntity
  8
0
 62
     3
100
AcDbCircle
 10
-212.1481220000001
 20
140.380066
 30
0.0
 40
20.925768
100
AcDbArc
 50
244.405232
 51
270.684529
  0
ARC
  5
206
330
36
100
AcDbEntity
  8
0
 62
     3
100
AcDbCircle
 10
-223.348142
 20
116.998342
 30
0.0
 40
5.0
100
AcDbArc
 50
64.40523200000001
 51
90.0
  0
LINE
  5
207
330
36
100
AcDbEntity
  8
0
 62
     3
100
AcDbLine
 10
-223.348142
 20
121.998342
 30
0.0
 11
-226.358851
 21
121.998342
 31
0.0
  0
ARC
  5
208
330
36
100
AcDbEntity
  8
0
 62
     3
100
AcDbCircle
 10
-212.1481220000001
 20
-135.7957019999999
 30
0.0
 40
258.25
100
AcDbArc
 50
93.40520099999999
 51
93.50903999999998
  0
ARC
  5
209
330
36
100
AcDbEntity
  8
0
 62
     3
100
AcDbCircle
 10
-226.923122
 20
112.515115
 30
0.0
 40
9.5
100
AcDbArc
 50
86.59479899999999
 51
93.40520099999999
  0
ARC
  5
20A
330
36
100
AcDbEntity
  8
0
 62
     3
100
AcDbCircle
 10
-227.3731220000001
 20
112.48793
 30
0.0
 40
9.5
100
AcDbArc
 50
93.50903999999998
 51
123.011098
  0
LINE
  5
20B
330
36
100
AcDbEntity
  8
0
 62
     3
100
AcDbLine
 10
-242.148122
 20
120.454298
 30
0.0
 11
-232.548736
 21
120.454298
 31
0.0
  0
ARC
  5
20C
330
36
100
AcDbEntity
  8
0
 62
     3
100
AcDbCircle
 10
-242.148122
 20
125.454298
 30
0.0
 40
5.0
100
AcDbArc
 50
180.0
 51
270.0
  0
LINE
  5
20D
330
36
100
AcDbEntity
  8
0
 62
     3
100
AcDbLine
 10
-247.1481220000001
 20
125.454298
 30
0.0
 11
-247.1481220000001
 21
133.898342
 31
0.0
  0
ARC
  5
20E
330
36
100
AcDbEntity
  8
0
 62
     3
100
AcDbCircle
 10
-244.6481220000001
 20
133.898342
 30
0.0
 40
2.5
100
AcDbArc
 50
90.0
 51
180.0
  0
LINE
  5
20F
330
36
100
AcDbEntity
  8
0
 62
     3
100
AcDbLine
 10
-212.1481220000001
 20
136.398342
 30
0.0
 11
-244.6481220000001
 21
136.398342
 31
0.0
  0
LINE
  5
210
330
36
100
AcDbEntity
  8
0
 62
     3
100
AcDbLine
 10
-179.648122
 20
136.398342
 30
0.0
 11
-212.1481220000001
 21
136.398342
 31
0.0
  0
ARC
  5
211
330
36
100
AcDbEntity
  8
0
 62
     3
100
AcDbCircle
 10
-179.648122
 20
133.898342
 30
0.0
 40
2.5
100
AcDbArc
 50
0.0
 51
90.0
  0
LINE
  5
212
330
36
100
AcDbEntity
  8
0
 62
     3
100
AcDbLine
 10
-177.148122
 20
133.898342
 30
0.0
 11
-177.148122
 21
125.454298
 31
0.0
  0
ARC
  5
213
330
36
100
AcDbEntity
  8
0
 62
     3
100
AcDbCircle
 10
-182.148122
 20
125.454298
 30
0.0
 40
5.0
100
AcDbArc
 50
270.0
 51
0.0
  0
LINE
  5
214
330
36
100
AcDbEntity
  8
0
 62
     3
100
AcDbLine
 10
-161.148122
 20
154.475504
 30
0.0
 11
-161.148122
 21
123.444202
 31
0.0
  0
LINE
  5
215
330
36
100
AcDbEntity
  8
0
 62
     3
100
AcDbLine
 10
-156.272237
 20
159.491099
 30
0.0
 11
-125.540929
 21
162.804377
 31
0.0
  0
ARC
  5
216
330
36
100
AcDbEntity
  8
0
 62
     3
100
AcDbCircle
 10
-125.648122
 20
163.798615
 30
0.0
 40
1.0
100
AcDbArc
 50
276.153542
 51
0.0
  0
LINE
  5
217
330
36
100
AcDbEntity
  8
0
 62
     3
100
AcDbLine
 10
-124.648122
 20
163.780773
 30
0.0
 11
-124.648122
 21
165.965408
 31
0.0
  0
ARC
  5
218
330
36
100
AcDbEntity
  8
0
 62
     3
100
AcDbCircle
 10
-127.148122
 20
165.965408
 30
0.0
 40
2.5
100
AcDbArc
 50
0.0
 51
90.0
  0
LINE
  5
219
330
36
100
AcDbEntity
  8
0
 62
     3
100
AcDbLine
 10
-156.272237
 20
168.465408
 30
0.0
 11
-127.148122
 21
168.465408
 31
0.0
  0
LINE
  5
21A
330
36
100
AcDbEntity
  8
0
 62
     3
100
AcDbLine
 10
-156.272237
 20
168.465408
 30
0.0
 11
-212.1481220000001
 21
168.465408
 31
0.0
  0
ARC
  5
21B
330
36
100
AcDbEntity
  8
0
 62
     3
100
AcDbCircle
 10
-297.1481220000001
 20
165.965408
 30
0.0
 40
2.5
100
AcDbArc
 50
90.0
 51
180.0
  0
LINE
  5
21C
330
36
100
AcDbEntity
  8
0
 62
     3
100
AcDbLine
 10
-299.6481220000001
 20
163.780773
 30
0.0
 11
-299.6481220000001
 21
165.965408
 31
0.0
  0
ARC
  5
21D
330
36
100
AcDbEntity
  8
0
 62
     3
100
AcDbCircle
 10
-298.6481220000001
 20
163.798615
 30
0.0
 40
1.0
100
AcDbArc
 50
180.0
 51
263.846458
  0
LINE
  5
21E
330
36
100
AcDbEntity
  8
0
 62
     3
100
AcDbLine
 10
-298.755316
 20
162.804377
 30
0.0
 11
-294.6481220000001
 21
162.361562
 31
0.0
  0
LINE
  5
21F
330
36
100
AcDbEntity
  8
0
 62
     3
100
AcDbLine
 10
-294.6481220000001
 20
115.558144
 30
0.0
 11
-270.524007
 21
118.159071
 31
0.0
  0
LINE
  5
220
330
36
100
AcDbEntity
  8
0
 62
     3
100
AcDbLine
 10
-298.755316
 20
115.115329
 30
0.0
 11
-294.6481220000001
 21
115.558144
 31
0.0
  0
ARC
  5
221
330
36
100
AcDbEntity
  8
0
 62
     3
100
AcDbCircle
 10
-298.6481220000001
 20
114.121091
 30
0.0
 40
1.0
100
AcDbArc
 50
96.15354199999998
 51
180.0
  0
LINE
  5
222
330
36
100
AcDbEntity
  8
0
 62
     3
100
AcDbLine
 10
-299.6481220000001
 20
114.121091
 30
0.0
 11
-299.6481220000001
 21
111.954298
 31
0.0
  0
ARC
  5
223
330
36
100
AcDbEntity
  8
0
 62
     3
100
AcDbCircle
 10
-297.1481220000001
 20
111.954298
 30
0.0
 40
2.5
100
AcDbArc
 50
180.0
 51
270.0
  0
LINE
  5
224
330
36
100
AcDbEntity
  8
0
 62
     3
100
AcDbLine
 10
-249.6481220000001
 20
109.454298
 30
0.0
 11
-297.1481220000001
 21
109.454298
 31
0.0
  0
ARC
  5
225
330
36
100
AcDbEntity
  8
0
 62
     3
100
AcDbCircle
 10
-268.1481220000001
 20
123.444202
 30
0.0
 40
5.0
100
AcDbArc
 50
276.153542
 51
0.0
  0
LINE
  5
226
330
36
100
AcDbEntity
  8
0
 62
     3
100
AcDbLine
 10
-263.1481220000001
 20
123.444202
 30
0.0
 11
-263.1481220000001
 21
154.509818
 31
0.0
  0
ARC
  5
227
330
36
100
AcDbEntity
  8
0
 62
     3
100
AcDbCircle
 10
-268.147994
 20
154.509818
 30
0.0
 40
5.0
100
AcDbArc
 50
0.0
 51
77.148061
  0
ARC
  5
228
330
36
100
AcDbEntity
  8
0
 62
     3
100
AcDbCircle
 10
-245.900125
 20
108.64484
 30
0.0
 40
2.5
100
AcDbArc
 50
68.13470999999998
 51
138.5557029999999
  0
ARC
  5
229
330
36
100
AcDbEntity
  8
0
 62
     3
100
AcDbCircle
 10
-237.1481220000001
 20
130.454298
 30
0.0
 40
21.0
100
AcDbArc
 50
248.13471
 51
270.0
  0
ARC
  5
22A
330
36
100
AcDbEntity
  8
0
 62
     3
100
AcDbCircle
 10
-136.648122
 20
209.064895
 30
0.0
 40
12.0
100
AcDbArc
 50
0.0
 51
86.79519599999997
  0
LINE
  5
22B
330
36
100
AcDbEntity
  8
0
 62
     3
100
AcDbLine
 10
-124.648122
 20
209.064895
 30
0.0
 11
-124.648122
 21
206.176969
 31
0.0
  0
ARC
  5
22C
330
36
100
AcDbEntity
  8
0
 62
     3
100
AcDbCircle
 10
-212.148122
 20
-1139.323031
 30
0.0
 40
1362.5
100
AcDbArc
 50
86.79519599999997
 51
93.204804
  0
ARC
  5
22D
330
36
100
AcDbEntity
  8
0
 62
     3
100
AcDbCircle
 10
-212.148122
 20
1551.676969
 30
0.0
 40
1362.5
100
AcDbArc
 50
266.795196
 51
273.204804
  0
ARC
  5
22E
330
36
100
AcDbEntity
  8
0
 62
     3
100
AcDbCircle
 10
-172.148122
 20
78.47249800000003
 30
0.0
 40
5.0
100
AcDbArc
 50
88.31148199999999
 51
180.0
  0
LINE
  5
22F
330
36
100
AcDbEntity
  8
0
 62
     3
100
AcDbLine
 10
-124.648122
 20
64.17401900000001
 30
0.0
 11
-124.648122
 21
67.06194500000002
 31
0.0
  0
ARC
  5
230
330
36
100
AcDbEntity
  8
0
 62
     3
100
AcDbCircle
 10
-136.648122
 20
64.17401900000001
 30
0.0
 40
12.0
100
AcDbArc
 50
273.204804
 51
0.0
  0
ARC
  5
231
330
36
100
AcDbEntity
  8
0
 62
     3
100
AcDbCircle
 10
-136.648122
 20
69.94987100000003
 30
0.0
 40
12.0
100
AcDbArc
 50
0.0
 51
86.79519599999997
  0
ARC
  5
232
330
36
100
AcDbEntity
  8
0
 62
     3
100
AcDbCircle
 10
-181.148122
 20
78.56194500000004
 30
0.0
 40
4.0
100
AcDbArc
 50
270.0
 51
0.0
  0
LINE
  5
233
330
36
100
AcDbEntity
  8
0
 62
     3
100
AcDbLine
 10
-247.1481220000001
 20
79.56194500000004
 30
0.0
 11
-177.02799
 21
79.56194500000004
 31
0.0
  0
ARC
  5
234
330
36
100
AcDbEntity
  8
0
 62
     3
100
AcDbCircle
 10
-243.1481220000001
 20
78.56194500000004
 30
0.0
 40
4.0
100
AcDbArc
 50
180.0
 51
270.0
  0
ARC
  5
235
330
36
100
AcDbEntity
  8
0
 62
     3
100
AcDbCircle
 10
-252.1481220000001
 20
78.47249800000003
 30
0.0
 40
5.0
100
AcDbArc
 50
0.0
 51
91.68851799999996
  0
ARC
  5
236
330
36
100
AcDbEntity
  8
0
 62
     3
100
AcDbCircle
 10
-212.1481220000001
 20
-1278.438055
 30
0.0
 40
1362.5
100
AcDbArc
 50
86.79519599999997
 51
93.20480399999999
  0
ARC
  5
237
330
36
100
AcDbEntity
  8
0
 62
     3
100
AcDbCircle
 10
-287.648122
 20
69.94987100000003
 30
0.0
 40
12.0
100
AcDbArc
 50
93.20480399999999
 51
180.0
  0
ARC
  5
238
330
36
100
AcDbEntity
  8
0
 62
     3
100
AcDbCircle
 10
-212.1481220000001
 20
1412.561945
 30
0.0
 40
1362.5
100
AcDbArc
 50
266.795196
 51
273.204804
  0
LINE
  5
239
330
36
100
AcDbEntity
  8
0
 62
     3
100
AcDbLine
 10
-299.6481220000001
 20
64.17401900000001
 30
0.0
 11
-299.6481220000001
 21
69.94987100000003
 31
0.0
  0
ARC
  5
23A
330
36
100
AcDbEntity
  8
0
 62
     3
100
AcDbCircle
 10
-287.648122
 20
64.17401900000001
 30
0.0
 40
12.0
100
AcDbArc
 50
180.0
 51
266.795196
  0
ARC
  5
23B
330
36
100
AcDbEntity
  8
0
 62
     3
100
AcDbCircle
 10
-287.648122
 20
203.289042
 30
0.0
 40
12.0
100
AcDbArc
 50
180.0
 51
266.795196
  0
LINE
  5
23C
330
36
100
AcDbEntity
  8
0
 62
     3
100
AcDbLine
 10
-299.648122
 20
203.289042
 30
0.0
 11
-299.648122
 21
206.176969
 31
0.0
  0
ARC
  5
23D
330
36
100
AcDbEntity
  8
0
 62
     3
100
AcDbCircle
 10
-287.648122
 20
209.064895
 30
0.0
 40
12.0
100
AcDbArc
 50
93.204804
 51
180.0
  0
LINE
  5
23E
330
36
100
AcDbEntity
  8
0
 62
     3
100
AcDbLine
 10
-299.648122
 20
209.064895
 30
0.0
 11
-299.648122
 21
206.176969
 31
0.0
  0
ARC
  5
23F
330
36
100
AcDbEntity
  8
0
 62
     3
100
AcDbCircle
 10
-156.148122
 20
154.475504
 30
0.0
 40
5.0
100
AcDbArc
 50
100.798319
 51
180.0
  0
ARC
  5
240
330
36
100
AcDbEntity
  8
0
 62
     3
100
AcDbCircle
 10
-156.148122
 20
123.444202
 30
0.0
 40
5.0
100
AcDbArc
 50
180.0
 51
259.201681
  0
LINE
  5
241
330
36
100
AcDbEntity
  8
0
 62
     3
100
AcDbLine
 10
-172.148122
 20
157.779449
 30
0.0
 11
-156.272237
 21
159.491099
 31
0.0
  0
LINE
  5
242
330
36
100
AcDbEntity
  8
0
 62
     3
100
AcDbLine
 10
-212.1481220000001
 20
157.779449
 30
0.0
 11
-172.148122
 21
157.779449
 31
0.0
  0
LINE
  5
243
330
36
100
AcDbEntity
  8
0
 62
     3
100
AcDbLine
 10
-212.1481220000001
 20
157.779449
 30
0.0
 11
-252.148122
 21
157.779449
 31
0.0
  0
LINE
  5
244
330
36
100
AcDbEntity
  8
0
 62
     3
100
AcDbLine
 10
-229.6481220000001
 20
66.81194500000002
 30
0.0
 11
-229.6481220000001
 21
59.81194500000001
 31
0.0
  0
LINE
  5
245
330
36
100
AcDbEntity
  8
0
 62
     3
100
AcDbLine
 10
-229.6481220000001
 20
67.311945
 30
0.0
 11
-229.6481220000001
 21
74.31194500000003
 31
0.0
  0
LINE
  5
246
330
36
100
AcDbEntity
  8
0
 62
     3
100
AcDbLine
 10
-224.6481220000001
 20
67.311945
 30
0.0
 11
-224.6481220000001
 21
74.31194500000003
 31
0.0
  0
LINE
  5
247
330
36
100
AcDbEntity
  8
0
 62
     3
100
AcDbLine
 10
-224.6481220000001
 20
66.81194500000002
 30
0.0
 11
-224.6481220000001
 21
59.81194500000001
 31
0.0
  0
ARC
  5
248
330
36
100
AcDbEntity
  8
0
 62
     3
100
AcDbCircle
 10
-224.3981220000001
 20
59.81194500000001
 30
0.0
 40
0.25
100
AcDbArc
 50
180.0
 51
270.0
  0
ARC
  5
249
330
36
100
AcDbEntity
  8
0
 62
     3
100
AcDbCircle
 10
-229.8981220000001
 20
59.81194500000001
 30
0.0
 40
0.25
100
AcDbArc
 50
270.0
 51
0.0
  0
ARC
  5
24A
330
36
100
AcDbEntity
  8
0
 62
     3
100
AcDbCircle
 10
-224.3981220000001
 20
74.31194500000003
 30
0.0
 40
0.25
100
AcDbArc
 50
90.0
 51
180.0
  0
ARC
  5
24B
330
36
100
AcDbEntity
  8
0
 62
     3
100
AcDbCircle
 10
-229.8981220000001
 20
74.31194500000003
 30
0.0
 40
0.25
100
AcDbArc
 50
0.0
 51
90.0
  0
LINE
  5
24C
330
36
100
AcDbEntity
  8
0
 62
     3
100
AcDbLine
 10
-194.648122
 20
66.81194500000002
 30
0.0
 11
-194.648122
 21
59.81194500000001
 31
0.0
  0
LINE
  5
24D
330
36
100
AcDbEntity
  8
0
 62
     3
100
AcDbLine
 10
-199.648122
 20
66.81194500000002
 30
0.0
 11
-199.648122
 21
59.81194500000001
 31
0.0
  0
ARC
  5
24E
330
36
100
AcDbEntity
  8
0
 62
     3
100
AcDbCircle
 10
-199.898122
 20
59.81194500000001
 30
0.0
 40
0.25
100
AcDbArc
 50
270.0
 51
0.0
  0
ARC
  5
24F
330
36
100
AcDbEntity
  8
0
 62
     3
100
AcDbCircle
 10
-194.398122
 20
59.81194500000001
 30
0.0
 40
0.25
100
AcDbArc
 50
180.0
 51
270.0
  0
LINE
  5
250
330
36
100
AcDbEntity
  8
0
 62
     3
100
AcDbLine
 10
-194.648122
 20
67.311945
 30
0.0
 11
-194.648122
 21
74.31194500000003
 31
0.0
  0
ARC
  5
251
330
36
100
AcDbEntity
  8
0
 62
     3
100
AcDbCircle
 10
-194.398122
 20
74.31194500000003
 30
0.0
 40
0.25
100
AcDbArc
 50
90.0
 51
180.0
  0
ARC
  5
252
330
36
100
AcDbEntity
  8
0
 62
     3
100
AcDbCircle
 10
-199.898122
 20
74.31194500000003
 30
0.0
 40
0.25
100
AcDbArc
 50
0.0
 51
90.0
  0
LINE
  5
253
330
36
100
AcDbEntity
  8
0
 62
     3
100
AcDbLine
 10
-199.648122
 20
67.311945
 30
0.0
 11
-199.648122
 21
74.31194500000003
 31
0.0
  0
LINE
  5
254
330
36
100
AcDbEntity
  8
0
 62
     3
100
AcDbLine
 10
-199.90684
 20
66.81194500000002
 30
0.0
 11
-199.90684
 21
67.311945
 31
0.0
  0
LINE
  5
255
330
36
100
AcDbEntity
  8
0
 62
     3
100
AcDbLine
 10
-194.389404
 20
66.81194500000002
 30
0.0
 11
-194.389404
 21
67.311945
 31
0.0
  0
LINE
  5
256
330
36
100
AcDbEntity
  8
0
 62
     3
100
AcDbLine
 10
-229.90684
 20
67.311945
 30
0.0
 11
-229.90684
 21
66.81194500000002
 31
0.0
  0
LINE
  5
257
330
36
100
AcDbEntity
  8
0
 62
     3
100
AcDbLine
 10
-224.3894040000001
 20
67.311945
 30
0.0
 11
-224.3894040000001
 21
66.81194500000002
 31
0.0
  0
LINE
  5
258
330
36
100
AcDbEntity
  8
0
 62
     3
100
AcDbLine
 10
-297.1481220000001
 20
168.465408
 30
0.0
 11
-212.1481220000001
 21
168.465408
 31
0.0
  0
LINE
  5
259
330
36
100
AcDbEntity
  8
0
 62
     3
100
AcDbLine
 10
-252.148122
 20
157.779449
 30
0.0
 11
-294.6481220000001
 21
162.361562
 31
0.0
  0
LINE
  5
25A
330
36
100
AcDbEntity
  8
0
 62
     3
100
AcDbLine
 10
-292.6481220000001
 20
67.06194500000002
 30
0.0
 11
-299.6481220000001
 21
67.06194500000002
 31
0.0
  0
LINE
  5
25B
330
36
100
AcDbEntity
  8
0
 62
     3
100
AcDbLine
 10
-124.648122
 20
203.289042
 30
0.0
 11
-124.648122
 21
206.176969
 31
0.0
  0
LINE
  5
25C
330
36
100
AcDbEntity
  8
0
 62
     3
100
AcDbLine
 10
-124.648122
 20
69.94987100000003
 30
0.0
 11
-124.648122
 21
67.06194500000002
 31
0.0
  0
LINE
  5
25D
330
36
100
AcDbEntity
  8
0
 62
     3
100
AcDbLine
 10
-155.772237
 20
66.81194500000002
 30
0.0
 11
-155.772237
 21
67.311945
 31
0.0
  0
LINE
  5
25E
330
36
100
AcDbEntity
  8
0
 62
     3
100
AcDbLine
 10
-268.524007
 20
67.311945
 30
0.0
 11
-268.524007
 21
66.81194500000002
 31
0.0
  0
LINE
  5
25F
330
36
100
AcDbEntity
  8
0
 62
     3
100
AcDbLine
 10
-269.024007
 20
201.548687
 30
0.0
 11
-269.024007
 21
205.926969
 31
0.0
  0
LINE
  5
260
330
36
100
AcDbEntity
  8
0
 62
     3
100
AcDbLine
 10
-269.024007
 20
210.75979
 30
0.0
 11
-269.024007
 21
206.426969
 31
0.0
  0
ARC
  5
261
330
36
100
AcDbEntity
  8
0
 62
     3
100
AcDbCircle
 10
-212.148122
 20
-1139.323031
 30
0.0
 40
1355.5
100
AcDbArc
 50
92.58165899999999
 51
93.204804
  0
ARC
  5
262
330
36
100
AcDbEntity
  8
0
 62
     3
100
AcDbCircle
 10
-287.648122
 20
209.064895
 30
0.0
 40
5.0
100
AcDbArc
 50
93.204804
 51
180.0
  0
LINE
  5
263
330
36
100
AcDbEntity
  8
0
 62
     3
100
AcDbLine
 10
-292.648122
 20
209.064895
 30
0.0
 11
-292.648122
 21
203.289042
 31
0.0
  0
ARC
  5
264
330
36
100
AcDbEntity
  8
0
 62
     3
100
AcDbCircle
 10
-287.648122
 20
203.289042
 30
0.0
 40
5.0
100
AcDbArc
 50
180.0
 51
266.795196
  0
ARC
  5
265
330
36
100
AcDbEntity
  8
0
 62
     3
100
AcDbCircle
 10
-212.148122
 20
1551.676969
 30
0.0
 40
1355.5
100
AcDbArc
 50
266.795196
 51
267.418341
  0
LINE
  5
266
330
36
100
AcDbEntity
  8
0
 62
     3
100
AcDbLine
 10
-155.272237
 20
210.75979
 30
0.0
 11
-155.272237
 21
206.426969
 31
0.0
  0
ARC
  5
267
330
36
100
AcDbEntity
  8
0
 62
     3
100
AcDbCircle
 10
-212.148122
 20
-1139.323031
 30
0.0
 40
1355.5
100
AcDbArc
 50
86.79519599999997
 51
87.418341
  0
ARC
  5
268
330
36
100
AcDbEntity
  8
0
 62
     3
100
AcDbCircle
 10
-136.648122
 20
209.064895
 30
0.0
 40
5.0
100
AcDbArc
 50
0.0
 51
86.79519599999997
  0
LINE
  5
269
330
36
100
AcDbEntity
  8
0
 62
     3
100
AcDbLine
 10
-131.648122
 20
209.064895
 30
0.0
 11
-131.648122
 21
203.289042
 31
0.0
  0
ARC
  5
26A
330
36
100
AcDbEntity
  8
0
 62
     3
100
AcDbCircle
 10
-136.648122
 20
203.289042
 30
0.0
 40
5.0
100
AcDbArc
 50
273.204804
 51
0.0
  0
ARC
  5
26B
330
36
100
AcDbEntity
  8
0
 62
     3
100
AcDbCircle
 10
-212.148122
 20
1551.676969
 30
0.0
 40
1355.5
100
AcDbArc
 50
272.581659
 51
273.204804
  0
LINE
  5
26C
330
36
100
AcDbEntity
  8
0
 62
     3
100
AcDbLine
 10
-155.272237
 20
201.548687
 30
0.0
 11
-155.272237
 21
205.926969
 31
0.0
  0
LINE
  5
26D
330
36
100
AcDbEntity
  8
0
 62
     3
100
AcDbLine
 10
-181.148122
 20
74.56194500000004
 30
0.0
 11
-194.398122
 21
74.56194500000004
 31
0.0
  0
LINE
  5
26E
330
36
100
AcDbEntity
  8
0
 62
     3
100
AcDbLine
 10
-199.898122
 20
74.56194500000004
 30
0.0
 11
-212.1481220000001
 21
74.56194500000004
 31
0.0
  0
LINE
  5
26F
330
36
100
AcDbEntity
  8
0
 62
     3
100
AcDbLine
 10
-181.148122
 20
59.56194500000002
 30
0.0
 11
-194.398122
 21
59.56194500000002
 31
0.0
  0
LINE
  5
270
330
36
100
AcDbEntity
  8
0
 62
     3
100
AcDbLine
 10
-199.898122
 20
59.56194500000002
 30
0.0
 11
-212.1481220000001
 21
59.56194500000002
 31
0.0
  0
LINE
  5
271
330
36
100
AcDbEntity
  8
0
 62
     3
100
AcDbLine
 10
-243.1481220000001
 20
74.56194500000004
 30
0.0
 11
-229.8981220000001
 21
74.56194500000004
 31
0.0
  0
LINE
  5
272
330
36
100
AcDbEntity
  8
0
 62
     3
100
AcDbLine
 10
-224.3981220000001
 20
74.56194500000004
 30
0.0
 11
-212.1481220000001
 21
74.56194500000004
 31
0.0
  0
ARC
  5
273
330
36
100
AcDbEntity
  8
0
 62
     3
100
AcDbCircle
 10
-212.1481220000001
 20
-1278.438055
 30
0.0
 40
1355.5
100
AcDbArc
 50
86.79519599999997
 51
87.418341
  0
ARC
  5
274
330
36
100
AcDbEntity
  8
0
 62
     3
100
AcDbCircle
 10
-136.648122
 20
69.94987100000003
 30
0.0
 40
5.0
100
AcDbArc
 50
0.0
 51
86.79519599999997
  0
LINE
  5
275
330
36
100
AcDbEntity
  8
0
 62
     3
100
AcDbLine
 10
-131.648122
 20
64.17401900000001
 30
0.0
 11
-131.648122
 21
67.06194500000002
 31
0.0
  0
ARC
  5
276
330
36
100
AcDbEntity
  8
0
 62
     3
100
AcDbCircle
 10
-136.648122
 20
64.17401900000001
 30
0.0
 40
5.0
100
AcDbArc
 50
273.204804
 51
0.0
  0
ARC
  5
277
330
36
100
AcDbEntity
  8
0
 62
     3
100
AcDbCircle
 10
-212.1481220000001
 20
1412.561945
 30
0.0
 40
1355.5
100
AcDbArc
 50
272.581659
 51
273.204804
  0
LINE
  5
278
330
36
100
AcDbEntity
  8
0
 62
     3
100
AcDbLine
 10
-155.2722370000001
 20
71.64476600000003
 30
0.0
 11
-155.2722370000001
 21
67.311945
 31
0.0
  0
LINE
  5
279
330
36
100
AcDbEntity
  8
0
 62
     3
100
AcDbLine
 10
-131.648122
 20
69.94987100000003
 30
0.0
 11
-131.648122
 21
67.06194500000002
 31
0.0
  0
LINE
  5
27A
330
36
100
AcDbEntity
  8
0
 62
     3
100
AcDbLine
 10
-155.2722370000001
 20
62.43366300000003
 30
0.0
 11
-155.2722370000001
 21
66.81194500000002
 31
0.0
  0
LINE
  5
27B
330
36
100
AcDbEntity
  8
0
 62
     3
100
AcDbLine
 10
-269.0240070000001
 20
62.43366300000003
 30
0.0
 11
-269.0240070000001
 21
66.81194500000002
 31
0.0
  0
LINE
  5
27C
330
36
100
AcDbEntity
  8
0
 62
     3
100
AcDbLine
 10
-269.0240070000001
 20
71.64476600000003
 30
0.0
 11
-269.0240070000001
 21
67.311945
 31
0.0
  0
LINE
  5
27D
330
36
100
AcDbEntity
  8
0
 62
     3
100
AcDbLine
 10
-292.6481220000001
 20
64.17401900000001
 30
0.0
 11
-292.6481220000001
 21
67.06194500000002
 31
0.0
  0
ARC
  5
27E
330
36
100
AcDbEntity
  8
0
 62
     3
100
AcDbCircle
 10
-212.1481220000001
 20
-1278.438055
 30
0.0
 40
1355.5
100
AcDbArc
 50
92.58165899999999
 51
93.20480399999999
  0
ARC
  5
27F
330
36
100
AcDbEntity
  8
0
 62
     3
100
AcDbCircle
 10
-212.1481220000001
 20
1412.561945
 30
0.0
 40
1355.5
100
AcDbArc
 50
266.795196
 51
267.418341
  0
LINE
  5
280
330
36
100
AcDbEntity
  8
0
 62
     3
100
AcDbLine
 10
-224.3981220000001
 20
59.56194500000002
 30
0.0
 11
-212.1481220000001
 21
59.56194500000002
 31
0.0
  0
LINE
  5
281
330
36
100
AcDbEntity
  8
0
 62
     3
100
AcDbLine
 10
-243.1481220000001
 20
59.56194500000002
 30
0.0
 11
-229.8981220000001
 21
59.56194500000002
 31
0.0
  0
ARC
  5
282
330
36
100
AcDbEntity
  8
0
 62
     3
100
AcDbCircle
 10
-243.1481220000001
 20
55.56194500000002
 30
0.0
 40
4.0
100
AcDbArc
 50
90.0
 51
180.0
  0
ARC
  5
283
330
36
100
AcDbEntity
  8
0
 62
     3
100
AcDbCircle
 10
-181.148122
 20
55.56194500000002
 30
0.0
 40
4.0
100
AcDbArc
 50
0.0
 51
90.0
  0
ARC
  5
284
330
36
100
AcDbEntity
  8
0
 62
     3
100
AcDbCircle
 10
-172.148122
 20
55.65139100000003
 30
0.0
 40
5.0
100
AcDbArc
 50
180.0
 51
271.6885180000001
  0
ARC
  5
285
330
36
100
AcDbEntity
  8
0
 62
     3
100
AcDbCircle
 10
-287.648122
 20
69.94987100000003
 30
0.0
 40
5.0
100
AcDbArc
 50
93.20480399999999
 51
180.0
  0
ARC
  5
286
330
36
100
AcDbEntity
  8
0
 62
     3
100
AcDbCircle
 10
-287.648122
 20
64.17401900000001
 30
0.0
 40
5.0
100
AcDbArc
 50
180.0
 51
266.795196
  0
LINE
  5
287
330
36
100
AcDbEntity
  8
0
 62
     3
100
AcDbLine
 10
-292.6481220000001
 20
69.94987100000003
 30
0.0
 11
-292.6481220000001
 21
67.06194500000002
 31
0.0
  0
ARC
  5
288
330
36
100
AcDbEntity
  8
0
 62
     3
100
AcDbCircle
 10
-252.097926
 20
202.480052
 30
0.0
 40
8.9
100
AcDbArc
 50
180.0
 51
270.0
  0
LINE
  5
289
330
36
100
AcDbEntity
  8
0
 62
     3
100
AcDbLine
 10
-260.9979259999999
 20
202.480052
 30
0.0
 11
-260.9979259999999
 21
209.880052
 31
0.0
  0
ARC
  5
28A
330
36
100
AcDbEntity
  8
0
 62
     3
100
AcDbCircle
 10
-252.097926
 20
209.880052
 30
0.0
 40
8.9
100
AcDbArc
 50
90.0
 51
180.0
  0
LINE
  5
28B
330
36
100
AcDbEntity
  8
0
 62
     3
100
AcDbLine
 10
-172.197926
 20
218.780052
 30
0.0
 11
-252.097926
 21
218.780052
 31
0.0
  0
ARC
  5
28C
330
36
100
AcDbEntity
  8
0
 62
     3
100
AcDbCircle
 10
-172.197926
 20
209.880052
 30
0.0
 40
8.9
100
AcDbArc
 50
0.0
 51
90.0
  0
LINE
  5
28D
330
36
100
AcDbEntity
  8
0
 62
     3
100
AcDbLine
 10
-163.297926
 20
202.480052
 30
0.0
 11
-163.297926
 21
209.880052
 31
0.0
  0
ARC
  5
28E
330
36
100
AcDbEntity
  8
0
 62
     3
100
AcDbCircle
 10
-172.197926
 20
202.480052
 30
0.0
 40
8.9
100
AcDbArc
 50
270.0
 51
0.0
  0
LINE
  5
28F
330
36
100
AcDbEntity
  8
0
 62
     3
100
AcDbLine
 10
-172.197926
 20
193.580052
 30
0.0
 11
-252.097926
 21
193.580052
 31
0.0
  0
ARC
  5
290
330
36
100
AcDbEntity
  8
0
100
AcDbCircle
 10
-158.772237
 20
80.31753000000003
 30
0.0
 40
1.0
100
AcDbArc
 50
0.0
 51
90.0
  0
LINE
  5
291
330
36
100
AcDbEntity
  8
0
100
AcDbLine
 10
-158.772237
 20
81.31753000000003
 30
0.0
 11
-173.648122
 21
81.31753000000003
 31
0.0
  0
LINE
  5
292
330
36
100
AcDbEntity
  8
0
100
AcDbLine
 10
-157.772237
 20
67.311945
 30
0.0
 11
-157.772237
 21
80.31753000000003
 31
0.0
  0
LINE
  5
293
330
36
100
AcDbEntity
  8
0
100
AcDbLine
 10
-157.772237
 20
67.311945
 30
0.0
 11
-157.772237
 21
53.80636000000002
 31
0.0
  0
ARC
  5
294
330
36
100
AcDbEntity
  8
0
100
AcDbCircle
 10
-158.772237
 20
53.80636000000002
 30
0.0
 40
1.0
100
AcDbArc
 50
270.0
 51
0.0
  0
LINE
  5
295
330
36
100
AcDbEntity
  8
0
100
AcDbLine
 10
-158.772237
 20
52.80636000000002
 30
0.0
 11
-173.648122
 21
52.80636000000002
 31
0.0
  0
ARC
  5
296
330
36
100
AcDbEntity
  8
0
100
AcDbCircle
 10
-173.648122
 20
53.80636000000002
 30
0.0
 40
1.0
100
AcDbArc
 50
180.0
 51
270.0
  0
LINE
  5
297
330
36
100
AcDbEntity
  8
0
100
AcDbLine
 10
-174.648122
 20
53.80636000000002
 30
0.0
 11
-174.648122
 21
66.81194500000002
 31
0.0
  0
LINE
  5
298
330
36
100
AcDbEntity
  8
0
100
AcDbLine
 10
-174.648122
 20
80.31753000000003
 30
0.0
 11
-174.648122
 21
66.81194500000002
 31
0.0
  0
ARC
  5
299
330
36
100
AcDbEntity
  8
0
100
AcDbCircle
 10
-173.648122
 20
80.31753000000003
 30
0.0
 40
1.0
100
AcDbArc
 50
90.0
 51
180.0
  0
LINE
  5
29A
330
36
100
AcDbEntity
  8
0
100
AcDbLine
 10
-265.524007
 20
81.31753000000003
 30
0.0
 11
-250.6481220000001
 21
81.31753000000003
 31
0.0
  0
ARC
  5
29B
330
36
100
AcDbEntity
  8
0
100
AcDbCircle
 10
-250.6481220000001
 20
80.31753000000003
 30
0.0
 40
1.0
100
AcDbArc
 50
0.0
 51
90.0
  0
LINE
  5
29C
330
36
100
AcDbEntity
  8
0
100
AcDbLine
 10
-249.6481220000001
 20
53.80636000000002
 30
0.0
 11
-249.6481220000001
 21
80.31753000000003
 31
0.0
  0
ARC
  5
29D
330
36
100
AcDbEntity
  8
0
100
AcDbCircle
 10
-265.524007
 20
80.31753000000003
 30
0.0
 40
1.0
100
AcDbArc
 50
90.0
 51
180.0
  0
LINE
  5
29E
330
36
100
AcDbEntity
  8
0
100
AcDbLine
 10
-266.524007
 20
80.31753000000003
 30
0.0
 11
-266.524007
 21
53.80636000000002
 31
0.0
  0
ARC
  5
29F
330
36
100
AcDbEntity
  8
0
100
AcDbCircle
 10
-265.524007
 20
53.80636000000002
 30
0.0
 40
1.0
100
AcDbArc
 50
180.0
 51
270.0
  0
LINE
  5
2A0
330
36
100
AcDbEntity
  8
0
100
AcDbLine
 10
-265.524007
 20
52.80636000000002
 30
0.0
 11
-250.6481220000001
 21
52.80636000000002
 31
0.0
  0
ARC
  5
2A1
330
36
100
AcDbEntity
  8
0
100
AcDbCircle
 10
-250.6481220000001
 20
53.80636000000002
 30
0.0
 40
1.0
100
AcDbArc
 50
270.0
 51
0.0
  0
LINE
  5
2A2
330
36
100
AcDbEntity
  8
0
100
AcDbLine
 10
-155.2722370000001
 20
67.311945
 30
0.0
 11
-157.772237
 21
67.311945
 31
0.0
  0
LINE
  5
2A3
330
36
100
AcDbEntity
  8
0
100
AcDbLine
 10
-212.1481220000001
 20
67.311945
 30
0.0
 11
-174.648122
 21
67.311945
 31
0.0
  0
LINE
  5
2A4
330
36
100
AcDbEntity
  8
0
100
AcDbLine
 10
-212.1481220000001
 20
67.311945
 30
0.0
 11
-249.6481220000001
 21
67.311945
 31
0.0
  0
LINE
  5
2A5
330
36
100
AcDbEntity
  8
0
100
AcDbLine
 10
-269.0240070000001
 20
67.311945
 30
0.0
 11
-266.524007
 21
67.311945
 31
0.0
  0
LINE
  5
2A6
330
36
100
AcDbEntity
  8
0
100
AcDbLine
 10
-155.272237
 20
205.926969
 30
0.0
 11
-163.273122
 21
205.926969
 31
0.0
  0
LINE
  5
2A7
330
36
100
AcDbEntity
  8
0
100
AcDbLine
 10
-269.024007
 20
205.926969
 30
0.0
 11
-261.023122
 21
205.926969
 31
0.0
  0
ARC
  5
2A8
330
36
100
AcDbEntity
  8
0
100
AcDbCircle
 10
-266.024007
 20
161.965408
 30
0.0
 40
1.0
100
AcDbArc
 50
90.0
 51
270.0
  0
LINE
  5
2ED
330
36
100
AcDbEntity
  8
0
 62
     3
100
AcDbLine
 10
6.558635999999999
 20
-6.702277
 30
0.0
 11
6.558635999999999
 21
16.297723
 31
0.0
  0
LINE
  5
2EF
330
36
100
AcDbEntity
  8
0
 62
     3
100
AcDbLine
 10
-46.494973
 20
-13.702277
 30
0.0
 11
-46.494973
 21
0.297723
 31
0.0
  0
TEXT
  5
2F1
330
36
100
AcDbEntity
  8
0
 62
     3
100
AcDbText
 10
-17.431046
 20
12.502839
 30
0.0
 40
2.0
  1
A
 41
0.7
100
AcDbText
  0
TEXT
  5
2F2
330
36
100
AcDbEntity
  8
0
 62
     3
100
AcDbText
 10
-14.895759
 20
12.502839
 30
0.0
 40
2.0
  1
P
 41
0.7
100
AcDbText
  0
TEXT
  5
2F3
330
36
100
AcDbEntity
  8
0
 62
     3
100
AcDbText
 10
-12.360473
 20
12.502839
 30
0.0
 40
2.0
  1
P
 41
0.7
100
AcDbText
  0
TEXT
  5
2F4
330
36
100
AcDbEntity
  8
0
 62
     3
100
AcDbText
 10
-9.825186999999999
 20
12.502839
 30
0.0
 40
2.0
  1
D
 41
0.7
100
AcDbText
  0
TEXT
  5
2F5
330
36
100
AcDbEntity
  8
0
 62
     3
100
AcDbText
 10
-4.456503999999998
 20
12.502839
 30
0.0
 40
2.0
  1
C
 41
0.7
100
AcDbText
  0
TEXT
  5
2F6
330
36
100
AcDbEntity
  8
0
 62
     3
100
AcDbText
 10
-1.921218
 20
12.502839
 30
0.0
 40
2.0
  1
H
 41
0.7
100
AcDbText
  0
TEXT
  5
2F7
330
36
100
AcDbEntity
  8
0
 62
     3
100
AcDbText
 10
0.614069
 20
12.502839
 30
0.0
 40
2.0
  1
C
 41
0.7
100
AcDbText
  0
TEXT
  5
2F8
330
36
100
AcDbEntity
  8
0
 62
     3
100
AcDbText
 10
3.149354999999999
 20
12.502839
 30
0.0
 40
2.0
  1
K
 41
0.7
100
AcDbText
  0
TEXT
  5
2F9
330
36
100
AcDbEntity
  8
0
 62
     3
100
AcDbText
 10
8.823320999999998
 20
12.502839
 30
0.0
 40
2.0
  1
DESN
 41
1.216762999999998
100
AcDbText
  0
TEXT
  5
2FA
330
36
100
AcDbEntity
  8
0
 62
     3
100
AcDbText
 10
-76.183037
 20
-16.843659
 30
0.0
 40
2.0
  1
NICHIDO IND.CO.LTD
 41
1.274876
100
AcDbText
  0
LINE
  5
2FB
330
36
100
AcDbEntity
  8
0
 62
     3
100
AcDbLine
 10
-65.80000799999999
 20
16.297723
 30
0.0
 11
-65.80000799999999
 21
-6.702277
 31
0.0
  0
LINE
  5
2FC
330
36
100
AcDbEntity
  8
0
 62
     3
100
AcDbLine
 10
-19.44136399999999
 20
16.297723
 30
0.0
 11
-19.441364
 21
-23.368
 31
0.0
  0
LINE
  5
301
330
36
100
AcDbEntity
  8
0
 62
     3
100
AcDbLine
 10
-6.441364
 20
16.297723
 30
0.0
 11
-6.441364
 21
-13.702277
 31
0.0
  0
TEXT
  5
302
330
36
100
AcDbEntity
  8
0
 62
     3
100
AcDbText
 10
-18.328919
 20
-12.83759
 30
0.0
 40
3.2
  1
作成日
 41
1.017225999999997
100
AcDbText
  0
LINE
  5
303
330
36
100
AcDbEntity
  8
0
 62
     3
100
AcDbLine
 10
32.258
 20
16.297723
 30
0.0
 11
-79.04544300000002
 21
16.297723
 31
0.0
  0
LINE
  5
304
330
36
100
AcDbEntity
  8
0
 62
     3
100
AcDbLine
 10
19.558636
 20
-6.702277
 30
0.0
 11
19.558636
 21
16.297723
 31
0.0
  0
TEXT
  5
305
330
36
100
AcDbEntity
  8
0
 62
     3
100
AcDbText
 10
22.88244
 20
12.588657
 30
0.0
 40
1.8
  1
D
 41
0.666667
100
AcDbText
  0
TEXT
  5
306
330
36
100
AcDbEntity
  8
0
 62
     3
100
AcDbText
 10
25.699068
 20
12.588657
 30
0.0
 40
1.8
  1
E
 41
0.666667
100
AcDbText
  0
TEXT
  5
307
330
36
100
AcDbEntity
  8
0
 62
     3
100
AcDbText
 10
28.515696
 20
12.588657
 30
0.0
 40
1.8
  1
F
 41
0.666667
100
AcDbText
  0
TEXT
  5
308
330
36
100
AcDbEntity
  8
0
 62
     3
100
AcDbText
 10
22.88244
 20
8.596103999999996
 30
0.0
 40
3.2
  1
製図
 41
1.076369
100
AcDbText
  0
LINE
  5
309
330
36
100
AcDbEntity
  8
0
 62
     3
100
AcDbLine
 10
-79.04544300000002
 20
16.297723
 30
0.0
 11
-79.04544300000002
 21
-23.368
 31
0.0
  0
TEXT
  5
30A
330
36
100
AcDbEntity
  8
0
 62
     3
100
AcDbText
 10
-77.66879
 20
-23.035534
 30
0.0
 40
5.0
  1
日動工業株式会社
 41
0.833333
100
AcDbText
  0
LINE
  5
30B
330
36
100
AcDbEntity
  8
0
 62
     3
100
AcDbLine
 10
-36.16303900000001
 20
0.297723
 30
0.0
 11
-36.16303900000001
 21
-23.368
 31
0.0
  0
LINE
  5
30C
330
36
100
AcDbEntity
  8
0
 62
     3
100
AcDbLine
 10
-36.16303900000001
 20
-18.535139
 30
0.0
 11
-19.441364
 21
-18.535139
 31
0.0
  0
TEXT
  5
30D
330
36
100
AcDbEntity
  8
0
 62
     3
100
AcDbText
 10
-35.576437
 20
-17.718708
 30
0.0
 40
3.2
  1
出図コード
 41
0.8356860000000001
100
AcDbText
  0
LINE
  5
30F
330
36
100
AcDbEntity
  8
0
 62
     3
100
AcDbLine
 10
-79.04544300000002
 20
-13.702277
 30
0.0
 11
32.258
 21
-13.702277
 31
0.0
  0
LINE
  5
311
330
36
100
AcDbEntity
  8
0
 62
     3
100
AcDbLine
 10
-79.04544300000002
 20
7.297722999999997
 30
0.0
 11
32.258
 21
7.297722999999997
 31
0.0
  0
LINE
  5
317
330
36
100
AcDbEntity
  8
0
 62
     3
100
AcDbLine
 10
-79.04544300000002
 20
0.297723
 30
0.0
 11
-19.441364
 21
0.297723
 31
0.0
  0
LINE
  5
31D
330
36
100
AcDbEntity
  8
0
 62
     3
100
AcDbLine
 10
-79.04544300000002
 20
-6.702277
 30
0.0
 11
32.258
 21
-6.702277
 31
0.0
  0
TEXT
  5
31E
330
36
100
AcDbEntity
  8
0
 62
     3
100
AcDbText
 10
-35.708985
 20
-22.82054850986913
 30
0.0
 40
3.2
  1
ZK-A3X
 41
0.8112849999999999
100
AcDbText
  0
TEXT
  5
31F
330
36
100
AcDbEntity
  8
0
 62
     3
100
AcDbText
 10
-77.22804599999998
 20
12.467249
 30
0.0
 40
2.0
  1
CONPONENTS
 41
0.5331600000000001
100
AcDbText
  0
TEXT
  5
320
330
36
100
AcDbEntity
  8
0
 62
     3
100
AcDbText
 10
-77.57777199999998
 20
-6.464927999999997
 30
0.0
 40
3.0
  1
材
 41
0.833333
100
AcDbText
  0
TEXT
  5
321
330
36
100
AcDbEntity
  8
0
 62
     3
100
AcDbText
 10
-70.04213
 20
-6.464927999999997
 30
0.0
 40
3.0
  1
質
 41
0.833333
100
AcDbText
  0
TEXT
  5
322
330
36
100
AcDbEntity
  8
0
 62
     3
100
AcDbText
 10
-77.48970200000002
 20
4.159595999999996
 30
0.0
 40
2.0
  1
MODEL
 41
1.031072999999999
100
AcDbText
  0
TEXT
  5
323
330
36
100
AcDbEntity
  8
0
 62
     3
100
AcDbText
 10
-77.57777199999998
 20
-2.78262
 30
0.0
 40
2.0
  1
MATERIAL
 41
0.659278
100
AcDbText
  0
TEXT
  5
324
330
36
100
AcDbEntity
  8
0
 62
     3
100
AcDbText
 10
-46.270492
 20
-6.464927999999997
 30
0.0
 40
3.0
  1
備
 41
0.833333
100
AcDbText
  0
TEXT
  5
325
330
36
100
AcDbEntity
  8
0
 62
     3
100
AcDbText
 10
-39.53749000000001
 20
-6.464927999999997
 30
0.0
 40
3.0
  1
考
 41
0.833333
100
AcDbText
  0
TEXT
  5
326
330
36
100
AcDbEntity
  8
0
 62
     3
100
AcDbText
 10
-45.98251611805244
 20
-2.78262
 30
0.0
 40
2.0
  1
REMARKS
 41
0.675794
100
AcDbText
  0
TEXT
  5
327
330
36
100
AcDbEntity
  8
0
 62
     3
100
AcDbText
 10
-75.98804300000002
 20
-9.702740999999999
 30
0.0
 40
2.0
  1
3AD
 41
1.42614
100
AcDbText
  0
TEXT
  5
328
330
36
100
AcDbEntity
  8
0
 62
     3
100
AcDbText
 10
-66.677064
 20
-9.537007
 30
0.0
 40
2.0
  1
ANGLE
 41
1.669883999999995
100
AcDbText
  0
TEXT
  5
329
330
36
100
AcDbEntity
  8
0
 62
     3
100
AcDbText
 10
-45.743177
 20
-9.913847999999999
 30
0.0
 40
2.0
  1
SCALE
 41
0.7719630000000001
100
AcDbText
  0
TEXT
  5
32A
330
36
100
AcDbEntity
  8
0
 62
     3
100
AcDbText
 10
-76.301914
 20
-13.702277
 30
0.0
 40
3.0
  1
第
 41
0.833333
100
AcDbText
  0
TEXT
  5
32B
330
36
100
AcDbEntity
  8
0
 62
     3
100
AcDbText
 10
-68.51506399999999
 20
-13.702277
 30
0.0
 40
3.0
  1
三
 41
0.833333
100
AcDbText
  0
TEXT
  5
32C
330
36
100
AcDbEntity
  8
0
 62
     3
100
AcDbText
 10
-60.728214
 20
-13.702277
 30
0.0
 40
3.0
  1
角
 41
0.833333
100
AcDbText
  0
TEXT
  5
32D
330
36
100
AcDbEntity
  8
0
 62
     3
100
AcDbText
 10
-52.941364
 20
-13.702277
 30
0.0
 40
3.0
  1
法
 41
0.833333
100
AcDbText
  0
TEXT
  5
32E
330
36
100
AcDbEntity
  8
0
 62
     3
100
AcDbText
 10
-45.87997199999999
 20
-13.413848
 30
0.0
 40
3.0
  1
尺
 41
0.833333
100
AcDbText
  0
TEXT
  5
32F
330
36
100
AcDbEntity
  8
0
 62
     3
100
AcDbText
 10
-39.14697
 20
-13.413848
 30
0.0
 40
3.0
  1
度
 41
0.833333
100
AcDbText
  0
TEXT
  5
330
330
36
100
AcDbEntity
  8
0
 62
     3
100
AcDbText
 10
-16.5637
 20
8.755452
 30
0.0
 40
3.0
  1
承認
 41
1.089472999999999
100
AcDbText
  0
TEXT
  5
331
330
36
100
AcDbEntity
  8
0
 62
     3
100
AcDbText
 10
-3.320819
 20
8.697722999999998
 30
0.0
 40
3.0
  1
検図
 41
0.931761
100
AcDbText
  0
TEXT
  5
332
330
36
100
AcDbEntity
  8
0
 62
     3
100
AcDbText
 10
9.679577
 20
8.697722999999998
 30
0.0
 40
3.0
  1
設
 41
0.833333
100
AcDbText
  0
TEXT
  5
333
330
36
100
AcDbEntity
  8
0
 62
     3
100
AcDbText
 10
14.169446
 20
8.697722999999998
 30
0.0
 40
3.0
  1
計
 41
0.833333
100
AcDbText
  0
TEXT
  5
334
330
36
100
AcDbEntity
  8
0
 62
     3
100
AcDbText
 10
-77.157939
 20
8.870274999999997
 30
0.0
 40
3.0
  1
品
 41
0.833333
100
AcDbText
  0
TEXT
  5
335
330
36
100
AcDbEntity
  8
0
 62
     3
100
AcDbText
 10
-69.622297
 20
8.870274999999997
 30
0.0
 40
3.0
  1
名
 41
0.833333
100
AcDbText
  0
TEXT
  5
336
330
36
100
AcDbEntity
  8
0
 62
     3
100
AcDbText
 10
-77.48970200000002
 20
0.6471780510536102
 30
0.0
 40
3.0
  1
型
 41
0.833333
100
AcDbText
  0
TEXT
  5
337
330
36
100
AcDbEntity
  8
0
 62
     3
100
AcDbText
 10
-69.94161099999999
 20
0.6471780510536102
 30
0.0
 40
3.0
  1
式
 41
0.833333
100
AcDbText
  0
LINE
  5
338
330
36
100
AcDbEntity
  8
0
100
AcDbLine
 10
-70.496829
 20
78.113226
 30
0.0
 11
5.972483
 21
78.113226
 31
0.0
  0
LINE
  5
33A
330
36
100
AcDbEntity
  8
0
 62
     3
100
AcDbLine
 10
-357.742
 20
250.632
 30
0.0
 11
-357.742
 21
-23.368
 31
0.0
  0
LINE
  5
33B
330
36
100
AcDbEntity
  8
0
 62
     3
100
AcDbLine
 10
32.258
 20
-23.368
 30
0.0
 11
32.258
 21
250.632
 31
0.0
  0
LINE
  5
33C
330
36
100
AcDbEntity
  8
0
 62
     3
100
AcDbLine
 10
-357.742
 20
250.632
 30
0.0
 11
32.258
 21
250.632
 31
0.0
  0
LINE
  5
33D
330
36
100
AcDbEntity
  8
0
 62
     3
100
AcDbLine
 10
-357.742
 20
-23.368
 30
0.0
 11
32.258
 21
-23.368
 31
0.0
  0
ARC
  5
37C
330
36
100
AcDbEntity
  8
0
 62
     3
100
AcDbCircle
 10
-273.024007
 20
201.548687
 30
0.0
 40
4.0
100
AcDbArc
 50
267.418341
 51
0.0
  0
ARC
  5
37D
330
36
100
AcDbEntity
  8
0
 62
     3
100
AcDbCircle
 10
-273.024007
 20
210.80525
 30
0.0
 40
4.0
100
AcDbArc
 50
0.0
 51
92.58165899999999
  0
ARC
  5
37E
330
36
100
AcDbEntity
  8
0
 62
     3
100
AcDbCircle
 10
-151.272237
 20
210.80525
 30
0.0
 40
4.0
100
AcDbArc
 50
87.418341
 51
180.0
  0
ARC
  5
37F
330
36
100
AcDbEntity
  8
0
 62
     3
100
AcDbCircle
 10
-151.272237
 20
201.548687
 30
0.0
 40
4.0
100
AcDbArc
 50
180.0
 51
272.581659
  0
ARC
  5
380
330
36
100
AcDbEntity
  8
0
 62
     3
100
AcDbCircle
 10
-151.272237
 20
62.43366300000003
 30
0.0
 40
4.0
100
AcDbArc
 50
180.0
 51
272.581659
  0
ARC
  5
381
330
36
100
AcDbEntity
  8
0
 62
     3
100
AcDbCircle
 10
-151.272237
 20
71.69022600000002
 30
0.0
 40
4.0
100
AcDbArc
 50
87.418341
 51
180.0
  0
ARC
  5
382
330
36
100
AcDbEntity
  8
0
 62
     3
100
AcDbCircle
 10
-273.024007
 20
62.43366300000003
 30
0.0
 40
4.0
100
AcDbArc
 50
267.418341
 51
0.0
  0
ARC
  5
383
330
36
100
AcDbEntity
  8
0
 62
     3
100
AcDbCircle
 10
-273.024007
 20
71.69022600000002
 30
0.0
 40
4.0
100
AcDbArc
 50
0.0
 51
92.58165899999999
  0
LINE
  5
38F
330
36
100
AcDbEntity
  8
0
100
AcDbLine
 10
-168.34537
 20
79.31753000000004
 30
0.0
 11
-176.49196
 21
90.72884600000003
 31
0.0
  0
LINE
  5
390
330
36
100
AcDbEntity
  8
0
100
AcDbLine
 10
-176.49196
 20
90.72884600000003
 30
0.0
 11
-192.99196
 21
90.72884600000003
 31
0.0
  0
TEXT
  5
391
330
36
100
AcDbEntity
  8
0
 62
     4
100
AcDbText
 10
-190.24196
 20
91.72884600000001
 30
0.0
 40
3.2
  1
型式銘版
 41
0.716146
100
AcDbText
  0
LINE
  5
397
330
36
100
AcDbEntity
  8
0
100
AcDbLine
 10
-257.9321630000001
 20
79.31753000000004
 30
0.0
 11
-251.4431600000001
 21
90.72884600000003
 31
0.0
  0
LINE
  5
398
330
36
100
AcDbEntity
  8
0
100
AcDbLine
 10
-251.4431600000001
 20
90.72884600000003
 30
0.0
 11
-226.6931600000001
 21
90.72884600000003
 31
0.0
  0
TEXT
  5
399
330
36
100
AcDbEntity
  8
0
 62
     4
100
AcDbText
 10
-248.6931600000001
 20
91.72884600000001
 30
0.0
 40
3.2
  1
取り扱いシール
 41
0.716146
100
AcDbText
  0
LINE
  5
3A0
330
36
100
AcDbEntity
  8
0
100
AcDbLine
 10
-261.412864
 20
234.223832
 30
0.0
 11
-291.662864
 21
234.223832
 31
0.0
  0
TEXT
  5
3A1
330
36
100
AcDbEntity
  8
0
 62
     4
100
AcDbText
 10
-288.912864
 20
235.223832
 30
0.0
 40
3.2
  1
サーキットブレーカ
 41
0.716146
100
AcDbText
  0
LINE
  5
3A8
330
36
100
AcDbEntity
  8
0
 62
     3
100
AcDbLine
 10
-370.143924
 20
117.132
 30
0.0
 11
-372.7419999999999
 21
115.632
 31
0.0
  0
LINE
  5
3A9
330
36
100
AcDbEntity
  8
0
 62
     3
100
AcDbLine
 10
-370.143924
 20
117.132
 30
0.0
 11
-372.7419999999999
 21
118.632
 31
0.0
  0
LINE
  5
3AA
330
36
100
AcDbEntity
  8
0
 62
     3
100
AcDbLine
 10
-372.7419999999999
 20
115.632
 30
0.0
 11
-372.7419999999999
 21
118.632
 31
0.0
  0
CIRCLE
  5
3DF
330
36
100
AcDbEntity
  8
0
100
AcDbCircle
 10
-80.20508599999997
 20
187.629057
 30
0.0
 40
5.0
  0
TEXT
  5
3E0
330
36
100
AcDbEntity
  8
0
 62
     4
100
AcDbText
 10
-82.3869663768146
 20
185.4408129641188
 30
0.0
 40
4.5
  1
11
  7
高4.5
100
AcDbText
  0
CIRCLE
  5
3E7
330
36
100
AcDbEntity
  8
0
100
AcDbCircle
 10
-149.70463
 20
237.308193
 30
0.0
 40
5.0
  0
TEXT
  5
3E8
330
36
100
AcDbEntity
  8
0
 62
     4
100
AcDbText
 10
-150.8675677985693
 20
234.455950258193
 30
0.0
 40
6.299999999999998
  1
1
  7
高6.3
100
AcDbText
  0
CIRCLE
  5
3EF
330
36
100
AcDbEntity
  8
0
100
AcDbCircle
 10
-167.105547
 20
237.599535
 30
0.0
 40
5.0
  0
TEXT
  5
3F0
330
36
100
AcDbEntity
  8
0
 62
     4
100
AcDbText
 10
-169.1311068143739
 20
234.3528025633963
 30
0.0
 40
6.299999999999998
  1
2
  7
高6.3
100
AcDbText
  0
CIRCLE
  5
3F7
330
36
100
AcDbEntity
  8
0
100
AcDbCircle
 10
-222.365374
 20
238.24249
 30
0.0
 40
5.0
  0
TEXT
  5
3F8
330
36
100
AcDbEntity
  8
0
 62
     4
100
AcDbText
 10
-224.5841828407933
 20
234.9155672539362
 30
0.0
 40
6.299999999999998
  1
3
  7
高6.3
100
AcDbText
  0
CIRCLE
  5
3FF
330
36
100
AcDbEntity
  8
0
100
AcDbCircle
 10
-203.6728418010922
 20
238.298623
 30
0.0
 40
5.0
  0
TEXT
  5
400
330
36
100
AcDbEntity
  8
0
 62
     4
100
AcDbText
 10
-205.531420112882
 20
234.836044013227
 30
0.0
 40
6.299999999999998
  1
5
  7
高6.3
100
AcDbText
  0
CIRCLE
  5
407
330
36
100
AcDbEntity
  8
0
100
AcDbCircle
 10
-205.963211
 20
100.361925
 30
0.0
 40
5.0
  0
TEXT
  5
408
330
36
100
AcDbEntity
  8
0
 62
     4
100
AcDbText
 10
-208.0322659286662
 20
97.03590881459824
 30
0.0
 40
6.299999999999998
  1
9
  7
高6.3
100
AcDbText
  0
CIRCLE
  5
40F
330
36
100
AcDbEntity
  8
0
100
AcDbCircle
 10
-219.468883
 20
100.242739
 30
0.0
 40
5.0
  0
TEXT
  5
410
330
36
100
AcDbEntity
  8
0
 62
     4
100
AcDbText
 10
-222.0738705179219
 20
98.15361173722159
 30
0.0
 40
4.5
  1
10
  7
高4.5
100
AcDbText
  0
CIRCLE
  5
417
330
36
100
AcDbEntity
  8
0
100
AcDbCircle
 10
-157.081477
 20
97.70285600000002
 30
0.0
 40
5.0
  0
TEXT
  5
418
330
36
100
AcDbEntity
  8
0
 62
     4
100
AcDbText
 10
-160.0608419078535
 20
95.49520951530258
 30
0.0
 40
4.5
  1
12
  7
高4.5
100
AcDbText
  0
CIRCLE
  5
41F
330
36
100
AcDbEntity
  8
0
100
AcDbCircle
 10
-268.6852660000001
 20
97.70285600000002
 30
0.0
 40
5.0
  0
TEXT
  5
420
330
36
100
AcDbEntity
  8
0
 62
     4
100
AcDbText
 10
-271.6951969796196
 20
95.40822642442234
 30
0.0
 40
4.5
  1
12
  7
高4.5
100
AcDbText
  0
LINE
  5
421
330
36
100
AcDbEntity
  8
0
 62
     3
100
AcDbLine
 10
6.558635999999999
 20
16.297723
 30
0.0
 11
6.558635999999999
 21
22.297723
 31
0.0
  0
LINE
  5
422
330
36
100
AcDbEntity
  8
0
 62
     3
100
AcDbLine
 10
32.258
 20
22.297723
 30
0.0
 11
-19.441364
 21
22.297723
 31
0.0
  0
TEXT
  5
423
330
36
100
AcDbEntity
  8
0
 62
     3
100
AcDbText
 10
-13.445765
 20
17.094072
 30
0.0
 40
4.5
  1
コード
  7
高4.5
100
AcDbText
  0
LINE
  5
424
330
36
100
AcDbEntity
  8
0
 62
     3
100
AcDbLine
 10
-19.441364
 20
16.297723
 30
0.0
 11
-19.441364
 21
22.297723
 31
0.0
  0
TEXT
  5
425
330
36
100
AcDbEntity
  8
0
 62
     3
100
AcDbText
 10
10.90729799321024
 20
16.94186
 30
0.0
 40
4.5
  1
5421
  7
高4.5
100
AcDbText
  0
CIRCLE
  5
581
330
36
100
AcDbEntity
  8
0
100
AcDbCircle
 10
-188.3311884885537
 20
238.298623
 30
0.0
 40
5.0
  0
TEXT
  5
582
330
36
100
AcDbEntity
  8
0
 62
     4
100
AcDbText
 10
-190.6547563610816
 20
235.3051703877318
 30
0.0
 40
6.299999999999998
  1
4
  7
高6.3
100
AcDbText
  0
CIRCLE
  5
585
330
36
100
AcDbEntity
  8
0
100
AcDbCircle
 10
-256.7745401374817
 20
238.298623
 30
0.0
 40
5.0
  0
TEXT
  5
586
330
36
100
AcDbEntity
  8
0
 62
     4
100
AcDbText
 10
-258.5339494766044
 20
234.8339319523197
 30
0.0
 40
6.299999999999998
  1
8
  7
高6.3
100
AcDbText
  0
LINE
  5
CC9
330
36
100
AcDbEntity
  8
0
100
AcDbLine
 10
-357.742
 20
-18.36799999999999
 30
0.0
 11
-156.7419999999999
 21
-18.36799999999999
 31
0.0
  0
LINE
  5
CCA
330
36
100
AcDbEntity
  8
0
100
AcDbLine
 10
-357.742
 20
-13.36799999999999
 30
0.0
 11
-156.7419999999999
 21
-13.36799999999999
 31
0.0
  0
LINE
  5
CCB
330
36
100
AcDbEntity
  8
0
100
AcDbLine
 10
-357.742
 20
-8.367999999999991
 30
0.0
 11
-156.7419999999999
 21
-8.367999999999991
 31
0.0
  0
LINE
  5
CCC
330
36
100
AcDbEntity
  8
0
100
AcDbLine
 10
-357.742
 20
-3.367999999999993
 30
0.0
 11
-156.7419999999999
 21
-3.367999999999993
 31
0.0
  0
LINE
  5
CCD
330
36
100
AcDbEntity
  8
0
100
AcDbLine
 10
-357.742
 20
1.632000000000004
 30
0.0
 11
-156.7419999999999
 21
1.632000000000004
 31
0.0
  0
LINE
  5
CCE
330
36
100
AcDbEntity
  8
0
100
AcDbLine
 10
-357.742
 20
6.632000000000005
 30
0.0
 11
-156.7419999999999
 21
6.632000000000005
 31
0.0
  0
LINE
  5
CCF
330
36
100
AcDbEntity
  8
0
100
AcDbLine
 10
-357.742
 20
11.632
 30
0.0
 11
-156.7419999999999
 21
11.632
 31
0.0
  0
LINE
  5
CD0
330
36
100
AcDbEntity
  8
0
100
AcDbLine
 10
-357.742
 20
16.632
 30
0.0
 11
-156.7419999999999
 21
16.632
 31
0.0
  0
LINE
  5
CD1
330
36
100
AcDbEntity
  8
0
100
AcDbLine
 10
-357.742
 20
21.63200000000001
 30
0.0
 11
-156.7419999999999
 21
21.63200000000002
 31
0.0
  0
LINE
  5
CD2
330
36
100
AcDbEntity
  8
0
100
AcDbLine
 10
-357.742
 20
26.632
 30
0.0
 11
-156.7419999999999
 21
26.63200000000001
 31
0.0
  0
LINE
  5
CD3
330
36
100
AcDbEntity
  8
0
100
AcDbLine
 10
-357.742
 20
31.632
 30
0.0
 11
-156.7419999999999
 21
31.63200000000001
 31
0.0
  0
LINE
  5
CD4
330
36
100
AcDbEntity
  8
0
 62
     7
100
AcDbLine
 10
-357.742
 20
36.632
 30
0.0
 11
-156.7419999999999
 21
36.632
 31
0.0
  0
LINE
  5
CD5
330
36
100
AcDbEntity
  8
0
 62
     3
100
AcDbLine
 10
-156.7419999999999
 20
-23.368
 30
0.0
 11
-156.7419999999999
 21
41.63199999999998
 31
0.0
  0
LINE
  5
CD6
330
36
100
AcDbEntity
  8
0
100
AcDbLine
 10
-248.7419999999998
 20
-23.368
 30
0.0
 11
-248.7419999999998
 21
41.63199999999998
 31
0.0
  0
LINE
  5
CD7
330
36
100
AcDbEntity
  8
0
100
AcDbLine
 10
-308.742
 20
-23.368
 30
0.0
 11
-308.742
 21
41.63199999999998
 31
0.0
  0
LINE
  5
CD8
330
36
100
AcDbEntity
  8
0
100
AcDbLine
 10
-293.7419999999999
 20
-23.368
 30
0.0
 11
-293.7419999999999
 21
41.63199999999998
 31
0.0
  0
LINE
  5
CD9
330
36
100
AcDbEntity
  8
0
100
AcDbLine
 10
-348.742
 20
-23.368
 30
0.0
 11
-348.742
 21
41.63199999999998
 31
0.0
  0
TEXT
  5
CDA
330
36
100
AcDbEntity
  8
0
 62
     3
100
AcDbText
 10
-247.2419999999999
 20
22.132
 30
0.0
 40
3.2
  1
1
 41
0.8
  7
高3.2
100
AcDbText
  0
TEXT
  5
CDB
330
36
100
AcDbEntity
  8
0
 62
     3
100
AcDbText
 10
-247.2419999999999
 20
-12.86799999999999
 30
0.0
 40
3.2
  1
1
 41
0.8
  7
高3.2
100
AcDbText
  0
TEXT
  5
CDC
330
36
100
AcDbEntity
  8
0
 62
     3
100
AcDbText
 10
-247.2419999999999
 20
17.132
 30
0.0
 40
3.2
  1
1
 41
0.8
  7
高3.2
100
AcDbText
  0
TEXT
  5
CDD
330
36
100
AcDbEntity
  8
0
 62
     3
100
AcDbText
 10
-347.242
 20
32.132
 30
0.0
 40
3.2
  1
プラグ付き電線
 41
0.8
  7
高3.2
100
AcDbText
  0
TEXT
  5
CDE
330
36
100
AcDbEntity
  8
0
 62
     3
100
AcDbText
 10
-247.2419999999999
 20
7.131999999999997
 30
0.0
 40
3.2
  1
1
 41
0.8
  7
高3.2
100
AcDbText
  0
TEXT
  5
CDF
330
36
100
AcDbEntity
  8
0
 62
     3
100
AcDbText
 10
-347.242
 20
-17.86799999999999
 30
0.0
 40
3.2
  1
本体
 41
0.8
  7
高3.2
100
AcDbText
  0
TEXT
  5
CE0
330
36
100
AcDbEntity
  8
0
 62
     3
100
AcDbText
 10
-347.242
 20
-12.86799999999999
 30
0.0
 40
3.2
  1
コンセントパネル
 41
0.8
  7
高3.2
100
AcDbText
  0
TEXT
  5
CE1
330
36
100
AcDbEntity
  8
0
 62
     3
100
AcDbText
 10
-347.242
 20
27.13200000000001
 30
0.0
 40
3.2
  1
ホールプラグ
 41
0.8
  7
高3.2
100
AcDbText
  0
TEXT
  5
CE2
330
36
100
AcDbEntity
  8
0
 62
     3
100
AcDbText
 10
-307.242
 20
32.132
 30
0.0
 40
3.2
  1
PVC
 41
0.8
  7
高3.2
100
AcDbText
  0
TEXT
  5
CE3
330
36
100
AcDbEntity
  8
0
 62
     3
100
AcDbText
 10
-307.242
 20
22.132
 30
0.0
 40
3.2
  1
PA6
 41
0.8
  7
高3.2
100
AcDbText
  0
TEXT
  5
CE4
330
36
100
AcDbEntity
  8
0
 62
     3
100
AcDbText
 10
-307.242
 20
-17.86799999999999
 30
0.0
 40
3.2
  1
ABS
 41
0.8
  7
高3.2
100
AcDbText
  0
TEXT
  5
CE5
330
36
100
AcDbEntity
  8
0
 62
     3
100
AcDbText
 10
-307.242
 20
27.13200000000001
 30
0.0
 40
3.2
  1
PP
 41
0.8
  7
高3.2
100
AcDbText
  0
TEXT
  5
CE6
330
36
100
AcDbEntity
  8
0
 62
     3
100
AcDbText
 10
-247.2419999999999
 20
-17.86799999999999
 30
0.0
 40
3.2
  1
1式
 41
0.8
  7
高3.2
100
AcDbText
  0
TEXT
  5
CE7
330
36
100
AcDbEntity
  8
0
 62
     3
100
AcDbText
 10
-347.242
 20
37.132
 30
0.0
 40
3.2
  1
型式　取説表示シール
 41
0.8
  7
高3.2
100
AcDbText
  0
TEXT
  5
CE8
330
36
100
AcDbEntity
  8
0
 62
     3
100
AcDbText
 10
-247.2419999999999
 20
27.13200000000002
 30
0.0
 40
3.2
  1
各1
 41
0.8
  7
高3.2
100
AcDbText
  0
TEXT
  5
CE9
330
36
100
AcDbEntity
  8
0
 62
     3
100
AcDbText
 10
-247.2419999999999
 20
-7.867999999999991
 30
0.0
 40
3.2
  1
1
 41
0.8
  7
高3.2
100
AcDbText
  0
TEXT
  5
CEA
330
36
100
AcDbEntity
  8
0
 62
     3
100
AcDbText
 10
-347.242
 20
-7.867999999999993
 30
0.0
 40
3.2
  1
電源ランプ
 41
0.8
  7
高3.2
100
AcDbText
  0
TEXT
  5
CEB
330
36
100
AcDbEntity
  8
0
 62
     3
100
AcDbText
 10
-292.242
 20
-7.867999999999991
 30
0.0
 40
3.2
  1
100V用
 41
0.8
  7
高3.2
100
AcDbText
  0
TEXT
  5
CED
330
36
100
AcDbEntity
  8
0
 62
     3
100
AcDbText
 10
-307.242
 20
-12.86799999999999
 30
0.0
 40
3.2
  1
SPCC
 41
0.8
  7
高3.2
100
AcDbText
  0
TEXT
  5
CEE
330
36
100
AcDbEntity
  8
0
 62
     3
100
AcDbText
 10
-347.242
 20
-2.867999999999994
 30
0.0
 40
3.2
  1
1口コンセント　黒
 41
0.8
  7
高3.2
100
AcDbText
  0
TEXT
  5
CEF
330
36
100
AcDbEntity
  8
0
 62
     3
100
AcDbText
 10
-247.2419999999999
 20
-2.867999999999994
 30
0.0
 40
3.2
  1
各1
 41
0.8
  7
高3.2
100
AcDbText
  0
TEXT
  5
CF0
330
36
100
AcDbEntity
  8
0
 62
     3
100
AcDbText
 10
-347.242
 20
22.132
 30
0.0
 40
3.2
  1
線止めリング
 41
0.8
  7
高3.2
100
AcDbText
  0
TEXT
  5
CF1
330
36
100
AcDbEntity
  8
0
 62
     3
100
AcDbText
 10
-356.2419999999999
 20
-17.86799999999999
 30
0.0
 40
3.2
  1
1
 41
0.8
  7
高3.2
100
AcDbText
  0
TEXT
  5
CF2
330
36
100
AcDbEntity
  8
0
 62
     3
100
AcDbText
 10
-356.2419999999999
 20
-12.86799999999999
 30
0.0
 40
3.2
  1
2
 41
0.8
  7
高3.2
100
AcDbText
  0
TEXT
  5
CF3
330
36
100
AcDbEntity
  8
0
 62
     3
100
AcDbText
 10
-356.2419999999999
 20
-7.867999999999991
 30
0.0
 40
3.2
  1
3
 41
0.8
  7
高3.2
100
AcDbText
  0
TEXT
  5
CF4
330
36
100
AcDbEntity
  8
0
 62
     3
100
AcDbText
 10
-356.2419999999999
 20
-2.867999999999993
 30
0.0
 40
3.2
  1
4
 41
0.8
  7
高3.2
100
AcDbText
  0
TEXT
  5
CF5
330
36
100
AcDbEntity
  8
0
 62
     3
100
AcDbText
 10
-356.2419999999999
 20
2.132000000000003
 30
0.0
 40
3.2
  1
5
 41
0.8
  7
高3.2
100
AcDbText
  0
TEXT
  5
CF6
330
36
100
AcDbEntity
  8
0
 62
     3
100
AcDbText
 10
-356.2419999999999
 20
7.132000000000005
 30
0.0
 40
3.2
  1
6
 41
0.8
  7
高3.2
100
AcDbText
  0
TEXT
  5
CF7
330
36
100
AcDbEntity
  8
0
 62
     3
100
AcDbText
 10
-356.2419999999999
 20
12.132
 30
0.0
 40
3.2
  1
7
 41
0.8
  7
高3.2
100
AcDbText
  0
TEXT
  5
CF8
330
36
100
AcDbEntity
  8
0
 62
     3
100
AcDbText
 10
-356.2419999999999
 20
17.132
 30
0.0
 40
3.2
  1
8
 41
0.8
  7
高3.2
100
AcDbText
  0
TEXT
  5
CF9
330
36
100
AcDbEntity
  8
0
 62
     3
100
AcDbText
 10
-292.242
 20
-22.868
 30
0.0
 40
3.2
  1
備考
 41
0.8
  7
高3.2
100
AcDbText
  0
TEXT
  5
CFA
330
36
100
AcDbEntity
  8
0
 62
     3
100
AcDbText
 10
-307.242
 20
-22.868
 30
0.0
 40
3.2
  1
材質
 41
0.8
  7
高3.2
100
AcDbText
  0
TEXT
  5
CFB
330
36
100
AcDbEntity
  8
0
 62
     3
100
AcDbText
 10
-247.2419999999998
 20
-22.868
 30
0.0
 40
3.2
  1
数
 41
0.8
  7
高3.2
100
AcDbText
  0
TEXT
  5
CFC
330
36
100
AcDbEntity
  8
0
 62
     3
100
AcDbText
 10
-347.242
 20
-22.868
 30
0.0
 40
3.2
  1
部品名
 41
0.8
  7
高3.2
100
AcDbText
  0
TEXT
  5
CFD
330
36
100
AcDbEntity
  8
0
 62
     3
100
AcDbText
 10
-356.2419999999999
 20
-22.868
 30
0.0
 40
3.2
  1
NO
 41
0.8
  7
高3.2
100
AcDbText
  0
TEXT
  5
CFE
330
36
100
AcDbEntity
  8
0
 62
     3
100
AcDbText
 10
-292.242
 20
32.132
 30
0.0
 40
3.2
  1
VCTF2.0sqx2芯x3m
 41
0.8
  7
高3.2
100
AcDbText
  0
TEXT
  5
D00
330
36
100
AcDbEntity
  8
0
 62
     3
100
AcDbText
 10
-347.242
 20
2.132000000000005
 30
0.0
 40
3.2
  1
1口コンセント　白
 41
0.8
  7
高3.2
100
AcDbText
  0
TEXT
  5
D01
330
36
100
AcDbEntity
  8
0
 62
     3
100
AcDbText
 10
-247.2419999999999
 20
2.132000000000005
 30
0.0
 40
3.2
  1
各1
 41
0.8
  7
高3.2
100
AcDbText
  0
TEXT
  5
D02
330
36
100
AcDbEntity
  8
0
 62
     3
100
AcDbText
 10
-347.242
 20
7.131999999999997
 30
0.0
 40
3.2
  1
基板セット
 41
0.8
  7
高3.2
100
AcDbText
  0
TEXT
  5
D03
330
36
100
AcDbEntity
  8
0
 62
     3
100
AcDbText
 10
-347.242
 20
17.132
 30
0.0
 40
3.2
  1
サーキットブレーカー
 41
0.8
  7
高3.2
100
AcDbText
  0
TEXT
  5
D04
330
36
100
AcDbEntity
  8
0
 62
     3
100
AcDbText
 10
-292.242
 20
17.132
 30
0.0
 40
3.2
  1
ヒューズ15A
 41
0.8
  7
高3.2
100
AcDbText
  0
TEXT
  5
D05
330
36
100
AcDbEntity
  8
0
 62
     3
100
AcDbText
 10
-356.2419999999999
 20
22.13200000000001
 30
0.0
 40
3.2
  1
9
 41
0.8
  7
高3.2
100
AcDbText
  0
TEXT
  5
D06
330
36
100
AcDbEntity
  8
0
 62
     3
100
AcDbText
 10
-356.2419999999999
 20
27.132
 30
0.0
 40
3.2
  1
10
 41
0.8
  7
高3.2
100
AcDbText
  0
TEXT
  5
D07
330
36
100
AcDbEntity
  8
0
 62
     3
100
AcDbText
 10
-356.2419999999999
 20
32.132
 30
0.0
 40
3.2
  1
11
 41
0.8
  7
高3.2
100
AcDbText
  0
LINE
  5
D08
330
36
100
AcDbEntity
  8
0
100
AcDbLine
 10
-239.7419999999999
 20
-23.368
 30
0.0
 11
-239.7419999999999
 21
41.63199999999998
 31
0.0
  0
TEXT
  5
D09
330
36
100
AcDbEntity
  8
0
 62
     3
100
AcDbText
 10
-238.2419999999999
 20
-17.86799999999999
 30
0.0
 40
3.2
  1
50450
 41
0.8
  7
高3.2
100
AcDbText
  0
TEXT
  5
D0A
330
36
100
AcDbEntity
  8
0
 62
     3
100
AcDbText
 10
-238.2419999999999
 20
-22.868
 30
0.0
 40
3.2
  1
コード
 41
0.8
  7
高3.2
100
AcDbText
  0
TEXT
  5
D0B
330
36
100
AcDbEntity
  8
0
 62
     3
100
AcDbText
 10
-238.2419999999999
 20
-12.86799999999999
 30
0.0
 40
3.2
  1
52683
 41
0.8
  7
高3.2
100
AcDbText
  0
TEXT
  5
D0C
330
36
100
AcDbEntity
  8
0
 62
     3
100
AcDbText
 10
-238.2419999999999
 20
-7.867999999999991
 30
0.0
 40
3.2
  1
51795
 41
0.8
  7
高3.2
100
AcDbText
  0
TEXT
  5
D0D
330
36
100
AcDbEntity
  8
0
 62
     3
100
AcDbText
 10
-238.2419999999999
 20
-2.867999999999994
 30
0.0
 40
3.2
  1
52253
 41
0.8
  7
高3.2
100
AcDbText
  0
TEXT
  5
D0E
330
36
100
AcDbEntity
  8
0
 62
     3
100
AcDbText
 10
-238.2419999999999
 20
2.132000000000005
 30
0.0
 40
3.2
  1
52647
 41
0.8
  7
高3.2
100
AcDbText
  0
TEXT
  5
D0F
330
36
100
AcDbEntity
  8
0
 62
     3
100
AcDbText
 10
-238.2419999999999
 20
7.131999999999997
 30
0.0
 40
3.2
  1
50522
 41
0.8
  7
高3.2
100
AcDbText
  0
TEXT
  5
D10
330
36
100
AcDbEntity
  8
0
 62
     3
100
AcDbText
 10
-238.2419999999999
 20
17.132
 30
0.0
 40
3.2
  1
54020
 41
0.8
  7
高3.2
100
AcDbText
  0
TEXT
  5
D11
330
36
100
AcDbEntity
  8
0
 62
     3
100
AcDbText
 10
-238.2419999999999
 20
22.132
 30
0.0
 40
3.2
  1
50459
 41
0.8
  7
高3.2
100
AcDbText
  0
TEXT
  5
D12
330
36
100
AcDbEntity
  8
0
 62
     3
100
AcDbText
 10
-238.2419999999999
 20
27.13200000000001
 30
0.0
 40
3.2
  1
50445
 41
0.8
  7
高3.2
100
AcDbText
  0
TEXT
  5
D13
330
36
100
AcDbEntity
  8
0
 62
     3
100
AcDbText
 10
-238.2419999999999
 20
32.132
 30
0.0
 40
3.2
  1
52649
 41
0.8
  7
高3.2
100
AcDbText
  0
LINE
  5
D92
330
36
100
AcDbEntity
  8
0
100
AcDbLine
 10
-194.6579548010922
 20
199.930052
 30
0.0
 11
-194.6579548010922
 21
212.430052
 31
0.0
  0
LINE
  5
D93
330
36
100
AcDbEntity
  8
0
100
AcDbLine
 10
-194.6579548010922
 20
199.930052
 30
0.0
 11
-194.1579548010922
 21
199.430052
 31
0.0
  0
LINE
  5
D94
330
36
100
AcDbEntity
  8
0
100
AcDbLine
 10
-194.6579548010922
 20
212.430052
 30
0.0
 11
-194.1579548010922
 21
212.930052
 31
0.0
  0
LINE
  5
D95
330
36
100
AcDbEntity
  8
0
100
AcDbLine
 10
-194.1579548010922
 20
199.430052
 30
0.0
 11
-194.1579548010922
 21
212.930052
 31
0.0
  0
LINE
  5
D96
330
36
100
AcDbEntity
  8
0
100
AcDbLine
 10
-175.6579548010922
 20
212.430052
 30
0.0
 11
-175.1579548010922
 21
212.930052
 31
0.0
  0
LINE
  5
D97
330
36
100
AcDbEntity
  8
0
100
AcDbLine
 10
-175.6579548010922
 20
199.930052
 30
0.0
 11
-175.6579548010922
 21
212.430052
 31
0.0
  0
LINE
  5
D98
330
36
100
AcDbEntity
  8
0
100
AcDbLine
 10
-175.6579548010922
 20
199.930052
 30
0.0
 11
-175.1579548010922
 21
199.430052
 31
0.0
  0
LINE
  5
D99
330
36
100
AcDbEntity
  8
0
100
AcDbLine
 10
-175.1579548010922
 20
199.430052
 30
0.0
 11
-175.1579548010922
 21
212.930052
 31
0.0
  0
ARC
  5
DE0
330
36
100
AcDbEntity
  8
0
 62
     3
100
AcDbCircle
 10
41.92960985511811
 20
113.088339794195
 30
0.0
 40
99.98879999999999
100
AcDbArc
 50
161.4767469999995
 51
168.0130150000004
  0
LINE
  5
DE1
330
36
100
AcDbEntity
  8
0
 62
     3
100
AcDbLine
 10
-55.87891414488185
 20
133.854962794195
 30
0.0
 11
-55.87891414488185
 21
131.855186794195
 31
0.0
  0
LINE
  5
DE2
330
36
100
AcDbEntity
  8
0
 62
     3
100
AcDbLine
 10
-55.87891414488185
 20
131.855186794195
 30
0.0
 11
-39.88070614488187
 21
131.855186794195
 31
0.0
  0
ARC
  5
DE3
330
36
100
AcDbEntity
  8
0
 62
     3
100
AcDbCircle
 10
-137.6892311448818
 20
113.088339794195
 30
0.0
 40
99.98879999999999
100
AcDbArc
 50
11.98698499999955
 51
18.52325300000048
  0
LINE
  5
DE4
330
36
100
AcDbEntity
  8
0
 62
     3
100
AcDbLine
 10
-41.88048214488182
 20
147.853394794195
 30
0.0
 11
-42.88037014488184
 21
144.853730794195
 31
0.0
  0
LINE
  5
DE5
330
36
100
AcDbEntity
  8
0
 62
     3
100
AcDbLine
 10
-41.88048214488182
 20
148.853282794195
 30
0.0
 11
-41.88048214488182
 21
147.853394794195
 31
0.0
  0
LINE
  5
DE6
330
36
100
AcDbEntity
  8
0
 62
     3
100
AcDbLine
 10
-53.87913814488185
 20
148.853282794195
 30
0.0
 11
-41.88048214488182
 21
148.853282794195
 31
0.0
  0
LINE
  5
DE7
330
36
100
AcDbEntity
  8
0
 62
     3
100
AcDbLine
 10
-44.38020214488186
 20
153.852722794195
 30
0.0
 11
-44.38020214488186
 21
148.853282794195
 31
0.0
  0
LINE
  5
DE8
330
36
100
AcDbEntity
  8
0
 62
     3
100
AcDbLine
 10
-51.37941814488183
 20
153.852722794195
 30
0.0
 11
-51.37941814488183
 21
148.853282794195
 31
0.0
  0
LINE
  5
DE9
330
36
100
AcDbEntity
  8
0
 62
     3
100
AcDbLine
 10
-43.88025814488186
 20
162.851714794195
 30
0.0
 11
-51.87936214488182
 21
162.851714794195
 31
0.0
  0
ARC
  5
DEA
330
36
100
AcDbEntity
  8
0
 62
     3
100
AcDbCircle
 10
-43.88025814488186
 20
162.351770794195
 30
0.0
 40
0.499944
100
AcDbArc
 50
0.0
 51
90.0
  0
ARC
  5
DEB
330
36
100
AcDbEntity
  8
0
 62
     3
100
AcDbCircle
 10
-43.88025814488186
 20
162.351770794195
 30
0.0
 40
0.499944
100
AcDbArc
 50
270.0
 51
0.0
  0
ARC
  5
DEC
330
36
100
AcDbEntity
  8
0
 62
     3
100
AcDbCircle
 10
-43.88025814488186
 20
158.352218794195
 30
0.0
 40
0.499944
100
AcDbArc
 50
270.0
 51
0.0
  0
LINE
  5
DED
330
36
100
AcDbEntity
  8
0
 62
     3
100
AcDbLine
 10
-44.38020214488186
 20
157.852274794195
 30
0.0
 11
-44.38020214488186
 21
154.852610794195
 31
0.0
  0
ARC
  5
DEE
330
36
100
AcDbEntity
  8
0
 62
     3
100
AcDbCircle
 10
-43.88025814488186
 20
154.352666794195
 30
0.0
 40
0.499944
100
AcDbArc
 50
0.0
 51
90.0
  0
ARC
  5
DEF
330
36
100
AcDbEntity
  8
0
 62
     3
100
AcDbCircle
 10
-43.88025814488186
 20
154.352666794195
 30
0.0
 40
0.499944
100
AcDbArc
 50
270.0
 51
0.0
  0
ARC
  5
DF0
330
36
100
AcDbEntity
  8
0
 62
     3
100
AcDbCircle
 10
-51.87936214488182
 20
154.352666794195
 30
0.0
 40
0.499944
100
AcDbArc
 50
90.0
 51
180.0
  0
LINE
  5
DF1
330
36
100
AcDbEntity
  8
0
 62
     3
100
AcDbLine
 10
-51.37941814488183
 20
157.852274794195
 30
0.0
 11
-51.37941814488183
 21
154.852610794195
 31
0.0
  0
ARC
  5
DF2
330
36
100
AcDbEntity
  8
0
 62
     3
100
AcDbCircle
 10
-51.87936214488182
 20
154.352666794195
 30
0.0
 40
0.499944
100
AcDbArc
 50
180.0
 51
270.0
  0
LINE
  5
DF3
330
36
100
AcDbEntity
  8
0
 62
     3
100
AcDbLine
 10
-53.87913814488185
 20
148.853282794195
 30
0.0
 11
-53.87913814488185
 21
147.853394794195
 31
0.0
  0
LINE
  5
DF4
330
36
100
AcDbEntity
  8
0
 62
     3
100
AcDbLine
 10
-53.87913814488185
 20
147.853394794195
 30
0.0
 11
-52.87925014488187
 21
144.853730794195
 31
0.0
  0
LINE
  5
DF5
330
36
100
AcDbEntity
  8
0
 62
     3
100
AcDbLine
 10
-39.88070614488187
 20
133.854962794195
 30
0.0
 11
-39.88070614488187
 21
131.855186794195
 31
0.0
  0
ARC
  5
DF6
330
36
100
AcDbEntity
  8
0
 62
     3
100
AcDbCircle
 10
-51.87936214488182
 20
158.352218794195
 30
0.0
 40
0.499944
100
AcDbArc
 50
180.0
 51
270.0
  0
ARC
  5
DF7
330
36
100
AcDbEntity
  8
0
 62
     3
100
AcDbCircle
 10
-51.87936214488182
 20
158.352218794195
 30
0.0
 40
0.499944
100
AcDbArc
 50
90.0
 51
180.0
  0
LINE
  5
DF8
330
36
100
AcDbEntity
  8
0
 62
     3
100
AcDbLine
 10
-51.37941814488183
 20
161.851826794195
 30
0.0
 11
-51.37941814488183
 21
158.852162794195
 31
0.0
  0
LINE
  5
DF9
330
36
100
AcDbEntity
  8
0
 62
     3
100
AcDbLine
 10
-44.38020214488186
 20
161.851826794195
 30
0.0
 11
-44.38020214488186
 21
158.852162794195
 31
0.0
  0
ARC
  5
DFA
330
36
100
AcDbEntity
  8
0
 62
     3
100
AcDbCircle
 10
-43.88025814488186
 20
158.352218794195
 30
0.0
 40
0.499944
100
AcDbArc
 50
0.0
 51
90.0
  0
ARC
  5
DFB
330
36
100
AcDbEntity
  8
0
 62
     3
100
AcDbCircle
 10
-51.87936214488182
 20
162.351770794195
 30
0.0
 40
0.499944
100
AcDbArc
 50
180.0
 51
270.0
  0
ARC
  5
DFC
330
36
100
AcDbEntity
  8
0
 62
     3
100
AcDbCircle
 10
-51.87936214488182
 20
162.351770794195
 30
0.0
 40
0.499944
100
AcDbArc
 50
90.0
 51
180.0
  0
LINE
  5
DFD
330
36
100
AcDbEntity
  8
0
 62
     3
100
AcDbLine
 10
-45.28010214488186
 20
177.467354794195
 30
0.0
 11
-45.28010214488186
 21
162.851714794195
 31
0.0
  0
LINE
  5
DFE
330
36
100
AcDbEntity
  8
0
 62
     3
100
AcDbLine
 10
-50.47951914488185
 20
176.006534794195
 30
0.0
 11
-50.47951914488185
 21
162.851714794195
 31
0.0
  0
LINE
  5
DFF
330
36
100
AcDbEntity
  8
0
100
AcDbLine
 10
-45.28010214488186
 20
160.851938794195
 30
0.0
 11
-45.28010214488186
 21
159.852050794195
 31
0.0
  0
LINE
  5
E00
330
36
100
AcDbEntity
  8
0
100
AcDbLine
 10
-43.88025814488186
 20
161.851826794195
 30
0.0
 11
-51.87936214488182
 21
161.851826794195
 31
0.0
  0
LINE
  5
E01
330
36
100
AcDbEntity
  8
0
100
AcDbLine
 10
-43.88025814488186
 20
158.852162794195
 30
0.0
 11
-51.87936214488182
 21
158.852162794195
 31
0.0
  0
LINE
  5
E02
330
36
100
AcDbEntity
  8
0
100
AcDbLine
 10
-43.88025814488186
 20
157.852274794195
 30
0.0
 11
-51.87936214488182
 21
157.852274794195
 31
0.0
  0
LINE
  5
E03
330
36
100
AcDbEntity
  8
0
100
AcDbLine
 10
-50.47951914488185
 20
160.851938794195
 30
0.0
 11
-50.47951914488185
 21
159.852050794195
 31
0.0
  0
LINE
  5
E04
330
36
100
AcDbEntity
  8
0
100
AcDbLine
 10
-45.28010214488186
 20
156.852386794195
 30
0.0
 11
-45.28010214488186
 21
155.852498794195
 31
0.0
  0
LINE
  5
E05
330
36
100
AcDbEntity
  8
0
100
AcDbLine
 10
-50.47951914488185
 20
156.852386794195
 30
0.0
 11
-50.47951914488185
 21
155.852498794195
 31
0.0
  0
LINE
  5
E06
330
36
100
AcDbEntity
  8
0
100
AcDbLine
 10
-51.87936214488182
 20
153.852722794195
 30
0.0
 11
-43.88025814488186
 21
153.852722794195
 31
0.0
  0
LINE
  5
E07
330
36
100
AcDbEntity
  8
0
100
AcDbLine
 10
-51.87936214488182
 20
154.852610794195
 30
0.0
 11
-43.88025814488186
 21
154.852610794195
 31
0.0
  0
LINE
  5
E08
330
36
100
AcDbEntity
  8
0
100
AcDbLine
 10
-45.28010214488186
 20
151.852946794195
 30
0.0
 11
-45.28010214488186
 21
150.853058794195
 31
0.0
  0
LINE
  5
E09
330
36
100
AcDbEntity
  8
0
100
AcDbLine
 10
-50.47951914488185
 20
151.852946794195
 30
0.0
 11
-50.47951914488185
 21
150.853058794195
 31
0.0
  0
LINE
  5
E0A
330
36
100
AcDbEntity
  8
0
100
AcDbLine
 10
-53.87913814488185
 20
147.853394794195
 30
0.0
 11
-41.88048214488182
 21
147.853394794195
 31
0.0
  0
LINE
  5
E0B
330
36
100
AcDbEntity
  8
0
100
AcDbLine
 10
-52.87925014488187
 20
144.853730794195
 30
0.0
 11
-42.88037014488184
 21
144.853730794195
 31
0.0
  0
LINE
  5
E0C
330
36
100
AcDbEntity
  8
0
100
AcDbLine
 10
-55.87891414488185
 20
133.854962794195
 30
0.0
 11
-39.88070614488187
 21
133.854962794195
 31
0.0
  0
LINE
  5
E0D
330
36
100
AcDbEntity
  8
0
100
AcDbLine
 10
-51.87936214488182
 20
122.856194794195
 30
0.0
 11
-50.87947414488183
 21
122.856194794195
 31
0.0
  0
LINE
  5
E0E
330
36
100
AcDbEntity
  8
0
100
AcDbLine
 10
-44.88014614488185
 20
122.856194794195
 30
0.0
 11
-43.88025814488186
 21
122.856194794195
 31
0.0
  0
LINE
  5
E0F
330
36
100
AcDbEntity
  8
0
100
AcDbLine
 10
-51.87936214488182
 20
131.855186794195
 30
0.0
 11
-51.87936214488182
 21
122.856194794195
 31
0.0
  0
LINE
  5
E10
330
36
100
AcDbEntity
  8
0
100
AcDbLine
 10
-51.87936214488182
 20
122.856194794195
 30
0.0
 11
-51.62939014488187
 21
121.856306794195
 31
0.0
  0
LINE
  5
E11
330
36
100
AcDbEntity
  8
0
100
AcDbLine
 10
-51.62939014488187
 20
121.856306794195
 30
0.0
 11
-51.12944614488187
 21
121.856306794195
 31
0.0
  0
LINE
  5
E12
330
36
100
AcDbEntity
  8
0
100
AcDbLine
 10
-50.87947414488183
 20
122.856194794195
 30
0.0
 11
-51.12944614488187
 21
121.856306794195
 31
0.0
  0
LINE
  5
E13
330
36
100
AcDbEntity
  8
0
100
AcDbLine
 10
-50.87947414488183
 20
131.855186794195
 30
0.0
 11
-50.87947414488183
 21
122.856194794195
 31
0.0
  0
LINE
  5
E14
330
36
100
AcDbEntity
  8
0
100
AcDbLine
 10
-44.88014614488185
 20
131.855186794195
 30
0.0
 11
-44.88014614488185
 21
122.856194794195
 31
0.0
  0
LINE
  5
E15
330
36
100
AcDbEntity
  8
0
100
AcDbLine
 10
-44.88014614488185
 20
122.856194794195
 30
0.0
 11
-44.63017414488184
 21
121.856306794195
 31
0.0
  0
LINE
  5
E16
330
36
100
AcDbEntity
  8
0
100
AcDbLine
 10
-44.63017414488184
 20
121.856306794195
 30
0.0
 11
-44.13023014488184
 21
121.856306794195
 31
0.0
  0
LINE
  5
E17
330
36
100
AcDbEntity
  8
0
100
AcDbLine
 10
-43.88025814488186
 20
122.856194794195
 30
0.0
 11
-44.13023014488184
 21
121.856306794195
 31
0.0
  0
LINE
  5
E18
330
36
100
AcDbEntity
  8
0
100
AcDbLine
 10
-43.88025814488186
 20
131.855186794195
 30
0.0
 11
-43.88025814488186
 21
122.856194794195
 31
0.0
  0
TEXT
  5
E20
330
36
100
AcDbEntity
  8
0
 62
     3
100
AcDbText
 10
-59.32774778465227
 20
110.4190228827456
 30
0.0
 40
3.2
  1
2P 15A 成型プラグ
  7
高3.2
100
AcDbText
  0
LINE
  5
E21
330
36
100
AcDbEntity
  8
0
100
AcDbLine
 10
-21.79689504933413
 20
109.622073794195
 30
0.0
 11
-59.52714214488185
 21
109.622073794195
 31
0.0
  0
TEXT
  5
F39
330
36
100
AcDbEntity
  8
0
 62
     3
100
AcDbText
 10
19.758
 20
241.132
 30
0.0
 40
3.2
  1
担　当
  7
高3.2
100
AcDbText
  0
TEXT
  5
F3A
330
36
100
AcDbEntity
  8
0
 62
     3
100
AcDbText
 10
-24.242
 20
241.132
 30
0.0
 40
3.2
  1
変更・追記内容
  7
高3.2
100
AcDbText
  0
TEXT
  5
F3B
330
36
100
AcDbEntity
  8
0
 62
     3
100
AcDbText
 10
-49.12848499966075
 20
236.4614614900917
 30
0.0
 40
2.0
  1
1
  7
高2
100
AcDbText
  0
TEXT
  5
F3C
330
36
100
AcDbEntity
  8
0
 62
     3
100
AcDbText
 10
-49.43699647641803
 20
231.2916447778188
 30
0.0
 40
2.0
  1
2
  7
高2
100
AcDbText
  0
TEXT
  5
F3D
330
36
100
AcDbEntity
  8
0
 62
     3
100
AcDbText
 10
-42.24199999999997
 20
241.132
 30
0.0
 40
3.2
  1
日　付
  7
高3.2
100
AcDbText
  0
TEXT
  5
F3E
330
36
100
AcDbEntity
  8
0
 62
     3
100
AcDbText
 10
-42.24199999999997
 20
246.132
 30
0.0
 40
3.2
  1
図　　　　面　　　　略　　　　歴
  7
高3.2
100
AcDbText
  0
TEXT
  5
F3F
330
36
100
AcDbEntity
  8
0
 62
     3
100
AcDbText
 10
-52.24199999999999
 20
241.132
 30
0.0
 40
3.2
  1
記号
  7
高3.2
100
AcDbText
  0
LINE
  5
F40
330
36
100
AcDbEntity
  8
0
100
AcDbLine
 10
-48.742
 20
234.4228960000001
 30
0.0
 11
-50.64199999999997
 21
231.132
 31
0.0
  0
LINE
  5
F41
330
36
100
AcDbEntity
  8
0
100
AcDbLine
 10
-48.742
 20
234.4228960000001
 30
0.0
 11
-46.84200000000002
 21
231.132
 31
0.0
  0
LINE
  5
F42
330
36
100
AcDbEntity
  8
0
100
AcDbLine
 10
-50.64199999999997
 20
231.132
 30
0.0
 11
-46.84200000000002
 21
231.132
 31
0.0
  0
LINE
  5
F43
330
36
100
AcDbEntity
  8
0
100
AcDbLine
 10
-48.742
 20
239.4228970000001
 30
0.0
 11
-50.64199999999997
 21
236.132
 31
0.0
  0
LINE
  5
F44
330
36
100
AcDbEntity
  8
0
100
AcDbLine
 10
-48.742
 20
239.4228970000001
 30
0.0
 11
-46.84200000000002
 21
236.132
 31
0.0
  0
LINE
  5
F45
330
36
100
AcDbEntity
  8
0
100
AcDbLine
 10
-50.64199999999997
 20
236.132
 30
0.0
 11
-46.84200000000002
 21
236.132
 31
0.0
  0
LINE
  5
F46
330
36
100
AcDbEntity
  8
0
 62
     3
100
AcDbLine
 10
-53.742
 20
245.632
 30
0.0
 11
32.258
 21
245.632
 31
0.0
  0
LINE
  5
F47
330
36
100
AcDbEntity
  8
0
 62
     3
100
AcDbLine
 10
-53.742
 20
240.632
 30
0.0
 11
32.258
 21
240.632
 31
0.0
  0
LINE
  5
F48
330
36
100
AcDbEntity
  8
0
 62
     7
100
AcDbLine
 10
-53.742
 20
235.632
 30
0.0
 11
32.258
 21
235.632
 31
0.0
  0
LINE
  5
F49
330
36
100
AcDbEntity
  8
0
 62
     3
100
AcDbLine
 10
-53.742
 20
230.632
 30
0.0
 11
32.258
 21
230.632
 31
0.0
  0
LINE
  5
F4A
330
36
100
AcDbEntity
  8
0
 62
     7
100
AcDbLine
 10
18.25799999999994
 20
230.632
 30
0.0
 11
18.258
 21
245.632
 31
0.0
  0
LINE
  5
F4B
330
36
100
AcDbEntity
  8
0
 62
     7
100
AcDbLine
 10
-25.742
 20
230.632
 30
0.0
 11
-25.742
 21
245.632
 31
0.0
  0
LINE
  5
F4C
330
36
100
AcDbEntity
  8
0
 62
     7
100
AcDbLine
 10
-43.742
 20
230.632
 30
0.0
 11
-43.742
 21
245.632
 31
0.0
  0
LINE
  5
F4D
330
36
100
AcDbEntity
  8
0
 62
     3
100
AcDbLine
 10
-53.742
 20
230.632
 30
0.0
 11
-53.742
 21
250.632
 31
0.0
  0
LINE
  5
110F
330
36
100
AcDbEntity
  8
0
100
AcDbLine
 10
-221.7419999999999
 20
-23.368
 30
0.0
 11
-221.7419999999999
 21
41.63199999999998
 31
0.0
  0
TEXT
  5
1110
330
36
100
AcDbEntity
  8
0
 62
     3
100
AcDbText
 10
-220.2419999999999
 20
-17.86799999999999
 30
0.0
 40
3.2
  1
HR用本体 オレンジ
 41
0.6
  7
高3.2
100
AcDbText
  0
TEXT
  5
1111
330
36
100
AcDbEntity
  8
0
 62
     3
100
AcDbText
 10
-220.2419999999999
 20
-22.868
 30
0.0
 40
3.2
  1
コード番号名称
 41
0.6
  7
高3.2
100
AcDbText
  0
TEXT
  5
1112
330
36
100
AcDbEntity
  8
0
 62
     3
100
AcDbText
 10
-220.2419999999999
 20
-12.86799999999999
 30
0.0
 40
3.2
  1
ハンドスピコンパネルプレート SH-03 赤色
 41
0.6
  7
高3.2
100
AcDbText
  0
TEXT
  5
1113
330
36
100
AcDbEntity
  8
0
 62
     3
100
AcDbText
 10
-220.2419999999999
 20
-7.867999999999991
 30
0.0
 40
3.2
  1
100Vシングルランプ(S)
 41
0.6
  7
高3.2
100
AcDbText
  0
TEXT
  5
1114
330
36
100
AcDbEntity
  8
0
 62
     3
100
AcDbText
 10
-220.2419999999999
 20
-2.867999999999994
 30
0.0
 40
3.2
  1
EDK AC-T03SB07黒(2Pコンセント)
 41
0.6
  7
高3.2
100
AcDbText
  0
TEXT
  5
1115
330
36
100
AcDbEntity
  8
0
 62
     3
100
AcDbText
 10
-220.2419999999999
 20
2.132000000000005
 30
0.0
 40
3.2
  1
EDK AC-T03FW26(白)
 41
0.6
  7
高3.2
100
AcDbText
  0
TEXT
  5
1116
330
36
100
AcDbEntity
  8
0
 62
     3
100
AcDbText
 10
-220.2419999999999
 20
7.132000000000005
 30
0.0
 40
3.2
  1
スピコン用基板SET
 41
0.6
  7
高3.2
100
AcDbText
  0
TEXT
  5
1117
330
36
100
AcDbEntity
  8
0
 62
     3
100
AcDbText
 10
-220.2419999999999
 20
17.132
 30
0.0
 40
3.2
  1
スピコン用 サーキットブレーカー 15A
 41
0.6
  7
高3.2
100
AcDbText
  0
TEXT
  5
1118
330
36
100
AcDbEntity
  8
0
 62
     3
100
AcDbText
 10
-220.2419999999999
 20
22.132
 30
0.0
 40
3.2
  1
HR用線止め
 41
0.6
  7
高3.2
100
AcDbText
  0
TEXT
  5
1119
330
36
100
AcDbEntity
  8
0
 62
     3
100
AcDbText
 10
-220.2419999999999
 20
27.13200000000002
 30
0.0
 40
3.2
  1
ホールプラグ 芝軽 BB-0625-B
 41
0.6
  7
高3.2
100
AcDbText
  0
TEXT
  5
111A
330
36
100
AcDbEntity
  8
0
 62
     3
100
AcDbText
 10
-220.2419999999999
 20
32.132
 30
0.0
 40
3.2
  1
VCTF2x2x3M P付黒
 41
0.6
  7
高3.2
100
AcDbText
  0
TEXT
  5
195E
330
36
100
AcDbEntity
  8
0
 62
     3
100
AcDbText
 10
-307.242
 20
37.132
 30
0.0
 40
3.2
  1
-
 41
0.8
  7
高3.2
100
AcDbText
  0
TEXT
  5
197A
330
36
100
AcDbEntity
  8
0
 62
     3
100
AcDbText
 10
-307.242
 20
17.132
 30
0.0
 40
3.2
  1
-
 41
0.8
  7
高3.2
100
AcDbText
  0
TEXT
  5
197B
330
36
100
AcDbEntity
  8
0
 62
     3
100
AcDbText
 10
-307.242
 20
7.132000000000005
 30
0.0
 40
3.2
  1
-
 41
0.8
  7
高3.2
100
AcDbText
  0
TEXT
  5
197C
330
36
100
AcDbEntity
  8
0
 62
     3
100
AcDbText
 10
-307.242
 20
2.132000000000005
 30
0.0
 40
3.2
  1
-
 41
0.8
  7
高3.2
100
AcDbText
  0
TEXT
  5
197D
330
36
100
AcDbEntity
  8
0
 62
     3
100
AcDbText
 10
-307.242
 20
-2.867999999999994
 30
0.0
 40
3.2
  1
-
 41
0.8
  7
高3.2
100
AcDbText
  0
TEXT
  5
197E
330
36
100
AcDbEntity
  8
0
 62
     3
100
AcDbText
 10
-307.242
 20
-7.867999999999987
 30
0.0
 40
3.2
  1
-
 41
0.8
  7
高3.2
100
AcDbText
  0
TEXT
  5
197F
330
36
100
AcDbEntity
  8
0
 62
     3
100
AcDbText
 10
-292.242
 20
-17.86799999999999
 30
0.0
 40
3.2
  1
-
 41
0.8
  7
高3.2
100
AcDbText
  0
TEXT
  5
1980
330
36
100
AcDbEntity
  8
0
 62
     3
100
AcDbText
 10
-292.242
 20
-12.86799999999999
 30
0.0
 40
3.2
  1
-
 41
0.8
  7
高3.2
100
AcDbText
  0
TEXT
  5
1981
330
36
100
AcDbEntity
  8
0
 62
     3
100
AcDbText
 10
-292.242
 20
-2.867999999999994
 30
0.0
 40
3.2
  1
-
 41
0.8
  7
高3.2
100
AcDbText
  0
TEXT
  5
1982
330
36
100
AcDbEntity
  8
0
 62
     3
100
AcDbText
 10
-292.242
 20
2.132000000000005
 30
0.0
 40
3.2
  1
-
 41
0.8
  7
高3.2
100
AcDbText
  0
TEXT
  5
1983
330
36
100
AcDbEntity
  8
0
 62
     3
100
AcDbText
 10
-292.242
 20
7.131999999999997
 30
0.0
 40
3.2
  1
内部
 41
0.8
  7
高3.2
100
AcDbText
  0
TEXT
  5
1984
330
36
100
AcDbEntity
  8
0
 62
     3
100
AcDbText
 10
-292.242
 20
22.132
 30
0.0
 40
3.2
  1
-
 41
0.8
  7
高3.2
100
AcDbText
  0
TEXT
  5
1985
330
36
100
AcDbEntity
  8
0
 62
     3
100
AcDbText
 10
-292.242
 20
27.13200000000001
 30
0.0
 40
3.2
  1
-
 41
0.8
  7
高3.2
100
AcDbText
  0
TEXT
  5
1986
330
36
100
AcDbEntity
  8
0
 62
     3
100
AcDbText
 10
-292.242
 20
37.132
 30
0.0
 40
3.2
  1
-
 41
0.8
  7
高3.2
100
AcDbText
  0
TEXT
  5
1987
330
36
100
AcDbEntity
  8
0
 62
     3
100
AcDbText
 10
-247.2419999999999
 20
37.132
 30
0.0
 40
3.2
  1
-
 41
0.8
  7
高3.2
100
AcDbText
  0
TEXT
  5
1988
330
36
100
AcDbEntity
  8
0
 62
     3
100
AcDbText
 10
-247.2419999999999
 20
32.132
 30
0.0
 40
3.2
  1
-
 41
0.8
  7
高3.2
100
AcDbText
  0
TEXT
  5
1989
330
36
100
AcDbEntity
  8
0
 62
     3
100
AcDbText
 10
-238.2419999999999
 20
37.132
 30
0.0
 40
3.2
  1
-
 41
0.8
  7
高3.2
100
AcDbText
  0
TEXT
  5
198A
330
36
100
AcDbEntity
  8
0
 62
     3
100
AcDbText
 10
-220.242
 20
37.132
 30
0.0
 40
3.2
  1
-
 41
0.8
  7
高3.2
100
AcDbText
  0
LINE
  5
198B
330
36
100
AcDbEntity
  8
0
 62
     3
100
AcDbLine
 10
-357.742
 20
41.63199999999998
 30
0.0
 11
-156.7419999999999
 21
41.63199999999998
 31
0.0
  0
TEXT
  5
198C
330
36
100
AcDbEntity
  8
0
 62
     3
100
AcDbText
 10
-356.2419999999999
 20
37.13199999999999
 30
0.0
 40
3.2
  1
12
 41
0.8
  7
高3.2
100
AcDbText
  0
TEXT
  5
198D
330
36
100
AcDbEntity
  8
0
 62
     3
100
AcDbText
 10
-247.2419999999999
 20
12.132
 30
0.0
 40
3.2
  1
1
 41
0.8
  7
高3.2
100
AcDbText
  0
TEXT
  5
198E
330
36
100
AcDbEntity
  8
0
 62
     3
100
AcDbText
 10
-347.242
 20
12.132
 30
0.0
 40
3.2
  1
ボリュームツマミ
 41
0.8
  7
高3.2
100
AcDbText
  0
TEXT
  5
198F
330
36
100
AcDbEntity
  8
0
 62
     3
100
AcDbText
 10
-238.2419999999999
 20
12.132
 30
0.0
 40
3.2
  1
55899
 41
0.8
  7
高3.2
100
AcDbText
  0
TEXT
  5
1990
330
36
100
AcDbEntity
  8
0
 62
     3
100
AcDbText
 10
-220.2419999999999
 20
12.132
 30
0.0
 40
3.2
  1
ボリュームツマミ　K-8075-6.1(ディスクバルーン用)
 41
0.6
  7
高3.2
100
AcDbText
  0
TEXT
  5
1991
330
36
100
AcDbEntity
  8
0
 62
     3
100
AcDbText
 10
-307.242
 20
12.132
 30
0.0
 40
3.2
  1
-
 41
0.8
  7
高3.2
100
AcDbText
  0
TEXT
  5
1992
330
36
100
AcDbEntity
  8
0
 62
     3
100
AcDbText
 10
-292.242
 20
12.132
 30
0.0
 40
3.2
  1
K-8075-6.1
 41
0.8
  7
高3.2
100
AcDbText
  0
CIRCLE
  5
1997
330
36
100
AcDbEntity
  8
0
 62
     7
100
AcDbCircle
 10
-232.147926
 20
206.180052
 30
0.0
 40
3.124999999999985
  0
CIRCLE
  5
1998
330
36
100
AcDbEntity
  8
0
 62
     7
100
AcDbCircle
 10
-230.897926
 20
204.0149884905369
 30
0.0
 40
0.249999999999996
  0
CIRCLE
  5
1999
330
36
100
AcDbEntity
  8
0
 62
     7
100
AcDbCircle
 10
-232.147926
 20
206.180052
 30
0.0
 40
3.549999999999962
  0
CIRCLE
  5
199B
330
36
100
AcDbEntity
  8
0
100
AcDbCircle
 10
-234.980791449849
 20
238.5251326629997
 30
0.0
 40
5.0
  0
TEXT
  5
199C
330
36
100
AcDbEntity
  8
0
 62
     4
100
AcDbText
 10
-236.8778007650616
 20
235.4613319010244
 30
0.0
 40
6.299999999999998
  1
6
  7
高6.3
100
AcDbText
  0
CIRCLE
  5
199E
330
36
100
AcDbEntity
  8
0
100
AcDbCircle
 10
-246.3420674449033
 20
238.5251326629997
 30
0.0
 40
5.0
  0
TEXT
  5
199F
330
36
100
AcDbEntity
  8
0
 62
     4
100
AcDbText
 10
-248.2390767601159
 20
235.4613319010244
 30
0.0
 40
6.299999999999998
  1
7
  7
高6.3
100
AcDbText
  0
TEXT
  5
19A7
330
36
100
AcDbEntity
  8
0
 62
     7
100
AcDbText
 10
-24.24199999999996
 20
236.132
 30
0.0
 40
2.5
  1
ツマミ変更　No.6269
  7
高2.5
100
AcDbText
  0
TEXT
  5
19A8
330
36
100
AcDbEntity
  8
0
 62
     7
100
AcDbText
 10
19.75799999999998
 20
236.132
 30
0.0
 40
2.5
  1
今村
  7
高2.5
100
AcDbText
  0
TEXT
  5
19A9
330
36
100
AcDbEntity
  8
0
 62
     7
100
AcDbText
 10
-42.24199999999996
 20
236.132
 30
0.0
 40
2.5
  1
'20.10.19
  7
高2.5
100
AcDbText
  0
LINE
  5
1A58
330
36
100
AcDbEntity
  8
0
  6
HIDDEN
 62
     7
100
AcDbLine
 10
-242.2951996321735
 20
216.4078159271411
 30
0.0
 11
-223.7108406743918
 21
216.4078159271411
 31
0.0
  0
LINE
  5
1A59
330
36
100
AcDbEntity
  8
0
  6
HIDDEN
 62
     7
100
AcDbLine
 10
-223.7108406743918
 20
216.4078159271411
 30
0.0
 11
-223.7108406743918
 21
196.2384453696585
 31
0.0
  0
LINE
  5
1A5A
330
36
100
AcDbEntity
  8
0
  6
HIDDEN
 62
     7
100
AcDbLine
 10
-223.7108406743918
 20
196.2384453696585
 30
0.0
 11
-242.2951996321735
 21
196.2384453696585
 31
0.0
  0
LINE
  5
1A5B
330
36
100
AcDbEntity
  8
0
  6
HIDDEN
 62
     7
100
AcDbLine
 10
-242.2951996321735
 20
196.2384453696585
 30
0.0
 11
-242.2951996321735
 21
216.4078159271411
 31
0.0
  0
LINE
  5
1A5E
330
36
100
AcDbEntity
  8
0
100
AcDbLine
 10
-53.17146914488187
 20
177.485344794195
 30
0.0
 11
-51.40440614488186
 21
176.365278794195
 31
0.0
  0
LINE
  5
1A5F
330
36
100
AcDbEntity
  8
0
100
AcDbLine
 10
-51.40440614488186
 20
176.365278794195
 30
0.0
 11
-49.59952414488184
 21
175.914012794195
 31
0.0
  0
LINE
  5
1A60
330
36
100
AcDbEntity
  8
0
100
AcDbLine
 10
-49.59952414488184
 20
175.914012794195
 30
0.0
 11
-47.19142814488184
 21
176.770548794195
 31
0.0
  0
LINE
  5
1A61
330
36
100
AcDbEntity
  8
0
100
AcDbLine
 10
-47.19142814488184
 20
176.770548794195
 30
0.0
 11
-44.81263114488188
 21
177.485344794195
 31
0.0
  0
LINE
  5
1A62
330
36
100
AcDbEntity
  8
0
100
AcDbLine
 10
-44.81263114488188
 20
177.485344794195
 30
0.0
 11
-43.44947014488183
 21
177.018138794195
 31
0.0
  0
LINE
  5
1A63
330
36
100
AcDbEntity
  8
0
100
AcDbLine
 10
-43.44947014488183
 20
177.018138794195
 30
0.0
 11
-42.11977914488186
 21
176.095472794195
 31
0.0
  0
LINE
  5
1A6C
330
36
100
AcDbEntity
  8
0
100
AcDbLine
 10
-257.409381
 20
81.32099800000004
 30
0.0
 11
-257.9321630000001
 21
79.31753000000004
 31
0.0
  0
LINE
  5
1A6D
330
36
100
AcDbEntity
  8
0
100
AcDbLine
 10
-257.9321630000001
 20
79.31753000000004
 30
0.0
 11
-256.4776870000001
 21
80.79119300000002
 31
0.0
  0
LINE
  5
1A6E
330
36
100
AcDbEntity
  8
0
100
AcDbLine
 10
-169.943593
 20
80.63391500000006
 30
0.0
 11
-168.34537
 21
79.31753000000004
 31
0.0
  0
LINE
  5
1A6F
330
36
100
AcDbEntity
  8
0
100
AcDbLine
 10
-168.34537
 20
79.31753000000004
 30
0.0
 11
-169.071279
 21
81.25666400000005
 31
0.0
  0
LINE
  5
1A70
330
36
100
AcDbEntity
  8
0
100
AcDbLine
 10
-112.829786
 20
158.424269
 30
0.0
 11
-113.776121
 21
156.558369
 31
0.0
  0
LINE
  5
1A71
330
36
100
AcDbEntity
  8
0
100
AcDbLine
 10
-113.776121
 20
156.558369
 30
0.0
 11
-113.914772
 21
154.750181
 31
0.0
  0
LINE
  5
1A72
330
36
100
AcDbEntity
  8
0
100
AcDbLine
 10
-113.914772
 20
154.750181
 30
0.0
 11
-113.405096
 21
153.709067
 31
0.0
  0
LINE
  5
1A73
330
36
100
AcDbEntity
  8
0
100
AcDbLine
 10
-113.405096
 20
153.709067
 30
0.0
 11
-112.924908
 21
152.675331
 31
0.0
  0
LINE
  5
1A74
330
36
100
AcDbEntity
  8
0
100
AcDbLine
 10
-112.924908
 20
152.675331
 30
0.0
 11
-113.187209
 21
150.984666
 31
0.0
  0
LINE
  5
1A75
330
36
100
AcDbEntity
  8
0
100
AcDbLine
 10
-113.187209
 20
150.984666
 30
0.0
 11
-114.265534
 21
149.259856
 31
0.0
  0
LINE
  5
1A76
330
36
100
AcDbEntity
  8
0
100
AcDbLine
 10
-212.398122
 20
189.176969
 30
0.0
 11
-317.771971
 21
189.176969
 31
0.0
  0
LINE
  5
1A77
330
36
100
AcDbEntity
  8
0
100
AcDbLine
 10
-212.398122
 20
223.176969
 30
0.0
 11
-317.771971
 21
223.176969
 31
0.0
  0
LINE
  5
1A78
330
36
100
AcDbEntity
  8
0
100
AcDbLine
 10
-316.521971
 20
191.676969
 30
0.0
 11
-316.521971
 21
220.676969
 31
0.0
  0
LINE
  5
1A7C
330
36
100
AcDbEntity
  8
0
100
AcDbLine
 10
-297.3981220000001
 20
109.454298
 30
0.0
 11
-312.1319190000001
 21
109.454298
 31
0.0
  0
LINE
  5
1A7D
330
36
100
AcDbEntity
  8
0
100
AcDbLine
 10
-297.3981220000001
 20
168.465408
 30
0.0
 11
-312.131919
 21
168.465408
 31
0.0
  0
LINE
  5
1A7E
330
36
100
AcDbEntity
  8
0
100
AcDbLine
 10
-310.8819190000001
 20
111.954298
 30
0.0
 11
-310.8819190000001
 21
165.965408
 31
0.0
  0
LINE
  5
1A82
330
36
100
AcDbEntity
  8
0
100
AcDbLine
 10
-299.648122
 20
203.039042
 30
0.0
 11
-299.648122
 21
175.727763
 31
0.0
  0
LINE
  5
1A83
330
36
100
AcDbEntity
  8
0
100
AcDbLine
 10
-124.648122
 20
203.039042
 30
0.0
 11
-124.648122
 21
175.727763
 31
0.0
  0
LINE
  5
1A84
330
36
100
AcDbEntity
  8
0
100
AcDbLine
 10
-297.148122
 20
176.977763
 30
0.0
 11
-127.148122
 21
176.977763
 31
0.0
  0
LINE
  5
1A88
330
36
100
AcDbEntity
  8
0
100
AcDbLine
 10
-174.9946011111497
 20
216.2885125639268
 30
0.0
 11
-168.8413608376242
 21
232.9105105469701
 31
0.0
1001
ACAD
1000
DSTYLE
1002
{
1070
   341
1005
11A1
1070
   147
1040
0.625
1070
    77
1070
     0
1070
   342
1005
0
1002
}
  0
LINE
  5
1A8A
330
36
100
AcDbEntity
  8
0
100
AcDbLine
 10
-154.5039229292011
 20
224.3381212987782
 30
0.0
 11
-151.4397909270634
 21
232.6189268999378
 31
0.0
1001
ACAD
1000
DSTYLE
1002
{
1070
   147
1040
0.625
1070
    77
1070
     0
1070
   342
1005
0
1002
}
  0
LINE
  5
1A8B
330
36
100
AcDbEntity
  8
0
  6
ByBlock
 62
     0
370
    -2
100
AcDbLine
 10
-153.8756808480783
 20
224.1056539811554
 30
0.0
 11
-155.3715033927328
 21
221.9934882487471
 31
0.0
  0
LINE
  5
1A8C
330
36
100
AcDbEntity
  8
0
  6
ByBlock
 62
     0
370
    -2
100
AcDbLine
 10
-155.3715033927328
 20
221.9934882487471
 30
0.0
 11
-155.1321650103238
 21
224.570588616401
 31
0.0
  0
LINE
  5
1A8D
330
36
100
AcDbEntity
  8
0
  6
ByBlock
 62
     0
370
    -2
100
AcDbLine
 10
-155.3715033927328
 20
221.9934882487471
 30
0.0
 11
-154.5039229292011
 21
224.3381212987782
 31
0.0
  0
LINE
  5
1A8E
330
36
100
AcDbEntity
  8
0
100
AcDbLine
 10
-244.1956468544557
 20
127.8151211102058
 30
0.0
 11
-222.8071092910887
 21
103.9651367795884
 31
0.0
1001
ACAD
1000
DSTYLE
1002
{
1070
   147
1040
0.625
1070
    77
1070
     0
1070
   342
1005
0
1002
}
  0
LINE
  5
1A8F
330
36
100
AcDbEntity
  8
0
  6
ByBlock
 62
     0
370
    -2
100
AcDbLine
 10
-244.6943532357772
 20
127.3678839119704
 30
0.0
 11
-245.86476
 21
129.67632
 31
0.0
  0
LINE
  5
1A90
330
36
100
AcDbEntity
  8
0
  6
ByBlock
 62
     0
370
    -2
100
AcDbLine
 10
-245.86476
 20
129.67632
 30
0.0
 11
-243.6969404731342
 21
128.2623583084413
 31
0.0
  0
LINE
  5
1A91
330
36
100
AcDbEntity
  8
0
  6
ByBlock
 62
     0
370
    -2
100
AcDbLine
 10
-245.86476
 20
129.67632
 30
0.0
 11
-244.1956468544557
 21
127.8151211102058
 31
0.0
  0
LINE
  5
1A92
330
36
100
AcDbEntity
  8
0
100
AcDbLine
 10
-179.9963846298237
 20
123.7799939593531
 30
0.0
 11
-202.2501497403527
 21
103.7105330812938
 31
0.0
1001
ACAD
1000
DSTYLE
1002
{
1070
   147
1040
0.625
1070
    77
1070
     0
1070
   342
1005
0
1002
}
  0
LINE
  5
1A93
330
36
100
AcDbEntity
  8
0
  6
ByBlock
 62
     0
370
    -2
100
AcDbLine
 10
-180.445012723211
 20
124.2774494850838
 30
0.0
 11
-178.139854
 21
125.454298
 31
0.0
  0
LINE
  5
1A94
330
36
100
AcDbEntity
  8
0
  6
ByBlock
 62
     0
370
    -2
100
AcDbLine
 10
-178.139854
 20
125.454298
 30
0.0
 11
-179.5477565364364
 21
123.2825384336225
 31
0.0
  0
LINE
  5
1A95
330
36
100
AcDbEntity
  8
0
  6
ByBlock
 62
     0
370
    -2
100
AcDbLine
 10
-178.139854
 20
125.454298
 30
0.0
 11
-179.9963846298237
 21
123.7799939593531
 31
0.0
  0
LINE
  5
1A96
330
36
100
AcDbEntity
  8
0
100
AcDbLine
 10
-263.4898136556473
 20
83.66216308687468
 30
0.0
 11
-266.9501052720758
 21
93.01358982625073
 31
0.0
1001
ACAD
1000
DSTYLE
1002
{
1070
   147
1040
0.625
1070
    77
1070
     0
1070
   342
1005
0
1002
}
  0
LINE
  5
1A97
330
36
100
AcDbEntity
  8
0
  6
ByBlock
 62
     0
370
    -2
100
AcDbLine
 10
-262.8615715646524
 20
83.89463037781798
 30
0.0
 11
-262.6222332916852
 21
81.31753000000003
 31
0.0
  0
LINE
  5
1A98
330
36
100
AcDbEntity
  8
0
  6
ByBlock
 62
     0
370
    -2
100
AcDbLine
 10
-262.6222332916852
 20
81.31753000000003
 30
0.0
 11
-264.1180557466423
 21
83.42969579593138
 31
0.0
  0
LINE
  5
1A99
330
36
100
AcDbEntity
  8
0
  6
ByBlock
 62
     0
370
    -2
100
AcDbLine
 10
-262.6222332916852
 20
81.31753000000003
 30
0.0
 11
-263.4898136556473
 21
83.66216308687468
 31
0.0
  0
LINE
  5
1A9A
330
36
100
AcDbEntity
  8
0
100
AcDbLine
 10
-162.2769293443528
 20
83.66216308687468
 30
0.0
 11
-158.8166377279243
 21
93.01358982625073
 31
0.0
1001
ACAD
1000
DSTYLE
1002
{
1070
   147
1040
0.625
1070
    77
1070
     0
1070
   342
1005
0
1002
}
  0
LINE
  5
1A9B
330
36
100
AcDbEntity
  8
0
  6
ByBlock
 62
     0
370
    -2
100
AcDbLine
 10
-161.6486872533578
 20
83.42969579593139
 30
0.0
 11
-163.1445097083149
 21
81.31753000000003
 31
0.0
  0
LINE
  5
1A9C
330
36
100
AcDbEntity
  8
0
  6
ByBlock
 62
     0
370
    -2
100
AcDbLine
 10
-163.1445097083149
 20
81.31753000000003
 30
0.0
 11
-162.9051714353477
 21
83.89463037781798
 31
0.0
  0
LINE
  5
1A9D
330
36
100
AcDbEntity
  8
0
  6
ByBlock
 62
     0
370
    -2
100
AcDbLine
 10
-163.1445097083149
 20
81.31753000000003
 30
0.0
 11
-162.2769293443528
 21
83.66216308687468
 31
0.0
  0
LINE
  5
1A9E
330
36
100
AcDbEntity
  8
0
100
AcDbLine
 10
-234.5790844401651
 20
211.7200852705511
 30
0.0
 11
-244.3328455935272
 21
233.9465927699823
 31
0.0
1001
ACAD
1000
DSTYLE
1002
{
1070
   147
1040
0.625
1070
    77
1070
     0
1070
   342
1005
0
1002
}
  0
LINE
  5
1A9F
330
36
100
AcDbEntity
  8
0
  6
ByBlock
 62
     0
370
    -2
100
AcDbLine
 10
-233.965676847268
 20
211.9892697634783
 30
0.0
 11
-233.574473514477
 21
209.4308153240424
 31
0.0
  0
LINE
  5
1AA0
330
36
100
AcDbEntity
  8
0
  6
ByBlock
 62
     0
370
    -2
100
AcDbLine
 10
-233.574473514477
 20
209.4308153240424
 30
0.0
 11
-235.1924920330622
 21
211.4509007776239
 31
0.0
  0
LINE
  5
1AA1
330
36
100
AcDbEntity
  8
0
  6
ByBlock
 62
     0
370
    -2
100
AcDbLine
 10
-233.574473514477
 20
209.4308153240424
 30
0.0
 11
-234.5790844401651
 21
211.7200852705511
 31
0.0
  0
LINE
  5
1AA2
330
36
100
AcDbEntity
  8
0
100
AcDbLine
 10
-233.1878262810271
 20
218.8974500038047
 30
0.0
 11
-234.5259413017111
 21
233.5458645096725
 31
0.0
1001
ACAD
1000
DSTYLE
1002
{
1070
   147
1040
0.625
1070
    77
1070
     0
1070
   342
1005
0
1002
}
  0
LINE
  5
1AA3
330
36
100
AcDbEntity
  8
0
  6
ByBlock
 62
     0
370
    -2
100
AcDbLine
 10
-232.5207313198192
 20
218.9583883249764
 30
0.0
 11
-232.9604012069582
 21
216.4078159271411
 31
0.0
  0
LINE
  5
1AA4
330
36
100
AcDbEntity
  8
0
  6
ByBlock
 62
     0
370
    -2
100
AcDbLine
 10
-232.9604012069582
 20
216.4078159271411
 30
0.0
 11
-233.8549212422351
 21
218.836511682633
 31
0.0
  0
LINE
  5
1AA5
330
36
100
AcDbEntity
  8
0
  6
ByBlock
 62
     0
370
    -2
100
AcDbLine
 10
-232.9604012069582
 20
216.4078159271411
 30
0.0
 11
-233.1878262810271
 21
218.8974500038047
 31
0.0
  0
LINE
  5
1AA6
330
36
100
AcDbEntity
  8
0
100
AcDbLine
 10
-52.61162806253917
 20
170.7345410355701
 30
0.0
 11
-75.94086816468537
 21
185.0182245172496
 31
0.0
1001
ACAD
1000
DSTYLE
1002
{
1070
   147
1040
0.625
1070
    77
1070
     0
1070
   342
1005
0
1002
}
  0
LINE
  5
1AA7
330
36
100
AcDbEntity
  8
0
  6
ByBlock
 62
     0
370
    -2
100
AcDbLine
 10
-52.26184308607892
 20
171.3058374879475
 30
0.0
 11
-50.47951914488185
 21
169.429124794195
 31
0.0
  0
LINE
  5
1AA8
330
36
100
AcDbEntity
  8
0
  6
ByBlock
 62
     0
370
    -2
100
AcDbLine
 10
-50.47951914488185
 20
169.429124794195
 30
0.0
 11
-52.96141303899941
 21
170.1632445831928
 31
0.0
  0
LINE
  5
1AA9
330
36
100
AcDbEntity
  8
0
  6
ByBlock
 62
     0
370
    -2
100
AcDbLine
 10
-50.47951914488185
 20
169.429124794195
 30
0.0
 11
-52.61162806253917
 21
170.7345410355701
 31
0.0
  0
LINE
  5
1AAA
330
36
100
AcDbEntity
  8
0
100
AcDbLine
 10
-250.8393155918722
 20
211.5494645228352
 30
0.0
 11
-255.6914586903252
 21
233.4173388883317
 31
0.0
1001
ACAD
1000
DSTYLE
1002
{
1070
   147
1040
0.625
1070
    77
1070
     0
1070
   342
1005
0
1002
}
  0
LINE
  5
1AAB
330
36
100
AcDbEntity
  8
0
  6
ByBlock
 62
     0
370
    -2
100
AcDbLine
 10
-250.1853479936535
 20
211.6945698181772
 30
0.0
 11
-250.2977748682939
 21
209.108822467001
 31
0.0
  0
LINE
  5
1AAC
330
36
100
AcDbEntity
  8
0
  6
ByBlock
 62
     0
370
    -2
100
AcDbLine
 10
-250.2977748682939
 20
209.108822467001
 30
0.0
 11
-251.4932831900909
 21
211.4043592274931
 31
0.0
  0
LINE
  5
1AAD
330
36
100
AcDbEntity
  8
0
  6
ByBlock
 62
     0
370
    -2
100
AcDbLine
 10
-250.2977748682939
 20
209.108822467001
 30
0.0
 11
-250.8393155918722
 21
211.5494645228352
 31
0.0
  0
LINE
  5
1AAE
330
36
100
AcDbEntity
  8
0
100
AcDbLine
 10
-214.1215144553825
 20
212.3731892186301
 30
0.0
 11
-220.8472290343212
 21
233.4785382933615
 31
0.0
1001
ACAD
1000
DSTYLE
1002
{
1070
   147
1040
0.625
1070
    77
1070
     0
1070
   342
1005
0
1002
}
  0
LINE
  5
1AAF
330
36
100
AcDbEntity
  8
0
  6
ByBlock
 62
     0
370
    -2
100
AcDbLine
 10
-213.4832664074615
 20
212.5765819313344
 30
0.0
 11
-213.3624419725431
 21
209.9912133653108
 31
0.0
  0
LINE
  5
1AB0
330
36
100
AcDbEntity
  8
0
  6
ByBlock
 62
     0
370
    -2
100
AcDbLine
 10
-213.3624419725431
 20
209.9912133653108
 30
0.0
 11
-214.7597625033036
 21
212.1697965059257
 31
0.0
  0
LINE
  5
1AB1
330
36
100
AcDbEntity
  8
0
  6
ByBlock
 62
     0
370
    -2
100
AcDbLine
 10
-213.3624419725431
 20
209.9912133653108
 30
0.0
 11
-214.1215144553825
 21
212.3731892186301
 31
0.0
  0
LINE
  5
1AB2
330
36
100
AcDbEntity
  8
0
100
AcDbLine
 10
-197.0962223160395
 20
215.3334429020108
 30
0.0
 11
-202.2963067711974
 21
233.4918411959785
 31
0.0
1001
ACAD
1000
DSTYLE
1002
{
1070
   147
1040
0.625
1070
    77
1070
     0
1070
   342
1005
0
1002
}
  0
LINE
  5
1AB3
330
36
100
AcDbEntity
  8
0
  6
ByBlock
 62
     0
370
    -2
100
AcDbLine
 10
-196.4522361272367
 20
215.5178634943734
 30
0.0
 11
-196.4079548010922
 21
212.930052
 31
0.0
  0
LINE
  5
1AB4
330
36
100
AcDbEntity
  8
0
  6
ByBlock
 62
     0
370
    -2
100
AcDbLine
 10
-196.4079548010922
 20
212.930052
 30
0.0
 11
-197.7402085048424
 21
215.1490223096481
 31
0.0
  0
LINE
  5
1AB5
330
36
100
AcDbEntity
  8
0
  6
ByBlock
 62
     0
370
    -2
100
AcDbLine
 10
-196.4079548010922
 20
212.930052
 30
0.0
 11
-197.0962223160395
 21
215.3334429020108
 31
0.0
  0
LINE
  5
1AB6
330
36
100
AcDbEntity
  8
0
100
AcDbLine
 10
-181.414436120482
 20
215.3239185371185
 30
0.0
 11
-186.8897961027483
 21
233.510889925763
 31
0.0
1001
ACAD
1000
DSTYLE
1002
{
1070
   147
1040
0.625
1070
    77
1070
     0
1070
   342
1005
0
1002
}
  0
LINE
  5
1AB7
330
36
100
AcDbEntity
  8
0
  6
ByBlock
 62
     0
370
    -2
100
AcDbLine
 10
-180.7730019757276
 20
215.5170283613105
 30
0.0
 11
-180.6937399275794
 21
212.930052
 31
0.0
  0
LINE
  5
1AB8
330
36
100
AcDbEntity
  8
0
  6
ByBlock
 62
     0
370
    -2
100
AcDbLine
 10
-180.6937399275794
 20
212.930052
 30
0.0
 11
-182.0558702652364
 21
215.1308087129264
 31
0.0
  0
LINE
  5
1AB9
330
36
100
AcDbEntity
  8
0
  6
ByBlock
 62
     0
370
    -2
100
AcDbLine
 10
-180.6937399275794
 20
212.930052
 30
0.0
 11
-181.414436120482
 21
215.3239185371185
 31
0.0
  0
TEXT
  5
1ABA
330
36
100
AcDbEntity
  8
0
 62
     4
100
AcDbText
 10
-317.1469710000001
 20
203.6769689999999
 30
0.0
 40
3.0
  1
68
 50
90.0
100
AcDbText
  0
LINE
  5
1ABB
330
36
100
AcDbEntity
  8
0
  6
ByBlock
 62
     0
370
    -2
100
AcDbLine
 10
-317.1918435
 20
220.676969
 30
0.0
 11
-316.521971
 21
223.176969
 31
0.0
  0
LINE
  5
1ABC
330
36
100
AcDbEntity
  8
0
  6
ByBlock
 62
     0
370
    -2
100
AcDbLine
 10
-316.521971
 20
223.176969
 30
0.0
 11
-315.8520985
 21
220.676969
 31
0.0
  0
LINE
  5
1ABD
330
36
100
AcDbEntity
  8
0
  6
ByBlock
 62
     0
370
    -2
100
AcDbLine
 10
-316.521971
 20
223.176969
 30
0.0
 11
-316.521971
 21
220.676969
 31
0.0
  0
LINE
  5
1ABE
330
36
100
AcDbEntity
  8
0
  6
ByBlock
 62
     0
370
    -2
100
AcDbLine
 10
-315.8520985
 20
191.676969
 30
0.0
 11
-316.521971
 21
189.176969
 31
0.0
  0
LINE
  5
1ABF
330
36
100
AcDbEntity
  8
0
  6
ByBlock
 62
     0
370
    -2
100
AcDbLine
 10
-316.521971
 20
189.176969
 30
0.0
 11
-317.1918435
 21
191.676969
 31
0.0
  0
LINE
  5
1AC0
330
36
100
AcDbEntity
  8
0
  6
ByBlock
 62
     0
370
    -2
100
AcDbLine
 10
-316.521971
 20
189.176969
 30
0.0
 11
-316.521971
 21
191.676969
 31
0.0
  0
TEXT
  5
1AC1
330
36
100
AcDbEntity
  8
0
 62
     4
100
AcDbText
 10
-311.5069190000001
 20
135.959853
 30
0.0
 40
3.0
  1
118
 50
90.0
100
AcDbText
  0
LINE
  5
1AC2
330
36
100
AcDbEntity
  8
0
  6
ByBlock
 62
     0
370
    -2
100
AcDbLine
 10
-311.5517915
 20
165.965408
 30
0.0
 11
-310.8819190000001
 21
168.465408
 31
0.0
  0
LINE
  5
1AC3
330
36
100
AcDbEntity
  8
0
  6
ByBlock
 62
     0
370
    -2
100
AcDbLine
 10
-310.8819190000001
 20
168.465408
 30
0.0
 11
-310.2120465
 21
165.965408
 31
0.0
  0
LINE
  5
1AC4
330
36
100
AcDbEntity
  8
0
  6
ByBlock
 62
     0
370
    -2
100
AcDbLine
 10
-310.8819190000001
 20
168.465408
 30
0.0
 11
-310.8819190000001
 21
165.965408
 31
0.0
  0
LINE
  5
1AC5
330
36
100
AcDbEntity
  8
0
  6
ByBlock
 62
     0
370
    -2
100
AcDbLine
 10
-310.2120465000001
 20
111.954298
 30
0.0
 11
-310.8819190000001
 21
109.454298
 31
0.0
  0
LINE
  5
1AC6
330
36
100
AcDbEntity
  8
0
  6
ByBlock
 62
     0
370
    -2
100
AcDbLine
 10
-310.8819190000001
 20
109.454298
 30
0.0
 11
-311.5517915000001
 21
111.954298
 31
0.0
  0
LINE
  5
1AC7
330
36
100
AcDbEntity
  8
0
  6
ByBlock
 62
     0
370
    -2
100
AcDbLine
 10
-310.8819190000001
 20
109.454298
 30
0.0
 11
-310.8819190000001
 21
111.954298
 31
0.0
  0
TEXT
  5
1AC8
330
36
100
AcDbEntity
  8
0
 62
     4
100
AcDbText
 10
-215.898122
 20
177.6027629999999
 30
0.0
 40
3.0
  1
350
100
AcDbText
  0
LINE
  5
1AC9
330
36
100
AcDbEntity
  8
0
  6
ByBlock
 62
     0
370
    -2
100
AcDbLine
 10
-127.148122
 20
177.6476354999999
 30
0.0
 11
-124.648122
 21
176.977763
 31
0.0
  0
LINE
  5
1ACA
330
36
100
AcDbEntity
  8
0
  6
ByBlock
 62
     0
370
    -2
100
AcDbLine
 10
-124.648122
 20
176.977763
 30
0.0
 11
-127.148122
 21
176.3078905
 31
0.0
  0
LINE
  5
1ACB
330
36
100
AcDbEntity
  8
0
  6
ByBlock
 62
     0
370
    -2
100
AcDbLine
 10
-124.648122
 20
176.977763
 30
0.0
 11
-127.148122
 21
176.977763
 31
0.0
  0
LINE
  5
1ACC
330
36
100
AcDbEntity
  8
0
  6
ByBlock
 62
     0
370
    -2
100
AcDbLine
 10
-297.148122
 20
176.3078905
 30
0.0
 11
-299.648122
 21
176.977763
 31
0.0
  0
LINE
  5
1ACD
330
36
100
AcDbEntity
  8
0
  6
ByBlock
 62
     0
370
    -2
100
AcDbLine
 10
-299.648122
 20
176.977763
 30
0.0
 11
-297.148122
 21
177.6476354999999
 31
0.0
  0
LINE
  5
1ACE
330
36
100
AcDbEntity
  8
0
  6
ByBlock
 62
     0
370
    -2
100
AcDbLine
 10
-299.648122
 20
176.977763
 30
0.0
 11
-297.148122
 21
176.977763
 31
0.0
  0
ARC
  5
1ACF
330
36
100
AcDbEntity
  8
0
  6
ByBlock
 62
     0
100
AcDbCircle
 10
-174.9946011111497
 20
216.2885125639268
 30
0.0
 40
0.1562499999999872
100
AcDbArc
 50
69.68612482992061
 51
249.6861248299206
  0
ARC
  5
1AD0
330
36
100
AcDbEntity
  8
0
  6
ByBlock
 62
     0
100
AcDbCircle
 10
-174.9946011111497
 20
216.2885125639268
 30
0.0
 40
0.1562499999999872
100
AcDbArc
 50
249.6861248299206
 51
69.68612482992061
  0
ENDSEC
  0
SECTION
  2
OBJECTS
  0
DICTIONARY
  5
C
330
0
100
AcDbDictionary
281
     1
  3
ACAD_2007HEADERVARS_RT
350
1AD4
  3
ACAD_COLOR
350
2F
  3
ACAD_GROUP
350
D
  3
ACAD_LAYOUT
350
2E
  3
ACAD_MATERIAL
350
10
  3
ACAD_MLEADERSTYLE
350
E55
  3
ACAD_MLINESTYLE
350
2B
  3
ACAD_PLOTSETTINGS
350
2D
  3
ACAD_PLOTSTYLENAME
350
E
  3
ACAD_SCALELIST
350
E43
  3
ACAD_TABLESTYLE
350
30
  3
ACAD_VISUALSTYLE
350
14
  3
AcadDim
350
588
  3
ACDB_RECOMPOSE_DATA
350
1AD2
  3
AcDbVariableDictionary
350
58E
  3
AEC_PROPERTY_SET_DEFS
350
1513
  3
DWGPROPS
350
1AD3
  0
DICTIONARY
  5
4AF
330
2
100
AcDbDictionary
280
     1
281
     1
  3
ACAD_LAYERSTATES
360
4B0
  0
DICTIONARY
  5
1066
330
25
100
AcDbDictionary
280
     1
281
     1
  3
ADSK_XREC_LAYER_RECONCILED
360
1067
  0
DICTIONARY
  5
1A48
330
36
100
AcDbDictionary
280
     1
281
     1
  3
ACAD_SORTENTS
360
1A49
  0
DICTIONARY
  5
1AD4
102
{ACAD_REACTORS
330
C
102
}
330
C
100
AcDbDictionary
281
     1
  3
DIMARCSYM
350
1AD6
  3
DIMFXL
350
1AD5
  3
DIMJOGANG
350
1AD7
  0
DICTIONARY
  5
2F
102
{ACAD_REACTORS
330
C
102
}
330
C
100
AcDbDictionary
281
     1
  0
DICTIONARY
  5
D
102
{ACAD_REACTORS
330
C
102
}
330
C
100
AcDbDictionary
281
     1
  0
DICTIONARY
  5
2E
102
{ACAD_REACTORS
330
C
102
}
330
C
100
AcDbDictionary
281
     1
  3
Model
350
39
  3
レイアウト1
350
35
  0
DICTIONARY
  5
10
102
{ACAD_REACTORS
330
C
102
}
330
C
100
AcDbDictionary
281
     1
  3
ByBlock
350
12
  3
ByLayer
350
11
  3
Global
350
13
  0
DICTIONARY
  5
E55
102
{ACAD_REACTORS
330
C
102
}
330
C
100
AcDbDictionary
281
     1
  3
Standard
350
E56
  0
DICTIONARY
  5
2B
102
{ACAD_REACTORS
330
C
102
}
330
C
100
AcDbDictionary
281
     1
  3
Standard
350
2C
  0
DICTIONARY
  5
2D
102
{ACAD_REACTORS
330
C
102
}
330
C
100
AcDbDictionary
281
     1
  0
ACDBDICTIONARYWDFLT
  5
E
102
{ACAD_REACTORS
330
C
102
}
330
C
100
AcDbDictionary
281
     1
  3
Normal
350
F
100
AcDbDictionaryWithDefault
340
F
  0
DICTIONARY
  5
E43
102
{ACAD_REACTORS
330
C
102
}
330
C
100
AcDbDictionary
281
     1
  3
A0
350
E44
  3
A1
350
E45
  3
A2
350
E46
  3
A3
350
E47
  3
A4
350
E48
  3
A5
350
E49
  3
A6
350
E4A
  3
A7
350
E4B
  3
A8
350
E4C
  3
A9
350
E4D
  3
B0
350
E4E
  3
B1
350
E4F
  3
B2
350
E50
  3
B3
350
E51
  3
B4
350
E52
  3
B5
350
E53
  3
B6
350
E54
  0
DICTIONARY
  5
30
102
{ACAD_REACTORS
330
C
102
}
330
C
100
AcDbDictionary
281
     1
  3
Standard
350
31
  0
DICTIONARY
  5
14
102
{ACAD_REACTORS
330
C
102
}
330
C
100
AcDbDictionary
281
     1
  3
2dWireframe
350
1A
  3
3D Hidden
350
1C
  3
3dWireframe
350
1B
  3
Basic
350
19
  3
Brighten
350
20
  3
ColorChange
350
24
  3
Conceptual
350
1D
  3
Dim
350
1F
  3
EdgeColorOff
350
E42
  3
Facepattern
350
23
  3
Flat
350
15
  3
FlatWithEdges
350
16
  3
Gouraud
350
17
  3
GouraudWithEdges
350
18
  3
Hidden
350
E3A
  3
JitterOff
350
E40
  3
Linepattern
350
22
  3
OverhangOff
350
E41
  3
Realistic
350
1E
  3
Shaded
350
E3F
  3
Shaded with edges
350
E3E
  3
Shades of Gray
350
E3B
  3
Sketchy
350
E3C
  3
Thicken
350
21
  3
Wireframe
350
E39
  3
X-Ray
350
E3D
  0
XRECORD
  5
588
102
{ACAD_REACTORS
330
C
102
}
330
C
100
AcDbXrecord
280
     1
 90
   990106
  3

 60
     0
 61
     0
 62
     1
 63
     3
 64
     0
 65
     0
 66
     0
 67
     3
 68
     1
 69
     0
 70
     0
 71
     0
 72
     0
 40
0.0
170
     0
  0
XRECORD
  5
1AD2
102
{ACAD_REACTORS
330
C
102
}
330
C
100
AcDbXrecord
280
     1
 90
        1
330
31
  0
DICTIONARY
  5
58E
102
{ACAD_REACTORS
330
C
102
}
330
C
100
AcDbDictionary
281
     1
  3
CANNOSCALE
350
1069
  3
CMLEADERSTYLE
350
1068
  3
CTABLESTYLE
350
58F
  3
DIMASSOC
350
D5E
  3
INDEXCTL
350
D5D
  3
SORTENTS
350
D5C
  3
XCLIPFRAME
350
19C5
  0
DICTIONARY
  5
1513
102
{ACAD_REACTORS
330
C
102
}
330
C
100
AcDbDictionary
281
     1
  0
XRECORD
  5
1AD3
102
{ACAD_REACTORS
330
C
102
}
330
C
100
AcDbXrecord
280
     1
  1
DWGPROPS COOKIE
  2

  3

  4

  6

  7

  8
imamura
  9

300
=
301
=
302
=
303
=
304
=
305
=
306
=
307
=
308
=
309
=
 40
0.0483658912037037
 41
2455467.488587593
 42
2459159.394138021
  1

 90
        0
  0
DICTIONARY
  5
4B0
102
{ACAD_REACTORS
330
4AF
102
}
330
4AF
100
AcDbDictionary
281
     1
  0
XRECORD
  5
1067
102
{ACAD_REACTORS
330
1066
102
}
330
1066
100
AcDbXrecord
280
     1
290
     1
  0
SORTENTSTABLE
  5
1A49
102
{ACAD_REACTORS
330
1A48
102
}
330
1A48
100
AcDbSortentsTable
330
36
331
CF8
  5
E06
331
1A88
  5
1ACD
331
1988
  5
1A98
331
330
  5
410
331
D09
  5
E16
331
278
  5
2A5
331
1A99
  5
1ABC
331
1999
  5
1AA5
331
C1
  5
FD
331
D92
  5
F3F
331
D11
  5
F3C
331
1AA3
  5
1AAC
331
DE3
  5
F4A
331
D2
  5
10E
331
DF4
  5
197A
331
1AB4
  5
D09
331
F4
  5
125
331
1B4
  5
1ED
331
E05
  5
198D
331
9C
  5
D8
331
105
  5
136
331
E16
  5
1A47
331
1AC5
  5
BC
331
F3F
  5
1A5E
331
407
  5
CF2
331
116
  5
145
331
1110
  5
1A6E
331
1E7
  5
214
331
289
  5
2FC
331
1F8
  5
225
331
130
  5
160
331
29A
  5
31D
331
141
  5
173
331
11F
  5
14C
331
424
  5
CFD
331
223
  5
250
331
212
  5
23F
331
2F4
  5
331
331
305
  5
37D
331
234
  5
261
331
174
  5
1B8
331
CD6
  5
DE5
331
245
  5
272
331
CE7
  5
DF6
331
256
  5
283
331
185
  5
1C6
331
152
  5
188
331
267
  5
294
331
1A77
  5
C4
331
327
  5
3EF
331
CE8
  5
DF7
331
328
  5
3F0
331
A0
  5
EE
331
CF9
  5
E07
331
268
  5
295
331
1A78
  5
C5
331
1989
  5
1A99
331
331
  5
417
331
D0A
  5
E17
331
279
  5
2A6
331
1A9A
  5
1AB9
331
C2
  5
FE
331
D93
  5
F40
331
D12
  5
F3D
331
1AA4
  5
1AAD
331
DE4
  5
F4B
331
193
  5
1D2
331
D3
  5
111
331
DF5
  5
197B
331
1AB5
  5
D0A
331
F5
  5
126
331
1B5
  5
1EE
331
E06
  5
198E
331
9D
  5
D9
331
1A4
  5
1E3
331
106
  5
137
331
E17
  5
1A4A
331
1C6
  5
1FB
331
3F7
  5
CEE
331
F40
  5
1A5F
331
117
  5
146
331
1111
  5
1A6F
331
E20
  5
1A52
331
1E8
  5
215
331
28A
  5
301
331
1F9
  5
226
331
131
  5
161
331
120
  5
14D
331
29B
  5
31E
331
142
  5
174
331
213
  5
240
331
425
  5
CFE
331
224
  5
251
331
164
  5
1A1
331
2F5
  5
332
331
306
  5
37E
331
235
  5
262
331
175
  5
1B9
331
CD7
  5
DE6
331
246
  5
273
331
186
  5
1C7
331
153
  5
189
331
1AC6
  5
BD
331
257
  5
284
331
317
  5
398
331
CD8
  5
DE7
331
CE9
  5
DF8
331
258
  5
285
331
329
  5
3F7
331
CFA
  5
E08
331
269
  5
296
331
A1
  5
EF
331
1A8A
  5
1AC9
331
198A
  5
1A9A
331
332
  5
418
331
D0B
  5
E18
331
27A
  5
2A7
331
1A9B
  5
1AB6
331
199B
  5
1AAA
331
C3
  5
FF
331
D94
  5
F41
331
D13
  5
F3E
331
1AA5
  5
1AAE
331
DE5
  5
F4C
331
194
  5
1D3
331
DF6
  5
197C
331
1AB6
  5
D07
331
F6
  5
127
331
1B6
  5
1EF
331
E07
  5
198F
331
9E
  5
DA
331
3E7
  5
CE1
331
E18
  5
1A4B
331
1C7
  5
1FC
331
1AC7
  5
BE
331
3F8
  5
CEF
331
F41
  5
1A60
331
1D8
  5
205
331
1112
  5
1A70
331
E21
  5
1A53
331
1E9
  5
216
331
28B
  5
302
331
1FA
  5
227
331
132
  5
164
331
29C
  5
31F
331
143
  5
175
331
214
  5
241
331
154
  5
18C
331
2F6
  5
333
331
225
  5
252
331
165
  5
1A2
331
307
  5
37F
331
247
  5
274
331
187
  5
1C8
331
236
  5
263
331
121
  5
14E
331
107
  5
138
331
1A5
  5
1E4
331
308
  5
380
331
1A58
  5
1AA6
331
188
  5
1CD
331
CD9
  5
DE8
331
248
  5
275
331
CEA
  5
DF9
331
259
  5
286
331
32A
  5
3F8
331
197A
  5
1A8A
331
A2
  5
F0
331
CFB
  5
E09
331
26A
  5
297
331
1A8B
  5
1AC6
331
198B
  5
1A9B
331
333
  5
41F
331
D0C
  5
E20
331
27B
  5
2A8
331
37C
  5
586
331
1A9C
  5
1AB7
331
199C
  5
1AAB
331
C4
  5
100
331
D95
  5
F42
331
1AA6
  5
1A57
331
DE6
  5
F4D
331
195
  5
1D8
331
DF7
  5
197D
331
1AB7
  5
D04
331
F7
  5
128
331
1B7
  5
1F0
331
E08
  5
1990
331
9F
  5
ED
331
1A6
  5
1E5
331
108
  5
139
331
F42
  5
1A61
331
1D9
  5
206
331
1C8
  5
1FD
331
1113
  5
1A71
331
1EA
  5
217
331
122
  5
152
331
28C
  5
303
331
1FB
  5
228
331
29D
  5
320
331
144
  5
17A
331
133
  5
165
331
1AC8
  5
A5
331
215
  5
242
331
2F7
  5
334
331
226
  5
253
331
166
  5
1A4
331
237
  5
264
331
155
  5
18D
331
3E8
  5
CE2
331
2F8
  5
335
331
CC9
  5
D92
331
238
  5
265
331
309
  5
381
331
1A59
  5
1AA7
331
189
  5
1CE
331
CDA
  5
DE9
331
249
  5
276
331
CEB
  5
DFA
331
25A
  5
287
331
32B
  5
3FF
331
197B
  5
1A8B
331
A3
  5
F2
331
CFC
  5
E0A
331
26B
  5
298
331
334
  5
420
331
1A8C
  5
1AC7
331
198C
  5
1A9C
331
BC
  5
F8
331
D0D
  5
E21
331
27C
  5
2ED
331
37D
  5
CC9
331
1A9D
  5
1AB8
331
C5
  5
101
331
D96
  5
F43
331
1AA7
  5
1A54
331
DE7
  5
110F
331
196
  5
1D9
331
D6
  5
112
331
DF8
  5
197E
331
1AB8
  5
D05
331
F8
  5
129
331
E09
  5
1991
331
1B8
  5
1F1
331
F43
  5
1A62
331
1DA
  5
207
331
1AC9
  5
9F
331
1114
  5
1A72
331
1EB
  5
218
331
28D
  5
304
331
1FC
  5
229
331
134
  5
166
331
123
  5
153
331
29E
  5
321
331
417
  5
CF6
331
216
  5
243
331
156
  5
18E
331
227
  5
254
331
167
  5
1A5
331
145
  5
17C
331
109
  5
13A
331
1A7
  5
1E6
331
418
  5
CF7
331
581
  5
D00
331
228
  5
255
331
168
  5
1A6
331
2F9
  5
336
331
CCA
  5
D93
331
239
  5
266
331
1A5A
  5
1AA8
331
30A
  5
382
331
CDB
  5
DEA
331
24A
  5
277
331
25B
  5
288
331
32C
  5
400
331
93
  5
CD
331
197C
  5
1A8C
331
A4
  5
F3
331
CFD
  5
E0B
331
26C
  5
299
331
1A7C
  5
A6
331
335
  5
421
331
1A8D
  5
1AC8
331
198D
  5
1A9D
331
BD
  5
F9
331
D0E
  5
F39
331
37E
  5
CCA
331
1A9E
  5
1AB5
331
199E
  5
1AB0
331
C6
  5
102
331
D97
  5
F44
331
38F
  5
CD2
331
DE8
  5
1110
331
197
  5
1DA
331
D7
  5
113
331
1AA8
  5
1A55
331
3A0
  5
CDA
331
27D
  5
2EF
331
1AB9
  5
D06
331
F9
  5
12A
331
E0A
  5
1992
331
1B9
  5
1F2
331
10A
  5
13B
331
F44
  5
1A63
331
1DB
  5
208
331
1115
  5
1A75
331
1EC
  5
219
331
124
  5
154
331
28E
  5
305
331
1FD
  5
22A
331
135
  5
167
331
29F
  5
322
331
146
  5
17D
331
217
  5
244
331
157
  5
193
331
1ACA
  5
A0
331
DF9
  5
197F
331
408
  5
CF3
331
2A0
  5
323
331
218
  5
245
331
158
  5
194
331
582
  5
D01
331
229
  5
256
331
169
  5
1A7
331
2FA
  5
337
331
CCB
  5
D94
331
23A
  5
267
331
17A
  5
1BA
331
1A5B
  5
1AA9
331
30B
  5
383
331
CDC
  5
DEB
331
24B
  5
278
331
1A6C
  5
CD5
331
25C
  5
289
331
CED
  5
DFB
331
94
  5
CE
331
32D
  5
407
331
197D
  5
1A8D
331
A5
  5
F4
331
CFE
  5
E0C
331
26D
  5
29A
331
1A7D
  5
A7
331
1A8E
  5
1AC5
331
198E
  5
1A9E
331
BE
  5
FA
331
336
  5
422
331
D0F
  5
F3A
331
37F
  5
CCB
331
1A9F
  5
1AB2
331
199F
  5
1AB1
331
C7
  5
103
331
D98
  5
F45
331
390
  5
CD3
331
DE9
  5
1111
331
198
  5
1DB
331
D8
  5
114
331
1AA9
  5
1A56
331
3A1
  5
CDB
331
DFA
  5
1980
331
E0B
  5
1997
331
1BA
  5
1F3
331
1ABA
  5
CC
331
10B
  5
13C
331
F45
  5
1A64
331
1DC
  5
209
331
1116
  5
1A76
331
1ED
  5
21A
331
125
  5
155
331
28F
  5
306
331
1FE
  5
22B
331
136
  5
168
331
147
  5
17F
331
1ACB
  5
A1
331
FA
  5
12B
331
27E
  5
2F1
331
290
  5
307
331
2A1
  5
324
331
208
  5
235
331
148
  5
180
331
219
  5
246
331
159
  5
195
331
2FB
  5
338
331
22A
  5
257
331
16A
  5
1AC
331
CCC
  5
D95
331
23B
  5
268
331
30C
  5
38F
331
CDD
  5
DEC
331
24C
  5
279
331
18C
  5
1CF
331
1A6D
  5
CD6
331
31D
  5
399
331
25D
  5
28A
331
CEE
  5
DFC
331
95
  5
CF
331
32E
  5
408
331
197E
  5
1A8E
331
A6
  5
F5
331
337
  5
423
331
26E
  5
29B
331
1A7E
  5
A8
331
1A8F
  5
1AC2
331
198F
  5
1A9F
331
BF
  5
FB
331
380
  5
CCC
331
27F
  5
2F2
331
D99
  5
F46
331
391
  5
CD4
331
DEA
  5
1112
331
199
  5
1DC
331
D9
  5
115
331
DFB
  5
1981
331
1AAA
  5
D13
331
FB
  5
12C
331
E0C
  5
1998
331
1BB
  5
1F4
331
1ABB
  5
C9
331
10C
  5
13D
331
F46
  5
1A65
331
1DD
  5
20A
331
1117
  5
1A85
331
1EE
  5
21B
331
126
  5
156
331
1ACC
  5
99
331
1FF
  5
22C
331
137
  5
169
331
C8
  5
104
331
1118
  5
1A86
331
280
  5
2F3
331
291
  5
308
331
200
  5
22D
331
138
  5
16A
331
2A2
  5
325
331
209
  5
236
331
149
  5
182
331
21A
  5
247
331
15A
  5
196
331
2FC
  5
33A
331
22B
  5
258
331
16B
  5
1AD
331
CCD
  5
D96
331
23C
  5
269
331
17C
  5
1BB
331
30D
  5
390
331
CDE
  5
DED
331
24D
  5
27A
331
18D
  5
1D0
331
1A6E
  5
CD0
331
31E
  5
3A0
331
25E
  5
28B
331
CEF
  5
DFD
331
96
  5
D0
331
32F
  5
40F
331
197F
  5
1A8F
331
A7
  5
F6
331
D00
  5
E0D
331
26F
  5
29C
331
1A90
  5
1AC3
331
1990
  5
1AA0
331
381
  5
CCD
331
338
  5
424
331
DEB
  5
1113
331
19A
  5
1DD
331
DA
  5
116
331
DFC
  5
1984
331
1AAB
  5
D10
331
FC
  5
12D
331
E0D
  5
1999
331
1BC
  5
1F5
331
1ABC
  5
CA
331
10D
  5
13E
331
F47
  5
1A66
331
1DE
  5
20B
331
1CD
  5
1FE
331
1EF
  5
21C
331
127
  5
157
331
1ACD
  5
9A
331
C9
  5
105
331
F48
  5
1A67
331
1119
  5
1A87
331
1F0
  5
21D
331
128
  5
158
331
281
  5
2F4
331
292
  5
309
331
201
  5
22E
331
139
  5
16B
331
2A3
  5
326
331
20A
  5
237
331
14A
  5
183
331
21B
  5
248
331
15B
  5
197
331
585
  5
D02
331
22C
  5
259
331
16C
  5
1AE
331
CCE
  5
D97
331
23D
  5
26A
331
17D
  5
1BC
331
195E
  5
1A89
331
18E
  5
1D1
331
1A5E
  5
1A4C
331
CDF
  5
DEE
331
24E
  5
27B
331
1A6F
  5
CD1
331
31F
  5
3A1
331
25F
  5
28C
331
CF0
  5
DFE
331
97
  5
D1
331
1980
  5
1A90
331
1A91
  5
1AC4
331
1991
  5
1AA1
331
D01
  5
E0E
331
270
  5
29D
331
DEC
  5
1114
331
CA
  5
106
331
1AAC
  5
D11
331
DFD
  5
1985
331
FD
  5
12E
331
E0E
  5
199B
331
1BD
  5
1F6
331
1ABD
  5
CB
331
10E
  5
13F
331
3FF
  5
CF0
331
1CE
  5
1FF
331
1DF
  5
20C
331
1ACE
  5
9B
331
1AC
  5
1E7
331
382
  5
CCE
331
A8
  5
F7
331
400
  5
CF1
331
F49
  5
1A68
331
1E0
  5
20D
331
118
  5
147
331
111A
  5
1A88
331
1F1
  5
21E
331
129
  5
159
331
282
  5
2F5
331
293
  5
30A
331
202
  5
22F
331
13A
  5
16C
331
2A4
  5
327
331
20B
  5
238
331
14B
  5
184
331
2ED
  5
32C
331
21C
  5
249
331
15C
  5
198
331
586
  5
D03
331
22D
  5
25A
331
16D
  5
1AF
331
CCF
  5
D98
331
23E
  5
26B
331
1A5F
  5
1A4D
331
30F
  5
391
331
CE0
  5
DEF
331
24F
  5
27C
331
320
  5
3A8
331
1981
  5
1A91
331
CF1
  5
DFF
331
260
  5
28D
331
1A70
  5
117
331
D02
  5
E0F
331
271
  5
29E
331
1A92
  5
1AC1
331
1992
  5
1AA2
331
383
  5
CCF
331
DED
  5
1115
331
CB
  5
107
331
1AAD
  5
D12
331
DFE
  5
1986
331
1AD
  5
1E8
331
FE
  5
12F
331
E0F
  5
199C
331
1BE
  5
1F7
331
1ABE
  5
C6
331
1ACF
  5
1ACB
331
3EF
  5
CE3
331
1CF
  5
200
331
ED
  5
11F
331
33A
  5
425
331
E10
  5
199E
331
1AD0
  5
1ACC
331
3F0
  5
CE4
331
F39
  5
1A58
331
1D0
  5
201
331
F4A
  5
1A69
331
1E1
  5
20E
331
119
  5
148
331
283
  5
2F6
331
1F2
  5
21F
331
12A
  5
15A
331
294
  5
30B
331
203
  5
230
331
13B
  5
16D
331
2A5
  5
328
331
20C
  5
239
331
14C
  5
185
331
21D
  5
24A
331
15D
  5
199
331
22E
  5
25B
331
16E
  5
1B2
331
1A60
  5
1A4E
331
CD0
  5
D99
331
23F
  5
26C
331
17F
  5
1BD
331
CE1
  5
DF0
331
250
  5
27D
331
321
  5
3A9
331
1982
  5
1A92
331
CF2
  5
E00
331
261
  5
28E
331
1A71
  5
118
331
D03
  5
E10
331
272
  5
29F
331
1A93
  5
1ABE
331
33B
  5
581
331
DEE
  5
1116
331
CC
  5
108
331
1AAE
  5
D0F
331
EE
  5
120
331
DFF
  5
1987
331
1AE
  5
1E9
331
3DF
  5
CDF
331
FF
  5
130
331
1BF
  5
1F8
331
1ABF
  5
C7
331
1A82
  5
93
331
E00
  5
1988
331
3E0
  5
CE0
331
100
  5
131
331
E11
  5
199F
331
1C0
  5
1F9
331
1AC0
  5
C8
331
F3A
  5
1A59
331
1D1
  5
202
331
111
  5
140
331
F4B
  5
1A6A
331
1E2
  5
20F
331
284
  5
2F7
331
1F3
  5
220
331
12B
  5
15B
331
295
  5
30C
331
204
  5
231
331
13C
  5
16E
331
2A6
  5
329
331
20D
  5
23A
331
14D
  5
186
331
41F
  5
CF8
331
21E
  5
24B
331
2EF
  5
32D
331
15E
  5
19A
331
22F
  5
25C
331
16F
  5
1B3
331
CD1
  5
DE0
331
240
  5
26D
331
180
  5
1BE
331
1A61
  5
1A4F
331
311
  5
397
331
CE2
  5
DF1
331
251
  5
27E
331
322
  5
3AA
331
1983
  5
1A93
331
CF3
  5
E01
331
262
  5
28F
331
D04
  5
E11
331
273
  5
2A0
331
1A94
  5
1ABF
331
33C
  5
582
331
DEF
  5
1117
331
19E
  5
1DE
331
CD
  5
109
331
1AAF
  5
D0C
331
EF
  5
121
331
1AF
  5
1EA
331
1A83
  5
94
331
1A72
  5
119
331
DF0
  5
1118
331
3A8
  5
CDC
331
1AB0
  5
D0D
331
F0
  5
122
331
E01
  5
1989
331
98
  5
D2
331
101
  5
132
331
E12
  5
19A7
331
1C1
  5
1FA
331
1AC1
  5
C2
331
F3B
  5
1A5A
331
1D2
  5
203
331
112
  5
141
331
F4C
  5
1A6B
331
1E3
  5
210
331
285
  5
2F8
331
1F4
  5
221
331
12C
  5
15C
331
296
  5
30D
331
205
  5
232
331
13D
  5
16F
331
40F
  5
CF4
331
20E
  5
23B
331
2A7
  5
32A
331
14E
  5
187
331
420
  5
CF9
331
21F
  5
24C
331
15F
  5
19E
331
301
  5
33B
331
230
  5
25D
331
170
  5
1B4
331
1A62
  5
1A50
331
CD2
  5
DE1
331
241
  5
26E
331
CE3
  5
DF2
331
252
  5
27F
331
1984
  5
1A94
331
CF4
  5
E02
331
263
  5
290
331
1A73
  5
11C
331
D05
  5
E12
331
274
  5
2A1
331
1A95
  5
1AC0
331
33D
  5
585
331
397
  5
CD7
331
CE
  5
10A
331
19F
  5
1DF
331
1A84
  5
95
331
323
  5
3DF
331
DE0
  5
F47
331
1AA0
  5
1AB3
331
398
  5
CD8
331
DF1
  5
1119
331
1A0
  5
1E0
331
1AB1
  5
D0E
331
3A9
  5
CDD
331
E02
  5
198A
331
99
  5
D3
331
102
  5
133
331
E13
  5
19A8
331
1AC2
  5
BF
331
F3C
  5
1A5B
331
1D3
  5
204
331
113
  5
142
331
F4D
  5
1A6C
331
1E4
  5
211
331
11C
  5
149
331
286
  5
2F9
331
1F5
  5
222
331
12D
  5
15D
331
297
  5
30F
331
206
  5
233
331
410
  5
CF5
331
20F
  5
23C
331
13E
  5
170
331
2A8
  5
32B
331
421
  5
CFA
331
220
  5
24D
331
160
  5
19F
331
2F1
  5
32E
331
302
  5
33C
331
231
  5
25E
331
171
  5
1B5
331
1A63
  5
1A51
331
CD3
  5
DE2
331
242
  5
26F
331
182
  5
1BF
331
CE4
  5
DF3
331
324
  5
3E0
331
1985
  5
1A95
331
CF5
  5
E03
331
264
  5
291
331
1A96
  5
1ABD
331
D06
  5
E13
331
19A7
  5
1ACE
331
CF
  5
10B
331
275
  5
2A2
331
1A74
  5
11D
331
253
  5
280
331
19A8
  5
1ACF
331
D0
  5
10C
331
DE1
  5
F48
331
1AA1
  5
1AB4
331
399
  5
CD9
331
DF2
  5
111A
331
1A1
  5
1E1
331
3AA
  5
CDE
331
1AB2
  5
D0B
331
F2
  5
123
331
1B2
  5
1EB
331
E03
  5
198B
331
9A
  5
D6
331
103
  5
134
331
E14
  5
19A9
331
1AC3
  5
C0
331
F3D
  5
1A5C
331
114
  5
143
331
1E5
  5
212
331
11D
  5
14A
331
287
  5
2FA
331
1F6
  5
223
331
12E
  5
15E
331
298
  5
311
331
207
  5
234
331
210
  5
23D
331
13F
  5
171
331
422
  5
CFB
331
221
  5
24E
331
2F2
  5
32F
331
161
  5
1A0
331
303
  5
33D
331
232
  5
25F
331
172
  5
1B6
331
CD4
  5
DE3
331
243
  5
270
331
CE5
  5
DF4
331
254
  5
281
331
183
  5
1C0
331
1986
  5
1A96
331
CF6
  5
E04
331
265
  5
292
331
1A75
  5
11E
331
1A97
  5
1ABA
331
1997
  5
1AA3
331
D07
  5
E14
331
110F
  5
1A6D
331
276
  5
2A3
331
325
  5
3E7
331
D08
  5
E15
331
1A98
  5
1ABB
331
1998
  5
1AA4
331
C0
  5
FC
331
D10
  5
F3B
331
19A9
  5
1AD0
331
D1
  5
10D
331
1AA2
  5
1AAF
331
DE2
  5
F49
331
DF3
  5
195E
331
1A2
  5
1E2
331
1AB3
  5
D08
331
F3
  5
124
331
1B3
  5
1EC
331
E04
  5
198C
331
9B
  5
D7
331
104
  5
135
331
E15
  5
1A46
331
F3E
  5
1A5D
331
115
  5
144
331
1AC4
  5
C1
331
1E6
  5
213
331
288
  5
2FB
331
1F7
  5
224
331
12F
  5
15F
331
11E
  5
14B
331
299
  5
317
331
423
  5
CFC
331
222
  5
24F
331
211
  5
23E
331
2F3
  5
330
331
304
  5
37C
331
233
  5
260
331
173
  5
1B7
331
CD5
  5
DE4
331
244
  5
271
331
184
  5
1C1
331
CE6
  5
DF5
331
255
  5
282
331
326
  5
3E8
331
140
  5
172
331
1987
  5
1A97
331
CF7
  5
E05
331
266
  5
293
331
277
  5
2A4
331
1A76
  5
C3
  0
XRECORD
  5
1AD6
102
{ACAD_REACTORS
330
1AD4
102
}
330
1AD4
100
AcDbXrecord
280
     1
 70
     2
  0
XRECORD
  5
1AD5
102
{ACAD_REACTORS
330
1AD4
102
}
330
1AD4
100
AcDbXrecord
280
     1
 40
1.25
  0
XRECORD
  5
1AD7
102
{ACAD_REACTORS
330
1AD4
102
}
330
1AD4
100
AcDbXrecord
280
     1
 40
1.570796326794896
  0
LAYOUT
  5
39
102
{ACAD_XDICTIONARY
360
1AFB
102
}
102
{ACAD_REACTORS
330
2E
102
}
330
2E
100
AcDbPlotSettings
  1

  2
DocuPrint 305
  4

  6

 40
0.0
 41
0.0
 42
0.0
 43
0.0
 44
0.0
 45
0.0
 46
0.0
 47
0.0
 48
0.0
 49
0.0
140
0.0
141
0.0
142
1.0
143
1.0
 70
  1712
 72
     0
 73
     0
 74
     0
  7

 75
     0
147
1.0
148
0.0
149
0.0
100
AcDbLayout
  1
Model
 70
     1
 71
     0
 10
0.0
 20
0.0
 11
12.0
 21
9.0
 12
0.0
 22
0.0
 32
0.0
 14
0.0
 24
0.0
 34
0.0
 15
0.0
 25
0.0
 35
0.0
146
0.0
 13
0.0
 23
0.0
 33
0.0
 16
1.0
 26
0.0
 36
0.0
 17
0.0
 27
1.0
 37
0.0
 76
     0
330
36
331
56
  0
LAYOUT
  5
35
102
{ACAD_XDICTIONARY
360
1AF9
102
}
102
{ACAD_REACTORS
330
2E
102
}
330
2E
100
AcDbPlotSettings
  1

  2
DocuPrint 305
  4

  6

 40
0.0
 41
0.0
 42
0.0
 43
0.0
 44
0.0
 45
0.0
 46
0.0
 47
0.0
 48
0.0
 49
0.0
140
0.0
141
0.0
142
1.0
143
1.0
 70
   688
 72
     0
 73
     0
 74
     5
  7

 75
    16
147
1.0
148
0.0
149
0.0
100
AcDbLayout
  1
レイアウト1
 70
     1
 71
     1
 10
0.0
 20
0.0
 11
12.0
 21
9.0
 12
0.0
 22
0.0
 32
0.0
 14
1.000000000000000E+20
 24
1.000000000000000E+20
 34
1.000000000000000E+20
 15
-1.000000000000000E+20
 25
-1.000000000000000E+20
 35
-1.000000000000000E+20
146
0.0
 13
0.0
 23
0.0
 33
0.0
 16
1.0
 26
0.0
 36
0.0
 17
0.0
 27
1.0
 37
0.0
 76
     0
330
32
  0
MATERIAL
  5
12
102
{ACAD_XDICTIONARY
360
D66
102
}
102
{ACAD_REACTORS
330
10
102
}
330
10
100
AcDbMaterial
  1
ByBlock
  0
MATERIAL
  5
11
102
{ACAD_XDICTIONARY
360
D64
102
}
102
{ACAD_REACTORS
330
10
102
}
330
10
100
AcDbMaterial
  1
ByLayer
  0
MATERIAL
  5
13
102
{ACAD_XDICTIONARY
360
D68
102
}
102
{ACAD_REACTORS
330
10
102
}
330
10
100
AcDbMaterial
  1
Global
  0
MLEADERSTYLE
  5
E56
102
{ACAD_REACTORS
330
E55
102
}
330
E55
100
AcDbMLeaderStyle
170
     2
171
     1
172
     0
 90
        2
 40
0.0
 41
0.0
173
     1
 91
-1056964608
340
28
 92
       -2
290
     1
 42
0.09
291
     1
 43
0.36
  3
Standard
 44
0.18
300

342
26
174
     1
178
     6
175
     1
176
     0
 93
-1056964608
 45
0.18
292
     0
297
     0
 46
0.18
 94
-1056964608
 47
1.0
 49
1.0
140
1.0
293
     1
141
0.0
294
     1
177
     0
142
1.0
295
     0
296
     0
143
0.125
1001
ACAD_MLEADERVER
1070
     2
  0
MLINESTYLE
  5
2C
102
{ACAD_REACTORS
330
2B
102
}
330
2B
100
AcDbMlineStyle
  2
STANDARD
 70
     0
  3

 62
   256
 51
90.0
 52
90.0
 71
     2
 49
0.5
 62
   256
  6
BYLAYER
 49
-0.5
 62
   256
  6
BYLAYER
  0
ACDBPLACEHOLDER
  5
F
102
{ACAD_REACTORS
330
E
102
}
330
E
  0
SCALE
  5
E44
102
{ACAD_REACTORS
330
E43
102
}
330
E43
100
AcDbScale
 70
     0
300
1:1
140
1.0
141
1.0
290
     1
  0
SCALE
  5
E45
102
{ACAD_REACTORS
330
E43
102
}
330
E43
100
AcDbScale
 70
     0
300
1/128" = 1'-0"
140
0.0078125
141
12.0
290
     0
  0
SCALE
  5
E46
102
{ACAD_REACTORS
330
E43
102
}
330
E43
100
AcDbScale
 70
     0
300
1/64" = 1'-0"
140
0.015625
141
12.0
290
     0
  0
SCALE
  5
E47
102
{ACAD_REACTORS
330
E43
102
}
330
E43
100
AcDbScale
 70
     0
300
1/32" = 1'-0"
140
0.03125
141
12.0
290
     0
  0
SCALE
  5
E48
102
{ACAD_REACTORS
330
E43
102
}
330
E43
100
AcDbScale
 70
     0
300
1/16" = 1'-0"
140
0.0625
141
12.0
290
     0
  0
SCALE
  5
E49
102
{ACAD_REACTORS
330
E43
102
}
330
E43
100
AcDbScale
 70
     0
300
3/32" = 1'-0"
140
0.09375
141
12.0
290
     0
  0
SCALE
  5
E4A
102
{ACAD_REACTORS
330
E43
102
}
330
E43
100
AcDbScale
 70
     0
300
1/8" = 1'-0"
140
0.125
141
12.0
290
     0
  0
SCALE
  5
E4B
102
{ACAD_REACTORS
330
E43
102
}
330
E43
100
AcDbScale
 70
     0
300
3/16" = 1'-0"
140
0.1875
141
12.0
290
     0
  0
SCALE
  5
E4C
102
{ACAD_REACTORS
330
E43
102
}
330
E43
100
AcDbScale
 70
     0
300
1/4" = 1'-0"
140
0.25
141
12.0
290
     0
  0
SCALE
  5
E4D
102
{ACAD_REACTORS
330
E43
102
}
330
E43
100
AcDbScale
 70
     0
300
3/8" = 1'-0"
140
0.375
141
12.0
290
     0
  0
SCALE
  5
E4E
102
{ACAD_REACTORS
330
E43
102
}
330
E43
100
AcDbScale
 70
     0
300
1/2" = 1'-0"
140
0.5
141
12.0
290
     0
  0
SCALE
  5
E4F
102
{ACAD_REACTORS
330
E43
102
}
330
E43
100
AcDbScale
 70
     0
300
3/4" = 1'-0"
140
0.75
141
12.0
290
     0
  0
SCALE
  5
E50
102
{ACAD_REACTORS
330
E43
102
}
330
E43
100
AcDbScale
 70
     0
300
1" = 1'-0"
140
1.0
141
12.0
290
     0
  0
SCALE
  5
E51
102
{ACAD_REACTORS
330
E43
102
}
330
E43
100
AcDbScale
 70
     0
300
1-1/2" = 1'-0"
140
1.5
141
12.0
290
     0
  0
SCALE
  5
E52
102
{ACAD_REACTORS
330
E43
102
}
330
E43
100
AcDbScale
 70
     0
300
3" = 1'-0"
140
3.0
141
12.0
290
     0
  0
SCALE
  5
E53
102
{ACAD_REACTORS
330
E43
102
}
330
E43
100
AcDbScale
 70
     0
300
6" = 1'-0"
140
6.0
141
12.0
290
     0
  0
SCALE
  5
E54
102
{ACAD_REACTORS
330
E43
102
}
330
E43
100
AcDbScale
 70
     0
300
1'-0" = 1'-0"
140
12.0
141
12.0
290
     0
  0
TABLESTYLE
  5
31
102
{ACAD_XDICTIONARY
360
10AD
102
}
102
{ACAD_REACTORS
330
30
102
}
330
30
100
AcDbTableStyle
  3
Standard
 70
     0
 71
     0
 40
0.06
 41
0.06
280
     0
281
     0
  7
STANDARD
140
0.18
170
     2
 62
     0
 63
     7
283
     0
274
    -2
284
     1
 64
     0
275
    -2
285
     1
 65
     0
276
    -2
286
     1
 66
     0
277
    -2
287
     1
 67
     0
278
    -2
288
     1
 68
     0
279
    -2
289
     1
 69
     0
  7
STANDARD
140
0.25
170
     5
 62
     0
 63
     7
283
     0
274
    -2
284
     1
 64
     0
275
    -2
285
     1
 65
     0
276
    -2
286
     1
 66
     0
277
    -2
287
     1
 67
     0
278
    -2
288
     1
 68
     0
279
    -2
289
     1
 69
     0
  7
STANDARD
140
0.18
170
     5
 62
     0
 63
     7
283
     0
274
    -2
284
     1
 64
     0
275
    -2
285
     1
 65
     0
276
    -2
286
     1
 66
     0
277
    -2
287
     1
 67
     0
278
    -2
288
     1
 68
     0
279
    -2
289
     1
 69
     0
  0
VISUALSTYLE
  5
1A
102
{ACAD_XDICTIONARY
360
1AE2
102
}
102
{ACAD_REACTORS
330
14
102
}
330
14
100
AcDbVisualStyle
  2

 70
     4
 71
     0
 72
     2
 73
     0
 90
        0
 40
-0.6
 41
-30.0
 62
     5
 63
     7
 74
     1
 91
        4
 64
     7
 65
   257
 75
     1
175
     1
 42
1.0
 92
        0
 66
   257
 43
1.0
 76
     1
 77
     6
 78
     2
 67
     7
 79
     5
170
     0
171
     0
290
     0
174
     0
 93
        1
 44
0.0
173
     0
291
     0
 45
0.0
1001
ACAD
1000
AcDbSavedByObjectVersion
1070
     0
  0
VISUALSTYLE
  5
1C
102
{ACAD_XDICTIONARY
360
1AE6
102
}
102
{ACAD_REACTORS
330
14
102
}
330
14
100
AcDbVisualStyle
  2

 70
     6
 71
     1
 72
     2
 73
     2
 90
        0
 40
-0.6
 41
-30.0
 62
     5
 63
     7
 74
     2
 91
        2
 64
     7
 65
   257
 75
     2
175
     1
 42
40.0
 92
        0
 66
   257
 43
1.0
 76
     1
 77
     6
 78
     2
 67
     7
 79
     3
170
     0
171
     0
290
     0
174
     0
 93
        1
 44
0.0
173
     0
291
     0
 45
0.0
1001
ACAD
1000
AcDbSavedByObjectVersion
1070
     0
  0
VISUALSTYLE
  5
1B
102
{ACAD_XDICTIONARY
360
1AE4
102
}
102
{ACAD_REACTORS
330
14
102
}
330
14
100
AcDbVisualStyle
  2

 70
     5
 71
     0
 72
     2
 73
     0
 90
        0
 40
-0.6
 41
-30.0
 62
     5
 63
     7
 74
     1
 91
        4
 64
     7
 65
   257
 75
     1
175
     1
 42
1.0
 92
        0
 66
   257
 43
1.0
 76
     1
 77
     6
 78
     2
 67
     7
 79
     5
170
     0
171
     0
290
     0
174
     0
 93
        1
 44
0.0
173
     0
291
     0
 45
0.0
1001
ACAD
1000
AcDbSavedByObjectVersion
1070
     0
  0
VISUALSTYLE
  5
19
102
{ACAD_XDICTIONARY
360
1AE0
102
}
102
{ACAD_REACTORS
330
14
102
}
330
14
100
AcDbVisualStyle
  2

 70
     7
 71
     1
 72
     0
 73
     1
 90
        0
 40
-0.6
 41
-30.0
 62
     5
 63
     7
 74
     0
 91
        4
 64
     7
 65
   257
 75
     1
175
     1
 42
1.0
 92
        8
 66
     7
 43
1.0
 76
     1
 77
     6
 78
     2
 67
     7
 79
     5
170
     0
171
     0
290
     0
174
     0
 93
        1
 44
0.0
173
     0
291
     1
 45
0.0
1001
ACAD
1000
AcDbSavedByObjectVersion
1070
     0
  0
VISUALSTYLE
  5
20
102
{ACAD_XDICTIONARY
360
1AEE
102
}
102
{ACAD_REACTORS
330
14
102
}
330
14
100
AcDbVisualStyle
  2

 70
    12
 71
     2
 72
     2
 73
     0
 90
        0
 40
-0.6
 41
-30.0
 62
     5
 63
     7
 74
     1
 91
        4
 64
     7
 65
   257
 75
     1
175
     1
 42
1.0
 92
        8
 66
     7
 43
1.0
 76
     1
 77
     6
 78
     2
 67
     7
 79
     5
170
     0
171
     0
290
     0
174
     0
 93
        1
 44
50.0
173
     0
291
     1
 45
0.0
1001
ACAD
1000
AcDbSavedByObjectVersion
1070
     0
  0
VISUALSTYLE
  5
24
102
{ACAD_XDICTIONARY
360
1AF6
102
}
102
{ACAD_REACTORS
330
14
102
}
330
14
100
AcDbVisualStyle
  2

 70
    16
 71
     2
 72
     2
 73
     3
 90
        0
 40
-0.6
 41
-30.0
 62
     5
 63
     8
 74
     1
 91
        4
 64
     7
 65
   257
 75
     1
175
     1
 42
1.0
 92
        8
 66
     8
 43
1.0
 76
     1
 77
     6
 78
     2
 67
     7
 79
     5
170
     0
171
     0
290
     0
174
     0
 93
        1
 44
0.0
173
     0
291
     1
 45
0.0
1001
ACAD
1000
AcDbSavedByObjectVersion
1070
     0
  0
VISUALSTYLE
  5
1D
102
{ACAD_XDICTIONARY
360
1AE8
102
}
102
{ACAD_REACTORS
330
14
102
}
330
14
100
AcDbVisualStyle
  2

 70
     9
 71
     3
 72
     2
 73
     0
 90
        0
 40
-0.6
 41
-30.0
 62
     5
 63
     7
 74
     2
 91
        2
 64
     7
 65
   257
 75
     1
175
     1
 42
40.0
 92
        8
 66
     7
 43
1.0
 76
     1
 77
     6
 78
     2
 67
     7
 79
     3
170
     0
171
     0
290
     0
174
     0
 93
        1
 44
0.0
173
     0
291
     0
 45
0.0
1001
ACAD
1000
AcDbSavedByObjectVersion
1070
     0
  0
VISUALSTYLE
  5
1F
102
{ACAD_XDICTIONARY
360
1AEC
102
}
102
{ACAD_REACTORS
330
14
102
}
330
14
100
AcDbVisualStyle
  2

 70
    11
 71
     2
 72
     2
 73
     0
 90
        0
 40
-0.6
 41
-30.0
 62
     5
 63
     7
 74
     1
 91
        4
 64
     7
 65
   257
 75
     1
175
     1
 42
1.0
 92
        8
 66
     7
 43
1.0
 76
     1
 77
     6
 78
     2
 67
     7
 79
     5
170
     0
171
     0
290
     0
174
     0
 93
        1
 44
-50.0
173
     0
291
     1
 45
0.0
1001
ACAD
1000
AcDbSavedByObjectVersion
1070
     0
  0
VISUALSTYLE
  5
E42
102
{ACAD_XDICTIONARY
360
1B0F
102
}
102
{ACAD_REACTORS
330
14
102
}
330
14
100
AcDbVisualStyle
  2

 70
    22
 71
     2
 72
     2
 73
     0
 90
        0
 40
-0.6
 41
-30.0
 62
     5
 63
     7
 74
     1
 91
        4
 64
     7
 65
   257
 75
     1
175
     1
 42
1.0
 92
        8
 66
     7
 43
1.0
 76
     1
 77
     6
 78
     2
 67
     7
 79
     5
170
     0
171
     0
290
     0
174
     0
 93
        1
 44
0.0
173
     0
291
     1
 45
0.0
1001
ACAD
1000
AcDbSavedByObjectVersion
1070
     0
  0
VISUALSTYLE
  5
23
102
{ACAD_XDICTIONARY
360
1AF4
102
}
102
{ACAD_REACTORS
330
14
102
}
330
14
100
AcDbVisualStyle
  2

 70
    15
 71
     2
 72
     2
 73
     0
 90
        0
 40
-0.6
 41
-30.0
 62
     5
 63
     7
 74
     1
 91
        4
 64
     7
 65
   257
 75
     1
175
     1
 42
1.0
 92
        8
 66
     7
 43
1.0
 76
     1
 77
     6
 78
     2
 67
     7
 79
     5
170
     0
171
     0
290
     0
174
     0
 93
        1
 44
0.0
173
     0
291
     1
 45
0.0
1001
ACAD
1000
AcDbSavedByObjectVersion
1070
     0
  0
VISUALSTYLE
  5
15
102
{ACAD_XDICTIONARY
360
1AD8
102
}
102
{ACAD_REACTORS
330
14
102
}
330
14
100
AcDbVisualStyle
  2

 70
     0
 71
     2
 72
     1
 73
     1
 90
        2
 40
-0.6
 41
30.0
 62
     5
 63
     7
 74
     0
 91
        4
 64
     7
 65
   257
 75
     1
175
     1
 42
1.0
 92
        8
 66
     7
 43
1.0
 76
     1
 77
     6
 78
     2
 67
     7
 79
     5
170
     0
171
     0
290
     0
174
     0
 93
       13
 44
0.0
173
     0
291
     1
 45
0.0
1001
ACAD
1000
AcDbSavedByObjectVersion
1070
     0
  0
VISUALSTYLE
  5
16
102
{ACAD_XDICTIONARY
360
1ADA
102
}
102
{ACAD_REACTORS
330
14
102
}
330
14
100
AcDbVisualStyle
  2

 70
     1
 71
     2
 72
     1
 73
     1
 90
        2
 40
-0.6
 41
30.0
 62
     5
 63
     7
 74
     1
 91
        4
 64
     7
 65
   257
 75
     1
175
     1
 42
1.0
 92
        0
 66
   257
 43
1.0
 76
     1
 77
     6
 78
     2
 67
     7
 79
     5
170
     0
171
     0
290
     0
174
     0
 93
       13
 44
0.0
173
     0
291
     1
 45
0.0
1001
ACAD
1000
AcDbSavedByObjectVersion
1070
     0
  0
VISUALSTYLE
  5
17
102
{ACAD_XDICTIONARY
360
1ADC
102
}
102
{ACAD_REACTORS
330
14
102
}
330
14
100
AcDbVisualStyle
  2

 70
     2
 71
     2
 72
     2
 73
     1
 90
        2
 40
-0.6
 41
30.0
 62
     5
 63
     7
 74
     0
 91
        4
 64
     7
 65
   257
 75
     1
175
     1
 42
1.0
 92
        0
 66
     7
 43
1.0
 76
     1
 77
     6
 78
     2
 67
     7
 79
     5
170
     0
171
     0
290
     0
174
     0
 93
       13
 44
0.0
173
     0
291
     1
 45
0.0
1001
ACAD
1000
AcDbSavedByObjectVersion
1070
     0
  0
VISUALSTYLE
  5
18
102
{ACAD_XDICTIONARY
360
1ADE
102
}
102
{ACAD_REACTORS
330
14
102
}
330
14
100
AcDbVisualStyle
  2

 70
     3
 71
     2
 72
     2
 73
     1
 90
        2
 40
-0.6
 41
30.0
 62
     5
 63
     7
 74
     1
 91
        4
 64
     7
 65
   257
 75
     1
175
     1
 42
1.0
 92
        0
 66
   257
 43
1.0
 76
     1
 77
     6
 78
     2
 67
     7
 79
     5
170
     0
171
     0
290
     0
174
     0
 93
       13
 44
0.0
173
     0
291
     1
 45
0.0
1001
ACAD
1000
AcDbSavedByObjectVersion
1070
     0
  0
VISUALSTYLE
  5
E3A
102
{ACAD_XDICTIONARY
360
1AFF
102
}
102
{ACAD_REACTORS
330
14
102
}
330
14
100
AcDbVisualStyle
  2

 70
     6
 71
     1
 72
     2
 73
     2
 90
        0
 40
-0.6
 41
-30.0
 62
     5
 63
     7
 74
     2
 91
        2
 64
     7
 65
   257
 75
     2
175
     1
 42
40.0
 92
        0
 66
   257
 43
1.0
 76
     1
 77
     6
 78
     2
 67
     7
 79
     3
170
     0
171
     0
290
     0
174
     0
 93
        1
 44
0.0
173
     0
291
     0
 45
0.0
1001
ACAD
1000
AcDbSavedByObjectVersion
1070
     0
  0
VISUALSTYLE
  5
E40
102
{ACAD_XDICTIONARY
360
1B0B
102
}
102
{ACAD_REACTORS
330
14
102
}
330
14
100
AcDbVisualStyle
  2

 70
    20
 71
     2
 72
     2
 73
     0
 90
        0
 40
-0.6
 41
-30.0
 62
     5
 63
     7
 74
     1
 91
        4
 64
     7
 65
   257
 75
     1
175
     1
 42
1.0
 92
       10
 66
     7
 43
1.0
 76
     1
 77
     6
 78
     2
 67
     7
 79
     5
170
     0
171
     0
290
     0
174
     0
 93
        1
 44
0.0
173
     0
291
     1
 45
0.0
1001
ACAD
1000
AcDbSavedByObjectVersion
1070
     0
  0
VISUALSTYLE
  5
22
102
{ACAD_XDICTIONARY
360
1AF2
102
}
102
{ACAD_REACTORS
330
14
102
}
330
14
100
AcDbVisualStyle
  2

 70
    14
 71
     2
 72
     2
 73
     0
 90
        0
 40
-0.6
 41
-30.0
 62
     5
 63
     7
 74
     1
 91
        4
 64
     7
 65
   257
 75
     7
175
     7
 42
1.0
 92
        8
 66
     7
 43
1.0
 76
     1
 77
     6
 78
     2
 67
     7
 79
     5
170
     0
171
     0
290
     0
174
     0
 93
        1
 44
0.0
173
     0
291
     1
 45
0.0
1001
ACAD
1000
AcDbSavedByObjectVersion
1070
     0
  0
VISUALSTYLE
  5
E41
102
{ACAD_XDICTIONARY
360
1B0D
102
}
102
{ACAD_REACTORS
330
14
102
}
330
14
100
AcDbVisualStyle
  2

 70
    21
 71
     2
 72
     2
 73
     0
 90
        0
 40
-0.6
 41
-30.0
 62
     5
 63
     7
 74
     1
 91
        4
 64
     7
 65
   257
 75
     1
175
     1
 42
1.0
 92
        9
 66
     7
 43
1.0
 76
     1
 77
     6
 78
     2
 67
     7
 79
     5
170
     0
171
     0
290
     0
174
     0
 93
        1
 44
0.0
173
     0
291
     1
 45
0.0
1001
ACAD
1000
AcDbSavedByObjectVersion
1070
     0
  0
VISUALSTYLE
  5
1E
102
{ACAD_XDICTIONARY
360
1AEA
102
}
102
{ACAD_REACTORS
330
14
102
}
330
14
100
AcDbVisualStyle
  2

 70
     8
 71
     2
 72
     2
 73
     0
 90
        0
 40
-0.6
 41
-30.0
 62
     5
 63
     7
 74
     1
 91
        0
 64
     7
 65
   257
 75
     1
175
     1
 42
1.0
 92
        8
 66
     8
 43
1.0
 76
     1
 77
     6
 78
     2
 67
     7
 79
     5
170
     0
171
     0
290
     0
174
     0
 93
       13
 44
0.0
173
     0
291
     0
 45
0.0
1001
ACAD
1000
AcDbSavedByObjectVersion
1070
     0
  0
VISUALSTYLE
  5
E3F
102
{ACAD_XDICTIONARY
360
1B09
102
}
102
{ACAD_REACTORS
330
14
102
}
330
14
100
AcDbVisualStyle
  2

 70
    27
 71
     2
 72
     2
 73
     1
 90
        2
 40
-0.6
 41
30.0
 62
     5
 63
     7
 74
     0
 91
        4
 64
     7
 65
   257
 75
     1
175
     1
 42
1.0
 92
        8
 66
   257
 43
1.0
 76
     1
 77
     6
 78
     2
 67
     8
 79
     3
170
     0
171
     0
290
     0
174
     0
 93
        5
 44
0.0
173
     0
291
     0
 45
0.0
1001
ACAD
1000
AcDbSavedByObjectVersion
1070
     0
  0
VISUALSTYLE
  5
E3E
102
{ACAD_XDICTIONARY
360
1B07
102
}
102
{ACAD_REACTORS
330
14
102
}
330
14
100
AcDbVisualStyle
  2

 70
    26
 71
     2
 72
     2
 73
     1
 90
        2
 40
-0.6
 41
30.0
 62
     5
 63
     7
 74
     1
 91
       10
 64
     7
 65
   257
 75
     2
175
     1
 42
1.0
 92
        8
 66
   257
 43
1.0
 76
     1
 77
     6
 78
     2
 67
     7
 79
     3
170
     0
171
     0
290
     0
174
     0
 93
        5
 44
0.0
173
     0
291
     0
 45
0.0
1001
ACAD
1000
AcDbSavedByObjectVersion
1070
     0
  0
VISUALSTYLE
  5
E3B
102
{ACAD_XDICTIONARY
360
1B01
102
}
102
{ACAD_REACTORS
330
14
102
}
330
14
100
AcDbVisualStyle
  2

 70
    23
 71
     2
 72
     2
 73
     3
 90
        0
 40
-0.6
 41
-30.0
 62
     5
 63
     7
 74
     2
 91
        2
 64
     7
 65
     7
 75
     1
175
     1
 42
40.0
 92
        8
 66
     7
 43
1.0
 76
     1
 77
     6
 78
     2
 67
     7
 79
     3
170
     0
171
     0
290
     0
174
     0
 93
        1
 44
0.0
173
     0
291
     0
 45
0.0
1001
ACAD
1000
AcDbSavedByObjectVersion
1070
     0
  0
VISUALSTYLE
  5
E3C
102
{ACAD_XDICTIONARY
360
1B03
102
}
102
{ACAD_REACTORS
330
14
102
}
330
14
100
AcDbVisualStyle
  2

 70
    24
 71
     1
 72
     2
 73
     2
 90
        0
 40
-0.6
 41
-30.0
 62
     5
 63
     7
 74
     2
 91
        2
 64
     7
 65
     7
 75
     1
175
     1
 42
40.0
 92
       11
 66
     7
 43
1.0
 76
     1
 77
     6
 78
     2
 67
     7
 79
     6
170
     0
171
     0
290
     0
174
     0
 93
        1
 44
0.0
173
     0
291
     0
 45
0.0
1001
ACAD
1000
AcDbSavedByObjectVersion
1070
     0
  0
VISUALSTYLE
  5
21
102
{ACAD_XDICTIONARY
360
1AF0
102
}
102
{ACAD_REACTORS
330
14
102
}
330
14
100
AcDbVisualStyle
  2

 70
    13
 71
     2
 72
     2
 73
     0
 90
        0
 40
-0.6
 41
-30.0
 62
     5
 63
     7
 74
     1
 91
        4
 64
     7
 65
   257
 75
     1
175
     1
 42
1.0
 92
       12
 66
     7
 43
1.0
 76
     1
 77
     6
 78
     2
 67
     7
 79
     5
170
     0
171
     0
290
     0
174
     0
 93
        1
 44
0.0
173
     0
291
     1
 45
0.0
1001
ACAD
1000
AcDbSavedByObjectVersion
1070
     0
  0
VISUALSTYLE
  5
E39
102
{ACAD_XDICTIONARY
360
1AFD
102
}
102
{ACAD_REACTORS
330
14
102
}
330
14
100
AcDbVisualStyle
  2

 70
     5
 71
     0
 72
     2
 73
     0
 90
        0
 40
-0.6
 41
-30.0
 62
     5
 63
     7
 74
     1
 91
        4
 64
     7
 65
   257
 75
     1
175
     1
 42
1.0
 92
        0
 66
   257
 43
1.0
 76
     1
 77
     6
 78
     2
 67
     7
 79
     3
170
     0
171
     0
290
     0
174
     0
 93
        1
 44
0.0
173
     0
291
     0
 45
0.0
1001
ACAD
1000
AcDbSavedByObjectVersion
1070
     0
  0
VISUALSTYLE
  5
E3D
102
{ACAD_XDICTIONARY
360
1B05
102
}
102
{ACAD_REACTORS
330
14
102
}
330
14
100
AcDbVisualStyle
  2

 70
    25
 71
     2
 72
     2
 73
     1
 90
        1
 40
0.5
 41
-30.0
 62
     5
 63
     7
 74
     1
 91
        0
 64
     7
 65
   257
 75
     1
175
     1
 42
1.0
 92
        8
 66
     7
 43
1.0
 76
     1
 77
     6
 78
     2
 67
     7
 79
     3
170
     0
171
     0
290
     0
174
     0
 93
       13
 44
0.0
173
     0
291
     0
 45
0.0
1001
ACAD
1000
AcDbSavedByObjectVersion
1070
     0
  0
DICTIONARYVAR
  5
1069
102
{ACAD_REACTORS
330
58E
102
}
330
58E
100
DictionaryVariables
280
     0
  1
1:1
  0
DICTIONARYVAR
  5
1068
102
{ACAD_REACTORS
330
58E
102
}
330
58E
100
DictionaryVariables
280
     0
  1
STANDARD
  0
DICTIONARYVAR
  5
58F
102
{ACAD_REACTORS
330
58E
102
}
330
58E
100
DictionaryVariables
280
     0
  1
STANDARD
  0
DICTIONARYVAR
  5
D5E
102
{ACAD_REACTORS
330
58E
102
}
330
58E
100
DictionaryVariables
280
     0
  1
1
  0
DICTIONARYVAR
  5
D5D
102
{ACAD_REACTORS
330
58E
102
}
330
58E
100
DictionaryVariables
280
     0
  1
0
  0
DICTIONARYVAR
  5
D5C
102
{ACAD_REACTORS
330
58E
102
}
330
58E
100
DictionaryVariables
280
     0
  1
127
  0
DICTIONARYVAR
  5
19C5
102
{ACAD_REACTORS
330
58E
102
}
330
58E
100
DictionaryVariables
280
     0
  1
2
  0
DICTIONARY
  5
1AFB
330
39
100
AcDbDictionary
280
     1
281
     1
  3
ACAD_XREC_ROUNDTRIP
360
1AFC
  0
DICTIONARY
  5
1AF9
330
35
100
AcDbDictionary
280
     1
281
     1
  3
ACAD_XREC_ROUNDTRIP
360
1AFA
  0
DICTIONARY
  5
D66
330
12
100
AcDbDictionary
280
     1
281
     1
  3
ACAD_XREC_ROUNDTRIP
360
D67
  0
DICTIONARY
  5
D64
330
11
100
AcDbDictionary
280
     1
281
     1
  3
ACAD_XREC_ROUNDTRIP
360
D65
  0
DICTIONARY
  5
D68
330
13
100
AcDbDictionary
280
     1
281
     1
  3
ACAD_XREC_ROUNDTRIP
360
D69
  0
DICTIONARY
  5
10AD
330
31
100
AcDbDictionary
280
     1
281
     1
  3
ACAD_ROUNDTRIP_2008_TABLESTYLE_CELLSTYLEMAP
360
1AD1
  3
ACAD_XREC_ROUNDTRIP
360
1AF8
  0
DICTIONARY
  5
1AE2
330
1A
100
AcDbDictionary
280
     1
281
     1
  3
ACAD_XREC_ROUNDTRIP
360
1AE3
  0
DICTIONARY
  5
1AE6
330
1C
100
AcDbDictionary
280
     1
281
     1
  3
ACAD_XREC_ROUNDTRIP
360
1AE7
  0
DICTIONARY
  5
1AE4
330
1B
100
AcDbDictionary
280
     1
281
     1
  3
ACAD_XREC_ROUNDTRIP
360
1AE5
  0
DICTIONARY
  5
1AE0
330
19
100
AcDbDictionary
280
     1
281
     1
  3
ACAD_XREC_ROUNDTRIP
360
1AE1
  0
DICTIONARY
  5
1AEE
330
20
100
AcDbDictionary
280
     1
281
     1
  3
ACAD_XREC_ROUNDTRIP
360
1AEF
  0
DICTIONARY
  5
1AF6
330
24
100
AcDbDictionary
280
     1
281
     1
  3
ACAD_XREC_ROUNDTRIP
360
1AF7
  0
DICTIONARY
  5
1AE8
330
1D
100
AcDbDictionary
280
     1
281
     1
  3
ACAD_XREC_ROUNDTRIP
360
1AE9
  0
DICTIONARY
  5
1AEC
330
1F
100
AcDbDictionary
280
     1
281
     1
  3
ACAD_XREC_ROUNDTRIP
360
1AED
  0
DICTIONARY
  5
1B0F
330
E42
100
AcDbDictionary
280
     1
281
     1
  3
ACAD_XREC_ROUNDTRIP
360
1B10
  0
DICTIONARY
  5
1AF4
330
23
100
AcDbDictionary
280
     1
281
     1
  3
ACAD_XREC_ROUNDTRIP
360
1AF5
  0
DICTIONARY
  5
1AD8
330
15
100
AcDbDictionary
280
     1
281
     1
  3
ACAD_XREC_ROUNDTRIP
360
1AD9
  0
DICTIONARY
  5
1ADA
330
16
100
AcDbDictionary
280
     1
281
     1
  3
ACAD_XREC_ROUNDTRIP
360
1ADB
  0
DICTIONARY
  5
1ADC
330
17
100
AcDbDictionary
280
     1
281
     1
  3
ACAD_XREC_ROUNDTRIP
360
1ADD
  0
DICTIONARY
  5
1ADE
330
18
100
AcDbDictionary
280
     1
281
     1
  3
ACAD_XREC_ROUNDTRIP
360
1ADF
  0
DICTIONARY
  5
1AFF
330
E3A
100
AcDbDictionary
280
     1
281
     1
  3
ACAD_XREC_ROUNDTRIP
360
1B00
  0
DICTIONARY
  5
1B0B
330
E40
100
AcDbDictionary
280
     1
281
     1
  3
ACAD_XREC_ROUNDTRIP
360
1B0C
  0
DICTIONARY
  5
1AF2
330
22
100
AcDbDictionary
280
     1
281
     1
  3
ACAD_XREC_ROUNDTRIP
360
1AF3
  0
DICTIONARY
  5
1B0D
330
E41
100
AcDbDictionary
280
     1
281
     1
  3
ACAD_XREC_ROUNDTRIP
360
1B0E
  0
DICTIONARY
  5
1AEA
330
1E
100
AcDbDictionary
280
     1
281
     1
  3
ACAD_XREC_ROUNDTRIP
360
1AEB
  0
DICTIONARY
  5
1B09
330
E3F
100
AcDbDictionary
280
     1
281
     1
  3
ACAD_XREC_ROUNDTRIP
360
1B0A
  0
DICTIONARY
  5
1B07
330
E3E
100
AcDbDictionary
280
     1
281
     1
  3
ACAD_XREC_ROUNDTRIP
360
1B08
  0
DICTIONARY
  5
1B01
330
E3B
100
AcDbDictionary
280
     1
281
     1
  3
ACAD_XREC_ROUNDTRIP
360
1B02
  0
DICTIONARY
  5
1B03
330
E3C
100
AcDbDictionary
280
     1
281
     1
  3
ACAD_XREC_ROUNDTRIP
360
1B04
  0
DICTIONARY
  5
1AF0
330
21
100
AcDbDictionary
280
     1
281
     1
  3
ACAD_XREC_ROUNDTRIP
360
1AF1
  0
DICTIONARY
  5
1AFD
330
E39
100
AcDbDictionary
280
     1
281
     1
  3
ACAD_XREC_ROUNDTRIP
360
1AFE
  0
DICTIONARY
  5
1B05
330
E3D
100
AcDbDictionary
280
     1
281
     1
  3
ACAD_XREC_ROUNDTRIP
360
1B06
  0
XRECORD
  5
1AFC
102
{ACAD_REACTORS
330
1AFB
102
}
330
1AFB
100
AcDbXrecord
280
     1
102
SHADEPLOT
 70
     0
102
SHADEPLOTRESLEVEL
 70
     2
102
SHADEPLOTCUSTOMDPI
 70
   300
  0
XRECORD
  5
1AFA
102
{ACAD_REACTORS
330
1AF9
102
}
330
1AF9
100
AcDbXrecord
280
     1
102
SHADEPLOT
 70
     0
102
SHADEPLOTRESLEVEL
 70
     2
102
SHADEPLOTCUSTOMDPI
 70
   300
  0
XRECORD
  5
D67
102
{ACAD_REACTORS
330
D66
102
}
330
D66
100
AcDbXrecord
280
     1
102
MATERIAL
148
0.0
149
0.0
149
0.0
 93
        0
 94
      127
282
     0
 72
     1
 77
     1
171
     1
175
     1
179
     1
273
     0
  0
XRECORD
  5
D65
102
{ACAD_REACTORS
330
D64
102
}
330
D64
100
AcDbXrecord
280
     1
102
MATERIAL
148
0.0
149
0.0
149
0.0
 93
        0
 94
      127
282
     0
 72
     1
 77
     1
171
     1
175
     1
179
     1
273
     0
  0
XRECORD
  5
D69
102
{ACAD_REACTORS
330
D68
102
}
330
D68
100
AcDbXrecord
280
     1
102
MATERIAL
148
0.0
149
0.0
149
0.0
 93
        0
 94
      127
282
     0
 72
     1
 77
     1
171
     1
175
     1
179
     1
273
     0
  0
CELLSTYLEMAP
  5
1AD1
102
{ACAD_REACTORS
330
10AD
102
}
330
10AD
100
AcDbCellStyleMap
 90
        3
300
CELLSTYLE
  1
TABLEFORMAT_BEGIN
 90
        5
170
     1
 91
        0
 92
    32768
 62
   257
 93
        1
300
CONTENTFORMAT
  1
CONTENTFORMAT_BEGIN
 90
        0
 91
        0
 92
      512
 93
        0
300

 40
0.0
140
1.0
 94
        5
 62
     0
340
26
144
0.25
309
CONTENTFORMAT_END
171
     1
301
MARGIN
  1
CELLMARGIN_BEGIN
 40
0.06
 40
0.06
 40
0.06
 40
0.06
 40
0.18
 40
0.18
309
CELLMARGIN_END
 94
        6
 95
        1
302
GRIDFORMAT
  1
GRIDFORMAT_BEGIN
 90
        0
 91
        1
 62
     0
 92
       -2
340
0
 93
        0
 40
0.045
309
GRIDFORMAT_END
 95
        2
302
GRIDFORMAT
  1
GRIDFORMAT_BEGIN
 90
        0
 91
        1
 62
     0
 92
       -2
340
0
 93
        0
 40
0.045
309
GRIDFORMAT_END
 95
        4
302
GRIDFORMAT
  1
GRIDFORMAT_BEGIN
 90
        0
 91
        1
 62
     0
 92
       -2
340
0
 93
        0
 40
0.045
309
GRIDFORMAT_END
 95
        8
302
GRIDFORMAT
  1
GRIDFORMAT_BEGIN
 90
        0
 91
        1
 62
     0
 92
       -2
340
0
 93
        0
 40
0.045
309
GRIDFORMAT_END
 95
       16
302
GRIDFORMAT
  1
GRIDFORMAT_BEGIN
 90
        0
 91
        1
 62
     0
 92
       -2
340
0
 93
        0
 40
0.045
309
GRIDFORMAT_END
 95
       32
302
GRIDFORMAT
  1
GRIDFORMAT_BEGIN
 90
        0
 91
        1
 62
     0
 92
       -2
340
0
 93
        0
 40
0.045
309
GRIDFORMAT_END
309
TABLEFORMAT_END
  1
CELLSTYLE_BEGIN
 90
        1
 91
        1
300
_TITLE
309
CELLSTYLE_END
300
CELLSTYLE
  1
TABLEFORMAT_BEGIN
 90
        5
170
     1
 91
        0
 92
        0
 62
   257
 93
        1
300
CONTENTFORMAT
  1
CONTENTFORMAT_BEGIN
 90
        0
 91
        0
 92
      512
 93
        0
300

 40
0.0
140
1.0
 94
        5
 62
     0
340
26
144
0.18
309
CONTENTFORMAT_END
171
     1
301
MARGIN
  1
CELLMARGIN_BEGIN
 40
0.06
 40
0.06
 40
0.06
 40
0.06
 40
0.18
 40
0.18
309
CELLMARGIN_END
 94
        6
 95
        1
302
GRIDFORMAT
  1
GRIDFORMAT_BEGIN
 90
        0
 91
        1
 62
     0
 92
       -2
340
0
 93
        0
 40
0.045
309
GRIDFORMAT_END
 95
        2
302
GRIDFORMAT
  1
GRIDFORMAT_BEGIN
 90
        0
 91
        1
 62
     0
 92
       -2
340
0
 93
        0
 40
0.045
309
GRIDFORMAT_END
 95
        4
302
GRIDFORMAT
  1
GRIDFORMAT_BEGIN
 90
        0
 91
        1
 62
     0
 92
       -2
340
0
 93
        0
 40
0.045
309
GRIDFORMAT_END
 95
        8
302
GRIDFORMAT
  1
GRIDFORMAT_BEGIN
 90
        0
 91
        1
 62
     0
 92
       -2
340
0
 93
        0
 40
0.045
309
GRIDFORMAT_END
 95
       16
302
GRIDFORMAT
  1
GRIDFORMAT_BEGIN
 90
        0
 91
        1
 62
     0
 92
       -2
340
0
 93
        0
 40
0.045
309
GRIDFORMAT_END
 95
       32
302
GRIDFORMAT
  1
GRIDFORMAT_BEGIN
 90
        0
 91
        1
 62
     0
 92
       -2
340
0
 93
        0
 40
0.045
309
GRIDFORMAT_END
309
TABLEFORMAT_END
  1
CELLSTYLE_BEGIN
 90
        2
 91
        1
300
_HEADER
309
CELLSTYLE_END
300
CELLSTYLE
  1
TABLEFORMAT_BEGIN
 90
        5
170
     1
 91
        0
 92
        0
 62
   257
 93
        1
300
CONTENTFORMAT
  1
CONTENTFORMAT_BEGIN
 90
        0
 91
        0
 92
      512
 93
        0
300

 40
0.0
140
1.0
 94
        2
 62
     0
340
26
144
0.18
309
CONTENTFORMAT_END
171
     1
301
MARGIN
  1
CELLMARGIN_BEGIN
 40
0.06
 40
0.06
 40
0.06
 40
0.06
 40
0.18
 40
0.18
309
CELLMARGIN_END
 94
        6
 95
        1
302
GRIDFORMAT
  1
GRIDFORMAT_BEGIN
 90
        0
 91
        1
 62
     0
 92
       -2
340
0
 93
        0
 40
0.045
309
GRIDFORMAT_END
 95
        2
302
GRIDFORMAT
  1
GRIDFORMAT_BEGIN
 90
        0
 91
        1
 62
     0
 92
       -2
340
0
 93
        0
 40
0.045
309
GRIDFORMAT_END
 95
        4
302
GRIDFORMAT
  1
GRIDFORMAT_BEGIN
 90
        0
 91
        1
 62
     0
 92
       -2
340
0
 93
        0
 40
0.045
309
GRIDFORMAT_END
 95
        8
302
GRIDFORMAT
  1
GRIDFORMAT_BEGIN
 90
        0
 91
        1
 62
     0
 92
       -2
340
0
 93
        0
 40
0.045
309
GRIDFORMAT_END
 95
       16
302
GRIDFORMAT
  1
GRIDFORMAT_BEGIN
 90
        0
 91
        1
 62
     0
 92
       -2
340
0
 93
        0
 40
0.045
309
GRIDFORMAT_END
 95
       32
302
GRIDFORMAT
  1
GRIDFORMAT_BEGIN
 90
        0
 91
        1
 62
     0
 92
       -2
340
0
 93
        0
 40
0.045
309
GRIDFORMAT_END
309
TABLEFORMAT_END
  1
CELLSTYLE_BEGIN
 90
        3
 91
        2
300
_DATA
309
CELLSTYLE_END
  0
XRECORD
  5
1AF8
102
{ACAD_REACTORS
330
10AD
102
}
330
10AD
100
AcDbXrecord
280
     1
102
ACAD_ROUNDTRIP_PRE2007_TABLESTYLE
 90
      512
 91
        0
  1

 92
      512
 93
        0
  2

 94
      512
 95
        0
  3

  0
XRECORD
  5
1AE3
102
{ACAD_REACTORS
330
1AE2
102
}
330
1AE2
100
AcDbXrecord
280
     1
102
RTVSPropertyOp0
 70
     1
102
RTVSPropertyOp1
 70
     1
102
RTVSPropertyOp2
 70
     1
102
RTVSPropertyOp3
 70
     1
102
RTVSPropertyOp4
 70
     1
102
RTVSPropertyOp5
 70
     1
102
RTVSPropertyOp6
 70
     1
102
RTVSPropertyOp7
 70
     1
102
RTVSPropertyOp8
 70
     1
102
RTVSPropertyOp9
 70
     1
102
RTVSPropertyOp10
 70
     1
102
RTVSPropertyOp11
 70
     1
102
RTVSPropertyOp12
 70
     1
102
RTVSPropertyOp13
 70
     1
102
RTVSPropertyOp14
 70
     1
102
RTVSPropertyOp15
 70
     1
102
RTVSPropertyOp16
 70
     1
102
RTVSPropertyOp17
 70
     1
102
RTVSPropertyOp18
 70
     1
102
RTVSPropertyOp19
 70
     1
102
RTVSPropertyOp20
 70
     1
102
RTVSPropertyOp21
 70
     1
102
RTVSPropertyOp22
 70
     1
102
RTVSPropertyOp23
 70
     1
102
RTVSPropertyOp24
 70
     1
102
RTVSPropertyOp25
 70
     1
102
RTVSPropertyOp26
 70
     1
102
RTVSPropertyOp27
 70
     1
102
RTVSPropertyOp28
 70
     1
102
RTVSPropertyOp29
 70
     1
102
RTVSPropertyOp30
 70
     1
102
RTVSPropertyOp31
 70
     1
102
RTVSPropertyOp32
 70
     1
  0
XRECORD
  5
1AE7
102
{ACAD_REACTORS
330
1AE6
102
}
330
1AE6
100
AcDbXrecord
280
     1
102
RTVSPropertyOp0
 70
     1
102
RTVSPropertyOp1
 70
     1
102
RTVSPropertyOp2
 70
     1
102
RTVSPropertyOp3
 70
     1
102
RTVSPropertyOp4
 70
     1
102
RTVSPropertyOp5
 70
     1
102
RTVSPropertyOp6
 70
     1
102
RTVSPropertyOp7
 70
     1
102
RTVSPropertyOp8
 70
     1
102
RTVSPropertyOp9
 70
     1
102
RTVSPropertyOp10
 70
     1
102
RTVSPropertyOp11
 70
     1
102
RTVSPropertyOp12
 70
     1
102
RTVSPropertyOp13
 70
     1
102
RTVSPropertyOp14
 70
     1
102
RTVSPropertyOp15
 70
     1
102
RTVSPropertyOp16
 70
     1
102
RTVSPropertyOp17
 70
     1
102
RTVSPropertyOp18
 70
     1
102
RTVSPropertyOp19
 70
     1
102
RTVSPropertyOp20
 70
     1
102
RTVSPropertyOp21
 70
     1
102
RTVSPropertyOp22
 70
     1
102
RTVSPropertyOp23
 70
     1
102
RTVSPropertyOp24
 70
     1
102
RTVSPropertyOp25
 70
     1
102
RTVSPropertyOp26
 70
     1
102
RTVSPropertyOp27
 70
     1
102
RTVSPropertyOp28
 70
     1
102
RTVSPropertyOp29
 70
     1
102
RTVSPropertyOp30
 70
     1
102
RTVSPropertyOp31
 70
     1
102
RTVSPropertyOp32
 70
     1
  0
XRECORD
  5
1AE5
102
{ACAD_REACTORS
330
1AE4
102
}
330
1AE4
100
AcDbXrecord
280
     1
102
RTVSPropertyOp0
 70
     1
102
RTVSPropertyOp1
 70
     1
102
RTVSPropertyOp2
 70
     1
102
RTVSPropertyOp3
 70
     1
102
RTVSPropertyOp4
 70
     1
102
RTVSPropertyOp5
 70
     1
102
RTVSPropertyOp6
 70
     1
102
RTVSPropertyOp7
 70
     1
102
RTVSPropertyOp8
 70
     1
102
RTVSPropertyOp9
 70
     1
102
RTVSPropertyOp10
 70
     1
102
RTVSPropertyOp11
 70
     1
102
RTVSPropertyOp12
 70
     1
102
RTVSPropertyOp13
 70
     1
102
RTVSPropertyOp14
 70
     1
102
RTVSPropertyOp15
 70
     1
102
RTVSPropertyOp16
 70
     1
102
RTVSPropertyOp17
 70
     1
102
RTVSPropertyOp18
 70
     1
102
RTVSPropertyOp19
 70
     1
102
RTVSPropertyOp20
 70
     1
102
RTVSPropertyOp21
 70
     1
102
RTVSPropertyOp22
 70
     1
102
RTVSPropertyOp23
 70
     1
102
RTVSPropertyOp24
 70
     1
102
RTVSPropertyOp25
 70
     1
102
RTVSPropertyOp26
 70
     1
102
RTVSPropertyOp27
 70
     1
102
RTVSPropertyOp28
 70
     1
102
RTVSPropertyOp29
 70
     1
102
RTVSPropertyOp30
 70
     1
102
RTVSPropertyOp31
 70
     1
102
RTVSPropertyOp32
 70
     1
  0
XRECORD
  5
1AE1
102
{ACAD_REACTORS
330
1AE0
102
}
330
1AE0
100
AcDbXrecord
280
     1
102
RTVSPropertyOp0
 70
     1
102
RTVSPropertyOp1
 70
     1
102
RTVSPropertyOp2
 70
     1
102
RTVSPropertyOp3
 70
     1
102
RTVSPropertyOp4
 70
     1
102
RTVSPropertyOp5
 70
     1
102
RTVSPropertyOp6
 70
     1
102
RTVSPropertyOp7
 70
     1
102
RTVSPropertyOp8
 70
     1
102
RTVSPropertyOp9
 70
     1
102
RTVSPropertyOp10
 70
     1
102
RTVSPropertyOp11
 70
     1
102
RTVSPropertyOp12
 70
     1
102
RTVSPropertyOp13
 70
     1
102
RTVSPropertyOp14
 70
     1
102
RTVSPropertyOp15
 70
     1
102
RTVSPropertyOp16
 70
     1
102
RTVSPropertyOp17
 70
     1
102
RTVSPropertyOp18
 70
     1
102
RTVSPropertyOp19
 70
     1
102
RTVSPropertyOp20
 70
     1
102
RTVSPropertyOp21
 70
     1
102
RTVSPropertyOp22
 70
     1
102
RTVSPropertyOp23
 70
     1
102
RTVSPropertyOp24
 70
     1
102
RTVSPropertyOp25
 70
     1
102
RTVSPropertyOp26
 70
     1
102
RTVSPropertyOp27
 70
     1
102
RTVSPropertyOp28
 70
     1
102
RTVSPropertyOp29
 70
     1
102
RTVSPropertyOp30
 70
     1
102
RTVSPropertyOp31
 70
     1
102
RTVSPropertyOp32
 70
     1
  0
XRECORD
  5
1AEF
102
{ACAD_REACTORS
330
1AEE
102
}
330
1AEE
100
AcDbXrecord
280
     1
102
RTVSPropertyOp0
 70
     1
102
RTVSPropertyOp1
 70
     1
102
RTVSPropertyOp2
 70
     1
102
RTVSPropertyOp3
 70
     1
102
RTVSPropertyOp4
 70
     1
102
RTVSPropertyOp5
 70
     1
102
RTVSPropertyOp6
 70
     1
102
RTVSPropertyOp7
 70
     1
102
RTVSPropertyOp8
 70
     1
102
RTVSPropertyOp9
 70
     1
102
RTVSPropertyOp10
 70
     1
102
RTVSPropertyOp11
 70
     1
102
RTVSPropertyOp12
 70
     1
102
RTVSPropertyOp13
 70
     1
102
RTVSPropertyOp14
 70
     1
102
RTVSPropertyOp15
 70
     1
102
RTVSPropertyOp16
 70
     1
102
RTVSPropertyOp17
 70
     1
102
RTVSPropertyOp18
 70
     1
102
RTVSPropertyOp19
 70
     1
102
RTVSPropertyOp20
 70
     1
102
RTVSPropertyOp21
 70
     1
102
RTVSPropertyOp22
 70
     1
102
RTVSPropertyOp23
 70
     1
102
RTVSPropertyOp24
 70
     1
102
RTVSPropertyOp25
 70
     1
102
RTVSPropertyOp26
 70
     1
102
RTVSPropertyOp27
 70
     1
102
RTVSPropertyOp28
 70
     1
102
RTVSPropertyOp29
 70
     1
102
RTVSPropertyOp30
 70
     1
102
RTVSPropertyOp31
 70
     1
102
RTVSPropertyOp32
 70
     1
  0
XRECORD
  5
1AF7
102
{ACAD_REACTORS
330
1AF6
102
}
330
1AF6
100
AcDbXrecord
280
     1
102
RTVSPropertyOp0
 70
     1
102
RTVSPropertyOp1
 70
     1
102
RTVSPropertyOp2
 70
     1
102
RTVSPropertyOp3
 70
     1
102
RTVSPropertyOp4
 70
     1
102
RTVSPropertyOp5
 70
     1
102
RTVSPropertyOp6
 70
     1
102
RTVSPropertyOp7
 70
     1
102
RTVSPropertyOp8
 70
     1
102
RTVSPropertyOp9
 70
     1
102
RTVSPropertyOp10
 70
     1
102
RTVSPropertyOp11
 70
     1
102
RTVSPropertyOp12
 70
     1
102
RTVSPropertyOp13
 70
     1
102
RTVSPropertyOp14
 70
     1
102
RTVSPropertyOp15
 70
     1
102
RTVSPropertyOp16
 70
     1
102
RTVSPropertyOp17
 70
     1
102
RTVSPropertyOp18
 70
     1
102
RTVSPropertyOp19
 70
     1
102
RTVSPropertyOp20
 70
     1
102
RTVSPropertyOp21
 70
     1
102
RTVSPropertyOp22
 70
     1
102
RTVSPropertyOp23
 70
     1
102
RTVSPropertyOp24
 70
     1
102
RTVSPropertyOp25
 70
     1
102
RTVSPropertyOp26
 70
     1
102
RTVSPropertyOp27
 70
     1
102
RTVSPropertyOp28
 70
     1
102
RTVSPropertyOp29
 70
     1
102
RTVSPropertyOp30
 70
     1
102
RTVSPropertyOp31
 70
     1
102
RTVSPropertyOp32
 70
     1
  0
XRECORD
  5
1AE9
102
{ACAD_REACTORS
330
1AE8
102
}
330
1AE8
100
AcDbXrecord
280
     1
102
RTVSPropertyOp0
 70
     1
102
RTVSPropertyOp1
 70
     1
102
RTVSPropertyOp2
 70
     1
102
RTVSPropertyOp3
 70
     1
102
RTVSPropertyOp4
 70
     1
102
RTVSPropertyOp5
 70
     1
102
RTVSPropertyOp6
 70
     1
102
RTVSPropertyOp7
 70
     1
102
RTVSPropertyOp8
 70
     1
102
RTVSPropertyOp9
 70
     1
102
RTVSPropertyOp10
 70
     1
102
RTVSPropertyOp11
 70
     1
102
RTVSPropertyOp12
 70
     1
102
RTVSPropertyOp13
 70
     1
102
RTVSPropertyOp14
 70
     1
102
RTVSPropertyOp15
 70
     1
102
RTVSPropertyOp16
 70
     1
102
RTVSPropertyOp17
 70
     1
102
RTVSPropertyOp18
 70
     1
102
RTVSPropertyOp19
 70
     1
102
RTVSPropertyOp20
 70
     1
102
RTVSPropertyOp21
 70
     1
102
RTVSPropertyOp22
 70
     1
102
RTVSPropertyOp23
 70
     1
102
RTVSPropertyOp24
 70
     1
102
RTVSPropertyOp25
 70
     1
102
RTVSPropertyOp26
 70
     1
102
RTVSPropertyOp27
 70
     1
102
RTVSPropertyOp28
 70
     1
102
RTVSPropertyOp29
 70
     1
102
RTVSPropertyOp30
 70
     1
102
RTVSPropertyOp31
 70
     1
102
RTVSPropertyOp32
 70
     1
  0
XRECORD
  5
1AED
102
{ACAD_REACTORS
330
1AEC
102
}
330
1AEC
100
AcDbXrecord
280
     1
102
RTVSPropertyOp0
 70
     1
102
RTVSPropertyOp1
 70
     1
102
RTVSPropertyOp2
 70
     1
102
RTVSPropertyOp3
 70
     1
102
RTVSPropertyOp4
 70
     1
102
RTVSPropertyOp5
 70
     1
102
RTVSPropertyOp6
 70
     1
102
RTVSPropertyOp7
 70
     1
102
RTVSPropertyOp8
 70
     1
102
RTVSPropertyOp9
 70
     1
102
RTVSPropertyOp10
 70
     1
102
RTVSPropertyOp11
 70
     1
102
RTVSPropertyOp12
 70
     1
102
RTVSPropertyOp13
 70
     1
102
RTVSPropertyOp14
 70
     1
102
RTVSPropertyOp15
 70
     1
102
RTVSPropertyOp16
 70
     1
102
RTVSPropertyOp17
 70
     1
102
RTVSPropertyOp18
 70
     1
102
RTVSPropertyOp19
 70
     1
102
RTVSPropertyOp20
 70
     1
102
RTVSPropertyOp21
 70
     1
102
RTVSPropertyOp22
 70
     1
102
RTVSPropertyOp23
 70
     1
102
RTVSPropertyOp24
 70
     1
102
RTVSPropertyOp25
 70
     1
102
RTVSPropertyOp26
 70
     1
102
RTVSPropertyOp27
 70
     1
102
RTVSPropertyOp28
 70
     1
102
RTVSPropertyOp29
 70
     1
102
RTVSPropertyOp30
 70
     1
102
RTVSPropertyOp31
 70
     1
102
RTVSPropertyOp32
 70
     1
  0
XRECORD
  5
1B10
102
{ACAD_REACTORS
330
1B0F
102
}
330
1B0F
100
AcDbXrecord
280
     1
102
RTVSPropertyOp0
 70
     0
102
RTVSPropertyOp1
 70
     0
102
RTVSPropertyOp2
 70
     0
102
RTVSPropertyOp3
 70
     0
102
RTVSPropertyOp4
 70
     0
102
RTVSPropertyOp5
 70
     0
102
RTVSPropertyOp6
 70
     0
102
RTVSPropertyOp7
 70
     0
102
RTVSPropertyOp8
 70
     0
102
RTVSPropertyOp9
 70
     0
102
RTVSPropertyOp10
 70
     0
102
RTVSPropertyOp11
 70
     0
102
RTVSPropertyOp12
 70
     0
102
RTVSPropertyOp13
 70
     0
102
RTVSPropertyOp14
 70
     2
102
RTVSPropertyOp15
 70
     0
102
RTVSPropertyOp16
 70
     0
102
RTVSPropertyOp17
 70
     0
102
RTVSPropertyOp18
 70
     0
102
RTVSPropertyOp19
 70
     0
102
RTVSPropertyOp20
 70
     0
102
RTVSPropertyOp21
 70
     0
102
RTVSPropertyOp22
 70
     0
102
RTVSPropertyOp23
 70
     0
102
RTVSPropertyOp24
 70
     0
102
RTVSPropertyOp25
 70
     0
102
RTVSPropertyOp26
 70
     0
102
RTVSPropertyOp27
 70
     0
102
RTVSPropertyOp28
 70
     0
102
RTVSPropertyOp29
 70
     0
102
RTVSPropertyOp30
 70
     0
102
RTVSPropertyOp31
 70
     0
102
RTVSPropertyOp32
 70
     0
  0
XRECORD
  5
1AF5
102
{ACAD_REACTORS
330
1AF4
102
}
330
1AF4
100
AcDbXrecord
280
     1
102
RTVSPropertyOp0
 70
     1
102
RTVSPropertyOp1
 70
     1
102
RTVSPropertyOp2
 70
     1
102
RTVSPropertyOp3
 70
     1
102
RTVSPropertyOp4
 70
     1
102
RTVSPropertyOp5
 70
     1
102
RTVSPropertyOp6
 70
     1
102
RTVSPropertyOp7
 70
     1
102
RTVSPropertyOp8
 70
     1
102
RTVSPropertyOp9
 70
     1
102
RTVSPropertyOp10
 70
     1
102
RTVSPropertyOp11
 70
     1
102
RTVSPropertyOp12
 70
     1
102
RTVSPropertyOp13
 70
     1
102
RTVSPropertyOp14
 70
     1
102
RTVSPropertyOp15
 70
     1
102
RTVSPropertyOp16
 70
     1
102
RTVSPropertyOp17
 70
     1
102
RTVSPropertyOp18
 70
     1
102
RTVSPropertyOp19
 70
     1
102
RTVSPropertyOp20
 70
     1
102
RTVSPropertyOp21
 70
     1
102
RTVSPropertyOp22
 70
     1
102
RTVSPropertyOp23
 70
     1
102
RTVSPropertyOp24
 70
     1
102
RTVSPropertyOp25
 70
     1
102
RTVSPropertyOp26
 70
     1
102
RTVSPropertyOp27
 70
     1
102
RTVSPropertyOp28
 70
     1
102
RTVSPropertyOp29
 70
     1
102
RTVSPropertyOp30
 70
     1
102
RTVSPropertyOp31
 70
     1
102
RTVSPropertyOp32
 70
     1
  0
XRECORD
  5
1AD9
102
{ACAD_REACTORS
330
1AD8
102
}
330
1AD8
100
AcDbXrecord
280
     1
102
RTVSPropertyOp0
 70
     1
102
RTVSPropertyOp1
 70
     1
102
RTVSPropertyOp2
 70
     1
102
RTVSPropertyOp3
 70
     1
102
RTVSPropertyOp4
 70
     1
102
RTVSPropertyOp5
 70
     1
102
RTVSPropertyOp6
 70
     1
102
RTVSPropertyOp7
 70
     1
102
RTVSPropertyOp8
 70
     1
102
RTVSPropertyOp9
 70
     1
102
RTVSPropertyOp10
 70
     1
102
RTVSPropertyOp11
 70
     1
102
RTVSPropertyOp12
 70
     1
102
RTVSPropertyOp13
 70
     1
102
RTVSPropertyOp14
 70
     1
102
RTVSPropertyOp15
 70
     1
102
RTVSPropertyOp16
 70
     1
102
RTVSPropertyOp17
 70
     1
102
RTVSPropertyOp18
 70
     1
102
RTVSPropertyOp19
 70
     1
102
RTVSPropertyOp20
 70
     1
102
RTVSPropertyOp21
 70
     1
102
RTVSPropertyOp22
 70
     1
102
RTVSPropertyOp23
 70
     1
102
RTVSPropertyOp24
 70
     1
102
RTVSPropertyOp25
 70
     1
102
RTVSPropertyOp26
 70
     1
102
RTVSPropertyOp27
 70
     1
102
RTVSPropertyOp28
 70
     1
102
RTVSPropertyOp29
 70
     1
102
RTVSPropertyOp30
 70
     1
102
RTVSPropertyOp31
 70
     1
102
RTVSPropertyOp32
 70
     1
  0
XRECORD
  5
1ADB
102
{ACAD_REACTORS
330
1ADA
102
}
330
1ADA
100
AcDbXrecord
280
     1
102
RTVSPropertyOp0
 70
     1
102
RTVSPropertyOp1
 70
     1
102
RTVSPropertyOp2
 70
     1
102
RTVSPropertyOp3
 70
     1
102
RTVSPropertyOp4
 70
     1
102
RTVSPropertyOp5
 70
     1
102
RTVSPropertyOp6
 70
     1
102
RTVSPropertyOp7
 70
     1
102
RTVSPropertyOp8
 70
     1
102
RTVSPropertyOp9
 70
     1
102
RTVSPropertyOp10
 70
     1
102
RTVSPropertyOp11
 70
     1
102
RTVSPropertyOp12
 70
     1
102
RTVSPropertyOp13
 70
     1
102
RTVSPropertyOp14
 70
     1
102
RTVSPropertyOp15
 70
     1
102
RTVSPropertyOp16
 70
     1
102
RTVSPropertyOp17
 70
     1
102
RTVSPropertyOp18
 70
     1
102
RTVSPropertyOp19
 70
     1
102
RTVSPropertyOp20
 70
     1
102
RTVSPropertyOp21
 70
     1
102
RTVSPropertyOp22
 70
     1
102
RTVSPropertyOp23
 70
     1
102
RTVSPropertyOp24
 70
     1
102
RTVSPropertyOp25
 70
     1
102
RTVSPropertyOp26
 70
     1
102
RTVSPropertyOp27
 70
     1
102
RTVSPropertyOp28
 70
     1
102
RTVSPropertyOp29
 70
     1
102
RTVSPropertyOp30
 70
     1
102
RTVSPropertyOp31
 70
     1
102
RTVSPropertyOp32
 70
     1
  0
XRECORD
  5
1ADD
102
{ACAD_REACTORS
330
1ADC
102
}
330
1ADC
100
AcDbXrecord
280
     1
102
RTVSPropertyOp0
 70
     1
102
RTVSPropertyOp1
 70
     1
102
RTVSPropertyOp2
 70
     1
102
RTVSPropertyOp3
 70
     1
102
RTVSPropertyOp4
 70
     1
102
RTVSPropertyOp5
 70
     1
102
RTVSPropertyOp6
 70
     1
102
RTVSPropertyOp7
 70
     1
102
RTVSPropertyOp8
 70
     1
102
RTVSPropertyOp9
 70
     1
102
RTVSPropertyOp10
 70
     1
102
RTVSPropertyOp11
 70
     1
102
RTVSPropertyOp12
 70
     1
102
RTVSPropertyOp13
 70
     1
102
RTVSPropertyOp14
 70
     1
102
RTVSPropertyOp15
 70
     1
102
RTVSPropertyOp16
 70
     1
102
RTVSPropertyOp17
 70
     1
102
RTVSPropertyOp18
 70
     1
102
RTVSPropertyOp19
 70
     1
102
RTVSPropertyOp20
 70
     1
102
RTVSPropertyOp21
 70
     1
102
RTVSPropertyOp22
 70
     1
102
RTVSPropertyOp23
 70
     1
102
RTVSPropertyOp24
 70
     1
102
RTVSPropertyOp25
 70
     1
102
RTVSPropertyOp26
 70
     1
102
RTVSPropertyOp27
 70
     1
102
RTVSPropertyOp28
 70
     1
102
RTVSPropertyOp29
 70
     1
102
RTVSPropertyOp30
 70
     1
102
RTVSPropertyOp31
 70
     1
102
RTVSPropertyOp32
 70
     1
  0
XRECORD
  5
1ADF
102
{ACAD_REACTORS
330
1ADE
102
}
330
1ADE
100
AcDbXrecord
280
     1
102
RTVSPropertyOp0
 70
     1
102
RTVSPropertyOp1
 70
     1
102
RTVSPropertyOp2
 70
     1
102
RTVSPropertyOp3
 70
     1
102
RTVSPropertyOp4
 70
     1
102
RTVSPropertyOp5
 70
     1
102
RTVSPropertyOp6
 70
     1
102
RTVSPropertyOp7
 70
     1
102
RTVSPropertyOp8
 70
     1
102
RTVSPropertyOp9
 70
     1
102
RTVSPropertyOp10
 70
     1
102
RTVSPropertyOp11
 70
     1
102
RTVSPropertyOp12
 70
     1
102
RTVSPropertyOp13
 70
     1
102
RTVSPropertyOp14
 70
     1
102
RTVSPropertyOp15
 70
     1
102
RTVSPropertyOp16
 70
     1
102
RTVSPropertyOp17
 70
     1
102
RTVSPropertyOp18
 70
     1
102
RTVSPropertyOp19
 70
     1
102
RTVSPropertyOp20
 70
     1
102
RTVSPropertyOp21
 70
     1
102
RTVSPropertyOp22
 70
     1
102
RTVSPropertyOp23
 70
     1
102
RTVSPropertyOp24
 70
     1
102
RTVSPropertyOp25
 70
     1
102
RTVSPropertyOp26
 70
     1
102
RTVSPropertyOp27
 70
     1
102
RTVSPropertyOp28
 70
     1
102
RTVSPropertyOp29
 70
     1
102
RTVSPropertyOp30
 70
     1
102
RTVSPropertyOp31
 70
     1
102
RTVSPropertyOp32
 70
     1
  0
XRECORD
  5
1B00
102
{ACAD_REACTORS
330
1AFF
102
}
330
1AFF
100
AcDbXrecord
280
     1
102
RTVSPropertyOp0
 70
     1
102
RTVSPropertyOp1
 70
     1
102
RTVSPropertyOp2
 70
     1
102
RTVSPropertyOp3
 70
     1
102
RTVSPropertyOp4
 70
     1
102
RTVSPropertyOp5
 70
     1
102
RTVSPropertyOp6
 70
     1
102
RTVSPropertyOp7
 70
     1
102
RTVSPropertyOp8
 70
     1
102
RTVSPropertyOp9
 70
     1
102
RTVSPropertyOp10
 70
     1
102
RTVSPropertyOp11
 70
     1
102
RTVSPropertyOp12
 70
     1
102
RTVSPropertyOp13
 70
     1
102
RTVSPropertyOp14
 70
     1
102
RTVSPropertyOp15
 70
     1
102
RTVSPropertyOp16
 70
     1
102
RTVSPropertyOp17
 70
     1
102
RTVSPropertyOp18
 70
     1
102
RTVSPropertyOp19
 70
     1
102
RTVSPropertyOp20
 70
     1
102
RTVSPropertyOp21
 70
     1
102
RTVSPropertyOp22
 70
     1
102
RTVSPropertyOp23
 70
     1
102
RTVSPropertyOp24
 70
     1
102
RTVSPropertyOp25
 70
     1
102
RTVSPropertyOp26
 70
     1
102
RTVSPropertyOp27
 70
     1
102
RTVSPropertyOp28
 70
     1
102
RTVSPropertyOp29
 70
     1
102
RTVSPropertyOp30
 70
     1
102
RTVSPropertyOp31
 70
     1
102
RTVSPropertyOp32
 70
     1
  0
XRECORD
  5
1B0C
102
{ACAD_REACTORS
330
1B0B
102
}
330
1B0B
100
AcDbXrecord
280
     1
102
RTVSPropertyOp0
 70
     0
102
RTVSPropertyOp1
 70
     0
102
RTVSPropertyOp2
 70
     0
102
RTVSPropertyOp3
 70
     0
102
RTVSPropertyOp4
 70
     0
102
RTVSPropertyOp5
 70
     0
102
RTVSPropertyOp6
 70
     0
102
RTVSPropertyOp7
 70
     0
102
RTVSPropertyOp8
 70
     0
102
RTVSPropertyOp9
 70
     0
102
RTVSPropertyOp10
 70
     0
102
RTVSPropertyOp11
 70
     0
102
RTVSPropertyOp12
 70
     0
102
RTVSPropertyOp13
 70
     0
102
RTVSPropertyOp14
 70
     2
102
RTVSPropertyOp15
 70
     0
102
RTVSPropertyOp16
 70
     0
102
RTVSPropertyOp17
 70
     0
102
RTVSPropertyOp18
 70
     0
102
RTVSPropertyOp19
 70
     0
102
RTVSPropertyOp20
 70
     0
102
RTVSPropertyOp21
 70
     0
102
RTVSPropertyOp22
 70
     0
102
RTVSPropertyOp23
 70
     0
102
RTVSPropertyOp24
 70
     0
102
RTVSPropertyOp25
 70
     0
102
RTVSPropertyOp26
 70
     0
102
RTVSPropertyOp27
 70
     0
102
RTVSPropertyOp28
 70
     0
102
RTVSPropertyOp29
 70
     0
102
RTVSPropertyOp30
 70
     0
102
RTVSPropertyOp31
 70
     0
102
RTVSPropertyOp32
 70
     0
  0
XRECORD
  5
1AF3
102
{ACAD_REACTORS
330
1AF2
102
}
330
1AF2
100
AcDbXrecord
280
     1
102
RTVSPropertyOp0
 70
     1
102
RTVSPropertyOp1
 70
     1
102
RTVSPropertyOp2
 70
     1
102
RTVSPropertyOp3
 70
     1
102
RTVSPropertyOp4
 70
     1
102
RTVSPropertyOp5
 70
     1
102
RTVSPropertyOp6
 70
     1
102
RTVSPropertyOp7
 70
     1
102
RTVSPropertyOp8
 70
     1
102
RTVSPropertyOp9
 70
     1
102
RTVSPropertyOp10
 70
     1
102
RTVSPropertyOp11
 70
     1
102
RTVSPropertyOp12
 70
     1
102
RTVSPropertyOp13
 70
     1
102
RTVSPropertyOp14
 70
     1
102
RTVSPropertyOp15
 70
     1
102
RTVSPropertyOp16
 70
     1
102
RTVSPropertyOp17
 70
     1
102
RTVSPropertyOp18
 70
     1
102
RTVSPropertyOp19
 70
     1
102
RTVSPropertyOp20
 70
     1
102
RTVSPropertyOp21
 70
     1
102
RTVSPropertyOp22
 70
     1
102
RTVSPropertyOp23
 70
     1
102
RTVSPropertyOp24
 70
     1
102
RTVSPropertyOp25
 70
     1
102
RTVSPropertyOp26
 70
     1
102
RTVSPropertyOp27
 70
     1
102
RTVSPropertyOp28
 70
     1
102
RTVSPropertyOp29
 70
     1
102
RTVSPropertyOp30
 70
     1
102
RTVSPropertyOp31
 70
     1
102
RTVSPropertyOp32
 70
     1
  0
XRECORD
  5
1B0E
102
{ACAD_REACTORS
330
1B0D
102
}
330
1B0D
100
AcDbXrecord
280
     1
102
RTVSPropertyOp0
 70
     0
102
RTVSPropertyOp1
 70
     0
102
RTVSPropertyOp2
 70
     0
102
RTVSPropertyOp3
 70
     0
102
RTVSPropertyOp4
 70
     0
102
RTVSPropertyOp5
 70
     0
102
RTVSPropertyOp6
 70
     0
102
RTVSPropertyOp7
 70
     0
102
RTVSPropertyOp8
 70
     0
102
RTVSPropertyOp9
 70
     0
102
RTVSPropertyOp10
 70
     0
102
RTVSPropertyOp11
 70
     0
102
RTVSPropertyOp12
 70
     0
102
RTVSPropertyOp13
 70
     0
102
RTVSPropertyOp14
 70
     2
102
RTVSPropertyOp15
 70
     0
102
RTVSPropertyOp16
 70
     0
102
RTVSPropertyOp17
 70
     0
102
RTVSPropertyOp18
 70
     0
102
RTVSPropertyOp19
 70
     0
102
RTVSPropertyOp20
 70
     0
102
RTVSPropertyOp21
 70
     0
102
RTVSPropertyOp22
 70
     0
102
RTVSPropertyOp23
 70
     0
102
RTVSPropertyOp24
 70
     0
102
RTVSPropertyOp25
 70
     0
102
RTVSPropertyOp26
 70
     0
102
RTVSPropertyOp27
 70
     0
102
RTVSPropertyOp28
 70
     0
102
RTVSPropertyOp29
 70
     0
102
RTVSPropertyOp30
 70
     0
102
RTVSPropertyOp31
 70
     0
102
RTVSPropertyOp32
 70
     0
  0
XRECORD
  5
1AEB
102
{ACAD_REACTORS
330
1AEA
102
}
330
1AEA
100
AcDbXrecord
280
     1
102
RTVSPropertyOp0
 70
     1
102
RTVSPropertyOp1
 70
     1
102
RTVSPropertyOp2
 70
     1
102
RTVSPropertyOp3
 70
     1
102
RTVSPropertyOp4
 70
     1
102
RTVSPropertyOp5
 70
     1
102
RTVSPropertyOp6
 70
     1
102
RTVSPropertyOp7
 70
     1
102
RTVSPropertyOp8
 70
     1
102
RTVSPropertyOp9
 70
     1
102
RTVSPropertyOp10
 70
     1
102
RTVSPropertyOp11
 70
     1
102
RTVSPropertyOp12
 70
     1
102
RTVSPropertyOp13
 70
     1
102
RTVSPropertyOp14
 70
     1
102
RTVSPropertyOp15
 70
     1
102
RTVSPropertyOp16
 70
     1
102
RTVSPropertyOp17
 70
     1
102
RTVSPropertyOp18
 70
     1
102
RTVSPropertyOp19
 70
     1
102
RTVSPropertyOp20
 70
     1
102
RTVSPropertyOp21
 70
     1
102
RTVSPropertyOp22
 70
     1
102
RTVSPropertyOp23
 70
     1
102
RTVSPropertyOp24
 70
     1
102
RTVSPropertyOp25
 70
     1
102
RTVSPropertyOp26
 70
     1
102
RTVSPropertyOp27
 70
     1
102
RTVSPropertyOp28
 70
     1
102
RTVSPropertyOp29
 70
     1
102
RTVSPropertyOp30
 70
     1
102
RTVSPropertyOp31
 70
     1
102
RTVSPropertyOp32
 70
     1
  0
XRECORD
  5
1B0A
102
{ACAD_REACTORS
330
1B09
102
}
330
1B09
100
AcDbXrecord
280
     1
102
RTVSPropertyOp0
 70
     1
102
RTVSPropertyOp1
 70
     1
102
RTVSPropertyOp2
 70
     1
102
RTVSPropertyOp3
 70
     1
102
RTVSPropertyOp4
 70
     1
102
RTVSPropertyOp5
 70
     1
102
RTVSPropertyOp6
 70
     1
102
RTVSPropertyOp7
 70
     1
102
RTVSPropertyOp8
 70
     1
102
RTVSPropertyOp9
 70
     1
102
RTVSPropertyOp10
 70
     1
102
RTVSPropertyOp11
 70
     1
102
RTVSPropertyOp12
 70
     1
102
RTVSPropertyOp13
 70
     1
102
RTVSPropertyOp14
 70
     1
102
RTVSPropertyOp15
 70
     1
102
RTVSPropertyOp16
 70
     1
102
RTVSPropertyOp17
 70
     1
102
RTVSPropertyOp18
 70
     1
102
RTVSPropertyOp19
 70
     1
102
RTVSPropertyOp20
 70
     1
102
RTVSPropertyOp21
 70
     1
102
RTVSPropertyOp22
 70
     1
102
RTVSPropertyOp23
 70
     1
102
RTVSPropertyOp24
 70
     1
102
RTVSPropertyOp25
 70
     1
102
RTVSPropertyOp26
 70
     1
102
RTVSPropertyOp27
 70
     1
102
RTVSPropertyOp28
 70
     1
102
RTVSPropertyOp29
 70
     1
102
RTVSPropertyOp30
 70
     1
102
RTVSPropertyOp31
 70
     1
102
RTVSPropertyOp32
 70
     1
  0
XRECORD
  5
1B08
102
{ACAD_REACTORS
330
1B07
102
}
330
1B07
100
AcDbXrecord
280
     1
102
RTVSPropertyOp0
 70
     1
102
RTVSPropertyOp1
 70
     1
102
RTVSPropertyOp2
 70
     1
102
RTVSPropertyOp3
 70
     1
102
RTVSPropertyOp4
 70
     1
102
RTVSPropertyOp5
 70
     1
102
RTVSPropertyOp6
 70
     1
102
RTVSPropertyOp7
 70
     1
102
RTVSPropertyOp8
 70
     1
102
RTVSPropertyOp9
 70
     1
102
RTVSPropertyOp10
 70
     1
102
RTVSPropertyOp11
 70
     1
102
RTVSPropertyOp12
 70
     1
102
RTVSPropertyOp13
 70
     1
102
RTVSPropertyOp14
 70
     1
102
RTVSPropertyOp15
 70
     1
102
RTVSPropertyOp16
 70
     1
102
RTVSPropertyOp17
 70
     1
102
RTVSPropertyOp18
 70
     1
102
RTVSPropertyOp19
 70
     1
102
RTVSPropertyOp20
 70
     1
102
RTVSPropertyOp21
 70
     1
102
RTVSPropertyOp22
 70
     1
102
RTVSPropertyOp23
 70
     1
102
RTVSPropertyOp24
 70
     1
102
RTVSPropertyOp25
 70
     1
102
RTVSPropertyOp26
 70
     1
102
RTVSPropertyOp27
 70
     1
102
RTVSPropertyOp28
 70
     1
102
RTVSPropertyOp29
 70
     1
102
RTVSPropertyOp30
 70
     1
102
RTVSPropertyOp31
 70
     1
102
RTVSPropertyOp32
 70
     1
  0
XRECORD
  5
1B02
102
{ACAD_REACTORS
330
1B01
102
}
330
1B01
100
AcDbXrecord
280
     1
102
RTVSPropertyOp0
 70
     1
102
RTVSPropertyOp1
 70
     1
102
RTVSPropertyOp2
 70
     1
102
RTVSPropertyOp3
 70
     1
102
RTVSPropertyOp4
 70
     1
102
RTVSPropertyOp5
 70
     1
102
RTVSPropertyOp6
 70
     1
102
RTVSPropertyOp7
 70
     1
102
RTVSPropertyOp8
 70
     1
102
RTVSPropertyOp9
 70
     1
102
RTVSPropertyOp10
 70
     1
102
RTVSPropertyOp11
 70
     1
102
RTVSPropertyOp12
 70
     1
102
RTVSPropertyOp13
 70
     1
102
RTVSPropertyOp14
 70
     1
102
RTVSPropertyOp15
 70
     1
102
RTVSPropertyOp16
 70
     1
102
RTVSPropertyOp17
 70
     1
102
RTVSPropertyOp18
 70
     1
102
RTVSPropertyOp19
 70
     1
102
RTVSPropertyOp20
 70
     1
102
RTVSPropertyOp21
 70
     1
102
RTVSPropertyOp22
 70
     1
102
RTVSPropertyOp23
 70
     1
102
RTVSPropertyOp24
 70
     1
102
RTVSPropertyOp25
 70
     1
102
RTVSPropertyOp26
 70
     1
102
RTVSPropertyOp27
 70
     1
102
RTVSPropertyOp28
 70
     1
102
RTVSPropertyOp29
 70
     1
102
RTVSPropertyOp30
 70
     1
102
RTVSPropertyOp31
 70
     1
102
RTVSPropertyOp32
 70
     1
  0
XRECORD
  5
1B04
102
{ACAD_REACTORS
330
1B03
102
}
330
1B03
100
AcDbXrecord
280
     1
102
RTVSPropertyOp0
 70
     1
102
RTVSPropertyOp1
 70
     1
102
RTVSPropertyOp2
 70
     1
102
RTVSPropertyOp3
 70
     1
102
RTVSPropertyOp4
 70
     1
102
RTVSPropertyOp5
 70
     1
102
RTVSPropertyOp6
 70
     1
102
RTVSPropertyOp7
 70
     1
102
RTVSPropertyOp8
 70
     1
102
RTVSPropertyOp9
 70
     1
102
RTVSPropertyOp10
 70
     1
102
RTVSPropertyOp11
 70
     1
102
RTVSPropertyOp12
 70
     1
102
RTVSPropertyOp13
 70
     1
102
RTVSPropertyOp14
 70
     1
102
RTVSPropertyOp15
 70
     1
102
RTVSPropertyOp16
 70
     1
102
RTVSPropertyOp17
 70
     1
102
RTVSPropertyOp18
 70
     1
102
RTVSPropertyOp19
 70
     1
102
RTVSPropertyOp20
 70
     1
102
RTVSPropertyOp21
 70
     1
102
RTVSPropertyOp22
 70
     1
102
RTVSPropertyOp23
 70
     1
102
RTVSPropertyOp24
 70
     1
102
RTVSPropertyOp25
 70
     1
102
RTVSPropertyOp26
 70
     1
102
RTVSPropertyOp27
 70
     1
102
RTVSPropertyOp28
 70
     1
102
RTVSPropertyOp29
 70
     1
102
RTVSPropertyOp30
 70
     1
102
RTVSPropertyOp31
 70
     1
102
RTVSPropertyOp32
 70
     1
  0
XRECORD
  5
1AF1
102
{ACAD_REACTORS
330
1AF0
102
}
330
1AF0
100
AcDbXrecord
280
     1
102
RTVSPropertyOp0
 70
     1
102
RTVSPropertyOp1
 70
     1
102
RTVSPropertyOp2
 70
     1
102
RTVSPropertyOp3
 70
     1
102
RTVSPropertyOp4
 70
     1
102
RTVSPropertyOp5
 70
     1
102
RTVSPropertyOp6
 70
     1
102
RTVSPropertyOp7
 70
     1
102
RTVSPropertyOp8
 70
     1
102
RTVSPropertyOp9
 70
     1
102
RTVSPropertyOp10
 70
     1
102
RTVSPropertyOp11
 70
     1
102
RTVSPropertyOp12
 70
     1
102
RTVSPropertyOp13
 70
     1
102
RTVSPropertyOp14
 70
     1
102
RTVSPropertyOp15
 70
     1
102
RTVSPropertyOp16
 70
     1
102
RTVSPropertyOp17
 70
     1
102
RTVSPropertyOp18
 70
     1
102
RTVSPropertyOp19
 70
     1
102
RTVSPropertyOp20
 70
     1
102
RTVSPropertyOp21
 70
     1
102
RTVSPropertyOp22
 70
     1
102
RTVSPropertyOp23
 70
     1
102
RTVSPropertyOp24
 70
     1
102
RTVSPropertyOp25
 70
     1
102
RTVSPropertyOp26
 70
     1
102
RTVSPropertyOp27
 70
     1
102
RTVSPropertyOp28
 70
     1
102
RTVSPropertyOp29
 70
     1
102
RTVSPropertyOp30
 70
     1
102
RTVSPropertyOp31
 70
     1
102
RTVSPropertyOp32
 70
     1
  0
XRECORD
  5
1AFE
102
{ACAD_REACTORS
330
1AFD
102
}
330
1AFD
100
AcDbXrecord
280
     1
102
RTVSPropertyOp0
 70
     1
102
RTVSPropertyOp1
 70
     1
102
RTVSPropertyOp2
 70
     1
102
RTVSPropertyOp3
 70
     1
102
RTVSPropertyOp4
 70
     1
102
RTVSPropertyOp5
 70
     1
102
RTVSPropertyOp6
 70
     1
102
RTVSPropertyOp7
 70
     1
102
RTVSPropertyOp8
 70
     1
102
RTVSPropertyOp9
 70
     1
102
RTVSPropertyOp10
 70
     1
102
RTVSPropertyOp11
 70
     1
102
RTVSPropertyOp12
 70
     1
102
RTVSPropertyOp13
 70
     1
102
RTVSPropertyOp14
 70
     1
102
RTVSPropertyOp15
 70
     1
102
RTVSPropertyOp16
 70
     1
102
RTVSPropertyOp17
 70
     1
102
RTVSPropertyOp18
 70
     1
102
RTVSPropertyOp19
 70
     1
102
RTVSPropertyOp20
 70
     1
102
RTVSPropertyOp21
 70
     1
102
RTVSPropertyOp22
 70
     1
102
RTVSPropertyOp23
 70
     1
102
RTVSPropertyOp24
 70
     1
102
RTVSPropertyOp25
 70
     1
102
RTVSPropertyOp26
 70
     1
102
RTVSPropertyOp27
 70
     1
102
RTVSPropertyOp28
 70
     1
102
RTVSPropertyOp29
 70
     1
102
RTVSPropertyOp30
 70
     1
102
RTVSPropertyOp31
 70
     1
102
RTVSPropertyOp32
 70
     1
  0
XRECORD
  5
1B06
102
{ACAD_REACTORS
330
1B05
102
}
330
1B05
100
AcDbXrecord
280
     1
102
RTVSPropertyOp0
 70
     1
102
RTVSPropertyOp1
 70
     1
102
RTVSPropertyOp2
 70
     1
102
RTVSPropertyOp3
 70
     1
102
RTVSPropertyOp4
 70
     1
102
RTVSPropertyOp5
 70
     1
102
RTVSPropertyOp6
 70
     1
102
RTVSPropertyOp7
 70
     1
102
RTVSPropertyOp8
 70
     1
102
RTVSPropertyOp9
 70
     1
102
RTVSPropertyOp10
 70
     1
102
RTVSPropertyOp11
 70
     1
102
RTVSPropertyOp12
 70
     1
102
RTVSPropertyOp13
 70
     1
102
RTVSPropertyOp14
 70
     1
102
RTVSPropertyOp15
 70
     1
102
RTVSPropertyOp16
 70
     1
102
RTVSPropertyOp17
 70
     1
102
RTVSPropertyOp18
 70
     1
102
RTVSPropertyOp19
 70
     1
102
RTVSPropertyOp20
 70
     1
102
RTVSPropertyOp21
 70
     1
102
RTVSPropertyOp22
 70
     1
102
RTVSPropertyOp23
 70
     1
102
RTVSPropertyOp24
 70
     1
102
RTVSPropertyOp25
 70
     1
102
RTVSPropertyOp26
 70
     1
102
RTVSPropertyOp27
 70
     1
102
RTVSPropertyOp28
 70
     1
102
RTVSPropertyOp29
 70
     1
102
RTVSPropertyOp30
 70
     1
102
RTVSPropertyOp31
 70
     1
102
RTVSPropertyOp32
 70
     1
  0
ENDSEC
  0
EOF
