  0
SECTION
  2
HEADER
  9
$ACADVER
  1
AC1021
  9
$ACADMAINTVER
 70
     1
  9
$DWGCODEPAGE
  3
ANSI_932
  9
$LASTSAVEDBY
  1
MAKITA
  9
$INSBASE
 10
0.0
 20
0.0
 30
0.0
  9
$EXTMIN
 10
-131.9095540725412
 20
-379.4862433498153
 30
-0.0015258207003583
  9
$EXTMAX
 10
145.1187683624759
 20
-191.0001297725314
 30
0.0000000349246037
  9
$LIMMIN
 10
-131.901101
 20
-379.480492
  9
$LIMMAX
 10
145.110314
 20
-191.005882
  9
$ORTHOMODE
 70
     1
  9
$REGENMODE
 70
     1
  9
$FILLMODE
 70
     1
  9
$QTEXTMODE
 70
     0
  9
$MIRRTEXT
 70
     0
  9
$LTSCALE
 40
4.616823999999998
  9
$ATTMODE
 70
     1
  9
$TEXTSIZE
 40
3.2
  9
$TRACEWID
 40
0.05
  9
$TEXTSTYLE
  7
高3.2
  9
$CLAYER
  8
0
  9
$CELTYPE
  6
CONTINUOUS
  9
$CECOLOR
 62
   256
  9
$CELTSCALE
 40
1.0
  9
$DISPSILH
 70
     0
  9
$DIMSCALE
 40
1.0
  9
$DIMASZ
 40
2.5
  9
$DIMEXO
 40
0.25
  9
$DIMDLI
 40
0.2
  9
$DIMRND
 40
0.0
  9
$DIMDLE
 40
0.0
  9
$DIMEXE
 40
1.25
  9
$DIMTP
 40
0.0
  9
$DIMTM
 40
0.0
  9
$DIMTXT
 40
3.0
  9
$DIMCEN
 40
0.0
  9
$DIMTSZ
 40
0.0
  9
$DIMTOL
 70
     0
  9
$DIMLIM
 70
     0
  9
$DIMTIH
 70
     0
  9
$DIMTOH
 70
     0
  9
$DIMSE1
 70
     0
  9
$DIMSE2
 70
     0
  9
$DIMTAD
 70
     3
  9
$DIMZIN
 70
     8
  9
$DIMBLK
  1
Open30
  9
$DIMASO
 70
     1
  9
$DIMSHO
 70
     1
  9
$DIMPOST
  1

  9
$DIMAPOST
  1

  9
$DIMALT
 70
     0
  9
$DIMALTD
 70
     3
  9
$DIMALTF
 40
0.03937007874016
  9
$DIMLFAC
 40
1.0
  9
$DIMTOFL
 70
     1
  9
$DIMTVP
 40
0.0
  9
$DIMTIX
 70
     0
  9
$DIMSOXD
 70
     0
  9
$DIMSAH
 70
     0
  9
$DIMBLK1
  1

  9
$DIMBLK2
  1

  9
$DIMSTYLE
  2
1：1
  9
$DIMCLRD
 70
     0
  9
$DIMCLRE
 70
     0
  9
$DIMCLRT
 70
     4
  9
$DIMTFAC
 40
1.0
  9
$DIMGAP
 40
0.625
  9
$DIMJUST
 70
     0
  9
$DIMSD1
 70
     0
  9
$DIMSD2
 70
     0
  9
$DIMTOLJ
 70
     0
  9
$DIMTZIN
 70
     8
  9
$DIMALTZ
 70
     0
  9
$DIMALTTZ
 70
     0
  9
$DIMUPT
 70
     1
  9
$DIMDEC
 70
     2
  9
$DIMTDEC
 70
     2
  9
$DIMALTU
 70
     2
  9
$DIMALTTD
 70
     3
  9
$DIMTXSTY
  7
STANDARD
  9
$DIMAUNIT
 70
     0
  9
$DIMADEC
 70
     1
  9
$DIMALTRND
 40
0.0
  9
$DIMAZIN
 70
     2
  9
$DIMDSEP
 70
    46
  9
$DIMATFIT
 70
     0
  9
$DIMFRAC
 70
     0
  9
$DIMLDRBLK
  1
Open30
  9
$DIMLUNIT
 70
     2
  9
$DIMLWD
 70
    -2
  9
$DIMLWE
 70
    -2
  9
$DIMTMOVE
 70
     0
  9
$DIMFXL
 40
1.25
  9
$DIMFXLON
 70
     0
  9
$DIMJOGANG
 40
1.570796326794896
  9
$DIMTFILL
 70
     0
  9
$DIMTFILLCLR
 70
     0
  9
$DIMARCSYM
 70
     2
  9
$DIMLTYPE
  6

  9
$DIMLTEX1
  6

  9
$DIMLTEX2
  6

  9
$LUNITS
 70
     2
  9
$LUPREC
 70
     4
  9
$SKETCHINC
 40
0.1
  9
$FILLETRAD
 40
0.0
  9
$AUNITS
 70
     0
  9
$AUPREC
 70
     0
  9
$MENU
  1
.
  9
$ELEVATION
 40
0.0
  9
$PELEVATION
 40
0.0
  9
$THICKNESS
 40
0.0
  9
$LIMCHECK
 70
     0
  9
$CHAMFERA
 40
0.0
  9
$CHAMFERB
 40
0.0
  9
$CHAMFERC
 40
0.0
  9
$CHAMFERD
 40
0.0
  9
$SKPOLY
 70
     0
  9
$TDCREATE
 40
2456349.825913310
  9
$TDUCREATE
 40
2456349.450913310
  9
$TDUPDATE
 40
2457484.399935903
  9
$TDUUPDATE
 40
2457484.024935903
  9
$TDINDWG
 40
0.0134891088
  9
$TDUSRTIMER
 40
0.0134726736
  9
$USRTIMER
 70
     1
  9
$ANGBASE
 50
0.0
  9
$ANGDIR
 70
     0
  9
$PDMODE
 70
     0
  9
$PDSIZE
 40
0.0
  9
$PLINEWID
 40
0.0
  9
$SPLFRAME
 70
     0
  9
$SPLINETYPE
 70
     6
  9
$SPLINESEGS
 70
     8
  9
$HANDSEED
  5
1C23
  9
$SURFTAB1
 70
     6
  9
$SURFTAB2
 70
     6
  9
$SURFTYPE
 70
     6
  9
$SURFU
 70
     6
  9
$SURFV
 70
     6
  9
$UCSBASE
  2

  9
$UCSNAME
  2

  9
$UCSORG
 10
0.0
 20
0.0
 30
0.0
  9
$UCSXDIR
 10
1.0
 20
0.0
 30
0.0
  9
$UCSYDIR
 10
0.0
 20
1.0
 30
0.0
  9
$UCSORTHOREF
  2

  9
$UCSORTHOVIEW
 70
     0
  9
$UCSORGTOP
 10
0.0
 20
0.0
 30
0.0
  9
$UCSORGBOTTOM
 10
0.0
 20
0.0
 30
0.0
  9
$UCSORGLEFT
 10
0.0
 20
0.0
 30
0.0
  9
$UCSORGRIGHT
 10
0.0
 20
0.0
 30
0.0
  9
$UCSORGFRONT
 10
0.0
 20
0.0
 30
0.0
  9
$UCSORGBACK
 10
0.0
 20
0.0
 30
0.0
  9
$PUCSBASE
  2

  9
$PUCSNAME
  2

  9
$PUCSORG
 10
0.0
 20
0.0
 30
0.0
  9
$PUCSXDIR
 10
1.0
 20
0.0
 30
0.0
  9
$PUCSYDIR
 10
0.0
 20
1.0
 30
0.0
  9
$PUCSORTHOREF
  2

  9
$PUCSORTHOVIEW
 70
     0
  9
$PUCSORGTOP
 10
0.0
 20
0.0
 30
0.0
  9
$PUCSORGBOTTOM
 10
0.0
 20
0.0
 30
0.0
  9
$PUCSORGLEFT
 10
0.0
 20
0.0
 30
0.0
  9
$PUCSORGRIGHT
 10
0.0
 20
0.0
 30
0.0
  9
$PUCSORGFRONT
 10
0.0
 20
0.0
 30
0.0
  9
$PUCSORGBACK
 10
0.0
 20
0.0
 30
0.0
  9
$USERI1
 70
     0
  9
$USERI2
 70
     0
  9
$USERI3
 70
     0
  9
$USERI4
 70
     0
  9
$USERI5
 70
     0
  9
$USERR1
 40
0.0
  9
$USERR2
 40
0.0
  9
$USERR3
 40
0.0
  9
$USERR4
 40
0.0
  9
$USERR5
 40
0.0
  9
$WORLDVIEW
 70
     1
  9
$SHADEDGE
 70
     3
  9
$SHADEDIF
 70
    70
  9
$TILEMODE
 70
     1
  9
$MAXACTVP
 70
    64
  9
$PINSBASE
 10
0.0
 20
0.0
 30
0.0
  9
$PLIMCHECK
 70
     0
  9
$PEXTMIN
 10
1.000000000000000E+20
 20
1.000000000000000E+20
 30
1.000000000000000E+20
  9
$PEXTMAX
 10
-1.000000000000000E+20
 20
-1.000000000000000E+20
 30
-1.000000000000000E+20
  9
$PLIMMIN
 10
0.0
 20
0.0
  9
$PLIMMAX
 10
12.0
 20
9.0
  9
$UNITMODE
 70
     0
  9
$VISRETAIN
 70
     1
  9
$PLINEGEN
 70
     0
  9
$PSLTSCALE
 70
     1
  9
$TREEDEPTH
 70
  3020
  9
$CMLSTYLE
  2
Standard
  9
$CMLJUST
 70
     0
  9
$CMLSCALE
 40
1.0
  9
$PROXYGRAPHICS
 70
     1
  9
$MEASUREMENT
 70
     0
  9
$CELWEIGHT
370
    -1
  9
$ENDCAPS
280
     0
  9
$JOINSTYLE
280
     0
  9
$LWDISPLAY
290
     0
  9
$INSUNITS
 70
     0
  9
$HYPERLINKBASE
  1

  9
$STYLESHEET
  1
n-plot.ctb
  9
$XEDIT
290
     1
  9
$CEPSNTYPE
380
     0
  9
$PSTYLEMODE
290
     1
  9
$FINGERPRINTGUID
  2
{2B99380A-CF59-418D-A84D-36D0AF50A6A9}
  9
$VERSIONGUID
  2
{B5E8C86D-D25C-45FA-9D07-E63B4D29A216}
  9
$EXTNAMES
290
     1
  9
$PSVPSCALE
 40
0.0
  9
$OLESTARTUP
290
     0
  9
$SORTENTS
280
   127
  9
$INDEXCTL
280
     0
  9
$HIDETEXT
280
     0
  9
$XCLIPFRAME
290
     0
  9
$HALOGAP
280
     0
  9
$OBSCOLOR
 70
   257
  9
$OBSLTYPE
280
     0
  9
$INTERSECTIONDISPLAY
280
     0
  9
$INTERSECTIONCOLOR
 70
   257
  9
$DIMASSOC
280
     1
  9
$PROJECTNAME
  1

  9
$CAMERADISPLAY
290
     0
  9
$LENSLENGTH
 40
50.0
  9
$CAMERAHEIGHT
 40
0.0
  9
$STEPSPERSEC
 40
2.0
  9
$STEPSIZE
 40
6.0
  9
$3DDWFPREC
 40
2.0
  9
$PSOLWIDTH
 40
0.25
  9
$PSOLHEIGHT
 40
4.0
  9
$LOFTANG1
 40
1.570796326794896
  9
$LOFTANG2
 40
1.570796326794896
  9
$LOFTMAG1
 40
0.0
  9
$LOFTMAG2
 40
0.0
  9
$LOFTPARAM
 70
     7
  9
$LOFTNORMALS
280
     1
  9
$LATITUDE
 40
37.795
  9
$LONGITUDE
 40
-122.394
  9
$NORTHDIRECTION
 40
0.0
  9
$TIMEZONE
 70
 -8000
  9
$LIGHTGLYPHDISPLAY
280
     1
  9
$TILEMODELIGHTSYNCH
280
     1
  9
$CMATERIAL
347
11
  9
$SOLIDHIST
280
     1
  9
$SHOWHIST
280
     1
  9
$DWFFRAME
280
     2
  9
$DGNFRAME
280
     0
  9
$REALWORLDSCALE
290
     1
  9
$INTERFERECOLOR
 62
     1
  9
$INTERFEREOBJVS
345
33
  9
$INTERFEREVPVS
346
65D
  9
$CSHADOW
280
     0
  9
$SHADOWPLANELOCATION
 40
0.0
  0
ENDSEC
  0
SECTION
  2
CLASSES
  0
CLASS
  1
ACDBDICTIONARYWDFLT
  2
AcDbDictionaryWithDefault
  3
ObjectDBX Classes
 90
        0
 91
        1
280
     0
281
     0
  0
CLASS
  1
MATERIAL
  2
AcDbMaterial
  3
ObjectDBX Classes
 90
     1024
 91
        3
280
     0
281
     0
  0
CLASS
  1
VISUALSTYLE
  2
AcDbVisualStyle
  3
ObjectDBX Classes
 90
     4095
 91
       26
280
     0
281
     0
  0
CLASS
  1
SCALE
  2
AcDbScale
  3
ObjectDBX Classes
 90
     1153
 91
       17
280
     0
281
     0
  0
CLASS
  1
TABLESTYLE
  2
AcDbTableStyle
  3
ObjectDBX Classes
 90
     4095
 91
        1
280
     0
281
     0
  0
CLASS
  1
MLEADERSTYLE
  2
AcDbMLeaderStyle
  3
ACDB_MLEADERSTYLE_CLASS
 90
     4095
 91
        1
280
     0
281
     0
  0
CLASS
  1
SORTENTSTABLE
  2
AcDbSortentsTable
  3
ObjectDBX Classes
 90
        0
 91
        2
280
     0
281
     0
  0
CLASS
  1
DICTIONARYVAR
  2
AcDbDictionaryVar
  3
ObjectDBX Classes
 90
        0
 91
        7
280
     0
281
     0
  0
CLASS
  1
CELLSTYLEMAP
  2
AcDbCellStyleMap
  3
ObjectDBX Classes
 90
     1152
 91
        1
280
     0
281
     0
  0
CLASS
  1
ACDBPLACEHOLDER
  2
AcDbPlaceHolder
  3
ObjectDBX Classes
 90
        0
 91
        1
280
     0
281
     0
  0
CLASS
  1
LAYOUT
  2
AcDbLayout
  3
ObjectDBX Classes
 90
        0
 91
        2
280
     0
281
     0
  0
ENDSEC
  0
SECTION
  2
TABLES
  0
TABLE
  2
VPORT
  5
8
330
0
100
AcDbSymbolTable
 70
     1
  0
VPORT
  5
8B
330
8
100
AcDbSymbolTableRecord
100
AcDbViewportTableRecord
  2
*Active
 70
     0
 10
0.0
 20
0.0
 11
1.0
 21
1.0
 12
6.604607144967363
 22
-285.2431865611734
 13
0.0
 23
0.0
 14
1.0
 24
1.0
 15
0.0
 25
0.0
 16
0.0
 26
0.0
 36
1.0
 17
0.0
 27
0.0
 37
0.0
 40
189.9940024859021
 41
1.495327102803738
 42
50.0
 43
0.0
 44
0.0
 50
0.0
 51
0.0
 71
     0
 72
   100
 73
     1
 74
     1
 75
     0
 76
     0
 77
     0
 78
     0
281
     0
 65
     1
110
0.0
120
0.0
130
0.0
111
1.0
121
0.0
131
0.0
112
0.0
122
1.0
132
0.0
 79
     0
146
0.0
348
2F
 60
     3
 61
     5
292
     1
282
     1
141
0.0
142
0.0
 63
   250
421
  3355443
  0
ENDTAB
  0
TABLE
  2
LTYPE
  5
5
330
0
100
AcDbSymbolTable
 70
     5
  0
LTYPE
  5
5A
330
5
100
AcDbSymbolTableRecord
100
AcDbLinetypeTableRecord
  2
ByBlock
 70
     0
  3

 72
    65
 73
     0
 40
0.0
  0
LTYPE
  5
5B
330
5
100
AcDbSymbolTableRecord
100
AcDbLinetypeTableRecord
  2
ByLayer
 70
     0
  3

 72
    65
 73
     0
 40
0.0
  0
LTYPE
  5
5C
330
5
100
AcDbSymbolTableRecord
100
AcDbLinetypeTableRecord
  2
CONTINUOUS
 70
     0
  3
Solid-line
 72
    65
 73
     0
 40
0.0
  0
LTYPE
  5
72
330
5
100
AcDbSymbolTableRecord
100
AcDbLinetypeTableRecord
  2
CENTER
 70
     0
  3
CENTER
 72
    65
 73
     4
 40
2.0
 49
1.25
 74
     0
 49
-0.25
 74
     0
 49
0.25
 74
     0
 49
-0.25
 74
     0
  0
LTYPE
  5
84
330
5
100
AcDbSymbolTableRecord
100
AcDbLinetypeTableRecord
  2
PHANTOM
 70
     0
  3
PHANTOM
 72
    65
 73
     6
 40
2.5
 49
1.25
 74
     0
 49
-0.25
 74
     0
 49
0.25
 74
     0
 49
-0.25
 74
     0
 49
0.25
 74
     0
 49
-0.25
 74
     0
  0
LTYPE
  5
A15
330
5
100
AcDbSymbolTableRecord
100
AcDbLinetypeTableRecord
  2
DASHED
 70
     0
  3
DASHED
 72
    65
 73
     2
 40
0.75
 49
0.5
 74
     0
 49
-0.25
 74
     0
  0
LTYPE
  5
A16
330
5
100
AcDbSymbolTableRecord
100
AcDbLinetypeTableRecord
  2
HIDDEN
 70
     0
  3
HIDDEN
 72
    65
 73
     2
 40
0.375
 49
0.25
 74
     0
 49
-0.125
 74
     0
  0
ENDTAB
  0
TABLE
  2
LAYER
  5
2
102
{ACAD_XDICTIONARY
360
660
102
}
330
0
100
AcDbSymbolTable
 70
     3
  0
LAYER
  5
54
102
{ACAD_XDICTIONARY
360
869
102
}
330
2
100
AcDbSymbolTableRecord
100
AcDbLayerTableRecord
  2
0
 70
     0
 62
     7
  6
CONTINUOUS
370
    -3
390
F
347
21
  0
LAYER
  5
649
330
2
100
AcDbSymbolTableRecord
100
AcDbLayerTableRecord
  2
Defpoints
 70
     0
 62
     7
  6
CONTINUOUS
290
     0
370
    -3
390
F
347
21
  0
LAYER
  5
1271
330
2
100
AcDbSymbolTableRecord
100
AcDbLayerTableRecord
  2
001
 70
     0
 62
     7
  6
CONTINUOUS
370
    -3
390
F
347
21
  0
ENDTAB
  0
TABLE
  2
STYLE
  5
3
330
0
100
AcDbSymbolTable
 70
     6
  0
STYLE
  5
55
330
3
100
AcDbSymbolTableRecord
100
AcDbTextStyleTableRecord
  2
STANDARD
 70
     0
 40
0.0
 41
1.0
 50
0.0
 71
     0
 42
0.2
  3
TXT
  4
BIGFONT
  0
STYLE
  5
64A
330
3
100
AcDbSymbolTableRecord
100
AcDbTextStyleTableRecord
  2
高3.2
 70
     0
 40
3.2
 41
1.0
 50
0.0
 71
     0
 42
3.2
  3
txt.shx
  4
bigfont.shx
  0
STYLE
  5
64B
330
3
100
AcDbSymbolTableRecord
100
AcDbTextStyleTableRecord
  2
高6.3
 70
     0
 40
6.299999999999998
 41
1.0
 50
0.0
 71
     0
 42
6.299999999999998
  3
txt.shx
  4
bigfont.shx
  0
STYLE
  5
64D
330
3
100
AcDbSymbolTableRecord
100
AcDbTextStyleTableRecord
  2
高4.5
 70
     0
 40
4.5
 41
1.0
 50
0.0
 71
     0
 42
6.299999999999998
  3
txt.shx
  4
bigfont.shx
  0
STYLE
  5
64E
330
3
100
AcDbSymbolTableRecord
100
AcDbTextStyleTableRecord
  2
高2
 70
     0
 40
2.0
 41
1.0
 50
0.0
 71
     0
 42
2.0
  3
txt.shx
  4
bigfont.shx
  0
ENDTAB
  0
TABLE
  2
VIEW
  5
6
330
0
100
AcDbSymbolTable
 70
     0
  0
ENDTAB
  0
TABLE
  2
UCS
  5
7
330
0
100
AcDbSymbolTable
 70
     0
  0
ENDTAB
  0
TABLE
  2
APPID
  5
9
330
0
100
AcDbSymbolTable
 70
    11
  0
APPID
  5
56
330
9
100
AcDbSymbolTableRecord
100
AcDbRegAppTableRecord
  2
ACAD
 70
     0
  0
APPID
  5
5D
330
9
100
AcDbSymbolTableRecord
100
AcDbRegAppTableRecord
  2
AcadAnnotative
 70
     0
  0
APPID
  5
659
330
9
100
AcDbSymbolTableRecord
100
AcDbRegAppTableRecord
  2
ACAD_DSTYLE_DIMJOGGED_JOGANGLE_SYMBOL
 70
     0
  0
APPID
  5
65A
330
9
100
AcDbSymbolTableRecord
100
AcDbRegAppTableRecord
  2
ACAD_DSTYLE_DIMJAG
 70
     0
  0
APPID
  5
65B
330
9
100
AcDbSymbolTableRecord
100
AcDbRegAppTableRecord
  2
ACAD_DSTYLE_DIMBREAK
 70
     0
  0
APPID
  5
65C
330
9
100
AcDbSymbolTableRecord
100
AcDbRegAppTableRecord
  2
ACAD_DSTYLE_DIMTALN
 70
     0
  0
APPID
  5
7DE
330
9
100
AcDbSymbolTableRecord
100
AcDbRegAppTableRecord
  2
ACAD_EXEMPT_FROM_CAD_STANDARDS
 70
     0
  0
APPID
  5
8AF
330
9
100
AcDbSymbolTableRecord
100
AcDbRegAppTableRecord
  2
ACAD_MLEADERVER
 70
     0
  0
APPID
  5
8B4
330
9
100
AcDbSymbolTableRecord
100
AcDbRegAppTableRecord
  2
ACAD_DSTYLE_DIMARC_LENGTH_SYMBOL
 70
     0
  0
APPID
  5
8B5
330
9
100
AcDbSymbolTableRecord
100
AcDbRegAppTableRecord
  2
ACAD_DSTYLE_DIMEXT_LENGTH
 70
     0
  0
APPID
  5
A17
330
9
100
AcDbSymbolTableRecord
100
AcDbRegAppTableRecord
  2
ACAD_PSEXT
 70
     0
  0
ENDTAB
  0
TABLE
  2
DIMSTYLE
  5
A
330
0
100
AcDbSymbolTable
 70
     4
100
AcDbDimStyleTable
 71
     3
340
64F
340
57
340
658
  0
DIMSTYLE
105
57
330
A
100
AcDbSymbolTableRecord
100
AcDbDimStyleTableRecord
  2
Standard
 70
     0
340
55
  0
DIMSTYLE
105
64F
330
A
100
AcDbSymbolTableRecord
100
AcDbDimStyleTableRecord
  2
1：1
 70
     0
 41
2.5
 42
0.25
 43
0.2
 44
1.25
 49
1.25
 50
89.99999999999998
 73
     0
 74
     0
 77
     3
 78
     8
 79
     2
 90
     2
140
3.0
141
0.0
143
0.03937007874016
147
0.625
171
     3
172
     1
178
     4
179
     1
271
     2
272
     2
274
     3
283
     0
284
     8
288
     1
289
     0
340
55
341
5B9
342
5B9
1001
ACAD_DSTYLE_DIMJOGGED_JOGANGLE_SYMBOL
1070
   384
1040
1.570796326794896
  0
DIMSTYLE
105
658
330
A
100
AcDbSymbolTableRecord
100
AcDbDimStyleTableRecord
  2
FREE
 70
     0
 41
2.5
 42
0.25
 43
0.2
 44
1.25
 49
1.25
 50
89.99999999999998
 73
     0
 74
     0
 77
     3
 78
     8
 79
     2
 90
     2
140
3.0
141
0.0
143
0.03937007874016
147
0.625
171
     3
172
     1
178
     4
179
     1
271
     2
272
     2
274
     3
283
     0
284
     8
288
     1
289
     0
340
55
341
5B9
342
5B9
1001
ACAD_DSTYLE_DIMBREAK
1070
   391
1040
3.75
1001
ACAD_DSTYLE_DIMJAG
1070
   388
1040
1.5
1001
ACAD_DSTYLE_DIMTALN
1070
   392
1070
     0
1001
ACAD_DSTYLE_DIMJOGGED_JOGANGLE_SYMBOL
1070
   384
1040
1.570796326794896
  0
ENDTAB
  0
TABLE
  2
BLOCK_RECORD
  5
1
330
0
100
AcDbSymbolTable
 70
    25
  0
BLOCK_RECORD
  5
6B
102
{ACAD_XDICTIONARY
360
1A98
102
}
330
1
100
AcDbSymbolTableRecord
100
AcDbBlockTableRecord
  2
*Model_Space
340
6E
 70
     0
280
     1
281
     0
  0
BLOCK_RECORD
  5
67
330
1
100
AcDbSymbolTableRecord
100
AcDbBlockTableRecord
  2
*Paper_Space
340
6A
 70
     0
280
     1
281
     0
  0
BLOCK_RECORD
  5
5B9
330
1
100
AcDbSymbolTableRecord
100
AcDbBlockTableRecord
  2
_Open30
340
0
102
{BLKREFS
331
11D7
331
11D8
331
11E0
331
11E1
331
11E9
331
11EA
331
11F2
331
11F3
331
11FD
331
11FE
331
1206
331
1207
331
120F
331
1210
331
1A59
331
1A5A
331
1A62
331
1A63
331
1A6B
331
1A6C
331
1A74
331
1A75
331
1A7D
331
1A7E
331
1A86
331
1A87
331
1A8F
331
1A90
102
}
 70
     0
280
     1
281
     0
  0
BLOCK_RECORD
  5
7A0
330
1
100
AcDbSymbolTableRecord
100
AcDbBlockTableRecord
  2
*D1
340
0
 70
     0
280
     1
281
     0
  0
BLOCK_RECORD
  5
7AC
330
1
100
AcDbSymbolTableRecord
100
AcDbBlockTableRecord
  2
*D2
340
0
 70
     0
280
     1
281
     0
  0
BLOCK_RECORD
  5
7B8
330
1
100
AcDbSymbolTableRecord
100
AcDbBlockTableRecord
  2
*D3
340
0
 70
     0
280
     1
281
     0
  0
BLOCK_RECORD
  5
7C4
330
1
100
AcDbSymbolTableRecord
100
AcDbBlockTableRecord
  2
*D4
340
0
 70
     0
280
     1
281
     0
  0
BLOCK_RECORD
  5
7D0
330
1
100
AcDbSymbolTableRecord
100
AcDbBlockTableRecord
  2
*D5
340
0
 70
     0
280
     1
281
     0
  0
BLOCK_RECORD
  5
7F7
330
1
100
AcDbSymbolTableRecord
100
AcDbBlockTableRecord
  2
*D6
340
0
 70
     0
280
     1
281
     0
  0
BLOCK_RECORD
  5
80D
330
1
100
AcDbSymbolTableRecord
100
AcDbBlockTableRecord
  2
*D7
340
0
 70
     0
280
     1
281
     0
  0
BLOCK_RECORD
  5
1216
330
1
100
AcDbSymbolTableRecord
100
AcDbBlockTableRecord
  2
ARROW
340
0
102
{BLKREFS
331
121F
331
1220
331
122D
331
122E
331
1239
331
123A
331
1245
331
1246
331
1251
331
1252
331
125D
331
125E
331
126A
331
126B
102
}
 70
     0
280
     1
281
     0
  0
BLOCK_RECORD
  5
121A
330
1
100
AcDbSymbolTableRecord
100
AcDbBlockTableRecord
  2
*D9
340
0
 70
     0
280
     1
281
     0
  0
BLOCK_RECORD
  5
1228
330
1
100
AcDbSymbolTableRecord
100
AcDbBlockTableRecord
  2
*D10
340
0
 70
     0
280
     1
281
     0
  0
BLOCK_RECORD
  5
1234
330
1
100
AcDbSymbolTableRecord
100
AcDbBlockTableRecord
  2
*D11
340
0
 70
     0
280
     1
281
     0
  0
BLOCK_RECORD
  5
1240
330
1
100
AcDbSymbolTableRecord
100
AcDbBlockTableRecord
  2
*D12
340
0
 70
     0
280
     1
281
     0
  0
BLOCK_RECORD
  5
124C
330
1
100
AcDbSymbolTableRecord
100
AcDbBlockTableRecord
  2
*D13
340
0
 70
     0
280
     1
281
     0
  0
BLOCK_RECORD
  5
1258
330
1
100
AcDbSymbolTableRecord
100
AcDbBlockTableRecord
  2
*D14
340
0
 70
     0
280
     1
281
     0
  0
BLOCK_RECORD
  5
1265
330
1
100
AcDbSymbolTableRecord
100
AcDbBlockTableRecord
  2
*D15
340
0
 70
     0
280
     1
281
     0
  0
BLOCK_RECORD
  5
19FE
330
1
100
AcDbSymbolTableRecord
100
AcDbBlockTableRecord
  2
*D17
340
0
 70
     0
280
     1
281
     0
  0
BLOCK_RECORD
  5
1A0C
330
1
100
AcDbSymbolTableRecord
100
AcDbBlockTableRecord
  2
*D18
340
0
 70
     0
280
     1
281
     0
  0
BLOCK_RECORD
  5
1A18
330
1
100
AcDbSymbolTableRecord
100
AcDbBlockTableRecord
  2
*D19
340
0
 70
     0
280
     1
281
     0
  0
BLOCK_RECORD
  5
1A24
330
1
100
AcDbSymbolTableRecord
100
AcDbBlockTableRecord
  2
*D20
340
0
 70
     0
280
     1
281
     0
  0
BLOCK_RECORD
  5
1A30
330
1
100
AcDbSymbolTableRecord
100
AcDbBlockTableRecord
  2
*D21
340
0
 70
     0
280
     1
281
     0
  0
BLOCK_RECORD
  5
1A3C
330
1
100
AcDbSymbolTableRecord
100
AcDbBlockTableRecord
  2
*D22
340
0
 70
     0
280
     1
281
     0
  0
BLOCK_RECORD
  5
1A48
330
1
100
AcDbSymbolTableRecord
100
AcDbBlockTableRecord
  2
*D23
340
0
 70
     0
280
     1
281
     0
  0
ENDTAB
  0
ENDSEC
  0
SECTION
  2
BLOCKS
  0
BLOCK
  5
6C
330
6B
100
AcDbEntity
  8
0
100
AcDbBlockBegin
  2
*Model_Space
 70
     0
 10
0.0
 20
0.0
 30
0.0
  3
*Model_Space
  1

  0
ENDBLK
  5
6D
330
6B
100
AcDbEntity
  8
0
100
AcDbBlockEnd
  0
BLOCK
  5
68
330
67
100
AcDbEntity
 67
     1
  8
0
100
AcDbBlockBegin
  2
*Paper_Space
 70
     0
 10
0.0
 20
0.0
 30
0.0
  3
*Paper_Space
  1

  0
ENDBLK
  5
69
330
67
100
AcDbEntity
 67
     1
  8
0
100
AcDbBlockEnd
  0
BLOCK
  5
5BA
330
5B9
100
AcDbEntity
  8
0
100
AcDbBlockBegin
  2
_Open30
 70
     0
 10
0.0
 20
0.0
 30
0.0
  3
_Open30
  1

  0
LINE
  5
5BB
330
5B9
100
AcDbEntity
  8
0
  6
ByBlock
 62
     0
370
    -2
100
AcDbLine
 10
-1.0
 20
0.267949
 30
0.0
 11
0.0
 21
0.0
 31
0.0
  0
LINE
  5
5BC
330
5B9
100
AcDbEntity
  8
0
  6
ByBlock
 62
     0
370
    -2
100
AcDbLine
 10
0.0
 20
0.0
 30
0.0
 11
-1.0
 21
-0.267949
 31
0.0
  0
LINE
  5
5BD
330
5B9
100
AcDbEntity
  8
0
  6
ByBlock
 62
     0
370
    -2
100
AcDbLine
 10
0.0
 20
0.0
 30
0.0
 11
-1.0
 21
0.0
 31
0.0
  0
ENDBLK
  5
5BE
330
5B9
100
AcDbEntity
  8
0
100
AcDbBlockEnd
  0
BLOCK
  5
7A1
330
7A0
100
AcDbEntity
  8
0
100
AcDbBlockBegin
  2
*D1
 70
     1
 10
0.0
 20
0.0
 30
0.0
  3
*D1
  1

  0
LINE
  5
11D4
330
7A0
100
AcDbEntity
  8
0
 62
     0
370
    -2
100
AcDbLine
 10
19.04239
 20
-262.114339
 30
0.0
 11
19.04239
 21
-268.161989
 31
0.0
  0
LINE
  5
11D5
330
7A0
100
AcDbEntity
  8
0
 62
     0
370
    -2
100
AcDbLine
 10
40.439068
 20
-252.537737
 30
0.0
 11
40.439068
 21
-268.161989
 31
0.0
  0
LINE
  5
11D6
330
7A0
100
AcDbEntity
  8
0
 62
     0
370
    -2
100
AcDbLine
 10
21.54239
 20
-266.911989
 30
0.0
 11
37.939068
 21
-266.911989
 31
0.0
  0
INSERT
  5
11D7
330
7A0
100
AcDbEntity
  8
0
 62
     0
370
    -2
100
AcDbBlockReference
  2
_Open30
 10
19.04239
 20
-266.911989
 30
0.0
 41
2.5
 42
2.5
 43
2.5
 50
180.0
  0
INSERT
  5
11D8
330
7A0
100
AcDbEntity
  8
0
 62
     0
370
    -2
100
AcDbBlockReference
  2
_Open30
 10
40.439068
 20
-266.911989
 30
0.0
 41
2.5
 42
2.5
 43
2.5
  0
MTEXT
  5
11D9
330
7A0
100
AcDbEntity
  8
0
 62
     4
100
AcDbMText
 10
29.740729
 20
-264.786989
 30
0.0
 40
3.0
 41
0.0
 46
0.0
 71
     5
 72
     1
  1
21.4
 73
     1
 44
1.0
  0
POINT
  5
11DA
330
7A0
100
AcDbEntity
  8
Defpoints
 62
     0
100
AcDbPoint
 10
19.04239
 20
-261.864339
 30
0.0
  0
POINT
  5
11DB
330
7A0
100
AcDbEntity
  8
Defpoints
 62
     0
100
AcDbPoint
 10
40.439068
 20
-252.287737
 30
0.0
  0
POINT
  5
11DC
330
7A0
100
AcDbEntity
  8
Defpoints
 62
     0
100
AcDbPoint
 10
40.439068
 20
-266.911989
 30
0.0
  0
ENDBLK
  5
7A2
330
7A0
100
AcDbEntity
  8
0
100
AcDbBlockEnd
  0
BLOCK
  5
7AD
330
7AC
100
AcDbEntity
  8
0
100
AcDbBlockBegin
  2
*D2
 70
     1
 10
0.0
 20
0.0
 30
0.0
  3
*D2
  1

  0
LINE
  5
11DD
330
7AC
100
AcDbEntity
  8
0
 62
     0
370
    -2
100
AcDbLine
 10
19.04239
 20
-225.614339
 30
0.0
 11
19.04239
 21
-218.272228
 31
0.0
  0
LINE
  5
11DE
330
7AC
100
AcDbEntity
  8
0
 62
     0
370
    -2
100
AcDbLine
 10
36.039068
 20
-240.512737
 30
0.0
 11
36.039068
 21
-218.272228
 31
0.0
  0
LINE
  5
11DF
330
7AC
100
AcDbEntity
  8
0
 62
     0
370
    -2
100
AcDbLine
 10
21.54239
 20
-219.522228
 30
0.0
 11
33.539068
 21
-219.522228
 31
0.0
  0
INSERT
  5
11E0
330
7AC
100
AcDbEntity
  8
0
 62
     0
370
    -2
100
AcDbBlockReference
  2
_Open30
 10
19.04239
 20
-219.522228
 30
0.0
 41
2.5
 42
2.5
 43
2.5
 50
180.0
  0
INSERT
  5
11E1
330
7AC
100
AcDbEntity
  8
0
 62
     0
370
    -2
100
AcDbBlockReference
  2
_Open30
 10
36.039068
 20
-219.522228
 30
0.0
 41
2.5
 42
2.5
 43
2.5
  0
MTEXT
  5
11E2
330
7AC
100
AcDbEntity
  8
0
 62
     4
100
AcDbMText
 10
27.540729
 20
-217.397228
 30
0.0
 40
3.0
 41
0.0
 46
0.0
 71
     5
 72
     1
  1
17
 73
     1
 44
1.0
  0
POINT
  5
11E3
330
7AC
100
AcDbEntity
  8
Defpoints
 62
     0
100
AcDbPoint
 10
19.04239
 20
-225.864339
 30
0.0
  0
POINT
  5
11E4
330
7AC
100
AcDbEntity
  8
Defpoints
 62
     0
100
AcDbPoint
 10
36.039068
 20
-240.762737
 30
0.0
  0
POINT
  5
11E5
330
7AC
100
AcDbEntity
  8
Defpoints
 62
     0
100
AcDbPoint
 10
36.039068
 20
-219.522228
 30
0.0
  0
ENDBLK
  5
7AE
330
7AC
100
AcDbEntity
  8
0
100
AcDbBlockEnd
  0
BLOCK
  5
7B9
330
7B8
100
AcDbEntity
  8
0
100
AcDbBlockBegin
  2
*D3
 70
     1
 10
0.0
 20
0.0
 30
0.0
  3
*D3
  1

  0
LINE
  5
11E6
330
7B8
100
AcDbEntity
  8
0
 62
     0
370
    -2
100
AcDbLine
 10
-40.95760999999996
 20
-234.114339
 30
0.0
 11
-40.95760999999996
 21
-218.272228
 31
0.0
  0
LINE
  5
11E7
330
7B8
100
AcDbEntity
  8
0
 62
     0
370
    -2
100
AcDbLine
 10
19.04239
 20
-225.614339
 30
0.0
 11
19.04239
 21
-218.272228
 31
0.0
  0
LINE
  5
11E8
330
7B8
100
AcDbEntity
  8
0
 62
     0
370
    -2
100
AcDbLine
 10
-38.45760999999997
 20
-219.522228
 30
0.0
 11
16.54239
 21
-219.522228
 31
0.0
  0
INSERT
  5
11E9
330
7B8
100
AcDbEntity
  8
0
 62
     0
370
    -2
100
AcDbBlockReference
  2
_Open30
 10
-40.95760999999996
 20
-219.522228
 30
0.0
 41
2.5
 42
2.5
 43
2.5
 50
180.0
  0
INSERT
  5
11EA
330
7B8
100
AcDbEntity
  8
0
 62
     0
370
    -2
100
AcDbBlockReference
  2
_Open30
 10
19.04239
 20
-219.522228
 30
0.0
 41
2.5
 42
2.5
 43
2.5
  0
MTEXT
  5
11EB
330
7B8
100
AcDbEntity
  8
0
 62
     4
100
AcDbMText
 10
-10.95760999999998
 20
-217.397228
 30
0.0
 40
3.0
 41
0.0
 46
0.0
 71
     5
 72
     1
  1
60
 73
     1
 44
1.0
  0
POINT
  5
11EC
330
7B8
100
AcDbEntity
  8
Defpoints
 62
     0
100
AcDbPoint
 10
-40.95760999999996
 20
-234.364339
 30
0.0
  0
POINT
  5
11ED
330
7B8
100
AcDbEntity
  8
Defpoints
 62
     0
100
AcDbPoint
 10
19.04239
 20
-225.864339
 30
0.0
  0
POINT
  5
11EE
330
7B8
100
AcDbEntity
  8
Defpoints
 62
     0
100
AcDbPoint
 10
19.04239
 20
-219.522228
 30
0.0
  0
ENDBLK
  5
7BA
330
7B8
100
AcDbEntity
  8
0
100
AcDbBlockEnd
  0
BLOCK
  5
7C5
330
7C4
100
AcDbEntity
  8
0
100
AcDbBlockBegin
  2
*D4
 70
     1
 10
0.0
 20
0.0
 30
0.0
  3
*D4
  1

  0
LINE
  5
11EF
330
7C4
100
AcDbEntity
  8
0
 62
     0
370
    -2
100
AcDbLine
 10
-36.95761
 20
-234.614339
 30
0.0
 11
-36.95761
 21
-224.470496
 31
0.0
  0
LINE
  5
11F0
330
7C4
100
AcDbEntity
  8
0
 62
     0
370
    -2
100
AcDbLine
 10
-25.95761
 20
-234.614339
 30
0.0
 11
-25.95761
 21
-224.470496
 31
0.0
  0
LINE
  5
11F1
330
7C4
100
AcDbEntity
  8
0
 62
     0
370
    -2
100
AcDbLine
 10
-34.45761
 20
-225.720496
 30
0.0
 11
-28.45761
 21
-225.720496
 31
0.0
  0
INSERT
  5
11F2
330
7C4
100
AcDbEntity
  8
0
 62
     0
370
    -2
100
AcDbBlockReference
  2
_Open30
 10
-36.95761
 20
-225.720496
 30
0.0
 41
2.5
 42
2.5
 43
2.5
 50
180.0
  0
INSERT
  5
11F3
330
7C4
100
AcDbEntity
  8
0
 62
     0
370
    -2
100
AcDbBlockReference
  2
_Open30
 10
-25.95761
 20
-225.720496
 30
0.0
 41
2.5
 42
2.5
 43
2.5
  0
MTEXT
  5
11F4
330
7C4
100
AcDbEntity
  8
0
 62
     4
100
AcDbMText
 10
-31.45761
 20
-223.595496
 30
0.0
 40
3.0
 41
0.0
 46
0.0
 71
     5
 72
     1
  1
11
 73
     1
 44
1.0
  0
POINT
  5
11F5
330
7C4
100
AcDbEntity
  8
Defpoints
 62
     0
100
AcDbPoint
 10
-36.95761
 20
-234.864339
 30
0.0
  0
POINT
  5
11F6
330
7C4
100
AcDbEntity
  8
Defpoints
 62
     0
100
AcDbPoint
 10
-25.95761
 20
-234.864339
 30
0.0
  0
POINT
  5
11F7
330
7C4
100
AcDbEntity
  8
Defpoints
 62
     0
100
AcDbPoint
 10
-25.95761
 20
-225.720496
 30
0.0
  0
ENDBLK
  5
7C6
330
7C4
100
AcDbEntity
  8
0
100
AcDbBlockEnd
  0
BLOCK
  5
7D1
330
7D0
100
AcDbEntity
  8
0
100
AcDbBlockBegin
  2
*D5
 70
     1
 10
0.0
 20
0.0
 30
0.0
  3
*D5
  1

  0
LINE
  5
11F8
330
7D0
100
AcDbEntity
  8
0
 62
     0
370
    -2
100
AcDbLine
 10
-44.60586699999999
 20
-246.810173
 30
0.0
 11
-54.38041899999999
 21
-246.810173
 31
0.0
  0
LINE
  5
11F9
330
7D0
100
AcDbEntity
  8
0
 62
     0
370
    -2
100
AcDbLine
 10
-44.60586699999999
 20
-240.918505
 30
0.0
 11
-54.38041899999999
 21
-240.918505
 31
0.0
  0
LINE
  5
11FA
330
7D0
100
AcDbEntity
  8
0
 62
     0
370
    -2
100
AcDbLine
 10
-53.13041899999999
 20
-249.310173
 30
0.0
 11
-53.13041899999999
 21
-251.810173
 31
0.0
  0
LINE
  5
11FB
330
7D0
100
AcDbEntity
  8
0
 62
     0
370
    -2
100
AcDbLine
 10
-53.13041899999998
 20
-238.418505
 30
0.0
 11
-53.13041899999998
 21
-229.668505
 31
0.0
  0
LINE
  5
11FC
330
7D0
100
AcDbEntity
  8
0
 62
     0
370
    -2
100
AcDbLine
 10
-53.13041899999999
 20
-246.810173
 30
0.0
 11
-53.13041899999999
 21
-240.918505
 31
0.0
  0
INSERT
  5
11FD
330
7D0
100
AcDbEntity
  8
0
 62
     0
370
    -2
100
AcDbBlockReference
  2
_Open30
 10
-53.13041899999999
 20
-246.810173
 30
0.0
 41
2.5
 42
2.5
 43
2.5
 50
90.0
  0
INSERT
  5
11FE
330
7D0
100
AcDbEntity
  8
0
 62
     0
370
    -2
100
AcDbBlockReference
  2
_Open30
 10
-53.13041899999999
 20
-240.918505
 30
0.0
 41
2.5
 42
2.5
 43
2.5
 50
270.0
  0
MTEXT
  5
11FF
330
7D0
100
AcDbEntity
  8
0
 62
     4
100
AcDbMText
 10
-55.25541899999995
 20
-232.793505
 30
0.0
 40
3.0
 41
0.0
 46
0.0
 71
     5
 72
     1
  1
%%C6
 11
0.0000000000000001
 21
1.0
 31
0.0
 73
     1
 44
1.0
  0
POINT
  5
1200
330
7D0
100
AcDbEntity
  8
Defpoints
 62
     0
100
AcDbPoint
 10
-44.35586699999999
 20
-246.810173
 30
0.0
  0
POINT
  5
1201
330
7D0
100
AcDbEntity
  8
Defpoints
 62
     0
100
AcDbPoint
 10
-44.35586699999999
 20
-240.918505
 30
0.0
  0
POINT
  5
1202
330
7D0
100
AcDbEntity
  8
Defpoints
 62
     0
100
AcDbPoint
 10
-53.13041899999999
 20
-240.918505
 30
0.0
  0
ENDBLK
  5
7D2
330
7D0
100
AcDbEntity
  8
0
100
AcDbBlockEnd
  0
BLOCK
  5
7F8
330
7F7
100
AcDbEntity
  8
0
100
AcDbBlockBegin
  2
*D6
 70
     1
 10
0.0
 20
0.0
 30
0.0
  3
*D6
  1

  0
LINE
  5
120C
330
7F7
100
AcDbEntity
  8
0
 62
     0
370
    -2
100
AcDbLine
 10
14.925646
 20
-317.663452
 30
0.0
 11
48.62856599999998
 21
-317.663452
 31
0.0
  0
LINE
  5
120D
330
7F7
100
AcDbEntity
  8
0
 62
     0
370
    -2
100
AcDbLine
 10
14.925646
 20
-278.663452
 30
0.0
 11
48.62856599999998
 21
-278.663452
 31
0.0
  0
LINE
  5
120E
330
7F7
100
AcDbEntity
  8
0
 62
     0
370
    -2
100
AcDbLine
 10
47.37856599999998
 20
-315.163452
 30
0.0
 11
47.37856599999999
 21
-281.163452
 31
0.0
  0
INSERT
  5
120F
330
7F7
100
AcDbEntity
  8
0
 62
     0
370
    -2
100
AcDbBlockReference
  2
_Open30
 10
47.37856599999998
 20
-317.663452
 30
0.0
 41
2.5
 42
2.5
 43
2.5
 50
270.0
  0
INSERT
  5
1210
330
7F7
100
AcDbEntity
  8
0
 62
     0
370
    -2
100
AcDbBlockReference
  2
_Open30
 10
47.37856599999999
 20
-278.663452
 30
0.0
 41
2.5
 42
2.5
 43
2.5
 50
90.0
  0
MTEXT
  5
1211
330
7F7
100
AcDbEntity
  8
0
 62
     4
100
AcDbMText
 10
45.25356600000003
 20
-298.163452
 30
0.0
 40
3.0
 41
0.0
 46
0.0
 71
     5
 72
     1
  1
%%C38%%P0.5
 11
0.0000000000000001
 21
1.0
 31
0.0
 73
     1
 44
1.0
  0
POINT
  5
1212
330
7F7
100
AcDbEntity
  8
Defpoints
 62
     0
100
AcDbPoint
 10
14.675646
 20
-317.663452
 30
0.0
  0
POINT
  5
1213
330
7F7
100
AcDbEntity
  8
Defpoints
 62
     0
100
AcDbPoint
 10
14.675646
 20
-278.663452
 30
0.0
  0
POINT
  5
1214
330
7F7
100
AcDbEntity
  8
Defpoints
 62
     0
100
AcDbPoint
 10
47.37856599999999
 20
-278.663452
 30
0.0
  0
ENDBLK
  5
7F9
330
7F7
100
AcDbEntity
  8
0
100
AcDbBlockEnd
  0
BLOCK
  5
80E
330
80D
100
AcDbEntity
  8
0
100
AcDbBlockBegin
  2
*D7
 70
     1
 10
0.0
 20
0.0
 30
0.0
  3
*D7
  1

  0
LINE
  5
1203
330
80D
100
AcDbEntity
  8
0
 62
     0
370
    -2
100
AcDbLine
 10
-40.210932
 20
-309.163452
 30
0.0
 11
-53.36793899999999
 21
-309.163452
 31
0.0
  0
LINE
  5
1204
330
80D
100
AcDbEntity
  8
0
 62
     0
370
    -2
100
AcDbLine
 10
-39.210932
 20
-287.163452
 30
0.0
 11
-53.36793899999999
 21
-287.163452
 31
0.0
  0
LINE
  5
1205
330
80D
100
AcDbEntity
  8
0
 62
     0
370
    -2
100
AcDbLine
 10
-52.11793899999999
 20
-306.663452
 30
0.0
 11
-52.11793899999999
 21
-289.663452
 31
0.0
  0
INSERT
  5
1206
330
80D
100
AcDbEntity
  8
0
 62
     0
370
    -2
100
AcDbBlockReference
  2
_Open30
 10
-52.11793899999999
 20
-309.163452
 30
0.0
 41
2.5
 42
2.5
 43
2.5
 50
270.0
  0
INSERT
  5
1207
330
80D
100
AcDbEntity
  8
0
 62
     0
370
    -2
100
AcDbBlockReference
  2
_Open30
 10
-52.11793899999999
 20
-287.163452
 30
0.0
 41
2.5
 42
2.5
 43
2.5
 50
90.0
  0
MTEXT
  5
1208
330
80D
100
AcDbEntity
  8
0
 62
     4
100
AcDbMText
 10
-54.24293899999995
 20
-298.163452
 30
0.0
 40
3.0
 41
0.0
 46
0.0
 71
     5
 72
     1
  1
%%C22
 11
0.0000000000000001
 21
1.0
 31
0.0
 73
     1
 44
1.0
  0
POINT
  5
1209
330
80D
100
AcDbEntity
  8
Defpoints
 62
     0
100
AcDbPoint
 10
-39.960932
 20
-309.163452
 30
0.0
  0
POINT
  5
120A
330
80D
100
AcDbEntity
  8
Defpoints
 62
     0
100
AcDbPoint
 10
-38.960932
 20
-287.163452
 30
0.0
  0
POINT
  5
120B
330
80D
100
AcDbEntity
  8
Defpoints
 62
     0
100
AcDbPoint
 10
-52.11793899999999
 20
-287.163452
 30
0.0
  0
ENDBLK
  5
80F
330
80D
100
AcDbEntity
  8
0
100
AcDbBlockEnd
  0
BLOCK
  5
1217
330
1216
100
AcDbEntity
  8
0
100
AcDbBlockBegin
  2
ARROW
 70
     0
 10
0.0
 20
0.0
 30
0.0
  3
ARROW
  1

  0
LWPOLYLINE
  5
1218
330
1216
100
AcDbEntity
  8
0
  6
Continuous
 62
     0
100
AcDbPolyline
 90
        3
 70
     0
 43
0.0
 10
2.0
 20
0.535898
 10
0.0
 20
0.0
 10
2.0
 20
-0.535898
  0
ENDBLK
  5
1219
330
1216
100
AcDbEntity
  8
0
100
AcDbBlockEnd
  0
BLOCK
  5
121B
330
121A
100
AcDbEntity
  8
001
100
AcDbBlockBegin
  2
*D9
 70
     1
 10
0.0
 20
0.0
 30
0.0
  3
*D9
  1

  0
LINE
  5
121C
330
121A
100
AcDbEntity
  8
001
100
AcDbLine
 10
-45.35586699999998
 20
-246.810173
 30
0.0
 11
-54.13041899999999
 21
-246.810173
 31
0.0
  0
LINE
  5
121D
330
121A
100
AcDbEntity
  8
001
100
AcDbLine
 10
-45.35586699999998
 20
-240.918505
 30
0.0
 11
-54.13041899999999
 21
-240.918505
 31
0.0
  0
LINE
  5
121E
330
121A
100
AcDbEntity
  8
001
100
AcDbLine
 10
-53.13041899999999
 20
-246.810173
 30
0.0
 11
-53.13041899999999
 21
-240.918505
 31
0.0
  0
INSERT
  5
121F
330
121A
100
AcDbEntity
  8
001
  6
ByBlock
 62
     7
100
AcDbBlockReference
  2
ARROW
 10
-53.13041899999999
 20
-246.810173
 30
0.0
 50
270.0
  0
INSERT
  5
1220
330
121A
100
AcDbEntity
  8
001
  6
ByBlock
 62
     7
100
AcDbBlockReference
  2
ARROW
 10
-53.13041899999999
 20
-240.918505
 30
0.0
 50
90.0
  0
TEXT
  5
1221
330
121A
100
AcDbEntity
  8
001
100
AcDbText
 10
-54.13041899999999
 20
-238.675045
 30
0.0
 40
3.2
  1
%%c6
 50
90.00000300000001
 41
0.859375
100
AcDbText
  0
POINT
  5
1222
330
121A
100
AcDbEntity
  8
001
100
AcDbPoint
 10
-44.35586699999999
 20
-246.810173
 30
0.0
  0
POINT
  5
1223
330
121A
100
AcDbEntity
  8
001
100
AcDbPoint
 10
-44.35586699999999
 20
-240.918505
 30
0.0
  0
POINT
  5
1224
330
121A
100
AcDbEntity
  8
001
100
AcDbPoint
 10
-53.13041899999999
 20
-240.918505
 30
0.0
  0
LINE
  5
1225
330
121A
100
AcDbEntity
  8
001
100
AcDbLine
 10
-53.13041899999999
 20
-246.810173
 30
0.0
 11
-53.13041899999999
 21
-249.810173
 31
0.0
  0
LINE
  5
1226
330
121A
100
AcDbEntity
  8
001
100
AcDbLine
 10
-53.13041899999999
 20
-240.918505
 30
0.0
 11
-53.13041899999999
 21
-233.175045
 31
0.0
  0
ENDBLK
  5
1227
330
121A
100
AcDbEntity
  8
001
100
AcDbBlockEnd
  0
BLOCK
  5
1229
330
1228
100
AcDbEntity
  8
001
100
AcDbBlockBegin
  2
*D10
 70
     1
 10
0.0
 20
0.0
 30
0.0
  3
*D10
  1

  0
LINE
  5
122A
330
1228
100
AcDbEntity
  8
001
100
AcDbLine
 10
-36.95761
 20
-233.864339
 30
0.0
 11
-36.95761
 21
-224.720496
 31
0.0
  0
LINE
  5
122B
330
1228
100
AcDbEntity
  8
001
100
AcDbLine
 10
-25.95761
 20
-233.864339
 30
0.0
 11
-25.95761
 21
-224.720496
 31
0.0
  0
LINE
  5
122C
330
1228
100
AcDbEntity
  8
001
100
AcDbLine
 10
-36.95761
 20
-225.720496
 30
0.0
 11
-25.95761
 21
-225.720496
 31
0.0
  0
INSERT
  5
122D
330
1228
100
AcDbEntity
  8
001
  6
ByBlock
 62
     7
100
AcDbBlockReference
  2
ARROW
 10
-36.95761
 20
-225.720496
 30
0.0
  0
INSERT
  5
122E
330
1228
100
AcDbEntity
  8
001
  6
ByBlock
 62
     7
100
AcDbBlockReference
  2
ARROW
 10
-25.95761
 20
-225.720496
 30
0.0
 50
180.0
  0
TEXT
  5
122F
330
1228
100
AcDbEntity
  8
001
100
AcDbText
 10
-33.55936
 20
-224.720496
 30
0.0
 40
3.2
  1
11
 41
1.289062
100
AcDbText
  0
POINT
  5
1230
330
1228
100
AcDbEntity
  8
001
100
AcDbPoint
 10
-36.95761
 20
-234.864339
 30
0.0
  0
POINT
  5
1231
330
1228
100
AcDbEntity
  8
001
100
AcDbPoint
 10
-25.95761
 20
-234.864339
 30
0.0
  0
POINT
  5
1232
330
1228
100
AcDbEntity
  8
001
100
AcDbPoint
 10
-25.95761
 20
-225.720496
 30
0.0
  0
ENDBLK
  5
1233
330
1228
100
AcDbEntity
  8
001
100
AcDbBlockEnd
  0
BLOCK
  5
1235
330
1234
100
AcDbEntity
  8
001
100
AcDbBlockBegin
  2
*D11
 70
     1
 10
0.0
 20
0.0
 30
0.0
  3
*D11
  1

  0
LINE
  5
1236
330
1234
100
AcDbEntity
  8
001
100
AcDbLine
 10
19.04239
 20
-224.864339
 30
0.0
 11
19.04239
 21
-218.522228
 31
0.0
  0
LINE
  5
1237
330
1234
100
AcDbEntity
  8
001
100
AcDbLine
 10
36.039068
 20
-239.762737
 30
0.0
 11
36.039068
 21
-218.522228
 31
0.0
  0
LINE
  5
1238
330
1234
100
AcDbEntity
  8
001
100
AcDbLine
 10
19.04239
 20
-219.522228
 30
0.0
 11
36.039068
 21
-219.522228
 31
0.0
  0
INSERT
  5
1239
330
1234
100
AcDbEntity
  8
001
  6
ByBlock
 62
     7
100
AcDbBlockReference
  2
ARROW
 10
19.04239
 20
-219.522228
 30
0.0
  0
INSERT
  5
123A
330
1234
100
AcDbEntity
  8
001
  6
ByBlock
 62
     7
100
AcDbBlockReference
  2
ARROW
 10
36.039068
 20
-219.522228
 30
0.0
 50
180.0
  0
TEXT
  5
123B
330
1234
100
AcDbEntity
  8
001
100
AcDbText
 10
24.719443
 20
-218.522228
 30
0.0
 40
3.2
  1
17
 41
1.03125
100
AcDbText
  0
POINT
  5
123C
330
1234
100
AcDbEntity
  8
001
100
AcDbPoint
 10
19.04239
 20
-225.864339
 30
0.0
  0
POINT
  5
123D
330
1234
100
AcDbEntity
  8
001
100
AcDbPoint
 10
36.039068
 20
-240.762737
 30
0.0
  0
POINT
  5
123E
330
1234
100
AcDbEntity
  8
001
100
AcDbPoint
 10
36.039068
 20
-219.522228
 30
0.0
  0
ENDBLK
  5
123F
330
1234
100
AcDbEntity
  8
001
100
AcDbBlockEnd
  0
BLOCK
  5
1241
330
1240
100
AcDbEntity
  8
001
100
AcDbBlockBegin
  2
*D12
 70
     1
 10
0.0
 20
0.0
 30
0.0
  3
*D12
  1

  0
LINE
  5
1242
330
1240
100
AcDbEntity
  8
001
100
AcDbLine
 10
-40.95760999999998
 20
-233.364339
 30
0.0
 11
-40.95760999999998
 21
-218.522228
 31
0.0
  0
LINE
  5
1243
330
1240
100
AcDbEntity
  8
001
100
AcDbLine
 10
19.04239
 20
-224.864339
 30
0.0
 11
19.04239
 21
-218.522228
 31
0.0
  0
LINE
  5
1244
330
1240
100
AcDbEntity
  8
001
100
AcDbLine
 10
-40.95760999999998
 20
-219.522228
 30
0.0
 11
19.04239
 21
-219.522228
 31
0.0
  0
INSERT
  5
1245
330
1240
100
AcDbEntity
  8
001
  6
ByBlock
 62
     7
100
AcDbBlockReference
  2
ARROW
 10
-40.95760999999998
 20
-219.522228
 30
0.0
  0
INSERT
  5
1246
330
1240
100
AcDbEntity
  8
001
  6
ByBlock
 62
     7
100
AcDbBlockReference
  2
ARROW
 10
19.04239
 20
-219.522228
 30
0.0
 50
180.0
  0
TEXT
  5
1247
330
1240
100
AcDbEntity
  8
001
100
AcDbText
 10
-13.70761
 20
-218.522228
 30
0.0
 40
3.2
  1
60
 41
0.9375
100
AcDbText
  0
POINT
  5
1248
330
1240
100
AcDbEntity
  8
001
100
AcDbPoint
 10
-40.95760999999998
 20
-234.364339
 30
0.0
  0
POINT
  5
1249
330
1240
100
AcDbEntity
  8
001
100
AcDbPoint
 10
19.04239
 20
-225.864339
 30
0.0
  0
POINT
  5
124A
330
1240
100
AcDbEntity
  8
001
100
AcDbPoint
 10
19.04239
 20
-219.522228
 30
0.0
  0
ENDBLK
  5
124B
330
1240
100
AcDbEntity
  8
001
100
AcDbBlockEnd
  0
BLOCK
  5
124D
330
124C
100
AcDbEntity
  8
001
100
AcDbBlockBegin
  2
*D13
 70
     1
 10
0.0
 20
0.0
 30
0.0
  3
*D13
  1

  0
LINE
  5
124E
330
124C
100
AcDbEntity
  8
001
100
AcDbLine
 10
19.04239
 20
-262.864339
 30
0.0
 11
19.04239
 21
-267.911989
 31
0.0
  0
LINE
  5
124F
330
124C
100
AcDbEntity
  8
001
100
AcDbLine
 10
40.439068
 20
-253.287737
 30
0.0
 11
40.439068
 21
-267.911989
 31
0.0
  0
LINE
  5
1250
330
124C
100
AcDbEntity
  8
001
100
AcDbLine
 10
19.04239
 20
-266.911989
 30
0.0
 11
40.439068
 21
-266.911989
 31
0.0
  0
INSERT
  5
1251
330
124C
100
AcDbEntity
  8
001
  6
ByBlock
 62
     7
100
AcDbBlockReference
  2
ARROW
 10
19.04239
 20
-266.911989
 30
0.0
  0
INSERT
  5
1252
330
124C
100
AcDbEntity
  8
001
  6
ByBlock
 62
     7
100
AcDbBlockReference
  2
ARROW
 10
40.439068
 20
-266.911989
 30
0.0
 50
180.0
  0
TEXT
  5
1253
330
124C
100
AcDbEntity
  8
001
100
AcDbText
 10
24.056247
 20
-265.911989
 30
0.0
 40
3.2
  1
21.4
 41
1.145833
100
AcDbText
  0
POINT
  5
1254
330
124C
100
AcDbEntity
  8
001
100
AcDbPoint
 10
19.04239
 20
-261.864339
 30
0.0
  0
POINT
  5
1255
330
124C
100
AcDbEntity
  8
001
100
AcDbPoint
 10
40.439068
 20
-252.287737
 30
0.0
  0
POINT
  5
1256
330
124C
100
AcDbEntity
  8
001
100
AcDbPoint
 10
40.439068
 20
-266.911989
 30
0.0
  0
ENDBLK
  5
1257
330
124C
100
AcDbEntity
  8
001
100
AcDbBlockEnd
  0
BLOCK
  5
1259
330
1258
100
AcDbEntity
  8
001
100
AcDbBlockBegin
  2
*D14
 70
     1
 10
0.0
 20
0.0
 30
0.0
  3
*D14
  1

  0
LINE
  5
125A
330
1258
100
AcDbEntity
  8
001
100
AcDbLine
 10
15.675646
 20
-317.663452
 30
0.0
 11
48.378566
 21
-317.663452
 31
0.0
  0
LINE
  5
125B
330
1258
100
AcDbEntity
  8
001
100
AcDbLine
 10
15.675646
 20
-278.663452
 30
0.0
 11
48.378566
 21
-278.663452
 31
0.0
  0
LINE
  5
125C
330
1258
100
AcDbEntity
  8
001
100
AcDbLine
 10
47.37856599999999
 20
-317.663452
 30
0.0
 11
47.37856599999999
 21
-278.663452
 31
0.0
  0
INSERT
  5
125D
330
1258
100
AcDbEntity
  8
001
  6
ByBlock
 62
     7
100
AcDbBlockReference
  2
ARROW
 10
47.37856599999999
 20
-317.663452
 30
0.0
 50
90.0
  0
INSERT
  5
125E
330
1258
100
AcDbEntity
  8
001
  6
ByBlock
 62
     7
100
AcDbBlockReference
  2
ARROW
 10
47.37856599999999
 20
-278.663452
 30
0.0
 50
270.0
  0
TEXT
  5
125F
330
1258
100
AcDbEntity
  8
001
100
AcDbText
 10
46.378566
 20
-305.388452
 30
0.0
 40
3.2
  1
%%c38
 50
90.00000300000001
 41
0.859375
100
AcDbText
  0
TEXT
  5
1260
330
1258
100
AcDbEntity
  8
001
100
AcDbText
 10
46.378566
 20
-297.138452
 30
0.0
 40
1.8
  1
%%p0.5
 50
90.00000300000001
 41
1.08772
100
AcDbText
  0
POINT
  5
1261
330
1258
100
AcDbEntity
  8
001
100
AcDbPoint
 10
14.675646
 20
-317.663452
 30
0.0
  0
POINT
  5
1262
330
1258
100
AcDbEntity
  8
001
100
AcDbPoint
 10
14.675646
 20
-278.663452
 30
0.0
  0
POINT
  5
1263
330
1258
100
AcDbEntity
  8
001
100
AcDbPoint
 10
47.37856599999999
 20
-278.663452
 30
0.0
  0
ENDBLK
  5
1264
330
1258
100
AcDbEntity
  8
001
100
AcDbBlockEnd
  0
BLOCK
  5
1266
330
1265
100
AcDbEntity
  8
001
100
AcDbBlockBegin
  2
*D15
 70
     1
 10
0.0
 20
0.0
 30
0.0
  3
*D15
  1

  0
LINE
  5
1267
330
1265
100
AcDbEntity
  8
001
100
AcDbLine
 10
-40.960932
 20
-309.163452
 30
0.0
 11
-53.117939
 21
-309.163452
 31
0.0
  0
LINE
  5
1268
330
1265
100
AcDbEntity
  8
001
100
AcDbLine
 10
-39.960932
 20
-287.163452
 30
0.0
 11
-53.117939
 21
-287.163452
 31
0.0
  0
LINE
  5
1269
330
1265
100
AcDbEntity
  8
001
100
AcDbLine
 10
-52.11793899999999
 20
-309.163452
 30
0.0
 11
-52.11793899999999
 21
-287.163452
 31
0.0
  0
INSERT
  5
126A
330
1265
100
AcDbEntity
  8
001
  6
ByBlock
 62
     7
100
AcDbBlockReference
  2
ARROW
 10
-52.11793899999999
 20
-309.163452
 30
0.0
 50
90.0
  0
INSERT
  5
126B
330
1265
100
AcDbEntity
  8
001
  6
ByBlock
 62
     7
100
AcDbBlockReference
  2
ARROW
 10
-52.11793899999999
 20
-287.163452
 30
0.0
 50
270.0
  0
TEXT
  5
126C
330
1265
100
AcDbEntity
  8
001
100
AcDbText
 10
-53.117939
 20
-302.136539
 30
0.0
 40
3.2
  1
%%c22
 50
90.00000300000001
 41
0.859375
100
AcDbText
  0
POINT
  5
126D
330
1265
100
AcDbEntity
  8
001
100
AcDbPoint
 10
-39.960932
 20
-309.163452
 30
0.0
  0
POINT
  5
126E
330
1265
100
AcDbEntity
  8
001
100
AcDbPoint
 10
-38.960932
 20
-287.163452
 30
0.0
  0
POINT
  5
126F
330
1265
100
AcDbEntity
  8
001
100
AcDbPoint
 10
-52.11793899999999
 20
-287.163452
 30
0.0
  0
ENDBLK
  5
1270
330
1265
100
AcDbEntity
  8
001
100
AcDbBlockEnd
  0
BLOCK
  5
1A0A
330
19FE
100
AcDbEntity
  8
0
100
AcDbBlockBegin
  2
*D17
 70
     1
 10
0.0
 20
0.0
 30
0.0
  3
*D17
  1

  0
LINE
  5
1A54
330
19FE
100
AcDbEntity
  8
001
 62
     0
370
    -2
100
AcDbLine
 10
281.7738992184589
 20
-253.0105832929715
 30
0.0
 11
271.9993472184589
 21
-253.0105832929715
 31
0.0
  0
LINE
  5
1A55
330
19FE
100
AcDbEntity
  8
001
 62
     0
370
    -2
100
AcDbLine
 10
281.7738992184589
 20
-247.1189152929714
 30
0.0
 11
271.9993472184589
 21
-247.1189152929714
 31
0.0
  0
LINE
  5
1A56
330
19FE
100
AcDbEntity
  8
001
 62
     0
370
    -2
100
AcDbLine
 10
273.2493472184589
 20
-255.5105832929715
 30
0.0
 11
273.2493472184589
 21
-258.0105832929715
 31
0.0
  0
LINE
  5
1A57
330
19FE
100
AcDbEntity
  8
001
 62
     0
370
    -2
100
AcDbLine
 10
273.2493472184589
 20
-244.6189152929715
 30
0.0
 11
273.2493472184589
 21
-231.8689152929715
 31
0.0
  0
LINE
  5
1A58
330
19FE
100
AcDbEntity
  8
001
 62
     0
370
    -2
100
AcDbLine
 10
273.2493472184589
 20
-253.0105832929715
 30
0.0
 11
273.2493472184589
 21
-247.1189152929714
 31
0.0
  0
INSERT
  5
1A59
330
19FE
100
AcDbEntity
  8
001
 62
     0
370
    -2
100
AcDbBlockReference
  2
_Open30
 10
273.2493472184589
 20
-253.0105832929715
 30
0.0
 41
2.5
 42
2.5
 43
2.5
 50
90.0
  0
INSERT
  5
1A5A
330
19FE
100
AcDbEntity
  8
001
 62
     0
370
    -2
100
AcDbBlockReference
  2
_Open30
 10
273.2493472184589
 20
-247.1189152929714
 30
0.0
 41
2.5
 42
2.5
 43
2.5
 50
270.0
  0
MTEXT
  5
1A5B
330
19FE
100
AcDbEntity
  8
001
 62
     4
100
AcDbMText
 10
271.1243472184589
 20
-236.9939152929714
 30
0.0
 40
3.0
 41
0.0
 46
0.0
 71
     5
 72
     1
  1
5.89
 11
0.0000000000000001
 21
1.0
 31
0.0
 73
     1
 44
1.0
  0
POINT
  5
1A5C
330
19FE
100
AcDbEntity
  8
Defpoints
 62
     0
100
AcDbPoint
 10
282.0238992184588
 20
-253.0105832929715
 30
0.0
  0
POINT
  5
1A5D
330
19FE
100
AcDbEntity
  8
Defpoints
 62
     0
100
AcDbPoint
 10
282.0238992184588
 20
-247.1189152929714
 30
0.0
  0
POINT
  5
1A5E
330
19FE
100
AcDbEntity
  8
Defpoints
 62
     0
100
AcDbPoint
 10
273.2493472184589
 20
-247.1189152929714
 30
0.0
  0
ENDBLK
  5
1A0B
330
19FE
100
AcDbEntity
  8
0
100
AcDbBlockEnd
  0
BLOCK
  5
1A16
330
1A0C
100
AcDbEntity
  8
0
100
AcDbBlockBegin
  2
*D18
 70
     1
 10
0.0
 20
0.0
 30
0.0
  3
*D18
  1

  0
LINE
  5
1A5F
330
1A0C
100
AcDbEntity
  8
001
 62
     0
370
    -2
100
AcDbLine
 10
289.4221562184588
 20
-240.8147492929715
 30
0.0
 11
289.4221562184588
 21
-230.6709062929715
 31
0.0
  0
LINE
  5
1A60
330
1A0C
100
AcDbEntity
  8
001
 62
     0
370
    -2
100
AcDbLine
 10
300.4221562184588
 20
-240.8147492929715
 30
0.0
 11
300.4221562184588
 21
-230.6709062929715
 31
0.0
  0
LINE
  5
1A61
330
1A0C
100
AcDbEntity
  8
001
 62
     0
370
    -2
100
AcDbLine
 10
291.9221562184588
 20
-231.9209062929715
 30
0.0
 11
297.9221562184589
 21
-231.9209062929715
 31
0.0
  0
INSERT
  5
1A62
330
1A0C
100
AcDbEntity
  8
001
 62
     0
370
    -2
100
AcDbBlockReference
  2
_Open30
 10
289.4221562184588
 20
-231.9209062929715
 30
0.0
 41
2.5
 42
2.5
 43
2.5
 50
180.0
  0
INSERT
  5
1A63
330
1A0C
100
AcDbEntity
  8
001
 62
     0
370
    -2
100
AcDbBlockReference
  2
_Open30
 10
300.4221562184588
 20
-231.9209062929715
 30
0.0
 41
2.5
 42
2.5
 43
2.5
  0
MTEXT
  5
1A64
330
1A0C
100
AcDbEntity
  8
001
 62
     4
100
AcDbMText
 10
294.9221562184588
 20
-229.7959062929715
 30
0.0
 40
3.0
 41
0.0
 46
0.0
 71
     5
 72
     1
  1
11
 73
     1
 44
1.0
  0
POINT
  5
1A65
330
1A0C
100
AcDbEntity
  8
Defpoints
 62
     0
100
AcDbPoint
 10
289.4221562184588
 20
-241.0647492929715
 30
0.0
  0
POINT
  5
1A66
330
1A0C
100
AcDbEntity
  8
Defpoints
 62
     0
100
AcDbPoint
 10
300.4221562184588
 20
-241.0647492929715
 30
0.0
  0
POINT
  5
1A67
330
1A0C
100
AcDbEntity
  8
Defpoints
 62
     0
100
AcDbPoint
 10
300.4221562184588
 20
-231.9209062929715
 30
0.0
  0
ENDBLK
  5
1A17
330
1A0C
100
AcDbEntity
  8
0
100
AcDbBlockEnd
  0
BLOCK
  5
1A22
330
1A18
100
AcDbEntity
  8
0
100
AcDbBlockBegin
  2
*D19
 70
     1
 10
0.0
 20
0.0
 30
0.0
  3
*D19
  1

  0
LINE
  5
1A68
330
1A18
100
AcDbEntity
  8
001
 62
     0
370
    -2
100
AcDbLine
 10
345.4221562184589
 20
-231.8147492929715
 30
0.0
 11
345.4221562184589
 21
-224.4726382929715
 31
0.0
  0
LINE
  5
1A69
330
1A18
100
AcDbEntity
  8
001
 62
     0
370
    -2
100
AcDbLine
 10
362.4188342184588
 20
-246.7131472929715
 30
0.0
 11
362.4188342184588
 21
-224.4726382929715
 31
0.0
  0
LINE
  5
1A6A
330
1A18
100
AcDbEntity
  8
001
 62
     0
370
    -2
100
AcDbLine
 10
347.9221562184589
 20
-225.7226382929715
 30
0.0
 11
359.9188342184588
 21
-225.7226382929715
 31
0.0
  0
INSERT
  5
1A6B
330
1A18
100
AcDbEntity
  8
001
 62
     0
370
    -2
100
AcDbBlockReference
  2
_Open30
 10
345.4221562184589
 20
-225.7226382929715
 30
0.0
 41
2.5
 42
2.5
 43
2.5
 50
180.0
  0
INSERT
  5
1A6C
330
1A18
100
AcDbEntity
  8
001
 62
     0
370
    -2
100
AcDbBlockReference
  2
_Open30
 10
362.4188342184588
 20
-225.7226382929715
 30
0.0
 41
2.5
 42
2.5
 43
2.5
  0
MTEXT
  5
1A6D
330
1A18
100
AcDbEntity
  8
001
 62
     4
100
AcDbMText
 10
353.9204952184588
 20
-223.5976382929715
 30
0.0
 40
3.0
 41
0.0
 46
0.0
 71
     5
 72
     1
  1
17
 73
     1
 44
1.0
  0
POINT
  5
1A6E
330
1A18
100
AcDbEntity
  8
Defpoints
 62
     0
100
AcDbPoint
 10
345.4221562184589
 20
-232.0647492929715
 30
0.0
  0
POINT
  5
1A6F
330
1A18
100
AcDbEntity
  8
Defpoints
 62
     0
100
AcDbPoint
 10
362.4188342184588
 20
-246.9631472929715
 30
0.0
  0
POINT
  5
1A70
330
1A18
100
AcDbEntity
  8
Defpoints
 62
     0
100
AcDbPoint
 10
362.4188342184588
 20
-225.7226382929715
 30
0.0
  0
ENDBLK
  5
1A23
330
1A18
100
AcDbEntity
  8
0
100
AcDbBlockEnd
  0
BLOCK
  5
1A2E
330
1A24
100
AcDbEntity
  8
0
100
AcDbBlockBegin
  2
*D20
 70
     1
 10
0.0
 20
0.0
 30
0.0
  3
*D20
  1

  0
LINE
  5
1A71
330
1A24
100
AcDbEntity
  8
001
 62
     0
370
    -2
100
AcDbLine
 10
285.4221562184589
 20
-240.3147492929715
 30
0.0
 11
285.4221562184589
 21
-224.4726382929715
 31
0.0
  0
LINE
  5
1A72
330
1A24
100
AcDbEntity
  8
001
 62
     0
370
    -2
100
AcDbLine
 10
345.4221562184589
 20
-231.8147492929715
 30
0.0
 11
345.4221562184589
 21
-224.4726382929715
 31
0.0
  0
LINE
  5
1A73
330
1A24
100
AcDbEntity
  8
001
 62
     0
370
    -2
100
AcDbLine
 10
287.9221562184588
 20
-225.7226382929715
 30
0.0
 11
342.9221562184588
 21
-225.7226382929715
 31
0.0
  0
INSERT
  5
1A74
330
1A24
100
AcDbEntity
  8
001
 62
     0
370
    -2
100
AcDbBlockReference
  2
_Open30
 10
285.4221562184589
 20
-225.7226382929715
 30
0.0
 41
2.5
 42
2.5
 43
2.5
 50
180.0
  0
INSERT
  5
1A75
330
1A24
100
AcDbEntity
  8
001
 62
     0
370
    -2
100
AcDbBlockReference
  2
_Open30
 10
345.4221562184589
 20
-225.7226382929715
 30
0.0
 41
2.5
 42
2.5
 43
2.5
  0
MTEXT
  5
1A76
330
1A24
100
AcDbEntity
  8
001
 62
     4
100
AcDbMText
 10
315.4221562184588
 20
-223.5976382929715
 30
0.0
 40
3.0
 41
0.0
 46
0.0
 71
     5
 72
     1
  1
60
 73
     1
 44
1.0
  0
POINT
  5
1A77
330
1A24
100
AcDbEntity
  8
Defpoints
 62
     0
100
AcDbPoint
 10
285.4221562184589
 20
-240.5647492929715
 30
0.0
  0
POINT
  5
1A78
330
1A24
100
AcDbEntity
  8
Defpoints
 62
     0
100
AcDbPoint
 10
345.4221562184589
 20
-232.0647492929715
 30
0.0
  0
POINT
  5
1A79
330
1A24
100
AcDbEntity
  8
Defpoints
 62
     0
100
AcDbPoint
 10
345.4221562184589
 20
-225.7226382929715
 30
0.0
  0
ENDBLK
  5
1A2F
330
1A24
100
AcDbEntity
  8
0
100
AcDbBlockEnd
  0
BLOCK
  5
1A3A
330
1A30
100
AcDbEntity
  8
0
100
AcDbBlockBegin
  2
*D21
 70
     1
 10
0.0
 20
0.0
 30
0.0
  3
*D21
  1

  0
LINE
  5
1A7A
330
1A30
100
AcDbEntity
  8
001
 62
     0
370
    -2
100
AcDbLine
 10
345.4221562184589
 20
-268.3147492929715
 30
0.0
 11
345.4221562184589
 21
-274.3623992929715
 31
0.0
  0
LINE
  5
1A7B
330
1A30
100
AcDbEntity
  8
001
 62
     0
370
    -2
100
AcDbLine
 10
366.8188342184588
 20
-258.7381472929715
 30
0.0
 11
366.8188342184588
 21
-274.3623992929715
 31
0.0
  0
LINE
  5
1A7C
330
1A30
100
AcDbEntity
  8
001
 62
     0
370
    -2
100
AcDbLine
 10
347.9221562184589
 20
-273.1123992929715
 30
0.0
 11
364.3188342184588
 21
-273.1123992929715
 31
0.0
  0
INSERT
  5
1A7D
330
1A30
100
AcDbEntity
  8
001
 62
     0
370
    -2
100
AcDbBlockReference
  2
_Open30
 10
345.4221562184589
 20
-273.1123992929715
 30
0.0
 41
2.5
 42
2.5
 43
2.5
 50
180.0
  0
INSERT
  5
1A7E
330
1A30
100
AcDbEntity
  8
001
 62
     0
370
    -2
100
AcDbBlockReference
  2
_Open30
 10
366.8188342184588
 20
-273.1123992929715
 30
0.0
 41
2.5
 42
2.5
 43
2.5
  0
MTEXT
  5
1A7F
330
1A30
100
AcDbEntity
  8
001
 62
     4
100
AcDbMText
 10
356.1204952184588
 20
-270.9873992929715
 30
0.0
 40
3.0
 41
0.0
 46
0.0
 71
     5
 72
     1
  1
21.4
 73
     1
 44
1.0
  0
POINT
  5
1A80
330
1A30
100
AcDbEntity
  8
Defpoints
 62
     0
100
AcDbPoint
 10
345.4221562184589
 20
-268.0647492929715
 30
0.0
  0
POINT
  5
1A81
330
1A30
100
AcDbEntity
  8
Defpoints
 62
     0
100
AcDbPoint
 10
366.8188342184588
 20
-258.4881472929715
 30
0.0
  0
POINT
  5
1A82
330
1A30
100
AcDbEntity
  8
Defpoints
 62
     0
100
AcDbPoint
 10
366.8188342184588
 20
-273.1123992929715
 30
0.0
  0
ENDBLK
  5
1A3B
330
1A30
100
AcDbEntity
  8
0
100
AcDbBlockEnd
  0
BLOCK
  5
1A46
330
1A3C
100
AcDbEntity
  8
0
100
AcDbBlockBegin
  2
*D22
 70
     1
 10
0.0
 20
0.0
 30
0.0
  3
*D22
  1

  0
LINE
  5
1A83
330
1A3C
100
AcDbEntity
  8
001
 62
     0
370
    -2
100
AcDbLine
 10
341.3054122184588
 20
-323.8638622929715
 30
0.0
 11
375.0083322184588
 21
-323.8638622929715
 31
0.0
  0
LINE
  5
1A84
330
1A3C
100
AcDbEntity
  8
001
 62
     0
370
    -2
100
AcDbLine
 10
341.3054122184588
 20
-284.8638622929715
 30
0.0
 11
375.0083322184588
 21
-284.8638622929715
 31
0.0
  0
LINE
  5
1A85
330
1A3C
100
AcDbEntity
  8
001
 62
     0
370
    -2
100
AcDbLine
 10
373.7583322184588
 20
-321.3638622929715
 30
0.0
 11
373.7583322184588
 21
-287.3638622929714
 31
0.0
  0
INSERT
  5
1A86
330
1A3C
100
AcDbEntity
  8
001
 62
     0
370
    -2
100
AcDbBlockReference
  2
_Open30
 10
373.7583322184588
 20
-323.8638622929715
 30
0.0
 41
2.5
 42
2.5
 43
2.5
 50
270.0
  0
INSERT
  5
1A87
330
1A3C
100
AcDbEntity
  8
001
 62
     0
370
    -2
100
AcDbBlockReference
  2
_Open30
 10
373.7583322184588
 20
-284.8638622929715
 30
0.0
 41
2.5
 42
2.5
 43
2.5
 50
90.0
  0
MTEXT
  5
1A88
330
1A3C
100
AcDbEntity
  8
001
 62
     4
100
AcDbMText
 10
371.6333322184589
 20
-304.3638622929714
 30
0.0
 40
3.0
 41
0.0
 46
0.0
 71
     5
 72
     1
  1
39
 11
0.0000000000000001
 21
1.0
 31
0.0
 73
     1
 44
1.0
  0
POINT
  5
1A89
330
1A3C
100
AcDbEntity
  8
Defpoints
 62
     0
100
AcDbPoint
 10
341.0554122184588
 20
-323.8638622929715
 30
0.0
  0
POINT
  5
1A8A
330
1A3C
100
AcDbEntity
  8
Defpoints
 62
     0
100
AcDbPoint
 10
341.0554122184588
 20
-284.8638622929715
 30
0.0
  0
POINT
  5
1A8B
330
1A3C
100
AcDbEntity
  8
Defpoints
 62
     0
100
AcDbPoint
 10
373.7583322184588
 20
-284.8638622929715
 30
0.0
  0
ENDBLK
  5
1A47
330
1A3C
100
AcDbEntity
  8
0
100
AcDbBlockEnd
  0
BLOCK
  5
1A52
330
1A48
100
AcDbEntity
  8
0
100
AcDbBlockBegin
  2
*D23
 70
     1
 10
0.0
 20
0.0
 30
0.0
  3
*D23
  1

  0
LINE
  5
1A8C
330
1A48
100
AcDbEntity
  8
001
 62
     0
370
    -2
100
AcDbLine
 10
286.1688342184588
 20
-315.3638622929715
 30
0.0
 11
273.0118272184589
 21
-315.3638622929715
 31
0.0
  0
LINE
  5
1A8D
330
1A48
100
AcDbEntity
  8
001
 62
     0
370
    -2
100
AcDbLine
 10
287.1688342184588
 20
-293.3638622929715
 30
0.0
 11
273.0118272184589
 21
-293.3638622929715
 31
0.0
  0
LINE
  5
1A8E
330
1A48
100
AcDbEntity
  8
001
 62
     0
370
    -2
100
AcDbLine
 10
274.2618272184588
 20
-312.8638622929715
 30
0.0
 11
274.2618272184588
 21
-295.8638622929715
 31
0.0
  0
INSERT
  5
1A8F
330
1A48
100
AcDbEntity
  8
001
 62
     0
370
    -2
100
AcDbBlockReference
  2
_Open30
 10
274.2618272184588
 20
-315.3638622929715
 30
0.0
 41
2.5
 42
2.5
 43
2.5
 50
270.0
  0
INSERT
  5
1A90
330
1A48
100
AcDbEntity
  8
001
 62
     0
370
    -2
100
AcDbBlockReference
  2
_Open30
 10
274.2618272184588
 20
-293.3638622929715
 30
0.0
 41
2.5
 42
2.5
 43
2.5
 50
90.0
  0
MTEXT
  5
1A91
330
1A48
100
AcDbEntity
  8
001
 62
     4
100
AcDbMText
 10
272.1368272184589
 20
-304.3638622929714
 30
0.0
 40
3.0
 41
0.0
 46
0.0
 71
     5
 72
     1
  1
22
 11
0.0000000000000001
 21
1.0
 31
0.0
 73
     1
 44
1.0
  0
POINT
  5
1A92
330
1A48
100
AcDbEntity
  8
Defpoints
 62
     0
100
AcDbPoint
 10
286.4188342184588
 20
-315.3638622929715
 30
0.0
  0
POINT
  5
1A93
330
1A48
100
AcDbEntity
  8
Defpoints
 62
     0
100
AcDbPoint
 10
287.4188342184588
 20
-293.3638622929715
 30
0.0
  0
POINT
  5
1A94
330
1A48
100
AcDbEntity
  8
Defpoints
 62
     0
100
AcDbPoint
 10
274.2618272184588
 20
-293.3638622929715
 30
0.0
  0
ENDBLK
  5
1A53
330
1A48
100
AcDbEntity
  8
0
100
AcDbBlockEnd
  0
ENDSEC
  0
SECTION
  2
ENTITIES
  0
LINE
  5
F4
330
6B
100
AcDbEntity
  8
0
 62
     3
100
AcDbLine
 10
119.400542
 20
-362.757746
 30
0.0
 11
119.400542
 21
-339.757746
 31
0.0
  0
LINE
  5
F6
330
6B
100
AcDbEntity
  8
0
 62
     3
100
AcDbLine
 10
66.346932
 20
-369.757746
 30
0.0
 11
66.346932
 21
-355.757746
 31
0.0
  0
TEXT
  5
F8
330
6B
100
AcDbEntity
  8
0
 62
     3
100
AcDbText
 10
95.41085999999999
 20
-343.55263
 30
0.0
 40
2.0
  1
A
 41
0.7
100
AcDbText
  0
TEXT
  5
F9
330
6B
100
AcDbEntity
  8
0
 62
     3
100
AcDbText
 10
97.946146
 20
-343.55263
 30
0.0
 40
2.0
  1
P
 41
0.7
100
AcDbText
  0
TEXT
  5
FA
330
6B
100
AcDbEntity
  8
0
 62
     3
100
AcDbText
 10
100.481432
 20
-343.55263
 30
0.0
 40
2.0
  1
P
 41
0.7
100
AcDbText
  0
TEXT
  5
FB
330
6B
100
AcDbEntity
  8
0
 62
     3
100
AcDbText
 10
103.016719
 20
-343.55263
 30
0.0
 40
2.0
  1
D
 41
0.7
100
AcDbText
  0
TEXT
  5
FC
330
6B
100
AcDbEntity
  8
0
 62
     3
100
AcDbText
 10
108.385402
 20
-343.55263
 30
0.0
 40
2.0
  1
C
 41
0.7
100
AcDbText
  0
TEXT
  5
FD
330
6B
100
AcDbEntity
  8
0
 62
     3
100
AcDbText
 10
110.920688
 20
-343.55263
 30
0.0
 40
2.0
  1
H
 41
0.7
100
AcDbText
  0
TEXT
  5
FE
330
6B
100
AcDbEntity
  8
0
 62
     3
100
AcDbText
 10
113.455974
 20
-343.55263
 30
0.0
 40
2.0
  1
C
 41
0.7
100
AcDbText
  0
TEXT
  5
FF
330
6B
100
AcDbEntity
  8
0
 62
     3
100
AcDbText
 10
115.99126
 20
-343.55263
 30
0.0
 40
2.0
  1
K
 41
0.7
100
AcDbText
  0
TEXT
  5
100
330
6B
100
AcDbEntity
  8
0
 62
     3
100
AcDbText
 10
121.665227
 20
-343.55263
 30
0.0
 40
2.0
  1
DESN
 41
1.216762999999998
100
AcDbText
  0
TEXT
  5
101
330
6B
100
AcDbEntity
  8
0
 62
     3
100
AcDbText
 10
36.65886800000001
 20
-372.899128
 30
0.0
 40
2.0
  1
NICHIDO IND.CO.LTD
 41
1.274876
100
AcDbText
  0
LINE
  5
102
330
6B
100
AcDbEntity
  8
0
 62
     3
100
AcDbLine
 10
93.40054200000002
 20
-339.757746
 30
0.0
 11
93.400542
 21
-379.423469
 31
0.0
  0
LINE
  5
106
330
6B
100
AcDbEntity
  8
0
 62
     3
100
AcDbLine
 10
106.400542
 20
-339.757746
 30
0.0
 11
106.400542
 21
-369.757746
 31
0.0
  0
TEXT
  5
107
330
6B
100
AcDbEntity
  8
0
 62
     3
100
AcDbText
 10
94.512987
 20
-368.89306
 30
0.0
 40
3.2
  1
作成日
 41
1.017225999999997
100
AcDbText
  0
LINE
  5
108
330
6B
100
AcDbEntity
  8
0
 62
     3
100
AcDbLine
 10
145.099905
 20
-339.757746
 30
0.0
 11
33.796463
 21
-339.757746
 31
0.0
  0
LINE
  5
109
330
6B
100
AcDbEntity
  8
0
 62
     3
100
AcDbLine
 10
132.400542
 20
-362.757746
 30
0.0
 11
132.400542
 21
-339.757746
 31
0.0
  0
TEXT
  5
10A
330
6B
100
AcDbEntity
  8
0
 62
     3
100
AcDbText
 10
135.724345
 20
-343.466812
 30
0.0
 40
1.8
  1
D
 41
0.666667
100
AcDbText
  0
TEXT
  5
10B
330
6B
100
AcDbEntity
  8
0
 62
     3
100
AcDbText
 10
138.540973
 20
-343.466812
 30
0.0
 40
1.8
  1
E
 41
0.666667
100
AcDbText
  0
TEXT
  5
10C
330
6B
100
AcDbEntity
  8
0
 62
     3
100
AcDbText
 10
141.357602
 20
-343.466812
 30
0.0
 40
1.8
  1
F
 41
0.666667
100
AcDbText
  0
TEXT
  5
10D
330
6B
100
AcDbEntity
  8
0
 62
     3
100
AcDbText
 10
135.724345
 20
-347.459365
 30
0.0
 40
3.2
  1
製図
 41
1.076369
100
AcDbText
  0
LINE
  5
10E
330
6B
100
AcDbEntity
  8
0
 62
     3
100
AcDbLine
 10
33.796463
 20
-339.757746
 30
0.0
 11
33.796463
 21
-379.423469
 31
0.0
  0
TEXT
  5
10F
330
6B
100
AcDbEntity
  8
0
 62
     3
100
AcDbText
 10
35.173116
 20
-379.091004
 30
0.0
 40
5.0
  1
日動工業株式会社
 41
0.833333
100
AcDbText
  0
LINE
  5
110
330
6B
100
AcDbEntity
  8
0
 62
     3
100
AcDbLine
 10
76.67886700000003
 20
-355.757746
 30
0.0
 11
76.67886700000003
 21
-379.423469
 31
0.0
  0
LINE
  5
111
330
6B
100
AcDbEntity
  8
0
 62
     3
100
AcDbLine
 10
76.67886700000003
 20
-374.5906080000001
 30
0.0
 11
93.400542
 21
-374.5906080000001
 31
0.0
  0
TEXT
  5
112
330
6B
100
AcDbEntity
  8
0
 62
     3
100
AcDbText
 10
77.26546899999998
 20
-373.774177
 30
0.0
 40
3.2
  1
出図コード
 41
0.8356860000000001
100
AcDbText
  0
LINE
  5
114
330
6B
100
AcDbEntity
  8
0
 62
     3
100
AcDbLine
 10
33.79646300000001
 20
-369.7577460000001
 30
0.0
 11
145.099905
 21
-369.757746
 31
0.0
  0
LINE
  5
116
330
6B
100
AcDbEntity
  8
0
 62
     3
100
AcDbLine
 10
33.796463
 20
-348.757746
 30
0.0
 11
145.099905
 21
-348.757746
 31
0.0
  0
LINE
  5
11C
330
6B
100
AcDbEntity
  8
0
 62
     3
100
AcDbLine
 10
33.796463
 20
-355.757746
 30
0.0
 11
93.400542
 21
-355.757746
 31
0.0
  0
LINE
  5
122
330
6B
100
AcDbEntity
  8
0
 62
     3
100
AcDbLine
 10
33.796463
 20
-362.7577460000002
 30
0.0
 11
145.099905
 21
-362.757746
 31
0.0
  0
TEXT
  5
123
330
6B
100
AcDbEntity
  8
0
 62
     3
100
AcDbText
 10
34.658531
 20
-365.957305
 30
0.0
 40
2.59194
  1
１
 41
0.8846149999999999
100
AcDbText
  0
TEXT
  5
124
330
6B
100
AcDbEntity
  8
0
 62
     3
100
AcDbText
 10
39.017748
 20
-365.957305
 30
0.0
 40
2.59194
  1
台
 41
0.8846149999999999
100
AcDbText
  0
TEXT
  5
125
330
6B
100
AcDbEntity
  8
0
 62
     3
100
AcDbText
 10
43.376964
 20
-365.957305
 30
0.0
 40
2.59194
  1
分
 41
0.8846149999999999
100
AcDbText
  0
TEXT
  5
126
330
6B
100
AcDbEntity
  8
0
 62
     3
100
AcDbText
 10
34.658531
 20
-369.446455
 30
0.0
 40
2.59194
  1
個
 41
0.8846149999999999
100
AcDbText
  0
TEXT
  5
127
330
6B
100
AcDbEntity
  8
0
 62
     3
100
AcDbText
 10
43.376964
 20
-369.446455
 30
0.0
 40
2.59194
  1
数
 41
0.8846149999999999
100
AcDbText
  0
TEXT
  5
128
330
6B
100
AcDbEntity
  8
0
 62
     3
100
AcDbText
 10
58.49084799999999
 20
-366.194534
 30
0.0
 40
2.59194
  1
3AD
 41
1.013212999999999
100
AcDbText
  0
TEXT
  5
129
330
6B
100
AcDbEntity
  8
0
 62
     3
100
AcDbText
 10
58.65233299999999
 20
-369.268627
 30
0.0
 40
2.59194
  1
三角法
 41
0.844344
100
AcDbText
  0
LINE
  5
12A
330
6B
100
AcDbEntity
  8
0
 62
     3
100
AcDbLine
 10
58.41965999999999
 20
-362.757746
 30
0.0
 11
58.41965999999999
 21
-369.757746
 31
0.0
  0
LINE
  5
12B
330
6B
100
AcDbEntity
  8
0
 62
     3
100
AcDbLine
 10
47.04189799999999
 20
-369.757746
 30
0.0
 11
47.04189799999999
 21
-339.757746
 31
0.0
  0
LINE
  5
13B
330
6B
100
AcDbEntity
  8
0
 62
     3
100
AcDbLine
 10
6.599905999999998
 20
-191.006879
 30
0.0
 11
6.599905999999998
 21
-192.255438
 31
0.0
  0
LINE
  5
13F
330
6B
100
AcDbEntity
  8
0
 62
     2
100
AcDbLine
 10
-5.227365999999999
 20
-197.643553
 30
0.0
 11
-4.791617999999997
 21
-197.871021
 31
0.0
  0
LINE
  5
140
330
6B
100
AcDbEntity
  8
0
 62
     2
100
AcDbLine
 10
-5.227365999999999
 20
-201.374184
 30
0.0
 11
-4.791617999999997
 21
-201.146715
 31
0.0
  0
LINE
  5
141
330
6B
100
AcDbEntity
  8
0
 62
     2
100
AcDbLine
 10
-4.791617999999997
 20
-197.871021
 30
0.0
 11
-4.791617999999997
 21
-201.146715
 31
0.0
  0
LINE
  5
142
330
6B
100
AcDbEntity
  8
0
 62
     2
100
AcDbLine
 10
-3.688101
 20
-201.374184
 30
0.0
 11
-4.123848999999998
 21
-201.146715
 31
0.0
  0
LINE
  5
143
330
6B
100
AcDbEntity
  8
0
 62
     2
100
AcDbLine
 10
-4.123848999999998
 20
-199.149857
 30
0.0
 11
-4.123848999999998
 21
-201.146715
 31
0.0
  0
LINE
  5
144
330
6B
100
AcDbEntity
  8
0
 62
     2
100
AcDbLine
 10
-1.146237999999998
 20
-197.643553
 30
0.0
 11
-1.581986
 21
-197.871021
 31
0.0
  0
LINE
  5
145
330
6B
100
AcDbEntity
  8
0
 62
     2
100
AcDbLine
 10
-2.685502999999998
 20
-197.643553
 30
0.0
 11
-2.249754999999999
 21
-197.871021
 31
0.0
  0
LINE
  5
146
330
6B
100
AcDbEntity
  8
0
 62
     2
100
AcDbLine
 10
-2.249754999999999
 20
-197.871021
 30
0.0
 11
-2.249754999999999
 21
-199.313358
 31
0.0
  0
LINE
  5
147
330
6B
100
AcDbEntity
  8
0
 62
     2
100
AcDbLine
 10
-1.581986
 20
-197.871021
 30
0.0
 11
-1.581986
 21
-201.585745
 31
0.0
  0
LINE
  5
148
330
6B
100
AcDbEntity
  8
0
 62
     2
100
AcDbLine
 10
-0.9309409999999999
 20
-197.643556
 30
0.0
 11
-0.495194
 21
-197.871027
 31
0.0
  0
LINE
  5
149
330
6B
100
AcDbEntity
  8
0
 62
     2
100
AcDbLine
 10
-0.931019
 20
-201.374134
 30
0.0
 11
-0.495263
 21
-201.146681
 31
0.0
  0
LINE
  5
14A
330
6B
100
AcDbEntity
  8
0
 62
     2
100
AcDbLine
 10
-0.495194
 20
-197.871027
 30
0.0
 11
-0.495194
 21
-201.146681
 31
0.0
  0
LINE
  5
14B
330
6B
100
AcDbEntity
  8
0
 62
     2
100
AcDbLine
 10
0.9985959999999998
 20
-197.643579
 30
0.0
 11
0.5628449999999999
 21
-197.871041
 31
0.0
  0
LINE
  5
14C
330
6B
100
AcDbEntity
  8
0
 62
     2
100
AcDbLine
 10
0.5628449999999999
 20
-197.871041
 30
0.0
 11
0.5628449999999999
 21
-201.146695
 31
0.0
  0
LINE
  5
14D
330
6B
100
AcDbEntity
  8
0
 62
     2
100
AcDbLine
 10
0.9985959999999998
 20
-201.374157
 30
0.0
 11
0.5628449999999999
 21
-201.146695
 31
0.0
  0
LINE
  5
14E
330
6B
100
AcDbEntity
  8
0
 62
     2
100
AcDbLine
 10
4.688848999999998
 20
-197.64362
 30
0.0
 11
5.124595999999998
 21
-197.87109
 31
0.0
  0
LINE
  5
14F
330
6B
100
AcDbEntity
  8
0
 62
     2
100
AcDbLine
 10
5.124595999999998
 20
-197.87109
 30
0.0
 11
5.124538999999998
 21
-201.146744
 31
0.0
  0
LINE
  5
150
330
6B
100
AcDbEntity
  8
0
 62
     2
100
AcDbLine
 10
4.688784
 20
-201.374198
 30
0.0
 11
5.124538999999998
 21
-201.146744
 31
0.0
  0
LINE
  5
151
330
6B
100
AcDbEntity
  8
0
 62
     2
100
AcDbLine
 10
6.64111
 20
-197.64362
 30
0.0
 11
6.205362999999997
 21
-197.87109
 31
0.0
  0
LINE
  5
152
330
6B
100
AcDbEntity
  8
0
 62
     2
100
AcDbLine
 10
6.641174999999997
 20
-201.374198
 30
0.0
 11
6.205419999999997
 21
-201.146744
 31
0.0
  0
LINE
  5
153
330
6B
100
AcDbEntity
  8
0
 62
     2
100
AcDbLine
 10
6.844838
 20
-197.64362
 30
0.0
 11
7.280585
 21
-197.87109
 31
0.0
  0
LINE
  5
154
330
6B
100
AcDbEntity
  8
0
 62
     2
100
AcDbLine
 10
6.844772999999999
 20
-201.374198
 30
0.0
 11
7.280527999999997
 21
-201.146744
 31
0.0
  0
LINE
  5
155
330
6B
100
AcDbEntity
  8
0
 62
     2
100
AcDbLine
 10
8.797099000000002
 20
-197.64362
 30
0.0
 11
8.361352
 21
-197.87109
 31
0.0
  0
LINE
  5
156
330
6B
100
AcDbEntity
  8
0
 62
     2
100
AcDbLine
 10
8.361352
 20
-197.87109
 30
0.0
 11
8.361409
 21
-201.146744
 31
0.0
  0
LINE
  5
157
330
6B
100
AcDbEntity
  8
0
 62
     2
100
AcDbLine
 10
8.797164
 20
-201.374198
 30
0.0
 11
8.361409
 21
-201.146744
 31
0.0
  0
LINE
  5
158
330
6B
100
AcDbEntity
  8
0
 62
     2
100
AcDbLine
 10
7.28056
 20
-199.298223
 30
0.0
 11
6.205388
 21
-199.298223
 31
0.0
  0
LINE
  5
159
330
6B
100
AcDbEntity
  8
0
 62
     2
100
AcDbLine
 10
7.280553
 20
-199.719513
 30
0.0
 11
6.205394999999997
 21
-199.719513
 31
0.0
  0
LINE
  5
15A
330
6B
100
AcDbEntity
  8
0
 62
     2
100
AcDbLine
 10
7.280585
 20
-197.87109
 30
0.0
 11
7.28056
 21
-199.298223
 31
0.0
  0
LINE
  5
15B
330
6B
100
AcDbEntity
  8
0
 62
     2
100
AcDbLine
 10
7.280553
 20
-199.719513
 30
0.0
 11
7.280527999999997
 21
-201.146744
 31
0.0
  0
LINE
  5
15C
330
6B
100
AcDbEntity
  8
0
 62
     2
100
AcDbLine
 10
6.205362999999997
 20
-197.87109
 30
0.0
 11
6.205388
 21
-199.298223
 31
0.0
  0
LINE
  5
15D
330
6B
100
AcDbEntity
  8
0
 62
     2
100
AcDbLine
 10
6.205394999999997
 20
-199.719513
 30
0.0
 11
6.205419999999997
 21
-201.146744
 31
0.0
  0
LINE
  5
15E
330
6B
100
AcDbEntity
  8
0
 62
     2
100
AcDbLine
 10
9.004058
 20
-197.64362
 30
0.0
 11
9.439804999999999
 21
-197.87109
 31
0.0
  0
LINE
  5
15F
330
6B
100
AcDbEntity
  8
0
 62
     2
100
AcDbLine
 10
9.439804999999999
 20
-197.87109
 30
0.0
 11
9.439747999999999
 21
-201.146744
 31
0.0
  0
LINE
  5
160
330
6B
100
AcDbEntity
  8
0
 62
     2
100
AcDbLine
 10
9.003992999999997
 20
-201.374198
 30
0.0
 11
9.439747999999999
 21
-201.146744
 31
0.0
  0
LINE
  5
161
330
6B
100
AcDbEntity
  8
0
 62
     2
100
AcDbLine
 10
10.933568
 20
-197.64362
 30
0.0
 11
10.497821
 21
-197.87109
 31
0.0
  0
LINE
  5
162
330
6B
100
AcDbEntity
  8
0
 62
     2
100
AcDbLine
 10
10.497821
 20
-197.87109
 30
0.0
 11
10.497878
 21
-201.146744
 31
0.0
  0
LINE
  5
163
330
6B
100
AcDbEntity
  8
0
 62
     2
100
AcDbLine
 10
10.933633
 20
-201.374198
 30
0.0
 11
10.497878
 21
-201.146744
 31
0.0
  0
LINE
  5
164
330
6B
100
AcDbEntity
  8
0
 62
     2
100
AcDbLine
 10
11.147928
 20
-197.64362
 30
0.0
 11
11.583675
 21
-197.87109
 31
0.0
  0
LINE
  5
165
330
6B
100
AcDbEntity
  8
0
 62
     2
100
AcDbLine
 10
11.583675
 20
-197.87109
 30
0.0
 11
11.583618
 21
-201.146744
 31
0.0
  0
LINE
  5
166
330
6B
100
AcDbEntity
  8
0
 62
     2
100
AcDbLine
 10
11.147863
 20
-201.374198
 30
0.0
 11
11.583618
 21
-201.146744
 31
0.0
  0
ARC
  5
167
330
6B
100
AcDbEntity
  8
0
 62
     2
100
AcDbCircle
 10
3.296937999999998
 20
-199.499479
 30
0.0
 40
2.086285999999998
100
AcDbArc
 50
97.701524
 51
270.0
  0
ARC
  5
168
330
6B
100
AcDbEntity
  8
0
 62
     2
100
AcDbCircle
 10
16.177539
 20
-199.520435
 30
0.0
 40
2.108943
100
AcDbArc
 50
0.31425
 51
69.00558199999998
  0
ARC
  5
169
330
6B
100
AcDbEntity
  8
0
 62
     2
100
AcDbCircle
 10
16.638214
 20
-199.520435
 30
0.0
 40
2.108943
100
AcDbArc
 50
110.994418
 51
148.116611
  0
ARC
  5
16A
330
6B
100
AcDbEntity
  8
0
 62
     2
100
AcDbCircle
 10
16.177539
 20
-199.497301
 30
0.0
 40
2.108943
100
AcDbArc
 50
290.994418
 51
359.68575
  0
ARC
  5
16B
330
6B
100
AcDbEntity
  8
0
 62
     2
100
AcDbCircle
 10
16.638214
 20
-199.497301
 30
0.0
 40
2.108943
100
AcDbArc
 50
211.883389
 51
249.005582
  0
ARC
  5
16C
330
6B
100
AcDbEntity
  8
0
 62
     2
100
AcDbCircle
 10
16.407876
 20
-198.646063
 30
0.0
 40
1.214070999999999
100
AcDbArc
 50
64.365172
 51
115.634828
  0
ARC
  5
16D
330
6B
100
AcDbEntity
  8
0
 62
     2
100
AcDbCircle
 10
16.407876
 20
-200.371674
 30
0.0
 40
1.214070999999999
100
AcDbArc
 50
244.365172
 51
295.634828
  0
ARC
  5
16E
330
6B
100
AcDbEntity
  8
0
 62
     2
100
AcDbCircle
 10
16.407876
 20
-198.623001
 30
0.0
 40
0.5958560000000001
100
AcDbArc
 50
19.486606
 51
160.513394
  0
ARC
  5
16F
330
6B
100
AcDbEntity
  8
0
 62
     2
100
AcDbCircle
 10
16.407876
 20
-200.394735
 30
0.0
 40
0.5958560000000001
100
AcDbArc
 50
199.4866059999999
 51
340.513394
  0
ARC
  5
170
330
6B
100
AcDbEntity
  8
0
 62
     3
100
AcDbCircle
 10
11.665404
 20
-221.736928
 30
0.0
 40
26.04
100
AcDbArc
 50
69.50571500000001
 51
81.689988
  0
ARC
  5
171
330
6B
100
AcDbEntity
  8
0
 62
     3
100
AcDbCircle
 10
11.665404
 20
-177.280808
 30
0.0
 40
26.04
100
AcDbArc
 50
278.310012
 51
290.494285
  0
ARC
  5
172
330
6B
100
AcDbEntity
  8
0
 62
     3
100
AcDbCircle
 10
19.973608
 20
-199.508868
 30
0.0
 40
2.31
100
AcDbArc
 50
290.494285
 51
69.50571500000001
  0
ARC
  5
173
330
6B
100
AcDbEntity
  8
0
 62
     3
100
AcDbCircle
 10
-7.326392
 20
-199.508868
 30
0.0
 40
2.31
100
AcDbArc
 50
110.494285
 51
249.505715
  0
ARC
  5
174
330
6B
100
AcDbEntity
  8
0
 62
     3
100
AcDbCircle
 10
0.981812
 20
-221.736928
 30
0.0
 40
26.04
100
AcDbArc
 50
98.31001200000001
 51
110.494285
  0
ARC
  5
175
330
6B
100
AcDbEntity
  8
0
 62
     3
100
AcDbCircle
 10
0.981812
 20
-177.280808
 30
0.0
 40
26.04
100
AcDbArc
 50
249.505715
 51
261.689988
  0
ARC
  5
176
330
6B
100
AcDbEntity
  8
0
 62
     3
100
AcDbCircle
 10
6.323608
 20
-258.308868
 30
0.0
 40
63.0
100
AcDbArc
 50
81.689988
 51
98.31001200000001
  0
ARC
  5
177
330
6B
100
AcDbEntity
  8
0
 62
     3
100
AcDbCircle
 10
6.323608
 20
-140.708868
 30
0.0
 40
63.0
100
AcDbArc
 50
261.689988
 51
278.310012
  0
ARC
  5
178
330
6B
100
AcDbEntity
  8
0
 62
     3
100
AcDbCircle
 10
6.323608
 20
-258.308868
 30
0.0
 40
62.37
100
AcDbArc
 50
81.689988
 51
98.31001200000001
  0
ARC
  5
179
330
6B
100
AcDbEntity
  8
0
 62
     3
100
AcDbCircle
 10
6.323608
 20
-140.708868
 30
0.0
 40
62.37
100
AcDbArc
 50
261.689988
 51
278.310012
  0
ARC
  5
17A
330
6B
100
AcDbEntity
  8
0
 62
     3
100
AcDbCircle
 10
11.665404
 20
-177.280808
 30
0.0
 40
25.41
100
AcDbArc
 50
278.310012
 51
290.494285
  0
ARC
  5
17B
330
6B
100
AcDbEntity
  8
0
 62
     3
100
AcDbCircle
 10
11.665404
 20
-221.736928
 30
0.0
 40
25.41
100
AcDbArc
 50
69.50571500000001
 51
81.689988
  0
ARC
  5
17C
330
6B
100
AcDbEntity
  8
0
 62
     3
100
AcDbCircle
 10
19.973608
 20
-199.508868
 30
0.0
 40
1.679999999999999
100
AcDbArc
 50
290.494285
 51
69.50571500000001
  0
ARC
  5
17D
330
6B
100
AcDbEntity
  8
0
 62
     3
100
AcDbCircle
 10
-7.326392
 20
-199.508868
 30
0.0
 40
1.679999999999999
100
AcDbArc
 50
110.494285
 51
249.505715
  0
ARC
  5
17E
330
6B
100
AcDbEntity
  8
0
 62
     3
100
AcDbCircle
 10
0.981812
 20
-221.736928
 30
0.0
 40
25.41
100
AcDbArc
 50
98.31001200000001
 51
110.494285
  0
ARC
  5
17F
330
6B
100
AcDbEntity
  8
0
 62
     3
100
AcDbCircle
 10
0.981812
 20
-177.280808
 30
0.0
 40
25.41
100
AcDbArc
 50
249.505715
 51
261.689988
  0
LINE
  5
180
330
6B
100
AcDbEntity
  8
0
 62
     2
100
AcDbLine
 10
10.933569
 20
-201.585745
 30
0.0
 11
9.004057000000003
 21
-201.585745
 31
0.0
  0
LINE
  5
181
330
6B
100
AcDbEntity
  8
0
 62
     2
100
AcDbLine
 10
10.933569
 20
-201.374184
 30
0.0
 11
10.933569
 21
-201.585745
 31
0.0
  0
LINE
  5
182
330
6B
100
AcDbEntity
  8
0
 62
     2
100
AcDbLine
 10
8.7971
 20
-197.432091
 30
0.0
 11
6.844836999999999
 21
-197.432091
 31
0.0
  0
LINE
  5
183
330
6B
100
AcDbEntity
  8
0
 62
     2
100
AcDbLine
 10
8.7971
 20
-197.432091
 30
0.0
 11
8.7971
 21
-197.643553
 31
0.0
  0
LINE
  5
184
330
6B
100
AcDbEntity
  8
0
 62
     2
100
AcDbLine
 10
8.7971
 20
-201.374184
 30
0.0
 11
8.7971
 21
-201.585843
 31
0.0
  0
LINE
  5
185
330
6B
100
AcDbEntity
  8
0
 62
     2
100
AcDbLine
 10
8.7971
 20
-201.585843
 30
0.0
 11
6.844836999999999
 21
-201.585843
 31
0.0
  0
LINE
  5
186
330
6B
100
AcDbEntity
  8
0
 62
     2
100
AcDbLine
 10
10.933569
 20
-197.431992
 30
0.0
 11
10.933569
 21
-197.643553
 31
0.0
  0
LINE
  5
187
330
6B
100
AcDbEntity
  8
0
 62
     2
100
AcDbLine
 10
10.933569
 20
-197.431992
 30
0.0
 11
9.004057000000003
 21
-197.431992
 31
0.0
  0
LINE
  5
188
330
6B
100
AcDbEntity
  8
0
 62
     2
100
AcDbLine
 10
9.004057000000003
 20
-197.431992
 30
0.0
 11
9.004057000000003
 21
-197.643553
 31
0.0
  0
LINE
  5
189
330
6B
100
AcDbEntity
  8
0
 62
     2
100
AcDbLine
 10
11.147927
 20
-201.374184
 30
0.0
 11
11.147927
 21
-201.585745
 31
0.0
  0
LINE
  5
18A
330
6B
100
AcDbEntity
  8
0
 62
     2
100
AcDbLine
 10
13.132228
 20
-201.585745
 30
0.0
 11
11.147927
 21
-201.585745
 31
0.0
  0
LINE
  5
18B
330
6B
100
AcDbEntity
  8
0
 62
     2
100
AcDbLine
 10
12.641691
 20
-198.099761
 30
0.0
 11
12.641691
 21
-200.917975
 31
0.0
  0
LINE
  5
18C
330
6B
100
AcDbEntity
  8
0
 62
     2
100
AcDbLine
 10
12.641691
 20
-200.917975
 30
0.0
 11
12.83174
 21
-200.917975
 31
0.0
  0
ARC
  5
18D
330
6B
100
AcDbEntity
  8
0
 62
     2
100
AcDbCircle
 10
11.859954
 20
-199.508868
 30
0.0
 40
1.711709999999999
100
AcDbArc
 50
304.591955
 51
55.408045
  0
LINE
  5
18E
330
6B
100
AcDbEntity
  8
0
 62
     2
100
AcDbLine
 10
13.132228
 20
-197.431992
 30
0.0
 11
11.147927
 21
-197.431992
 31
0.0
  0
LINE
  5
18F
330
6B
100
AcDbEntity
  8
0
 62
     2
100
AcDbLine
 10
11.147927
 20
-197.431992
 30
0.0
 11
11.147927
 21
-197.643553
 31
0.0
  0
LINE
  5
190
330
6B
100
AcDbEntity
  8
0
 62
     2
100
AcDbLine
 10
9.004057000000003
 20
-201.374184
 30
0.0
 11
9.004057000000003
 21
-201.585745
 31
0.0
  0
LINE
  5
191
330
6B
100
AcDbEntity
  8
0
 62
     2
100
AcDbLine
 10
12.641691
 20
-198.099761
 30
0.0
 11
12.83174
 21
-198.099761
 31
0.0
  0
LINE
  5
192
330
6B
100
AcDbEntity
  8
0
 62
     2
100
AcDbLine
 10
0.998531
 20
-201.374184
 30
0.0
 11
0.9985279999999999
 21
-201.585764
 31
0.0
  0
LINE
  5
193
330
6B
100
AcDbEntity
  8
0
 62
     2
100
AcDbLine
 10
-0.9309840000000001
 20
-201.585725
 30
0.0
 11
0.9985279999999999
 21
-201.585759
 31
0.0
  0
LINE
  5
194
330
6B
100
AcDbEntity
  8
0
 62
     2
100
AcDbLine
 10
-5.227365999999999
 20
-201.585745
 30
0.0
 11
-3.688101
 21
-201.585745
 31
0.0
  0
ARC
  5
195
330
6B
100
AcDbEntity
  8
0
 62
     2
100
AcDbCircle
 10
-10.209309
 20
-199.459962
 30
0.0
 40
14.713566
100
AcDbArc
 50
353.866006
 51
357.694034
  0
LINE
  5
196
330
6B
100
AcDbEntity
  8
0
 62
     2
100
AcDbLine
 10
3.507270999999998
 20
-200.048329
 30
0.0
 11
4.492341999999998
 21
-200.051974
 31
0.0
  0
LINE
  5
1D9
330
6B
100
AcDbEntity
  8
0
 62
     2
100
AcDbLine
 10
3.511249999999998
 20
-198.973115
 30
0.0
 11
4.496321
 21
-198.976759
 31
0.0
  0
ARC
  5
1DA
330
6B
100
AcDbEntity
  8
0
 62
     2
100
AcDbCircle
 10
-10.209309
 20
-199.459962
 30
0.0
 40
14.713566
100
AcDbArc
 50
1.881965999999999
 51
5.709994
  0
LINE
  5
1DB
330
6B
100
AcDbEntity
  8
0
 62
     2
100
AcDbLine
 10
0.9986
 20
-197.432012
 30
0.0
 11
0.998597
 21
-197.643553
 31
0.0
  0
LINE
  5
1DC
330
6B
100
AcDbEntity
  8
0
 62
     2
100
AcDbLine
 10
-0.930912
 20
-197.431972
 30
0.0
 11
0.9986
 21
-197.432006
 31
0.0
  0
LINE
  5
1DD
330
6B
100
AcDbEntity
  8
0
 62
     2
100
AcDbLine
 10
-0.93098
 20
-201.374184
 30
0.0
 11
-0.9309840000000001
 21
-201.585725
 31
0.0
  0
LINE
  5
1DE
330
6B
100
AcDbEntity
  8
0
 62
     2
100
AcDbLine
 10
-0.930912
 20
-197.431972
 30
0.0
 11
-0.9309149999999998
 21
-197.643553
 31
0.0
  0
LINE
  5
1DF
330
6B
100
AcDbEntity
  8
0
 62
     2
100
AcDbLine
 10
-3.688101
 20
-201.374184
 30
0.0
 11
-3.688101
 21
-201.585745
 31
0.0
  0
LINE
  5
1E0
330
6B
100
AcDbEntity
  8
0
 62
     2
100
AcDbLine
 10
-4.123848999999998
 20
-199.149857
 30
0.0
 11
-2.601418
 21
-201.585745
 31
0.0
  0
LINE
  5
1E1
330
6B
100
AcDbEntity
  8
0
 62
     2
100
AcDbLine
 10
-2.601418
 20
-201.585745
 30
0.0
 11
-1.581986
 21
-201.585745
 31
0.0
  0
LINE
  5
1E2
330
6B
100
AcDbEntity
  8
0
 62
     2
100
AcDbLine
 10
-1.146237999999998
 20
-197.431992
 30
0.0
 11
-1.146237999999998
 21
-197.643553
 31
0.0
  0
LINE
  5
1E3
330
6B
100
AcDbEntity
  8
0
 62
     2
100
AcDbLine
 10
-2.685502999999998
 20
-197.431992
 30
0.0
 11
-1.146237999999998
 21
-197.431992
 31
0.0
  0
LINE
  5
1E4
330
6B
100
AcDbEntity
  8
0
 62
     2
100
AcDbLine
 10
-2.685502999999998
 20
-197.431992
 30
0.0
 11
-2.685502999999998
 21
-197.643553
 31
0.0
  0
LINE
  5
1E5
330
6B
100
AcDbEntity
  8
0
 62
     2
100
AcDbLine
 10
-2.249754999999999
 20
-199.313358
 30
0.0
 11
-3.484401999999998
 21
-197.431992
 31
0.0
  0
LINE
  5
1E6
330
6B
100
AcDbEntity
  8
0
 62
     2
100
AcDbLine
 10
-5.227365999999999
 20
-197.431992
 30
0.0
 11
-3.484401999999998
 21
-197.431992
 31
0.0
  0
LINE
  5
1E7
330
6B
100
AcDbEntity
  8
0
 62
     2
100
AcDbLine
 10
4.688848
 20
-197.432091
 30
0.0
 11
6.641111
 21
-197.432091
 31
0.0
  0
LINE
  5
1E8
330
6B
100
AcDbEntity
  8
0
 62
     2
100
AcDbLine
 10
4.688848
 20
-197.643553
 30
0.0
 11
4.688848
 21
-197.432091
 31
0.0
  0
LINE
  5
1E9
330
6B
100
AcDbEntity
  8
0
 62
     2
100
AcDbLine
 10
4.688848
 20
-201.585843
 30
0.0
 11
4.688848
 21
-201.374184
 31
0.0
  0
LINE
  5
1EA
330
6B
100
AcDbEntity
  8
0
 62
     2
100
AcDbLine
 10
4.688848
 20
-201.585843
 30
0.0
 11
6.641111
 21
-201.585843
 31
0.0
  0
LINE
  5
1EB
330
6B
100
AcDbEntity
  8
0
 62
     2
100
AcDbLine
 10
6.844836999999999
 20
-201.374184
 30
0.0
 11
6.844836999999999
 21
-201.585843
 31
0.0
  0
LINE
  5
1EC
330
6B
100
AcDbEntity
  8
0
 62
     2
100
AcDbLine
 10
6.641111
 20
-201.374184
 30
0.0
 11
6.641111
 21
-201.585843
 31
0.0
  0
LINE
  5
1ED
330
6B
100
AcDbEntity
  8
0
 62
     2
100
AcDbLine
 10
6.641111
 20
-197.643553
 30
0.0
 11
6.641111
 21
-197.432091
 31
0.0
  0
LINE
  5
1EE
330
6B
100
AcDbEntity
  8
0
 62
     2
100
AcDbLine
 10
6.844836999999999
 20
-197.643553
 30
0.0
 11
6.844836999999999
 21
-197.432091
 31
0.0
  0
LINE
  5
1EF
330
6B
100
AcDbEntity
  8
0
 62
     2
100
AcDbLine
 10
-5.227365999999999
 20
-201.374184
 30
0.0
 11
-5.227365999999999
 21
-201.585745
 31
0.0
  0
LINE
  5
1F0
330
6B
100
AcDbEntity
  8
0
 62
     2
100
AcDbLine
 10
-5.227365999999999
 20
-197.431992
 30
0.0
 11
-5.227365999999999
 21
-197.643553
 31
0.0
  0
ARC
  5
1F1
330
6B
100
AcDbEntity
  8
0
 62
     2
100
AcDbCircle
 10
13.342228
 20
-199.07312
 30
0.0
 40
1.641127999999999
100
AcDbArc
 50
17.308749
 51
23.765071
  0
ARC
  5
1F2
330
6B
100
AcDbEntity
  8
0
 62
     2
100
AcDbCircle
 10
11.943954
 20
-199.508868
 30
0.0
 40
3.105725999999998
100
AcDbArc
 50
342.691251
 51
17.308566
  0
ARC
  5
1F3
330
6B
100
AcDbEntity
  8
0
 62
     2
100
AcDbCircle
 10
13.342228
 20
-199.944616
 30
0.0
 40
1.641127999999999
100
AcDbArc
 50
336.234929
 51
342.691251
  0
ARC
  5
1F4
330
6B
100
AcDbEntity
  8
0
 62
     2
100
AcDbCircle
 10
13.132228
 20
-199.07312
 30
0.0
 40
1.641127999999999
100
AcDbArc
 50
17.308749
 51
90.0
  0
ARC
  5
1F5
330
6B
100
AcDbEntity
  8
0
 62
     2
100
AcDbCircle
 10
11.733954
 20
-199.508868
 30
0.0
 40
3.105725999999998
100
AcDbArc
 50
342.691251
 51
17.308566
  0
ARC
  5
1F6
330
6B
100
AcDbEntity
  8
0
 62
     2
100
AcDbCircle
 10
13.132228
 20
-199.944616
 30
0.0
 40
1.641127999999999
100
AcDbArc
 50
270.0
 51
342.691251
  0
ARC
  5
1F7
330
6B
100
AcDbEntity
  8
0
 62
     2
100
AcDbCircle
 10
3.008286999999998
 20
-199.508868
 30
0.0
 40
2.076875999999999
100
AcDbArc
 50
46.75287999999999
 51
89.749998
  0
ARC
  5
1F8
330
6B
100
AcDbEntity
  8
0
 62
     2
100
AcDbCircle
 10
3.008286999999998
 20
-199.508868
 30
0.0
 40
2.076875999999999
100
AcDbArc
 50
273.976333
 51
312.82312
  0
ARC
  5
1F9
330
6B
100
AcDbEntity
  8
0
 62
     2
100
AcDbCircle
 10
14.450095
 20
-199.54093
 30
0.0
 40
2.755888999999998
100
AcDbArc
 50
0.6665840000000001
 51
23.903928
  0
ARC
  5
1FA
330
6B
100
AcDbEntity
  8
0
 62
     2
100
AcDbCircle
 10
18.365658
 20
-199.54093
 30
0.0
 40
2.755888999999998
100
AcDbArc
 50
156.096072
 51
179.333416
  0
ARC
  5
1FB
330
6B
100
AcDbEntity
  8
0
 62
     2
100
AcDbCircle
 10
14.450095
 20
-199.476807
 30
0.0
 40
2.755888999999998
100
AcDbArc
 50
336.096072
 51
359.333416
  0
ARC
  5
1FC
330
6B
100
AcDbEntity
  8
0
 62
     2
100
AcDbCircle
 10
18.365658
 20
-199.476807
 30
0.0
 40
2.755888999999998
100
AcDbArc
 50
180.666584
 51
203.903928
  0
LINE
  5
1FD
330
6B
100
AcDbEntity
  8
0
 62
     3
100
AcDbLine
 10
23.617061
 20
-199.479496
 30
0.0
 11
145.099906
 21
-199.479496
 31
0.0
  0
LINE
  5
1FE
330
6B
100
AcDbEntity
  8
0
 62
     3
100
AcDbLine
 10
-11.169446
 20
-199.479496
 30
0.0
 11
-131.900094
 21
-199.479496
 31
0.0
  0
LINE
  5
214
330
6B
100
AcDbEntity
  8
0
 62
     3
100
AcDbLine
 10
19.039068
 20
-280.163452
 30
0.0
 11
19.039068
 21
-316.163452
 31
0.0
  0
ARC
  5
215
330
6B
100
AcDbEntity
  8
0
 62
     3
100
AcDbCircle
 10
14.675646
 20
-282.413452
 30
0.0
 40
3.75
100
AcDbArc
 50
36.869898
 51
152.181861
  0
ARC
  5
216
330
6B
100
AcDbEntity
  8
0
 62
     3
100
AcDbCircle
 10
14.675646
 20
-313.913452
 30
0.0
 40
3.75
100
AcDbArc
 50
207.818139
 51
323.130102
  0
LINE
  5
217
330
6B
100
AcDbEntity
  8
0
 62
     3
100
AcDbLine
 10
-37.960932
 20
-287.163452
 30
0.0
 11
-39.960932
 21
-287.163452
 31
0.0
  0
LINE
  5
218
330
6B
100
AcDbEntity
  8
0
 62
     3
100
AcDbLine
 10
-39.960932
 20
-309.163452
 30
0.0
 11
-37.960932
 21
-309.163452
 31
0.0
  0
LINE
  5
219
330
6B
100
AcDbEntity
  8
0
 62
     3
100
AcDbLine
 10
-25.960932
 20
-307.163452
 30
0.0
 11
-25.960932
 21
-308.163452
 31
0.0
  0
LINE
  5
21A
330
6B
100
AcDbEntity
  8
0
 62
     3
100
AcDbLine
 10
7.002121
 20
-315.663452
 30
0.0
 11
11.359021
 21
-315.663452
 31
0.0
  0
LINE
  5
21B
330
6B
100
AcDbEntity
  8
0
 62
     3
100
AcDbLine
 10
7.002121
 20
-280.663452
 30
0.0
 11
11.359021
 21
-280.663452
 31
0.0
  0
LINE
  5
21C
330
6B
100
AcDbEntity
  8
0
 62
     3
100
AcDbLine
 10
-25.960932
 20
-289.163452
 30
0.0
 11
-25.960932
 21
-288.163452
 31
0.0
  0
ARC
  5
223
330
6B
100
AcDbEntity
  8
0
 62
     3
100
AcDbCircle
 10
-39.960932
 20
-288.163452
 30
0.0
 40
1.0
100
AcDbArc
 50
90.0
 51
180.0
  0
ARC
  5
224
330
6B
100
AcDbEntity
  8
0
 62
     3
100
AcDbCircle
 10
-37.960932
 20
-288.163452
 30
0.0
 40
1.0
100
AcDbArc
 50
0.0
 51
90.0
  0
ARC
  5
225
330
6B
100
AcDbEntity
  8
0
 62
     3
100
AcDbCircle
 10
-37.960932
 20
-308.163452
 30
0.0
 40
1.0
100
AcDbArc
 50
270.0
 51
0.0
  0
ARC
  5
226
330
6B
100
AcDbEntity
  8
0
 62
     3
100
AcDbCircle
 10
-39.960932
 20
-308.163452
 30
0.0
 40
1.0
100
AcDbArc
 50
180.0
 51
270.0
  0
CIRCLE
  5
22F
330
6B
100
AcDbEntity
  8
0
 62
     3
100
AcDbCircle
 10
-86.588819
 20
-243.864339
 30
0.0
 40
19.4971
  0
LINE
  5
230
330
6B
100
AcDbEntity
  8
0
 62
     3
100
AcDbLine
 10
-40.960932
 20
-288.163452
 30
0.0
 11
-40.960932
 21
-308.163452
 31
0.0
  0
LINE
  5
23D
330
6B
100
AcDbEntity
  8
0
 62
     3
100
AcDbLine
 10
19.04239
 20
-261.864339
 30
0.0
 11
19.04239
 21
-225.864339
 31
0.0
  0
ARC
  5
23E
330
6B
100
AcDbEntity
  8
0
 62
     3
100
AcDbCircle
 10
14.678968
 20
-259.614339
 30
0.0
 40
3.75
100
AcDbArc
 50
207.818139
 51
323.130102
  0
ARC
  5
23F
330
6B
100
AcDbEntity
  8
0
 62
     3
100
AcDbCircle
 10
14.678968
 20
-228.114339
 30
0.0
 40
3.75
100
AcDbArc
 50
36.869898
 51
152.181861
  0
LINE
  5
240
330
6B
100
AcDbEntity
  8
0
 62
     3
100
AcDbLine
 10
-37.95761
 20
-254.364339
 30
0.0
 11
-39.95761
 21
-254.364339
 31
0.0
  0
LINE
  5
241
330
6B
100
AcDbEntity
  8
0
 62
     3
100
AcDbLine
 10
-39.95761
 20
-233.364339
 30
0.0
 11
-37.95761
 21
-233.364339
 31
0.0
  0
ARC
  5
242
330
6B
100
AcDbEntity
  8
0
 62
     3
100
AcDbCircle
 10
-36.45761
 20
-234.864339
 30
0.0
 40
0.5
100
AcDbArc
 50
180.0
 51
270.0
  0
ARC
  5
243
330
6B
100
AcDbEntity
  8
0
 62
     3
100
AcDbCircle
 10
-26.45761
 20
-234.864339
 30
0.0
 40
0.5
100
AcDbArc
 50
270.0
 51
0.0
  0
ARC
  5
244
330
6B
100
AcDbEntity
  8
0
 62
     3
100
AcDbCircle
 10
-26.45761
 20
-252.864339
 30
0.0
 40
0.5
100
AcDbArc
 50
0.0
 51
90.0
  0
ARC
  5
245
330
6B
100
AcDbEntity
  8
0
 62
     3
100
AcDbCircle
 10
-36.45761
 20
-252.864339
 30
0.0
 40
0.5
100
AcDbArc
 50
90.0
 51
180.0
  0
LINE
  5
246
330
6B
100
AcDbEntity
  8
0
 62
     3
100
AcDbLine
 10
17.678968
 20
-261.864339
 30
0.0
 11
17.678968
 21
-225.864339
 31
0.0
  0
LINE
  5
247
330
6B
100
AcDbEntity
  8
0
 62
     3
100
AcDbLine
 10
11.362343
 20
-261.364339
 30
0.0
 11
11.362343
 21
-226.364339
 31
0.0
  0
ARC
  5
248
330
6B
100
AcDbEntity
  8
0
 62
     3
100
AcDbCircle
 10
-39.95761
 20
-253.364339
 30
0.0
 40
1.0
100
AcDbArc
 50
180.0
 51
270.0
  0
ARC
  5
249
330
6B
100
AcDbEntity
  8
0
 62
     3
100
AcDbCircle
 10
-37.95761
 20
-253.364339
 30
0.0
 40
1.0
100
AcDbArc
 50
270.0
 51
0.0
  0
ARC
  5
24A
330
6B
100
AcDbEntity
  8
0
 62
     3
100
AcDbCircle
 10
-37.95761
 20
-234.364339
 30
0.0
 40
1.0
100
AcDbArc
 50
0.0
 51
90.0
  0
ARC
  5
24B
330
6B
100
AcDbEntity
  8
0
 62
     3
100
AcDbCircle
 10
-39.95761
 20
-234.364339
 30
0.0
 40
1.0
100
AcDbArc
 50
90.0
 51
180.0
  0
LINE
  5
24C
330
6B
100
AcDbEntity
  8
0
 62
     3
100
AcDbLine
 10
-40.95760999999996
 20
-253.364339
 30
0.0
 11
-40.95760999999996
 21
-234.364339
 31
0.0
  0
LINE
  5
24D
330
6B
100
AcDbEntity
  8
0
 62
     3
100
AcDbLine
 10
-36.45761
 20
-252.364339
 30
0.0
 11
-36.097455
 21
-252.364339
 31
0.0
  0
LINE
  5
24E
330
6B
100
AcDbEntity
  8
0
 62
     3
100
AcDbLine
 10
-27.097455
 20
-252.364339
 30
0.0
 11
-26.45761
 21
-252.364339
 31
0.0
  0
LINE
  5
24F
330
6B
100
AcDbEntity
  8
0
 62
     3
100
AcDbLine
 10
-36.097455
 20
-235.364339
 30
0.0
 11
-36.45761
 21
-235.364339
 31
0.0
  0
LINE
  5
250
330
6B
100
AcDbEntity
  8
0
 62
     3
100
AcDbLine
 10
-36.097455
 20
-235.364339
 30
0.0
 11
-26.45761
 21
-235.364339
 31
0.0
  0
LINE
  5
251
330
6B
100
AcDbEntity
  8
0
 62
     3
100
AcDbLine
 10
-36.097455
 20
-252.364339
 30
0.0
 11
-27.097455
 21
-252.364339
 31
0.0
  0
LINE
  5
252
330
6B
100
AcDbEntity
  8
0
 62
     3
100
AcDbLine
 10
-44.35586699999999
 20
-247.370764
 30
0.0
 11
-40.956877
 21
-250.671024
 31
0.0
  0
LINE
  5
253
330
6B
100
AcDbEntity
  8
0
 62
     3
100
AcDbLine
 10
-44.35586699999999
 20
-247.370764
 30
0.0
 11
-44.35586699999999
 21
-240.357914
 31
0.0
  0
LINE
  5
254
330
6B
100
AcDbEntity
  8
0
 62
     3
100
AcDbLine
 10
-44.35586699999999
 20
-240.357914
 30
0.0
 11
-40.956877
 21
-237.057654
 31
0.0
  0
LINE
  5
255
330
6B
100
AcDbEntity
  8
0
 62
     3
100
AcDbLine
 10
1.486472
 20
-261.246599
 30
0.0
 11
11.363076
 21
-261.246599
 31
0.0
  0
LINE
  5
256
330
6B
100
AcDbEntity
  8
0
 62
     3
100
AcDbLine
 10
1.486472
 20
-226.482079
 30
0.0
 11
11.363076
 21
-226.482079
 31
0.0
  0
ARC
  5
29E
330
6B
100
AcDbEntity
  8
0
 62
     3
100
AcDbCircle
 10
-86.588819
 20
-256.629063
 30
0.0
 40
4.0
100
AcDbArc
 50
180.5053009999999
 51
359.494699
  0
LINE
  5
2A5
330
6B
100
AcDbEntity
  8
0
100
AcDbLine
 10
-30.100776
 20
-308.142269
 30
0.0
 11
-33.100776
 21
-308.142269
 31
0.0
  0
CIRCLE
  5
2A6
330
6B
100
AcDbEntity
  8
0
100
AcDbCircle
 10
-31.600776
 20
-311.642269
 30
0.0
 40
2.5
  0
LINE
  5
2EB
330
6B
100
AcDbEntity
  8
0
100
AcDbLine
 10
-36.100776
 20
-317.042269
 30
0.0
 11
-35.527307
 21
-317.042269
 31
0.0
  0
LINE
  5
2EC
330
6B
100
AcDbEntity
  8
0
100
AcDbLine
 10
-30.100776
 20
-288.142269
 30
0.0
 11
-33.100776
 21
-288.142269
 31
0.0
  0
LINE
  5
2ED
330
6B
100
AcDbEntity
  8
0
100
AcDbLine
 10
-27.100776
 20
-284.165771
 30
0.0
 11
-31.600776
 21
-280.117112
 31
0.0
  0
CIRCLE
  5
2EE
330
6B
100
AcDbEntity
  8
0
100
AcDbCircle
 10
-31.600776
 20
-284.642269
 30
0.0
 40
2.5
  0
LINE
  5
2EF
330
6B
100
AcDbEntity
  8
0
 62
     2
100
AcDbLine
 10
7.393692999999997
 20
-235.876035
 30
0.0
 11
7.231216
 21
-236.187284
 31
0.0
  0
LINE
  5
2F0
330
6B
100
AcDbEntity
  8
0
 62
     2
100
AcDbLine
 10
4.728957
 20
-235.876035
 30
0.0
 11
4.891433999999998
 21
-236.187284
 31
0.0
  0
LINE
  5
2F1
330
6B
100
AcDbEntity
  8
0
 62
     2
100
AcDbLine
 10
7.231216
 20
-236.187284
 30
0.0
 11
4.891433999999998
 21
-236.187284
 31
0.0
  0
LINE
  5
2F2
330
6B
100
AcDbEntity
  8
0
 62
     2
100
AcDbLine
 10
4.728957
 20
-236.975511
 30
0.0
 11
4.891433999999998
 21
-236.664262
 31
0.0
  0
LINE
  5
2F3
330
6B
100
AcDbEntity
  8
0
 62
     2
100
AcDbLine
 10
6.317762
 20
-236.664262
 30
0.0
 11
4.891433999999998
 21
-236.664262
 31
0.0
  0
LINE
  5
2F4
330
6B
100
AcDbEntity
  8
0
 62
     2
100
AcDbLine
 10
7.393692999999997
 20
-238.791127
 30
0.0
 11
7.231216
 21
-238.479878
 31
0.0
  0
LINE
  5
2F5
330
6B
100
AcDbEntity
  8
0
 62
     2
100
AcDbLine
 10
7.393692999999997
 20
-237.691652
 30
0.0
 11
7.231216
 21
-238.0029
 31
0.0
  0
LINE
  5
2F6
330
6B
100
AcDbEntity
  8
0
 62
     2
100
AcDbLine
 10
7.231216
 20
-238.0029
 30
0.0
 11
6.200974999999997
 21
-238.0029
 31
0.0
  0
LINE
  5
2F7
330
6B
100
AcDbEntity
  8
0
 62
     2
100
AcDbLine
 10
7.231216
 20
-238.479878
 30
0.0
 11
4.577841999999998
 21
-238.479878
 31
0.0
  0
LINE
  5
2F8
330
6B
100
AcDbEntity
  8
0
 62
     2
100
AcDbLine
 10
7.393691
 20
-238.944911
 30
0.0
 11
7.231211999999997
 21
-239.256158
 31
0.0
  0
LINE
  5
2F9
330
6B
100
AcDbEntity
  8
0
 62
     2
100
AcDbLine
 10
4.728993
 20
-238.944855
 30
0.0
 11
4.891458999999998
 21
-239.256109
 31
0.0
  0
LINE
  5
2FA
330
6B
100
AcDbEntity
  8
0
 62
     2
100
AcDbLine
 10
7.231211999999997
 20
-239.256158
 30
0.0
 11
4.891458999999998
 21
-239.256158
 31
0.0
  0
LINE
  5
2FB
330
6B
100
AcDbEntity
  8
0
 62
     2
100
AcDbLine
 10
7.393674
 20
-240.323151
 30
0.0
 11
7.231202
 21
-240.0119
 31
0.0
  0
LINE
  5
2FC
330
6B
100
AcDbEntity
  8
0
 62
     2
100
AcDbLine
 10
7.231202
 20
-240.0119
 30
0.0
 11
4.891448999999997
 21
-240.0119
 31
0.0
  0
LINE
  5
2FD
330
6B
100
AcDbEntity
  8
0
 62
     2
100
AcDbLine
 10
4.728976
 20
-240.323151
 30
0.0
 11
4.891448999999997
 21
-240.0119
 31
0.0
  0
LINE
  5
2FE
330
6B
100
AcDbEntity
  8
0
 62
     2
100
AcDbLine
 10
7.393644999999997
 20
-242.959046
 30
0.0
 11
7.231167
 21
-243.270294
 31
0.0
  0
LINE
  5
2FF
330
6B
100
AcDbEntity
  8
0
 62
     2
100
AcDbLine
 10
7.231167
 20
-243.270294
 30
0.0
 11
4.891414
 21
-243.270253
 31
0.0
  0
LINE
  5
300
330
6B
100
AcDbEntity
  8
0
 62
     2
100
AcDbLine
 10
4.728946999999998
 20
-242.959
 30
0.0
 11
4.891414
 21
-243.270253
 31
0.0
  0
LINE
  5
301
330
6B
100
AcDbEntity
  8
0
 62
     2
100
AcDbLine
 10
7.393644999999997
 20
-244.353518
 30
0.0
 11
7.231167
 21
-244.04227
 31
0.0
  0
LINE
  5
302
330
6B
100
AcDbEntity
  8
0
 62
     2
100
AcDbLine
 10
4.728946999999998
 20
-244.353565
 30
0.0
 11
4.891414
 21
-244.042311
 31
0.0
  0
LINE
  5
303
330
6B
100
AcDbEntity
  8
0
 62
     2
100
AcDbLine
 10
7.393644999999997
 20
-244.499038
 30
0.0
 11
7.231167
 21
-244.810286
 31
0.0
  0
LINE
  5
304
330
6B
100
AcDbEntity
  8
0
 62
     2
100
AcDbLine
 10
4.728946999999998
 20
-244.498992
 30
0.0
 11
4.891414
 21
-244.810245
 31
0.0
  0
LINE
  5
305
330
6B
100
AcDbEntity
  8
0
 62
     2
100
AcDbLine
 10
7.393644999999997
 20
-245.89351
 30
0.0
 11
7.231167
 21
-245.582262
 31
0.0
  0
LINE
  5
306
330
6B
100
AcDbEntity
  8
0
 62
     2
100
AcDbLine
 10
7.231167
 20
-245.582262
 30
0.0
 11
4.891414
 21
-245.582303
 31
0.0
  0
LINE
  5
307
330
6B
100
AcDbEntity
  8
0
 62
     2
100
AcDbLine
 10
4.728946999999998
 20
-245.893557
 30
0.0
 11
4.891414
 21
-245.582303
 31
0.0
  0
LINE
  5
308
330
6B
100
AcDbEntity
  8
0
 62
     2
100
AcDbLine
 10
6.211786
 20
-244.810268
 30
0.0
 11
6.211786
 21
-244.042288
 31
0.0
  0
LINE
  5
309
330
6B
100
AcDbEntity
  8
0
 62
     2
100
AcDbLine
 10
5.910864
 20
-244.810263
 30
0.0
 11
5.910864
 21
-244.042293
 31
0.0
  0
LINE
  5
30A
330
6B
100
AcDbEntity
  8
0
 62
     2
100
AcDbLine
 10
7.231167
 20
-244.810286
 30
0.0
 11
6.211786
 21
-244.810268
 31
0.0
  0
LINE
  5
30B
330
6B
100
AcDbEntity
  8
0
 62
     2
100
AcDbLine
 10
5.910864
 20
-244.810263
 30
0.0
 11
4.891414
 21
-244.810245
 31
0.0
  0
LINE
  5
30C
330
6B
100
AcDbEntity
  8
0
 62
     2
100
AcDbLine
 10
7.231167
 20
-244.04227
 30
0.0
 11
6.211786
 21
-244.042288
 31
0.0
  0
LINE
  5
30D
330
6B
100
AcDbEntity
  8
0
 62
     2
100
AcDbLine
 10
5.910864
 20
-244.042293
 30
0.0
 11
4.891414
 21
-244.042311
 31
0.0
  0
LINE
  5
30E
330
6B
100
AcDbEntity
  8
0
 62
     2
100
AcDbLine
 10
7.393644999999997
 20
-246.041338
 30
0.0
 11
7.231167
 21
-246.352586
 31
0.0
  0
LINE
  5
30F
330
6B
100
AcDbEntity
  8
0
 62
     2
100
AcDbLine
 10
7.231167
 20
-246.352586
 30
0.0
 11
4.891414
 21
-246.352545
 31
0.0
  0
LINE
  5
310
330
6B
100
AcDbEntity
  8
0
 62
     2
100
AcDbLine
 10
4.728946999999998
 20
-246.041292
 30
0.0
 11
4.891414
 21
-246.352545
 31
0.0
  0
LINE
  5
311
330
6B
100
AcDbEntity
  8
0
 62
     2
100
AcDbLine
 10
7.393644999999997
 20
-247.41956
 30
0.0
 11
7.231167
 21
-247.108312
 31
0.0
  0
LINE
  5
312
330
6B
100
AcDbEntity
  8
0
 62
     2
100
AcDbLine
 10
7.231167
 20
-247.108312
 30
0.0
 11
4.891414
 21
-247.108353
 31
0.0
  0
LINE
  5
313
330
6B
100
AcDbEntity
  8
0
 62
     2
100
AcDbLine
 10
4.728946999999998
 20
-247.419606
 30
0.0
 11
4.891414
 21
-247.108353
 31
0.0
  0
LINE
  5
314
330
6B
100
AcDbEntity
  8
0
 62
     2
100
AcDbLine
 10
7.393644999999997
 20
-247.572674
 30
0.0
 11
7.231167
 21
-247.883922
 31
0.0
  0
LINE
  5
315
330
6B
100
AcDbEntity
  8
0
 62
     2
100
AcDbLine
 10
7.231167
 20
-247.883922
 30
0.0
 11
4.891414
 21
-247.883881
 31
0.0
  0
LINE
  5
316
330
6B
100
AcDbEntity
  8
0
 62
     2
100
AcDbLine
 10
4.728946999999998
 20
-247.572627
 30
0.0
 11
4.891414
 21
-247.883881
 31
0.0
  0
ARC
  5
317
330
6B
100
AcDbEntity
  8
0
 62
     2
100
AcDbCircle
 10
6.068031999999997
 20
-241.964824
 30
0.0
 40
1.490204
100
AcDbArc
 50
7.701524000000001
 51
180.0
  0
ARC
  5
318
330
6B
100
AcDbEntity
  8
0
 62
     2
100
AcDbCircle
 10
6.053062999999997
 20
-251.165253
 30
0.0
 40
1.506387999999999
100
AcDbArc
 50
270.31425
 51
339.005582
  0
ARC
  5
319
330
6B
100
AcDbEntity
  8
0
 62
     2
100
AcDbCircle
 10
6.053062999999997
 20
-251.494307
 30
0.0
 40
1.506387999999999
100
AcDbArc
 50
20.994418
 51
58.11661099999999
  0
ARC
  5
31A
330
6B
100
AcDbEntity
  8
0
 62
     2
100
AcDbCircle
 10
6.069587
 20
-251.165253
 30
0.0
 40
1.506387999999999
100
AcDbArc
 50
200.994418
 51
269.68575
  0
ARC
  5
31B
330
6B
100
AcDbEntity
  8
0
 62
     2
100
AcDbCircle
 10
6.069587
 20
-251.494307
 30
0.0
 40
1.506387999999999
100
AcDbArc
 50
121.883389
 51
159.005582
  0
ARC
  5
31C
330
6B
100
AcDbEntity
  8
0
 62
     2
100
AcDbCircle
 10
6.677614999999997
 20
-251.32978
 30
0.0
 40
0.8671939999999999
100
AcDbArc
 50
334.365172
 51
25.634828
  0
ARC
  5
31D
330
6B
100
AcDbEntity
  8
0
 62
     2
100
AcDbCircle
 10
5.445035999999999
 20
-251.32978
 30
0.0
 40
0.8671939999999999
100
AcDbArc
 50
154.365172
 51
205.634828
  0
ARC
  5
31E
330
6B
100
AcDbEntity
  8
0
 62
     2
100
AcDbCircle
 10
6.694086999999997
 20
-251.32978
 30
0.0
 40
0.425611
100
AcDbArc
 50
289.486606
 51
70.51339399999998
  0
ARC
  5
31F
330
6B
100
AcDbEntity
  8
0
 62
     2
100
AcDbCircle
 10
5.428562999999997
 20
-251.32978
 30
0.0
 40
0.425611
100
AcDbArc
 50
109.486606
 51
250.513394
  0
ARC
  5
320
330
6B
100
AcDbEntity
  8
0
 62
     2
100
AcDbCircle
 10
-4.809262999999996
 20
-239.15618
 30
0.0
 40
13.11
100
AcDbArc
 50
8.797411
 51
25.057615
  0
ARC
  5
321
330
6B
100
AcDbEntity
  8
0
 62
     2
100
AcDbCircle
 10
-4.809262999999996
 20
-239.15618
 30
0.0
 40
13.5
100
AcDbArc
 50
8.797411
 51
25.057615
  0
ARC
  5
322
330
6B
100
AcDbEntity
  8
0
 62
     2
100
AcDbCircle
 10
6.061325
 20
-234.073827
 30
0.0
 40
1.11
100
AcDbArc
 50
25.057615
 51
154.942385
  0
ARC
  5
323
330
6B
100
AcDbEntity
  8
0
 62
     2
100
AcDbCircle
 10
6.061325
 20
-234.073827
 30
0.0
 40
1.5
100
AcDbArc
 50
25.057615
 51
154.942385
  0
ARC
  5
324
330
6B
100
AcDbEntity
  8
0
 62
     2
100
AcDbCircle
 10
16.931913
 20
-239.15618
 30
0.0
 40
13.11
100
AcDbArc
 50
154.942385
 51
171.202589
  0
ARC
  5
325
330
6B
100
AcDbEntity
  8
0
 62
     2
100
AcDbCircle
 10
16.931913
 20
-239.15618
 30
0.0
 40
13.5
100
AcDbArc
 50
154.942385
 51
171.202589
  0
ARC
  5
326
330
6B
100
AcDbEntity
  8
0
 62
     2
100
AcDbCircle
 10
48.061325
 20
-243.973827
 30
0.0
 40
45.0
100
AcDbArc
 50
171.202589
 51
180.0
  0
ARC
  5
327
330
6B
100
AcDbEntity
  8
0
 62
     2
100
AcDbCircle
 10
48.061325
 20
-243.973827
 30
0.0
 40
44.61
100
AcDbArc
 50
171.202589
 51
180.0
  0
ARC
  5
328
330
6B
100
AcDbEntity
  8
0
 62
     2
100
AcDbCircle
 10
48.061325
 20
-243.973827
 30
0.0
 40
44.61
100
AcDbArc
 50
180.0
 51
188.797411
  0
ARC
  5
329
330
6B
100
AcDbEntity
  8
0
 62
     2
100
AcDbCircle
 10
48.061325
 20
-243.973827
 30
0.0
 40
45.0
100
AcDbArc
 50
180.0
 51
188.797411
  0
ARC
  5
32A
330
6B
100
AcDbEntity
  8
0
 62
     2
100
AcDbCircle
 10
16.931913
 20
-248.791474
 30
0.0
 40
13.11
100
AcDbArc
 50
188.797411
 51
205.057615
  0
ARC
  5
32B
330
6B
100
AcDbEntity
  8
0
 62
     2
100
AcDbCircle
 10
16.931913
 20
-248.791474
 30
0.0
 40
13.5
100
AcDbArc
 50
188.797411
 51
205.057615
  0
ARC
  5
32C
330
6B
100
AcDbEntity
  8
0
 62
     2
100
AcDbCircle
 10
6.061325
 20
-253.873827
 30
0.0
 40
1.5
100
AcDbArc
 50
205.057615
 51
334.942385
  0
ARC
  5
32D
330
6B
100
AcDbEntity
  8
0
 62
     2
100
AcDbCircle
 10
6.061325
 20
-253.873827
 30
0.0
 40
1.11
100
AcDbArc
 50
205.057615
 51
334.942385
  0
ARC
  5
32E
330
6B
100
AcDbEntity
  8
0
 62
     2
100
AcDbCircle
 10
-4.809262999999996
 20
-248.791474
 30
0.0
 40
13.11
100
AcDbArc
 50
334.942385
 51
351.202589
  0
ARC
  5
32F
330
6B
100
AcDbEntity
  8
0
 62
     2
100
AcDbCircle
 10
-4.809262999999996
 20
-248.791474
 30
0.0
 40
13.5
100
AcDbArc
 50
334.942385
 51
351.202589
  0
ARC
  5
330
330
6B
100
AcDbEntity
  8
0
 62
     2
100
AcDbCircle
 10
-35.938675
 20
-243.973827
 30
0.0
 40
44.61
100
AcDbArc
 50
351.202589
 51
0.0
  0
ARC
  5
331
330
6B
100
AcDbEntity
  8
0
 62
     2
100
AcDbCircle
 10
-35.938675
 20
-243.973827
 30
0.0
 40
45.0
100
AcDbArc
 50
351.202589
 51
0.0
  0
ARC
  5
332
330
6B
100
AcDbEntity
  8
0
 62
     2
100
AcDbCircle
 10
-35.938675
 20
-243.973827
 30
0.0
 40
44.61
100
AcDbArc
 50
0.0
 51
8.797411
  0
ARC
  5
333
330
6B
100
AcDbEntity
  8
0
 62
     2
100
AcDbCircle
 10
-35.938675
 20
-243.973827
 30
0.0
 40
45.0
100
AcDbArc
 50
0.0
 51
8.797411
  0
CIRCLE
  5
334
330
6B
100
AcDbEntity
  8
0
 62
     3
100
AcDbCircle
 10
-86.588819
 20
-243.864339
 30
0.0
 40
10.5
  0
CIRCLE
  5
335
330
6B
100
AcDbEntity
  8
0
 62
     3
100
AcDbCircle
 10
-86.588819
 20
-256.664339
 30
0.0
 40
1.749643999999999
  0
LINE
  5
336
330
6B
100
AcDbEntity
  8
0
 62
     3
100
AcDbLine
 10
-82.58897500000001
 20
-257.364339
 30
0.0
 11
-82.58897500000001
 21
-253.572647
 31
0.0
  0
LINE
  5
337
330
6B
100
AcDbEntity
  8
0
 62
     3
100
AcDbLine
 10
-90.58866399999999
 20
-257.364339
 30
0.0
 11
-90.58866399999999
 21
-253.572647
 31
0.0
  0
LINE
  5
338
330
6B
100
AcDbEntity
  8
0
 62
     3
100
AcDbLine
 10
-25.956877
 20
-260.129908
 30
0.0
 11
-25.956877
 21
-252.982079
 31
0.0
  0
ARC
  5
339
330
6B
100
AcDbEntity
  8
0
 62
     3
100
AcDbCircle
 10
-25.456877
 20
-260.129908
 30
0.0
 40
0.5
100
AcDbArc
 50
180.0
 51
270.0
  0
LINE
  5
33D
330
6B
100
AcDbEntity
  8
0
 62
     3
100
AcDbLine
 10
-44.35586699999999
 20
-294.657027
 30
0.0
 11
-40.956877
 21
-291.356767
 31
0.0
  0
LINE
  5
33E
330
6B
100
AcDbEntity
  8
0
 62
     3
100
AcDbLine
 10
-44.35586699999999
 20
-294.657027
 30
0.0
 11
-44.35586699999999
 21
-301.669877
 31
0.0
  0
LINE
  5
33F
330
6B
100
AcDbEntity
  8
0
 62
     3
100
AcDbLine
 10
-44.35586699999999
 20
-301.669877
 30
0.0
 11
-40.956877
 21
-304.970137
 31
0.0
  0
CIRCLE
  5
345
330
6B
100
AcDbEntity
  8
0
 62
     3
100
AcDbCircle
 10
92.67375800000001
 20
-243.868507
 30
0.0
 40
17.75
  0
LINE
  5
346
330
6B
100
AcDbEntity
  8
0
  6
CENTER
100
AcDbLine
 10
106.958221
 20
-280.193402
 30
0.0
 11
94.839642
 21
-287.190067
 31
0.0
  0
CIRCLE
  5
347
330
6B
100
AcDbEntity
  8
0
 62
     3
100
AcDbCircle
 10
-86.588819
 20
-243.864339
 30
0.0
 40
3.0
  0
LINE
  5
35B
330
6B
100
AcDbEntity
  8
0
 62
     3
100
AcDbLine
 10
-25.95761
 20
-231.934437
 30
0.0
 11
-25.95761
 21
-234.864339
 31
0.0
  0
LINE
  5
35C
330
6B
100
AcDbEntity
  8
0
 62
     3
100
AcDbLine
 10
-25.95761
 20
-255.794241
 30
0.0
 11
-25.95761
 21
-252.864339
 31
0.0
  0
LINE
  5
35D
330
6B
100
AcDbEntity
  8
0
 62
     3
100
AcDbLine
 10
-25.95761
 20
-309.663452
 30
0.0
 11
-25.95761
 21
-307.163452
 31
0.0
  0
LINE
  5
35E
330
6B
100
AcDbEntity
  8
0
 62
     3
100
AcDbLine
 10
-25.956877
 20
-286.663452
 30
0.0
 11
-25.956877
 21
-289.045712
 31
0.0
  0
LINE
  5
35F
330
6B
100
AcDbEntity
  8
0
 62
     3
100
AcDbLine
 10
-25.456877
 20
-260.629908
 30
0.0
 11
-3.912029
 21
-260.629908
 31
0.0
  0
LINE
  5
360
330
6B
100
AcDbEntity
  8
0
 62
     3
100
AcDbLine
 10
17.678968
 20
-225.864339
 30
0.0
 11
19.04239
 21
-225.864339
 31
0.0
  0
LINE
  5
361
330
6B
100
AcDbEntity
  8
0
 62
     3
100
AcDbLine
 10
17.678968
 20
-261.864339
 30
0.0
 11
19.04239
 21
-261.864339
 31
0.0
  0
LINE
  5
362
330
6B
100
AcDbEntity
  8
0
 62
     3
100
AcDbLine
 10
81.70425899999996
 20
-301.114684
 30
0.0
 11
81.70425899999996
 21
-293.190067
 31
0.0
  0
LINE
  5
363
330
6B
100
AcDbEntity
  8
0
 62
     3
100
AcDbLine
 10
108.904393
 20
-300.925645
 30
0.0
 11
108.904393
 21
-293.171232
 31
0.0
  0
LINE
  5
364
330
6B
100
AcDbEntity
  8
0
 62
     3
100
AcDbLine
 10
81.104259
 20
-288.390067
 30
0.0
 11
81.104259
 21
-287.190067
 31
0.0
  0
LINE
  5
365
330
6B
100
AcDbEntity
  8
0
 62
     3
100
AcDbLine
 10
109.504393
 20
-288.371232
 30
0.0
 11
109.504393
 21
-287.171232
 31
0.0
  0
LINE
  5
366
330
6B
100
AcDbEntity
  8
0
 62
     3
100
AcDbLine
 10
81.104259
 20
-287.190067
 30
0.0
 11
109.504259
 21
-287.190067
 31
0.0
  0
CIRCLE
  5
37A
330
6B
100
AcDbEntity
  8
0
100
AcDbCircle
 10
92.67375800000001
 20
-252.243507
 30
0.0
 40
2.325
  0
LINE
  5
37B
330
6B
100
AcDbEntity
  8
0
100
AcDbLine
 10
89.47375799999996
 20
-248.393507
 30
0.0
 11
95.873758
 21
-248.393507
 31
0.0
  0
LINE
  5
37C
330
6B
100
AcDbEntity
  8
0
100
AcDbLine
 10
89.47375799999996
 20
-248.393507
 30
0.0
 11
88.92375799999998
 21
-248.393507
 31
0.0
  0
LINE
  5
37D
330
6B
100
AcDbEntity
  8
0
100
AcDbLine
 10
95.873758
 20
-248.393507
 30
0.0
 11
96.42375800000001
 21
-248.393507
 31
0.0
  0
CIRCLE
  5
37E
330
6B
100
AcDbEntity
  8
0
100
AcDbCircle
 10
99.01422100000001
 20
-253.762739
 30
0.0
 40
1.0
  0
LINE
  5
37F
330
6B
100
AcDbEntity
  8
0
100
AcDbLine
 10
99.25922100000001
 20
-253.427739
 30
0.0
 11
98.759221
 21
-253.427739
 31
0.0
  0
LINE
  5
380
330
6B
100
AcDbEntity
  8
0
100
AcDbLine
 10
98.63422100000001
 20
-253.677739
 30
0.0
 11
99.384221
 21
-253.677739
 31
0.0
  0
LINE
  5
381
330
6B
100
AcDbEntity
  8
0
100
AcDbLine
 10
99.50922099999999
 20
-253.927739
 30
0.0
 11
98.509221
 21
-253.927739
 31
0.0
  0
LINE
  5
382
330
6B
100
AcDbEntity
  8
0
100
AcDbLine
 10
99.009221
 20
-253.927739
 30
0.0
 11
99.009221
 21
-254.427739
 31
0.0
  0
LINE
  5
383
330
6B
100
AcDbEntity
  8
0
100
AcDbLine
 10
95.17375800000001
 20
-255.393507
 30
0.0
 11
95.17375800000001
 21
-248.393507
 31
0.0
  0
LINE
  5
384
330
6B
100
AcDbEntity
  8
0
100
AcDbLine
 10
90.17375800000001
 20
-248.393507
 30
0.0
 11
90.17375800000001
 21
-255.393507
 31
0.0
  0
LINE
  5
385
330
6B
100
AcDbEntity
  8
0
100
AcDbLine
 10
89.47375799999996
 20
-255.393507
 30
0.0
 11
95.873758
 21
-255.393507
 31
0.0
  0
TEXT
  5
386
330
6B
100
AcDbEntity
  8
0
100
AcDbText
 10
102.571096
 20
-250.060595
 30
0.0
 40
1.6
  1
125V 15A
 50
90.00000300000001
 41
1.132074999999999
100
AcDbText
  0
TEXT
  5
387
330
6B
100
AcDbEntity
  8
0
100
AcDbText
 10
104.577959
 20
-250.039619
 30
0.0
 40
1.919999999999999
  1
防　　雨　　形
 50
90.00000300000001
 41
0.833333
100
AcDbText
  0
TEXT
  5
388
330
6B
100
AcDbEntity
  8
0
100
AcDbText
 10
84.98551199999999
 20
-243.521171
 30
0.0
 40
2.127514
  1
JET
 50
90.00000300000001
100
AcDbText
  0
LINE
  5
389
330
6B
100
AcDbEntity
  8
0
100
AcDbLine
 10
83.08881900000001
 20
-235.834381
 30
0.0
 11
84.71860699999998
 21
-235.834381
 31
0.0
  0
LINE
  5
38A
330
6B
100
AcDbEntity
  8
0
100
AcDbLine
 10
83.330818
 20
-234.882226
 30
0.0
 11
84.71860699999998
 21
-235.834381
 31
0.0
  0
LINE
  5
38B
330
6B
100
AcDbEntity
  8
0
100
AcDbLine
 10
84.47660799999999
 20
-236.786536
 30
0.0
 11
83.08881900000001
 21
-235.834381
 31
0.0
  0
LINE
  5
38C
330
6B
100
AcDbEntity
  8
0
100
AcDbLine
 10
98.273758
 20
-236.468507
 30
0.0
 11
99.973758
 21
-236.468507
 31
0.0
  0
LINE
  5
38D
330
6B
100
AcDbEntity
  8
0
100
AcDbLine
 10
99.973758
 20
-244.968507
 30
0.0
 11
98.273758
 21
-244.968507
 31
0.0
  0
LINE
  5
38E
330
6B
100
AcDbEntity
  8
0
100
AcDbLine
 10
98.273758
 20
-236.468507
 30
0.0
 11
98.273758
 21
-244.968507
 31
0.0
  0
LINE
  5
38F
330
6B
100
AcDbEntity
  8
0
100
AcDbLine
 10
97.273758
 20
-242.718507
 30
0.0
 11
97.273758
 21
-238.718507
 31
0.0
  0
LINE
  5
390
330
6B
100
AcDbEntity
  8
0
100
AcDbLine
 10
99.973758
 20
-236.468507
 30
0.0
 11
99.973758
 21
-244.968507
 31
0.0
  0
LINE
  5
391
330
6B
100
AcDbEntity
  8
0
100
AcDbLine
 10
87.07375799999999
 20
-236.468507
 30
0.0
 11
85.37375799999997
 21
-236.468507
 31
0.0
  0
LINE
  5
392
330
6B
100
AcDbEntity
  8
0
100
AcDbLine
 10
88.073758
 20
-242.718507
 30
0.0
 11
88.073758
 21
-238.718507
 31
0.0
  0
LINE
  5
393
330
6B
100
AcDbEntity
  8
0
100
AcDbLine
 10
88.073758
 20
-238.718507
 30
0.0
 11
87.07375799999999
 21
-238.718507
 31
0.0
  0
LINE
  5
394
330
6B
100
AcDbEntity
  8
0
100
AcDbLine
 10
95.873758
 20
-246.893507
 30
0.0
 11
89.47375799999996
 21
-246.893507
 31
0.0
  0
LINE
  5
395
330
6B
100
AcDbEntity
  8
0
100
AcDbLine
 10
88.92375799999998
 20
-248.393507
 30
0.0
 11
88.92375799999998
 21
-246.893507
 31
0.0
  0
LINE
  5
396
330
6B
100
AcDbEntity
  8
0
100
AcDbLine
 10
89.47375799999996
 20
-246.893507
 30
0.0
 11
88.92375799999998
 21
-246.893507
 31
0.0
  0
LINE
  5
397
330
6B
100
AcDbEntity
  8
0
100
AcDbLine
 10
95.873758
 20
-246.893507
 30
0.0
 11
96.42375800000001
 21
-246.893507
 31
0.0
  0
LINE
  5
398
330
6B
100
AcDbEntity
  8
0
100
AcDbLine
 10
96.42375800000001
 20
-248.393507
 30
0.0
 11
96.42375800000001
 21
-246.893507
 31
0.0
  0
TEXT
  5
399
330
6B
100
AcDbEntity
  8
0
100
AcDbText
 10
91.49499
 20
-236.863068
 30
0.0
 40
2.740499999999998
  1
N
100
AcDbText
  0
LINE
  5
39A
330
6B
100
AcDbEntity
  8
0
100
AcDbLine
 10
94.42375799999998
 20
-239.368507
 30
0.0
 11
94.92375800000001
 21
-238.868507
 31
0.0
  0
LINE
  5
39B
330
6B
100
AcDbEntity
  8
0
100
AcDbLine
 10
94.42375799999998
 20
-238.368507
 30
0.0
 11
94.92375800000001
 21
-238.868507
 31
0.0
  0
LINE
  5
39C
330
6B
100
AcDbEntity
  8
0
100
AcDbLine
 10
92.923758
 20
-238.618507
 30
0.0
 11
94.42375799999998
 21
-238.618507
 31
0.0
  0
LINE
  5
39D
330
6B
100
AcDbEntity
  8
0
100
AcDbLine
 10
92.923758
 20
-236.914494
 30
0.0
 11
92.923758
 21
-238.618507
 31
0.0
  0
LINE
  5
39E
330
6B
100
AcDbEntity
  8
0
100
AcDbLine
 10
92.42375800000001
 20
-236.914494
 30
0.0
 11
92.923758
 21
-236.914494
 31
0.0
  0
LINE
  5
39F
330
6B
100
AcDbEntity
  8
0
100
AcDbLine
 10
92.42375800000001
 20
-236.914494
 30
0.0
 11
92.42375800000001
 21
-239.118507
 31
0.0
  0
LINE
  5
3A0
330
6B
100
AcDbEntity
  8
0
100
AcDbLine
 10
92.42375800000001
 20
-239.118507
 30
0.0
 11
94.42375799999998
 21
-239.118507
 31
0.0
  0
LINE
  5
3A1
330
6B
100
AcDbEntity
  8
0
100
AcDbLine
 10
94.42375799999998
 20
-239.118507
 30
0.0
 11
94.42375799999998
 21
-239.368507
 31
0.0
  0
LINE
  5
3A2
330
6B
100
AcDbEntity
  8
0
100
AcDbLine
 10
94.42375799999998
 20
-238.368507
 30
0.0
 11
94.42375799999998
 21
-238.618507
 31
0.0
  0
LINE
  5
3A3
330
6B
100
AcDbEntity
  8
0
100
AcDbLine
 10
88.073758
 20
-242.718507
 30
0.0
 11
87.07375799999999
 21
-242.718507
 31
0.0
  0
LINE
  5
3A4
330
6B
100
AcDbEntity
  8
0
100
AcDbLine
 10
97.273758
 20
-238.718507
 30
0.0
 11
98.273758
 21
-238.718507
 31
0.0
  0
LINE
  5
3A5
330
6B
100
AcDbEntity
  8
0
100
AcDbLine
 10
97.273758
 20
-242.718507
 30
0.0
 11
98.273758
 21
-242.718507
 31
0.0
  0
TEXT
  5
3A6
330
6B
100
AcDbEntity
  8
0
100
AcDbText
 10
84.98429300000003
 20
-252.781944
 30
0.0
 40
2.127514
  1
PS
 50
90.00000300000001
100
AcDbText
  0
LINE
  5
3A7
330
6B
100
AcDbEntity
  8
0
100
AcDbLine
 10
83.86271999999998
 20
-254.125076
 30
0.0
 11
84.72554699999998
 21
-253.072134
 31
0.0
  0
LINE
  5
3A8
330
6B
100
AcDbEntity
  8
0
100
AcDbLine
 10
83.86271999999998
 20
-254.125076
 30
0.0
 11
82.999893
 21
-253.072134
 31
0.0
  0
LINE
  5
3A9
330
6B
100
AcDbEntity
  8
0
100
AcDbLine
 10
85.37375799999997
 20
-236.468507
 30
0.0
 11
85.37375799999997
 21
-244.968507
 31
0.0
  0
LINE
  5
3AA
330
6B
100
AcDbEntity
  8
0
100
AcDbLine
 10
83.86271999999998
 20
-247.586872
 30
0.0
 11
84.72554699999998
 21
-248.639814
 31
0.0
  0
LINE
  5
3AB
330
6B
100
AcDbEntity
  8
0
100
AcDbLine
 10
83.86271999999998
 20
-247.586872
 30
0.0
 11
82.999893
 21
-248.639814
 31
0.0
  0
TEXT
  5
3AC
330
6B
100
AcDbEntity
  8
0
100
AcDbText
 10
84.985511
 20
-246.676318
 30
0.0
 40
2.127514
  1
E
 50
90.00000300000001
100
AcDbText
  0
LINE
  5
3AD
330
6B
100
AcDbEntity
  8
0
100
AcDbLine
 10
87.07375799999999
 20
-236.468507
 30
0.0
 11
87.07375799999999
 21
-244.968507
 31
0.0
  0
LINE
  5
3AE
330
6B
100
AcDbEntity
  8
0
100
AcDbLine
 10
85.37375799999997
 20
-244.968507
 30
0.0
 11
87.07375799999999
 21
-244.968507
 31
0.0
  0
ARC
  5
3AF
330
6B
100
AcDbEntity
  8
0
 62
     3
100
AcDbCircle
 10
92.67375800000001
 20
-243.868507
 30
0.0
 40
14.0
100
AcDbArc
 50
112.024313
 51
67.97568699999999
  0
LINE
  5
3B0
330
6B
100
AcDbEntity
  8
0
 62
     3
100
AcDbLine
 10
97.923758
 20
-230.89016
 30
0.0
 11
97.923758
 21
-226.912682
 31
0.0
  0
LINE
  5
3B1
330
6B
100
AcDbEntity
  8
0
 62
     3
100
AcDbLine
 10
87.42375799999996
 20
-230.89016
 30
0.0
 11
87.42375799999996
 21
-226.912682
 31
0.0
  0
LINE
  5
3B2
330
6B
100
AcDbEntity
  8
0
 62
     3
100
AcDbLine
 10
89.47375799999996
 20
-246.893507
 30
0.0
 11
89.47375799999996
 21
-226.409341
 31
0.0
  0
LINE
  5
3B3
330
6B
100
AcDbEntity
  8
0
 62
     3
100
AcDbLine
 10
95.873758
 20
-246.893507
 30
0.0
 11
95.873758
 21
-226.409341
 31
0.0
  0
LINE
  5
3B4
330
6B
100
AcDbEntity
  8
0
 62
     3
100
AcDbLine
 10
-22.912029
 20
-255.364339
 30
0.0
 11
-22.912029
 21
-243.864339
 31
0.0
  0
LINE
  5
3B5
330
6B
100
AcDbEntity
  8
0
 62
     3
100
AcDbLine
 10
-23.412029
 20
-255.864339
 30
0.0
 11
-25.412029
 21
-255.864339
 31
0.0
  0
ARC
  5
3B6
330
6B
100
AcDbEntity
  8
0
 62
     3
100
AcDbCircle
 10
-25.412029
 20
-255.364339
 30
0.0
 40
0.5
100
AcDbArc
 50
180.0
 51
270.0
  0
ARC
  5
3B7
330
6B
100
AcDbEntity
  8
0
 62
     3
100
AcDbCircle
 10
-23.412029
 20
-255.364339
 30
0.0
 40
0.5
100
AcDbArc
 50
270.0
 51
0.0
  0
LINE
  5
3B8
330
6B
100
AcDbEntity
  8
0
 62
     3
100
AcDbLine
 10
-0.912029
 20
-262.246599
 30
0.0
 11
-3.912029
 21
-262.246599
 31
0.0
  0
LINE
  5
3B9
330
6B
100
AcDbEntity
  8
0
 62
     3
100
AcDbLine
 10
-7.981010999999997
 20
-259.888186
 30
0.0
 11
-10.912029
 21
-259.888186
 31
0.0
  0
LINE
  5
3BA
330
6B
100
AcDbEntity
  8
0
 62
     3
100
AcDbLine
 10
-14.912029
 20
-257.196695
 30
0.0
 11
-17.84979899999999
 21
-257.196695
 31
0.0
  0
LINE
  5
3BB
330
6B
100
AcDbEntity
  8
0
 62
     3
100
AcDbLine
 10
-14.912029
 20
-230.531983
 30
0.0
 11
-17.84979899999999
 21
-230.531983
 31
0.0
  0
LINE
  5
3BC
330
6B
100
AcDbEntity
  8
0
 62
     3
100
AcDbLine
 10
-7.981010999999997
 20
-227.840492
 30
0.0
 11
-10.912029
 21
-227.840492
 31
0.0
  0
LINE
  5
3BD
330
6B
100
AcDbEntity
  8
0
 62
     3
100
AcDbLine
 10
-0.912029
 20
-225.482079
 30
0.0
 11
-3.912029
 21
-225.482079
 31
0.0
  0
LINE
  5
3BE
330
6B
100
AcDbEntity
  8
0
 62
     3
100
AcDbLine
 10
-23.412029
 20
-231.864339
 30
0.0
 11
-25.412029
 21
-231.864339
 31
0.0
  0
ARC
  5
3BF
330
6B
100
AcDbEntity
  8
0
 62
     3
100
AcDbCircle
 10
-23.412029
 20
-232.364339
 30
0.0
 40
0.5
100
AcDbArc
 50
0.0
 51
90.0
  0
LINE
  5
3C0
330
6B
100
AcDbEntity
  8
0
 62
     3
100
AcDbLine
 10
-22.912029
 20
-232.364339
 30
0.0
 11
-22.912029
 21
-243.864339
 31
0.0
  0
ARC
  5
3C1
330
6B
100
AcDbEntity
  8
0
 62
     3
100
AcDbCircle
 10
-25.412029
 20
-232.364339
 30
0.0
 40
0.5
100
AcDbArc
 50
90.0
 51
180.0
  0
ARC
  5
3C2
330
6B
100
AcDbEntity
  8
0
 62
     3
100
AcDbCircle
 10
1.486472
 20
-246.482079
 30
0.0
 40
20.0
100
AcDbArc
 50
90.0
 51
96.887775
  0
ARC
  5
3C3
330
6B
100
AcDbEntity
  8
0
 62
     3
100
AcDbCircle
 10
1.486472
 20
-246.482079
 30
0.0
 40
20.0
100
AcDbArc
 50
105.659805
 51
116.584792
  0
ARC
  5
3C4
330
6B
100
AcDbEntity
  8
0
 62
     3
100
AcDbCircle
 10
-31.456877
 20
-180.652092
 30
0.0
 40
53.61284799999999
100
AcDbArc
 50
295.968543
 51
296.584792
  0
ARC
  5
3C5
330
6B
100
AcDbEntity
  8
0
 62
     3
100
AcDbCircle
 10
-31.456877
 20
-180.652092
 30
0.0
 40
53.61284799999999
100
AcDbArc
 50
280.205701
 51
284.702643
  0
ARC
  5
3C6
330
6B
100
AcDbEntity
  8
0
 62
     3
100
AcDbCircle
 10
-31.456877
 20
-180.652092
 30
0.0
 40
53.61284799999999
100
AcDbArc
 50
287.974795
 51
292.532508
  0
ARC
  5
3C7
330
6B
100
AcDbEntity
  8
0
 62
     3
100
AcDbCircle
 10
-31.456877
 20
-307.076586
 30
0.0
 40
53.61284799999999
100
AcDbArc
 50
75.29735699999998
 51
79.79429899999998
  0
ARC
  5
3C8
330
6B
100
AcDbEntity
  8
0
 62
     3
100
AcDbCircle
 10
-31.456877
 20
-307.076586
 30
0.0
 40
53.61284799999999
100
AcDbArc
 50
63.41520799999999
 51
64.03145699999999
  0
ARC
  5
3C9
330
6B
100
AcDbEntity
  8
0
 62
     3
100
AcDbCircle
 10
-31.456877
 20
-307.076586
 30
0.0
 40
53.61284799999999
100
AcDbArc
 50
67.467492
 51
72.025205
  0
ARC
  5
3CA
330
6B
100
AcDbEntity
  8
0
 62
     3
100
AcDbCircle
 10
1.486472
 20
-241.246599
 30
0.0
 40
20.0
100
AcDbArc
 50
263.112225
 51
270.0
  0
ARC
  5
3CB
330
6B
100
AcDbEntity
  8
0
 62
     3
100
AcDbCircle
 10
1.486472
 20
-241.246599
 30
0.0
 40
20.0
100
AcDbArc
 50
243.415208
 51
254.3401950000001
  0
LINE
  5
3CC
330
6B
100
AcDbEntity
  8
0
 62
     3
100
AcDbLine
 10
-21.95761
 20
-233.416677
 30
0.0
 11
-22.912029
 21
-233.565003
 31
0.0
  0
LINE
  5
3CD
330
6B
100
AcDbEntity
  8
0
 62
     3
100
AcDbLine
 10
-21.95761
 20
-254.312001
 30
0.0
 11
-22.912029
 21
-254.163675
 31
0.0
  0
LINE
  5
3CE
330
6B
100
AcDbEntity
  8
0
 62
     3
100
AcDbLine
 10
-25.45761
 20
-310.163452
 30
0.0
 11
-23.412029
 21
-310.163452
 31
0.0
  0
ARC
  5
3CF
330
6B
100
AcDbEntity
  8
0
 62
     3
100
AcDbCircle
 10
-23.412029
 20
-309.663452
 30
0.0
 40
0.5
100
AcDbArc
 50
270.0
 51
0.0
  0
LINE
  5
3D0
330
6B
100
AcDbEntity
  8
0
 62
     3
100
AcDbLine
 10
-25.456877
 20
-286.163452
 30
0.0
 11
-23.412029
 21
-286.163452
 31
0.0
  0
ARC
  5
3D1
330
6B
100
AcDbEntity
  8
0
 62
     3
100
AcDbCircle
 10
-23.412029
 20
-286.663452
 30
0.0
 40
0.5
100
AcDbArc
 50
0.0
 51
90.0
  0
LINE
  5
3D2
330
6B
100
AcDbEntity
  8
0
 62
     3
100
AcDbLine
 10
-3.712029
 20
-281.663452
 30
0.0
 11
-1.112029
 21
-281.663452
 31
0.0
  0
LINE
  5
3D3
330
6B
100
AcDbEntity
  8
0
 62
     3
100
AcDbLine
 10
-10.712029
 20
-283.663452
 30
0.0
 11
-8.181010999999998
 21
-283.663452
 31
0.0
  0
LINE
  5
3D4
330
6B
100
AcDbEntity
  8
0
 62
     3
100
AcDbLine
 10
-17.649799
 20
-286.663452
 30
0.0
 11
-15.112029
 21
-286.663452
 31
0.0
  0
ARC
  5
3D5
330
6B
100
AcDbEntity
  8
0
 62
     3
100
AcDbCircle
 10
-25.45761
 20
-309.663452
 30
0.0
 40
0.5
100
AcDbArc
 50
180.0
 51
270.0
  0
ARC
  5
3D6
330
6B
100
AcDbEntity
  8
0
 62
     3
100
AcDbCircle
 10
-25.456877
 20
-286.663452
 30
0.0
 40
0.5
100
AcDbArc
 50
90.0
 51
180.0
  0
ARC
  5
3D7
330
6B
100
AcDbEntity
  8
0
 62
     3
100
AcDbCircle
 10
-1.112029
 20
-281.863452
 30
0.0
 40
0.2
100
AcDbArc
 50
0.0
 51
90.0
  0
ARC
  5
3D8
330
6B
100
AcDbEntity
  8
0
 62
     3
100
AcDbCircle
 10
-3.712029
 20
-281.863452
 30
0.0
 40
0.2
100
AcDbArc
 50
90.0
 51
180.0
  0
ARC
  5
3D9
330
6B
100
AcDbEntity
  8
0
 62
     3
100
AcDbCircle
 10
-8.181010999999998
 20
-283.863452
 30
0.0
 40
0.2
100
AcDbArc
 50
0.0
 51
90.0
  0
ARC
  5
3DA
330
6B
100
AcDbEntity
  8
0
 62
     3
100
AcDbCircle
 10
-10.712029
 20
-283.863452
 30
0.0
 40
0.2
100
AcDbArc
 50
90.0
 51
180.0
  0
ARC
  5
3DB
330
6B
100
AcDbEntity
  8
0
 62
     3
100
AcDbCircle
 10
-15.112029
 20
-286.863452
 30
0.0
 40
0.2
100
AcDbArc
 50
0.0
 51
90.0
  0
ARC
  5
3DC
330
6B
100
AcDbEntity
  8
0
 62
     3
100
AcDbCircle
 10
-17.649799
 20
-286.863452
 30
0.0
 40
0.2
100
AcDbArc
 50
90.0
 51
180.0
  0
LINE
  5
3DD
330
6B
100
AcDbEntity
  8
0
 62
     3
100
AcDbLine
 10
-17.997879
 20
-286.728394
 30
0.0
 11
-22.851168
 21
-287.875861
 31
0.0
  0
ARC
  5
3DE
330
6B
100
AcDbEntity
  8
0
 62
     3
100
AcDbCircle
 10
-48.477185
 20
-132.898189
 30
0.0
 40
157.837025
100
AcDbArc
 50
287.539074
 51
290.578931
  0
ARC
  5
3DF
330
6B
100
AcDbEntity
  8
0
 62
     3
100
AcDbCircle
 10
-48.477185
 20
-132.898189
 30
0.0
 40
157.837025
100
AcDbArc
 50
282.278108
 51
283.768508
  0
ARC
  5
3E0
330
6B
100
AcDbEntity
  8
0
 62
     3
100
AcDbCircle
 10
-48.477185
 20
-132.898189
 30
0.0
 40
157.837025
100
AcDbArc
 50
284.866608
 51
286.400462
  0
LINE
  5
3E1
330
6B
100
AcDbEntity
  8
0
 62
     3
100
AcDbLine
 10
-3.712029
 20
-314.663452
 30
0.0
 11
-1.112029
 21
-314.663452
 31
0.0
  0
LINE
  5
3E2
330
6B
100
AcDbEntity
  8
0
 62
     3
100
AcDbLine
 10
-10.712029
 20
-312.663452
 30
0.0
 11
-8.181010999999998
 21
-312.663452
 31
0.0
  0
LINE
  5
3E3
330
6B
100
AcDbEntity
  8
0
 62
     3
100
AcDbLine
 10
-17.649799
 20
-309.663452
 30
0.0
 11
-15.112029
 21
-309.663452
 31
0.0
  0
ARC
  5
3E4
330
6B
100
AcDbEntity
  8
0
 62
     3
100
AcDbCircle
 10
-1.112029
 20
-314.463452
 30
0.0
 40
0.2
100
AcDbArc
 50
270.0
 51
0.0
  0
ARC
  5
3E5
330
6B
100
AcDbEntity
  8
0
 62
     3
100
AcDbCircle
 10
-3.712029
 20
-314.463452
 30
0.0
 40
0.2
100
AcDbArc
 50
180.0
 51
270.0
  0
ARC
  5
3E6
330
6B
100
AcDbEntity
  8
0
 62
     3
100
AcDbCircle
 10
-8.181010999999998
 20
-312.463452
 30
0.0
 40
0.2
100
AcDbArc
 50
270.0
 51
0.0
  0
ARC
  5
3E7
330
6B
100
AcDbEntity
  8
0
 62
     3
100
AcDbCircle
 10
-10.712029
 20
-312.463452
 30
0.0
 40
0.2
100
AcDbArc
 50
180.0
 51
270.0
  0
ARC
  5
3E8
330
6B
100
AcDbEntity
  8
0
 62
     3
100
AcDbCircle
 10
-15.112029
 20
-309.463452
 30
0.0
 40
0.2
100
AcDbArc
 50
270.0
 51
0.0
  0
ARC
  5
3E9
330
6B
100
AcDbEntity
  8
0
 62
     3
100
AcDbCircle
 10
-17.649799
 20
-309.463452
 30
0.0
 40
0.2
100
AcDbArc
 50
180.0
 51
270.0
  0
LINE
  5
3EA
330
6B
100
AcDbEntity
  8
0
 62
     3
100
AcDbLine
 10
-17.997879
 20
-309.598509
 30
0.0
 11
-22.851168
 21
-308.451043
 31
0.0
  0
ARC
  5
3EB
330
6B
100
AcDbEntity
  8
0
 62
     3
100
AcDbCircle
 10
-48.477185
 20
-463.428715
 30
0.0
 40
157.837025
100
AcDbArc
 50
69.42106899999997
 51
72.460926
  0
ARC
  5
3EC
330
6B
100
AcDbEntity
  8
0
 62
     3
100
AcDbCircle
 10
-48.477185
 20
-463.428715
 30
0.0
 40
157.837025
100
AcDbArc
 50
76.231492
 51
77.72189200000003
  0
ARC
  5
3ED
330
6B
100
AcDbEntity
  8
0
 62
     3
100
AcDbCircle
 10
-48.477185
 20
-463.428715
 30
0.0
 40
157.837025
100
AcDbArc
 50
73.59953799999998
 51
75.133392
  0
TEXT
  5
413
330
6B
100
AcDbEntity
  8
0
 62
     3
100
AcDbText
 10
110.271491
 20
-369.305358
 30
0.0
 40
3.2
  1
2004.11.22
  7
高3.2
100
AcDbText
  0
TEXT
  5
414
330
6B
100
AcDbEntity
  8
0
 62
     3
100
AcDbText
 10
55.707777
 20
-354.909329
 30
0.0
 40
4.5
  1
PP-05
  7
高4.5
100
AcDbText
  0
TEXT
  5
415
330
6B
100
AcDbEntity
  8
0
 62
     3
100
AcDbText
 10
50.735596
 20
-347.674688761132
 30
0.0
 40
4.5
  1
スケルトンポッキンプラグ
 41
0.6
  7
高4.5
100
AcDbText
  0
TEXT
  5
416
330
6B
100
AcDbEntity
  8
0
 62
     3
100
AcDbText
 10
48.419051
 20
-361.892365
 30
0.0
 40
3.2
  1
PVC樹脂
  7
高3.2
100
AcDbText
  0
TEXT
  5
417
330
6B
100
AcDbEntity
  8
0
 62
     3
100
AcDbText
 10
79.99751899999998
 20
-368.9055793927263
 30
0.0
 40
3.2
  1
1/1
  7
高3.2
100
AcDbText
  0
LINE
  5
418
330
6B
100
AcDbEntity
  8
0
 62
     3
100
AcDbLine
 10
95.873758
 20
-248.393507
 30
0.0
 11
95.873758
 21
-256.093507
 31
0.0
  0
LINE
  5
419
330
6B
100
AcDbEntity
  8
0
 62
     3
100
AcDbLine
 10
89.47375799999996
 20
-256.093507
 30
0.0
 11
95.873758
 21
-256.093507
 31
0.0
  0
LINE
  5
41A
330
6B
100
AcDbEntity
  8
0
 62
     3
100
AcDbLine
 10
89.47375799999996
 20
-248.393507
 30
0.0
 11
89.47375799999996
 21
-256.093507
 31
0.0
  0
LINE
  5
420
330
6B
100
AcDbEntity
  8
0
100
AcDbLine
 10
101.679992
 20
-251.5362819999999
 30
0.0
 11
109.731435
 21
-262.474884
 31
0.0
  0
LINE
  5
421
330
6B
100
AcDbEntity
  8
0
100
AcDbLine
 10
109.731435
 20
-262.474884
 30
0.0
 11
126.231435
 21
-262.474884
 31
0.0
  0
TEXT
  5
422
330
6B
100
AcDbEntity
  8
0
 62
     4
100
AcDbText
 10
112.481435
 20
-261.474884
 30
0.0
 40
3.2
  1
定格表示
 41
0.716146
100
AcDbText
  0
LINE
  5
428
330
6B
100
AcDbEntity
  8
0
100
AcDbLine
 10
81.721558
 20
-249.857826
 30
0.0
 11
72.54025300000002
 21
-262.474884
 31
0.0
  0
LINE
  5
429
330
6B
100
AcDbEntity
  8
0
100
AcDbLine
 10
72.54025300000002
 20
-262.474884
 30
0.0
 11
56.04025299999999
 21
-262.474884
 31
0.0
  0
TEXT
  5
42A
330
6B
100
AcDbEntity
  8
0
 62
     4
100
AcDbText
 10
58.790253
 20
-261.474884
 30
0.0
 40
3.2
  1
認証表示
 41
0.716146
100
AcDbText
  0
LINE
  5
430
330
6B
100
AcDbEntity
  8
0
100
AcDbLine
 10
-35.819555
 20
-282.701152
 30
0.0
 11
-48.629036
 21
-275.10164
 31
0.0
  0
LINE
  5
431
330
6B
100
AcDbEntity
  8
0
100
AcDbLine
 10
-48.629036
 20
-275.10164
 30
0.0
 11
-73.379036
 21
-275.10164
 31
0.0
  0
TEXT
  5
432
330
6B
100
AcDbEntity
  8
0
 62
     4
100
AcDbText
 10
-70.629036
 20
-274.10164
 30
0.0
 40
3.2
  1
コードクリップ
 41
0.716146
100
AcDbText
  0
LINE
  5
433
330
6B
100
AcDbEntity
  8
0
 62
     3
100
AcDbLine
 10
-34.638406
 20
-317.042269
 30
0.0
 11
-35.165527
 21
-317.444303
 31
0.0
  0
LINE
  5
434
330
6B
100
AcDbEntity
  8
0
100
AcDbLine
 10
-36.100776
 20
-316.480329
 30
0.0
 11
-36.100776
 21
-317.042269
 31
0.0
  0
LINE
  5
43A
330
6B
100
AcDbEntity
  8
0
100
AcDbLine
 10
-87.089745
 20
-258.340743
 30
0.0
 11
-97.91308700000001
 21
-270.769073
 31
0.0
  0
LINE
  5
43B
330
6B
100
AcDbEntity
  8
0
100
AcDbLine
 10
-97.91308700000001
 20
-270.769073
 30
0.0
 11
-117.163087
 21
-270.769073
 31
0.0
  0
TEXT
  5
43C
330
6B
100
AcDbEntity
  8
0
 62
     4
100
AcDbText
 10
-114.413087
 20
-269.769073
 30
0.0
 40
3.2
  1
アース線穴
 41
0.716146
100
AcDbText
  0
TEXT
  5
43D
330
6B
100
AcDbEntity
  8
0
 62
     3
100
AcDbText
 10
71.08308718603085
 20
-310.228005
 30
0.0
 40
3.2
  1
2P,2PE付きプラグ兼用型
  7
高3.2
100
AcDbText
  0
TEXT
  5
43E
330
6B
100
AcDbEntity
  8
0
 62
     3
100
AcDbText
 10
98.696324
 20
-378.4220399659645
 30
0.0
 40
6.299999999999998
  1
PP-05
  7
高6.3
100
AcDbText
  0
LINE
  5
440
330
6B
100
AcDbEntity
  8
0
 62
     3
100
AcDbLine
 10
17.675646
 20
-280.163452
 30
0.0
 11
19.039068
 21
-280.163452
 31
0.0
  0
LINE
  5
441
330
6B
100
AcDbEntity
  8
0
 62
     3
100
AcDbLine
 10
17.675646
 20
-316.163452
 30
0.0
 11
19.039068
 21
-316.163452
 31
0.0
  0
CIRCLE
  5
442
330
6B
100
AcDbEntity
  8
0
 62
     3
100
AcDbCircle
 10
92.67375800000001
 20
-243.868507
 30
0.0
 40
19.25
  0
LINE
  5
44B
330
6B
100
AcDbEntity
  8
0
 62
     3
100
AcDbLine
 10
-0.912029
 20
-226.62642
 30
0.0
 11
-0.912029
 21
-225.482079
 31
0.0
  0
LINE
  5
44C
330
6B
100
AcDbEntity
  8
0
 62
     3
100
AcDbLine
 10
-3.912029
 20
-227.224452
 30
0.0
 11
-3.912029
 21
-225.482079
 31
0.0
  0
LINE
  5
44D
330
6B
100
AcDbEntity
  8
0
 62
     3
100
AcDbLine
 10
-7.981010999999997
 20
-228.851897
 30
0.0
 11
-7.981010999999997
 21
-227.840492
 31
0.0
  0
LINE
  5
44E
330
6B
100
AcDbEntity
  8
0
 62
     3
100
AcDbLine
 10
-10.912029
 20
-230.172256
 30
0.0
 11
-10.912029
 21
-227.840492
 31
0.0
  0
LINE
  5
44F
330
6B
100
AcDbEntity
  8
0
 62
     3
100
AcDbLine
 10
-14.912029
 20
-231.648224
 30
0.0
 11
-14.912029
 21
-230.531983
 31
0.0
  0
LINE
  5
450
330
6B
100
AcDbEntity
  8
0
 62
     3
100
AcDbLine
 10
-17.84979899999999
 20
-232.509444
 30
0.0
 11
-17.84979899999999
 21
-230.531983
 31
0.0
  0
LINE
  5
451
330
6B
100
AcDbEntity
  8
0
 62
     3
100
AcDbLine
 10
-17.84979899999999
 20
-255.219234
 30
0.0
 11
-17.84979899999999
 21
-257.196695
 31
0.0
  0
LINE
  5
452
330
6B
100
AcDbEntity
  8
0
 62
     3
100
AcDbLine
 10
-14.912029
 20
-256.080454
 30
0.0
 11
-14.912029
 21
-257.196695
 31
0.0
  0
LINE
  5
453
330
6B
100
AcDbEntity
  8
0
 62
     3
100
AcDbLine
 10
-10.912029
 20
-257.556422
 30
0.0
 11
-10.912029
 21
-259.888186
 31
0.0
  0
LINE
  5
454
330
6B
100
AcDbEntity
  8
0
 62
     3
100
AcDbLine
 10
-7.981010999999997
 20
-258.876781
 30
0.0
 11
-7.981010999999997
 21
-259.888186
 31
0.0
  0
LINE
  5
455
330
6B
100
AcDbEntity
  8
0
 62
     3
100
AcDbLine
 10
-3.912029
 20
-260.504226
 30
0.0
 11
-3.912029
 21
-262.246599
 31
0.0
  0
LINE
  5
456
330
6B
100
AcDbEntity
  8
0
 62
     3
100
AcDbLine
 10
-0.912029
 20
-261.102258
 30
0.0
 11
-0.912029
 21
-262.246599
 31
0.0
  0
LINE
  5
457
330
6B
100
AcDbEntity
  8
0
100
AcDbLine
 10
-3.412028999999998
 20
-236.864339
 30
0.0
 11
-1.412028999999999
 21
-236.864339
 31
0.0
  0
ARC
  5
458
330
6B
100
AcDbEntity
  8
0
100
AcDbCircle
 10
-1.412028999999999
 20
-236.364339
 30
0.0
 40
0.5
100
AcDbArc
 50
270.0
 51
0.0
  0
ARC
  5
459
330
6B
100
AcDbEntity
  8
0
100
AcDbCircle
 10
-3.412028999999998
 20
-236.364339
 30
0.0
 40
0.5
100
AcDbArc
 50
180.0
 51
270.0
  0
LINE
  5
45A
330
6B
100
AcDbEntity
  8
0
100
AcDbLine
 10
-10.412029
 20
-236.864339
 30
0.0
 11
-8.481011
 21
-236.864339
 31
0.0
  0
ARC
  5
45B
330
6B
100
AcDbEntity
  8
0
100
AcDbCircle
 10
-8.481011
 20
-236.364339
 30
0.0
 40
0.5
100
AcDbArc
 50
270.0
 51
0.0
  0
ARC
  5
45C
330
6B
100
AcDbEntity
  8
0
100
AcDbCircle
 10
-10.412029
 20
-236.364339
 30
0.0
 40
0.5
100
AcDbArc
 50
180.0
 51
270.0
  0
LINE
  5
45D
330
6B
100
AcDbEntity
  8
0
100
AcDbLine
 10
-0.912029
 20
-226.62642
 30
0.0
 11
-0.912029
 21
-236.364339
 31
0.0
  0
LINE
  5
45E
330
6B
100
AcDbEntity
  8
0
100
AcDbLine
 10
-3.912029
 20
-227.224452
 30
0.0
 11
-3.912029
 21
-236.364339
 31
0.0
  0
LINE
  5
45F
330
6B
100
AcDbEntity
  8
0
100
AcDbLine
 10
-7.981010999999997
 20
-228.851897
 30
0.0
 11
-7.981010999999997
 21
-236.364339
 31
0.0
  0
LINE
  5
460
330
6B
100
AcDbEntity
  8
0
100
AcDbLine
 10
-10.912029
 20
-230.172256
 30
0.0
 11
-10.912029
 21
-236.364339
 31
0.0
  0
ARC
  5
461
330
6B
100
AcDbEntity
  8
0
100
AcDbCircle
 10
-12.994557
 20
-243.864339
 30
0.0
 40
5.0
100
AcDbArc
 50
109.471221
 51
180.0
  0
ARC
  5
462
330
6B
100
AcDbEntity
  8
0
100
AcDbCircle
 10
-7.994557
 20
-258.006475
 30
0.0
 40
20.0
100
AcDbArc
 50
70.528779
 51
109.471221
  0
ARC
  5
463
330
6B
100
AcDbEntity
  8
0
100
AcDbCircle
 10
-17.349799
 20
-237.364339
 30
0.0
 40
0.5
100
AcDbArc
 50
180.0
 51
270.0
  0
LINE
  5
464
330
6B
100
AcDbEntity
  8
0
100
AcDbLine
 10
-17.349799
 20
-237.864339
 30
0.0
 11
-15.412029
 21
-237.864339
 31
0.0
  0
ARC
  5
465
330
6B
100
AcDbEntity
  8
0
100
AcDbCircle
 10
-15.412029
 20
-237.364339
 30
0.0
 40
0.5
100
AcDbArc
 50
270.0
 51
0.0
  0
LINE
  5
466
330
6B
100
AcDbEntity
  8
0
100
AcDbLine
 10
-14.912029
 20
-231.648224
 30
0.0
 11
-14.912029
 21
-237.364339
 31
0.0
  0
LINE
  5
467
330
6B
100
AcDbEntity
  8
0
100
AcDbLine
 10
-17.84979899999999
 20
-232.509444
 30
0.0
 11
-17.84979899999999
 21
-237.364339
 31
0.0
  0
ARC
  5
468
330
6B
100
AcDbEntity
  8
0
100
AcDbCircle
 10
-2.994557
 20
-243.864339
 30
0.0
 40
5.0
100
AcDbArc
 50
0.0
 51
70.528779
  0
ARC
  5
469
330
6B
100
AcDbEntity
  8
0
100
AcDbCircle
 10
-2.994557
 20
-243.864339
 30
0.0
 40
5.0
100
AcDbArc
 50
289.471221
 51
0.0
  0
ARC
  5
46A
330
6B
100
AcDbEntity
  8
0
100
AcDbCircle
 10
-7.994557
 20
-229.722203
 30
0.0
 40
20.0
100
AcDbArc
 50
250.528779
 51
289.471221
  0
ARC
  5
46B
330
6B
100
AcDbEntity
  8
0
100
AcDbCircle
 10
-12.994557
 20
-243.864339
 30
0.0
 40
5.0
100
AcDbArc
 50
180.0
 51
250.528779
  0
LINE
  5
46C
330
6B
100
AcDbEntity
  8
0
100
AcDbLine
 10
-3.412028999999998
 20
-250.864339
 30
0.0
 11
-1.412028999999999
 21
-250.864339
 31
0.0
  0
ARC
  5
46D
330
6B
100
AcDbEntity
  8
0
100
AcDbCircle
 10
-1.412028999999999
 20
-251.364339
 30
0.0
 40
0.5
100
AcDbArc
 50
0.0
 51
90.0
  0
ARC
  5
46E
330
6B
100
AcDbEntity
  8
0
100
AcDbCircle
 10
-3.412028999999998
 20
-251.364339
 30
0.0
 40
0.5
100
AcDbArc
 50
90.0
 51
180.0
  0
LINE
  5
46F
330
6B
100
AcDbEntity
  8
0
100
AcDbLine
 10
-10.412029
 20
-250.864339
 30
0.0
 11
-8.481011
 21
-250.864339
 31
0.0
  0
ARC
  5
470
330
6B
100
AcDbEntity
  8
0
100
AcDbCircle
 10
-8.481011
 20
-251.364339
 30
0.0
 40
0.5
100
AcDbArc
 50
0.0
 51
90.0
  0
ARC
  5
471
330
6B
100
AcDbEntity
  8
0
100
AcDbCircle
 10
-10.412029
 20
-251.364339
 30
0.0
 40
0.5
100
AcDbArc
 50
90.0
 51
180.0
  0
LINE
  5
472
330
6B
100
AcDbEntity
  8
0
100
AcDbLine
 10
-17.349799
 20
-249.864339
 30
0.0
 11
-15.412029
 21
-249.864339
 31
0.0
  0
ARC
  5
473
330
6B
100
AcDbEntity
  8
0
100
AcDbCircle
 10
-15.412029
 20
-250.364339
 30
0.0
 40
0.5
100
AcDbArc
 50
0.0
 51
90.0
  0
ARC
  5
474
330
6B
100
AcDbEntity
  8
0
100
AcDbCircle
 10
-17.349799
 20
-250.364339
 30
0.0
 40
0.5
100
AcDbArc
 50
90.0
 51
180.0
  0
LINE
  5
475
330
6B
100
AcDbEntity
  8
0
100
AcDbLine
 10
-17.84979899999999
 20
-255.219234
 30
0.0
 11
-17.84979899999999
 21
-250.364339
 31
0.0
  0
LINE
  5
476
330
6B
100
AcDbEntity
  8
0
100
AcDbLine
 10
-14.912029
 20
-256.080454
 30
0.0
 11
-14.912029
 21
-250.364339
 31
0.0
  0
LINE
  5
477
330
6B
100
AcDbEntity
  8
0
100
AcDbLine
 10
-10.912029
 20
-257.556422
 30
0.0
 11
-10.912029
 21
-251.364339
 31
0.0
  0
LINE
  5
478
330
6B
100
AcDbEntity
  8
0
100
AcDbLine
 10
-7.981010999999997
 20
-258.876781
 30
0.0
 11
-7.981010999999997
 21
-251.364339
 31
0.0
  0
LINE
  5
479
330
6B
100
AcDbEntity
  8
0
100
AcDbLine
 10
-3.912029
 20
-260.504226
 30
0.0
 11
-3.912029
 21
-251.364339
 31
0.0
  0
LINE
  5
47A
330
6B
100
AcDbEntity
  8
0
100
AcDbLine
 10
-0.912029
 20
-261.102258
 30
0.0
 11
-0.912029
 21
-251.364339
 31
0.0
  0
LINE
  5
47B
330
6B
100
AcDbEntity
  8
0
100
AcDbLine
 10
34.539068
 20
-243.912737
 30
0.0
 11
34.539068
 21
-237.612737
 31
0.0
  0
LINE
  5
47C
330
6B
100
AcDbEntity
  8
0
100
AcDbLine
 10
-25.95761
 20
-252.864339
 30
0.0
 11
-25.95761
 21
-234.864339
 31
0.0
  0
LINE
  5
47D
330
6B
100
AcDbEntity
  8
0
100
AcDbLine
 10
-36.95761
 20
-253.364339
 30
0.0
 11
-36.95761
 21
-234.364339
 31
0.0
  0
CIRCLE
  5
47E
330
6B
100
AcDbEntity
  8
0
100
AcDbCircle
 10
-86.588819
 20
-243.864339
 30
0.0
 40
6.805839999999999
  0
CIRCLE
  5
47F
330
6B
100
AcDbEntity
  8
0
100
AcDbCircle
 10
-86.588819
 20
-243.864339
 30
0.0
 40
17.496513
  0
LINE
  5
480
330
6B
100
AcDbEntity
  8
0
100
AcDbLine
 10
95.304259
 20
-274.7900669999999
 30
0.0
 11
100.344259
 21
-274.7900669999999
 31
0.0
  0
LINE
  5
481
330
6B
100
AcDbEntity
  8
0
100
AcDbLine
 10
81.104259
 20
-288.390067
 30
0.0
 11
109.504393
 21
-288.390067
 31
0.0
  0
LINE
  5
482
330
6B
100
AcDbEntity
  8
0
100
AcDbLine
 10
81.70425899999996
 20
-293.190067
 30
0.0
 11
108.904393
 21
-293.190067
 31
0.0
  0
LINE
  5
483
330
6B
100
AcDbEntity
  8
0
100
AcDbLine
 10
36.039068
 20
-291.3709100000001
 30
0.0
 11
36.039068
 21
-292.255994
 31
0.0
  0
LINE
  5
484
330
6B
100
AcDbEntity
  8
0
100
AcDbLine
 10
19.039068
 20
-291.063452
 30
0.0
 11
34.733939
 21
-291.063452
 31
0.0
  0
LINE
  5
485
330
6B
100
AcDbEntity
  8
0
100
AcDbLine
 10
19.039068
 20
-292.563452
 30
0.0
 11
34.733939
 21
-292.563452
 31
0.0
  0
LINE
  5
486
330
6B
100
AcDbEntity
  8
0
100
AcDbLine
 10
34.733939
 20
-291.063452
 30
0.0
 11
36.039068
 21
-291.3709100000001
 31
0.0
  0
LINE
  5
487
330
6B
100
AcDbEntity
  8
0
100
AcDbLine
 10
34.733939
 20
-292.563452
 30
0.0
 11
36.039068
 21
-292.255994
 31
0.0
  0
LINE
  5
488
330
6B
100
AcDbEntity
  8
0
100
AcDbLine
 10
36.039068
 20
-304.955994
 30
0.0
 11
36.039068
 21
-304.07091
 31
0.0
  0
LINE
  5
489
330
6B
100
AcDbEntity
  8
0
100
AcDbLine
 10
19.039068
 20
-305.263452
 30
0.0
 11
34.733939
 21
-305.263452
 31
0.0
  0
LINE
  5
48A
330
6B
100
AcDbEntity
  8
0
100
AcDbLine
 10
19.039068
 20
-303.7634520000001
 30
0.0
 11
34.733939
 21
-303.7634520000001
 31
0.0
  0
LINE
  5
48B
330
6B
100
AcDbEntity
  8
0
100
AcDbLine
 10
34.733939
 20
-305.263452
 30
0.0
 11
36.039068
 21
-304.955994
 31
0.0
  0
LINE
  5
48C
330
6B
100
AcDbEntity
  8
0
100
AcDbLine
 10
34.733939
 20
-303.7634520000001
 30
0.0
 11
36.039068
 21
-304.07091
 31
0.0
  0
LINE
  5
48D
330
6B
100
AcDbEntity
  8
0
 62
     3
100
AcDbLine
 10
-0.912029
 20
-283.397632
 30
0.0
 11
-0.912029
 21
-281.863452
 31
0.0
  0
LINE
  5
48E
330
6B
100
AcDbEntity
  8
0
 62
     3
100
AcDbLine
 10
-3.912029
 20
-284.313093
 30
0.0
 11
-3.912029
 21
-281.863452
 31
0.0
  0
LINE
  5
48F
330
6B
100
AcDbEntity
  8
0
 62
     3
100
AcDbLine
 10
-7.981010999999997
 20
-285.451741
 30
0.0
 11
-7.981010999999997
 21
-283.863452
 31
0.0
  0
LINE
  5
490
330
6B
100
AcDbEntity
  8
0
 62
     3
100
AcDbLine
 10
-10.912029
 20
-286.199805
 30
0.0
 11
-10.912029
 21
-283.863452
 31
0.0
  0
LINE
  5
491
330
6B
100
AcDbEntity
  8
0
 62
     3
100
AcDbLine
 10
-14.912029
 20
-287.124992
 30
0.0
 11
-14.912029
 21
-286.863452
 31
0.0
  0
LINE
  5
492
330
6B
100
AcDbEntity
  8
0
 62
     3
100
AcDbLine
 10
-14.912029
 20
-309.201912
 30
0.0
 11
-14.912029
 21
-309.463452
 31
0.0
  0
LINE
  5
493
330
6B
100
AcDbEntity
  8
0
 62
     3
100
AcDbLine
 10
-10.912029
 20
-310.1270990000001
 30
0.0
 11
-10.912029
 21
-312.463452
 31
0.0
  0
LINE
  5
494
330
6B
100
AcDbEntity
  8
0
 62
     3
100
AcDbLine
 10
-7.981010999999997
 20
-310.875163
 30
0.0
 11
-7.981010999999997
 21
-312.463452
 31
0.0
  0
LINE
  5
495
330
6B
100
AcDbEntity
  8
0
 62
     3
100
AcDbLine
 10
-3.912029
 20
-312.013811
 30
0.0
 11
-3.912029
 21
-314.463452
 31
0.0
  0
LINE
  5
496
330
6B
100
AcDbEntity
  8
0
 62
     3
100
AcDbLine
 10
-0.912029
 20
-312.929272
 30
0.0
 11
-0.912029
 21
-314.463452
 31
0.0
  0
LINE
  5
497
330
6B
100
AcDbEntity
  8
0
100
AcDbLine
 10
11.359021
 20
-280.663452
 30
0.0
 11
11.359021
 21
-315.663452
 31
0.0
  0
LINE
  5
498
330
6B
100
AcDbEntity
  8
0
100
AcDbLine
 10
17.675646
 20
-280.163452
 30
0.0
 11
17.675646
 21
-316.163452
 31
0.0
  0
LINE
  5
499
330
6B
100
AcDbEntity
  8
0
 62
     3
100
AcDbLine
 10
-22.912029
 20
-287.89025
 30
0.0
 11
-22.912029
 21
-286.663452
 31
0.0
  0
LINE
  5
49A
330
6B
100
AcDbEntity
  8
0
 62
     3
100
AcDbLine
 10
-22.912029
 20
-308.436654
 30
0.0
 11
-22.912029
 21
-309.663452
 31
0.0
  0
ARC
  5
49B
330
6B
100
AcDbEntity
  8
0
100
AcDbCircle
 10
-9.947450999999999
 20
-298.163452
 30
0.0
 40
3.830526999999998
100
AcDbArc
 50
308.447139
 51
51.552861
  0
LINE
  5
49C
330
6B
100
AcDbEntity
  8
0
100
AcDbLine
 10
-7.565658999999999
 20
-295.163452
 30
0.0
 11
-25.95761
 21
-295.163452
 31
0.0
  0
LINE
  5
49D
330
6B
100
AcDbEntity
  8
0
100
AcDbLine
 10
-14.912029
 20
-309.201912
 30
0.0
 11
-14.912029
 21
-301.163452
 31
0.0
  0
LINE
  5
49E
330
6B
100
AcDbEntity
  8
0
100
AcDbLine
 10
-10.912029
 20
-310.1270990000001
 30
0.0
 11
-10.912029
 21
-301.163452
 31
0.0
  0
LINE
  5
49F
330
6B
100
AcDbEntity
  8
0
100
AcDbLine
 10
-7.981010999999997
 20
-310.875163
 30
0.0
 11
-7.981010999999997
 21
-301.163452
 31
0.0
  0
LINE
  5
4A0
330
6B
100
AcDbEntity
  8
0
100
AcDbLine
 10
-3.912029
 20
-312.013811
 30
0.0
 11
-3.912029
 21
-298.163452
 31
0.0
  0
LINE
  5
4A1
330
6B
100
AcDbEntity
  8
0
100
AcDbLine
 10
-0.912029
 20
-312.929272
 30
0.0
 11
-0.912029
 21
-298.163452
 31
0.0
  0
LINE
  5
4A2
330
6B
100
AcDbEntity
  8
0
100
AcDbLine
 10
-17.84979899999999
 20
-286.754454
 30
0.0
 11
-17.84979899999999
 21
-295.163452
 31
0.0
  0
LINE
  5
4A3
330
6B
100
AcDbEntity
  8
0
100
AcDbLine
 10
-0.912029
 20
-283.397632
 30
0.0
 11
-0.912029
 21
-298.163452
 31
0.0
  0
LINE
  5
4A4
330
6B
100
AcDbEntity
  8
0
100
AcDbLine
 10
-3.912029
 20
-284.313093
 30
0.0
 11
-3.912029
 21
-298.163452
 31
0.0
  0
LINE
  5
4A5
330
6B
100
AcDbEntity
  8
0
100
AcDbLine
 10
-7.981010999999997
 20
-285.451741
 30
0.0
 11
-7.981010999999997
 21
-295.163452
 31
0.0
  0
LINE
  5
4A6
330
6B
100
AcDbEntity
  8
0
100
AcDbLine
 10
-10.912029
 20
-286.199805
 30
0.0
 11
-10.912029
 21
-295.163452
 31
0.0
  0
LINE
  5
4A7
330
6B
100
AcDbEntity
  8
0
100
AcDbLine
 10
-14.912029
 20
-287.124992
 30
0.0
 11
-14.912029
 21
-295.163452
 31
0.0
  0
ARC
  5
4A8
330
6B
100
AcDbEntity
  8
0
 62
     3
100
AcDbCircle
 10
-31.600776
 20
-311.642269
 30
0.0
 40
4.525158
100
AcDbArc
 50
270.0
 51
353.955552
  0
LINE
  5
4A9
330
6B
100
AcDbEntity
  8
0
 62
     3
100
AcDbLine
 10
-31.600776
 20
-316.167427
 30
0.0
 11
-33.700776
 21
-316.167427
 31
0.0
  0
LINE
  5
4AA
330
6B
100
AcDbEntity
  8
0
 62
     3
100
AcDbLine
 10
-33.700776
 20
-316.167427
 30
0.0
 11
-33.700776
 21
-317.042269
 31
0.0
  0
LINE
  5
4AB
330
6B
100
AcDbEntity
  8
0
 62
     3
100
AcDbLine
 10
-35.10072
 20
-317.042269
 30
0.0
 11
-33.700776
 21
-317.042269
 31
0.0
  0
LINE
  5
4AC
330
6B
100
AcDbEntity
  8
0
 62
     3
100
AcDbLine
 10
-36.100776
 20
-284.165771
 30
0.0
 11
-36.100776
 21
-316.047523
 31
0.0
  0
LINE
  5
4AD
330
6B
100
AcDbEntity
  8
0
 62
     3
100
AcDbLine
 10
-27.100776
 20
-279.242269
 30
0.0
 11
-27.100776
 21
-312.118768
 31
0.0
  0
LINE
  5
4AE
330
6B
100
AcDbEntity
  8
0
 62
     3
100
AcDbLine
 10
-27.100776
 20
-279.242269
 30
0.0
 11
-29.500776
 21
-279.242269
 31
0.0
  0
LINE
  5
4AF
330
6B
100
AcDbEntity
  8
0
 62
     3
100
AcDbLine
 10
-29.500776
 20
-280.117112
 30
0.0
 11
-29.500776
 21
-279.242269
 31
0.0
  0
LINE
  5
4B0
330
6B
100
AcDbEntity
  8
0
 62
     3
100
AcDbLine
 10
-31.600776
 20
-280.117112
 30
0.0
 11
-29.500776
 21
-280.117112
 31
0.0
  0
ARC
  5
4B1
330
6B
100
AcDbEntity
  8
0
 62
     3
100
AcDbCircle
 10
-31.600776
 20
-284.642269
 30
0.0
 40
4.525158
100
AcDbArc
 50
90.0
 51
173.955552
  0
LINE
  5
4B2
330
6B
100
AcDbEntity
  8
0
100
AcDbLine
 10
-25.960932
 20
-289.163452
 30
0.0
 11
-25.960932
 21
-307.163452
 31
0.0
  0
LINE
  5
4B3
330
6B
100
AcDbEntity
  8
0
100
AcDbLine
 10
-7.565658999999999
 20
-301.163452
 30
0.0
 11
-25.95761
 21
-301.163452
 31
0.0
  0
LINE
  5
4B4
330
6B
100
AcDbEntity
  8
0
100
AcDbLine
 10
-17.84979899999999
 20
-309.57245
 30
0.0
 11
-17.84979899999999
 21
-301.163452
 31
0.0
  0
LINE
  5
4B5
330
6B
100
AcDbEntity
  8
0
100
AcDbLine
 10
-22.912029
 20
-287.89025
 30
0.0
 11
-22.912029
 21
-298.163452
 31
0.0
  0
LINE
  5
4B6
330
6B
100
AcDbEntity
  8
0
100
AcDbLine
 10
-22.912029
 20
-308.436654
 30
0.0
 11
-22.912029
 21
-298.163452
 31
0.0
  0
LINE
  5
4B7
330
6B
100
AcDbEntity
  8
0
100
AcDbLine
 10
-25.95761
 20
-289.163452
 30
0.0
 11
-25.95761
 21
-307.163452
 31
0.0
  0
LINE
  5
4B8
330
6B
100
AcDbEntity
  8
0
100
AcDbLine
 10
-36.960932
 20
-288.163452
 30
0.0
 11
-36.960932
 21
-308.163452
 31
0.0
  0
TEXT
  5
4CE
330
6B
100
AcDbEntity
  8
0
 62
     3
100
AcDbText
 10
77.13291999999999
 20
-378.879091
 30
0.0
 40
3.2
  1
ZK-A4X
 41
0.8112849999999999
100
AcDbText
  0
LINE
  5
4CF
330
6B
100
AcDbEntity
  8
0
100
AcDbLine
 10
70.87709652768291
 20
-311.3293696649626
 30
0.0
 11
119.4030559566543
 21
-311.3293696649626
 31
0.0
  0
LINE
  5
4D0
330
6B
100
AcDbEntity
  8
0
 62
     3
100
AcDbLine
 10
38.114068
 20
-300.488452
 30
0.0
 11
19.039068
 21
-300.488452
 31
0.0
  0
ARC
  5
4D1
330
6B
100
AcDbEntity
  8
0
 62
     3
100
AcDbCircle
 10
38.114068
 20
-298.163452
 30
0.0
 40
2.325
100
AcDbArc
 50
270.0
 51
90.0
  0
LINE
  5
4D2
330
6B
100
AcDbEntity
  8
0
 62
     3
100
AcDbLine
 10
38.114068
 20
-295.838452
 30
0.0
 11
19.039068
 21
-295.838452
 31
0.0
  0
LINE
  5
4D6
330
6B
100
AcDbEntity
  8
0
  6
CENTER
100
AcDbLine
 10
104.007498
 20
-279.74926
 30
0.0
 11
90.79195099999999
 21
-287.37926
 31
0.0
  0
LINE
  5
4D7
330
6B
100
AcDbEntity
  8
0
  6
CENTER
100
AcDbLine
 10
105.867498
 20
-282.970874
 30
0.0
 11
98.55964200000002
 21
-287.190067
 31
0.0
  0
ARC
  5
4D8
330
6B
100
AcDbEntity
  8
0
  6
CENTER
100
AcDbCircle
 10
104.937498
 20
-281.360067
 30
0.0
 40
1.86
100
AcDbArc
 50
300.0
 51
120.0
  0
LINE
  5
4D9
330
6B
100
AcDbEntity
  8
0
 62
     3
100
AcDbLine
 10
38.114068
 20
-254.612737
 30
0.0
 11
19.039068
 21
-254.612737
 31
0.0
  0
LINE
  5
4DA
330
6B
100
AcDbEntity
  8
0
 62
     3
100
AcDbLine
 10
38.114068
 20
-249.962737
 30
0.0
 11
19.039068
 21
-249.962737
 31
0.0
  0
ARC
  5
4DB
330
6B
100
AcDbEntity
  8
0
 62
     3
100
AcDbCircle
 10
38.114068
 20
-252.287737
 30
0.0
 40
2.325
100
AcDbArc
 50
270.0
 51
90.0
  0
LINE
  5
4DC
330
6B
100
AcDbEntity
  8
0
 62
     3
100
AcDbLine
 10
90.464259
 20
-271.930067
 30
0.0
 11
90.464259
 21
-287.190067
 31
0.0
  0
ARC
  5
4DD
330
6B
100
AcDbEntity
  8
0
 62
     3
100
AcDbCircle
 10
88.604259
 20
-271.930067
 30
0.0
 40
1.86
100
AcDbArc
 50
0.0
 51
180.0
  0
ARC
  5
4DE
330
6B
100
AcDbEntity
  8
0
 62
     3
100
AcDbCircle
 10
82.60425899999999
 20
-290.640067
 30
0.0
 40
2.704163
100
AcDbArc
 50
123.690068
 51
250.559965
  0
LINE
  5
4DF
330
6B
100
AcDbEntity
  8
0
 62
     3
100
AcDbLine
 10
86.74425900000001
 20
-271.930067
 30
0.0
 11
86.74425900000001
 21
-287.190067
 31
0.0
  0
ARC
  5
4E0
330
6B
100
AcDbEntity
  8
0
 62
     3
100
AcDbCircle
 10
108.004393
 20
-290.621232
 30
0.0
 40
2.704163
100
AcDbArc
 50
289.440035
 51
56.30993199999998
  0
LINE
  5
4E1
330
6B
100
AcDbEntity
  8
0
 62
     2
100
AcDbLine
 10
4.577841999999998
 20
-247.41956
 30
0.0
 11
4.577841999999998
 21
-246.041338
 31
0.0
  0
LINE
  5
4E2
330
6B
100
AcDbEntity
  8
0
 62
     2
100
AcDbLine
 10
4.728957
 20
-247.41956
 30
0.0
 11
4.577841999999998
 21
-247.41956
 31
0.0
  0
LINE
  5
4E3
330
6B
100
AcDbEntity
  8
0
 62
     2
100
AcDbLine
 10
7.544738
 20
-245.893511
 30
0.0
 11
7.544738
 21
-244.499038
 31
0.0
  0
LINE
  5
4E4
330
6B
100
AcDbEntity
  8
0
 62
     2
100
AcDbLine
 10
7.544738
 20
-245.893511
 30
0.0
 11
7.393692999999997
 21
-245.893511
 31
0.0
  0
LINE
  5
4E5
330
6B
100
AcDbEntity
  8
0
 62
     2
100
AcDbLine
 10
4.728957
 20
-245.893511
 30
0.0
 11
4.577772
 21
-245.893511
 31
0.0
  0
LINE
  5
4E6
330
6B
100
AcDbEntity
  8
0
 62
     2
100
AcDbLine
 10
4.577772
 20
-245.893511
 30
0.0
 11
4.577772
 21
-244.499038
 31
0.0
  0
LINE
  5
4E7
330
6B
100
AcDbEntity
  8
0
 62
     2
100
AcDbLine
 10
7.544807999999997
 20
-247.41956
 30
0.0
 11
7.393692999999997
 21
-247.41956
 31
0.0
  0
LINE
  5
4E8
330
6B
100
AcDbEntity
  8
0
 62
     2
100
AcDbLine
 10
7.544807999999997
 20
-247.41956
 30
0.0
 11
7.544807999999997
 21
-246.041338
 31
0.0
  0
LINE
  5
4E9
330
6B
100
AcDbEntity
  8
0
 62
     2
100
AcDbLine
 10
7.544807999999997
 20
-246.041338
 30
0.0
 11
7.393692999999997
 21
-246.041338
 31
0.0
  0
LINE
  5
4EA
330
6B
100
AcDbEntity
  8
0
 62
     2
100
AcDbLine
 10
4.728957
 20
-247.572673
 30
0.0
 11
4.577841999999998
 21
-247.572673
 31
0.0
  0
LINE
  5
4EB
330
6B
100
AcDbEntity
  8
0
 62
     2
100
AcDbLine
 10
4.577841999999998
 20
-248.990031
 30
0.0
 11
4.577841999999998
 21
-247.572673
 31
0.0
  0
LINE
  5
4EC
330
6B
100
AcDbEntity
  8
0
 62
     2
100
AcDbLine
 10
7.06783
 20
-248.639647
 30
0.0
 11
5.054819999999998
 21
-248.639647
 31
0.0
  0
LINE
  5
4ED
330
6B
100
AcDbEntity
  8
0
 62
     2
100
AcDbLine
 10
5.054819999999998
 20
-248.639647
 30
0.0
 11
5.054819999999998
 21
-248.775397
 31
0.0
  0
ARC
  5
4EE
330
6B
100
AcDbEntity
  8
0
 62
     2
100
AcDbCircle
 10
6.061325
 20
-248.081264
 30
0.0
 40
1.22265
100
AcDbArc
 50
214.591955
 51
325.408045
  0
LINE
  5
4EF
330
6B
100
AcDbEntity
  8
0
 62
     2
100
AcDbLine
 10
7.544807999999997
 20
-248.990031
 30
0.0
 11
7.544807999999997
 21
-247.572673
 31
0.0
  0
LINE
  5
4F0
330
6B
100
AcDbEntity
  8
0
 62
     2
100
AcDbLine
 10
7.544807999999997
 20
-247.572673
 30
0.0
 11
7.393692999999997
 21
-247.572673
 31
0.0
  0
LINE
  5
4F1
330
6B
100
AcDbEntity
  8
0
 62
     2
100
AcDbLine
 10
4.728957
 20
-246.041338
 30
0.0
 11
4.577841999999998
 21
-246.041338
 31
0.0
  0
LINE
  5
4F2
330
6B
100
AcDbEntity
  8
0
 62
     2
100
AcDbLine
 10
7.06783
 20
-248.639647
 30
0.0
 11
7.06783
 21
-248.775397
 31
0.0
  0
LINE
  5
4F3
330
6B
100
AcDbEntity
  8
0
 62
     2
100
AcDbLine
 10
4.728957
 20
-240.323105
 30
0.0
 11
4.577828
 21
-240.323102
 31
0.0
  0
LINE
  5
4F4
330
6B
100
AcDbEntity
  8
0
 62
     2
100
AcDbLine
 10
4.577855999999997
 20
-238.94488
 30
0.0
 11
4.577831999999999
 21
-240.323102
 31
0.0
  0
LINE
  5
4F5
330
6B
100
AcDbEntity
  8
0
 62
     2
100
AcDbLine
 10
4.577841999999998
 20
-235.876035
 30
0.0
 11
4.577841999999998
 21
-236.975511
 31
0.0
  0
ARC
  5
4F6
330
6B
100
AcDbEntity
  8
0
 62
     2
100
AcDbCircle
 10
6.096257999999997
 20
-232.317505
 30
0.0
 40
10.50969
100
AcDbArc
 50
263.866006
 51
267.694034
  0
LINE
  5
4F7
330
6B
100
AcDbEntity
  8
0
 62
     2
100
AcDbLine
 10
5.675995999999997
 20
-242.115062
 30
0.0
 11
5.673391999999997
 21
-242.818684
 31
0.0
  0
LINE
  5
53A
330
6B
100
AcDbEntity
  8
0
 62
     2
100
AcDbLine
 10
6.444005999999999
 20
-242.117904
 30
0.0
 11
6.441403
 21
-242.821526
 31
0.0
  0
ARC
  5
53B
330
6B
100
AcDbEntity
  8
0
 62
     2
100
AcDbCircle
 10
6.096257999999997
 20
-232.317505
 30
0.0
 40
10.50969
100
AcDbArc
 50
271.881966
 51
275.709994
  0
LINE
  5
53C
330
6B
100
AcDbEntity
  8
0
 62
     2
100
AcDbLine
 10
7.544794
 20
-240.323154
 30
0.0
 11
7.393692999999997
 21
-240.323151
 31
0.0
  0
LINE
  5
53D
330
6B
100
AcDbEntity
  8
0
 62
     2
100
AcDbLine
 10
7.544821999999999
 20
-238.944931
 30
0.0
 11
7.544797999999999
 21
-240.323154
 31
0.0
  0
LINE
  5
53E
330
6B
100
AcDbEntity
  8
0
 62
     2
100
AcDbLine
 10
4.728957
 20
-238.944882
 30
0.0
 11
4.577855999999997
 21
-238.94488
 31
0.0
  0
LINE
  5
53F
330
6B
100
AcDbEntity
  8
0
 62
     2
100
AcDbLine
 10
7.544821999999999
 20
-238.944931
 30
0.0
 11
7.393692999999997
 21
-238.944929
 31
0.0
  0
LINE
  5
540
330
6B
100
AcDbEntity
  8
0
 62
     2
100
AcDbLine
 10
4.728957
 20
-236.975511
 30
0.0
 11
4.577841999999998
 21
-236.975511
 31
0.0
  0
LINE
  5
541
330
6B
100
AcDbEntity
  8
0
 62
     2
100
AcDbLine
 10
6.317762
 20
-236.664262
 30
0.0
 11
4.577841999999998
 21
-237.751712
 31
0.0
  0
LINE
  5
542
330
6B
100
AcDbEntity
  8
0
 62
     2
100
AcDbLine
 10
4.577841999999998
 20
-237.751712
 30
0.0
 11
4.577841999999998
 21
-238.479878
 31
0.0
  0
LINE
  5
543
330
6B
100
AcDbEntity
  8
0
 62
     2
100
AcDbLine
 10
7.544807999999997
 20
-238.791127
 30
0.0
 11
7.393692999999997
 21
-238.791127
 31
0.0
  0
LINE
  5
544
330
6B
100
AcDbEntity
  8
0
 62
     2
100
AcDbLine
 10
7.544807999999997
 20
-237.691652
 30
0.0
 11
7.544807999999997
 21
-238.791127
 31
0.0
  0
LINE
  5
545
330
6B
100
AcDbEntity
  8
0
 62
     2
100
AcDbLine
 10
7.544807999999997
 20
-237.691652
 30
0.0
 11
7.393692999999997
 21
-237.691652
 31
0.0
  0
LINE
  5
546
330
6B
100
AcDbEntity
  8
0
 62
     2
100
AcDbLine
 10
6.200974999999997
 20
-238.0029
 30
0.0
 11
7.544807999999997
 21
-237.12101
 31
0.0
  0
LINE
  5
547
330
6B
100
AcDbEntity
  8
0
 62
     2
100
AcDbLine
 10
7.544807999999997
 20
-235.876035
 30
0.0
 11
7.544807999999997
 21
-237.12101
 31
0.0
  0
LINE
  5
548
330
6B
100
AcDbEntity
  8
0
 62
     2
100
AcDbLine
 10
7.544738
 20
-242.959046
 30
0.0
 11
7.544738
 21
-244.353519
 31
0.0
  0
LINE
  5
549
330
6B
100
AcDbEntity
  8
0
 62
     2
100
AcDbLine
 10
7.393692999999997
 20
-242.959046
 30
0.0
 11
7.544738
 21
-242.959046
 31
0.0
  0
LINE
  5
54A
330
6B
100
AcDbEntity
  8
0
 62
     2
100
AcDbLine
 10
4.577772
 20
-242.959046
 30
0.0
 11
4.728957
 21
-242.959046
 31
0.0
  0
LINE
  5
54B
330
6B
100
AcDbEntity
  8
0
 62
     2
100
AcDbLine
 10
4.577772
 20
-242.959046
 30
0.0
 11
4.577772
 21
-244.353519
 31
0.0
  0
LINE
  5
54C
330
6B
100
AcDbEntity
  8
0
 62
     2
100
AcDbLine
 10
4.728957
 20
-244.499038
 30
0.0
 11
4.577772
 21
-244.499038
 31
0.0
  0
LINE
  5
54D
330
6B
100
AcDbEntity
  8
0
 62
     2
100
AcDbLine
 10
4.728957
 20
-244.353519
 30
0.0
 11
4.577772
 21
-244.353519
 31
0.0
  0
LINE
  5
54E
330
6B
100
AcDbEntity
  8
0
 62
     2
100
AcDbLine
 10
7.393692999999997
 20
-244.353519
 30
0.0
 11
7.544738
 21
-244.353519
 31
0.0
  0
LINE
  5
54F
330
6B
100
AcDbEntity
  8
0
 62
     2
100
AcDbLine
 10
7.393692999999997
 20
-244.499038
 30
0.0
 11
7.544738
 21
-244.499038
 31
0.0
  0
LINE
  5
550
330
6B
100
AcDbEntity
  8
0
 62
     2
100
AcDbLine
 10
4.728957
 20
-235.876035
 30
0.0
 11
4.577841999999998
 21
-235.876035
 31
0.0
  0
LINE
  5
551
330
6B
100
AcDbEntity
  8
0
 62
     2
100
AcDbLine
 10
7.544807999999997
 20
-235.876035
 30
0.0
 11
7.393692999999997
 21
-235.876035
 31
0.0
  0
ARC
  5
552
330
6B
100
AcDbEntity
  8
0
 62
     2
100
AcDbCircle
 10
6.372574
 20
-249.140031
 30
0.0
 40
1.172235
100
AcDbArc
 50
287.3087490000001
 51
293.765071
  0
ARC
  5
553
330
6B
100
AcDbEntity
  8
0
 62
     2
100
AcDbCircle
 10
6.061325
 20
-248.141264
 30
0.0
 40
2.218374999999999
100
AcDbArc
 50
252.6912509999999
 51
287.308566
  0
ARC
  5
554
330
6B
100
AcDbEntity
  8
0
 62
     2
100
AcDbCircle
 10
5.750077
 20
-249.140031
 30
0.0
 40
1.172235
100
AcDbArc
 50
246.234929
 51
252.6912509999999
  0
ARC
  5
555
330
6B
100
AcDbEntity
  8
0
 62
     2
100
AcDbCircle
 10
6.372574
 20
-248.990031
 30
0.0
 40
1.172235
100
AcDbArc
 50
287.3087490000001
 51
0.0
  0
ARC
  5
556
330
6B
100
AcDbEntity
  8
0
 62
     2
100
AcDbCircle
 10
6.061325
 20
-247.991264
 30
0.0
 40
2.218374999999999
100
AcDbArc
 50
252.6912509999999
 51
287.308566
  0
ARC
  5
557
330
6B
100
AcDbEntity
  8
0
 62
     2
100
AcDbCircle
 10
5.750077
 20
-248.990031
 30
0.0
 40
1.172235
100
AcDbArc
 50
180.0
 51
252.6912509999999
  0
ARC
  5
558
330
6B
100
AcDbEntity
  8
0
 62
     2
100
AcDbCircle
 10
6.061325
 20
-241.758645
 30
0.0
 40
1.483482999999996
100
AcDbArc
 50
316.75288
 51
359.749998
  0
ARC
  5
559
330
6B
100
AcDbEntity
  8
0
 62
     2
100
AcDbCircle
 10
6.061325
 20
-241.758645
 30
0.0
 40
1.483482999999996
100
AcDbArc
 50
183.976333
 51
222.82312
  0
ARC
  5
55A
330
6B
100
AcDbEntity
  8
0
 62
     2
100
AcDbCircle
 10
6.038424
 20
-249.931365
 30
0.0
 40
1.968491999999999
100
AcDbArc
 50
270.666584
 51
293.903928
  0
ARC
  5
55B
330
6B
100
AcDbEntity
  8
0
 62
     2
100
AcDbCircle
 10
6.038424
 20
-252.728195
 30
0.0
 40
1.968491999999999
100
AcDbArc
 50
66.09607199999999
 51
89.333416
  0
ARC
  5
55C
330
6B
100
AcDbEntity
  8
0
 62
     2
100
AcDbCircle
 10
6.084226
 20
-249.931365
 30
0.0
 40
1.968491999999999
100
AcDbArc
 50
246.096072
 51
269.333416
  0
ARC
  5
55D
330
6B
100
AcDbEntity
  8
0
 62
     2
100
AcDbCircle
 10
6.084226
 20
-252.728195
 30
0.0
 40
1.968491999999999
100
AcDbArc
 50
90.66658399999999
 51
113.903928
  0
TEXT
  5
55E
330
6B
100
AcDbEntity
  8
0
 62
     3
100
AcDbText
 10
35.61386000000001
 20
-343.588221
 30
0.0
 40
2.0
  1
CONPONENTS
 41
0.5331600000000001
100
AcDbText
  0
TEXT
  5
55F
330
6B
100
AcDbEntity
  8
0
 62
     3
100
AcDbText
 10
35.264133
 20
-362.520397
 30
0.0
 40
3.0
  1
材
 41
0.833333
100
AcDbText
  0
TEXT
  5
560
330
6B
100
AcDbEntity
  8
0
 62
     3
100
AcDbText
 10
42.799776
 20
-362.520397
 30
0.0
 40
3.0
  1
質
 41
0.833333
100
AcDbText
  0
TEXT
  5
561
330
6B
100
AcDbEntity
  8
0
 62
     3
100
AcDbText
 10
35.352204
 20
-351.895873
 30
0.0
 40
2.0
  1
MODEL
 41
1.031072999999999
100
AcDbText
  0
TEXT
  5
562
330
6B
100
AcDbEntity
  8
0
 62
     3
100
AcDbText
 10
35.264133
 20
-358.838089
 30
0.0
 40
2.0
  1
MATERIAL
 41
0.659278
100
AcDbText
  0
TEXT
  5
563
330
6B
100
AcDbEntity
  8
0
 62
     3
100
AcDbText
 10
66.571414
 20
-362.520397
 30
0.0
 40
3.0
  1
備
 41
0.833333
100
AcDbText
  0
TEXT
  5
564
330
6B
100
AcDbEntity
  8
0
 62
     3
100
AcDbText
 10
73.304415
 20
-362.520397
 30
0.0
 40
3.0
  1
考
 41
0.833333
100
AcDbText
  0
TEXT
  5
565
330
6B
100
AcDbEntity
  8
0
 62
     3
100
AcDbText
 10
66.88917603443214
 20
-358.838089
 30
0.0
 40
2.0
  1
REMARKS
 41
0.675794
100
AcDbText
  0
TEXT
  5
566
330
6B
100
AcDbEntity
  8
0
 62
     3
100
AcDbText
 10
67.09872899999999
 20
-365.969317
 30
0.0
 40
2.0
  1
SCALE
 41
0.7719630000000001
100
AcDbText
  0
TEXT
  5
567
330
6B
100
AcDbEntity
  8
0
 62
     3
100
AcDbText
 10
66.961934
 20
-369.469317
 30
0.0
 40
3.0
  1
尺
 41
0.833333
100
AcDbText
  0
TEXT
  5
568
330
6B
100
AcDbEntity
  8
0
 62
     3
100
AcDbText
 10
73.69493599999998
 20
-369.469317
 30
0.0
 40
3.0
  1
度
 41
0.833333
100
AcDbText
  0
TEXT
  5
569
330
6B
100
AcDbEntity
  8
0
 62
     3
100
AcDbText
 10
96.27820599999999
 20
-347.300018
 30
0.0
 40
3.0
  1
承認
 41
1.089472999999999
100
AcDbText
  0
TEXT
  5
56A
330
6B
100
AcDbEntity
  8
0
 62
     3
100
AcDbText
 10
109.521086
 20
-347.357746
 30
0.0
 40
3.0
  1
検図
 41
0.931761
100
AcDbText
  0
TEXT
  5
56B
330
6B
100
AcDbEntity
  8
0
 62
     3
100
AcDbText
 10
122.521483
 20
-347.357746
 30
0.0
 40
3.0
  1
設
 41
0.833333
100
AcDbText
  0
TEXT
  5
56C
330
6B
100
AcDbEntity
  8
0
 62
     3
100
AcDbText
 10
127.011351
 20
-347.357746
 30
0.0
 40
3.0
  1
計
 41
0.833333
100
AcDbText
  0
TEXT
  5
56D
330
6B
100
AcDbEntity
  8
0
 62
     3
100
AcDbText
 10
35.68396600000003
 20
-347.729572
 30
0.0
 40
3.0
  1
品
 41
0.833333
100
AcDbText
  0
TEXT
  5
56E
330
6B
100
AcDbEntity
  8
0
 62
     3
100
AcDbText
 10
43.219608
 20
-347.729572
 30
0.0
 40
3.0
  1
名
 41
0.833333
100
AcDbText
  0
TEXT
  5
56F
330
6B
100
AcDbEntity
  8
0
 62
     3
100
AcDbText
 10
35.352204
 20
-355.596261
 30
0.0
 40
3.0
  1
型
 41
0.833333
100
AcDbText
  0
TEXT
  5
570
330
6B
100
AcDbEntity
  8
0
 62
     3
100
AcDbText
 10
42.900294
 20
-355.596261
 30
0.0
 40
3.0
  1
式
 41
0.833333
100
AcDbText
  0
LINE
  5
571
330
6B
100
AcDbEntity
  8
0
 62
     3
100
AcDbLine
 10
145.099906
 20
-379.479496
 30
0.0
 11
145.099906
 21
-199.479496
 31
0.0
  0
LINE
  5
572
330
6B
100
AcDbEntity
  8
0
 62
     3
100
AcDbLine
 10
145.099906
 20
-379.479496
 30
0.0
 11
-131.900094
 21
-379.479496
 31
0.0
  0
LINE
  5
577
330
6B
100
AcDbEntity
  8
0
 62
     3
100
AcDbLine
 10
-131.900094
 20
-199.479496
 30
0.0
 11
-131.900094
 21
-379.479496
 31
0.0
  0
LINE
  5
583
330
6B
100
AcDbEntity
  8
0
100
AcDbLine
 10
-36.100776
 20
-307.142269
 30
0.0
 11
-33.100776
 21
-307.142269
 31
0.0
  0
ARC
  5
584
330
6B
100
AcDbEntity
  8
0
100
AcDbCircle
 10
-34.900776
 20
-315.892269
 30
0.0
 40
0.75
100
AcDbArc
 50
270.0
 51
193.827296
  0
LINE
  5
585
330
6B
100
AcDbEntity
  8
0
100
AcDbLine
 10
-30.100776
 20
-307.142269
 30
0.0
 11
-27.100776
 21
-307.142269
 31
0.0
  0
LINE
  5
586
330
6B
100
AcDbEntity
  8
0
100
AcDbLine
 10
-30.100776
 20
-289.142269
 30
0.0
 11
-27.100776
 21
-289.142269
 31
0.0
  0
LINE
  5
587
330
6B
100
AcDbEntity
  8
0
100
AcDbLine
 10
-36.100776
 20
-289.142269
 30
0.0
 11
-33.100776
 21
-289.142269
 31
0.0
  0
CIRCLE
  5
588
330
6B
100
AcDbEntity
  8
0
100
AcDbCircle
 10
-28.300776
 20
-280.392269
 30
0.0
 40
0.75
  0
CIRCLE
  5
589
330
6B
100
AcDbEntity
  8
0
 62
     3
100
AcDbCircle
 10
30.739068
 20
-240.762737
 30
0.0
 40
1.5
  0
ARC
  5
58A
330
6B
100
AcDbEntity
  8
0
 62
     3
100
AcDbCircle
 10
31.981568
 20
-240.762737
 30
0.0
 40
4.0575
100
AcDbArc
 50
309.07331
 51
50.92668999999999
  0
LINE
  5
58B
330
6B
100
AcDbEntity
  8
0
 62
     3
100
AcDbLine
 10
19.039068
 20
-243.912737
 30
0.0
 11
34.539068
 21
-243.912737
 31
0.0
  0
LINE
  5
58C
330
6B
100
AcDbEntity
  8
0
  6
CENTER
100
AcDbLine
 10
88.604259
 20
-269.53551
 30
0.0
 11
88.604259
 21
-288.390067
 31
0.0
  0
LINE
  5
58D
330
6B
100
AcDbEntity
  8
0
 62
     3
100
AcDbLine
 10
34.539068
 20
-237.612737
 30
0.0
 11
19.039068
 21
-237.612737
 31
0.0
  0
LINE
  5
58E
330
6B
100
AcDbEntity
  8
0
 62
     3
100
AcDbLine
 10
95.304259
 20
-287.190067
 30
0.0
 11
95.304259
 21
-274.7900669999999
 31
0.0
  0
ARC
  5
58F
330
6B
100
AcDbEntity
  8
0
 62
     3
100
AcDbCircle
 10
97.82425899999999
 20
-276.836067
 30
0.0
 40
3.245999999999998
100
AcDbArc
 50
39.07331
 51
140.9266899999999
  0
LINE
  5
590
330
6B
100
AcDbEntity
  8
0
 62
     3
100
AcDbLine
 10
100.344259
 20
-274.7900669999999
 30
0.0
 11
100.344259
 21
-287.190067
 31
0.0
  0
CIRCLE
  5
591
330
6B
100
AcDbEntity
  8
0
 62
     3
100
AcDbCircle
 10
97.82425899999999
 20
-277.830067
 30
0.0
 40
1.199999999999999
  0
LINE
  5
592
330
6B
100
AcDbEntity
  8
0
 62
     3
100
AcDbLine
 10
105.704259
 20
-300.50466
 30
0.0
 11
105.704259
 21
-295.750067
 31
0.0
  0
LINE
  5
593
330
6B
100
AcDbEntity
  8
0
 62
     3
100
AcDbLine
 10
84.90425899999998
 20
-301.059108
 30
0.0
 11
84.90425899999998
 21
-295.750067
 31
0.0
  0
CIRCLE
  5
597
330
6B
100
AcDbEntity
  8
0
100
AcDbCircle
 10
83.90371299999998
 20
-235.834381
 30
0.0
 40
0.8148939999999999
  0
LINE
  5
598
330
6B
100
AcDbEntity
  8
0
100
AcDbLine
 10
102.904259
 20
-295.750067
 30
0.0
 11
102.904259
 21
-299.983087
 31
0.0
  0
LINE
  5
5A0
330
6B
100
AcDbEntity
  8
0
100
AcDbLine
 10
-30.100776
 20
-289.142269
 30
0.0
 11
-30.100776
 21
-288.184634
 31
0.0
  0
LINE
  5
5A1
330
6B
100
AcDbEntity
  8
0
100
AcDbLine
 10
-33.100776
 20
-289.142269
 30
0.0
 11
-33.100776
 21
-288.184634
 31
0.0
  0
LINE
  5
5A2
330
6B
100
AcDbEntity
  8
0
100
AcDbLine
 10
-33.100776
 20
-308.184634
 30
0.0
 11
-33.100776
 21
-307.142269
 31
0.0
  0
LINE
  5
5A3
330
6B
100
AcDbEntity
  8
0
100
AcDbLine
 10
-30.100776
 20
-308.184634
 30
0.0
 11
-30.100776
 21
-307.142269
 31
0.0
  0
LINE
  5
5A4
330
6B
100
AcDbEntity
  8
0
 62
     3
100
AcDbLine
 10
119.400542
 20
-339.757746
 30
0.0
 11
119.400542
 21
-333.757746
 31
0.0
  0
LINE
  5
5A5
330
6B
100
AcDbEntity
  8
0
 62
     3
100
AcDbLine
 10
93.400542
 20
-339.757746
 30
0.0
 11
93.400542
 21
-333.757746
 31
0.0
  0
LINE
  5
5A6
330
6B
100
AcDbEntity
  8
0
 62
     3
100
AcDbLine
 10
145.099906
 20
-333.757746
 30
0.0
 11
93.400542
 21
-333.757746
 31
0.0
  0
TEXT
  5
5A7
330
6B
100
AcDbEntity
  8
0
 62
     3
100
AcDbText
 10
99.39614
 20
-338.961397
 30
0.0
 40
4.5
  1
コード
  7
高4.5
100
AcDbText
  0
TEXT
  5
5A8
330
6B
100
AcDbEntity
  8
0
 62
     3
100
AcDbText
 10
121.387689
 20
-339.113609
 30
0.0
 40
4.5
  1
7582
  7
高4.5
100
AcDbText
  0
TEXT
  5
5A9
330
6B
100
AcDbEntity
  8
0
 62
     3
100
AcDbText
 10
39.13103284949727
 20
-331.4789829274147
 30
0.0
 40
3.2
  1
適応電線外形：%%C7～%%C11
  7
高3.2
100
AcDbText
  0
LINE
  5
5AB
330
6B
100
AcDbEntity
  8
0
100
AcDbLine
 10
-33.100776
 20
-289.142269
 30
0.0
 11
-33.100776
 21
-294.344932
 31
0.0
  0
LINE
  5
5AC
330
6B
100
AcDbEntity
  8
0
100
AcDbLine
 10
-30.100776
 20
-289.142269
 30
0.0
 11
-30.100776
 21
-294.344932
 31
0.0
  0
LINE
  5
5AD
330
6B
100
AcDbEntity
  8
0
100
AcDbLine
 10
-30.100776
 20
-307.142269
 30
0.0
 11
-30.100776
 21
-301.981971
 31
0.0
  0
LINE
  5
5AE
330
6B
100
AcDbEntity
  8
0
100
AcDbLine
 10
-33.100776
 20
-307.142269
 30
0.0
 11
-33.100776
 21
-301.981971
 31
0.0
  0
LINE
  5
5AF
330
6B
100
AcDbEntity
  8
0
100
AcDbLine
 10
-36.460932
 20
-289.663452
 30
0.0
 11
-36.100776
 21
-289.663452
 31
0.0
  0
ARC
  5
5B0
330
6B
100
AcDbEntity
  8
0
100
AcDbCircle
 10
-36.460932
 20
-289.163452
 30
0.0
 40
0.5
100
AcDbArc
 50
180.0
 51
270.0
  0
LINE
  5
5B1
330
6B
100
AcDbEntity
  8
0
100
AcDbLine
 10
-36.100776
 20
-306.663452
 30
0.0
 11
-36.460932
 21
-306.663452
 31
0.0
  0
ARC
  5
5B2
330
6B
100
AcDbEntity
  8
0
100
AcDbCircle
 10
-36.460932
 20
-307.163452
 30
0.0
 40
0.5
100
AcDbArc
 50
90.0
 51
180.0
  0
LINE
  5
5B3
330
6B
100
AcDbEntity
  8
0
100
AcDbLine
 10
-26.460932
 20
-306.663452
 30
0.0
 11
-27.100776
 21
-306.663452
 31
0.0
  0
ARC
  5
5B4
330
6B
100
AcDbEntity
  8
0
100
AcDbCircle
 10
-26.460932
 20
-307.163452
 30
0.0
 40
0.5
100
AcDbArc
 50
0.0
 51
90.0
  0
ARC
  5
5B5
330
6B
100
AcDbEntity
  8
0
100
AcDbCircle
 10
-26.460932
 20
-289.163452
 30
0.0
 40
0.5
100
AcDbArc
 50
270.0
 51
0.0
  0
LINE
  5
5B6
330
6B
100
AcDbEntity
  8
0
100
AcDbLine
 10
-27.100776
 20
-289.663452
 30
0.0
 11
-26.460932
 21
-289.663452
 31
0.0
  0
CIRCLE
  5
5B7
330
6B
100
AcDbEntity
  8
0
100
AcDbCircle
 10
-31.600776
 20
-298.163452
 30
0.0
 40
4.102571
  0
TEXT
  5
695
330
6B
100
AcDbEntity
  8
0
 62
     3
100
AcDbText
 10
136.2833836085054
 20
-208.979496
 30
0.0
 40
3.2
  1
担当
  7
高3.2
100
AcDbText
  0
TEXT
  5
696
330
6B
100
AcDbEntity
  8
0
 62
     3
100
AcDbText
 10
88.59990600000001
 20
-208.979496
 30
0.0
 40
3.2
  1
変更・追記内容
  7
高3.2
100
AcDbText
  0
TEXT
  5
697
330
6B
100
AcDbEntity
  8
0
 62
     3
100
AcDbText
 10
63.71342100033925
 20
-213.6500345099083
 30
0.0
 40
2.0
  1
1
  7
高2
100
AcDbText
  0
TEXT
  5
698
330
6B
100
AcDbEntity
  8
0
 62
     3
100
AcDbText
 10
63.40490952358194
 20
-218.8198512221812
 30
0.0
 40
2.0
  1
2
  7
高2
100
AcDbText
  0
TEXT
  5
699
330
6B
100
AcDbEntity
  8
0
 62
     3
100
AcDbText
 10
70.599906
 20
-208.979496
 30
0.0
 40
3.2
  1
日　付
  7
高3.2
100
AcDbText
  0
TEXT
  5
69A
330
6B
100
AcDbEntity
  8
0
 62
     3
100
AcDbText
 10
70.599906
 20
-203.979496
 30
0.0
 40
3.2
  1
図　　　　面　　　　略　　　　歴
  7
高3.2
100
AcDbText
  0
TEXT
  5
69B
330
6B
100
AcDbEntity
  8
0
 62
     3
100
AcDbText
 10
60.599906
 20
-208.979496
 30
0.0
 40
3.2
  1
記号
  7
高3.2
100
AcDbText
  0
LINE
  5
69C
330
6B
100
AcDbEntity
  8
0
100
AcDbLine
 10
64.099906
 20
-215.6885999999999
 30
0.0
 11
62.19990600000002
 21
-218.979496
 31
0.0
  0
LINE
  5
69D
330
6B
100
AcDbEntity
  8
0
100
AcDbLine
 10
64.099906
 20
-215.6885999999999
 30
0.0
 11
65.99990599999998
 21
-218.979496
 31
0.0
  0
LINE
  5
69E
330
6B
100
AcDbEntity
  8
0
100
AcDbLine
 10
62.19990600000002
 20
-218.979496
 30
0.0
 11
65.99990599999998
 21
-218.979496
 31
0.0
  0
LINE
  5
69F
330
6B
100
AcDbEntity
  8
0
100
AcDbLine
 10
64.099906
 20
-210.6885989999999
 30
0.0
 11
62.19990600000002
 21
-213.979496
 31
0.0
  0
LINE
  5
6A0
330
6B
100
AcDbEntity
  8
0
100
AcDbLine
 10
64.099906
 20
-210.6885989999999
 30
0.0
 11
65.99990599999998
 21
-213.979496
 31
0.0
  0
LINE
  5
6A1
330
6B
100
AcDbEntity
  8
0
100
AcDbLine
 10
62.19990600000002
 20
-213.979496
 30
0.0
 11
65.99990599999998
 21
-213.979496
 31
0.0
  0
LINE
  5
6A2
330
6B
100
AcDbEntity
  8
0
 62
     3
100
AcDbLine
 10
59.099906
 20
-204.479496
 30
0.0
 11
145.099906
 21
-204.479496
 31
0.0
  0
LINE
  5
6A3
330
6B
100
AcDbEntity
  8
0
 62
     3
100
AcDbLine
 10
59.099906
 20
-209.479496
 30
0.0
 11
145.099906
 21
-209.479496
 31
0.0
  0
LINE
  5
6A4
330
6B
100
AcDbEntity
  8
0
 62
     7
100
AcDbLine
 10
59.099906
 20
-214.479496
 30
0.0
 11
145.099906
 21
-214.479496
 31
0.0
  0
LINE
  5
6A5
330
6B
100
AcDbEntity
  8
0
 62
     3
100
AcDbLine
 10
59.099906
 20
-219.479496
 30
0.0
 11
145.099906
 21
-219.479496
 31
0.0
  0
LINE
  5
6A6
330
6B
100
AcDbEntity
  8
0
 62
     7
100
AcDbLine
 10
134.7833836085053
 20
-219.479496
 30
0.0
 11
134.7833836085054
 21
-204.479496
 31
0.0
  0
LINE
  5
6A7
330
6B
100
AcDbEntity
  8
0
 62
     7
100
AcDbLine
 10
87.09990600000002
 20
-219.479496
 30
0.0
 11
87.09990600000002
 21
-204.479496
 31
0.0
  0
LINE
  5
6A8
330
6B
100
AcDbEntity
  8
0
 62
     7
100
AcDbLine
 10
69.099906
 20
-219.479496
 30
0.0
 11
69.099906
 21
-204.479496
 31
0.0
  0
LINE
  5
6A9
330
6B
100
AcDbEntity
  8
0
 62
     3
100
AcDbLine
 10
59.099906
 20
-219.479496
 30
0.0
 11
59.099906
 21
-199.479496
 31
0.0
  0
TEXT
  5
10C2
330
6B
100
AcDbEntity
  8
0
 62
     3
100
AcDbText
 10
70.59990600000003
 20
-213.979496
 30
0.0
 40
3.2
  1
`15.8.7
  7
高3.2
100
AcDbText
  0
TEXT
  5
10C3
330
6B
100
AcDbEntity
  8
0
 62
     3
100
AcDbText
 10
88.59990600000003
 20
-213.979496
 30
0.0
 40
3.2
  1
刃ホルダー材質変更
  7
高3.2
100
AcDbText
  0
TEXT
  5
10C4
330
6B
100
AcDbEntity
  8
0
 62
     3
100
AcDbText
 10
136.2428400334209
 20
-213.979496
 30
0.0
 40
3.2
  1
牧田
  7
高3.2
100
AcDbText
  0
TEXT
  5
10C5
330
6B
100
AcDbEntity
  8
0
 62
     3
100
AcDbText
 10
77.24386150828104
 20
-321.4672312300262
 30
0.0
 40
3.2
  1
耐トラッキング対策品
  7
高3.2
100
AcDbText
  0
LINE
  5
11BE
330
6B
100
AcDbEntity
  8
0
  6
Continuous
100
AcDbLine
 10
37.44376421198332
 20
-332.4486020465443
 30
0.0
 11
84.51434743320829
 21
-332.4486020465443
 31
0.0
  0
LINE
  5
1714
330
6B
100
AcDbEntity
  8
001
 62
     3
100
AcDbLine
 10
-36.21877662829411
 20
-327.7455714449433
 30
0.0
 11
-36.21877662829411
 21
-363.7455714449433
 31
0.0
  0
ARC
  5
1715
330
6B
100
AcDbEntity
  8
001
 62
     3
100
AcDbCircle
 10
-40.58219862829412
 20
-329.9955714449433
 30
0.0
 40
3.75
100
AcDbArc
 50
36.86989800000063
 51
152.1818609999988
  0
ARC
  5
1716
330
6B
100
AcDbEntity
  8
001
 62
     3
100
AcDbCircle
 10
-40.58219862829412
 20
-361.4955714449433
 30
0.0
 40
3.75
100
AcDbArc
 50
207.8181389999983
 51
323.1301019999994
  0
LINE
  5
1717
330
6B
100
AcDbEntity
  8
001
 62
     3
100
AcDbLine
 10
-95.21877662829405
 20
-334.7455714449433
 30
0.0
 11
-93.21877662829416
 21
-334.7455714449433
 31
0.0
  0
LINE
  5
1718
330
6B
100
AcDbEntity
  8
001
 62
     3
100
AcDbLine
 10
-96.21877662829405
 20
-336.7455714449433
 30
0.0
 11
-96.21877662829405
 21
-339.4029714449433
 31
0.0
  0
LINE
  5
1719
330
6B
100
AcDbEntity
  8
001
 62
     3
100
AcDbLine
 10
-96.21877662829405
 20
-354.7455714449433
 30
0.0
 11
-96.21877662829405
 21
-352.0881724449433
 31
0.0
  0
LINE
  5
171A
330
6B
100
AcDbEntity
  8
001
 62
     3
100
AcDbLine
 10
-93.21877662829416
 20
-356.7455714449433
 30
0.0
 11
-95.21877662829405
 21
-356.7455714449433
 31
0.0
  0
LINE
  5
171B
330
6B
100
AcDbEntity
  8
001
 62
     3
100
AcDbLine
 10
-91.71877662829411
 20
-337.2455714449433
 30
0.0
 11
-81.71877662829411
 21
-337.2455714449433
 31
0.0
  0
LINE
  5
171C
330
6B
100
AcDbEntity
  8
001
 62
     3
100
AcDbLine
 10
-81.71877662829411
 20
-354.2455714449432
 30
0.0
 11
-91.71877662829411
 21
-354.2455714449432
 31
0.0
  0
LINE
  5
171D
330
6B
100
AcDbEntity
  8
001
 62
     3
100
AcDbLine
 10
-53.7754276282941
 20
-363.2455714449433
 30
0.0
 11
-43.89882362829411
 21
-363.2455714449433
 31
0.0
  0
LINE
  5
171E
330
6B
100
AcDbEntity
  8
001
 62
     3
100
AcDbLine
 10
-53.7754276282941
 20
-328.2455714449433
 30
0.0
 11
-43.89882362829411
 21
-328.2455714449433
 31
0.0
  0
ARC
  5
171F
330
6B
100
AcDbEntity
  8
001
 62
     3
100
AcDbCircle
 10
-91.71877662829411
 20
-354.7455714449433
 30
0.0
 40
0.5
100
AcDbArc
 50
90.0
 51
180.0
  0
ARC
  5
1720
330
6B
100
AcDbEntity
  8
001
 62
     3
100
AcDbCircle
 10
-81.71877662829411
 20
-354.7455714449433
 30
0.0
 40
0.5
100
AcDbArc
 50
0.0
 51
90.0
  0
ARC
  5
1721
330
6B
100
AcDbEntity
  8
001
 62
     3
100
AcDbCircle
 10
-81.71877662829411
 20
-336.7455714449433
 30
0.0
 40
0.5
100
AcDbArc
 50
270.0
 51
0.0
  0
ARC
  5
1722
330
6B
100
AcDbEntity
  8
001
 62
     3
100
AcDbCircle
 10
-91.71877662829411
 20
-336.7455714449433
 30
0.0
 40
0.5
100
AcDbArc
 50
180.0
 51
270.0
  0
ARC
  5
172C
330
6B
100
AcDbEntity
  8
001
 62
     7
100
AcDbCircle
 10
-51.4687766282941
 20
-342.1778324449432
 30
0.0
 40
0.2
100
AcDbArc
 50
180.0
 51
270.0
  0
ARC
  5
172D
330
6B
100
AcDbEntity
  8
001
 62
     7
100
AcDbCircle
 10
-51.4687766282941
 20
-343.0778324449432
 30
0.0
 40
0.2
100
AcDbArc
 50
90.0
 51
180.0
  0
ARC
  5
172E
330
6B
100
AcDbEntity
  8
001
 62
     7
100
AcDbCircle
 10
-52.36877662829414
 20
-342.1778324449432
 30
0.0
 40
0.2
100
AcDbArc
 50
270.0
 51
0.0
  0
LINE
  5
172F
330
6B
100
AcDbEntity
  8
001
  6
PHANTOM
 62
     7
100
AcDbLine
 10
-52.97747262829409
 20
-346.1590814449433
 30
0.0
 11
-58.91877662829415
 21
-344.3778324449433
 31
0.0
  0
LINE
  5
1730
330
6B
100
AcDbEntity
  8
001
  6
PHANTOM
100
AcDbLine
 10
-52.97747262829409
 20
-339.0965834449433
 30
0.0
 11
-58.91877662829415
 21
-340.8778324449432
 31
0.0
  0
ARC
  5
1731
330
6B
100
AcDbEntity
  8
001
  6
PHANTOM
 62
     7
100
AcDbCircle
 10
-51.91877662829416
 20
-342.6278324449433
 30
0.0
 40
3.686537
100
AcDbArc
 50
253.3108619999992
 51
106.6891380000008
  0
ARC
  5
1736
330
6B
100
AcDbEntity
  8
001
 62
     3
100
AcDbCircle
 10
-95.21877662829405
 20
-355.7455714449432
 30
0.0
 40
1.0
100
AcDbArc
 50
180.0
 51
270.0
  0
ARC
  5
1737
330
6B
100
AcDbEntity
  8
001
 62
     3
100
AcDbCircle
 10
-93.21877662829416
 20
-355.7455714449432
 30
0.0
 40
1.0
100
AcDbArc
 50
270.0
 51
0.0
  0
ARC
  5
1738
330
6B
100
AcDbEntity
  8
001
 62
     3
100
AcDbCircle
 10
-93.21877662829416
 20
-335.7455714449433
 30
0.0
 40
1.0
100
AcDbArc
 50
0.0
 51
90.0
  0
ARC
  5
1739
330
6B
100
AcDbEntity
  8
001
 62
     3
100
AcDbCircle
 10
-95.21877662829405
 20
-335.7455714449433
 30
0.0
 40
1.0
100
AcDbArc
 50
90.0
 51
180.0
  0
LINE
  5
173A
330
6B
100
AcDbEntity
  8
001
 62
     3
100
AcDbLine
 10
-96.21877662829405
 20
-355.7455714449432
 30
0.0
 11
-96.21877662829405
 21
-354.7455714449433
 31
0.0
  0
LINE
  5
173B
330
6B
100
AcDbEntity
  8
001
 62
     3
100
AcDbLine
 10
-92.21877662829413
 20
-355.7455714449432
 30
0.0
 11
-92.21877662829413
 21
-354.7455714449433
 31
0.0
  0
LINE
  5
173C
330
6B
100
AcDbEntity
  8
001
 62
     3
100
AcDbLine
 10
-92.21877662829413
 20
-336.7455714449433
 30
0.0
 11
-92.21877662829413
 21
-335.7455714449433
 31
0.0
  0
LINE
  5
173D
330
6B
100
AcDbEntity
  8
001
 62
     3
100
AcDbLine
 10
-96.21877662829405
 20
-336.7455714449433
 30
0.0
 11
-96.21877662829405
 21
-335.7455714449433
 31
0.0
  0
LINE
  5
1740
330
6B
100
AcDbEntity
  8
001
  6
CENTER
100
AcDbLine
 10
-78.71877662829411
 20
-344.0278324449433
 30
0.0
 11
-76.62492262829409
 21
-344.0278324449433
 31
0.0
  0
LINE
  5
1741
330
6B
100
AcDbEntity
  8
001
  6
CENTER
100
AcDbLine
 10
-78.71877662829411
 20
-347.2278324449432
 30
0.0
 11
-76.62492262829409
 21
-347.2278324449432
 31
0.0
  0
LINE
  5
1742
330
6B
100
AcDbEntity
  8
001
  6
CENTER
100
AcDbLine
 10
-64.41877662829412
 20
-341.2285784449433
 30
0.0
 11
-76.62492262829409
 21
-344.0278324449433
 31
0.0
  0
LINE
  5
1743
330
6B
100
AcDbEntity
  8
001
  6
CENTER
100
AcDbLine
 10
-64.41877662829412
 20
-343.8624514449433
 30
0.0
 11
-76.62492262829409
 21
-347.2278324449432
 31
0.0
  0
LINE
  5
1744
330
6B
100
AcDbEntity
  8
001
  6
CENTER
100
AcDbLine
 10
-64.41877662829412
 20
-341.2285784449433
 30
0.0
 11
-63.91877662829412
 21
-341.2285784449433
 31
0.0
  0
LINE
  5
1745
330
6B
100
AcDbEntity
  8
001
  6
CENTER
100
AcDbLine
 10
-64.41877662829412
 20
-343.8624514449433
 30
0.0
 11
-63.91877662829412
 21
-343.8624514449433
 31
0.0
  0
LINE
  5
1746
330
6B
100
AcDbEntity
  8
001
 62
     3
100
AcDbLine
 10
-99.71877662829406
 20
-339.7955714449433
 30
0.0
 11
-99.71877662829406
 21
-351.6955714449432
 31
0.0
  0
LINE
  5
1747
330
6B
100
AcDbEntity
  8
001
  6
PHANTOM
100
AcDbLine
 10
-99.71877662829406
 20
-340.2955714449433
 30
0.0
 11
-112.544995628294
 21
-340.2955714449433
 31
0.0
  0
ARC
  5
1748
330
6B
100
AcDbEntity
  8
001
  6
PHANTOM
100
AcDbCircle
 10
-114.333464628294
 20
-342.9617024449433
 30
0.0
 40
3.210431999999998
100
AcDbArc
 50
303.8541369999985
 51
56.14586300000151
  0
ARC
  5
1749
330
6B
100
AcDbEntity
  8
001
  6
PHANTOM
100
AcDbCircle
 10
-110.756526628294
 20
-342.9617024449433
 30
0.0
 40
3.210431999999998
100
AcDbArc
 50
123.8541369999984
 51
236.1458630000015
  0
ARC
  5
174A
330
6B
100
AcDbEntity
  8
001
  6
PHANTOM
100
AcDbCircle
 10
-110.756526628294
 20
-348.2939624449433
 30
0.0
 40
3.210431999999998
100
AcDbArc
 50
123.8541369999984
 51
236.1458630000015
  0
LINE
  5
174B
330
6B
100
AcDbEntity
  8
001
  6
PHANTOM
100
AcDbLine
 10
-99.71877662829406
 20
-351.1955714449432
 30
0.0
 11
-112.544995628294
 21
-351.1955714449432
 31
0.0
  0
LINE
  5
1768
330
6B
100
AcDbEntity
  8
001
 62
     3
100
AcDbLine
 10
-96.70710562829416
 20
-351.6955714449432
 30
0.0
 11
-99.71877662829406
 21
-351.6955714449432
 31
0.0
  0
LINE
  5
1769
330
6B
100
AcDbEntity
  8
001
 62
     3
100
AcDbLine
 10
-96.70710562829416
 20
-339.7955714449433
 30
0.0
 11
-99.71877662829406
 21
-339.7955714449433
 31
0.0
  0
LINE
  5
176A
330
6B
100
AcDbEntity
  8
001
 62
     3
100
AcDbLine
 10
-37.58219862829412
 20
-327.7455714449433
 30
0.0
 11
-36.21877662829411
 21
-327.7455714449433
 31
0.0
  0
LINE
  5
176B
330
6B
100
AcDbEntity
  8
001
 62
     3
100
AcDbLine
 10
-37.58219862829412
 20
-363.7455714449433
 30
0.0
 11
-36.21877662829411
 21
-363.7455714449433
 31
0.0
  0
ARC
  5
176C
330
6B
100
AcDbEntity
  8
001
 62
     3
100
AcDbCircle
 10
-96.70710562829416
 20
-339.2955714449433
 30
0.0
 40
0.5
100
AcDbArc
 50
270.0
 51
4.094221000001433
  0
ARC
  5
176D
330
6B
100
AcDbEntity
  8
001
 62
     3
100
AcDbCircle
 10
-96.70710562829416
 20
-352.1955714449433
 30
0.0
 40
0.5
100
AcDbArc
 50
358.7724209999995
 51
90.0
  0
LINE
  5
17C0
330
6B
100
AcDbEntity
  8
001
 62
     3
100
AcDbLine
 10
-80.2187766282941
 20
-362.2455714449432
 30
0.0
 11
-60.0204256282941
 21
-362.2455714449432
 31
0.0
  0
LINE
  5
17C1
330
6B
100
AcDbEntity
  8
001
 62
     3
100
AcDbLine
 10
-81.2187766282941
 20
-361.2455714449433
 30
0.0
 11
-81.2187766282941
 21
-354.7455714449433
 31
0.0
  0
ARC
  5
17C2
330
6B
100
AcDbEntity
  8
001
 62
     3
100
AcDbCircle
 10
-80.2187766282941
 20
-361.2455714449433
 30
0.0
 40
1.0
100
AcDbArc
 50
180.0
 51
270.0
  0
LINE
  5
17C6
330
6B
100
AcDbEntity
  8
001
  6
PHANTOM
100
AcDbLine
 10
-81.2187766282941
 20
-357.3936814449433
 30
0.0
 11
-102.790425628294
 21
-357.3936814449433
 31
0.0
  0
LINE
  5
17C7
330
6B
100
AcDbEntity
  8
001
  6
PHANTOM
100
AcDbLine
 10
-81.2187766282941
 20
-360.9023014449432
 30
0.0
 11
-103.0008826282941
 21
-360.9023014449432
 31
0.0
  0
LINE
  5
17D8
330
6B
100
AcDbEntity
  8
001
100
AcDbLine
 10
-56.59590162829414
 20
-349.6028324449433
 30
0.0
 11
-64.41877662829412
 21
-349.6028324449433
 31
0.0
  0
LINE
  5
17D9
330
6B
100
AcDbEntity
  8
001
100
AcDbLine
 10
-64.41877662829412
 20
-347.6028324449433
 30
0.0
 11
-64.41877662829412
 21
-349.6028324449433
 31
0.0
  0
LINE
  5
17DA
330
6B
100
AcDbEntity
  8
001
100
AcDbLine
 10
-47.21877662829411
 20
-347.6028324449433
 30
0.0
 11
-64.41877662829412
 21
-347.6028324449433
 31
0.0
  0
LINE
  5
17DB
330
6B
100
AcDbEntity
  8
001
100
AcDbLine
 10
-68.91877662829412
 20
-352.1501544449432
 30
0.0
 11
-63.91877662829412
 21
-352.1501544449432
 31
0.0
  0
LINE
  5
17DC
330
6B
100
AcDbEntity
  8
001
100
AcDbLine
 10
-53.91877662829415
 20
-352.4028324449433
 30
0.0
 11
-49.91877662829415
 21
-352.4028324449433
 31
0.0
  0
ARC
  5
17DD
330
6B
100
AcDbEntity
  8
001
100
AcDbCircle
 10
-53.91877662829415
 20
-351.4028324449433
 30
0.0
 40
1.0
100
AcDbArc
 50
180.0
 51
270.0
  0
LINE
  5
17DE
330
6B
100
AcDbEntity
  8
001
100
AcDbLine
 10
-54.91877662829415
 20
-351.4028324449433
 30
0.0
 11
-54.91877662829415
 21
-350.4028324449433
 31
0.0
  0
LINE
  5
17DF
330
6B
100
AcDbEntity
  8
001
100
AcDbLine
 10
-47.21877662829411
 20
-331.3205714449432
 30
0.0
 11
-47.21877662829411
 21
-360.1705714449433
 31
0.0
  0
LINE
  5
17E0
330
6B
100
AcDbEntity
  8
001
100
AcDbLine
 10
-63.91877662829412
 20
-352.1501544449432
 30
0.0
 11
-65.46419262829411
 21
-352.1501544449432
 31
0.0
  0
LINE
  5
17E1
330
6B
100
AcDbEntity
  8
001
100
AcDbLine
 10
-58.91877662829415
 20
-350.3944874449433
 30
0.0
 11
-49.91877662829415
 21
-350.3944874449433
 31
0.0
  0
LINE
  5
17E2
330
6B
100
AcDbEntity
  8
001
100
AcDbLine
 10
-49.91877662829415
 20
-349.6028324449433
 30
0.0
 11
-56.59590162829414
 21
-349.6028324449433
 31
0.0
  0
LINE
  5
17E3
330
6B
100
AcDbEntity
  8
001
 62
     7
100
AcDbLine
 10
-51.4687766282941
 20
-342.8778324449432
 30
0.0
 11
-50.18672662829408
 21
-342.8778324449432
 31
0.0
  0
LINE
  5
1858
330
6B
100
AcDbEntity
  8
001
 62
     3
100
AcDbLine
 10
-56.14177462829411
 20
-327.3633114449432
 30
0.0
 11
-59.14177462829411
 21
-327.3633114449432
 31
0.0
  0
LINE
  5
1859
330
6B
100
AcDbEntity
  8
001
 62
     3
100
AcDbLine
 10
-63.21075762829412
 20
-329.7217254449433
 30
0.0
 11
-66.14177462829411
 21
-329.7217254449433
 31
0.0
  0
LINE
  5
185A
330
6B
100
AcDbEntity
  8
001
 62
     3
100
AcDbLine
 10
-70.14177462829412
 20
-332.4132154449433
 30
0.0
 11
-73.07954562829412
 21
-332.4132154449433
 31
0.0
  0
LINE
  5
185B
330
6B
100
AcDbEntity
  8
001
 62
     7
100
AcDbLine
 10
-80.68735662829414
 20
-333.7455714449433
 30
0.0
 11
-78.64177462829411
 21
-333.7455714449433
 31
0.0
  0
LINE
  5
185C
330
6B
100
AcDbEntity
  8
001
 62
     3
100
AcDbLine
 10
-78.14177462829412
 20
-334.2455714449433
 30
0.0
 11
-78.14177462829412
 21
-335.3379104449433
 31
0.0
  0
LINE
  5
185D
330
6B
100
AcDbEntity
  8
001
 62
     3
100
AcDbLine
 10
-73.07954562829412
 20
-332.4132154449433
 30
0.0
 11
-73.07954562829412
 21
-334.2644894449433
 31
0.0
  0
LINE
  5
185E
330
6B
100
AcDbEntity
  8
001
 62
     3
100
AcDbLine
 10
-70.14177462829412
 20
-332.4132154449433
 30
0.0
 11
-70.14177462829412
 21
-333.4012744449432
 31
0.0
  0
ARC
  5
185F
330
6B
100
AcDbEntity
  8
001
 62
     7
100
AcDbCircle
 10
-78.64177462829411
 20
-334.2455714449433
 30
0.0
 40
0.5
100
AcDbArc
 50
0.0
 51
90.0
  0
LINE
  5
1860
330
6B
100
AcDbEntity
  8
001
 62
     3
100
AcDbLine
 10
-81.18735662829413
 20
-334.2455714449433
 30
0.0
 11
-81.18735662829413
 21
-336.7455714449433
 31
0.0
  0
LINE
  5
1861
330
6B
100
AcDbEntity
  8
001
 62
     3
100
AcDbLine
 10
-66.14177462829411
 20
-331.9223974449433
 30
0.0
 11
-66.14177462829411
 21
-329.7217254449433
 31
0.0
  0
LINE
  5
1862
330
6B
100
AcDbEntity
  8
001
 62
     3
100
AcDbLine
 10
-63.21075762829412
 20
-330.5997164449433
 30
0.0
 11
-63.21075762829412
 21
-329.7217254449433
 31
0.0
  0
LINE
  5
1863
330
6B
100
AcDbEntity
  8
001
 62
     3
100
AcDbLine
 10
-59.14177462829411
 20
-327.3633114449432
 30
0.0
 11
-59.14177462829411
 21
-328.9789604449433
 31
0.0
  0
LINE
  5
1864
330
6B
100
AcDbEntity
  8
001
 62
     3
100
AcDbLine
 10
-56.14177462829411
 20
-328.3860554449433
 30
0.0
 11
-56.14177462829411
 21
-327.3633114449432
 31
0.0
  0
LINE
  5
1865
330
6B
100
AcDbEntity
  8
001
 62
     3
100
AcDbLine
 10
-56.14177462829411
 20
-363.1050884449432
 30
0.0
 11
-56.14177462829411
 21
-364.1278324449432
 31
0.0
  0
LINE
  5
1866
330
6B
100
AcDbEntity
  8
001
 62
     3
100
AcDbLine
 10
-59.14177462829411
 20
-364.1278324449432
 30
0.0
 11
-59.14177462829411
 21
-362.5121834449433
 31
0.0
  0
LINE
  5
1867
330
6B
100
AcDbEntity
  8
001
 62
     3
100
AcDbLine
 10
-56.14177462829411
 20
-364.1278324449432
 30
0.0
 11
-59.14177462829411
 21
-364.1278324449432
 31
0.0
  0
ARC
  5
1868
330
6B
100
AcDbEntity
  8
001
 62
     3
100
AcDbCircle
 10
-53.7754276282941
 20
-348.2455714449432
 30
0.0
 40
20.0
100
AcDbArc
 50
90.0
 51
96.79500200000003
  0
ARC
  5
1869
330
6B
100
AcDbEntity
  8
001
 62
     3
100
AcDbCircle
 10
-53.7754276282941
 20
-348.2455714449432
 30
0.0
 40
20.0
100
AcDbArc
 50
105.564164
 51
116.5847919999995
  0
ARC
  5
186A
330
6B
100
AcDbEntity
  8
001
 62
     3
100
AcDbCircle
 10
-86.71877662829411
 20
-282.4155854449432
 30
0.0
 40
53.61284799999999
100
AcDbArc
 50
296.0067699999992
 51
296.5847919999995
  0
ARC
  5
186B
330
6B
100
AcDbEntity
  8
001
 62
     3
100
AcDbCircle
 10
-86.71877662829411
 20
-282.4155854449432
 30
0.0
 40
53.61284799999999
100
AcDbArc
 50
280.2101029999999
 51
284.7381709999981
  0
ARC
  5
186C
330
6B
100
AcDbEntity
  8
001
 62
     3
100
AcDbCircle
 10
-86.71877662829411
 20
-282.4155854449432
 30
0.0
 40
53.61284799999999
100
AcDbArc
 50
288.0109240000004
 51
292.5697159999986
  0
ARC
  5
186D
330
6B
100
AcDbEntity
  8
001
 62
     3
100
AcDbCircle
 10
-53.7754276282941
 20
-343.2455714449432
 30
0.0
 40
20.0
100
AcDbArc
 50
263.204998
 51
270.0
  0
ARC
  5
186E
330
6B
100
AcDbEntity
  8
001
 62
     3
100
AcDbCircle
 10
-53.7754276282941
 20
-343.2455714449432
 30
0.0
 40
20.0
100
AcDbArc
 50
251.8051279999993
 51
254.435836
  0
ARC
  5
186F
330
6B
100
AcDbEntity
  8
001
 62
     7
100
AcDbCircle
 10
-80.68735662829414
 20
-334.2455714449433
 30
0.0
 40
0.5
100
AcDbArc
 50
90.0
 51
180.0
  0
LINE
  5
1870
330
6B
100
AcDbEntity
  8
001
100
AcDbLine
 10
-64.41877662829412
 20
-345.6278324449432
 30
0.0
 11
-64.41877662829412
 21
-337.4509364449433
 31
0.0
  0
LINE
  5
1871
330
6B
100
AcDbEntity
  8
001
100
AcDbLine
 10
-56.91877662829416
 20
-336.1278324449433
 30
0.0
 11
-64.43567162829413
 21
-336.1278324449433
 31
0.0
  0
LINE
  5
1872
330
6B
100
AcDbEntity
  8
001
100
AcDbLine
 10
-64.41877662829412
 20
-337.4509364449433
 30
0.0
 11
-64.41877662829412
 21
-336.1278324449433
 31
0.0
  0
CIRCLE
  5
1873
330
6B
100
AcDbEntity
  8
001
 62
     7
100
AcDbCircle
 10
-51.91877662829416
 20
-342.6278324449433
 30
0.0
 40
3.0
  0
LINE
  5
1874
330
6B
100
AcDbEntity
  8
001
 62
     7
100
AcDbLine
 10
-51.66877662829415
 20
-343.0778324449432
 30
0.0
 11
-51.66877662829415
 21
-345.6173974449433
 31
0.0
  0
LINE
  5
1875
330
6B
100
AcDbEntity
  8
001
 62
     7
100
AcDbLine
 10
-51.66877662829415
 20
-342.1778324449432
 30
0.0
 11
-51.66877662829415
 21
-339.6382664449433
 31
0.0
  0
LINE
  5
1876
330
6B
100
AcDbEntity
  8
001
 62
     7
100
AcDbLine
 10
-52.36877662829414
 20
-342.3778324449433
 30
0.0
 11
-53.65082762829411
 21
-342.3778324449433
 31
0.0
  0
LINE
  5
1877
330
6B
100
AcDbEntity
  8
001
100
AcDbLine
 10
-42.21877662829411
 20
-362.2455714449432
 30
0.0
 11
-42.21877662829411
 21
-328.6278324449432
 31
0.0
  0
LINE
  5
1878
330
6B
100
AcDbEntity
  8
001
100
AcDbLine
 10
-39.21877662829411
 20
-329.2455714449433
 30
0.0
 11
-39.21877662829411
 21
-362.2455714449432
 31
0.0
  0
LINE
  5
1879
330
6B
100
AcDbEntity
  8
001
100
AcDbLine
 10
-46.91877662829415
 20
-360.2455714449432
 30
0.0
 11
-44.91877662829415
 21
-360.7455714449432
 31
0.0
  0
LINE
  5
187A
330
6B
100
AcDbEntity
  8
001
100
AcDbLine
 10
-36.21877662829411
 20
-359.7455714449433
 30
0.0
 11
-39.21877662829411
 21
-359.7455714449433
 31
0.0
  0
LINE
  5
187B
330
6B
100
AcDbEntity
  8
001
100
AcDbLine
 10
-36.21877662829411
 20
-331.7455714449433
 30
0.0
 11
-39.21877662829411
 21
-331.7455714449433
 31
0.0
  0
LINE
  5
187C
330
6B
100
AcDbEntity
  8
001
100
AcDbLine
 10
-39.21877662829411
 20
-329.2455714449433
 30
0.0
 11
-42.21877662829411
 21
-329.2455714449433
 31
0.0
  0
LINE
  5
1899
330
6B
100
AcDbEntity
  8
001
 62
     3
100
AcDbLine
 10
-95.23102162829406
 20
-339.3169954449433
 30
0.0
 11
-95.22926162829406
 21
-339.2348604449432
 31
0.0
  0
LINE
  5
189D
330
6B
100
AcDbEntity
  8
001
 62
     7
100
AcDbLine
 10
-56.91877662829416
 20
-344.9311284449432
 30
0.0
 11
-56.91877662829416
 21
-345.6278324449432
 31
0.0
  0
LINE
  5
1913
330
6B
100
AcDbEntity
  8
001
100
AcDbLine
 10
-47.21877662829411
 20
-359.7455714449433
 30
0.0
 11
-71.21877662829411
 21
-359.7455714449433
 31
0.0
  0
LINE
  5
1914
330
6B
100
AcDbEntity
  8
001
100
AcDbLine
 10
-71.21877662829411
 20
-353.8707474449433
 30
0.0
 11
-71.21877662829411
 21
-359.7455714449433
 31
0.0
  0
ARC
  5
1915
330
6B
100
AcDbEntity
  8
001
100
AcDbCircle
 10
-86.71877662829411
 20
-408.8400784449432
 30
0.0
 40
57.112848
100
AcDbArc
 50
74.25285299999785
 51
82.27483999999778
  0
LINE
  5
1916
330
6B
100
AcDbEntity
  8
001
100
AcDbLine
 10
-94.79988362829407
 20
-352.2455714449432
 30
0.0
 11
-79.0415916282941
 21
-352.2455714449432
 31
0.0
  0
LINE
  5
1917
330
6B
100
AcDbEntity
  8
001
100
AcDbLine
 10
-79.0415916282941
 20
-352.2455714449432
 30
0.0
 11
-79.0415916282941
 21
-351.1955714449432
 31
0.0
  0
LINE
  5
1918
330
6B
100
AcDbEntity
  8
001
100
AcDbLine
 10
-79.0415916282941
 20
-339.0100924449433
 30
0.0
 11
-79.0415916282941
 21
-340.2955714449433
 31
0.0
  0
LINE
  5
1919
330
6B
100
AcDbEntity
  8
001
100
AcDbLine
 10
-94.79988362829407
 20
-339.0100924449433
 30
0.0
 11
-79.0415916282941
 21
-339.0100924449433
 31
0.0
  0
ARC
  5
191A
330
6B
100
AcDbEntity
  8
001
100
AcDbCircle
 10
-96.23079262829406
 20
-339.2955714449433
 30
0.0
 40
1.0
100
AcDbArc
 50
270.0
 51
358.7724209999995
  0
ARC
  5
191B
330
6B
100
AcDbEntity
  8
001
100
AcDbCircle
 10
-94.79988362829407
 20
-339.5100924449433
 30
0.0
 40
0.5
100
AcDbArc
 50
90.0
 51
162.5423969999994
  0
ARC
  5
191C
330
6B
100
AcDbEntity
  8
001
100
AcDbCircle
 10
-86.71877662829411
 20
-282.4155854449432
 30
0.0
 40
57.112848
100
AcDbArc
 50
277.7251600000022
 51
296.5847919999995
  0
ARC
  5
191D
330
6B
100
AcDbEntity
  8
001
100
AcDbCircle
 10
-53.7754276282941
 20
-348.2455714449432
 30
0.0
 40
16.5
100
AcDbArc
 50
90.0
 51
116.5847919999995
  0
LINE
  5
191E
330
6B
100
AcDbEntity
  8
001
100
AcDbLine
 10
-53.7754276282941
 20
-331.7455714449433
 30
0.0
 11
-47.21877662829411
 21
-331.7455714449433
 31
0.0
  0
LINE
  5
191F
330
6B
100
AcDbEntity
  8
001
100
AcDbLine
 10
-71.71877662829411
 20
-355.7455714449432
 30
0.0
 11
-71.71877662829411
 21
-359.2455714449433
 31
0.0
  0
LINE
  5
1920
330
6B
100
AcDbEntity
  8
001
100
AcDbLine
 10
-81.2187766282941
 20
-357.3936814449433
 30
0.0
 11
-71.71877662829411
 21
-355.7185754449433
 31
0.0
  0
LINE
  5
1921
330
6B
100
AcDbEntity
  8
001
100
AcDbLine
 10
-71.71877662829411
 20
-359.2725684449432
 30
0.0
 11
-81.2187766282941
 21
-360.9023014449432
 31
0.0
  0
ARC
  5
1922
330
6B
100
AcDbEntity
  8
001
100
AcDbCircle
 10
-96.23079262829406
 20
-352.1955714449433
 30
0.0
 40
1.0
100
AcDbArc
 50
17.45760300000055
 51
90.0
  0
ARC
  5
1923
330
6B
100
AcDbEntity
  8
001
100
AcDbCircle
 10
-94.79988362829407
 20
-351.7455714449432
 30
0.0
 40
0.5
100
AcDbArc
 50
197.4576030000005
 51
270.0
  0
ARC
  5
1924
330
6B
100
AcDbEntity
  8
001
 62
     7
100
AcDbCircle
 10
-52.36877662829414
 20
-343.0778324449432
 30
0.0
 40
0.2
100
AcDbArc
 50
0.0
 51
90.0
  0
LINE
  5
1925
330
6B
100
AcDbEntity
  8
001
100
AcDbLine
 10
-20.71877662829411
 20
-345.6278324449432
 30
0.0
 11
-20.71877662829411
 21
-339.3278324449432
 31
0.0
  0
LINE
  5
1926
330
6B
100
AcDbEntity
  8
001
100
AcDbLine
 10
-39.21877662829411
 20
-362.2455714449432
 30
0.0
 11
-42.21877662829411
 21
-362.2455714449432
 31
0.0
  0
LINE
  5
1927
330
6B
100
AcDbEntity
  8
001
100
AcDbLine
 10
-42.21877662829411
 20
-328.6278324449432
 30
0.0
 11
-36.21877662829411
 21
-328.6278324449432
 31
0.0
  0
ARC
  5
192D
330
6B
100
AcDbEntity
  8
001
 62
     3
100
AcDbCircle
 10
-17.14377662829412
 20
-354.0028324449433
 30
0.0
 40
2.325
100
AcDbArc
 50
270.0
 51
90.0
  0
LINE
  5
192E
330
6B
100
AcDbEntity
  8
001
 62
     3
100
AcDbLine
 10
-17.14377662829412
 20
-351.6778324449433
 30
0.0
 11
-36.21877662829411
 21
-351.6778324449433
 31
0.0
  0
LINE
  5
192F
330
6B
100
AcDbEntity
  8
001
 62
     3
100
AcDbLine
 10
-17.14377662829412
 20
-356.3278324449432
 30
0.0
 11
-36.21877662829411
 21
-356.3278324449432
 31
0.0
  0
LINE
  5
1991
330
6B
100
AcDbEntity
  8
001
  6
PHANTOM
100
AcDbLine
 10
-63.91877662829412
 20
-340.8778324449432
 30
0.0
 11
-58.91877662829415
 21
-340.8778324449432
 31
0.0
  0
LINE
  5
1992
330
6B
100
AcDbEntity
  8
001
  6
PHANTOM
100
AcDbLine
 10
-63.91877662829412
 20
-340.8778324449432
 30
0.0
 11
-63.91877662829412
 21
-344.3778324449433
 31
0.0
  0
LINE
  5
1993
330
6B
100
AcDbEntity
  8
001
  6
PHANTOM
100
AcDbLine
 10
-63.91877662829412
 20
-344.3778324449433
 30
0.0
 11
-58.91877662829415
 21
-344.3778324449433
 31
0.0
  0
LINE
  5
1994
330
6B
100
AcDbEntity
  8
001
  6
PHANTOM
100
AcDbLine
 10
-58.91877662829415
 20
-340.8778324449432
 30
0.0
 11
-58.91877662829415
 21
-344.3778324449433
 31
0.0
  0
LINE
  5
1995
330
6B
100
AcDbEntity
  8
001
  6
PHANTOM
100
AcDbLine
 10
-78.71877662829411
 20
-340.2955714449433
 30
0.0
 11
-78.71877662829411
 21
-351.1955714449432
 31
0.0
  0
CIRCLE
  5
1996
330
6B
100
AcDbEntity
  8
001
 62
     3
100
AcDbCircle
 10
-24.51877662829412
 20
-342.4778324449432
 30
0.0
 40
1.5
  0
LINE
  5
1997
330
6B
100
AcDbEntity
  8
001
 62
     3
100
AcDbLine
 10
-20.71877662829411
 20
-339.3278324449432
 30
0.0
 11
-36.21877662829411
 21
-339.3278324449432
 31
0.0
  0
ARC
  5
1998
330
6B
100
AcDbEntity
  8
001
 62
     3
100
AcDbCircle
 10
-23.27627662829411
 20
-342.4778324449432
 30
0.0
 40
4.0575
100
AcDbArc
 50
309.0733099999988
 51
50.9266900000012
  0
LINE
  5
1999
330
6B
100
AcDbEntity
  8
001
 62
     3
100
AcDbLine
 10
-36.21877662829411
 20
-345.6278324449432
 30
0.0
 11
-20.71877662829411
 21
-345.6278324449432
 31
0.0
  0
LINE
  5
199A
330
6B
100
AcDbEntity
  8
001
  6
PHANTOM
100
AcDbLine
 10
-78.71877662829411
 20
-340.2955714449433
 30
0.0
 11
-99.71877662829406
 21
-340.2955714449433
 31
0.0
  0
LINE
  5
199B
330
6B
100
AcDbEntity
  8
001
  6
PHANTOM
100
AcDbLine
 10
-99.71877662829406
 20
-351.1955714449432
 30
0.0
 11
-78.71877662829411
 21
-351.1955714449432
 31
0.0
  0
ARC
  5
19AD
330
6B
100
AcDbEntity
  8
001
100
AcDbCircle
 10
-63.71877662829411
 20
-348.4028324449433
 30
0.0
 40
0.7
100
AcDbArc
 50
90.0
 51
93.33891499999927
  0
LINE
  5
19AE
330
6B
100
AcDbEntity
  8
001
100
AcDbLine
 10
-47.21877662829411
 20
-351.1278324449432
 30
0.0
 11
-49.91877662829415
 21
-351.1278324449432
 31
0.0
  0
LINE
  5
19AF
330
6B
100
AcDbEntity
  8
001
100
AcDbLine
 10
-49.91877662829415
 20
-351.1278324449432
 30
0.0
 11
-49.91877662829415
 21
-349.6028324449433
 31
0.0
  0
LINE
  5
19B2
330
6B
100
AcDbEntity
  8
001
100
AcDbLine
 10
-47.21877662829411
 20
-336.1278324449433
 30
0.0
 11
-56.91877662829416
 21
-336.1278324449433
 31
0.0
  0
LINE
  5
19B3
330
6B
100
AcDbEntity
  8
001
100
AcDbLine
 10
-56.91877662829416
 20
-336.1278324449433
 30
0.0
 11
-56.91877662829416
 21
-340.3245354449433
 31
0.0
  0
LINE
  5
19B4
330
6B
100
AcDbEntity
  8
001
 62
     7
100
AcDbLine
 10
-64.41877662829412
 20
-345.6278324449432
 30
0.0
 11
-54.74943862829412
 21
-345.6278324449432
 31
0.0
  0
LINE
  5
19B5
330
6B
100
AcDbEntity
  8
001
100
AcDbLine
 10
-49.77621862829415
 20
-345.6278324449432
 30
0.0
 11
-47.21877662829411
 21
-345.6278324449432
 31
0.0
  0
LINE
  5
19B6
330
6B
100
AcDbEntity
  8
001
100
AcDbLine
 10
-42.21877662829411
 20
-360.7455714449432
 30
0.0
 11
-44.91877662829415
 21
-360.7455714449432
 31
0.0
  0
LINE
  5
19B7
330
6B
100
AcDbEntity
  8
001
100
AcDbLine
 10
-42.21877662829411
 20
-330.7455714449432
 30
0.0
 11
-44.91877662829415
 21
-330.7455714449432
 31
0.0
  0
LINE
  5
19B8
330
6B
100
AcDbEntity
  8
001
100
AcDbLine
 10
-46.91877662829415
 20
-331.2455714449433
 30
0.0
 11
-44.91877662829415
 21
-330.7455714449432
 31
0.0
  0
LINE
  5
19D4
330
6B
100
AcDbEntity
  8
0
  6
Continuous
100
AcDbLine
 10
-64.41877662829412
 20
-349.3834504449432
 30
0.0
 11
-68.91877662829412
 21
-349.3834504449432
 31
0.0
  0
LINE
  5
19D5
330
6B
100
AcDbEntity
  8
0
  6
Continuous
100
AcDbLine
 10
-68.91877662829412
 20
-352.1501544449432
 30
0.0
 11
-68.91877662829412
 21
-349.3834504449432
 31
0.0
  0
LINE
  5
19D6
330
6B
100
AcDbEntity
  8
0
  6
Continuous
100
AcDbLine
 10
-68.91877662829412
 20
-352.1501544449432
 30
0.0
 11
-72.84031304091911
 21
-351.0786228000885
 31
0.0
  0
LINE
  5
19D7
330
6B
100
AcDbEntity
  8
0
  6
Continuous
100
AcDbLine
 10
-72.84031304091911
 20
-351.0786228000885
 30
0.0
 11
-76.77363420723418
 21
-349.5987449171783
 31
0.0
  0
LINE
  5
19D8
330
6B
100
AcDbEntity
  8
0
  6
Continuous
100
AcDbLine
 10
-76.77363420723418
 20
-349.5987449171783
 30
0.0
 11
-78.71877662829411
 21
-348.4905033673481
 31
0.0
  0
LINE
  5
19D9
330
6B
100
AcDbEntity
  8
0
  6
Continuous
100
AcDbLine
 10
-68.91877662829412
 20
-349.3834504449432
 30
0.0
 11
-72.84031304091911
 21
-348.3119188000885
 31
0.0
  0
LINE
  5
19DA
330
6B
100
AcDbEntity
  8
0
  6
Continuous
100
AcDbLine
 10
-72.84031304091911
 20
-348.3119188000885
 30
0.0
 11
-76.1036581689591
 21
-347.0841135751689
 31
0.0
  0
LINE
  5
19DB
330
6B
100
AcDbEntity
  8
001
100
AcDbLine
 10
-61.75500966030551
 20
-352.4028324449433
 30
0.0
 11
-57.75500966030552
 21
-352.4028324449433
 31
0.0
  0
ARC
  5
19DC
330
6B
100
AcDbEntity
  8
001
100
AcDbCircle
 10
-61.75500966030551
 20
-351.4028324449433
 30
0.0
 40
1.0
100
AcDbArc
 50
180.0
 51
270.0
  0
LINE
  5
19DD
330
6B
100
AcDbEntity
  8
001
100
AcDbLine
 10
-62.75500966030552
 20
-351.4028324449433
 30
0.0
 11
-62.75500966030552
 21
-350.4028324449433
 31
0.0
  0
LINE
  5
19DE
330
6B
100
AcDbEntity
  8
001
100
AcDbLine
 10
-63.17527623004313
 20
-350.3944874449433
 30
0.0
 11
-57.75500966030552
 21
-350.3944874449433
 31
0.0
  0
LINE
  5
19DF
330
6B
100
AcDbEntity
  8
0
  6
Continuous
100
AcDbLine
 10
-59.75500966030551
 20
-352.4028324449433
 30
0.0
 11
-59.75500966030551
 21
-348.2961766429435
 31
0.0
  0
ARC
  5
19E0
330
6B
100
AcDbEntity
  8
001
100
AcDbCircle
 10
-57.75500966030552
 20
-351.4028324449433
 30
0.0
 40
1.0
100
AcDbArc
 50
270.0
 51
0.0
  0
LINE
  5
19E1
330
6B
100
AcDbEntity
  8
001
100
AcDbLine
 10
-56.75500966030551
 20
-351.4028324449433
 30
0.0
 11
-56.75500966030551
 21
-350.4028324449433
 31
0.0
  0
ARC
  5
19E2
330
6B
100
AcDbEntity
  8
001
100
AcDbCircle
 10
-49.91877662829415
 20
-351.4028324449433
 30
0.0
 40
1.0
100
AcDbArc
 50
270.0
 51
0.0
  0
LINE
  5
19E3
330
6B
100
AcDbEntity
  8
001
100
AcDbLine
 10
-48.91877662829415
 20
-351.4028324449433
 30
0.0
 11
-48.91877662829415
 21
-351.1278324449432
 31
0.0
  0
LINE
  5
19E4
330
6B
100
AcDbEntity
  8
0
  6
Continuous
100
AcDbLine
 10
-52.36877662829414
 20
-342.8778324449432
 30
0.0
 11
-53.67065904207357
 21
-342.8778324449432
 31
0.0
  0
LINE
  5
19E5
330
6B
100
AcDbEntity
  8
0
  6
Continuous
100
AcDbLine
 10
-51.4687766282941
 20
-342.3778324449433
 30
0.0
 11
-50.18803265676694
 21
-342.3778324449433
 31
0.0
  0
LINE
  5
19E6
330
6B
100
AcDbEntity
  8
001
 62
     7
100
AcDbLine
 10
-52.16877662829415
 20
-343.0778324449432
 30
0.0
 11
-52.16877662829415
 21
-345.6173974449433
 31
0.0
  0
LINE
  5
19E7
330
6B
100
AcDbEntity
  8
001
 62
     7
100
AcDbLine
 10
-52.16877662829415
 20
-342.1778324449432
 30
0.0
 11
-52.16877662829415
 21
-339.6382664449433
 31
0.0
  0
LINE
  5
19E8
330
6B
100
AcDbEntity
  8
001
100
AcDbLine
 10
-61.23161733776339
 20
-357.0728451381137
 30
0.0
 11
-56.90149031884118
 21
-354.5728451381137
 31
0.0
  0
LINE
  5
19E9
330
6B
100
AcDbEntity
  8
0
  6
Continuous
100
AcDbLine
 10
-58.7178550207334
 20
-352.4268091893617
 30
0.0
 11
-62.61496933776334
 21
-354.6768091893617
 31
0.0
  0
LINE
  5
19EA
330
6B
100
AcDbEntity
  8
0
  6
Continuous
100
AcDbLine
 10
-61.23161733776339
 20
-357.0728451381137
 30
0.0
 11
-62.61496933776334
 21
-354.6768091893617
 31
0.0
  0
LINE
  5
19EB
330
6B
100
AcDbEntity
  8
0
  6
Continuous
100
AcDbLine
 10
-71.71877662829411
 20
-355.7455714449432
 30
0.0
 11
-65.45925933780813
 21
-355.7841185046258
 31
0.0
  0
LINE
  5
19EC
330
6B
100
AcDbEntity
  8
0
  6
Continuous
100
AcDbLine
 10
-65.45925933780813
 20
-355.7841185046258
 30
0.0
 11
-62.61496933776334
 21
-354.6768091893617
 31
0.0
  0
LINE
  5
19ED
330
6B
100
AcDbEntity
  8
0
  6
Continuous
100
AcDbLine
 10
-71.71877662829411
 20
-359.2455714449433
 30
0.0
 11
-64.97861166462939
 21
-359.02705760848
 31
0.0
  0
LINE
  5
19EE
330
6B
100
AcDbEntity
  8
0
  6
Continuous
100
AcDbLine
 10
-64.97861166462939
 20
-359.02705760848
 30
0.0
 11
-61.23161733776339
 21
-357.0728451381137
 31
0.0
  0
LINE
  5
19EF
330
6B
100
AcDbEntity
  8
0
  6
Continuous
100
AcDbLine
 10
-55.92280200259478
 20
-350.3944874449433
 30
0.0
 11
-56.75500966030551
 21
-350.9995971540118
 31
0.0
  0
LINE
  5
19F0
330
6B
100
AcDbEntity
  8
0
  6
Continuous
100
AcDbLine
 10
-58.68487979324493
 20
-352.4028324449433
 30
0.0
 11
-58.7178550207334
 21
-352.4268091893617
 31
0.0
  0
LINE
  5
19F1
330
6B
100
AcDbEntity
  8
0
  6
Continuous
100
AcDbLine
 10
-55.47103249263568
 20
-351.2705263826839
 30
0.0
 11
-56.38413297877185
 21
-352.7497248954168
 31
0.0
  0
LINE
  5
19F2
330
6B
100
AcDbEntity
  8
0
  6
Continuous
100
AcDbLine
 10
-56.38413297877185
 20
-352.7497248954168
 30
0.0
 11
-56.41561930175192
 21
-354.3233407989659
 31
0.0
  0
LINE
  5
19F3
330
6B
100
AcDbEntity
  8
0
  6
Continuous
100
AcDbLine
 10
-56.41561930175192
 20
-354.3233407989659
 30
0.0
 11
-56.90149031884118
 21
-354.5728451381137
 31
0.0
  0
LINE
  5
19F4
330
6B
100
AcDbEntity
  8
0
  6
Continuous
100
AcDbLine
 10
-57.54772907023863
 20
-354.9012554223589
 30
0.0
 11
-58.93108107023863
 21
-352.505219473607
 31
0.0
  0
LINE
  5
19F5
330
6B
100
AcDbEntity
  8
0
  6
Continuous
100
AcDbLine
 10
-55.47103249263568
 20
-351.2705263826839
 30
0.0
 11
-55.15636594295608
 21
-350.760774937624
 31
0.0
  0
LINE
  5
19F6
330
6B
100
AcDbEntity
  8
0
  6
Continuous
100
AcDbLine
 10
-55.15636594295608
 20
-350.760774937624
 30
0.0
 11
-54.91877662829415
 21
-350.738635081199
 31
0.0
  0
LINE
  5
19F7
330
6B
100
AcDbEntity
  8
0
  6
Continuous
100
AcDbLine
 10
-63.17527623004315
 20
-350.3944874449433
 30
0.0
 11
-63.61345130080337
 21
-350.9484049589773
 31
0.0
  0
LINE
  5
19F8
330
6B
100
AcDbEntity
  8
0
  6
Continuous
100
AcDbLine
 10
-63.61345130080337
 20
-350.9484049589773
 30
0.0
 11
-63.91877662829412
 21
-352.1501544449432
 31
0.0
  0
TEXT
  5
19F9
330
6B
100
AcDbEntity
  8
001
 62
     4
100
AcDbText
 10
-48.2948962753403
 20
-373.6336199281222
 30
0.0
 40
3.2
  1
アース用圧着端子2-4
 41
0.716146
100
AcDbText
  0
TEXT
  5
19FB
330
6B
100
AcDbEntity
  8
001
 62
     3
100
AcDbText
 10
88.51415579338448
 20
-218.5958732971193
 30
0.0
 40
2.76887387112277
  1
アース用圧着端子追加
 41
0.833333
100
AcDbText
  0
TEXT
  5
19FC
330
6B
100
AcDbEntity
  8
001
 62
     3
100
AcDbText
 10
71.07692371576018
 20
-218.5015402576562
 30
0.0
 40
3.2
  1
`16.4.4
 41
0.859375
100
AcDbText
  0
TEXT
  5
1A95
330
6B
100
AcDbEntity
  8
0
 62
     3
100
AcDbText
 10
136.2428400334209
 20
-218.979496
 30
0.0
 40
3.2
  1
牧田
  7
高3.2
100
AcDbText
  0
LINE
  5
1A9A
330
6B
100
AcDbEntity
  8
0
  6
Continuous
100
AcDbLine
 10
73.79502413725731
 20
-315.7002509171872
 30
0.0
 11
117.3285021536182
 21
-315.7002509171872
 31
0.0
  0
LINE
  5
1A9B
330
6B
100
AcDbEntity
  8
0
  6
Continuous
100
AcDbLine
 10
117.3285021536182
 20
-315.7002509171872
 30
0.0
 11
117.3285021536182
 21
-323.8229995682635
 31
0.0
  0
LINE
  5
1A9C
330
6B
100
AcDbEntity
  8
0
  6
Continuous
100
AcDbLine
 10
117.3285021536182
 20
-323.8229995682635
 30
0.0
 11
73.79502413725731
 21
-323.8229995682635
 31
0.0
  0
LINE
  5
1A9D
330
6B
100
AcDbEntity
  8
0
  6
Continuous
100
AcDbLine
 10
73.79502413725731
 20
-323.8229995682635
 30
0.0
 11
73.79502413725731
 21
-315.7002509171872
 31
0.0
  0
LINE
  5
1A9E
330
6B
100
AcDbEntity
  8
0
 62
     2
100
AcDbLine
 10
6.444005999999999
 20
-242.117904
 30
0.0
 11
6.529198
 21
-242.104598
 31
0.0
  0
LINE
  5
1A9F
330
6B
100
AcDbEntity
  8
0
 62
     2
100
AcDbLine
 10
6.529198
 20
-242.104598
 30
0.0
 11
6.610771999999997
 21
-242.088619
 31
0.0
  0
LINE
  5
1AA0
330
6B
100
AcDbEntity
  8
0
 62
     2
100
AcDbLine
 10
6.610771999999997
 20
-242.088619
 30
0.0
 11
6.6881
 21
-242.070089
 31
0.0
  0
LINE
  5
1AA1
330
6B
100
AcDbEntity
  8
0
 62
     2
100
AcDbLine
 10
6.6881
 20
-242.070089
 30
0.0
 11
6.760583999999997
 21
-242.049152
 31
0.0
  0
LINE
  5
1AA2
330
6B
100
AcDbEntity
  8
0
 62
     2
100
AcDbLine
 10
6.760583999999997
 20
-242.049152
 30
0.0
 11
6.827661999999999
 21
-242.025969
 31
0.0
  0
LINE
  5
1AA3
330
6B
100
AcDbEntity
  8
0
 62
     2
100
AcDbLine
 10
6.827661999999999
 20
-242.025969
 30
0.0
 11
6.888816999999997
 21
-242.00072
 31
0.0
  0
LINE
  5
1AA4
330
6B
100
AcDbEntity
  8
0
 62
     2
100
AcDbLine
 10
6.888816999999997
 20
-242.00072
 30
0.0
 11
6.943575999999997
 21
-241.9736
 31
0.0
  0
LINE
  5
1AA5
330
6B
100
AcDbEntity
  8
0
 62
     2
100
AcDbLine
 10
6.943575999999997
 20
-241.9736
 30
0.0
 11
6.991514999999997
 21
-241.944818
 31
0.0
  0
LINE
  5
1AA6
330
6B
100
AcDbEntity
  8
0
 62
     2
100
AcDbLine
 10
6.991514999999997
 20
-241.944818
 30
0.0
 11
7.032264999999997
 21
-241.914598
 31
0.0
  0
LINE
  5
1AA7
330
6B
100
AcDbEntity
  8
0
 62
     2
100
AcDbLine
 10
7.032264999999997
 20
-241.914598
 30
0.0
 11
7.06551
 21
-241.883172
 31
0.0
  0
LINE
  5
1AA8
330
6B
100
AcDbEntity
  8
0
 62
     2
100
AcDbLine
 10
7.06551
 20
-241.883172
 30
0.0
 11
7.090992999999999
 21
-241.850783
 31
0.0
  0
LINE
  5
1AA9
330
6B
100
AcDbEntity
  8
0
 62
     2
100
AcDbLine
 10
7.090992999999999
 20
-241.850783
 30
0.0
 11
7.108516999999999
 21
-241.817682
 31
0.0
  0
LINE
  5
1AAA
330
6B
100
AcDbEntity
  8
0
 62
     2
100
AcDbLine
 10
7.108516999999999
 20
-241.817682
 30
0.0
 11
7.117947
 21
-241.784125
 31
0.0
  0
LINE
  5
1AAB
330
6B
100
AcDbEntity
  8
0
 62
     2
100
AcDbLine
 10
7.117947
 20
-241.784125
 30
0.0
 11
7.119208999999997
 21
-241.750371
 31
0.0
  0
LINE
  5
1AAC
330
6B
100
AcDbEntity
  8
0
 62
     2
100
AcDbLine
 10
7.119208999999997
 20
-241.750371
 30
0.0
 11
7.112294999999997
 21
-241.716681
 31
0.0
  0
LINE
  5
1AAD
330
6B
100
AcDbEntity
  8
0
 62
     2
100
AcDbLine
 10
7.112294999999997
 20
-241.716681
 30
0.0
 11
7.097258
 21
-241.683315
 31
0.0
  0
LINE
  5
1AAE
330
6B
100
AcDbEntity
  8
0
 62
     2
100
AcDbLine
 10
7.097258
 20
-241.683315
 30
0.0
 11
7.074213
 21
-241.650532
 31
0.0
  0
LINE
  5
1AAF
330
6B
100
AcDbEntity
  8
0
 62
     2
100
AcDbLine
 10
7.074213
 20
-241.650532
 30
0.0
 11
7.043338999999997
 21
-241.618584
 31
0.0
  0
LINE
  5
1AB0
330
6B
100
AcDbEntity
  8
0
 62
     2
100
AcDbLine
 10
7.043338999999997
 20
-241.618584
 30
0.0
 11
7.004874
 21
-241.587719
 31
0.0
  0
LINE
  5
1AB1
330
6B
100
AcDbEntity
  8
0
 62
     2
100
AcDbLine
 10
7.004874
 20
-241.587719
 30
0.0
 11
6.959116999999999
 21
-241.558175
 31
0.0
  0
LINE
  5
1AB2
330
6B
100
AcDbEntity
  8
0
 62
     2
100
AcDbLine
 10
6.959116999999999
 20
-241.558175
 30
0.0
 11
6.906419999999998
 21
-241.53018
 31
0.0
  0
LINE
  5
1AB3
330
6B
100
AcDbEntity
  8
0
 62
     2
100
AcDbLine
 10
6.906419999999998
 20
-241.53018
 30
0.0
 11
6.847191
 21
-241.503952
 31
0.0
  0
LINE
  5
1AB4
330
6B
100
AcDbEntity
  8
0
 62
     2
100
AcDbLine
 10
6.847191
 20
-241.503952
 30
0.0
 11
6.781886999999997
 21
-241.479692
 31
0.0
  0
LINE
  5
1AB5
330
6B
100
AcDbEntity
  8
0
 62
     2
100
AcDbLine
 10
6.781886999999997
 20
-241.479692
 30
0.0
 11
6.711013999999997
 21
-241.457588
 31
0.0
  0
LINE
  5
1AB6
330
6B
100
AcDbEntity
  8
0
 62
     2
100
AcDbLine
 10
6.711013999999997
 20
-241.457588
 30
0.0
 11
6.635119
 21
-241.437811
 31
0.0
  0
LINE
  5
1AB7
330
6B
100
AcDbEntity
  8
0
 62
     2
100
AcDbLine
 10
6.635119
 20
-241.437811
 30
0.0
 11
6.554788999999997
 21
-241.420514
 31
0.0
  0
LINE
  5
1AB8
330
6B
100
AcDbEntity
  8
0
 62
     2
100
AcDbLine
 10
6.554788999999997
 20
-241.420514
 30
0.0
 11
6.470644999999997
 21
-241.405831
 31
0.0
  0
LINE
  5
1AB9
330
6B
100
AcDbEntity
  8
0
 62
     2
100
AcDbLine
 10
6.470644999999997
 20
-241.405831
 30
0.0
 11
6.383337
 21
-241.393875
 31
0.0
  0
LINE
  5
1ABA
330
6B
100
AcDbEntity
  8
0
 62
     2
100
AcDbLine
 10
6.383337
 20
-241.393875
 30
0.0
 11
6.29354
 21
-241.384738
 31
0.0
  0
LINE
  5
1ABB
330
6B
100
AcDbEntity
  8
0
 62
     2
100
AcDbLine
 10
6.29354
 20
-241.384738
 30
0.0
 11
6.201948
 21
-241.378491
 31
0.0
  0
LINE
  5
1ABC
330
6B
100
AcDbEntity
  8
0
 62
     2
100
AcDbLine
 10
6.201948
 20
-241.378491
 30
0.0
 11
6.109269
 21
-241.375183
 31
0.0
  0
LINE
  5
1ABD
330
6B
100
AcDbEntity
  8
0
 62
     2
100
AcDbLine
 10
6.109269
 20
-241.375183
 30
0.0
 11
6.016219999999997
 21
-241.374839
 31
0.0
  0
LINE
  5
1ABE
330
6B
100
AcDbEntity
  8
0
 62
     2
100
AcDbLine
 10
6.016219999999997
 20
-241.374839
 30
0.0
 11
5.923519
 21
-241.377461
 31
0.0
  0
LINE
  5
1ABF
330
6B
100
AcDbEntity
  8
0
 62
     2
100
AcDbLine
 10
5.923519
 20
-241.377461
 30
0.0
 11
5.831883
 21
-241.38303
 31
0.0
  0
LINE
  5
1AC0
330
6B
100
AcDbEntity
  8
0
 62
     2
100
AcDbLine
 10
5.831883
 20
-241.38303
 30
0.0
 11
5.742021
 21
-241.391502
 31
0.0
  0
LINE
  5
1AC1
330
6B
100
AcDbEntity
  8
0
 62
     2
100
AcDbLine
 10
5.742021
 20
-241.391502
 30
0.0
 11
5.654626999999997
 21
-241.402811
 31
0.0
  0
LINE
  5
1AC2
330
6B
100
AcDbEntity
  8
0
 62
     2
100
AcDbLine
 10
5.654626999999997
 20
-241.402811
 30
0.0
 11
5.570376999999997
 21
-241.416872
 31
0.0
  0
LINE
  5
1AC3
330
6B
100
AcDbEntity
  8
0
 62
     2
100
AcDbLine
 10
5.570376999999997
 20
-241.416872
 30
0.0
 11
5.489920999999998
 21
-241.433574
 31
0.0
  0
LINE
  5
1AC4
330
6B
100
AcDbEntity
  8
0
 62
     2
100
AcDbLine
 10
5.489920999999998
 20
-241.433574
 30
0.0
 11
5.413882
 21
-241.452788
 31
0.0
  0
LINE
  5
1AC5
330
6B
100
AcDbEntity
  8
0
 62
     2
100
AcDbLine
 10
5.413882
 20
-241.452788
 30
0.0
 11
5.342846999999999
 21
-241.474367
 31
0.0
  0
LINE
  5
1AC6
330
6B
100
AcDbEntity
  8
0
 62
     2
100
AcDbLine
 10
5.342846999999999
 20
-241.474367
 30
0.0
 11
5.277366
 21
-241.498143
 31
0.0
  0
LINE
  5
1AC7
330
6B
100
AcDbEntity
  8
0
 62
     2
100
AcDbLine
 10
5.277366
 20
-241.498143
 30
0.0
 11
5.217944
 21
-241.523933
 31
0.0
  0
LINE
  5
1AC8
330
6B
100
AcDbEntity
  8
0
 62
     2
100
AcDbLine
 10
5.217944
 20
-241.523933
 30
0.0
 11
5.165041
 21
-241.551536
 31
0.0
  0
LINE
  5
1AC9
330
6B
100
AcDbEntity
  8
0
 62
     2
100
AcDbLine
 10
5.165041
 20
-241.551536
 30
0.0
 11
5.119067
 21
-241.580741
 31
0.0
  0
LINE
  5
1ACA
330
6B
100
AcDbEntity
  8
0
 62
     2
100
AcDbLine
 10
5.119067
 20
-241.580741
 30
0.0
 11
5.080375
 21
-241.611321
 31
0.0
  0
LINE
  5
1ACB
330
6B
100
AcDbEntity
  8
0
 62
     2
100
AcDbLine
 10
5.080375
 20
-241.611321
 30
0.0
 11
5.049265
 21
-241.643039
 31
0.0
  0
LINE
  5
1ACC
330
6B
100
AcDbEntity
  8
0
 62
     2
100
AcDbLine
 10
5.049265
 20
-241.643039
 30
0.0
 11
5.025978
 21
-241.675651
 31
0.0
  0
LINE
  5
1ACD
330
6B
100
AcDbEntity
  8
0
 62
     2
100
AcDbLine
 10
5.025978
 20
-241.675651
 30
0.0
 11
5.010693999999999
 21
-241.708905
 31
0.0
  0
LINE
  5
1ACE
330
6B
100
AcDbEntity
  8
0
 62
     2
100
AcDbLine
 10
5.010693999999999
 20
-241.708905
 30
0.0
 11
5.003530999999997
 21
-241.742543
 31
0.0
  0
LINE
  5
1ACF
330
6B
100
AcDbEntity
  8
0
 62
     2
100
AcDbLine
 10
5.003530999999997
 20
-241.742543
 30
0.0
 11
5.004544
 21
-241.776305
 31
0.0
  0
LINE
  5
1AD0
330
6B
100
AcDbEntity
  8
0
 62
     2
100
AcDbLine
 10
5.004544
 20
-241.776305
 30
0.0
 11
5.013724999999999
 21
-241.809931
 31
0.0
  0
LINE
  5
1AD1
330
6B
100
AcDbEntity
  8
0
 62
     2
100
AcDbLine
 10
5.013724999999999
 20
-241.809931
 30
0.0
 11
5.031004
 21
-241.843161
 31
0.0
  0
LINE
  5
1AD2
330
6B
100
AcDbEntity
  8
0
 62
     2
100
AcDbLine
 10
5.031004
 20
-241.843161
 30
0.0
 11
5.056246999999999
 21
-241.875737
 31
0.0
  0
LINE
  5
1AD3
330
6B
100
AcDbEntity
  8
0
 62
     2
100
AcDbLine
 10
5.056246999999999
 20
-241.875737
 30
0.0
 11
5.089258
 21
-241.907408
 31
0.0
  0
LINE
  5
1AD4
330
6B
100
AcDbEntity
  8
0
 62
     2
100
AcDbLine
 10
5.089258
 20
-241.907408
 30
0.0
 11
5.129782999999997
 21
-241.93793
 31
0.0
  0
LINE
  5
1AD5
330
6B
100
AcDbEntity
  8
0
 62
     2
100
AcDbLine
 10
5.129782999999997
 20
-241.93793
 30
0.0
 11
5.177508
 21
-241.967065
 31
0.0
  0
LINE
  5
1AD6
330
6B
100
AcDbEntity
  8
0
 62
     2
100
AcDbLine
 10
5.177508
 20
-241.967065
 30
0.0
 11
5.232065
 21
-241.99459
 31
0.0
  0
LINE
  5
1AD7
330
6B
100
AcDbEntity
  8
0
 62
     2
100
AcDbLine
 10
5.232065
 20
-241.99459
 30
0.0
 11
5.293031
 21
-242.020291
 31
0.0
  0
LINE
  5
1AD8
330
6B
100
AcDbEntity
  8
0
 62
     2
100
AcDbLine
 10
5.293031
 20
-242.020291
 30
0.0
 11
5.359936
 21
-242.043969
 31
0.0
  0
LINE
  5
1AD9
330
6B
100
AcDbEntity
  8
0
 62
     2
100
AcDbLine
 10
5.359936
 20
-242.043969
 30
0.0
 11
5.432262
 21
-242.065442
 31
0.0
  0
LINE
  5
1ADA
330
6B
100
AcDbEntity
  8
0
 62
     2
100
AcDbLine
 10
5.432262
 20
-242.065442
 30
0.0
 11
5.509451
 21
-242.084544
 31
0.0
  0
LINE
  5
1ADB
330
6B
100
AcDbEntity
  8
0
 62
     2
100
AcDbLine
 10
5.509451
 20
-242.084544
 30
0.0
 11
5.590905
 21
-242.101126
 31
0.0
  0
LINE
  5
1ADC
330
6B
100
AcDbEntity
  8
0
 62
     2
100
AcDbLine
 10
5.590905
 20
-242.101126
 30
0.0
 11
5.675995999999997
 21
-242.115062
 31
0.0
  0
LINE
  5
1ADD
330
6B
100
AcDbEntity
  8
0
100
AcDbLine
 10
-87.999082
 20
-260.200929
 30
0.0
 11
-87.089745
 21
-258.340743
 31
0.0
  0
LINE
  5
1ADE
330
6B
100
AcDbEntity
  8
0
100
AcDbLine
 10
-87.089745
 20
-258.340743
 30
0.0
 11
-88.80734699999996
 21
-259.497043
 31
0.0
  0
LINE
  5
1ADF
330
6B
100
AcDbEntity
  8
0
100
AcDbLine
 10
-37.813059
 20
-282.141573
 30
0.0
 11
-35.819555
 21
-282.701152
 31
0.0
  0
LINE
  5
1AE0
330
6B
100
AcDbEntity
  8
0
100
AcDbLine
 10
-35.819555
 20
-282.701152
 30
0.0
 11
-37.266191
 21
-281.219791
 31
0.0
  0
LINE
  5
1AE1
330
6B
100
AcDbEntity
  8
0
100
AcDbLine
 10
80.97808699999999
 20
-251.790296
 30
0.0
 11
81.721558
 21
-249.857826
 31
0.0
  0
LINE
  5
1AE2
330
6B
100
AcDbEntity
  8
0
100
AcDbLine
 10
81.721558
 20
-249.857826
 30
0.0
 11
80.111459
 21
-251.159659
 31
0.0
  0
LINE
  5
1AE3
330
6B
100
AcDbEntity
  8
0
100
AcDbLine
 10
103.297161
 20
-252.829322
 30
0.0
 11
101.679992
 21
-251.5362819999999
 31
0.0
  0
LINE
  5
1AE4
330
6B
100
AcDbEntity
  8
0
100
AcDbLine
 10
101.679992
 20
-251.5362819999999
 30
0.0
 11
102.433982
 21
-253.464672
 31
0.0
  0
LINE
  5
1AE5
330
6B
100
AcDbEntity
  8
0
100
AcDbLine
 10
78.419425
 20
-301.2964
 30
0.0
 11
80.551472
 21
-301.170461
 31
0.0
  0
LINE
  5
1AE6
330
6B
100
AcDbEntity
  8
0
100
AcDbLine
 10
80.551472
 20
-301.170461
 30
0.0
 11
82.68474499999998
 21
-301.079387
 31
0.0
  0
LINE
  5
1AE7
330
6B
100
AcDbEntity
  8
0
100
AcDbLine
 10
82.68474499999998
 20
-301.079387
 30
0.0
 11
84.820468
 21
-301.058042
 31
0.0
  0
LINE
  5
1AE8
330
6B
100
AcDbEntity
  8
0
100
AcDbLine
 10
84.820468
 20
-301.058042
 30
0.0
 11
86.959867
 21
-301.141291
 31
0.0
  0
LINE
  5
1AE9
330
6B
100
AcDbEntity
  8
0
100
AcDbLine
 10
86.959867
 20
-301.141291
 30
0.0
 11
88.72328399999998
 21
-301.2752680000001
 31
0.0
  0
LINE
  5
1AEA
330
6B
100
AcDbEntity
  8
0
100
AcDbLine
 10
88.72328399999998
 20
-301.2752680000001
 30
0.0
 11
90.47483300000001
 21
-301.2964
 31
0.0
  0
LINE
  5
1AEB
330
6B
100
AcDbEntity
  8
0
100
AcDbLine
 10
90.47483300000001
 20
-301.2964
 30
0.0
 11
92.892177
 21
-300.899536
 31
0.0
  0
LINE
  5
1AEC
330
6B
100
AcDbEntity
  8
0
100
AcDbLine
 10
92.892177
 20
-300.899536
 30
0.0
 11
95.29059399999999
 21
-300.256589
 31
0.0
  0
LINE
  5
1AED
330
6B
100
AcDbEntity
  8
0
100
AcDbLine
 10
95.29059399999999
 20
-300.256589
 30
0.0
 11
97.70425899999999
 21
-299.750067
 31
0.0
  0
LINE
  5
1AEE
330
6B
100
AcDbEntity
  8
0
100
AcDbLine
 10
97.70425899999999
 20
-299.750067
 30
0.0
 11
100.028316
 21
-299.664308
 31
0.0
  0
LINE
  5
1AEF
330
6B
100
AcDbEntity
  8
0
100
AcDbLine
 10
100.028316
 20
-299.664308
 30
0.0
 11
102.367421
 21
-299.89912
 31
0.0
  0
LINE
  5
1AF0
330
6B
100
AcDbEntity
  8
0
100
AcDbLine
 10
102.367421
 20
-299.89912
 30
0.0
 11
104.692179
 21
-300.308485
 31
0.0
  0
LINE
  5
1AF1
330
6B
100
AcDbEntity
  8
0
100
AcDbLine
 10
104.692179
 20
-300.308485
 30
0.0
 11
105.916488
 21
-300.544537
 31
0.0
  0
LINE
  5
1AF2
330
6B
100
AcDbEntity
  8
0
100
AcDbLine
 10
105.916488
 20
-300.544537
 30
0.0
 11
107.140494
 21
-300.749946
 31
0.0
  0
LINE
  5
1AF3
330
6B
100
AcDbEntity
  8
0
100
AcDbLine
 10
107.140494
 20
-300.749946
 30
0.0
 11
108.841079
 21
-300.939148
 31
0.0
  0
LINE
  5
1AF4
330
6B
100
AcDbEntity
  8
0
100
AcDbLine
 10
108.841079
 20
-300.939148
 30
0.0
 11
110.552848
 21
-301.062544
 31
0.0
  0
LINE
  5
1AF5
330
6B
100
AcDbEntity
  8
0
100
AcDbLine
 10
-34.436578
 20
-316.481355
 30
0.0
 11
-34.533322
 21
-316.368562
 31
0.0
  0
LINE
  5
1AF6
330
6B
100
AcDbEntity
  8
0
100
AcDbLine
 10
-34.533322
 20
-316.368562
 30
0.0
 11
-34.6911
 21
-316.271536
 31
0.0
  0
LINE
  5
1AF7
330
6B
100
AcDbEntity
  8
0
100
AcDbLine
 10
-34.6911
 20
-316.271536
 30
0.0
 11
-34.908682
 21
-316.191033
 31
0.0
  0
LINE
  5
1AF8
330
6B
100
AcDbEntity
  8
0
100
AcDbLine
 10
-34.908682
 20
-316.191033
 30
0.0
 11
-35.184366
 21
-316.127683
 31
0.0
  0
LINE
  5
1AF9
330
6B
100
AcDbEntity
  8
0
100
AcDbLine
 10
-35.184366
 20
-316.127683
 30
0.0
 11
-35.515999
 21
-316.081981
 31
0.0
  0
LINE
  5
1AFA
330
6B
100
AcDbEntity
  8
0
100
AcDbLine
 10
-35.515999
 20
-316.081981
 30
0.0
 11
-35.90099
 21
-316.054283
 31
0.0
  0
LINE
  5
1AFB
330
6B
100
AcDbEntity
  8
0
100
AcDbLine
 10
-35.90099
 20
-316.054283
 30
0.0
 11
-36.336331
 21
-316.044806
 31
0.0
  0
LINE
  5
1AFC
330
6B
100
AcDbEntity
  8
0
100
AcDbLine
 10
-36.336331
 20
-316.044806
 30
0.0
 11
-36.818622
 21
-316.053624
 31
0.0
  0
LINE
  5
1AFD
330
6B
100
AcDbEntity
  8
0
100
AcDbLine
 10
-36.818622
 20
-316.053624
 30
0.0
 11
-37.344094
 21
-316.080669
 31
0.0
  0
LINE
  5
1AFE
330
6B
100
AcDbEntity
  8
0
100
AcDbLine
 10
-37.344094
 20
-316.080669
 30
0.0
 11
-37.908644
 21
-316.125728
 31
0.0
  0
LINE
  5
1AFF
330
6B
100
AcDbEntity
  8
0
100
AcDbLine
 10
-37.908644
 20
-316.125728
 30
0.0
 11
-38.507859
 21
-316.18845
 31
0.0
  0
LINE
  5
1B00
330
6B
100
AcDbEntity
  8
0
100
AcDbLine
 10
-38.507859
 20
-316.18845
 30
0.0
 11
-39.137059
 21
-316.268345
 31
0.0
  0
LINE
  5
1B01
330
6B
100
AcDbEntity
  8
0
100
AcDbLine
 10
-39.137059
 20
-316.268345
 30
0.0
 11
-39.791329
 21
-316.364789
 31
0.0
  0
LINE
  5
1B02
330
6B
100
AcDbEntity
  8
0
100
AcDbLine
 10
-39.791329
 20
-316.364789
 30
0.0
 11
-40.465557
 21
-316.477027
 31
0.0
  0
LINE
  5
1B03
330
6B
100
AcDbEntity
  8
0
100
AcDbLine
 10
-40.465557
 20
-316.477027
 30
0.0
 11
-41.154476
 21
-316.604185
 31
0.0
  0
LINE
  5
1B04
330
6B
100
AcDbEntity
  8
0
100
AcDbLine
 10
-41.154476
 20
-316.604185
 30
0.0
 11
-41.85270399999999
 21
-316.745267
 31
0.0
  0
LINE
  5
1B05
330
6B
100
AcDbEntity
  8
0
100
AcDbLine
 10
-41.85270399999999
 20
-316.745267
 30
0.0
 11
-42.554786
 21
-316.899172
 31
0.0
  0
LINE
  5
1B06
330
6B
100
AcDbEntity
  8
0
100
AcDbLine
 10
-42.554786
 20
-316.899172
 30
0.0
 11
-43.255237
 21
-317.064698
 31
0.0
  0
LINE
  5
1B07
330
6B
100
AcDbEntity
  8
0
100
AcDbLine
 10
-43.255237
 20
-317.064698
 30
0.0
 11
-43.948586
 21
-317.240551
 31
0.0
  0
LINE
  5
1B08
330
6B
100
AcDbEntity
  8
0
100
AcDbLine
 10
-43.948586
 20
-317.240551
 30
0.0
 11
-44.629415
 21
-317.425358
 31
0.0
  0
LINE
  5
1B09
330
6B
100
AcDbEntity
  8
0
100
AcDbLine
 10
-44.629415
 20
-317.425358
 30
0.0
 11
-45.292406
 21
-317.617674
 31
0.0
  0
LINE
  5
1B0A
330
6B
100
AcDbEntity
  8
0
100
AcDbLine
 10
-45.292406
 20
-317.617674
 30
0.0
 11
-45.93238
 21
-317.815998
 31
0.0
  0
LINE
  5
1B0B
330
6B
100
AcDbEntity
  8
0
100
AcDbLine
 10
-45.93238
 20
-317.815998
 30
0.0
 11
-46.54433599999999
 21
-318.01878
 31
0.0
  0
LINE
  5
1B0C
330
6B
100
AcDbEntity
  8
0
100
AcDbLine
 10
-46.54433599999999
 20
-318.01878
 30
0.0
 11
-47.123495
 21
-318.224436
 31
0.0
  0
LINE
  5
1B0D
330
6B
100
AcDbEntity
  8
0
100
AcDbLine
 10
-47.123495
 20
-318.224436
 30
0.0
 11
-47.66532999999999
 21
-318.431359
 31
0.0
  0
LINE
  5
1B0E
330
6B
100
AcDbEntity
  8
0
100
AcDbLine
 10
-47.66532999999999
 20
-318.431359
 30
0.0
 11
-48.165611
 21
-318.637933
 31
0.0
  0
LINE
  5
1B0F
330
6B
100
AcDbEntity
  8
0
100
AcDbLine
 10
-48.165611
 20
-318.637933
 30
0.0
 11
-48.62042699999999
 21
-318.842544
 31
0.0
  0
LINE
  5
1B10
330
6B
100
AcDbEntity
  8
0
100
AcDbLine
 10
-48.62042699999999
 20
-318.842544
 30
0.0
 11
-49.026227
 21
-319.043593
 31
0.0
  0
LINE
  5
1B11
330
6B
100
AcDbEntity
  8
0
100
AcDbLine
 10
-49.026227
 20
-319.043593
 30
0.0
 11
-49.379839
 21
-319.23951
 31
0.0
  0
LINE
  5
1B12
330
6B
100
AcDbEntity
  8
0
100
AcDbLine
 10
-49.379839
 20
-319.23951
 30
0.0
 11
-49.678502
 21
-319.428764
 31
0.0
  0
LINE
  5
1B13
330
6B
100
AcDbEntity
  8
0
100
AcDbLine
 10
-49.678502
 20
-319.428764
 30
0.0
 11
-49.919882
 21
-319.609876
 31
0.0
  0
LINE
  5
1B14
330
6B
100
AcDbEntity
  8
0
100
AcDbLine
 10
-49.919882
 20
-319.609876
 30
0.0
 11
-50.10209299999999
 21
-319.781433
 31
0.0
  0
LINE
  5
1B15
330
6B
100
AcDbEntity
  8
0
100
AcDbLine
 10
-50.10209299999999
 20
-319.781433
 30
0.0
 11
-50.223713
 21
-319.942093
 31
0.0
  0
LINE
  5
1B16
330
6B
100
AcDbEntity
  8
0
100
AcDbLine
 10
-50.223713
 20
-319.942093
 30
0.0
 11
-50.28379000000001
 21
-320.090602
 31
0.0
  0
LINE
  5
1B17
330
6B
100
AcDbEntity
  8
0
100
AcDbLine
 10
-50.28379000000001
 20
-320.090602
 30
0.0
 11
-50.281855
 21
-320.225799
 31
0.0
  0
LINE
  5
1B18
330
6B
100
AcDbEntity
  8
0
100
AcDbLine
 10
-50.281855
 20
-320.225799
 30
0.0
 11
-50.21792399999998
 21
-320.346628
 31
0.0
  0
LINE
  5
1B19
330
6B
100
AcDbEntity
  8
0
100
AcDbLine
 10
-50.21792399999998
 20
-320.346628
 30
0.0
 11
-50.092496
 21
-320.452145
 31
0.0
  0
LINE
  5
1B1A
330
6B
100
AcDbEntity
  8
0
100
AcDbLine
 10
-50.092496
 20
-320.452145
 30
0.0
 11
-49.906551
 21
-320.541526
 31
0.0
  0
LINE
  5
1B1B
330
6B
100
AcDbEntity
  8
0
100
AcDbLine
 10
-49.906551
 20
-320.541526
 30
0.0
 11
-49.661542
 21
-320.614072
 31
0.0
  0
LINE
  5
1B1C
330
6B
100
AcDbEntity
  8
0
100
AcDbLine
 10
-49.661542
 20
-320.614072
 30
0.0
 11
-49.359382
 21
-320.669218
 31
0.0
  0
LINE
  5
1B1D
330
6B
100
AcDbEntity
  8
0
100
AcDbLine
 10
-49.359382
 20
-320.669218
 30
0.0
 11
-49.002433
 21
-320.706531
 31
0.0
  0
LINE
  5
1B1E
330
6B
100
AcDbEntity
  8
0
100
AcDbLine
 10
-49.002433
 20
-320.706531
 30
0.0
 11
-48.593482
 21
-320.725721
 31
0.0
  0
LINE
  5
1B1F
330
6B
100
AcDbEntity
  8
0
100
AcDbLine
 10
-48.593482
 20
-320.725721
 30
0.0
 11
-48.13572399999999
 21
-320.7266370000001
 31
0.0
  0
LINE
  5
1B20
330
6B
100
AcDbEntity
  8
0
100
AcDbLine
 10
-48.13572399999999
 20
-320.7266370000001
 30
0.0
 11
-47.632737
 21
-320.709273
 31
0.0
  0
LINE
  5
1B21
330
6B
100
AcDbEntity
  8
0
100
AcDbLine
 10
-47.632737
 20
-320.709273
 30
0.0
 11
-47.088448
 21
-320.673764
 31
0.0
  0
LINE
  5
1B22
330
6B
100
AcDbEntity
  8
0
100
AcDbLine
 10
-47.088448
 20
-320.673764
 30
0.0
 11
-46.507111
 21
-320.620387
 31
0.0
  0
LINE
  5
1B23
330
6B
100
AcDbEntity
  8
0
100
AcDbLine
 10
-46.507111
 20
-320.620387
 30
0.0
 11
-45.89326699999999
 21
-320.54956
 31
0.0
  0
LINE
  5
1B24
330
6B
100
AcDbEntity
  8
0
100
AcDbLine
 10
-45.89326699999999
 20
-320.54956
 30
0.0
 11
-45.251711
 21
-320.461836
 31
0.0
  0
LINE
  5
1B25
330
6B
100
AcDbEntity
  8
0
100
AcDbLine
 10
-45.251711
 20
-320.461836
 30
0.0
 11
-44.587455
 21
-320.357899
 31
0.0
  0
LINE
  5
1B26
330
6B
100
AcDbEntity
  8
0
100
AcDbLine
 10
-44.587455
 20
-320.357899
 30
0.0
 11
-43.905689
 21
-320.238563
 31
0.0
  0
LINE
  5
1B27
330
6B
100
AcDbEntity
  8
0
100
AcDbLine
 10
-43.905689
 20
-320.238563
 30
0.0
 11
-43.211738
 21
-320.104759
 31
0.0
  0
LINE
  5
1B28
330
6B
100
AcDbEntity
  8
0
100
AcDbLine
 10
-43.211738
 20
-320.104759
 30
0.0
 11
-42.511025
 21
-319.957533
 31
0.0
  0
LINE
  5
1B29
330
6B
100
AcDbEntity
  8
0
100
AcDbLine
 10
-42.511025
 20
-319.957533
 30
0.0
 11
-41.80902299999996
 21
-319.798035
 31
0.0
  0
LINE
  5
1B2A
330
6B
100
AcDbEntity
  8
0
100
AcDbLine
 10
-41.80902299999996
 20
-319.798035
 30
0.0
 11
-41.11121699999999
 21
-319.62751
 31
0.0
  0
LINE
  5
1B2B
330
6B
100
AcDbEntity
  8
0
100
AcDbLine
 10
-41.11121699999999
 20
-319.62751
 30
0.0
 11
-40.423057
 21
-319.447292
 31
0.0
  0
LINE
  5
1B2C
330
6B
100
AcDbEntity
  8
0
100
AcDbLine
 10
-40.423057
 20
-319.447292
 30
0.0
 11
-39.74992
 21
-319.258787
 31
0.0
  0
LINE
  5
1B2D
330
6B
100
AcDbEntity
  8
0
100
AcDbLine
 10
-39.74992
 20
-319.258787
 30
0.0
 11
-39.097065
 21
-319.06347
 31
0.0
  0
LINE
  5
1B2E
330
6B
100
AcDbEntity
  8
0
100
AcDbLine
 10
-39.097065
 20
-319.06347
 30
0.0
 11
-38.469592
 21
-318.862864
 31
0.0
  0
LINE
  5
1B2F
330
6B
100
AcDbEntity
  8
0
100
AcDbLine
 10
-38.469592
 20
-318.862864
 30
0.0
 11
-37.87240300000001
 21
-318.658539
 31
0.0
  0
LINE
  5
1B30
330
6B
100
AcDbEntity
  8
0
100
AcDbLine
 10
-37.87240300000001
 20
-318.658539
 30
0.0
 11
-37.310163
 21
-318.452089
 31
0.0
  0
LINE
  5
1B31
330
6B
100
AcDbEntity
  8
0
100
AcDbLine
 10
-37.310163
 20
-318.452089
 30
0.0
 11
-36.78726500000003
 21
-318.2451279999999
 31
0.0
  0
LINE
  5
1B32
330
6B
100
AcDbEntity
  8
0
100
AcDbLine
 10
-36.78726500000003
 20
-318.2451279999999
 30
0.0
 11
-36.307793
 21
-318.039273
 31
0.0
  0
LINE
  5
1B33
330
6B
100
AcDbEntity
  8
0
100
AcDbLine
 10
-36.307793
 20
-318.039273
 30
0.0
 11
-35.875494
 21
-317.836131
 31
0.0
  0
LINE
  5
1B34
330
6B
100
AcDbEntity
  8
0
100
AcDbLine
 10
-35.875494
 20
-317.836131
 30
0.0
 11
-35.493744
 21
-317.63729
 31
0.0
  0
LINE
  5
1B35
330
6B
100
AcDbEntity
  8
0
100
AcDbLine
 10
-35.493744
 20
-317.63729
 30
0.0
 11
-35.165527
 21
-317.444303
 31
0.0
  0
LINE
  5
1B36
330
6B
100
AcDbEntity
  8
0
100
AcDbLine
 10
-35.004298
 20
-316.660523
 30
0.0
 11
-35.071961
 21
-316.595728
 31
0.0
  0
LINE
  5
1B37
330
6B
100
AcDbEntity
  8
0
100
AcDbLine
 10
-35.071961
 20
-316.595728
 30
0.0
 11
-35.195527
 21
-316.544697
 31
0.0
  0
LINE
  5
1B38
330
6B
100
AcDbEntity
  8
0
100
AcDbLine
 10
-35.195527
 20
-316.544697
 30
0.0
 11
-35.374048
 21
-316.507821
 31
0.0
  0
LINE
  5
1B39
330
6B
100
AcDbEntity
  8
0
100
AcDbLine
 10
-35.374048
 20
-316.507821
 30
0.0
 11
-35.60615
 21
-316.485385
 31
0.0
  0
LINE
  5
1B3A
330
6B
100
AcDbEntity
  8
0
100
AcDbLine
 10
-35.60615
 20
-316.485385
 30
0.0
 11
-35.890051
 21
-316.477561
 31
0.0
  0
LINE
  5
1B3B
330
6B
100
AcDbEntity
  8
0
100
AcDbLine
 10
-35.890051
 20
-316.477561
 30
0.0
 11
-36.223569
 21
-316.484409
 31
0.0
  0
LINE
  5
1B3C
330
6B
100
AcDbEntity
  8
0
100
AcDbLine
 10
-36.223569
 20
-316.484409
 30
0.0
 11
-36.604139
 21
-316.505876
 31
0.0
  0
LINE
  5
1B3D
330
6B
100
AcDbEntity
  8
0
100
AcDbLine
 10
-36.604139
 20
-316.505876
 30
0.0
 11
-37.02883900000003
 21
-316.541797
 31
0.0
  0
LINE
  5
1B3E
330
6B
100
AcDbEntity
  8
0
100
AcDbLine
 10
-37.02883900000003
 20
-316.541797
 30
0.0
 11
-37.494402
 21
-316.591897
 31
0.0
  0
LINE
  5
1B3F
330
6B
100
AcDbEntity
  8
0
100
AcDbLine
 10
-37.494402
 20
-316.591897
 30
0.0
 11
-37.99725200000001
 21
-316.65579
 31
0.0
  0
LINE
  5
1B40
330
6B
100
AcDbEntity
  8
0
100
AcDbLine
 10
-37.99725200000001
 20
-316.65579
 30
0.0
 11
-38.533524
 21
-316.732985
 31
0.0
  0
LINE
  5
1B41
330
6B
100
AcDbEntity
  8
0
100
AcDbLine
 10
-38.533524
 20
-316.732985
 30
0.0
 11
-39.099097
 21
-316.822888
 31
0.0
  0
LINE
  5
1B42
330
6B
100
AcDbEntity
  8
0
100
AcDbLine
 10
-39.099097
 20
-316.822888
 30
0.0
 11
-39.689624
 21
-316.92481
 31
0.0
  0
LINE
  5
1B43
330
6B
100
AcDbEntity
  8
0
100
AcDbLine
 10
-39.689624
 20
-316.92481
 30
0.0
 11
-40.30056599999999
 21
-317.037967
 31
0.0
  0
LINE
  5
1B44
330
6B
100
AcDbEntity
  8
0
100
AcDbLine
 10
-40.30056599999999
 20
-317.037967
 30
0.0
 11
-40.92722799999999
 21
-317.161489
 31
0.0
  0
LINE
  5
1B45
330
6B
100
AcDbEntity
  8
0
100
AcDbLine
 10
-40.92722799999999
 20
-317.161489
 30
0.0
 11
-41.564795
 21
-317.294426
 31
0.0
  0
LINE
  5
1B46
330
6B
100
AcDbEntity
  8
0
100
AcDbLine
 10
-41.564795
 20
-317.294426
 30
0.0
 11
-42.208366
 21
-317.435757
 31
0.0
  0
LINE
  5
1B47
330
6B
100
AcDbEntity
  8
0
100
AcDbLine
 10
-42.208366
 20
-317.435757
 30
0.0
 11
-42.85299499999999
 21
-317.584397
 31
0.0
  0
LINE
  5
1B48
330
6B
100
AcDbEntity
  8
0
100
AcDbLine
 10
-42.85299499999999
 20
-317.584397
 30
0.0
 11
-43.493728
 21
-317.739201
 31
0.0
  0
LINE
  5
1B49
330
6B
100
AcDbEntity
  8
0
100
AcDbLine
 10
-43.493728
 20
-317.739201
 30
0.0
 11
-44.12564
 21
-317.898982
 31
0.0
  0
LINE
  5
1B4A
330
6B
100
AcDbEntity
  8
0
100
AcDbLine
 10
-44.12564
 20
-317.898982
 30
0.0
 11
-44.743877
 21
-318.062511
 31
0.0
  0
LINE
  5
1B4B
330
6B
100
AcDbEntity
  8
0
100
AcDbLine
 10
-44.743877
 20
-318.062511
 30
0.0
 11
-45.343685
 21
-318.22853
 31
0.0
  0
LINE
  5
1B4C
330
6B
100
AcDbEntity
  8
0
100
AcDbLine
 10
-45.343685
 20
-318.22853
 30
0.0
 11
-45.920455
 21
-318.395765
 31
0.0
  0
LINE
  5
1B4D
330
6B
100
AcDbEntity
  8
0
100
AcDbLine
 10
-45.920455
 20
-318.395765
 30
0.0
 11
-46.46975499999999
 21
-318.56293
 31
0.0
  0
LINE
  5
1B4E
330
6B
100
AcDbEntity
  8
0
100
AcDbLine
 10
-46.46975499999999
 20
-318.56293
 30
0.0
 11
-46.987363
 21
-318.72874
 31
0.0
  0
LINE
  5
1B4F
330
6B
100
AcDbEntity
  8
0
100
AcDbLine
 10
-46.987363
 20
-318.72874
 30
0.0
 11
-47.469301
 21
-318.89192
 31
0.0
  0
LINE
  5
1B50
330
6B
100
AcDbEntity
  8
0
100
AcDbLine
 10
-47.469301
 20
-318.89192
 30
0.0
 11
-47.91186599999998
 21
-319.051218
 31
0.0
  0
LINE
  5
1B51
330
6B
100
AcDbEntity
  8
0
100
AcDbLine
 10
-47.91186599999998
 20
-319.051218
 30
0.0
 11
-48.311655
 21
-319.2054080000001
 31
0.0
  0
LINE
  5
1B52
330
6B
100
AcDbEntity
  8
0
100
AcDbLine
 10
-48.311655
 20
-319.2054080000001
 30
0.0
 11
-48.66559699999999
 21
-319.353306
 31
0.0
  0
LINE
  5
1B53
330
6B
100
AcDbEntity
  8
0
100
AcDbLine
 10
-48.66559699999999
 20
-319.353306
 30
0.0
 11
-48.97097099999999
 21
-319.493775
 31
0.0
  0
LINE
  5
1B54
330
6B
100
AcDbEntity
  8
0
100
AcDbLine
 10
-48.97097099999999
 20
-319.493775
 30
0.0
 11
-49.225431
 21
-319.625735
 31
0.0
  0
LINE
  5
1B55
330
6B
100
AcDbEntity
  8
0
100
AcDbLine
 10
-49.225431
 20
-319.625735
 30
0.0
 11
-49.427021
 21
-319.748172
 31
0.0
  0
LINE
  5
1B56
330
6B
100
AcDbEntity
  8
0
100
AcDbLine
 10
-49.427021
 20
-319.748172
 30
0.0
 11
-49.574191
 21
-319.860145
 31
0.0
  0
LINE
  5
1B57
330
6B
100
AcDbEntity
  8
0
100
AcDbLine
 10
-49.574191
 20
-319.860145
 30
0.0
 11
-49.66581
 21
-319.960795
 31
0.0
  0
LINE
  5
1B58
330
6B
100
AcDbEntity
  8
0
100
AcDbLine
 10
-49.66581
 20
-319.960795
 30
0.0
 11
-49.701175
 21
-320.049346
 31
0.0
  0
LINE
  5
1B59
330
6B
100
AcDbEntity
  8
0
100
AcDbLine
 10
-49.701175
 20
-320.049346
 30
0.0
 11
-49.680013
 21
-320.125119
 31
0.0
  0
LINE
  5
1B5A
330
6B
100
AcDbEntity
  8
0
100
AcDbLine
 10
-49.680013
 20
-320.125119
 30
0.0
 11
-49.602488
 21
-320.187531
 31
0.0
  0
LINE
  5
1B5B
330
6B
100
AcDbEntity
  8
0
100
AcDbLine
 10
-49.602488
 20
-320.187531
 30
0.0
 11
-49.46919499999999
 21
-320.236103
 31
0.0
  0
LINE
  5
1B5C
330
6B
100
AcDbEntity
  8
0
100
AcDbLine
 10
-49.46919499999999
 20
-320.236103
 30
0.0
 11
-49.281158
 21
-320.270461
 31
0.0
  0
LINE
  5
1B5D
330
6B
100
AcDbEntity
  8
0
100
AcDbLine
 10
-49.281158
 20
-320.270461
 30
0.0
 11
-49.039823
 21
-320.290342
 31
0.0
  0
LINE
  5
1B5E
330
6B
100
AcDbEntity
  8
0
100
AcDbLine
 10
-49.039823
 20
-320.290342
 30
0.0
 11
-48.747044
 21
-320.295592
 31
0.0
  0
LINE
  5
1B5F
330
6B
100
AcDbEntity
  8
0
100
AcDbLine
 10
-48.747044
 20
-320.295592
 30
0.0
 11
-48.40507099999999
 21
-320.286171
 31
0.0
  0
LINE
  5
1B60
330
6B
100
AcDbEntity
  8
0
100
AcDbLine
 10
-48.40507099999999
 20
-320.286171
 30
0.0
 11
-48.016533
 21
-320.262152
 31
0.0
  0
LINE
  5
1B61
330
6B
100
AcDbEntity
  8
0
100
AcDbLine
 10
-48.016533
 20
-320.262152
 30
0.0
 11
-47.58441499999999
 21
-320.223718
 31
0.0
  0
LINE
  5
1B62
330
6B
100
AcDbEntity
  8
0
100
AcDbLine
 10
-47.58441499999999
 20
-320.223718
 30
0.0
 11
-47.112039
 21
-320.171167
 31
0.0
  0
LINE
  5
1B63
330
6B
100
AcDbEntity
  8
0
100
AcDbLine
 10
-47.112039
 20
-320.171167
 30
0.0
 11
-46.603035
 21
-320.104901
 31
0.0
  0
LINE
  5
1B64
330
6B
100
AcDbEntity
  8
0
100
AcDbLine
 10
-46.603035
 20
-320.104901
 30
0.0
 11
-46.061315
 21
-320.025429
 31
0.0
  0
LINE
  5
1B65
330
6B
100
AcDbEntity
  8
0
100
AcDbLine
 10
-46.061315
 20
-320.025429
 30
0.0
 11
-45.491042
 21
-319.933363
 31
0.0
  0
LINE
  5
1B66
330
6B
100
AcDbEntity
  8
0
100
AcDbLine
 10
-45.491042
 20
-319.933363
 30
0.0
 11
-44.896598
 21
-319.82941
 31
0.0
  0
LINE
  5
1B67
330
6B
100
AcDbEntity
  8
0
100
AcDbLine
 10
-44.896598
 20
-319.82941
 30
0.0
 11
-44.282553
 21
-319.714369
 31
0.0
  0
LINE
  5
1B68
330
6B
100
AcDbEntity
  8
0
100
AcDbLine
 10
-44.282553
 20
-319.714369
 30
0.0
 11
-43.65362499999998
 21
-319.589123
 31
0.0
  0
LINE
  5
1B69
330
6B
100
AcDbEntity
  8
0
100
AcDbLine
 10
-43.65362499999998
 20
-319.589123
 30
0.0
 11
-43.014649
 21
-319.454637
 31
0.0
  0
LINE
  5
1B6A
330
6B
100
AcDbEntity
  8
0
100
AcDbLine
 10
-43.014649
 20
-319.454637
 30
0.0
 11
-42.370533
 21
-319.311942
 31
0.0
  0
LINE
  5
1B6B
330
6B
100
AcDbEntity
  8
0
100
AcDbLine
 10
-42.370533
 20
-319.311942
 30
0.0
 11
-41.72623
 21
-319.162137
 31
0.0
  0
LINE
  5
1B6C
330
6B
100
AcDbEntity
  8
0
100
AcDbLine
 10
-41.72623
 20
-319.162137
 30
0.0
 11
-41.08669
 21
-319.006371
 31
0.0
  0
LINE
  5
1B6D
330
6B
100
AcDbEntity
  8
0
100
AcDbLine
 10
-41.08669
 20
-319.006371
 30
0.0
 11
-40.456829
 21
-318.845843
 31
0.0
  0
LINE
  5
1B6E
330
6B
100
AcDbEntity
  8
0
100
AcDbLine
 10
-40.456829
 20
-318.845843
 30
0.0
 11
-39.841488
 21
-318.681785
 31
0.0
  0
LINE
  5
1B6F
330
6B
100
AcDbEntity
  8
0
100
AcDbLine
 10
-39.841488
 20
-318.681785
 30
0.0
 11
-39.245394
 21
-318.51546
 31
0.0
  0
LINE
  5
1B70
330
6B
100
AcDbEntity
  8
0
100
AcDbLine
 10
-39.245394
 20
-318.51546
 30
0.0
 11
-38.673131
 21
-318.348144
 31
0.0
  0
LINE
  5
1B71
330
6B
100
AcDbEntity
  8
0
100
AcDbLine
 10
-38.673131
 20
-318.348144
 30
0.0
 11
-38.129095
 21
-318.181124
 31
0.0
  0
LINE
  5
1B72
330
6B
100
AcDbEntity
  8
0
100
AcDbLine
 10
-38.129095
 20
-318.181124
 30
0.0
 11
-37.617467
 21
-318.0156839999999
 31
0.0
  0
LINE
  5
1B73
330
6B
100
AcDbEntity
  8
0
100
AcDbLine
 10
-37.617467
 20
-318.0156839999999
 30
0.0
 11
-37.14218
 21
-317.853095
 31
0.0
  0
LINE
  5
1B74
330
6B
100
AcDbEntity
  8
0
100
AcDbLine
 10
-37.14218
 20
-317.853095
 30
0.0
 11
-36.706887
 21
-317.694606
 31
0.0
  0
LINE
  5
1B75
330
6B
100
AcDbEntity
  8
0
100
AcDbLine
 10
-36.706887
 20
-317.694606
 30
0.0
 11
-36.31493300000001
 21
-317.541436
 31
0.0
  0
LINE
  5
1B76
330
6B
100
AcDbEntity
  8
0
100
AcDbLine
 10
-36.31493300000001
 20
-317.541436
 30
0.0
 11
-35.969329
 21
-317.394762
 31
0.0
  0
LINE
  5
1B77
330
6B
100
AcDbEntity
  8
0
100
AcDbLine
 10
-35.969329
 20
-317.394762
 30
0.0
 11
-35.672733
 21
-317.25571
 31
0.0
  0
LINE
  5
1B78
330
6B
100
AcDbEntity
  8
0
100
AcDbLine
 10
-35.672733
 20
-317.25571
 30
0.0
 11
-35.427424
 21
-317.12535
 31
0.0
  0
LINE
  5
1B79
330
6B
100
AcDbEntity
  8
0
100
AcDbLine
 10
-35.427424
 20
-317.12535
 30
0.0
 11
-35.23528600000001
 21
-317.004684
 31
0.0
  0
LINE
  5
1B7A
330
6B
100
AcDbEntity
  8
0
 62
     2
100
AcDbLine
 10
3.511249999999998
 20
-198.973115
 30
0.0
 11
3.492622
 21
-198.853847
 31
0.0
  0
LINE
  5
1B7B
330
6B
100
AcDbEntity
  8
0
 62
     2
100
AcDbLine
 10
3.492622
 20
-198.853847
 30
0.0
 11
3.470251
 21
-198.739642
 31
0.0
  0
LINE
  5
1B7C
330
6B
100
AcDbEntity
  8
0
 62
     2
100
AcDbLine
 10
3.470251
 20
-198.739642
 30
0.0
 11
3.444308999999998
 21
-198.631383
 31
0.0
  0
LINE
  5
1B7D
330
6B
100
AcDbEntity
  8
0
 62
     2
100
AcDbLine
 10
3.444308999999998
 20
-198.631383
 30
0.0
 11
3.414997
 21
-198.529906
 31
0.0
  0
LINE
  5
1B7E
330
6B
100
AcDbEntity
  8
0
 62
     2
100
AcDbLine
 10
3.414997
 20
-198.529906
 30
0.0
 11
3.382541
 21
-198.435997
 31
0.0
  0
LINE
  5
1B7F
330
6B
100
AcDbEntity
  8
0
 62
     2
100
AcDbLine
 10
3.382541
 20
-198.435997
 30
0.0
 11
3.347191999999998
 21
-198.35038
 31
0.0
  0
LINE
  5
1B80
330
6B
100
AcDbEntity
  8
0
 62
     2
100
AcDbLine
 10
3.347191999999998
 20
-198.35038
 30
0.0
 11
3.309223999999998
 21
-198.273717
 31
0.0
  0
LINE
  5
1B81
330
6B
100
AcDbEntity
  8
0
 62
     2
100
AcDbLine
 10
3.309223999999998
 20
-198.273717
 30
0.0
 11
3.26893
 21
-198.206602
 31
0.0
  0
LINE
  5
1B82
330
6B
100
AcDbEntity
  8
0
 62
     2
100
AcDbLine
 10
3.26893
 20
-198.206602
 30
0.0
 11
3.226620999999998
 21
-198.149553
 31
0.0
  0
LINE
  5
1B83
330
6B
100
AcDbEntity
  8
0
 62
     2
100
AcDbLine
 10
3.226620999999998
 20
-198.149553
 30
0.0
 11
3.182624999999998
 21
-198.10301
 31
0.0
  0
LINE
  5
1B84
330
6B
100
AcDbEntity
  8
0
 62
     2
100
AcDbLine
 10
3.182624999999998
 20
-198.10301
 30
0.0
 11
3.137281
 21
-198.067334
 31
0.0
  0
LINE
  5
1B85
330
6B
100
AcDbEntity
  8
0
 62
     2
100
AcDbLine
 10
3.137281
 20
-198.067334
 30
0.0
 11
3.09094
 21
-198.0428
 31
0.0
  0
LINE
  5
1B86
330
6B
100
AcDbEntity
  8
0
 62
     2
100
AcDbLine
 10
3.09094
 20
-198.0428
 30
0.0
 11
3.043959999999998
 21
-198.029598
 31
0.0
  0
LINE
  5
1B87
330
6B
100
AcDbEntity
  8
0
 62
     2
100
AcDbLine
 10
3.043959999999998
 20
-198.029598
 30
0.0
 11
2.996704
 21
-198.02783
 31
0.0
  0
LINE
  5
1B88
330
6B
100
AcDbEntity
  8
0
 62
     2
100
AcDbLine
 10
2.996704
 20
-198.02783
 30
0.0
 11
2.949538
 21
-198.03751
 31
0.0
  0
LINE
  5
1B89
330
6B
100
AcDbEntity
  8
0
 62
     2
100
AcDbLine
 10
2.949538
 20
-198.03751
 30
0.0
 11
2.902825999999998
 21
-198.058563
 31
0.0
  0
LINE
  5
1B8A
330
6B
100
AcDbEntity
  8
0
 62
     2
100
AcDbLine
 10
2.902825999999998
 20
-198.058563
 30
0.0
 11
2.856929
 21
-198.0908259999999
 31
0.0
  0
LINE
  5
1B8B
330
6B
100
AcDbEntity
  8
0
 62
     2
100
AcDbLine
 10
2.856929
 20
-198.0908259999999
 30
0.0
 11
2.812202
 21
-198.134049
 31
0.0
  0
LINE
  5
1B8C
330
6B
100
AcDbEntity
  8
0
 62
     2
100
AcDbLine
 10
2.812202
 20
-198.134049
 30
0.0
 11
2.768991
 21
-198.187899
 31
0.0
  0
LINE
  5
1B8D
330
6B
100
AcDbEntity
  8
0
 62
     2
100
AcDbLine
 10
2.768991
 20
-198.187899
 30
0.0
 11
2.727629
 21
-198.25196
 31
0.0
  0
LINE
  5
1B8E
330
6B
100
AcDbEntity
  8
0
 62
     2
100
AcDbLine
 10
2.727629
 20
-198.25196
 30
0.0
 11
2.688436999999998
 21
-198.325736
 31
0.0
  0
LINE
  5
1B8F
330
6B
100
AcDbEntity
  8
0
 62
     2
100
AcDbLine
 10
2.688436999999998
 20
-198.325736
 30
0.0
 11
2.651716999999999
 21
-198.408656
 31
0.0
  0
LINE
  5
1B90
330
6B
100
AcDbEntity
  8
0
 62
     2
100
AcDbLine
 10
2.651716999999999
 20
-198.408656
 30
0.0
 11
2.617752999999999
 21
-198.500081
 31
0.0
  0
LINE
  5
1B91
330
6B
100
AcDbEntity
  8
0
 62
     2
100
AcDbLine
 10
2.617752999999999
 20
-198.500081
 30
0.0
 11
2.586806999999998
 21
-198.599304
 31
0.0
  0
LINE
  5
1B92
330
6B
100
AcDbEntity
  8
0
 62
     2
100
AcDbLine
 10
2.586806999999998
 20
-198.599304
 30
0.0
 11
2.55912
 21
-198.705556
 31
0.0
  0
LINE
  5
1B93
330
6B
100
AcDbEntity
  8
0
 62
     2
100
AcDbLine
 10
2.55912
 20
-198.705556
 30
0.0
 11
2.534904
 21
-198.818018
 31
0.0
  0
LINE
  5
1B94
330
6B
100
AcDbEntity
  8
0
 62
     2
100
AcDbLine
 10
2.534904
 20
-198.818018
 30
0.0
 11
2.514348
 21
-198.93582
 31
0.0
  0
LINE
  5
1B95
330
6B
100
AcDbEntity
  8
0
 62
     2
100
AcDbLine
 10
2.514348
 20
-198.93582
 30
0.0
 11
2.497609
 21
-199.058051
 31
0.0
  0
LINE
  5
1B96
330
6B
100
AcDbEntity
  8
0
 62
     2
100
AcDbLine
 10
2.497609
 20
-199.058051
 30
0.0
 11
2.484818
 21
-199.183767
 31
0.0
  0
LINE
  5
1B97
330
6B
100
AcDbEntity
  8
0
 62
     2
100
AcDbLine
 10
2.484818
 20
-199.183767
 30
0.0
 11
2.476072
 21
-199.311996
 31
0.0
  0
LINE
  5
1B98
330
6B
100
AcDbEntity
  8
0
 62
     2
100
AcDbLine
 10
2.476072
 20
-199.311996
 30
0.0
 11
2.471440999999999
 21
-199.441746
 31
0.0
  0
LINE
  5
1B99
330
6B
100
AcDbEntity
  8
0
 62
     2
100
AcDbLine
 10
2.471440999999999
 20
-199.441746
 30
0.0
 11
2.470959
 21
-199.572016
 31
0.0
  0
LINE
  5
1B9A
330
6B
100
AcDbEntity
  8
0
 62
     2
100
AcDbLine
 10
2.470959
 20
-199.572016
 30
0.0
 11
2.474629999999998
 21
-199.701797
 31
0.0
  0
LINE
  5
1B9B
330
6B
100
AcDbEntity
  8
0
 62
     2
100
AcDbLine
 10
2.474629999999998
 20
-199.701797
 30
0.0
 11
2.482425999999998
 21
-199.830087
 31
0.0
  0
LINE
  5
1B9C
330
6B
100
AcDbEntity
  8
0
 62
     2
100
AcDbLine
 10
2.482425999999998
 20
-199.830087
 30
0.0
 11
2.494286999999999
 21
-199.955894
 31
0.0
  0
LINE
  5
1B9D
330
6B
100
AcDbEntity
  8
0
 62
     2
100
AcDbLine
 10
2.494286999999999
 20
-199.955894
 30
0.0
 11
2.510120999999998
 21
-200.078245
 31
0.0
  0
LINE
  5
1B9E
330
6B
100
AcDbEntity
  8
0
 62
     2
100
AcDbLine
 10
2.510120999999998
 20
-200.078245
 30
0.0
 11
2.529805
 21
-200.196196
 31
0.0
  0
LINE
  5
1B9F
330
6B
100
AcDbEntity
  8
0
 62
     2
100
AcDbLine
 10
2.529805
 20
-200.196196
 30
0.0
 11
2.553188
 21
-200.308834
 31
0.0
  0
LINE
  5
1BA0
330
6B
100
AcDbEntity
  8
0
 62
     2
100
AcDbLine
 10
2.553188
 20
-200.308834
 30
0.0
 11
2.580087999999999
 21
-200.415289
 31
0.0
  0
LINE
  5
1BA1
330
6B
100
AcDbEntity
  8
0
 62
     2
100
AcDbLine
 10
2.580087999999999
 20
-200.415289
 30
0.0
 11
2.610297999999998
 21
-200.514738
 31
0.0
  0
LINE
  5
1BA2
330
6B
100
AcDbEntity
  8
0
 62
     2
100
AcDbLine
 10
2.610297999999998
 20
-200.514738
 30
0.0
 11
2.643584999999998
 21
-200.606411
 31
0.0
  0
LINE
  5
1BA3
330
6B
100
AcDbEntity
  8
0
 62
     2
100
AcDbLine
 10
2.643584999999998
 20
-200.606411
 30
0.0
 11
2.67969
 21
-200.689602
 31
0.0
  0
LINE
  5
1BA4
330
6B
100
AcDbEntity
  8
0
 62
     2
100
AcDbLine
 10
2.67969
 20
-200.689602
 30
0.0
 11
2.718334999999998
 21
-200.763665
 31
0.0
  0
LINE
  5
1BA5
330
6B
100
AcDbEntity
  8
0
 62
     2
100
AcDbLine
 10
2.718334999999998
 20
-200.763665
 30
0.0
 11
2.759222
 21
-200.82803
 31
0.0
  0
LINE
  5
1BA6
330
6B
100
AcDbEntity
  8
0
 62
     2
100
AcDbLine
 10
2.759222
 20
-200.82803
 30
0.0
 11
2.802033999999999
 21
-200.882199
 31
0.0
  0
LINE
  5
1BA7
330
6B
100
AcDbEntity
  8
0
 62
     2
100
AcDbLine
 10
2.802033999999999
 20
-200.882199
 30
0.0
 11
2.846439
 21
-200.925752
 31
0.0
  0
LINE
  5
1BA8
330
6B
100
AcDbEntity
  8
0
 62
     2
100
AcDbLine
 10
2.846439
 20
-200.925752
 30
0.0
 11
2.892096
 21
-200.958354
 31
0.0
  0
LINE
  5
1BA9
330
6B
100
AcDbEntity
  8
0
 62
     2
100
AcDbLine
 10
2.892096
 20
-200.958354
 30
0.0
 11
2.938650999999998
 21
-200.979751
 31
0.0
  0
LINE
  5
1BAA
330
6B
100
AcDbEntity
  8
0
 62
     2
100
AcDbLine
 10
2.938650999999998
 20
-200.979751
 30
0.0
 11
2.985744
 21
-200.98978
 31
0.0
  0
LINE
  5
1BAB
330
6B
100
AcDbEntity
  8
0
 62
     2
100
AcDbLine
 10
2.985744
 20
-200.98978
 30
0.0
 11
3.033011999999998
 21
-200.988362
 31
0.0
  0
LINE
  5
1BAC
330
6B
100
AcDbEntity
  8
0
 62
     2
100
AcDbLine
 10
3.033011999999998
 20
-200.988362
 30
0.0
 11
3.080087999999998
 21
-200.975508
 31
0.0
  0
LINE
  5
1BAD
330
6B
100
AcDbEntity
  8
0
 62
     2
100
AcDbLine
 10
3.080087999999998
 20
-200.975508
 30
0.0
 11
3.126609999999999
 21
-200.951318
 31
0.0
  0
LINE
  5
1BAE
330
6B
100
AcDbEntity
  8
0
 62
     2
100
AcDbLine
 10
3.126609999999999
 20
-200.951318
 30
0.0
 11
3.172216
 21
-200.915978
 31
0.0
  0
LINE
  5
1BAF
330
6B
100
AcDbEntity
  8
0
 62
     2
100
AcDbLine
 10
3.172216
 20
-200.915978
 30
0.0
 11
3.216556
 21
-200.869762
 31
0.0
  0
LINE
  5
1BB0
330
6B
100
AcDbEntity
  8
0
 62
     2
100
AcDbLine
 10
3.216556
 20
-200.869762
 30
0.0
 11
3.259285999999999
 21
-200.813028
 31
0.0
  0
LINE
  5
1BB1
330
6B
100
AcDbEntity
  8
0
 62
     2
100
AcDbLine
 10
3.259285999999999
 20
-200.813028
 30
0.0
 11
3.300076
 21
-200.746212
 31
0.0
  0
LINE
  5
1BB2
330
6B
100
AcDbEntity
  8
0
 62
     2
100
AcDbLine
 10
3.300076
 20
-200.746212
 30
0.0
 11
3.338609999999998
 21
-200.669833
 31
0.0
  0
LINE
  5
1BB3
330
6B
100
AcDbEntity
  8
0
 62
     2
100
AcDbLine
 10
3.338609999999998
 20
-200.669833
 30
0.0
 11
3.374591
 21
-200.58448
 31
0.0
  0
LINE
  5
1BB4
330
6B
100
AcDbEntity
  8
0
 62
     2
100
AcDbLine
 10
3.374591
 20
-200.58448
 30
0.0
 11
3.407741
 21
-200.490813
 31
0.0
  0
LINE
  5
1BB5
330
6B
100
AcDbEntity
  8
0
 62
     2
100
AcDbLine
 10
3.407741
 20
-200.490813
 30
0.0
 11
3.437804
 21
-200.389556
 31
0.0
  0
LINE
  5
1BB6
330
6B
100
AcDbEntity
  8
0
 62
     2
100
AcDbLine
 10
3.437804
 20
-200.389556
 30
0.0
 11
3.464545999999999
 21
-200.281492
 31
0.0
  0
LINE
  5
1BB7
330
6B
100
AcDbEntity
  8
0
 62
     2
100
AcDbLine
 10
3.464545999999999
 20
-200.281492
 30
0.0
 11
3.487762
 21
-200.167456
 31
0.0
  0
LINE
  5
1BB8
330
6B
100
AcDbEntity
  8
0
 62
     2
100
AcDbLine
 10
3.487762
 20
-200.167456
 30
0.0
 11
3.507270999999998
 21
-200.048329
 31
0.0
  0
LINE
  5
1BB9
330
6B
100
AcDbEntity
  8
0
100
AcDbLine
 10
-40.210932
 20
-309.163452
 30
0.0
 11
-53.36793899999999
 21
-309.163452
 31
0.0
  0
LINE
  5
1BBA
330
6B
100
AcDbEntity
  8
0
100
AcDbLine
 10
-39.210932
 20
-287.163452
 30
0.0
 11
-53.36793899999999
 21
-287.163452
 31
0.0
  0
LINE
  5
1BBB
330
6B
100
AcDbEntity
  8
0
100
AcDbLine
 10
-52.11793899999999
 20
-306.663452
 30
0.0
 11
-52.11793899999999
 21
-289.663452
 31
0.0
  0
LINE
  5
1BBF
330
6B
100
AcDbEntity
  8
0
100
AcDbLine
 10
14.925646
 20
-317.663452
 30
0.0
 11
48.62856599999998
 21
-317.663452
 31
0.0
  0
LINE
  5
1BC0
330
6B
100
AcDbEntity
  8
0
100
AcDbLine
 10
14.925646
 20
-278.663452
 30
0.0
 11
48.62856599999998
 21
-278.663452
 31
0.0
  0
LINE
  5
1BC1
330
6B
100
AcDbEntity
  8
0
100
AcDbLine
 10
47.37856599999998
 20
-315.163452
 30
0.0
 11
47.37856599999999
 21
-281.163452
 31
0.0
  0
LINE
  5
1BC5
330
6B
100
AcDbEntity
  8
0
100
AcDbLine
 10
19.04239
 20
-262.114339
 30
0.0
 11
19.04239
 21
-268.161989
 31
0.0
  0
LINE
  5
1BC6
330
6B
100
AcDbEntity
  8
0
100
AcDbLine
 10
40.439068
 20
-252.537737
 30
0.0
 11
40.439068
 21
-268.161989
 31
0.0
  0
LINE
  5
1BC7
330
6B
100
AcDbEntity
  8
0
100
AcDbLine
 10
21.54239
 20
-266.911989
 30
0.0
 11
37.939068
 21
-266.911989
 31
0.0
  0
LINE
  5
1BCB
330
6B
100
AcDbEntity
  8
0
100
AcDbLine
 10
-40.95760999999996
 20
-234.114339
 30
0.0
 11
-40.95760999999996
 21
-218.272228
 31
0.0
  0
LINE
  5
1BCC
330
6B
100
AcDbEntity
  8
0
100
AcDbLine
 10
19.04239
 20
-225.614339
 30
0.0
 11
19.04239
 21
-218.272228
 31
0.0
  0
LINE
  5
1BCD
330
6B
100
AcDbEntity
  8
0
100
AcDbLine
 10
-38.45760999999997
 20
-219.522228
 30
0.0
 11
16.54239
 21
-219.522228
 31
0.0
  0
LINE
  5
1BD1
330
6B
100
AcDbEntity
  8
0
100
AcDbLine
 10
19.04239
 20
-225.614339
 30
0.0
 11
19.04239
 21
-218.272228
 31
0.0
  0
LINE
  5
1BD2
330
6B
100
AcDbEntity
  8
0
100
AcDbLine
 10
36.039068
 20
-240.512737
 30
0.0
 11
36.039068
 21
-218.272228
 31
0.0
  0
LINE
  5
1BD3
330
6B
100
AcDbEntity
  8
0
100
AcDbLine
 10
21.54239
 20
-219.522228
 30
0.0
 11
33.539068
 21
-219.522228
 31
0.0
  0
LINE
  5
1BD7
330
6B
100
AcDbEntity
  8
0
100
AcDbLine
 10
-36.95761
 20
-234.614339
 30
0.0
 11
-36.95761
 21
-224.470496
 31
0.0
  0
LINE
  5
1BD8
330
6B
100
AcDbEntity
  8
0
100
AcDbLine
 10
-25.95761
 20
-234.614339
 30
0.0
 11
-25.95761
 21
-224.470496
 31
0.0
  0
LINE
  5
1BD9
330
6B
100
AcDbEntity
  8
0
100
AcDbLine
 10
-34.45761
 20
-225.720496
 30
0.0
 11
-28.45761
 21
-225.720496
 31
0.0
  0
LINE
  5
1BDD
330
6B
100
AcDbEntity
  8
0
100
AcDbLine
 10
-44.60586699999999
 20
-246.810173
 30
0.0
 11
-54.38041899999999
 21
-246.810173
 31
0.0
  0
LINE
  5
1BDE
330
6B
100
AcDbEntity
  8
0
100
AcDbLine
 10
-44.60586699999999
 20
-240.918505
 30
0.0
 11
-54.38041899999999
 21
-240.918505
 31
0.0
  0
LINE
  5
1BDF
330
6B
100
AcDbEntity
  8
0
100
AcDbLine
 10
-53.13041899999999
 20
-249.310173
 30
0.0
 11
-53.13041899999999
 21
-251.810173
 31
0.0
  0
LINE
  5
1BE0
330
6B
100
AcDbEntity
  8
0
100
AcDbLine
 10
-53.13041899999998
 20
-238.418505
 30
0.0
 11
-53.13041899999998
 21
-229.668505
 31
0.0
  0
LINE
  5
1BE1
330
6B
100
AcDbEntity
  8
0
100
AcDbLine
 10
-53.13041899999999
 20
-246.810173
 30
0.0
 11
-53.13041899999999
 21
-240.918505
 31
0.0
  0
LINE
  5
1BE5
330
6B
100
AcDbEntity
  8
0
  6
Continuous
100
AcDbLine
 10
-58.13416999694826
 20
-358.0295843056392
 30
0.0
 11
-49.2440132639299
 21
-374.1522121493137
 31
0.0
1001
ACAD
1000
DSTYLE
1002
{
1070
   147
1040
0.625
1070
    77
1070
     0
1002
}
  0
LINE
  5
1BE6
330
6B
100
AcDbEntity
  8
0
  6
Continuous
100
AcDbLine
 10
-49.2440132639299
 20
-374.1522121493137
 30
0.0
 11
-18.32568742082674
 21
-374.1522121493137
 31
0.0
1001
ACAD
1000
DSTYLE
1002
{
1070
   147
1040
0.625
1070
    77
1070
     0
1002
}
  0
LINE
  5
1BE7
330
6B
100
AcDbEntity
  8
0
  6
ByBlock
 62
     0
370
    -2
100
AcDbLine
 10
-58.72077366548339
 20
-358.3530426527527
 30
0.0
 11
-59.34133384944812
 21
-355.8403480385319
 31
0.0
  0
LINE
  5
1BE8
330
6B
100
AcDbEntity
  8
0
  6
ByBlock
 62
     0
370
    -2
100
AcDbLine
 10
-59.34133384944812
 20
-355.8403480385319
 30
0.0
 11
-57.54756632841314
 21
-357.7061259585257
 31
0.0
  0
LINE
  5
1BE9
330
6B
100
AcDbEntity
  8
0
  6
ByBlock
 62
     0
370
    -2
100
AcDbLine
 10
-59.34133384944812
 20
-355.8403480385319
 30
0.0
 11
-58.13416999694826
 21
-358.0295843056392
 31
0.0
  0
TEXT
  5
1BEA
330
6B
100
AcDbEntity
  8
0
  6
Continuous
 62
     4
100
AcDbText
 10
-52.74293899999995
 20
-302.163452
 30
0.0
 40
3.0
  1
%%C22
 50
90.0
100
AcDbText
  0
LINE
  5
1BEB
330
6B
100
AcDbEntity
  8
0
  6
ByBlock
 62
     0
370
    -2
100
AcDbLine
 10
-52.78781149999999
 20
-289.663452
 30
0.0
 11
-52.11793899999999
 21
-287.163452
 31
0.0
  0
LINE
  5
1BEC
330
6B
100
AcDbEntity
  8
0
  6
ByBlock
 62
     0
370
    -2
100
AcDbLine
 10
-52.11793899999999
 20
-287.163452
 30
0.0
 11
-51.44806649999999
 21
-289.663452
 31
0.0
  0
LINE
  5
1BED
330
6B
100
AcDbEntity
  8
0
  6
ByBlock
 62
     0
370
    -2
100
AcDbLine
 10
-52.11793899999999
 20
-287.163452
 30
0.0
 11
-52.11793899999999
 21
-289.663452
 31
0.0
  0
LINE
  5
1BEE
330
6B
100
AcDbEntity
  8
0
  6
ByBlock
 62
     0
370
    -2
100
AcDbLine
 10
-51.44806649999999
 20
-306.663452
 30
0.0
 11
-52.11793899999999
 21
-309.163452
 31
0.0
  0
LINE
  5
1BEF
330
6B
100
AcDbEntity
  8
0
  6
ByBlock
 62
     0
370
    -2
100
AcDbLine
 10
-52.11793899999999
 20
-309.163452
 30
0.0
 11
-52.7878115
 21
-306.663452
 31
0.0
  0
LINE
  5
1BF0
330
6B
100
AcDbEntity
  8
0
  6
ByBlock
 62
     0
370
    -2
100
AcDbLine
 10
-52.11793899999999
 20
-309.163452
 30
0.0
 11
-52.11793899999999
 21
-306.663452
 31
0.0
  0
TEXT
  5
1BF1
330
6B
100
AcDbEntity
  8
0
  6
Continuous
 62
     4
100
AcDbText
 10
46.75356600000003
 20
-306.913452
 30
0.0
 40
3.0
  1
%%C38%%P0.5
 50
90.0
100
AcDbText
  0
LINE
  5
1BF2
330
6B
100
AcDbEntity
  8
0
  6
ByBlock
 62
     0
370
    -2
100
AcDbLine
 10
46.70869349999999
 20
-281.163452
 30
0.0
 11
47.37856599999999
 21
-278.663452
 31
0.0
  0
LINE
  5
1BF3
330
6B
100
AcDbEntity
  8
0
  6
ByBlock
 62
     0
370
    -2
100
AcDbLine
 10
47.37856599999999
 20
-278.663452
 30
0.0
 11
48.04843849999999
 21
-281.163452
 31
0.0
  0
LINE
  5
1BF4
330
6B
100
AcDbEntity
  8
0
  6
ByBlock
 62
     0
370
    -2
100
AcDbLine
 10
47.37856599999999
 20
-278.663452
 30
0.0
 11
47.37856599999999
 21
-281.163452
 31
0.0
  0
LINE
  5
1BF5
330
6B
100
AcDbEntity
  8
0
  6
ByBlock
 62
     0
370
    -2
100
AcDbLine
 10
48.04843849999999
 20
-315.163452
 30
0.0
 11
47.37856599999998
 21
-317.663452
 31
0.0
  0
LINE
  5
1BF6
330
6B
100
AcDbEntity
  8
0
  6
ByBlock
 62
     0
370
    -2
100
AcDbLine
 10
47.37856599999998
 20
-317.663452
 30
0.0
 11
46.70869349999999
 21
-315.163452
 31
0.0
  0
LINE
  5
1BF7
330
6B
100
AcDbEntity
  8
0
  6
ByBlock
 62
     0
370
    -2
100
AcDbLine
 10
47.37856599999998
 20
-317.663452
 30
0.0
 11
47.37856599999998
 21
-315.163452
 31
0.0
  0
TEXT
  5
1BF8
330
6B
100
AcDbEntity
  8
0
  6
Continuous
 62
     4
100
AcDbText
 10
25.740729
 20
-266.286989
 30
0.0
 40
3.0
  1
21.4
100
AcDbText
  0
LINE
  5
1BF9
330
6B
100
AcDbEntity
  8
0
  6
ByBlock
 62
     0
370
    -2
100
AcDbLine
 10
37.939068
 20
-266.2421165
 30
0.0
 11
40.439068
 21
-266.911989
 31
0.0
  0
LINE
  5
1BFA
330
6B
100
AcDbEntity
  8
0
  6
ByBlock
 62
     0
370
    -2
100
AcDbLine
 10
40.439068
 20
-266.911989
 30
0.0
 11
37.939068
 21
-267.5818615
 31
0.0
  0
LINE
  5
1BFB
330
6B
100
AcDbEntity
  8
0
  6
ByBlock
 62
     0
370
    -2
100
AcDbLine
 10
40.439068
 20
-266.911989
 30
0.0
 11
37.939068
 21
-266.911989
 31
0.0
  0
LINE
  5
1BFC
330
6B
100
AcDbEntity
  8
0
  6
ByBlock
 62
     0
370
    -2
100
AcDbLine
 10
21.54239
 20
-267.5818615
 30
0.0
 11
19.04239
 21
-266.911989
 31
0.0
  0
LINE
  5
1BFD
330
6B
100
AcDbEntity
  8
0
  6
ByBlock
 62
     0
370
    -2
100
AcDbLine
 10
19.04239
 20
-266.911989
 30
0.0
 11
21.54239
 21
-266.2421165
 31
0.0
  0
LINE
  5
1BFE
330
6B
100
AcDbEntity
  8
0
  6
ByBlock
 62
     0
370
    -2
100
AcDbLine
 10
19.04239
 20
-266.911989
 30
0.0
 11
21.54239
 21
-266.911989
 31
0.0
  0
TEXT
  5
1BFF
330
6B
100
AcDbEntity
  8
0
  6
Continuous
 62
     4
100
AcDbText
 10
-13.20760999999998
 20
-218.897228
 30
0.0
 40
3.0
  1
60
100
AcDbText
  0
LINE
  5
1C00
330
6B
100
AcDbEntity
  8
0
  6
ByBlock
 62
     0
370
    -2
100
AcDbLine
 10
16.54239
 20
-218.8523555
 30
0.0
 11
19.04239
 21
-219.522228
 31
0.0
  0
LINE
  5
1C01
330
6B
100
AcDbEntity
  8
0
  6
ByBlock
 62
     0
370
    -2
100
AcDbLine
 10
19.04239
 20
-219.522228
 30
0.0
 11
16.54239
 21
-220.1921005
 31
0.0
  0
LINE
  5
1C02
330
6B
100
AcDbEntity
  8
0
  6
ByBlock
 62
     0
370
    -2
100
AcDbLine
 10
19.04239
 20
-219.522228
 30
0.0
 11
16.54239
 21
-219.522228
 31
0.0
  0
LINE
  5
1C03
330
6B
100
AcDbEntity
  8
0
  6
ByBlock
 62
     0
370
    -2
100
AcDbLine
 10
-38.45760999999997
 20
-220.1921005
 30
0.0
 11
-40.95760999999996
 21
-219.522228
 31
0.0
  0
LINE
  5
1C04
330
6B
100
AcDbEntity
  8
0
  6
ByBlock
 62
     0
370
    -2
100
AcDbLine
 10
-40.95760999999996
 20
-219.522228
 30
0.0
 11
-38.45760999999997
 21
-218.8523555
 31
0.0
  0
LINE
  5
1C05
330
6B
100
AcDbEntity
  8
0
  6
ByBlock
 62
     0
370
    -2
100
AcDbLine
 10
-40.95760999999996
 20
-219.522228
 30
0.0
 11
-38.45760999999997
 21
-219.522228
 31
0.0
  0
TEXT
  5
1C06
330
6B
100
AcDbEntity
  8
0
  6
Continuous
 62
     4
100
AcDbText
 10
25.540729
 20
-218.897228
 30
0.0
 40
3.0
  1
17
100
AcDbText
  0
LINE
  5
1C07
330
6B
100
AcDbEntity
  8
0
  6
ByBlock
 62
     0
370
    -2
100
AcDbLine
 10
33.539068
 20
-218.8523555
 30
0.0
 11
36.039068
 21
-219.522228
 31
0.0
  0
LINE
  5
1C08
330
6B
100
AcDbEntity
  8
0
  6
ByBlock
 62
     0
370
    -2
100
AcDbLine
 10
36.039068
 20
-219.522228
 30
0.0
 11
33.539068
 21
-220.1921005
 31
0.0
  0
LINE
  5
1C09
330
6B
100
AcDbEntity
  8
0
  6
ByBlock
 62
     0
370
    -2
100
AcDbLine
 10
36.039068
 20
-219.522228
 30
0.0
 11
33.539068
 21
-219.522228
 31
0.0
  0
LINE
  5
1C0A
330
6B
100
AcDbEntity
  8
0
  6
ByBlock
 62
     0
370
    -2
100
AcDbLine
 10
21.54239
 20
-220.1921005
 30
0.0
 11
19.04239
 21
-219.522228
 31
0.0
  0
LINE
  5
1C0B
330
6B
100
AcDbEntity
  8
0
  6
ByBlock
 62
     0
370
    -2
100
AcDbLine
 10
19.04239
 20
-219.522228
 30
0.0
 11
21.54239
 21
-218.8523555
 31
0.0
  0
LINE
  5
1C0C
330
6B
100
AcDbEntity
  8
0
  6
ByBlock
 62
     0
370
    -2
100
AcDbLine
 10
19.04239
 20
-219.522228
 30
0.0
 11
21.54239
 21
-219.522228
 31
0.0
  0
TEXT
  5
1C0D
330
6B
100
AcDbEntity
  8
0
  6
Continuous
 62
     4
100
AcDbText
 10
-32.95761
 20
-225.095496
 30
0.0
 40
3.0
  1
11
100
AcDbText
  0
LINE
  5
1C0E
330
6B
100
AcDbEntity
  8
0
  6
ByBlock
 62
     0
370
    -2
100
AcDbLine
 10
-28.45761
 20
-225.0506235
 30
0.0
 11
-25.95761
 21
-225.720496
 31
0.0
  0
LINE
  5
1C0F
330
6B
100
AcDbEntity
  8
0
  6
ByBlock
 62
     0
370
    -2
100
AcDbLine
 10
-25.95761
 20
-225.720496
 30
0.0
 11
-28.45761
 21
-226.3903685
 31
0.0
  0
LINE
  5
1C10
330
6B
100
AcDbEntity
  8
0
  6
ByBlock
 62
     0
370
    -2
100
AcDbLine
 10
-25.95761
 20
-225.720496
 30
0.0
 11
-28.45761
 21
-225.720496
 31
0.0
  0
LINE
  5
1C11
330
6B
100
AcDbEntity
  8
0
  6
ByBlock
 62
     0
370
    -2
100
AcDbLine
 10
-34.45761
 20
-226.3903685
 30
0.0
 11
-36.95761
 21
-225.720496
 31
0.0
  0
LINE
  5
1C12
330
6B
100
AcDbEntity
  8
0
  6
ByBlock
 62
     0
370
    -2
100
AcDbLine
 10
-36.95761
 20
-225.720496
 30
0.0
 11
-34.45761
 21
-225.0506235
 31
0.0
  0
LINE
  5
1C13
330
6B
100
AcDbEntity
  8
0
  6
ByBlock
 62
     0
370
    -2
100
AcDbLine
 10
-36.95761
 20
-225.720496
 30
0.0
 11
-34.45761
 21
-225.720496
 31
0.0
  0
TEXT
  5
1C14
330
6B
100
AcDbEntity
  8
0
  6
Continuous
 62
     4
100
AcDbText
 10
-53.75541899999994
 20
-235.293505
 30
0.0
 40
3.0
  1
%%C6
 50
90.0
100
AcDbText
  0
LINE
  5
1C15
330
6B
100
AcDbEntity
  8
0
  6
ByBlock
 62
     0
370
    -2
100
AcDbLine
 10
-52.46054649999998
 20
-238.418505
 30
0.0
 11
-53.13041899999999
 21
-240.918505
 31
0.0
  0
LINE
  5
1C16
330
6B
100
AcDbEntity
  8
0
  6
ByBlock
 62
     0
370
    -2
100
AcDbLine
 10
-53.13041899999999
 20
-240.918505
 30
0.0
 11
-53.80029149999998
 21
-238.418505
 31
0.0
  0
LINE
  5
1C17
330
6B
100
AcDbEntity
  8
0
  6
ByBlock
 62
     0
370
    -2
100
AcDbLine
 10
-53.13041899999999
 20
-240.918505
 30
0.0
 11
-53.13041899999999
 21
-238.418505
 31
0.0
  0
LINE
  5
1C18
330
6B
100
AcDbEntity
  8
0
  6
ByBlock
 62
     0
370
    -2
100
AcDbLine
 10
-53.80029149999998
 20
-249.310173
 30
0.0
 11
-53.13041899999999
 21
-246.810173
 31
0.0
  0
LINE
  5
1C19
330
6B
100
AcDbEntity
  8
0
  6
ByBlock
 62
     0
370
    -2
100
AcDbLine
 10
-53.13041899999999
 20
-246.810173
 30
0.0
 11
-52.46054649999999
 21
-249.310173
 31
0.0
  0
LINE
  5
1C1A
330
6B
100
AcDbEntity
  8
0
  6
ByBlock
 62
     0
370
    -2
100
AcDbLine
 10
-53.13041899999999
 20
-246.810173
 30
0.0
 11
-53.13041899999999
 21
-249.310173
 31
0.0
  0
ENDSEC
  0
SECTION
  2
OBJECTS
  0
DICTIONARY
  5
C
330
0
100
AcDbDictionary
281
     1
  3
ACAD_COLOR
350
62
  3
ACAD_GROUP
350
D
  3
ACAD_LAYOUT
350
61
  3
ACAD_MATERIAL
350
10
  3
ACAD_MLEADERSTYLE
350
65
  3
ACAD_MLINESTYLE
350
5E
  3
ACAD_PLOTSETTINGS
350
60
  3
ACAD_PLOTSTYLENAME
350
E
  3
ACAD_SCALELIST
350
42
  3
ACAD_TABLESTYLE
350
63
  3
ACAD_VISUALSTYLE
350
29
  3
ACDB_RECOMPOSE_DATA
350
900
  3
AcDbVariableDictionary
350
86B
  0
DICTIONARY
  5
660
330
2
100
AcDbDictionary
280
     1
281
     1
  3
ACAD_LAYERSTATES
360
661
  0
DICTIONARY
  5
869
330
54
100
AcDbDictionary
280
     1
281
     1
  3
ADSK_XREC_LAYER_RECONCILED
360
86A
  0
DICTIONARY
  5
1A98
330
6B
100
AcDbDictionary
280
     1
281
     1
  3
ACAD_SORTENTS
360
1A99
  0
DICTIONARY
  5
62
102
{ACAD_REACTORS
330
C
102
}
330
C
100
AcDbDictionary
281
     1
  0
DICTIONARY
  5
D
102
{ACAD_REACTORS
330
C
102
}
330
C
100
AcDbDictionary
281
     1
  0
DICTIONARY
  5
61
102
{ACAD_REACTORS
330
C
102
}
330
C
100
AcDbDictionary
281
     1
  3
Model
350
6E
  3
レイアウト1
350
6A
  0
DICTIONARY
  5
10
102
{ACAD_REACTORS
330
C
102
}
330
C
100
AcDbDictionary
281
     1
  3
ByBlock
350
19
  3
ByLayer
350
11
  3
Global
350
21
  0
DICTIONARY
  5
65
102
{ACAD_REACTORS
330
C
102
}
330
C
100
AcDbDictionary
281
     1
  3
Standard
350
66
  0
DICTIONARY
  5
5E
102
{ACAD_REACTORS
330
C
102
}
330
C
100
AcDbDictionary
281
     1
  3
Standard
350
5F
  0
DICTIONARY
  5
60
102
{ACAD_REACTORS
330
C
102
}
330
C
100
AcDbDictionary
281
     1
  0
ACDBDICTIONARYWDFLT
  5
E
102
{ACAD_REACTORS
330
C
102
}
330
C
100
AcDbDictionary
281
     1
  3
Normal
350
F
100
AcDbDictionaryWithDefault
340
F
  0
DICTIONARY
  5
42
102
{ACAD_REACTORS
330
C
102
}
330
C
100
AcDbDictionary
281
     1
  3
A0
350
43
  3
A1
350
44
  3
A2
350
45
  3
A3
350
46
  3
A4
350
47
  3
A5
350
48
  3
A6
350
49
  3
A7
350
4A
  3
A8
350
4B
  3
A9
350
4C
  3
B0
350
4D
  3
B1
350
4E
  3
B2
350
4F
  3
B3
350
50
  3
B4
350
51
  3
B5
350
52
  3
B6
350
53
  0
DICTIONARY
  5
63
102
{ACAD_REACTORS
330
C
102
}
330
C
100
AcDbDictionary
281
     1
  3
Standard
350
64
  0
DICTIONARY
  5
29
102
{ACAD_REACTORS
330
C
102
}
330
C
100
AcDbDictionary
281
     1
  3
2dWireframe
350
2F
  3
3D Hidden
350
941
  3
3dWireframe
350
65D
  3
Basic
350
2E
  3
Brighten
350
35
  3
ColorChange
350
39
  3
Conceptual
350
32
  3
Dim
350
34
  3
EdgeColorOff
350
41
  3
Facepattern
350
38
  3
Flat
350
2A
  3
FlatWithEdges
350
2B
  3
Gouraud
350
2C
  3
GouraudWithEdges
350
2D
  3
Hidden
350
31
  3
JitterOff
350
3F
  3
Linepattern
350
37
  3
OverhangOff
350
40
  3
Realistic
350
33
  3
Shaded
350
3E
  3
Shaded with edges
350
3D
  3
Shades of Gray
350
3A
  3
Sketchy
350
3B
  3
Thicken
350
36
  3
Wireframe
350
30
  3
X-Ray
350
3C
  0
XRECORD
  5
900
102
{ACAD_REACTORS
330
C
102
}
330
C
100
AcDbXrecord
280
     1
 90
        1
330
64
  0
DICTIONARY
  5
86B
102
{ACAD_REACTORS
330
C
102
}
330
C
100
AcDbDictionary
281
     1
  3
CANNOSCALE
350
86E
  3
CMLEADERSTYLE
350
86D
  3
CTABLESTYLE
350
86C
  3
DIMASSOC
350
871
  3
INDEXCTL
350
870
  3
SORTENTS
350
86F
  3
XCLIPFRAME
350
8FE
  0
DICTIONARY
  5
661
102
{ACAD_REACTORS
330
660
102
}
330
660
100
AcDbDictionary
281
     1
  0
XRECORD
  5
86A
102
{ACAD_REACTORS
330
869
102
}
330
869
100
AcDbXrecord
280
     1
290
     1
  0
SORTENTSTABLE
  5
1A99
102
{ACAD_REACTORS
330
1A98
102
}
330
1A98
100
AcDbSortentsTable
330
6B
331
1720
  5
1B63
331
480
  5
1873
331
19F0
  5
1C09
331
250
  5
3AB
331
699
  5
1B3D
331
1B99
  5
315
331
1742
  5
1B76
331
3E9
  5
10C5
331
49A
  5
1921
331
2F2
  5
483
331
1923
  5
1BCE
331
1BBB
  5
16C
331
1875
  5
1BB4
331
314
  5
4A5
331
4DE
  5
19E1
331
1AE6
  5
4EA
331
32E
  5
4D7
331
1B08
  5
44E
331
17F
  5
24D
331
1BF7
  5
165
331
1E1
  5
345
331
1C19
  5
FF
331
17C2
  5
1B88
331
102
  5
180
331
552
  5
1AED
331
1B2A
  5
470
331
37A
  5
547
331
1AB4
  5
1AAC
331
39C
  5
569
331
1B4C
  5
3C8
331
44D
  5
174B
331
225
  5
394
331
1AD6
  5
1ACE
331
3B6
  5
592
331
1B66
  5
3E2
331
14E
  5
1ED
331
46F
  5
1862
331
19E7
  5
1C00
331
23F
  5
39A
331
1731
  5
1B6B
331
3D8
  5
69C
331
1B88
  5
304
331
170
  5
23E
331
491
  5
1918
331
4AB
  5
1998
331
1BAA
  5
326
331
1864
  5
1BA3
331
303
  5
494
331
1BE6
  5
1C17
331
325
  5
4B6
331
1BCC
  5
14D
331
4EF
  5
19F2
331
1AF7
  5
42A
331
33F
  5
4E5
331
1B19
  5
45F
331
190
  5
2EF
331
1C08
  5
149
331
1992
  5
1BD7
331
1F2
  5
37C
331
124
  5
193
331
563
  5
1AFE
331
1AA3
  5
1A9B
331
38B
  5
558
331
43C
  5
1743
331
19B4
  5
1BE8
331
214
  5
389
331
1B3B
  5
3B7
331
1AC5
  5
1ABD
331
19D6
  5
1BEF
331
45E
  5
17DD
331
5A7
  5
1B29
331
1B77
  5
418
331
15F
  5
1FE
331
3C7
  5
5AE
331
585
  5
1B11
331
1740
  5
1B74
331
498
  5
191F
331
2F0
  5
481
331
1921
  5
1BCC
331
1BB9
  5
16A
331
1873
  5
1BB2
331
312
  5
4A3
331
4DC
  5
19DF
331
1AE4
  5
1720
331
1BD3
  5
144
331
32C
  5
4D2
331
1B06
  5
44C
331
17D
  5
24B
331
1BF5
  5
163
331
1DF
  5
33E
331
1C17
  5
109
331
17C0
  5
1B86
331
100
  5
17E
331
550
  5
1AEB
331
1B28
  5
46E
331
17E2
  5
1B95
331
122
  5
191
331
572
  5
1B0D
331
1B4A
  5
3C6
331
1AB2
  5
1AAA
331
39A
  5
567
331
44B
  5
1749
331
223
  5
392
331
1AD4
  5
1ACC
331
3B4
  5
590
331
1B64
  5
3E0
331
14C
  5
1EB
331
46D
  5
1860
331
19E5
  5
1BFE
331
23D
  5
398
331
5B6
  5
1B37
331
1B86
  5
302
331
16E
  5
230
331
172F
  5
1B69
331
3D6
  5
69A
331
48F
  5
1916
331
6A8
  5
1B4C
331
1BA8
  5
324
331
4A9
  5
1996
331
1862
  5
1BA1
331
301
  5
492
331
41A
  5
171E
331
429
  5
1730
331
323
  5
4B4
331
4ED
  5
19F0
331
1AF5
  5
428
331
33D
  5
4E3
331
171F
  5
1B62
331
18E
  5
2ED
331
547
  5
1AE2
331
1B17
  5
45D
331
1F0
  5
37A
331
561
  5
1AFC
331
1B39
  5
3B5
331
111
  5
18C
331
1AA1
  5
1A97
331
389
  5
556
331
19B2
  5
1BE6
331
43A
  5
1741
331
583
  5
1B0F
331
13B
  5
1DD
331
1AC3
  5
1ABB
331
19D4
  5
1BED
331
45C
  5
17DB
331
5A5
  5
1B27
331
1B75
  5
416
331
15D
  5
1FC
331
47E
  5
1871
331
3C5
  5
5AC
331
24E
  5
3A9
331
3E7
  5
10C3
331
1B97
  5
313
331
1C06
  5
14B
331
4B8
  5
19B8
331
1871
  5
1BB0
331
310
  5
4A1
331
4DA
  5
19DD
331
1AE2
  5
172E
331
1BD1
  5
13F
331
32A
  5
4D0
331
1B04
  5
442
331
17B
  5
249
331
1BF3
  5
167
331
1DD
  5
339
331
1C15
  5
107
331
17E0
  5
1B93
331
54E
  5
1AE9
331
1B26
  5
46C
331
FE
  5
17C
331
570
  5
1B0B
331
1B48
  5
3C4
331
1AB0
  5
1AA8
331
592
  5
1B1E
331
1B62
  5
3DE
331
14A
  5
1E9
331
1AD2
  5
1ACA
331
3B2
  5
58E
331
19E3
  5
1BFC
331
46B
  5
185E
331
5B4
  5
1B35
331
1B84
  5
300
331
16C
  5
226
331
172D
  5
1B67
331
3D4
  5
698
331
48D
  5
1914
331
6A6
  5
1B4A
331
1BA6
  5
322
331
4A7
  5
1994
331
1860
  5
1B9F
331
2FF
  5
490
331
418
  5
171C
331
321
  5
4B2
331
398
  5
565
331
4EB
  5
19EE
331
1AF3
  5
4F7
331
171D
  5
1B60
331
18C
  5
2EB
331
1C04
  5
150
331
545
  5
1AE0
331
1B15
  5
45B
331
365
  5
545
331
1EE
  5
365
331
55F
  5
1AFA
331
1B37
  5
3B3
331
10F
  5
18A
331
1AC1
  5
1AB9
331
1A9F
  5
1A95
331
387
  5
554
331
45A
  5
17D9
331
5A3
  5
1B25
331
1B73
  5
414
331
15B
  5
1FA
331
47C
  5
186F
331
3C3
  5
5A9
331
24C
  5
3A7
331
3E5
  5
6A9
331
1B95
  5
311
331
2EE
  5
47F
331
191F
  5
1BCA
331
1BB7
  5
333
331
4D8
  5
19DB
331
1AE0
  5
1737
331
328
  5
4CE
331
1B02
  5
440
331
179
  5
247
331
1BF1
  5
169
331
1DB
  5
337
331
1C13
  5
125
331
54C
  5
1AE7
331
1B24
  5
46A
331
FC
  5
17A
331
17DE
  5
1B91
331
1FD
  5
387
331
56E
  5
1B09
331
1B46
  5
3C2
331
1AAE
  5
1AA6
331
396
  5
563
331
590
  5
1B1C
331
1B60
  5
3DC
331
148
  5
1E7
331
1AD0
  5
1AC8
331
3B0
  5
58C
331
19E1
  5
1BFA
331
469
  5
185C
331
5B2
  5
1B33
331
1B82
  5
2FE
331
16A
  5
224
331
19FB
  5
1C18
331
48B
  5
189D
331
3D2
  5
696
331
6A4
  5
1B48
331
1BA4
  5
320
331
4A5
  5
1992
331
185E
  5
1B9D
331
2FD
  5
48E
331
192E
  5
1BD4
331
1BC6
  5
157
331
416
  5
171A
331
31F
  5
4B0
331
4E9
  5
19EC
331
1AF1
  5
4F5
331
339
  5
4E2
331
171B
  5
1B5E
331
18A
  5
2A5
331
1C02
  5
154
331
543
  5
1ADE
331
1B13
  5
459
331
363
  5
543
331
1EC
  5
363
331
55D
  5
1AF8
331
1B35
  5
47B
331
10D
  5
188
331
19AE
  5
1BE4
331
1A9D
  5
1B56
331
385
  5
552
331
1ABF
  5
1AB7
331
3A7
  5
583
331
1B57
  5
3D3
331
458
  5
17C7
331
5A1
  5
1B23
331
1B71
  5
3ED
331
159
  5
1F8
331
47A
  5
186D
331
3C1
  5
5A7
331
24A
  5
3A5
331
173C
  5
1B72
331
3E3
  5
6A7
331
1B93
  5
30F
331
2EC
  5
47D
331
191D
  5
1BC8
331
10C5
  5
1B51
331
1BB5
  5
331
331
4B6
  5
19B6
331
186F
  5
1BAE
331
30E
  5
49F
331
1BE0
  5
F9
331
1B00
  5
43D
331
1D9
  5
335
331
1C11
  5
116
331
54A
  5
1AE5
331
1B22
  5
468
331
FA
  5
178
331
199B
  5
1BE2
331
1FB
  5
385
331
17DC
  5
1B8F
331
11C
  5
190
331
56C
  5
1B07
331
1B44
  5
3C0
331
1AAC
  5
1AA4
331
394
  5
561
331
58E
  5
1B1A
331
1B5E
  5
3DA
331
146
  5
1E5
331
1ACE
  5
1AC6
331
3AE
  5
58A
331
19DF
  5
1BF8
331
467
  5
185A
331
5B0
  5
1B31
331
1B80
  5
2FC
331
168
  5
21C
331
19F9
  5
1C12
331
489
  5
187C
331
3D0
  5
5B7
331
174B
  5
1B7F
331
6A2
  5
1B46
331
1BA2
  5
31E
331
4A3
  5
192F
331
185C
  5
1B9B
331
2FB
  5
48C
331
176D
  5
1B85
331
414
  5
1718
331
31D
  5
4AE
331
4E7
  5
19EA
331
1AEF
  5
4F3
331
337
  5
4E0
331
1719
  5
1B5C
331
188
  5
256
331
1C00
  5
152
331
541
  5
1ADC
331
1B11
  5
457
331
361
  5
541
331
1EA
  5
361
331
55B
  5
1AF6
331
1B33
  5
479
331
10B
  5
186
331
1A9B
  5
1B54
331
383
  5
550
331
434
  5
173C
331
1ABD
  5
1AB5
331
3A5
  5
572
331
1B55
  5
3D1
331
456
  5
17C2
331
478
  5
186B
331
1ADF
  5
1736
331
3BF
  5
5A5
331
1B6F
  5
3EB
331
157
  5
1F6
331
248
  5
3A3
331
173A
  5
1B70
331
3E1
  5
6A5
331
1B91
  5
30D
331
191B
  5
1BC6
331
10C3
  5
1B4F
331
1BB3
  5
32F
331
4B4
  5
19B4
331
186D
  5
1BAC
331
30C
  5
49D
331
4D6
  5
19D9
331
1BEF
  5
16E
331
1BDE
  5
F6
331
548
  5
1AE3
331
1B20
  5
466
331
F8
  5
176
331
421
  5
1722
331
1999
  5
1BDE
331
1F9
  5
383
331
17DA
  5
1B8D
331
56A
  5
1B05
331
1B42
  5
3BE
331
1AAA
  5
1AA2
331
392
  5
55F
331
21B
  5
390
331
58C
  5
1B18
331
1B5C
  5
3D8
331
144
  5
1E3
331
1ACC
  5
1AC4
331
3AC
  5
588
331
19DD
  5
1BF6
331
465
  5
1858
331
5AE
  5
1B2F
331
1B7E
  5
2FA
331
166
  5
21A
331
19F7
  5
1C10
331
487
  5
187A
331
3CE
  5
5B5
331
1749
  5
1B7D
331
6A0
  5
1B44
331
1BA0
  5
31C
331
4A1
  5
192D
331
185A
  5
1B99
331
2F9
  5
48A
331
176B
  5
1B83
331
187C
  5
1BBB
331
31B
  5
4AC
331
4E5
  5
19E8
331
1AED
  5
4F1
331
335
  5
4DE
331
1717
  5
1B5A
331
186
  5
254
331
1BFE
  5
15B
331
53F
  5
1ADA
331
1B0F
  5
455
331
35F
  5
53F
331
559
  5
1AF4
331
1B31
  5
477
331
109
  5
184
331
432
  5
173A
331
381
  5
54E
331
1ABB
  5
1AB3
331
3A3
  5
570
331
1B53
  5
3CF
331
12B
  5
1DC
331
454
  5
17C0
331
476
  5
1869
331
1ADD
  5
173D
331
3BD
  5
5A3
331
1B6D
  5
3E9
331
155
  5
1F4
331
19EE
  5
1C07
331
246
  5
3A1
331
697
  5
1B3B
331
1B8F
  5
30B
331
177
  5
245
331
1738
  5
1B6E
331
3DF
  5
6A3
331
1919
  5
1BC4
331
1BB1
  5
32D
331
4B2
  5
19B2
331
186B
  5
1BAA
331
30A
  5
49B
331
4F6
  5
19F9
331
1AFE
  5
43B
331
1BED
  5
172
331
346
  5
4E7
331
1C0F
  5
127
331
1E8
  5
35F
331
17D8
  5
1B8B
331
568
  5
1B03
331
1B40
  5
3BC
331
1AA8
  5
1AA0
331
390
  5
55D
331
441
  5
1747
331
219
  5
38E
331
58A
  5
1B16
331
1B5A
  5
3D6
331
142
  5
1E1
331
1ACA
  5
1AC2
331
3AA
  5
586
331
19DB
  5
1BF4
331
463
  5
17E2
331
5AC
  5
1B2D
331
1B7C
  5
2F8
331
164
  5
218
331
485
  5
1878
331
3CC
  5
5B3
331
19F5
  5
1C0E
331
255
  5
3B0
331
1747
  5
1B7B
331
69E
  5
1B42
331
1B9E
  5
31A
331
49F
  5
1926
331
1858
  5
1B97
331
2F7
  5
488
331
1769
  5
1B81
331
1BC0
  5
161
331
187A
  5
1BB9
331
319
  5
4AA
331
4E3
  5
19E6
331
1AEB
  5
4EF
331
333
  5
4DC
331
1715
  5
1B58
331
184
  5
252
331
1BFC
  5
159
331
53D
  5
1AD8
331
35D
  5
53D
331
1E6
  5
35D
331
17C7
  5
1B8A
331
107
  5
182
331
557
  5
1AF2
331
1B2F
  5
475
331
430
  5
1738
331
37F
  5
54C
331
1AB9
  5
1AB1
331
3A1
  5
56E
331
1B51
  5
3CD
331
129
  5
1DA
331
452
  5
176C
331
1ADB
  5
1AD3
331
3BB
  5
5A1
331
1B6B
  5
3E7
331
153
  5
1F2
331
474
  5
1867
331
19EC
  5
1C05
331
244
  5
39F
331
695
  5
1B39
331
1B8D
  5
309
331
175
  5
243
331
1736
  5
1B6C
331
3DD
  5
6A1
331
496
  5
191D
331
2A6
  5
422
331
1917
  5
1BC2
331
1BAF
  5
32B
331
4B0
  5
19AE
331
1869
  5
1BA8
331
308
  5
499
331
4D2
  5
19D8
331
4F4
  5
19F7
331
1AFC
  5
434
331
1BEB
  5
170
331
1B1E
  5
464
331
195
  5
2F4
331
1997
  5
1BDC
331
1F7
  5
381
331
1C0D
  5
13B
331
1B0D
  5
453
331
588
  5
1B14
331
1B58
  5
3D4
331
140
  5
1DF
331
1AC8
  5
1AC0
331
3A8
  5
584
331
19D9
  5
1BF2
331
461
  5
17E0
331
483
  5
1876
331
3CA
  5
5B1
331
1B7A
  5
2F6
331
162
  5
216
331
19F3
  5
1C0C
331
253
  5
3AE
331
69C
  5
1B40
331
1B9C
  5
318
331
1745
  5
1B79
331
3EC
  5
1715
331
49D
  5
1924
331
1926
  5
1BD1
331
2F5
  5
486
331
1878
  5
1BB7
331
317
  5
4A8
331
4E1
  5
19E4
331
1AE9
  5
4ED
331
1BD8
  5
10F
331
331
  5
4DA
331
53B
  5
1AD6
331
1B0B
  5
451
331
182
  5
250
331
1BFA
  5
15D
331
555
  5
1AF0
331
1B2D
  5
473
331
1E4
  5
35B
331
1A95
  5
1C1A
331
37D
  5
54A
331
577
  5
1B0E
331
1B4F
  5
3CB
331
127
  5
196
331
F6
  5
175
331
1AB7
  5
1AAF
331
39F
  5
56C
331
450
  5
176A
331
1AD9
  5
1AD1
331
3B9
  5
598
331
1B69
  5
3E5
331
151
  5
1F0
331
472
  5
1865
331
19EA
  5
1C03
331
242
  5
39D
331
494
  5
191B
331
3DB
  5
69F
331
1B8B
  5
307
331
173
  5
241
331
1915
  5
1BC0
331
1BAD
  5
329
331
4AE
  5
199B
331
1867
  5
1BA6
331
306
  5
497
331
1BE9
  5
1C15
331
4D0
  5
19D6
331
4F2
  5
19F5
331
1AFA
  5
432
331
1B1C
  5
462
331
193
  5
2F2
331
1C0B
  5
146
331
1995
  5
1BDA
331
1F5
  5
37F
331
566
  5
1B01
331
1B3E
  5
3BA
331
116
  5
18F
331
1AA6
  5
1A9E
331
38E
  5
55B
331
19B7
  5
1BEB
331
217
  5
38C
331
35B
  5
53B
331
5A8
  5
1B2A
331
1B78
  5
419
331
160
  5
214
331
1721
  5
1B64
331
3C8
  5
5AF
331
481
  5
1874
331
19F1
  5
1C0A
331
251
  5
3AC
331
69A
  5
1B3E
331
1B9A
  5
316
331
1743
  5
1B77
331
3EA
  5
11BE
331
49B
  5
1922
331
1924
  5
1BCF
331
2F3
  5
484
331
1876
  5
1BB5
331
315
  5
4A6
331
4DF
  5
19E2
331
1AE7
  5
4EB
331
32F
  5
4D8
331
1B09
  5
44F
331
180
  5
24E
331
1BF8
  5
15F
331
553
  5
1AEE
331
1B2B
  5
471
331
1E2
  5
346
331
1C1A
  5
100
331
37B
  5
548
331
1AB5
  5
1AAD
331
39D
  5
56A
331
1B4D
  5
3C9
331
125
  5
194
331
F4
  5
174
331
44E
  5
1768
331
226
  5
395
331
597
  5
1B20
331
1B67
  5
3E3
331
1AD7
  5
1ACF
331
3B7
  5
593
331
470
  5
1863
331
19E8
  5
1C01
331
240
  5
39B
331
492
  5
1919
331
3D9
  5
69D
331
1B89
  5
305
331
171
  5
23F
331
1913
  5
1BBE
331
1BAB
  5
327
331
4AC
  5
1999
331
1865
  5
1BA4
331
304
  5
495
331
4CE
  5
19D4
331
1BCD
  5
14E
331
1BE7
  5
1C13
331
326
  5
4B7
331
4F0
  5
19F3
331
1AF8
  5
430
331
1B1A
  5
460
331
191
  5
2F0
331
1C09
  5
14A
331
1993
  5
1BD8
331
1F3
  5
37D
331
564
  5
1AFF
331
1B3C
  5
3B8
331
114
  5
18E
331
14F
  5
1EE
331
1AA4
  5
1A9C
331
43D
  5
1744
331
19B5
  5
1BE9
331
215
  5
38A
331
38C
  5
559
331
1AC6
  5
1ABE
331
19D7
  5
1BF0
331
45F
  5
17DE
331
586
  5
1B12
331
698
  5
1B3C
331
1B98
  5
314
331
1741
  5
1B75
331
3E8
  5
10C4
331
499
  5
1920
331
2F1
  5
482
331
1922
  5
1BCD
331
1BBA
  5
16B
331
1874
  5
1BB3
331
313
  5
4A4
331
4DD
  5
19E0
331
1AE5
  5
4E9
331
32D
  5
4D6
331
1B07
  5
44D
331
17E
  5
24C
331
1BF6
  5
164
331
1E0
  5
33F
331
1C18
  5
FE
331
17C1
  5
1B87
331
101
  5
17F
331
551
  5
1AEC
331
1B29
  5
46F
331
17E3
  5
1B96
331
123
  5
192
331
1AB3
  5
1AAB
331
39B
  5
568
331
1B4B
  5
3C7
331
44C
  5
174A
331
224
  5
393
331
1AD5
  5
1ACD
331
3B5
  5
591
331
1B65
  5
3E1
331
14D
  5
1EC
331
46E
  5
1861
331
19E6
  5
1BFF
331
23E
  5
399
331
5B7
  5
1B38
331
1B87
  5
303
331
16F
  5
23D
331
1730
  5
1B6A
331
3D7
  5
69B
331
490
  5
1917
331
6A9
  5
1B4D
331
1BA9
  5
325
331
4AA
  5
1997
331
1863
  5
1BA2
331
302
  5
493
331
1BE5
  5
1C16
331
324
  5
4B5
331
1BCB
  5
14C
331
4EE
  5
19F1
331
1AF6
  5
429
331
42A
  5
1731
331
33E
  5
4E4
331
1B18
  5
45E
331
18F
  5
2EE
331
1C07
  5
148
331
1991
  5
1BD6
331
1F1
  5
37B
331
562
  5
1AFD
331
1B3A
  5
3B6
331
1AA2
  5
1A9A
331
38A
  5
557
331
112
  5
18D
331
19B3
  5
1BE7
331
43B
  5
1742
331
584
  5
1B10
331
19D5
  5
1BEE
331
45D
  5
17DC
331
5A6
  5
1B28
331
1B76
  5
417
331
15E
  5
1FD
331
47F
  5
1872
331
3C6
  5
5AD
331
24F
  5
3AA
331
1AC4
  5
1ABC
331
1920
  5
1BCB
331
1BB8
  5
334
331
1872
  5
1BB1
331
311
  5
4A2
331
4DB
  5
19DE
331
1AE3
  5
171F
331
1BD2
  5
143
331
32B
  5
4D1
331
1B05
  5
44B
331
17C
  5
24A
331
1BF4
  5
168
331
1DE
  5
33D
331
1C16
  5
108
331
54F
  5
1AEA
331
1B27
  5
46D
331
FF
  5
17D
331
17E1
  5
1B94
331
428
  5
172F
331
571
  5
1B0C
331
1AB1
  5
1AA9
331
399
  5
566
331
593
  5
1B1F
331
1B63
  5
3DF
331
14B
  5
1EA
331
1AD3
  5
1ACB
331
3B3
  5
58F
331
19E4
  5
1BFD
331
46C
  5
185F
331
5B5
  5
1B36
331
1B85
  5
301
331
16D
  5
22F
331
172E
  5
1B68
331
3D5
  5
699
331
48E
  5
1915
331
29E
  5
420
331
6A7
  5
1B4B
331
1BA7
  5
323
331
4A8
  5
1995
331
1861
  5
1BA0
331
300
  5
491
331
419
  5
171D
331
189D
  5
1BBD
331
4EC
  5
19EF
331
1AF4
  5
53A
331
322
  5
4B3
331
1B49
  5
3C5
331
171E
  5
1B61
331
18D
  5
2EC
331
546
  5
1AE1
331
1B16
  5
45C
331
366
  5
546
331
1EF
  5
366
331
560
  5
1AFB
331
1B38
  5
3B4
331
110
  5
18B
331
1AC2
  5
1ABA
331
1AA0
  5
1A96
331
388
  5
555
331
45B
  5
17DA
331
5A4
  5
1B26
331
1B74
  5
415
331
15C
  5
1FB
331
47D
  5
1870
331
3C4
  5
5AB
331
24D
  5
3A8
331
3E6
  5
10C2
331
1B96
  5
312
331
2EF
  5
480
331
1C05
  5
151
331
1870
  5
1BAF
331
4D9
  5
19DC
331
1AE1
  5
172D
331
329
  5
4CF
331
1B03
  5
441
331
17A
  5
248
331
1BF2
  5
166
331
1DC
  5
338
331
1C14
  5
10D
331
54D
  5
1AE8
331
1B25
  5
46B
331
FD
  5
17B
331
17DF
  5
1B92
331
1FE
  5
388
331
56F
  5
1B0A
331
1B47
  5
3C3
331
1AAF
  5
1AA7
331
397
  5
564
331
591
  5
1B1D
331
1B61
  5
3DD
331
149
  5
1E8
331
1AD1
  5
1AC9
331
3B1
  5
58D
331
19E2
  5
1BFB
331
46A
  5
185D
331
5B3
  5
1B34
331
1B83
  5
2FF
331
172C
  5
1B66
331
3D3
  5
697
331
19FC
  5
1C19
331
48C
  5
1913
331
6A5
  5
1B49
331
1BA5
  5
321
331
4A6
  5
1993
331
185F
  5
1B9E
331
2FE
  5
48F
331
192F
  5
1BD5
331
1BC7
  5
158
331
417
  5
171B
331
320
  5
4B1
331
16B
  5
225
331
4EA
  5
19ED
331
1AF2
  5
4F6
331
171C
  5
1B5F
331
18B
  5
2A6
331
1C03
  5
14F
331
544
  5
1ADF
331
1B14
  5
45A
331
364
  5
544
331
1ED
  5
364
331
55E
  5
1AF9
331
1B36
  5
3B2
331
10E
  5
189
331
19AF
  5
1BE5
331
1A9E
  5
19FC
331
386
  5
553
331
1AC0
  5
1AB8
331
459
  5
17D8
331
5A2
  5
1B24
331
1B72
  5
413
331
15A
  5
1F9
331
47B
  5
186E
331
3C2
  5
5A8
331
24B
  5
3A6
331
173D
  5
1B73
331
3E4
  5
6A8
331
1B94
  5
310
331
2ED
  5
47E
331
191E
  5
1BC9
331
1BB6
  5
332
331
4B7
  5
19B7
331
30F
  5
4A0
331
1BE1
  5
FA
331
1B01
  5
43E
331
178
  5
246
331
1BF0
  5
16F
331
1DA
  5
336
331
1C12
  5
11C
331
54B
  5
1AE6
331
1B23
  5
469
331
FB
  5
179
331
17DD
  5
1B90
331
1FC
  5
386
331
56D
  5
1B08
331
1B45
  5
3C1
331
1AAD
  5
1AA5
331
395
  5
562
331
58F
  5
1B1B
331
1B5F
  5
3DB
331
147
  5
1E6
331
1ACF
  5
1AC7
331
3AF
  5
58B
331
19E0
  5
1BF9
331
468
  5
185B
331
5B1
  5
1B32
331
1B81
  5
2FD
331
169
  5
223
331
48A
  5
1899
331
3D1
  5
695
331
6A3
  5
1B47
331
1BA3
  5
31F
331
4A4
  5
1991
331
185D
  5
1B9C
331
2FC
  5
48D
331
192D
  5
1BD3
331
1BC5
  5
156
331
415
  5
1719
331
31E
  5
4AF
331
4E8
  5
19EB
331
1AF0
  5
4F4
331
1899
  5
1BBC
331
338
  5
4E1
331
171A
  5
1B5D
331
189
  5
29E
331
1C01
  5
153
331
542
  5
1ADD
331
1B12
  5
458
331
362
  5
542
331
1EB
  5
362
331
55C
  5
1AF7
331
1B34
  5
47A
331
10C
  5
187
331
19AD
  5
1BE3
331
1A9C
  5
1B55
331
384
  5
551
331
1ABE
  5
1AB6
331
3A6
  5
577
331
1B56
  5
3D2
331
457
  5
17C6
331
22F
  5
396
331
5A0
  5
1B22
331
1B70
  5
3EC
331
158
  5
1F7
331
479
  5
186C
331
3C0
  5
5A6
331
249
  5
3A4
331
173B
  5
1B71
331
3E2
  5
6A6
331
1B92
  5
30E
331
2EB
  5
47C
331
191C
  5
1BC7
331
10C4
  5
1B50
331
1BB4
  5
330
331
4B5
  5
19B5
331
186E
  5
1BAD
331
11BE
  5
1B52
331
30D
  5
49E
331
4D7
  5
19DA
331
1BDF
  5
F8
331
549
  5
1AE4
331
1B21
  5
467
331
F9
  5
177
331
1C10
  5
12B
331
422
  5
172C
331
199A
  5
1BDF
331
1FA
  5
384
331
17DB
  5
1B8E
331
56B
  5
1B06
331
1B43
  5
3BF
331
1AAB
  5
1AA3
331
393
  5
560
331
21C
  5
391
331
58D
  5
1B19
331
1B5D
  5
3D9
331
145
  5
1E4
331
1ACD
  5
1AC5
331
3AD
  5
589
331
19DE
  5
1BF7
331
466
  5
1859
331
5AF
  5
1B30
331
1B7F
  5
2FB
331
167
  5
21B
331
19F8
  5
1C11
331
488
  5
187B
331
3CF
  5
5B6
331
174A
  5
1B7E
331
6A1
  5
1B45
331
1BA1
  5
31D
331
4A2
  5
192E
331
185B
  5
1B9A
331
2FA
  5
48B
331
176C
  5
1B84
331
413
  5
1717
331
31C
  5
4AD
331
4E6
  5
19E9
331
1AEE
  5
4F2
331
336
  5
4DF
331
1718
  5
1B5B
331
187
  5
255
331
1BFF
  5
155
331
540
  5
1ADB
331
1B10
  5
456
331
360
  5
540
331
1E9
  5
360
331
55A
  5
1AF5
331
1B32
  5
478
331
10A
  5
185
331
1A9A
  5
1B53
331
382
  5
54F
331
433
  5
173B
331
1ABC
  5
1AB4
331
3A4
  5
571
331
1B54
  5
3D0
331
455
  5
17C1
331
477
  5
186A
331
1ADE
  5
1740
331
3BE
  5
5A4
331
1B6E
  5
3EA
331
156
  5
1F5
331
19EF
  5
1C08
331
247
  5
3A2
331
1739
  5
1B6F
331
3E0
  5
6A4
331
1B90
  5
30C
331
191A
  5
1BC5
331
10C2
  5
1B4E
331
1BB2
  5
32E
331
4B3
  5
19B3
331
186C
  5
1BAB
331
30B
  5
49C
331
4F7
  5
19FB
331
1AFF
  5
43C
331
1BEE
  5
16D
331
347
  5
4E8
331
1BDD
  5
F4
331
420
  5
1721
331
1998
  5
1BDD
331
1F8
  5
382
331
17D9
  5
1B8C
331
569
  5
1B04
331
1B41
  5
3BD
331
1AA9
  5
1AA1
331
391
  5
55E
331
442
  5
1748
331
21A
  5
38F
331
58B
  5
1B17
331
1B5B
  5
3D7
331
143
  5
1E2
331
1ACB
  5
1AC3
331
3AB
  5
587
331
19DC
  5
1BF5
331
464
  5
17E3
331
5AD
  5
1B2E
331
1B7D
  5
2F9
331
165
  5
219
331
486
  5
1879
331
3CD
  5
5B4
331
19F6
  5
1C0F
331
256
  5
3B1
331
1748
  5
1B7C
331
69F
  5
1B43
331
1B9F
  5
31B
331
4A0
  5
1927
331
1859
  5
1B98
331
2F8
  5
489
331
176A
  5
1B82
331
1BC1
  5
162
331
187B
  5
1BBA
331
31A
  5
4AB
331
4E4
  5
19E7
331
1AEC
  5
4F0
331
334
  5
4DD
331
1716
  5
1B59
331
185
  5
253
331
1BFD
  5
15A
331
53E
  5
1AD9
331
1B0E
  5
454
331
1E7
  5
35E
331
558
  5
1AF3
331
1B30
  5
476
331
108
  5
183
331
431
  5
1739
331
380
  5
54D
331
1ABA
  5
1AB2
331
3A2
  5
56F
331
1B52
  5
3CE
331
12A
  5
1DB
331
453
  5
176D
331
1ADC
  5
1AD4
331
3BC
  5
5A2
331
1B6C
  5
3E8
331
154
  5
1F3
331
475
  5
1868
331
19ED
  5
1C06
331
245
  5
3A0
331
696
  5
1B3A
331
1B8E
  5
30A
331
176
  5
244
331
1737
  5
1B6D
331
3DE
  5
6A2
331
497
  5
191E
331
1918
  5
1BC3
331
1BB0
  5
32C
331
4B1
  5
19AF
331
186A
  5
1BA9
331
309
  5
49A
331
4F5
  5
19F8
331
1AFD
  5
43A
331
1BEC
  5
171
331
345
  5
4E6
331
1B1F
  5
465
331
196
  5
2F5
331
1C0E
  5
126
331
35E
  5
53E
331
440
  5
1746
331
19B8
  5
1BEC
331
218
  5
38D
331
589
  5
1B15
331
1B59
  5
3D5
331
141
  5
1E0
331
1AC9
  5
1AC1
331
3A9
  5
585
331
19DA
  5
1BF3
331
462
  5
17E1
331
5AB
  5
1B2C
331
1B7B
  5
2F7
331
163
  5
217
331
484
  5
1877
331
3CB
  5
5B2
331
19F4
  5
1C0D
331
254
  5
3AF
331
69D
  5
1B41
331
1B9D
  5
319
331
1746
  5
1B7A
331
3ED
  5
1716
331
49E
  5
1925
331
2F6
  5
487
331
1927
  5
1BD2
331
1BBF
  5
160
331
1768
  5
1B80
331
1879
  5
1BB8
331
318
  5
4A9
331
4E2
  5
19E5
331
1AEA
  5
4EE
331
1BD9
  5
114
331
332
  5
4DB
331
1714
  5
1B57
331
183
  5
251
331
1BFB
  5
15E
331
53C
  5
1AD7
331
35C
  5
53C
331
1E5
  5
35C
331
17C6
  5
1B89
331
106
  5
181
331
556
  5
1AF1
331
1B2E
  5
474
331
37E
  5
54B
331
1AB8
  5
1AB0
331
3A0
  5
56D
331
1B50
  5
3CC
331
128
  5
1D9
331
451
  5
176B
331
1ADA
  5
1AD2
331
3BA
  5
5A0
331
1B6A
  5
3E6
331
152
  5
1F1
331
473
  5
1866
331
19EB
  5
1C04
331
243
  5
39E
331
495
  5
191C
331
3DC
  5
6A0
331
1B8C
  5
308
331
174
  5
242
331
2A5
  5
421
331
1916
  5
1BC1
331
1BAE
  5
32A
331
4AF
  5
19AD
331
1868
  5
1BA7
331
307
  5
498
331
4D1
  5
19D7
331
4F3
  5
19F6
331
1AFB
  5
433
331
1BEA
  5
173
331
1B1D
  5
463
331
194
  5
2F3
331
1C0C
  5
147
331
1996
  5
1BDB
331
1F6
  5
380
331
567
  5
1B02
331
1AA7
  5
1A9F
331
38F
  5
55C
331
1B3F
  5
3BB
331
1B0C
  5
452
331
460
  5
17DF
331
19D8
  5
1BF1
331
230
  5
397
331
5A9
  5
1B2B
331
1B79
  5
41A
331
161
  5
215
331
1722
  5
1B65
331
3C9
  5
5B0
331
482
  5
1875
331
19F2
  5
1C0B
331
252
  5
3AD
331
69B
  5
1B3F
331
1B9B
  5
317
331
1744
  5
1B78
331
3EB
  5
1714
331
49C
  5
1923
331
1925
  5
1BD0
331
2F4
  5
485
331
1877
  5
1BB6
331
316
  5
4A7
331
4E0
  5
19E3
331
1AE8
  5
4EC
331
1BD7
  5
10E
331
330
  5
4D9
331
53A
  5
1AD5
331
1B0A
  5
450
331
181
  5
24F
331
1BF9
  5
15C
331
554
  5
1AEF
331
1B2C
  5
472
331
37C
  5
549
331
1AB6
  5
1AAE
331
39E
  5
56B
331
1B4E
  5
3CA
331
126
  5
195
331
44F
  5
1769
331
598
  5
1B21
331
1B68
  5
3E4
331
150
  5
1EF
331
1AD8
  5
1AD0
331
3B8
  5
597
331
471
  5
1864
331
19E9
  5
1C02
331
241
  5
39C
331
493
  5
191A
331
3DA
  5
69E
331
1B8A
  5
306
331
172
  5
240
331
1914
  5
1BBF
331
1BAC
  5
328
331
4AD
  5
199A
331
1866
  5
1BA5
331
305
  5
496
331
4CF
  5
19D5
331
1BE8
  5
1C14
331
327
  5
4B8
331
4F1
  5
19F4
331
1AF9
  5
431
331
1B1B
  5
461
331
192
  5
2F1
331
1C0A
  5
145
331
1994
  5
1BD9
331
1F4
  5
37E
331
565
  5
1B00
331
1B3D
  5
3B9
331
1AA5
  5
1A9D
331
38D
  5
55A
331
19B6
  5
1BEA
331
216
  5
38B
331
43E
  5
1745
331
1E3
  5
347
331
587
  5
1B13
331
1AC7
  5
1ABF
331
13F
  5
1DE
  0
LAYOUT
  5
6E
102
{ACAD_REACTORS
330
61
102
}
330
61
100
AcDbPlotSettings
  1

  2
none_device
  4
Letter_(8.50_x_11.00_Inches)
  6

 40
6.349999904632568
 41
6.349999904632568
 42
6.350006103515625
 43
6.350006103515625
 44
215.8999938964844
 45
279.3999938964844
 46
0.0
 47
0.0
 48
0.0
 49
0.0
140
0.0
141
0.0
142
1.0
143
27.05744706565013
 70
 11952
 72
     0
 73
     1
 74
     0
  7
n-plot.ctb
 75
     0
147
0.0369584017876364
 76
     0
 77
     2
 78
   300
148
3440.353380866923
149
9658.100770224759
100
AcDbLayout
  1
Model
 70
     1
 71
     0
 10
0.0
 20
0.0
 11
12.0
 21
9.0
 12
0.0
 22
0.0
 32
0.0
 14
0.0
 24
0.0
 34
0.0
 15
0.0
 25
0.0
 35
0.0
146
0.0
 13
0.0
 23
0.0
 33
0.0
 16
1.0
 26
0.0
 36
0.0
 17
0.0
 27
1.0
 37
0.0
 76
     0
330
6B
331
8B
1001
ACAD_PSEXT
1000
なし
1000
なし
1000
適切ではありません
1000
新しいプロッタ環境設定名を選択しない限り、レイアウトは印刷されません。
1070
     0
  0
LAYOUT
  5
6A
102
{ACAD_REACTORS
330
61
102
}
330
61
100
AcDbPlotSettings
  1

  2
FX DP 205
  4

  6

 40
0.0
 41
0.0
 42
0.0
 43
0.0
 44
0.0
 45
0.0
 46
0.0
 47
0.0
 48
0.0
 49
0.0
140
0.0
141
0.0
142
1.0
143
1.0
 70
   688
 72
     0
 73
     0
 74
     5
  7
n-plot.ctb
 75
    16
147
1.0
 76
     0
 77
     2
 78
   300
148
0.0
149
0.0
100
AcDbLayout
  1
レイアウト1
 70
     1
 71
     1
 10
0.0
 20
0.0
 11
12.0
 21
9.0
 12
0.0
 22
0.0
 32
0.0
 14
1.000000000000000E+20
 24
1.000000000000000E+20
 34
1.000000000000000E+20
 15
-1.000000000000000E+20
 25
-1.000000000000000E+20
 35
-1.000000000000000E+20
146
0.0
 13
0.0
 23
0.0
 33
0.0
 16
1.0
 26
0.0
 36
0.0
 17
0.0
 27
1.0
 37
0.0
 76
     0
330
67
  0
MATERIAL
  5
19
102
{ACAD_XDICTIONARY
360
1A
102
}
102
{ACAD_REACTORS
330
10
102
}
330
10
100
AcDbMaterial
  1
ByBlock
 72
     0
 43
0.0208333333333333
 43
0.0
 43
0.0
 43
0.0
 43
0.0
 43
0.0208333333333333
 43
0.0
 43
0.0
 43
0.0
 43
0.0
 43
1.0
 43
0.0
 43
0.0
 43
0.0
 43
0.0
 43
1.0
 77
     0
 47
0.0208333333333333
 47
0.0
 47
0.0
 47
0.0
 47
0.0
 47
0.0208333333333333
 47
0.0
 47
0.0
 47
0.0
 47
0.0
 47
1.0
 47
0.0
 47
0.0
 47
0.0
 47
0.0
 47
1.0
171
     0
 49
0.0208333333333333
 49
0.0
 49
0.0
 49
0.0
 49
0.0
 49
0.0208333333333333
 49
0.0
 49
0.0
 49
0.0
 49
0.0
 49
1.0
 49
0.0
 49
0.0
 49
0.0
 49
0.0
 49
1.0
175
     0
142
0.0208333333333333
142
0.0
142
0.0
142
0.0
142
0.0
142
0.0208333333333333
142
0.0
142
0.0
142
0.0
142
0.0
142
1.0
142
0.0
142
0.0
142
0.0
142
0.0
142
1.0
179
     0
144
0.0208333333333333
144
0.0
144
0.0
144
0.0
144
0.0
144
0.0208333333333333
144
0.0
144
0.0
144
0.0
144
0.0
144
1.0
144
0.0
144
0.0
144
0.0
144
0.0
144
1.0
147
0.0208333333333333
147
0.0
147
0.0
147
0.0
147
0.0
147
0.0208333333333333
147
0.0
147
0.0
147
0.0
147
0.0
147
1.0
147
0.0
147
0.0
147
0.0
147
0.0
147
1.0
  0
MATERIAL
  5
11
102
{ACAD_XDICTIONARY
360
12
102
}
102
{ACAD_REACTORS
330
10
102
}
330
10
100
AcDbMaterial
  1
ByLayer
 72
     0
 43
0.0208333333333333
 43
0.0
 43
0.0
 43
0.0
 43
0.0
 43
0.0208333333333333
 43
0.0
 43
0.0
 43
0.0
 43
0.0
 43
1.0
 43
0.0
 43
0.0
 43
0.0
 43
0.0
 43
1.0
 77
     0
 47
0.0208333333333333
 47
0.0
 47
0.0
 47
0.0
 47
0.0
 47
0.0208333333333333
 47
0.0
 47
0.0
 47
0.0
 47
0.0
 47
1.0
 47
0.0
 47
0.0
 47
0.0
 47
0.0
 47
1.0
171
     0
 49
0.0208333333333333
 49
0.0
 49
0.0
 49
0.0
 49
0.0
 49
0.0208333333333333
 49
0.0
 49
0.0
 49
0.0
 49
0.0
 49
1.0
 49
0.0
 49
0.0
 49
0.0
 49
0.0
 49
1.0
175
     0
142
0.0208333333333333
142
0.0
142
0.0
142
0.0
142
0.0
142
0.0208333333333333
142
0.0
142
0.0
142
0.0
142
0.0
142
1.0
142
0.0
142
0.0
142
0.0
142
0.0
142
1.0
179
     0
144
0.0208333333333333
144
0.0
144
0.0
144
0.0
144
0.0
144
0.0208333333333333
144
0.0
144
0.0
144
0.0
144
0.0
144
1.0
144
0.0
144
0.0
144
0.0
144
0.0
144
1.0
147
0.0208333333333333
147
0.0
147
0.0
147
0.0
147
0.0
147
0.0208333333333333
147
0.0
147
0.0
147
0.0
147
0.0
147
1.0
147
0.0
147
0.0
147
0.0
147
0.0
147
1.0
  0
MATERIAL
  5
21
102
{ACAD_XDICTIONARY
360
22
102
}
102
{ACAD_REACTORS
330
10
102
}
330
10
100
AcDbMaterial
  1
Global
 72
     0
 43
0.0208333333333333
 43
0.0
 43
0.0
 43
0.0
 43
0.0
 43
0.0208333333333333
 43
0.0
 43
0.0
 43
0.0
 43
0.0
 43
1.0
 43
0.0
 43
0.0
 43
0.0
 43
0.0
 43
1.0
 77
     0
 47
0.0208333333333333
 47
0.0
 47
0.0
 47
0.0
 47
0.0
 47
0.0208333333333333
 47
0.0
 47
0.0
 47
0.0
 47
0.0
 47
1.0
 47
0.0
 47
0.0
 47
0.0
 47
0.0
 47
1.0
171
     0
 49
0.0208333333333333
 49
0.0
 49
0.0
 49
0.0
 49
0.0
 49
0.0208333333333333
 49
0.0
 49
0.0
 49
0.0
 49
0.0
 49
1.0
 49
0.0
 49
0.0
 49
0.0
 49
0.0
 49
1.0
175
     0
142
0.0208333333333333
142
0.0
142
0.0
142
0.0
142
0.0
142
0.0208333333333333
142
0.0
142
0.0
142
0.0
142
0.0
142
1.0
142
0.0
142
0.0
142
0.0
142
0.0
142
1.0
179
     0
144
0.0208333333333333
144
0.0
144
0.0
144
0.0
144
0.0
144
0.0208333333333333
144
0.0
144
0.0
144
0.0
144
0.0
144
1.0
144
0.0
144
0.0
144
0.0
144
0.0
144
1.0
147
0.0208333333333333
147
0.0
147
0.0
147
0.0
147
0.0
147
0.0208333333333333
147
0.0
147
0.0
147
0.0
147
0.0
147
1.0
147
0.0
147
0.0
147
0.0
147
0.0
147
1.0
  0
ACAD_PROXY_OBJECT
  5
66
102
{ACAD_REACTORS
330
65
102
}
330
65
100
AcDbProxyObject
 90
      499
 91
      505
 95
  1310743
 70
     1
100
AcDbMLeaderStyle
170
     2
171
     1
172
     0
 90
        2
 40
0.0
 41
0.0
173
     1
 91
-1056964608
340
5A
 92
       -2
290
     1
 42
0.09
291
     1
 43
0.36
  3
Standard
 44
0.18
300

342
55
174
     1
178
     6
175
     1
176
     0
 93
-1056964608
 45
0.18
292
     0
297
     0
 46
0.18
 94
-1056964608
 47
1.0
 49
1.0
140
1.0
293
     1
141
0.0
294
     1
177
     0
142
1.0
295
     0
296
     0
143
0.125
1001
ACAD_MLEADERVER
1070
     2
1001
ACAD
  0
MLINESTYLE
  5
5F
102
{ACAD_REACTORS
330
5E
102
}
330
5E
100
AcDbMlineStyle
  2
STANDARD
 70
     0
  3

 62
   256
 51
90.0
 52
90.0
 71
     2
 49
0.5
 62
   256
  6
BYLAYER
 49
-0.5
 62
   256
  6
BYLAYER
  0
ACDBPLACEHOLDER
  5
F
102
{ACAD_REACTORS
330
E
102
}
330
E
  0
ACAD_PROXY_OBJECT
  5
43
102
{ACAD_REACTORS
330
42
102
}
330
42
100
AcDbProxyObject
 90
      499
 91
      503
 95
  1310743
 70
     1
100
AcDbScale
 70
     0
300
1:1
140
1.0
141
1.0
290
     1
1001
ACAD
  0
ACAD_PROXY_OBJECT
  5
44
102
{ACAD_REACTORS
330
42
102
}
330
42
100
AcDbProxyObject
 90
      499
 91
      503
 95
  1310743
 70
     1
100
AcDbScale
 70
     0
300
1/128" = 1'-0"
140
0.0078125
141
12.0
290
     0
1001
ACAD
  0
ACAD_PROXY_OBJECT
  5
45
102
{ACAD_REACTORS
330
42
102
}
330
42
100
AcDbProxyObject
 90
      499
 91
      503
 95
  1310743
 70
     1
100
AcDbScale
 70
     0
300
1/64" = 1'-0"
140
0.015625
141
12.0
290
     0
1001
ACAD
  0
ACAD_PROXY_OBJECT
  5
46
102
{ACAD_REACTORS
330
42
102
}
330
42
100
AcDbProxyObject
 90
      499
 91
      503
 95
  1310743
 70
     1
100
AcDbScale
 70
     0
300
1/32" = 1'-0"
140
0.03125
141
12.0
290
     0
1001
ACAD
  0
ACAD_PROXY_OBJECT
  5
47
102
{ACAD_REACTORS
330
42
102
}
330
42
100
AcDbProxyObject
 90
      499
 91
      503
 95
  1310743
 70
     1
100
AcDbScale
 70
     0
300
1/16" = 1'-0"
140
0.0625
141
12.0
290
     0
1001
ACAD
  0
ACAD_PROXY_OBJECT
  5
48
102
{ACAD_REACTORS
330
42
102
}
330
42
100
AcDbProxyObject
 90
      499
 91
      503
 95
  1310743
 70
     1
100
AcDbScale
 70
     0
300
3/32" = 1'-0"
140
0.09375
141
12.0
290
     0
1001
ACAD
  0
ACAD_PROXY_OBJECT
  5
49
102
{ACAD_REACTORS
330
42
102
}
330
42
100
AcDbProxyObject
 90
      499
 91
      503
 95
  1310743
 70
     1
100
AcDbScale
 70
     0
300
1/8" = 1'-0"
140
0.125
141
12.0
290
     0
1001
ACAD
  0
ACAD_PROXY_OBJECT
  5
4A
102
{ACAD_REACTORS
330
42
102
}
330
42
100
AcDbProxyObject
 90
      499
 91
      503
 95
  1310743
 70
     1
100
AcDbScale
 70
     0
300
3/16" = 1'-0"
140
0.1875
141
12.0
290
     0
1001
ACAD
  0
ACAD_PROXY_OBJECT
  5
4B
102
{ACAD_REACTORS
330
42
102
}
330
42
100
AcDbProxyObject
 90
      499
 91
      503
 95
  1310743
 70
     1
100
AcDbScale
 70
     0
300
1/4" = 1'-0"
140
0.25
141
12.0
290
     0
1001
ACAD
  0
ACAD_PROXY_OBJECT
  5
4C
102
{ACAD_REACTORS
330
42
102
}
330
42
100
AcDbProxyObject
 90
      499
 91
      503
 95
  1310743
 70
     1
100
AcDbScale
 70
     0
300
3/8" = 1'-0"
140
0.375
141
12.0
290
     0
1001
ACAD
  0
ACAD_PROXY_OBJECT
  5
4D
102
{ACAD_REACTORS
330
42
102
}
330
42
100
AcDbProxyObject
 90
      499
 91
      503
 95
  1310743
 70
     1
100
AcDbScale
 70
     0
300
1/2" = 1'-0"
140
0.5
141
12.0
290
     0
1001
ACAD
  0
ACAD_PROXY_OBJECT
  5
4E
102
{ACAD_REACTORS
330
42
102
}
330
42
100
AcDbProxyObject
 90
      499
 91
      503
 95
  1310743
 70
     1
100
AcDbScale
 70
     0
300
3/4" = 1'-0"
140
0.75
141
12.0
290
     0
1001
ACAD
  0
ACAD_PROXY_OBJECT
  5
4F
102
{ACAD_REACTORS
330
42
102
}
330
42
100
AcDbProxyObject
 90
      499
 91
      503
 95
  1310743
 70
     1
100
AcDbScale
 70
     0
300
1" = 1'-0"
140
1.0
141
12.0
290
     0
1001
ACAD
  0
ACAD_PROXY_OBJECT
  5
50
102
{ACAD_REACTORS
330
42
102
}
330
42
100
AcDbProxyObject
 90
      499
 91
      503
 95
  1310743
 70
     1
100
AcDbScale
 70
     0
300
1-1/2" = 1'-0"
140
1.5
141
12.0
290
     0
1001
ACAD
  0
ACAD_PROXY_OBJECT
  5
51
102
{ACAD_REACTORS
330
42
102
}
330
42
100
AcDbProxyObject
 90
      499
 91
      503
 95
  1310743
 70
     1
100
AcDbScale
 70
     0
300
3" = 1'-0"
140
3.0
141
12.0
290
     0
1001
ACAD
  0
ACAD_PROXY_OBJECT
  5
52
102
{ACAD_REACTORS
330
42
102
}
330
42
100
AcDbProxyObject
 90
      499
 91
      503
 95
  1310743
 70
     1
100
AcDbScale
 70
     0
300
6" = 1'-0"
140
6.0
141
12.0
290
     0
1001
ACAD
  0
ACAD_PROXY_OBJECT
  5
53
102
{ACAD_REACTORS
330
42
102
}
330
42
100
AcDbProxyObject
 90
      499
 91
      503
 95
  1310743
 70
     1
100
AcDbScale
 70
     0
300
1'-0" = 1'-0"
140
12.0
141
12.0
290
     0
1001
ACAD
  0
TABLESTYLE
  5
64
102
{ACAD_XDICTIONARY
360
873
102
}
102
{ACAD_REACTORS
330
63
102
}
330
63
100
AcDbTableStyle
  3
Standard
 70
     0
 71
     0
 40
0.06
 41
0.06
280
     0
281
     0
  7
STANDARD
140
0.18
170
     2
 62
     0
 63
     7
283
     0
 90
      512
 91
        0
  1

274
    -2
284
     1
 64
     0
275
    -2
285
     1
 65
     0
276
    -2
286
     1
 66
     0
277
    -2
287
     1
 67
     0
278
    -2
288
     1
 68
     0
279
    -2
289
     1
 69
     0
  7
STANDARD
140
0.25
170
     5
 62
     0
 63
     7
283
     0
 90
      512
 91
        0
  1

274
    -2
284
     1
 64
     0
275
    -2
285
     1
 65
     0
276
    -2
286
     1
 66
     0
277
    -2
287
     1
 67
     0
278
    -2
288
     1
 68
     0
279
    -2
289
     1
 69
     0
  7
STANDARD
140
0.18
170
     5
 62
     0
 63
     7
283
     0
 90
      512
 91
        0
  1

274
    -2
284
     1
 64
     0
275
    -2
285
     1
 65
     0
276
    -2
286
     1
 66
     0
277
    -2
287
     1
 67
     0
278
    -2
288
     1
 68
     0
279
    -2
289
     1
 69
     0
  0
VISUALSTYLE
  5
2F
102
{ACAD_XDICTIONARY
360
910
102
}
102
{ACAD_REACTORS
330
29
102
}
330
29
100
AcDbVisualStyle
  2

 70
     4
 71
     0
 72
     2
 73
     0
 90
        0
 40
-0.6
 41
-30.0
 62
     5
 63
     7
 74
     1
 91
        4
 64
     7
 65
   257
 75
     1
175
     1
 42
1.0
 92
        0
 66
   257
 43
1.0
 76
     1
 77
     6
 78
     2
 67
     7
 79
     5
170
     0
171
     0
290
     0
174
     0
 93
        1
 44
0.0
173
     0
291
     0
 45
0.0
1001
ACAD
1000
AcDbSavedByObjectVersion
1070
     0
  0
VISUALSTYLE
  5
941
102
{ACAD_REACTORS
330
29
102
}
330
29
100
AcDbVisualStyle
  2
3D Hidden
 70
     6
 71
     1
 72
     2
 73
     2
 90
        0
 40
-0.6
 41
-30.0
 62
     5
 63
     7
 74
     2
 91
        2
 64
     7
 65
   257
 75
     2
175
     1
 42
40.0
 92
        0
 66
   257
 43
1.0
 76
     1
 77
     6
 78
     2
 67
     7
 79
     3
170
     0
171
     0
290
     0
174
     0
 93
        1
 44
0.0
173
     0
291
     0
 45
0.0
1001
ACAD
1000
AcDbSavedByObjectVersion
1070
     0
  0
VISUALSTYLE
  5
65D
102
{ACAD_XDICTIONARY
360
93B
102
}
102
{ACAD_REACTORS
330
29
102
}
330
29
100
AcDbVisualStyle
  2

 70
     5
 71
     0
 72
     2
 73
     1
 90
        0
 40
-0.6
 41
-30.0
 62
     5
 63
     7
 74
     1
 91
        4
 64
     7
 65
   257
 75
     1
175
     1
 42
1.0
 92
        0
 66
   257
 43
1.0
 76
     1
 77
     6
 78
     2
 67
     7
 79
     5
170
     0
171
     0
290
     0
174
     0
 93
        1
 44
0.0
173
     0
291
     0
 45
0.0
1001
ACAD
1000
AcDbSavedByObjectVersion
1070
     0
  0
VISUALSTYLE
  5
2E
102
{ACAD_XDICTIONARY
360
90E
102
}
102
{ACAD_REACTORS
330
29
102
}
330
29
100
AcDbVisualStyle
  2

 70
     7
 71
     1
 72
     0
 73
     1
 90
        0
 40
-0.6
 41
-30.0
 62
     5
 63
     7
 74
     0
 91
        4
 64
     7
 65
   257
 75
     1
175
     1
 42
1.0
 92
        8
 66
     7
 43
1.0
 76
     1
 77
     6
 78
     2
 67
     7
 79
     5
170
     0
171
     0
290
     0
174
     0
 93
        1
 44
0.0
173
     0
291
     1
 45
0.0
1001
ACAD
1000
AcDbSavedByObjectVersion
1070
     0
  0
VISUALSTYLE
  5
35
102
{ACAD_XDICTIONARY
360
91C
102
}
102
{ACAD_REACTORS
330
29
102
}
330
29
100
AcDbVisualStyle
  2

 70
    12
 71
     2
 72
     2
 73
     0
 90
        0
 40
-0.6
 41
-30.0
 62
     5
 63
     7
 74
     1
 91
        4
 64
     7
 65
   257
 75
     1
175
     1
 42
1.0
 92
        8
 66
     7
 43
1.0
 76
     1
 77
     6
 78
     2
 67
     7
 79
     5
170
     0
171
     0
290
     0
174
     0
 93
        1
 44
50.0
173
     0
291
     1
 45
0.0
1001
ACAD
1000
AcDbSavedByObjectVersion
1070
     0
  0
VISUALSTYLE
  5
39
102
{ACAD_XDICTIONARY
360
924
102
}
102
{ACAD_REACTORS
330
29
102
}
330
29
100
AcDbVisualStyle
  2

 70
    16
 71
     2
 72
     2
 73
     3
 90
        0
 40
-0.6
 41
-30.0
 62
     5
 63
     8
 74
     1
 91
        4
 64
     7
 65
   257
 75
     1
175
     1
 42
1.0
 92
        8
 66
     8
 43
1.0
 76
     1
 77
     6
 78
     2
 67
     7
 79
     5
170
     0
171
     0
290
     0
174
     0
 93
        1
 44
0.0
173
     0
291
     1
 45
0.0
1001
ACAD
1000
AcDbSavedByObjectVersion
1070
     0
  0
VISUALSTYLE
  5
32
102
{ACAD_XDICTIONARY
360
916
102
}
102
{ACAD_REACTORS
330
29
102
}
330
29
100
AcDbVisualStyle
  2

 70
     9
 71
     3
 72
     2
 73
     0
 90
        0
 40
-0.6
 41
-30.0
 62
     5
 63
     7
 74
     2
 91
        2
 64
     7
 65
   257
 75
     1
175
     1
 42
179.0
 92
        8
 66
     7
 43
1.0
 76
     1
 77
     6
 78
     2
 67
     7
 79
     3
170
     0
171
     0
290
     0
174
     0
 93
        1
 44
0.0
173
     0
291
     0
 45
0.0
1001
ACAD
1000
AcDbSavedByObjectVersion
1070
     0
  0
VISUALSTYLE
  5
34
102
{ACAD_XDICTIONARY
360
91A
102
}
102
{ACAD_REACTORS
330
29
102
}
330
29
100
AcDbVisualStyle
  2

 70
    11
 71
     2
 72
     2
 73
     0
 90
        0
 40
-0.6
 41
-30.0
 62
     5
 63
     7
 74
     1
 91
        4
 64
     7
 65
   257
 75
     1
175
     1
 42
1.0
 92
        8
 66
     7
 43
1.0
 76
     1
 77
     6
 78
     2
 67
     7
 79
     5
170
     0
171
     0
290
     0
174
     0
 93
        1
 44
-50.0
173
     0
291
     1
 45
0.0
1001
ACAD
1000
AcDbSavedByObjectVersion
1070
     0
  0
VISUALSTYLE
  5
41
102
{ACAD_XDICTIONARY
360
934
102
}
102
{ACAD_REACTORS
330
29
102
}
330
29
100
AcDbVisualStyle
  2

 70
    22
 71
     2
 72
     2
 73
     0
 90
        0
 40
-0.6
 41
-30.0
 62
     5
 63
     7
 74
     1
 91
        4
 64
     7
 65
   257
 75
     1
175
     1
 42
1.0
 92
        8
 66
     7
 43
1.0
 76
     1
 77
     6
 78
     2
 67
     7
 79
     5
170
     0
171
     0
290
     0
174
     0
 93
        1
 44
0.0
173
     0
291
     1
 45
0.0
1001
ACAD
1000
AcDbSavedByObjectVersion
1070
     0
  0
VISUALSTYLE
  5
38
102
{ACAD_XDICTIONARY
360
922
102
}
102
{ACAD_REACTORS
330
29
102
}
330
29
100
AcDbVisualStyle
  2

 70
    15
 71
     2
 72
     2
 73
     0
 90
        0
 40
-0.6
 41
-30.0
 62
     5
 63
     7
 74
     1
 91
        4
 64
     7
 65
   257
 75
     1
175
     1
 42
1.0
 92
        8
 66
     7
 43
1.0
 76
     1
 77
     6
 78
     2
 67
     7
 79
     5
170
     0
171
     0
290
     0
174
     0
 93
        1
 44
0.0
173
     0
291
     1
 45
0.0
1001
ACAD
1000
AcDbSavedByObjectVersion
1070
     0
  0
VISUALSTYLE
  5
2A
102
{ACAD_XDICTIONARY
360
906
102
}
102
{ACAD_REACTORS
330
29
102
}
330
29
100
AcDbVisualStyle
  2

 70
     0
 71
     2
 72
     1
 73
     1
 90
        2
 40
-0.6
 41
30.0
 62
     5
 63
     7
 74
     0
 91
        0
 64
     7
 65
   257
 75
     1
175
     1
 42
1.0
 92
        8
 66
     7
 43
1.0
 76
     1
 77
     6
 78
     2
 67
     7
 79
     5
170
     0
171
     0
290
     0
174
     0
 93
       13
 44
0.0
173
     0
291
     1
 45
0.0
1001
ACAD
1000
AcDbSavedByObjectVersion
1070
     0
  0
VISUALSTYLE
  5
2B
102
{ACAD_XDICTIONARY
360
908
102
}
102
{ACAD_REACTORS
330
29
102
}
330
29
100
AcDbVisualStyle
  2

 70
     1
 71
     2
 72
     1
 73
     1
 90
        2
 40
-0.6
 41
30.0
 62
     5
 63
     7
 74
     1
 91
        0
 64
     7
 65
   257
 75
     1
175
     1
 42
1.0
 92
        0
 66
   257
 43
1.0
 76
     1
 77
     6
 78
     2
 67
     7
 79
     5
170
     0
171
     0
290
     0
174
     0
 93
       13
 44
0.0
173
     0
291
     1
 45
0.0
1001
ACAD
1000
AcDbSavedByObjectVersion
1070
     0
  0
VISUALSTYLE
  5
2C
102
{ACAD_XDICTIONARY
360
90A
102
}
102
{ACAD_REACTORS
330
29
102
}
330
29
100
AcDbVisualStyle
  2

 70
     2
 71
     2
 72
     2
 73
     1
 90
        2
 40
-0.6
 41
30.0
 62
     5
 63
     7
 74
     0
 91
        0
 64
     7
 65
   257
 75
     1
175
     1
 42
1.0
 92
        0
 66
     7
 43
1.0
 76
     1
 77
     6
 78
     2
 67
     7
 79
     5
170
     0
171
     0
290
     0
174
     0
 93
       13
 44
0.0
173
     0
291
     1
 45
0.0
1001
ACAD
1000
AcDbSavedByObjectVersion
1070
     0
  0
VISUALSTYLE
  5
2D
102
{ACAD_XDICTIONARY
360
90C
102
}
102
{ACAD_REACTORS
330
29
102
}
330
29
100
AcDbVisualStyle
  2

 70
     3
 71
     2
 72
     2
 73
     1
 90
        2
 40
-0.6
 41
30.0
 62
     5
 63
     7
 74
     1
 91
        0
 64
     7
 65
   257
 75
     1
175
     1
 42
1.0
 92
        0
 66
   257
 43
1.0
 76
     1
 77
     6
 78
     2
 67
     7
 79
     5
170
     0
171
     0
290
     0
174
     0
 93
       13
 44
0.0
173
     0
291
     1
 45
0.0
1001
ACAD
1000
AcDbSavedByObjectVersion
1070
     0
  0
VISUALSTYLE
  5
31
102
{ACAD_XDICTIONARY
360
914
102
}
102
{ACAD_REACTORS
330
29
102
}
330
29
100
AcDbVisualStyle
  2

 70
     6
 71
     1
 72
     2
 73
     2
 90
        0
 40
-0.6
 41
-30.0
 62
     5
 63
     7
 74
     2
 91
        2
 64
     7
 65
   257
 75
     2
175
     1
 42
40.0
 92
        0
 66
   257
 43
1.0
 76
     1
 77
     6
 78
     2
 67
     7
 79
     3
170
     0
171
     0
290
     0
174
     0
 93
        1
 44
0.0
173
     0
291
     0
 45
0.0
1001
ACAD
1000
AcDbSavedByObjectVersion
1070
     0
  0
VISUALSTYLE
  5
3F
102
{ACAD_XDICTIONARY
360
930
102
}
102
{ACAD_REACTORS
330
29
102
}
330
29
100
AcDbVisualStyle
  2

 70
    20
 71
     2
 72
     2
 73
     0
 90
        0
 40
-0.6
 41
-30.0
 62
     5
 63
     7
 74
     1
 91
        4
 64
     7
 65
   257
 75
     1
175
     1
 42
1.0
 92
       10
 66
     7
 43
1.0
 76
     1
 77
     6
 78
     2
 67
     7
 79
     5
170
     0
171
     0
290
     0
174
     0
 93
        1
 44
0.0
173
     0
291
     1
 45
0.0
1001
ACAD
1000
AcDbSavedByObjectVersion
1070
     0
  0
VISUALSTYLE
  5
37
102
{ACAD_XDICTIONARY
360
920
102
}
102
{ACAD_REACTORS
330
29
102
}
330
29
100
AcDbVisualStyle
  2

 70
    14
 71
     2
 72
     2
 73
     0
 90
        0
 40
-0.6
 41
-30.0
 62
     5
 63
     7
 74
     1
 91
        4
 64
     7
 65
   257
 75
     7
175
     7
 42
1.0
 92
        8
 66
     7
 43
1.0
 76
     1
 77
     6
 78
     2
 67
     7
 79
     5
170
     0
171
     0
290
     0
174
     0
 93
        1
 44
0.0
173
     0
291
     1
 45
0.0
1001
ACAD
1000
AcDbSavedByObjectVersion
1070
     0
  0
VISUALSTYLE
  5
40
102
{ACAD_XDICTIONARY
360
932
102
}
102
{ACAD_REACTORS
330
29
102
}
330
29
100
AcDbVisualStyle
  2

 70
    21
 71
     2
 72
     2
 73
     0
 90
        0
 40
-0.6
 41
-30.0
 62
     5
 63
     7
 74
     1
 91
        4
 64
     7
 65
   257
 75
     1
175
     1
 42
1.0
 92
        9
 66
     7
 43
1.0
 76
     1
 77
     6
 78
     2
 67
     7
 79
     5
170
     0
171
     0
290
     0
174
     0
 93
        1
 44
0.0
173
     0
291
     1
 45
0.0
1001
ACAD
1000
AcDbSavedByObjectVersion
1070
     0
  0
VISUALSTYLE
  5
33
102
{ACAD_XDICTIONARY
360
918
102
}
102
{ACAD_REACTORS
330
29
102
}
330
29
100
AcDbVisualStyle
  2

 70
     8
 71
     2
 72
     3
 73
     0
 90
        2
 40
-0.6
 41
30.0
 62
     5
 63
     7
 74
     0
 91
        0
 64
     7
 65
   257
 75
     1
175
     1
 42
1.0
 92
        8
 66
   257
 43
1.0
 76
     1
 77
     6
 78
     2
 67
     7
 79
     3
170
     0
171
     0
290
     0
174
     0
 93
       13
 44
0.0
173
     0
291
     0
 45
0.0
1001
ACAD
1000
AcDbSavedByObjectVersion
1070
     0
  0
VISUALSTYLE
  5
3E
102
{ACAD_XDICTIONARY
360
92E
102
}
102
{ACAD_REACTORS
330
29
102
}
330
29
100
AcDbVisualStyle
  2

 70
    27
 71
     2
 72
     2
 73
     1
 90
        2
 40
-0.6
 41
30.0
 62
     5
 63
     7
 74
     0
 91
        4
 64
     7
 65
   257
 75
     1
175
     1
 42
1.0
 92
        8
 66
   257
 43
1.0
 76
     1
 77
     6
 78
     2
 67
     8
 79
     3
170
     0
171
     0
290
     0
174
     0
 93
        5
 44
0.0
173
     0
291
     0
 45
0.0
1001
ACAD
1000
AcDbSavedByObjectVersion
1070
     0
  0
VISUALSTYLE
  5
3D
102
{ACAD_XDICTIONARY
360
92C
102
}
102
{ACAD_REACTORS
330
29
102
}
330
29
100
AcDbVisualStyle
  2

 70
    26
 71
     2
 72
     2
 73
     1
 90
        2
 40
-0.6
 41
30.0
 62
     5
 63
     7
 74
     1
 91
       10
 64
     7
 65
   257
 75
     2
175
     1
 42
1.0
 92
        8
 66
   257
 43
1.0
 76
     1
 77
     6
 78
     2
 67
     7
 79
     3
170
     0
171
     0
290
     0
174
     0
 93
        5
 44
0.0
173
     0
291
     0
 45
0.0
1001
ACAD
1000
AcDbSavedByObjectVersion
1070
     0
  0
VISUALSTYLE
  5
3A
102
{ACAD_XDICTIONARY
360
926
102
}
102
{ACAD_REACTORS
330
29
102
}
330
29
100
AcDbVisualStyle
  2

 70
    23
 71
     2
 72
     2
 73
     3
 90
        0
 40
-0.6
 41
-30.0
 62
     5
 63
     7
 74
     2
 91
        2
 64
     7
 65
     7
 75
     1
175
     1
 42
40.0
 92
        8
 66
     7
 43
1.0
 76
     1
 77
     6
 78
     2
 67
     7
 79
     3
170
     0
171
     0
290
     0
174
     0
 93
        1
 44
0.0
173
     0
291
     0
 45
0.0
1001
ACAD
1000
AcDbSavedByObjectVersion
1070
     0
  0
VISUALSTYLE
  5
3B
102
{ACAD_XDICTIONARY
360
928
102
}
102
{ACAD_REACTORS
330
29
102
}
330
29
100
AcDbVisualStyle
  2

 70
    24
 71
     1
 72
     2
 73
     2
 90
        0
 40
-0.6
 41
-30.0
 62
     5
 63
     7
 74
     2
 91
        2
 64
     7
 65
     7
 75
     1
175
     1
 42
40.0
 92
       11
 66
     7
 43
1.0
 76
     1
 77
     6
 78
     2
 67
     7
 79
     6
170
     0
171
     0
290
     0
174
     0
 93
        1
 44
0.0
173
     0
291
     0
 45
0.0
1001
ACAD
1000
AcDbSavedByObjectVersion
1070
     0
  0
VISUALSTYLE
  5
36
102
{ACAD_XDICTIONARY
360
91E
102
}
102
{ACAD_REACTORS
330
29
102
}
330
29
100
AcDbVisualStyle
  2

 70
    13
 71
     2
 72
     2
 73
     0
 90
        0
 40
-0.6
 41
-30.0
 62
     5
 63
     7
 74
     1
 91
        4
 64
     7
 65
   257
 75
     1
175
     1
 42
1.0
 92
       12
 66
     7
 43
1.0
 76
     1
 77
     6
 78
     2
 67
     7
 79
     5
170
     0
171
     0
290
     0
174
     0
 93
        1
 44
0.0
173
     0
291
     1
 45
0.0
1001
ACAD
1000
AcDbSavedByObjectVersion
1070
     0
  0
VISUALSTYLE
  5
30
102
{ACAD_XDICTIONARY
360
912
102
}
102
{ACAD_REACTORS
330
29
102
}
330
29
100
AcDbVisualStyle
  2

 70
     5
 71
     0
 72
     2
 73
     0
 90
        0
 40
-0.6
 41
-30.0
 62
     5
 63
     7
 74
     1
 91
        4
 64
     7
 65
   257
 75
     1
175
     1
 42
1.0
 92
        0
 66
   257
 43
1.0
 76
     1
 77
     6
 78
     2
 67
     7
 79
     3
170
     0
171
     0
290
     0
174
     0
 93
        1
 44
0.0
173
     0
291
     0
 45
0.0
1001
ACAD
1000
AcDbSavedByObjectVersion
1070
     0
  0
VISUALSTYLE
  5
3C
102
{ACAD_XDICTIONARY
360
92A
102
}
102
{ACAD_REACTORS
330
29
102
}
330
29
100
AcDbVisualStyle
  2

 70
    25
 71
     2
 72
     2
 73
     1
 90
        1
 40
0.5
 41
-30.0
 62
     5
 63
     7
 74
     1
 91
        0
 64
     7
 65
   257
 75
     1
175
     1
 42
1.0
 92
        8
 66
     7
 43
1.0
 76
     1
 77
     6
 78
     2
 67
     7
 79
     3
170
     0
171
     0
290
     0
174
     0
 93
       13
 44
0.0
173
     0
291
     0
 45
0.0
1001
ACAD
1000
AcDbSavedByObjectVersion
1070
     0
  0
DICTIONARYVAR
  5
86E
102
{ACAD_REACTORS
330
86B
102
}
330
86B
100
DictionaryVariables
280
     0
  1
1:1
  0
DICTIONARYVAR
  5
86D
102
{ACAD_REACTORS
330
86B
102
}
330
86B
100
DictionaryVariables
280
     0
  1
STANDARD
  0
DICTIONARYVAR
  5
86C
102
{ACAD_REACTORS
330
86B
102
}
330
86B
100
DictionaryVariables
280
     0
  1
STANDARD
  0
DICTIONARYVAR
  5
871
102
{ACAD_REACTORS
330
86B
102
}
330
86B
100
DictionaryVariables
280
     0
  1
1
  0
DICTIONARYVAR
  5
870
102
{ACAD_REACTORS
330
86B
102
}
330
86B
100
DictionaryVariables
280
     0
  1
0
  0
DICTIONARYVAR
  5
86F
102
{ACAD_REACTORS
330
86B
102
}
330
86B
100
DictionaryVariables
280
     0
  1
127
  0
DICTIONARYVAR
  5
8FE
102
{ACAD_REACTORS
330
86B
102
}
330
86B
100
DictionaryVariables
280
     0
  1
0
  0
DICTIONARY
  5
1A
330
19
100
AcDbDictionary
280
     1
281
     1
  3
ACAD_XREC_ROUNDTRIP
360
87C
  3
BUMPTILE
360
1C
  3
DIFFUSETILE
360
1B
  3
OPACITYTILE
360
1F
  3
REFLECTIONTILE
360
1E
  3
REFRACTIONTILE
360
20
  3
SPECULARTILE
360
1D
  0
DICTIONARY
  5
12
330
11
100
AcDbDictionary
280
     1
281
     1
  3
ACAD_XREC_ROUNDTRIP
360
87B
  3
BUMPTILE
360
14
  3
DIFFUSETILE
360
13
  3
OPACITYTILE
360
17
  3
REFLECTIONTILE
360
16
  3
REFRACTIONTILE
360
18
  3
SPECULARTILE
360
15
  0
DICTIONARY
  5
22
330
21
100
AcDbDictionary
280
     1
281
     1
  3
ACAD_XREC_ROUNDTRIP
360
87D
  3
BUMPTILE
360
24
  3
DIFFUSETILE
360
23
  3
OPACITYTILE
360
27
  3
REFLECTIONTILE
360
26
  3
REFRACTIONTILE
360
28
  3
SPECULARTILE
360
25
  0
DICTIONARY
  5
873
330
64
100
AcDbDictionary
280
     1
281
     1
  3
ACAD_ROUNDTRIP_2008_TABLESTYLE_CELLSTYLEMAP
360
8FF
  0
DICTIONARY
  5
910
330
2F
100
AcDbDictionary
280
     1
281
     1
  3
ACAD_XREC_ROUNDTRIP
360
911
  0
DICTIONARY
  5
93B
330
65D
100
AcDbDictionary
280
     1
281
     1
  3
ACAD_XREC_ROUNDTRIP
360
93C
  0
DICTIONARY
  5
90E
330
2E
100
AcDbDictionary
280
     1
281
     1
  3
ACAD_XREC_ROUNDTRIP
360
90F
  0
DICTIONARY
  5
91C
330
35
100
AcDbDictionary
280
     1
281
     1
  3
ACAD_XREC_ROUNDTRIP
360
91D
  0
DICTIONARY
  5
924
330
39
100
AcDbDictionary
280
     1
281
     1
  3
ACAD_XREC_ROUNDTRIP
360
925
  0
DICTIONARY
  5
916
330
32
100
AcDbDictionary
280
     1
281
     1
  3
ACAD_XREC_ROUNDTRIP
360
917
  0
DICTIONARY
  5
91A
330
34
100
AcDbDictionary
280
     1
281
     1
  3
ACAD_XREC_ROUNDTRIP
360
91B
  0
DICTIONARY
  5
934
330
41
100
AcDbDictionary
280
     1
281
     1
  3
ACAD_XREC_ROUNDTRIP
360
935
  0
DICTIONARY
  5
922
330
38
100
AcDbDictionary
280
     1
281
     1
  3
ACAD_XREC_ROUNDTRIP
360
923
  0
DICTIONARY
  5
906
330
2A
100
AcDbDictionary
280
     1
281
     1
  3
ACAD_XREC_ROUNDTRIP
360
907
  0
DICTIONARY
  5
908
330
2B
100
AcDbDictionary
280
     1
281
     1
  3
ACAD_XREC_ROUNDTRIP
360
909
  0
DICTIONARY
  5
90A
330
2C
100
AcDbDictionary
280
     1
281
     1
  3
ACAD_XREC_ROUNDTRIP
360
90B
  0
DICTIONARY
  5
90C
330
2D
100
AcDbDictionary
280
     1
281
     1
  3
ACAD_XREC_ROUNDTRIP
360
90D
  0
DICTIONARY
  5
914
330
31
100
AcDbDictionary
280
     1
281
     1
  3
ACAD_XREC_ROUNDTRIP
360
915
  0
DICTIONARY
  5
930
330
3F
100
AcDbDictionary
280
     1
281
     1
  3
ACAD_XREC_ROUNDTRIP
360
931
  0
DICTIONARY
  5
920
330
37
100
AcDbDictionary
280
     1
281
     1
  3
ACAD_XREC_ROUNDTRIP
360
921
  0
DICTIONARY
  5
932
330
40
100
AcDbDictionary
280
     1
281
     1
  3
ACAD_XREC_ROUNDTRIP
360
933
  0
DICTIONARY
  5
918
330
33
100
AcDbDictionary
280
     1
281
     1
  3
ACAD_XREC_ROUNDTRIP
360
919
  0
DICTIONARY
  5
92E
330
3E
100
AcDbDictionary
280
     1
281
     1
  3
ACAD_XREC_ROUNDTRIP
360
92F
  0
DICTIONARY
  5
92C
330
3D
100
AcDbDictionary
280
     1
281
     1
  3
ACAD_XREC_ROUNDTRIP
360
92D
  0
DICTIONARY
  5
926
330
3A
100
AcDbDictionary
280
     1
281
     1
  3
ACAD_XREC_ROUNDTRIP
360
927
  0
DICTIONARY
  5
928
330
3B
100
AcDbDictionary
280
     1
281
     1
  3
ACAD_XREC_ROUNDTRIP
360
929
  0
DICTIONARY
  5
91E
330
36
100
AcDbDictionary
280
     1
281
     1
  3
ACAD_XREC_ROUNDTRIP
360
91F
  0
DICTIONARY
  5
912
330
30
100
AcDbDictionary
280
     1
281
     1
  3
ACAD_XREC_ROUNDTRIP
360
913
  0
DICTIONARY
  5
92A
330
3C
100
AcDbDictionary
280
     1
281
     1
  3
ACAD_XREC_ROUNDTRIP
360
92B
  0
XRECORD
  5
87C
102
{ACAD_REACTORS
330
1A
102
}
330
1A
100
AcDbXrecord
280
     1
102
MATERIAL
148
0.0
149
0.0
149
0.0
 93
        0
 94
       63
282
     0
 72
     0
 77
     0
171
     0
175
     0
179
     0
273
     0
  0
XRECORD
  5
1C
102
{ACAD_REACTORS
330
1A
102
}
330
1A
100
AcDbXrecord
280
     1
270
     1
271
     1
  0
XRECORD
  5
1B
102
{ACAD_REACTORS
330
1A
102
}
330
1A
100
AcDbXrecord
280
     1
270
     1
271
     1
  0
XRECORD
  5
1F
102
{ACAD_REACTORS
330
1A
102
}
330
1A
100
AcDbXrecord
280
     1
270
     1
271
     1
  0
XRECORD
  5
1E
102
{ACAD_REACTORS
330
1A
102
}
330
1A
100
AcDbXrecord
280
     1
270
     1
271
     1
  0
XRECORD
  5
20
102
{ACAD_REACTORS
330
1A
102
}
330
1A
100
AcDbXrecord
280
     1
270
     1
271
     1
  0
XRECORD
  5
1D
102
{ACAD_REACTORS
330
1A
102
}
330
1A
100
AcDbXrecord
280
     1
270
     1
271
     1
  0
XRECORD
  5
87B
102
{ACAD_REACTORS
330
12
102
}
330
12
100
AcDbXrecord
280
     1
102
MATERIAL
148
0.0
149
0.0
149
0.0
 93
        0
 94
       63
282
     0
 72
     0
 77
     0
171
     0
175
     0
179
     0
273
     0
  0
XRECORD
  5
14
102
{ACAD_REACTORS
330
12
102
}
330
12
100
AcDbXrecord
280
     1
270
     1
271
     1
  0
XRECORD
  5
13
102
{ACAD_REACTORS
330
12
102
}
330
12
100
AcDbXrecord
280
     1
270
     1
271
     1
  0
XRECORD
  5
17
102
{ACAD_REACTORS
330
12
102
}
330
12
100
AcDbXrecord
280
     1
270
     1
271
     1
  0
XRECORD
  5
16
102
{ACAD_REACTORS
330
12
102
}
330
12
100
AcDbXrecord
280
     1
270
     1
271
     1
  0
XRECORD
  5
18
102
{ACAD_REACTORS
330
12
102
}
330
12
100
AcDbXrecord
280
     1
270
     1
271
     1
  0
XRECORD
  5
15
102
{ACAD_REACTORS
330
12
102
}
330
12
100
AcDbXrecord
280
     1
270
     1
271
     1
  0
XRECORD
  5
87D
102
{ACAD_REACTORS
330
22
102
}
330
22
100
AcDbXrecord
280
     1
102
MATERIAL
148
0.0
149
0.0
149
0.0
 93
        0
 94
       63
282
     0
 72
     0
 77
     0
171
     0
175
     0
179
     0
273
     0
  0
XRECORD
  5
24
102
{ACAD_REACTORS
330
22
102
}
330
22
100
AcDbXrecord
280
     1
270
     1
271
     1
  0
XRECORD
  5
23
102
{ACAD_REACTORS
330
22
102
}
330
22
100
AcDbXrecord
280
     1
270
     1
271
     1
  0
XRECORD
  5
27
102
{ACAD_REACTORS
330
22
102
}
330
22
100
AcDbXrecord
280
     1
270
     1
271
     1
  0
XRECORD
  5
26
102
{ACAD_REACTORS
330
22
102
}
330
22
100
AcDbXrecord
280
     1
270
     1
271
     1
  0
XRECORD
  5
28
102
{ACAD_REACTORS
330
22
102
}
330
22
100
AcDbXrecord
280
     1
270
     1
271
     1
  0
XRECORD
  5
25
102
{ACAD_REACTORS
330
22
102
}
330
22
100
AcDbXrecord
280
     1
270
     1
271
     1
  0
ACAD_PROXY_OBJECT
  5
8FF
102
{ACAD_REACTORS
330
873
102
}
330
873
100
AcDbProxyObject
 90
      499
 91
      508
 95
  1310743
 70
     1
100
AcDbCellStyleMap
 90
        3
300
CELLSTYLE
  1
TABLEFORMAT_BEGIN
 90
        5
170
     1
 91
        0
 92
    32768
 62
   257
 93
        1
300
CONTENTFORMAT
  1
CONTENTFORMAT_BEGIN
 90
        0
 91
        0
 92
      512
 93
        0
300

 40
0.0
140
1.0
 94
        5
 62
     0
340
55
144
0.25
309
CONTENTFORMAT_END
171
     1
301
MARGIN
  1
CELLMARGIN_BEGIN
 40
0.06
 40
0.06
 40
0.06
 40
0.06
 40
0.18
 40
0.18
309
CELLMARGIN_END
 94
        6
 95
        1
302
GRIDFORMAT
  1
GRIDFORMAT_BEGIN
 90
        0
 91
        1
 62
     0
 92
       -2
340
0
 93
        0
 40
0.045
309
GRIDFORMAT_END
 95
        2
302
GRIDFORMAT
  1
GRIDFORMAT_BEGIN
 90
        0
 91
        1
 62
     0
 92
       -2
340
0
 93
        0
 40
0.045
309
GRIDFORMAT_END
 95
        4
302
GRIDFORMAT
  1
GRIDFORMAT_BEGIN
 90
        0
 91
        1
 62
     0
 92
       -2
340
0
 93
        0
 40
0.045
309
GRIDFORMAT_END
 95
        8
302
GRIDFORMAT
  1
GRIDFORMAT_BEGIN
 90
        0
 91
        1
 62
     0
 92
       -2
340
0
 93
        0
 40
0.045
309
GRIDFORMAT_END
 95
       16
302
GRIDFORMAT
  1
GRIDFORMAT_BEGIN
 90
        0
 91
        1
 62
     0
 92
       -2
340
0
 93
        0
 40
0.045
309
GRIDFORMAT_END
 95
       32
302
GRIDFORMAT
  1
GRIDFORMAT_BEGIN
 90
        0
 91
        1
 62
     0
 92
       -2
340
0
 93
        0
 40
0.045
309
GRIDFORMAT_END
309
TABLEFORMAT_END
  1
CELLSTYLE_BEGIN
 90
        1
 91
        1
300
_TITLE
309
CELLSTYLE_END
300
CELLSTYLE
  1
TABLEFORMAT_BEGIN
 90
        5
170
     1
 91
        0
 92
        0
 62
   257
 93
        1
300
CONTENTFORMAT
  1
CONTENTFORMAT_BEGIN
 90
        0
 91
        0
 92
      512
 93
        0
300

 40
0.0
140
1.0
 94
        5
 62
     0
340
55
144
0.18
309
CONTENTFORMAT_END
171
     1
301
MARGIN
  1
CELLMARGIN_BEGIN
 40
0.06
 40
0.06
 40
0.06
 40
0.06
 40
0.18
 40
0.18
309
CELLMARGIN_END
 94
        6
 95
        1
302
GRIDFORMAT
  1
GRIDFORMAT_BEGIN
 90
        0
 91
        1
 62
     0
 92
       -2
340
0
 93
        0
 40
0.045
309
GRIDFORMAT_END
 95
        2
302
GRIDFORMAT
  1
GRIDFORMAT_BEGIN
 90
        0
 91
        1
 62
     0
 92
       -2
340
0
 93
        0
 40
0.045
309
GRIDFORMAT_END
 95
        4
302
GRIDFORMAT
  1
GRIDFORMAT_BEGIN
 90
        0
 91
        1
 62
     0
 92
       -2
340
0
 93
        0
 40
0.045
309
GRIDFORMAT_END
 95
        8
302
GRIDFORMAT
  1
GRIDFORMAT_BEGIN
 90
        0
 91
        1
 62
     0
 92
       -2
340
0
 93
        0
 40
0.045
309
GRIDFORMAT_END
 95
       16
302
GRIDFORMAT
  1
GRIDFORMAT_BEGIN
 90
        0
 91
        1
 62
     0
 92
       -2
340
0
 93
        0
 40
0.045
309
GRIDFORMAT_END
 95
       32
302
GRIDFORMAT
  1
GRIDFORMAT_BEGIN
 90
        0
 91
        1
 62
     0
 92
       -2
340
0
 93
        0
 40
0.045
309
GRIDFORMAT_END
309
TABLEFORMAT_END
  1
CELLSTYLE_BEGIN
 90
        2
 91
        1
300
_HEADER
309
CELLSTYLE_END
300
CELLSTYLE
  1
TABLEFORMAT_BEGIN
 90
        5
170
     1
 91
        0
 92
        0
 62
   257
 93
        1
300
CONTENTFORMAT
  1
CONTENTFORMAT_BEGIN
 90
        0
 91
        0
 92
      512
 93
        0
300

 40
0.0
140
1.0
 94
        2
 62
     0
340
55
144
0.18
309
CONTENTFORMAT_END
171
     1
301
MARGIN
  1
CELLMARGIN_BEGIN
 40
0.06
 40
0.06
 40
0.06
 40
0.06
 40
0.18
 40
0.18
309
CELLMARGIN_END
 94
        6
 95
        1
302
GRIDFORMAT
  1
GRIDFORMAT_BEGIN
 90
        0
 91
        1
 62
     0
 92
       -2
340
0
 93
        0
 40
0.045
309
GRIDFORMAT_END
 95
        2
302
GRIDFORMAT
  1
GRIDFORMAT_BEGIN
 90
        0
 91
        1
 62
     0
 92
       -2
340
0
 93
        0
 40
0.045
309
GRIDFORMAT_END
 95
        4
302
GRIDFORMAT
  1
GRIDFORMAT_BEGIN
 90
        0
 91
        1
 62
     0
 92
       -2
340
0
 93
        0
 40
0.045
309
GRIDFORMAT_END
 95
        8
302
GRIDFORMAT
  1
GRIDFORMAT_BEGIN
 90
        0
 91
        1
 62
     0
 92
       -2
340
0
 93
        0
 40
0.045
309
GRIDFORMAT_END
 95
       16
302
GRIDFORMAT
  1
GRIDFORMAT_BEGIN
 90
        0
 91
        1
 62
     0
 92
       -2
340
0
 93
        0
 40
0.045
309
GRIDFORMAT_END
 95
       32
302
GRIDFORMAT
  1
GRIDFORMAT_BEGIN
 90
        0
 91
        1
 62
     0
 92
       -2
340
0
 93
        0
 40
0.045
309
GRIDFORMAT_END
309
TABLEFORMAT_END
  1
CELLSTYLE_BEGIN
 90
        3
 91
        2
300
_DATA
309
CELLSTYLE_END
1001
ACAD
  0
XRECORD
  5
911
102
{ACAD_REACTORS
330
910
102
}
330
910
100
AcDbXrecord
280
     1
102
RTVSPropertyOp0
 70
     1
102
RTVSPropertyOp1
 70
     1
102
RTVSPropertyOp2
 70
     1
102
RTVSPropertyOp3
 70
     1
102
RTVSPropertyOp4
 70
     1
102
RTVSPropertyOp5
 70
     1
102
RTVSPropertyOp6
 70
     1
102
RTVSPropertyOp7
 70
     1
102
RTVSPropertyOp8
 70
     1
102
RTVSPropertyOp9
 70
     1
102
RTVSPropertyOp10
 70
     1
102
RTVSPropertyOp11
 70
     1
102
RTVSPropertyOp12
 70
     1
102
RTVSPropertyOp13
 70
     1
102
RTVSPropertyOp14
 70
     1
102
RTVSPropertyOp15
 70
     1
102
RTVSPropertyOp16
 70
     1
102
RTVSPropertyOp17
 70
     1
102
RTVSPropertyOp18
 70
     1
102
RTVSPropertyOp19
 70
     1
102
RTVSPropertyOp20
 70
     1
102
RTVSPropertyOp21
 70
     1
102
RTVSPropertyOp22
 70
     1
102
RTVSPropertyOp23
 70
     1
102
RTVSPropertyOp24
 70
     1
102
RTVSPropertyOp25
 70
     1
102
RTVSPropertyOp26
 70
     1
102
RTVSPropertyOp27
 70
     1
102
RTVSPropertyOp28
 70
     1
102
RTVSPropertyOp29
 70
     1
102
RTVSPropertyOp30
 70
     1
102
RTVSPropertyOp31
 70
     1
102
RTVSPropertyOp32
 70
     1
  0
XRECORD
  5
93C
102
{ACAD_REACTORS
330
93B
102
}
330
93B
100
AcDbXrecord
280
     1
102
RTVSPropertyOp0
 70
     1
102
RTVSPropertyOp1
 70
     1
102
RTVSPropertyOp2
 70
     1
102
RTVSPropertyOp3
 70
     1
102
RTVSPropertyOp4
 70
     1
102
RTVSPropertyOp5
 70
     1
102
RTVSPropertyOp6
 70
     1
102
RTVSPropertyOp7
 70
     1
102
RTVSPropertyOp8
 70
     1
102
RTVSPropertyOp9
 70
     1
102
RTVSPropertyOp10
 70
     1
102
RTVSPropertyOp11
 70
     1
102
RTVSPropertyOp12
 70
     1
102
RTVSPropertyOp13
 70
     1
102
RTVSPropertyOp14
 70
     1
102
RTVSPropertyOp15
 70
     1
102
RTVSPropertyOp16
 70
     1
102
RTVSPropertyOp17
 70
     1
102
RTVSPropertyOp18
 70
     1
102
RTVSPropertyOp19
 70
     1
102
RTVSPropertyOp20
 70
     1
102
RTVSPropertyOp21
 70
     1
102
RTVSPropertyOp22
 70
     1
102
RTVSPropertyOp23
 70
     1
102
RTVSPropertyOp24
 70
     1
102
RTVSPropertyOp25
 70
     1
102
RTVSPropertyOp26
 70
     1
102
RTVSPropertyOp27
 70
     1
102
RTVSPropertyOp28
 70
     1
102
RTVSPropertyOp29
 70
     1
102
RTVSPropertyOp30
 70
     1
102
RTVSPropertyOp31
 70
     1
102
RTVSPropertyOp32
 70
     1
  0
XRECORD
  5
90F
102
{ACAD_REACTORS
330
90E
102
}
330
90E
100
AcDbXrecord
280
     1
102
RTVSPropertyOp0
 70
     1
102
RTVSPropertyOp1
 70
     1
102
RTVSPropertyOp2
 70
     1
102
RTVSPropertyOp3
 70
     1
102
RTVSPropertyOp4
 70
     1
102
RTVSPropertyOp5
 70
     1
102
RTVSPropertyOp6
 70
     1
102
RTVSPropertyOp7
 70
     1
102
RTVSPropertyOp8
 70
     1
102
RTVSPropertyOp9
 70
     1
102
RTVSPropertyOp10
 70
     1
102
RTVSPropertyOp11
 70
     1
102
RTVSPropertyOp12
 70
     1
102
RTVSPropertyOp13
 70
     1
102
RTVSPropertyOp14
 70
     1
102
RTVSPropertyOp15
 70
     1
102
RTVSPropertyOp16
 70
     1
102
RTVSPropertyOp17
 70
     1
102
RTVSPropertyOp18
 70
     1
102
RTVSPropertyOp19
 70
     1
102
RTVSPropertyOp20
 70
     1
102
RTVSPropertyOp21
 70
     1
102
RTVSPropertyOp22
 70
     1
102
RTVSPropertyOp23
 70
     1
102
RTVSPropertyOp24
 70
     1
102
RTVSPropertyOp25
 70
     1
102
RTVSPropertyOp26
 70
     1
102
RTVSPropertyOp27
 70
     1
102
RTVSPropertyOp28
 70
     1
102
RTVSPropertyOp29
 70
     1
102
RTVSPropertyOp30
 70
     1
102
RTVSPropertyOp31
 70
     1
102
RTVSPropertyOp32
 70
     1
  0
XRECORD
  5
91D
102
{ACAD_REACTORS
330
91C
102
}
330
91C
100
AcDbXrecord
280
     1
102
RTVSPropertyOp0
 70
     1
102
RTVSPropertyOp1
 70
     1
102
RTVSPropertyOp2
 70
     1
102
RTVSPropertyOp3
 70
     1
102
RTVSPropertyOp4
 70
     1
102
RTVSPropertyOp5
 70
     1
102
RTVSPropertyOp6
 70
     1
102
RTVSPropertyOp7
 70
     1
102
RTVSPropertyOp8
 70
     1
102
RTVSPropertyOp9
 70
     1
102
RTVSPropertyOp10
 70
     1
102
RTVSPropertyOp11
 70
     1
102
RTVSPropertyOp12
 70
     1
102
RTVSPropertyOp13
 70
     1
102
RTVSPropertyOp14
 70
     1
102
RTVSPropertyOp15
 70
     1
102
RTVSPropertyOp16
 70
     1
102
RTVSPropertyOp17
 70
     1
102
RTVSPropertyOp18
 70
     1
102
RTVSPropertyOp19
 70
     1
102
RTVSPropertyOp20
 70
     1
102
RTVSPropertyOp21
 70
     1
102
RTVSPropertyOp22
 70
     1
102
RTVSPropertyOp23
 70
     1
102
RTVSPropertyOp24
 70
     1
102
RTVSPropertyOp25
 70
     1
102
RTVSPropertyOp26
 70
     1
102
RTVSPropertyOp27
 70
     1
102
RTVSPropertyOp28
 70
     1
102
RTVSPropertyOp29
 70
     1
102
RTVSPropertyOp30
 70
     1
102
RTVSPropertyOp31
 70
     1
102
RTVSPropertyOp32
 70
     1
  0
XRECORD
  5
925
102
{ACAD_REACTORS
330
924
102
}
330
924
100
AcDbXrecord
280
     1
102
RTVSPropertyOp0
 70
     1
102
RTVSPropertyOp1
 70
     1
102
RTVSPropertyOp2
 70
     1
102
RTVSPropertyOp3
 70
     1
102
RTVSPropertyOp4
 70
     1
102
RTVSPropertyOp5
 70
     1
102
RTVSPropertyOp6
 70
     1
102
RTVSPropertyOp7
 70
     1
102
RTVSPropertyOp8
 70
     1
102
RTVSPropertyOp9
 70
     1
102
RTVSPropertyOp10
 70
     1
102
RTVSPropertyOp11
 70
     1
102
RTVSPropertyOp12
 70
     1
102
RTVSPropertyOp13
 70
     1
102
RTVSPropertyOp14
 70
     1
102
RTVSPropertyOp15
 70
     1
102
RTVSPropertyOp16
 70
     1
102
RTVSPropertyOp17
 70
     1
102
RTVSPropertyOp18
 70
     1
102
RTVSPropertyOp19
 70
     1
102
RTVSPropertyOp20
 70
     1
102
RTVSPropertyOp21
 70
     1
102
RTVSPropertyOp22
 70
     1
102
RTVSPropertyOp23
 70
     1
102
RTVSPropertyOp24
 70
     1
102
RTVSPropertyOp25
 70
     1
102
RTVSPropertyOp26
 70
     1
102
RTVSPropertyOp27
 70
     1
102
RTVSPropertyOp28
 70
     1
102
RTVSPropertyOp29
 70
     1
102
RTVSPropertyOp30
 70
     1
102
RTVSPropertyOp31
 70
     1
102
RTVSPropertyOp32
 70
     1
  0
XRECORD
  5
917
102
{ACAD_REACTORS
330
916
102
}
330
916
100
AcDbXrecord
280
     1
102
RTVSPropertyOp0
 70
     1
102
RTVSPropertyOp1
 70
     1
102
RTVSPropertyOp2
 70
     1
102
RTVSPropertyOp3
 70
     1
102
RTVSPropertyOp4
 70
     1
102
RTVSPropertyOp5
 70
     1
102
RTVSPropertyOp6
 70
     1
102
RTVSPropertyOp7
 70
     1
102
RTVSPropertyOp8
 70
     1
102
RTVSPropertyOp9
 70
     1
102
RTVSPropertyOp10
 70
     1
102
RTVSPropertyOp11
 70
     1
102
RTVSPropertyOp12
 70
     1
102
RTVSPropertyOp13
 70
     1
102
RTVSPropertyOp14
 70
     1
102
RTVSPropertyOp15
 70
     1
102
RTVSPropertyOp16
 70
     1
102
RTVSPropertyOp17
 70
     1
102
RTVSPropertyOp18
 70
     1
102
RTVSPropertyOp19
 70
     1
102
RTVSPropertyOp20
 70
     1
102
RTVSPropertyOp21
 70
     1
102
RTVSPropertyOp22
 70
     1
102
RTVSPropertyOp23
 70
     1
102
RTVSPropertyOp24
 70
     1
102
RTVSPropertyOp25
 70
     1
102
RTVSPropertyOp26
 70
     1
102
RTVSPropertyOp27
 70
     1
102
RTVSPropertyOp28
 70
     1
102
RTVSPropertyOp29
 70
     1
102
RTVSPropertyOp30
 70
     1
102
RTVSPropertyOp31
 70
     1
102
RTVSPropertyOp32
 70
     1
  0
XRECORD
  5
91B
102
{ACAD_REACTORS
330
91A
102
}
330
91A
100
AcDbXrecord
280
     1
102
RTVSPropertyOp0
 70
     1
102
RTVSPropertyOp1
 70
     1
102
RTVSPropertyOp2
 70
     1
102
RTVSPropertyOp3
 70
     1
102
RTVSPropertyOp4
 70
     1
102
RTVSPropertyOp5
 70
     1
102
RTVSPropertyOp6
 70
     1
102
RTVSPropertyOp7
 70
     1
102
RTVSPropertyOp8
 70
     1
102
RTVSPropertyOp9
 70
     1
102
RTVSPropertyOp10
 70
     1
102
RTVSPropertyOp11
 70
     1
102
RTVSPropertyOp12
 70
     1
102
RTVSPropertyOp13
 70
     1
102
RTVSPropertyOp14
 70
     1
102
RTVSPropertyOp15
 70
     1
102
RTVSPropertyOp16
 70
     1
102
RTVSPropertyOp17
 70
     1
102
RTVSPropertyOp18
 70
     1
102
RTVSPropertyOp19
 70
     1
102
RTVSPropertyOp20
 70
     1
102
RTVSPropertyOp21
 70
     1
102
RTVSPropertyOp22
 70
     1
102
RTVSPropertyOp23
 70
     1
102
RTVSPropertyOp24
 70
     1
102
RTVSPropertyOp25
 70
     1
102
RTVSPropertyOp26
 70
     1
102
RTVSPropertyOp27
 70
     1
102
RTVSPropertyOp28
 70
     1
102
RTVSPropertyOp29
 70
     1
102
RTVSPropertyOp30
 70
     1
102
RTVSPropertyOp31
 70
     1
102
RTVSPropertyOp32
 70
     1
  0
XRECORD
  5
935
102
{ACAD_REACTORS
330
934
102
}
330
934
100
AcDbXrecord
280
     1
102
RTVSPropertyOp0
 70
     0
102
RTVSPropertyOp1
 70
     0
102
RTVSPropertyOp2
 70
     0
102
RTVSPropertyOp3
 70
     0
102
RTVSPropertyOp4
 70
     0
102
RTVSPropertyOp5
 70
     0
102
RTVSPropertyOp6
 70
     0
102
RTVSPropertyOp7
 70
     0
102
RTVSPropertyOp8
 70
     0
102
RTVSPropertyOp9
 70
     0
102
RTVSPropertyOp10
 70
     0
102
RTVSPropertyOp11
 70
     0
102
RTVSPropertyOp12
 70
     0
102
RTVSPropertyOp13
 70
     0
102
RTVSPropertyOp14
 70
     2
102
RTVSPropertyOp15
 70
     0
102
RTVSPropertyOp16
 70
     0
102
RTVSPropertyOp17
 70
     0
102
RTVSPropertyOp18
 70
     0
102
RTVSPropertyOp19
 70
     0
102
RTVSPropertyOp20
 70
     0
102
RTVSPropertyOp21
 70
     0
102
RTVSPropertyOp22
 70
     0
102
RTVSPropertyOp23
 70
     0
102
RTVSPropertyOp24
 70
     0
102
RTVSPropertyOp25
 70
     0
102
RTVSPropertyOp26
 70
     0
102
RTVSPropertyOp27
 70
     0
102
RTVSPropertyOp28
 70
     0
102
RTVSPropertyOp29
 70
     0
102
RTVSPropertyOp30
 70
     0
102
RTVSPropertyOp31
 70
     0
102
RTVSPropertyOp32
 70
     0
  0
XRECORD
  5
923
102
{ACAD_REACTORS
330
922
102
}
330
922
100
AcDbXrecord
280
     1
102
RTVSPropertyOp0
 70
     1
102
RTVSPropertyOp1
 70
     1
102
RTVSPropertyOp2
 70
     1
102
RTVSPropertyOp3
 70
     1
102
RTVSPropertyOp4
 70
     1
102
RTVSPropertyOp5
 70
     1
102
RTVSPropertyOp6
 70
     1
102
RTVSPropertyOp7
 70
     1
102
RTVSPropertyOp8
 70
     1
102
RTVSPropertyOp9
 70
     1
102
RTVSPropertyOp10
 70
     1
102
RTVSPropertyOp11
 70
     1
102
RTVSPropertyOp12
 70
     1
102
RTVSPropertyOp13
 70
     1
102
RTVSPropertyOp14
 70
     1
102
RTVSPropertyOp15
 70
     1
102
RTVSPropertyOp16
 70
     1
102
RTVSPropertyOp17
 70
     1
102
RTVSPropertyOp18
 70
     1
102
RTVSPropertyOp19
 70
     1
102
RTVSPropertyOp20
 70
     1
102
RTVSPropertyOp21
 70
     1
102
RTVSPropertyOp22
 70
     1
102
RTVSPropertyOp23
 70
     1
102
RTVSPropertyOp24
 70
     1
102
RTVSPropertyOp25
 70
     1
102
RTVSPropertyOp26
 70
     1
102
RTVSPropertyOp27
 70
     1
102
RTVSPropertyOp28
 70
     1
102
RTVSPropertyOp29
 70
     1
102
RTVSPropertyOp30
 70
     1
102
RTVSPropertyOp31
 70
     1
102
RTVSPropertyOp32
 70
     1
  0
XRECORD
  5
907
102
{ACAD_REACTORS
330
906
102
}
330
906
100
AcDbXrecord
280
     1
102
RTVSPropertyOp0
 70
     1
102
RTVSPropertyOp1
 70
     1
102
RTVSPropertyOp2
 70
     1
102
RTVSPropertyOp3
 70
     1
102
RTVSPropertyOp4
 70
     1
102
RTVSPropertyOp5
 70
     1
102
RTVSPropertyOp6
 70
     1
102
RTVSPropertyOp7
 70
     1
102
RTVSPropertyOp8
 70
     1
102
RTVSPropertyOp9
 70
     1
102
RTVSPropertyOp10
 70
     1
102
RTVSPropertyOp11
 70
     1
102
RTVSPropertyOp12
 70
     1
102
RTVSPropertyOp13
 70
     1
102
RTVSPropertyOp14
 70
     1
102
RTVSPropertyOp15
 70
     1
102
RTVSPropertyOp16
 70
     1
102
RTVSPropertyOp17
 70
     1
102
RTVSPropertyOp18
 70
     1
102
RTVSPropertyOp19
 70
     1
102
RTVSPropertyOp20
 70
     1
102
RTVSPropertyOp21
 70
     1
102
RTVSPropertyOp22
 70
     1
102
RTVSPropertyOp23
 70
     1
102
RTVSPropertyOp24
 70
     1
102
RTVSPropertyOp25
 70
     1
102
RTVSPropertyOp26
 70
     1
102
RTVSPropertyOp27
 70
     1
102
RTVSPropertyOp28
 70
     1
102
RTVSPropertyOp29
 70
     1
102
RTVSPropertyOp30
 70
     1
102
RTVSPropertyOp31
 70
     1
102
RTVSPropertyOp32
 70
     1
  0
XRECORD
  5
909
102
{ACAD_REACTORS
330
908
102
}
330
908
100
AcDbXrecord
280
     1
102
RTVSPropertyOp0
 70
     1
102
RTVSPropertyOp1
 70
     1
102
RTVSPropertyOp2
 70
     1
102
RTVSPropertyOp3
 70
     1
102
RTVSPropertyOp4
 70
     1
102
RTVSPropertyOp5
 70
     1
102
RTVSPropertyOp6
 70
     1
102
RTVSPropertyOp7
 70
     1
102
RTVSPropertyOp8
 70
     1
102
RTVSPropertyOp9
 70
     1
102
RTVSPropertyOp10
 70
     1
102
RTVSPropertyOp11
 70
     1
102
RTVSPropertyOp12
 70
     1
102
RTVSPropertyOp13
 70
     1
102
RTVSPropertyOp14
 70
     1
102
RTVSPropertyOp15
 70
     1
102
RTVSPropertyOp16
 70
     1
102
RTVSPropertyOp17
 70
     1
102
RTVSPropertyOp18
 70
     1
102
RTVSPropertyOp19
 70
     1
102
RTVSPropertyOp20
 70
     1
102
RTVSPropertyOp21
 70
     1
102
RTVSPropertyOp22
 70
     1
102
RTVSPropertyOp23
 70
     1
102
RTVSPropertyOp24
 70
     1
102
RTVSPropertyOp25
 70
     1
102
RTVSPropertyOp26
 70
     1
102
RTVSPropertyOp27
 70
     1
102
RTVSPropertyOp28
 70
     1
102
RTVSPropertyOp29
 70
     1
102
RTVSPropertyOp30
 70
     1
102
RTVSPropertyOp31
 70
     1
102
RTVSPropertyOp32
 70
     1
  0
XRECORD
  5
90B
102
{ACAD_REACTORS
330
90A
102
}
330
90A
100
AcDbXrecord
280
     1
102
RTVSPropertyOp0
 70
     1
102
RTVSPropertyOp1
 70
     1
102
RTVSPropertyOp2
 70
     1
102
RTVSPropertyOp3
 70
     1
102
RTVSPropertyOp4
 70
     1
102
RTVSPropertyOp5
 70
     1
102
RTVSPropertyOp6
 70
     1
102
RTVSPropertyOp7
 70
     1
102
RTVSPropertyOp8
 70
     1
102
RTVSPropertyOp9
 70
     1
102
RTVSPropertyOp10
 70
     1
102
RTVSPropertyOp11
 70
     1
102
RTVSPropertyOp12
 70
     1
102
RTVSPropertyOp13
 70
     1
102
RTVSPropertyOp14
 70
     1
102
RTVSPropertyOp15
 70
     1
102
RTVSPropertyOp16
 70
     1
102
RTVSPropertyOp17
 70
     1
102
RTVSPropertyOp18
 70
     1
102
RTVSPropertyOp19
 70
     1
102
RTVSPropertyOp20
 70
     1
102
RTVSPropertyOp21
 70
     1
102
RTVSPropertyOp22
 70
     1
102
RTVSPropertyOp23
 70
     1
102
RTVSPropertyOp24
 70
     1
102
RTVSPropertyOp25
 70
     1
102
RTVSPropertyOp26
 70
     1
102
RTVSPropertyOp27
 70
     1
102
RTVSPropertyOp28
 70
     1
102
RTVSPropertyOp29
 70
     1
102
RTVSPropertyOp30
 70
     1
102
RTVSPropertyOp31
 70
     1
102
RTVSPropertyOp32
 70
     1
  0
XRECORD
  5
90D
102
{ACAD_REACTORS
330
90C
102
}
330
90C
100
AcDbXrecord
280
     1
102
RTVSPropertyOp0
 70
     1
102
RTVSPropertyOp1
 70
     1
102
RTVSPropertyOp2
 70
     1
102
RTVSPropertyOp3
 70
     1
102
RTVSPropertyOp4
 70
     1
102
RTVSPropertyOp5
 70
     1
102
RTVSPropertyOp6
 70
     1
102
RTVSPropertyOp7
 70
     1
102
RTVSPropertyOp8
 70
     1
102
RTVSPropertyOp9
 70
     1
102
RTVSPropertyOp10
 70
     1
102
RTVSPropertyOp11
 70
     1
102
RTVSPropertyOp12
 70
     1
102
RTVSPropertyOp13
 70
     1
102
RTVSPropertyOp14
 70
     1
102
RTVSPropertyOp15
 70
     1
102
RTVSPropertyOp16
 70
     1
102
RTVSPropertyOp17
 70
     1
102
RTVSPropertyOp18
 70
     1
102
RTVSPropertyOp19
 70
     1
102
RTVSPropertyOp20
 70
     1
102
RTVSPropertyOp21
 70
     1
102
RTVSPropertyOp22
 70
     1
102
RTVSPropertyOp23
 70
     1
102
RTVSPropertyOp24
 70
     1
102
RTVSPropertyOp25
 70
     1
102
RTVSPropertyOp26
 70
     1
102
RTVSPropertyOp27
 70
     1
102
RTVSPropertyOp28
 70
     1
102
RTVSPropertyOp29
 70
     1
102
RTVSPropertyOp30
 70
     1
102
RTVSPropertyOp31
 70
     1
102
RTVSPropertyOp32
 70
     1
  0
XRECORD
  5
915
102
{ACAD_REACTORS
330
914
102
}
330
914
100
AcDbXrecord
280
     1
102
RTVSPropertyOp0
 70
     1
102
RTVSPropertyOp1
 70
     1
102
RTVSPropertyOp2
 70
     1
102
RTVSPropertyOp3
 70
     1
102
RTVSPropertyOp4
 70
     1
102
RTVSPropertyOp5
 70
     1
102
RTVSPropertyOp6
 70
     1
102
RTVSPropertyOp7
 70
     1
102
RTVSPropertyOp8
 70
     1
102
RTVSPropertyOp9
 70
     1
102
RTVSPropertyOp10
 70
     1
102
RTVSPropertyOp11
 70
     1
102
RTVSPropertyOp12
 70
     1
102
RTVSPropertyOp13
 70
     1
102
RTVSPropertyOp14
 70
     1
102
RTVSPropertyOp15
 70
     1
102
RTVSPropertyOp16
 70
     1
102
RTVSPropertyOp17
 70
     1
102
RTVSPropertyOp18
 70
     1
102
RTVSPropertyOp19
 70
     1
102
RTVSPropertyOp20
 70
     1
102
RTVSPropertyOp21
 70
     1
102
RTVSPropertyOp22
 70
     1
102
RTVSPropertyOp23
 70
     1
102
RTVSPropertyOp24
 70
     1
102
RTVSPropertyOp25
 70
     1
102
RTVSPropertyOp26
 70
     1
102
RTVSPropertyOp27
 70
     1
102
RTVSPropertyOp28
 70
     1
102
RTVSPropertyOp29
 70
     1
102
RTVSPropertyOp30
 70
     1
102
RTVSPropertyOp31
 70
     1
102
RTVSPropertyOp32
 70
     1
  0
XRECORD
  5
931
102
{ACAD_REACTORS
330
930
102
}
330
930
100
AcDbXrecord
280
     1
102
RTVSPropertyOp0
 70
     0
102
RTVSPropertyOp1
 70
     0
102
RTVSPropertyOp2
 70
     0
102
RTVSPropertyOp3
 70
     0
102
RTVSPropertyOp4
 70
     0
102
RTVSPropertyOp5
 70
     0
102
RTVSPropertyOp6
 70
     0
102
RTVSPropertyOp7
 70
     0
102
RTVSPropertyOp8
 70
     0
102
RTVSPropertyOp9
 70
     0
102
RTVSPropertyOp10
 70
     0
102
RTVSPropertyOp11
 70
     0
102
RTVSPropertyOp12
 70
     0
102
RTVSPropertyOp13
 70
     0
102
RTVSPropertyOp14
 70
     2
102
RTVSPropertyOp15
 70
     0
102
RTVSPropertyOp16
 70
     0
102
RTVSPropertyOp17
 70
     0
102
RTVSPropertyOp18
 70
     0
102
RTVSPropertyOp19
 70
     0
102
RTVSPropertyOp20
 70
     0
102
RTVSPropertyOp21
 70
     0
102
RTVSPropertyOp22
 70
     0
102
RTVSPropertyOp23
 70
     0
102
RTVSPropertyOp24
 70
     0
102
RTVSPropertyOp25
 70
     0
102
RTVSPropertyOp26
 70
     0
102
RTVSPropertyOp27
 70
     0
102
RTVSPropertyOp28
 70
     0
102
RTVSPropertyOp29
 70
     0
102
RTVSPropertyOp30
 70
     0
102
RTVSPropertyOp31
 70
     0
102
RTVSPropertyOp32
 70
     0
  0
XRECORD
  5
921
102
{ACAD_REACTORS
330
920
102
}
330
920
100
AcDbXrecord
280
     1
102
RTVSPropertyOp0
 70
     1
102
RTVSPropertyOp1
 70
     1
102
RTVSPropertyOp2
 70
     1
102
RTVSPropertyOp3
 70
     1
102
RTVSPropertyOp4
 70
     1
102
RTVSPropertyOp5
 70
     1
102
RTVSPropertyOp6
 70
     1
102
RTVSPropertyOp7
 70
     1
102
RTVSPropertyOp8
 70
     1
102
RTVSPropertyOp9
 70
     1
102
RTVSPropertyOp10
 70
     1
102
RTVSPropertyOp11
 70
     1
102
RTVSPropertyOp12
 70
     1
102
RTVSPropertyOp13
 70
     1
102
RTVSPropertyOp14
 70
     1
102
RTVSPropertyOp15
 70
     1
102
RTVSPropertyOp16
 70
     1
102
RTVSPropertyOp17
 70
     1
102
RTVSPropertyOp18
 70
     1
102
RTVSPropertyOp19
 70
     1
102
RTVSPropertyOp20
 70
     1
102
RTVSPropertyOp21
 70
     1
102
RTVSPropertyOp22
 70
     1
102
RTVSPropertyOp23
 70
     1
102
RTVSPropertyOp24
 70
     1
102
RTVSPropertyOp25
 70
     1
102
RTVSPropertyOp26
 70
     1
102
RTVSPropertyOp27
 70
     1
102
RTVSPropertyOp28
 70
     1
102
RTVSPropertyOp29
 70
     1
102
RTVSPropertyOp30
 70
     1
102
RTVSPropertyOp31
 70
     1
102
RTVSPropertyOp32
 70
     1
  0
XRECORD
  5
933
102
{ACAD_REACTORS
330
932
102
}
330
932
100
AcDbXrecord
280
     1
102
RTVSPropertyOp0
 70
     0
102
RTVSPropertyOp1
 70
     0
102
RTVSPropertyOp2
 70
     0
102
RTVSPropertyOp3
 70
     0
102
RTVSPropertyOp4
 70
     0
102
RTVSPropertyOp5
 70
     0
102
RTVSPropertyOp6
 70
     0
102
RTVSPropertyOp7
 70
     0
102
RTVSPropertyOp8
 70
     0
102
RTVSPropertyOp9
 70
     0
102
RTVSPropertyOp10
 70
     0
102
RTVSPropertyOp11
 70
     0
102
RTVSPropertyOp12
 70
     0
102
RTVSPropertyOp13
 70
     0
102
RTVSPropertyOp14
 70
     2
102
RTVSPropertyOp15
 70
     0
102
RTVSPropertyOp16
 70
     0
102
RTVSPropertyOp17
 70
     0
102
RTVSPropertyOp18
 70
     0
102
RTVSPropertyOp19
 70
     0
102
RTVSPropertyOp20
 70
     0
102
RTVSPropertyOp21
 70
     0
102
RTVSPropertyOp22
 70
     0
102
RTVSPropertyOp23
 70
     0
102
RTVSPropertyOp24
 70
     0
102
RTVSPropertyOp25
 70
     0
102
RTVSPropertyOp26
 70
     0
102
RTVSPropertyOp27
 70
     0
102
RTVSPropertyOp28
 70
     0
102
RTVSPropertyOp29
 70
     0
102
RTVSPropertyOp30
 70
     0
102
RTVSPropertyOp31
 70
     0
102
RTVSPropertyOp32
 70
     0
  0
XRECORD
  5
919
102
{ACAD_REACTORS
330
918
102
}
330
918
100
AcDbXrecord
280
     1
102
RTVSPropertyOp0
 70
     1
102
RTVSPropertyOp1
 70
     1
102
RTVSPropertyOp2
 70
     1
102
RTVSPropertyOp3
 70
     1
102
RTVSPropertyOp4
 70
     1
102
RTVSPropertyOp5
 70
     1
102
RTVSPropertyOp6
 70
     1
102
RTVSPropertyOp7
 70
     1
102
RTVSPropertyOp8
 70
     1
102
RTVSPropertyOp9
 70
     1
102
RTVSPropertyOp10
 70
     1
102
RTVSPropertyOp11
 70
     1
102
RTVSPropertyOp12
 70
     1
102
RTVSPropertyOp13
 70
     1
102
RTVSPropertyOp14
 70
     1
102
RTVSPropertyOp15
 70
     1
102
RTVSPropertyOp16
 70
     1
102
RTVSPropertyOp17
 70
     1
102
RTVSPropertyOp18
 70
     1
102
RTVSPropertyOp19
 70
     1
102
RTVSPropertyOp20
 70
     1
102
RTVSPropertyOp21
 70
     1
102
RTVSPropertyOp22
 70
     1
102
RTVSPropertyOp23
 70
     1
102
RTVSPropertyOp24
 70
     1
102
RTVSPropertyOp25
 70
     1
102
RTVSPropertyOp26
 70
     1
102
RTVSPropertyOp27
 70
     1
102
RTVSPropertyOp28
 70
     1
102
RTVSPropertyOp29
 70
     1
102
RTVSPropertyOp30
 70
     1
102
RTVSPropertyOp31
 70
     1
102
RTVSPropertyOp32
 70
     1
  0
XRECORD
  5
92F
102
{ACAD_REACTORS
330
92E
102
}
330
92E
100
AcDbXrecord
280
     1
102
RTVSPropertyOp0
 70
     1
102
RTVSPropertyOp1
 70
     1
102
RTVSPropertyOp2
 70
     1
102
RTVSPropertyOp3
 70
     1
102
RTVSPropertyOp4
 70
     1
102
RTVSPropertyOp5
 70
     1
102
RTVSPropertyOp6
 70
     1
102
RTVSPropertyOp7
 70
     1
102
RTVSPropertyOp8
 70
     1
102
RTVSPropertyOp9
 70
     1
102
RTVSPropertyOp10
 70
     1
102
RTVSPropertyOp11
 70
     1
102
RTVSPropertyOp12
 70
     1
102
RTVSPropertyOp13
 70
     1
102
RTVSPropertyOp14
 70
     1
102
RTVSPropertyOp15
 70
     1
102
RTVSPropertyOp16
 70
     1
102
RTVSPropertyOp17
 70
     1
102
RTVSPropertyOp18
 70
     1
102
RTVSPropertyOp19
 70
     1
102
RTVSPropertyOp20
 70
     1
102
RTVSPropertyOp21
 70
     1
102
RTVSPropertyOp22
 70
     1
102
RTVSPropertyOp23
 70
     1
102
RTVSPropertyOp24
 70
     1
102
RTVSPropertyOp25
 70
     1
102
RTVSPropertyOp26
 70
     1
102
RTVSPropertyOp27
 70
     1
102
RTVSPropertyOp28
 70
     1
102
RTVSPropertyOp29
 70
     1
102
RTVSPropertyOp30
 70
     1
102
RTVSPropertyOp31
 70
     1
102
RTVSPropertyOp32
 70
     1
  0
XRECORD
  5
92D
102
{ACAD_REACTORS
330
92C
102
}
330
92C
100
AcDbXrecord
280
     1
102
RTVSPropertyOp0
 70
     1
102
RTVSPropertyOp1
 70
     1
102
RTVSPropertyOp2
 70
     1
102
RTVSPropertyOp3
 70
     1
102
RTVSPropertyOp4
 70
     1
102
RTVSPropertyOp5
 70
     1
102
RTVSPropertyOp6
 70
     1
102
RTVSPropertyOp7
 70
     1
102
RTVSPropertyOp8
 70
     1
102
RTVSPropertyOp9
 70
     1
102
RTVSPropertyOp10
 70
     1
102
RTVSPropertyOp11
 70
     1
102
RTVSPropertyOp12
 70
     1
102
RTVSPropertyOp13
 70
     1
102
RTVSPropertyOp14
 70
     1
102
RTVSPropertyOp15
 70
     1
102
RTVSPropertyOp16
 70
     1
102
RTVSPropertyOp17
 70
     1
102
RTVSPropertyOp18
 70
     1
102
RTVSPropertyOp19
 70
     1
102
RTVSPropertyOp20
 70
     1
102
RTVSPropertyOp21
 70
     1
102
RTVSPropertyOp22
 70
     1
102
RTVSPropertyOp23
 70
     1
102
RTVSPropertyOp24
 70
     1
102
RTVSPropertyOp25
 70
     1
102
RTVSPropertyOp26
 70
     1
102
RTVSPropertyOp27
 70
     1
102
RTVSPropertyOp28
 70
     1
102
RTVSPropertyOp29
 70
     1
102
RTVSPropertyOp30
 70
     1
102
RTVSPropertyOp31
 70
     1
102
RTVSPropertyOp32
 70
     1
  0
XRECORD
  5
927
102
{ACAD_REACTORS
330
926
102
}
330
926
100
AcDbXrecord
280
     1
102
RTVSPropertyOp0
 70
     1
102
RTVSPropertyOp1
 70
     1
102
RTVSPropertyOp2
 70
     1
102
RTVSPropertyOp3
 70
     1
102
RTVSPropertyOp4
 70
     1
102
RTVSPropertyOp5
 70
     1
102
RTVSPropertyOp6
 70
     1
102
RTVSPropertyOp7
 70
     1
102
RTVSPropertyOp8
 70
     1
102
RTVSPropertyOp9
 70
     1
102
RTVSPropertyOp10
 70
     1
102
RTVSPropertyOp11
 70
     1
102
RTVSPropertyOp12
 70
     1
102
RTVSPropertyOp13
 70
     1
102
RTVSPropertyOp14
 70
     1
102
RTVSPropertyOp15
 70
     1
102
RTVSPropertyOp16
 70
     1
102
RTVSPropertyOp17
 70
     1
102
RTVSPropertyOp18
 70
     1
102
RTVSPropertyOp19
 70
     1
102
RTVSPropertyOp20
 70
     1
102
RTVSPropertyOp21
 70
     1
102
RTVSPropertyOp22
 70
     1
102
RTVSPropertyOp23
 70
     1
102
RTVSPropertyOp24
 70
     1
102
RTVSPropertyOp25
 70
     1
102
RTVSPropertyOp26
 70
     1
102
RTVSPropertyOp27
 70
     1
102
RTVSPropertyOp28
 70
     1
102
RTVSPropertyOp29
 70
     1
102
RTVSPropertyOp30
 70
     1
102
RTVSPropertyOp31
 70
     1
102
RTVSPropertyOp32
 70
     1
  0
XRECORD
  5
929
102
{ACAD_REACTORS
330
928
102
}
330
928
100
AcDbXrecord
280
     1
102
RTVSPropertyOp0
 70
     1
102
RTVSPropertyOp1
 70
     1
102
RTVSPropertyOp2
 70
     1
102
RTVSPropertyOp3
 70
     1
102
RTVSPropertyOp4
 70
     1
102
RTVSPropertyOp5
 70
     1
102
RTVSPropertyOp6
 70
     1
102
RTVSPropertyOp7
 70
     1
102
RTVSPropertyOp8
 70
     1
102
RTVSPropertyOp9
 70
     1
102
RTVSPropertyOp10
 70
     1
102
RTVSPropertyOp11
 70
     1
102
RTVSPropertyOp12
 70
     1
102
RTVSPropertyOp13
 70
     1
102
RTVSPropertyOp14
 70
     1
102
RTVSPropertyOp15
 70
     1
102
RTVSPropertyOp16
 70
     1
102
RTVSPropertyOp17
 70
     1
102
RTVSPropertyOp18
 70
     1
102
RTVSPropertyOp19
 70
     1
102
RTVSPropertyOp20
 70
     1
102
RTVSPropertyOp21
 70
     1
102
RTVSPropertyOp22
 70
     1
102
RTVSPropertyOp23
 70
     1
102
RTVSPropertyOp24
 70
     1
102
RTVSPropertyOp25
 70
     1
102
RTVSPropertyOp26
 70
     1
102
RTVSPropertyOp27
 70
     1
102
RTVSPropertyOp28
 70
     1
102
RTVSPropertyOp29
 70
     1
102
RTVSPropertyOp30
 70
     1
102
RTVSPropertyOp31
 70
     1
102
RTVSPropertyOp32
 70
     1
  0
XRECORD
  5
91F
102
{ACAD_REACTORS
330
91E
102
}
330
91E
100
AcDbXrecord
280
     1
102
RTVSPropertyOp0
 70
     1
102
RTVSPropertyOp1
 70
     1
102
RTVSPropertyOp2
 70
     1
102
RTVSPropertyOp3
 70
     1
102
RTVSPropertyOp4
 70
     1
102
RTVSPropertyOp5
 70
     1
102
RTVSPropertyOp6
 70
     1
102
RTVSPropertyOp7
 70
     1
102
RTVSPropertyOp8
 70
     1
102
RTVSPropertyOp9
 70
     1
102
RTVSPropertyOp10
 70
     1
102
RTVSPropertyOp11
 70
     1
102
RTVSPropertyOp12
 70
     1
102
RTVSPropertyOp13
 70
     1
102
RTVSPropertyOp14
 70
     1
102
RTVSPropertyOp15
 70
     1
102
RTVSPropertyOp16
 70
     1
102
RTVSPropertyOp17
 70
     1
102
RTVSPropertyOp18
 70
     1
102
RTVSPropertyOp19
 70
     1
102
RTVSPropertyOp20
 70
     1
102
RTVSPropertyOp21
 70
     1
102
RTVSPropertyOp22
 70
     1
102
RTVSPropertyOp23
 70
     1
102
RTVSPropertyOp24
 70
     1
102
RTVSPropertyOp25
 70
     1
102
RTVSPropertyOp26
 70
     1
102
RTVSPropertyOp27
 70
     1
102
RTVSPropertyOp28
 70
     1
102
RTVSPropertyOp29
 70
     1
102
RTVSPropertyOp30
 70
     1
102
RTVSPropertyOp31
 70
     1
102
RTVSPropertyOp32
 70
     1
  0
XRECORD
  5
913
102
{ACAD_REACTORS
330
912
102
}
330
912
100
AcDbXrecord
280
     1
102
RTVSPropertyOp0
 70
     1
102
RTVSPropertyOp1
 70
     1
102
RTVSPropertyOp2
 70
     1
102
RTVSPropertyOp3
 70
     1
102
RTVSPropertyOp4
 70
     1
102
RTVSPropertyOp5
 70
     1
102
RTVSPropertyOp6
 70
     1
102
RTVSPropertyOp7
 70
     1
102
RTVSPropertyOp8
 70
     1
102
RTVSPropertyOp9
 70
     1
102
RTVSPropertyOp10
 70
     1
102
RTVSPropertyOp11
 70
     1
102
RTVSPropertyOp12
 70
     1
102
RTVSPropertyOp13
 70
     1
102
RTVSPropertyOp14
 70
     1
102
RTVSPropertyOp15
 70
     1
102
RTVSPropertyOp16
 70
     1
102
RTVSPropertyOp17
 70
     1
102
RTVSPropertyOp18
 70
     1
102
RTVSPropertyOp19
 70
     1
102
RTVSPropertyOp20
 70
     1
102
RTVSPropertyOp21
 70
     1
102
RTVSPropertyOp22
 70
     1
102
RTVSPropertyOp23
 70
     1
102
RTVSPropertyOp24
 70
     1
102
RTVSPropertyOp25
 70
     1
102
RTVSPropertyOp26
 70
     1
102
RTVSPropertyOp27
 70
     1
102
RTVSPropertyOp28
 70
     1
102
RTVSPropertyOp29
 70
     1
102
RTVSPropertyOp30
 70
     1
102
RTVSPropertyOp31
 70
     1
102
RTVSPropertyOp32
 70
     1
  0
XRECORD
  5
92B
102
{ACAD_REACTORS
330
92A
102
}
330
92A
100
AcDbXrecord
280
     1
102
RTVSPropertyOp0
 70
     1
102
RTVSPropertyOp1
 70
     1
102
RTVSPropertyOp2
 70
     1
102
RTVSPropertyOp3
 70
     1
102
RTVSPropertyOp4
 70
     1
102
RTVSPropertyOp5
 70
     1
102
RTVSPropertyOp6
 70
     1
102
RTVSPropertyOp7
 70
     1
102
RTVSPropertyOp8
 70
     1
102
RTVSPropertyOp9
 70
     1
102
RTVSPropertyOp10
 70
     1
102
RTVSPropertyOp11
 70
     1
102
RTVSPropertyOp12
 70
     1
102
RTVSPropertyOp13
 70
     1
102
RTVSPropertyOp14
 70
     1
102
RTVSPropertyOp15
 70
     1
102
RTVSPropertyOp16
 70
     1
102
RTVSPropertyOp17
 70
     1
102
RTVSPropertyOp18
 70
     1
102
RTVSPropertyOp19
 70
     1
102
RTVSPropertyOp20
 70
     1
102
RTVSPropertyOp21
 70
     1
102
RTVSPropertyOp22
 70
     1
102
RTVSPropertyOp23
 70
     1
102
RTVSPropertyOp24
 70
     1
102
RTVSPropertyOp25
 70
     1
102
RTVSPropertyOp26
 70
     1
102
RTVSPropertyOp27
 70
     1
102
RTVSPropertyOp28
 70
     1
102
RTVSPropertyOp29
 70
     1
102
RTVSPropertyOp30
 70
     1
102
RTVSPropertyOp31
 70
     1
102
RTVSPropertyOp32
 70
     1
  0
ENDSEC
  0
EOF
