  0
SECTION
  2
HEADER
  9
$ACADVER
  1
AC1015
  9
$ACADMAINTVER
 70
    20
  9
$DWGCODEPAGE
  3
ANSI_932
  9
$INSBASE
 10
0.0
 20
0.0
 30
0.0
  9
$EXTMIN
 10
217.1073926566859
 20
-4.031485299211283
 30
-0.0000000000112498
  9
$EXTMAX
 10
494.1377200686952
 20
184.4613878156728
 30
0.0000000000002956
  9
$LIMMIN
 10
217.117866
 20
-4.023570999999997
  9
$LIMMAX
 10
494.129265
 20
184.451043
  9
$ORTHOMODE
 70
     1
  9
$REGENMODE
 70
     1
  9
$FILLMODE
 70
     1
  9
$QTEXTMODE
 70
     0
  9
$MIRRTEXT
 70
     0
  9
$LTSCALE
 40
4.616823
  9
$ATTMODE
 70
     1
  9
$TEXTSIZE
 40
3.2
  9
$TRACEWID
 40
0.05
  9
$TEXTSTYLE
  7
高3.2
  9
$CLAYER
  8
0
  9
$CELTYPE
  6
CONTINUOUS
  9
$CECOLOR
 62
   256
  9
$CELTSCALE
 40
1.0
  9
$DISPSILH
 70
     0
  9
$DIMSCALE
 40
1.0
  9
$DIMASZ
 40
2.5
  9
$DIMEXO
 40
0.25
  9
$DIMDLI
 40
0.2
  9
$DIMRND
 40
0.0
  9
$DIMDLE
 40
0.0
  9
$DIMEXE
 40
1.25
  9
$DIMTP
 40
0.0
  9
$DIMTM
 40
0.0
  9
$DIMTXT
 40
3.0
  9
$DIMCEN
 40
0.0
  9
$DIMTSZ
 40
0.0
  9
$DIMTOL
 70
     0
  9
$DIMLIM
 70
     0
  9
$DIMTIH
 70
     0
  9
$DIMTOH
 70
     0
  9
$DIMSE1
 70
     0
  9
$DIMSE2
 70
     0
  9
$DIMTAD
 70
     3
  9
$DIMZIN
 70
     8
  9
$DIMBLK
  1
Open30
  9
$DIMASO
 70
     1
  9
$DIMSHO
 70
     1
  9
$DIMPOST
  1

  9
$DIMAPOST
  1

  9
$DIMALT
 70
     0
  9
$DIMALTD
 70
     3
  9
$DIMALTF
 40
0.03937007874016
  9
$DIMLFAC
 40
2.0
  9
$DIMTOFL
 70
     1
  9
$DIMTVP
 40
0.0
  9
$DIMTIX
 70
     0
  9
$DIMSOXD
 70
     0
  9
$DIMSAH
 70
     0
  9
$DIMBLK1
  1

  9
$DIMBLK2
  1

  9
$DIMSTYLE
  2
1／2
  9
$DIMCLRD
 70
     0
  9
$DIMCLRE
 70
     0
  9
$DIMCLRT
 70
     4
  9
$DIMTFAC
 40
1.0
  9
$DIMGAP
 40
0.625
  9
$DIMJUST
 70
     0
  9
$DIMSD1
 70
     0
  9
$DIMSD2
 70
     0
  9
$DIMTOLJ
 70
     0
  9
$DIMTZIN
 70
     8
  9
$DIMALTZ
 70
     0
  9
$DIMALTTZ
 70
     0
  9
$DIMUPT
 70
     1
  9
$DIMDEC
 70
     2
  9
$DIMTDEC
 70
     2
  9
$DIMALTU
 70
     2
  9
$DIMALTTD
 70
     3
  9
$DIMTXSTY
  7
STANDARD
  9
$DIMAUNIT
 70
     0
  9
$DIMADEC
 70
     1
  9
$DIMALTRND
 40
0.0
  9
$DIMAZIN
 70
     2
  9
$DIMDSEP
 70
    46
  9
$DIMATFIT
 70
     0
  9
$DIMFRAC
 70
     0
  9
$DIMLDRBLK
  1
Open30
  9
$DIMLUNIT
 70
     2
  9
$DIMLWD
 70
    -2
  9
$DIMLWE
 70
    -2
  9
$DIMTMOVE
 70
     0
  9
$LUNITS
 70
     2
  9
$LUPREC
 70
     4
  9
$SKETCHINC
 40
0.1
  9
$FILLETRAD
 40
0.0
  9
$AUNITS
 70
     0
  9
$AUPREC
 70
     0
  9
$MENU
  1
.
  9
$ELEVATION
 40
0.0
  9
$PELEVATION
 40
0.0
  9
$THICKNESS
 40
0.0
  9
$LIMCHECK
 70
     0
  9
$CHAMFERA
 40
0.5
  9
$CHAMFERB
 40
0.5
  9
$CHAMFERC
 40
0.0
  9
$CHAMFERD
 40
0.0
  9
$SKPOLY
 70
     0
  9
$TDCREATE
 40
2456346.423929201
  9
$TDUCREATE
 40
2456346.048929201
  9
$TDUPDATE
 40
2456504.481478692
  9
$TDUUPDATE
 40
2456504.106478692
  9
$TDINDWG
 40
0.1166163426
  9
$TDUSRTIMER
 40
0.1166163426
  9
$USRTIMER
 70
     1
  9
$ANGBASE
 50
0.0
  9
$ANGDIR
 70
     0
  9
$PDMODE
 70
     0
  9
$PDSIZE
 40
0.0
  9
$PLINEWID
 40
0.0
  9
$SPLFRAME
 70
     0
  9
$SPLINETYPE
 70
     6
  9
$SPLINESEGS
 70
     8
  9
$HANDSEED
  5
10B9
  9
$SURFTAB1
 70
     6
  9
$SURFTAB2
 70
     6
  9
$SURFTYPE
 70
     6
  9
$SURFU
 70
     6
  9
$SURFV
 70
     6
  9
$UCSBASE
  2

  9
$UCSNAME
  2

  9
$UCSORG
 10
0.0
 20
0.0
 30
0.0
  9
$UCSXDIR
 10
1.0
 20
0.0
 30
0.0
  9
$UCSYDIR
 10
0.0
 20
1.0
 30
0.0
  9
$UCSORTHOREF
  2

  9
$UCSORTHOVIEW
 70
     0
  9
$UCSORGTOP
 10
0.0
 20
0.0
 30
0.0
  9
$UCSORGBOTTOM
 10
0.0
 20
0.0
 30
0.0
  9
$UCSORGLEFT
 10
0.0
 20
0.0
 30
0.0
  9
$UCSORGRIGHT
 10
0.0
 20
0.0
 30
0.0
  9
$UCSORGFRONT
 10
0.0
 20
0.0
 30
0.0
  9
$UCSORGBACK
 10
0.0
 20
0.0
 30
0.0
  9
$PUCSBASE
  2

  9
$PUCSNAME
  2

  9
$PUCSORG
 10
0.0
 20
0.0
 30
0.0
  9
$PUCSXDIR
 10
1.0
 20
0.0
 30
0.0
  9
$PUCSYDIR
 10
0.0
 20
1.0
 30
0.0
  9
$PUCSORTHOREF
  2

  9
$PUCSORTHOVIEW
 70
     0
  9
$PUCSORGTOP
 10
0.0
 20
0.0
 30
0.0
  9
$PUCSORGBOTTOM
 10
0.0
 20
0.0
 30
0.0
  9
$PUCSORGLEFT
 10
0.0
 20
0.0
 30
0.0
  9
$PUCSORGRIGHT
 10
0.0
 20
0.0
 30
0.0
  9
$PUCSORGFRONT
 10
0.0
 20
0.0
 30
0.0
  9
$PUCSORGBACK
 10
0.0
 20
0.0
 30
0.0
  9
$USERI1
 70
     0
  9
$USERI2
 70
     0
  9
$USERI3
 70
     0
  9
$USERI4
 70
     0
  9
$USERI5
 70
     0
  9
$USERR1
 40
0.0
  9
$USERR2
 40
0.0
  9
$USERR3
 40
0.0
  9
$USERR4
 40
0.0
  9
$USERR5
 40
0.0
  9
$WORLDVIEW
 70
     1
  9
$SHADEDGE
 70
     3
  9
$SHADEDIF
 70
    70
  9
$TILEMODE
 70
     1
  9
$MAXACTVP
 70
    64
  9
$PINSBASE
 10
0.0
 20
0.0
 30
0.0
  9
$PLIMCHECK
 70
     0
  9
$PEXTMIN
 10
1.000000000000000E+20
 20
1.000000000000000E+20
 30
1.000000000000000E+20
  9
$PEXTMAX
 10
-1.000000000000000E+20
 20
-1.000000000000000E+20
 30
-1.000000000000000E+20
  9
$PLIMMIN
 10
0.0
 20
0.0
  9
$PLIMMAX
 10
12.0
 20
9.0
  9
$UNITMODE
 70
     0
  9
$VISRETAIN
 70
     1
  9
$PLINEGEN
 70
     0
  9
$PSLTSCALE
 70
     1
  9
$TREEDEPTH
 70
  3020
  9
$CMLSTYLE
  2
Standard
  9
$CMLJUST
 70
     0
  9
$CMLSCALE
 40
1.0
  9
$PROXYGRAPHICS
 70
     1
  9
$MEASUREMENT
 70
     0
  9
$CELWEIGHT
370
    -1
  9
$ENDCAPS
280
     0
  9
$JOINSTYLE
280
     0
  9
$LWDISPLAY
290
     0
  9
$INSUNITS
 70
     0
  9
$HYPERLINKBASE
  1

  9
$STYLESHEET
  1
n-plot.ctb
  9
$XEDIT
290
     1
  9
$CEPSNTYPE
380
     0
  9
$PSTYLEMODE
290
     1
  9
$FINGERPRINTGUID
  2
{1D43A937-286C-4CE0-B09C-ABF825AB4AD1}
  9
$VERSIONGUID
  2
{8F236318-8CDB-438A-AD8C-AFE921E2B6A4}
  9
$EXTNAMES
290
     1
  9
$PSVPSCALE
 40
0.0
  9
$OLESTARTUP
290
     0
  0
ENDSEC
  0
SECTION
  2
CLASSES
  0
CLASS
  1
ACDBDICTIONARYWDFLT
  2
AcDbDictionaryWithDefault
  3
ObjectDBX Classes
 90
        0
280
     0
281
     0
  0
CLASS
  1
MATERIAL
  2
AcDbMaterial
  3
ObjectDBX Classes
 90
     1153
280
     0
281
     0
  0
CLASS
  1
VISUALSTYLE
  2
AcDbVisualStyle
  3
ObjectDBX Classes
 90
     4095
280
     0
281
     0
  0
CLASS
  1
SCALE
  2
AcDbScale
  3
ObjectDBX Classes
 90
     1153
280
     0
281
     0
  0
CLASS
  1
TABLESTYLE
  2
AcDbTableStyle
  3
ObjectDBX Classes
 90
     4095
280
     0
281
     0
  0
CLASS
  1
MLEADERSTYLE
  2
AcDbMLeaderStyle
  3
ACDB_MLEADERSTYLE_CLASS
 90
     4095
280
     0
281
     0
  0
CLASS
  1
SORTENTSTABLE
  2
AcDbSortentsTable
  3
ObjectDBX Classes
 90
        0
280
     0
281
     0
  0
CLASS
  1
DICTIONARYVAR
  2
AcDbDictionaryVar
  3
ObjectDBX Classes
 90
        0
280
     0
281
     0
  0
CLASS
  1
CELLSTYLEMAP
  2
AcDbCellStyleMap
  3
ObjectDBX Classes
 90
     1152
280
     0
281
     0
  0
CLASS
  1
ACDBPLACEHOLDER
  2
AcDbPlaceHolder
  3
ObjectDBX Classes
 90
        0
280
     0
281
     0
  0
CLASS
  1
LAYOUT
  2
AcDbLayout
  3
ObjectDBX Classes
 90
        0
280
     0
281
     0
  0
ENDSEC
  0
SECTION
  2
TABLES
  0
TABLE
  2
VPORT
  5
8
330
0
100
AcDbSymbolTable
 70
     1
  0
VPORT
  5
8B
330
8
100
AcDbSymbolTableRecord
100
AcDbViewportTableRecord
  2
*Active
 70
     0
 10
0.0
 20
0.0
 11
1.0
 21
1.0
 12
313.0369850254372
 22
78.10766038156694
 13
0.0
 23
0.0
 14
1.0
 24
1.0
 15
0.0
 25
0.0
 16
0.0
 26
0.0
 36
1.0
 17
0.0
 27
0.0
 37
0.0
 40
406.0857437649229
 41
1.471025260029717
 42
50.0
 43
0.0
 44
0.0
 50
0.0
 51
0.0
 71
     0
 72
   100
 73
     1
 74
     1
 75
     0
 76
     0
 77
     0
 78
     0
281
     0
 65
     1
110
0.0
120
0.0
130
0.0
111
1.0
121
0.0
131
0.0
112
0.0
122
1.0
132
0.0
 79
     0
146
0.0
  0
ENDTAB
  0
TABLE
  2
LTYPE
  5
5
330
0
100
AcDbSymbolTable
 70
     3
  0
LTYPE
  5
5A
330
5
100
AcDbSymbolTableRecord
100
AcDbLinetypeTableRecord
  2
ByBlock
 70
     0
  3

 72
    65
 73
     0
 40
0.0
  0
LTYPE
  5
5B
330
5
100
AcDbSymbolTableRecord
100
AcDbLinetypeTableRecord
  2
ByLayer
 70
     0
  3

 72
    65
 73
     0
 40
0.0
  0
LTYPE
  5
5C
330
5
100
AcDbSymbolTableRecord
100
AcDbLinetypeTableRecord
  2
CONTINUOUS
 70
     0
  3
Solid-line
 72
    65
 73
     0
 40
0.0
  0
ENDTAB
  0
TABLE
  2
LAYER
  5
2
102
{ACAD_XDICTIONARY
360
2F0
102
}
330
0
100
AcDbSymbolTable
 70
     4
  0
LAYER
  5
54
102
{ACAD_XDICTIONARY
360
438
102
}
330
2
100
AcDbSymbolTableRecord
100
AcDbLayerTableRecord
  2
0
 70
     0
 62
     7
  6
CONTINUOUS
370
    -3
390
F
  0
LAYER
  5
2D9
330
2
100
AcDbSymbolTableRecord
100
AcDbLayerTableRecord
  2
Defpoints
 70
     0
 62
     7
  6
CONTINUOUS
290
     0
370
    -3
390
F
  0
ENDTAB
  0
TABLE
  2
STYLE
  5
3
330
0
100
AcDbSymbolTable
 70
     8
  0
STYLE
  5
55
330
3
100
AcDbSymbolTableRecord
100
AcDbTextStyleTableRecord
  2
STANDARD
 70
     0
 40
0.0
 41
1.0
 50
0.0
 71
     0
 42
0.2
  3
TXT
  4
BIGFONT
  0
STYLE
  5
2DA
330
3
100
AcDbSymbolTableRecord
100
AcDbTextStyleTableRecord
  2
高3.2
 70
     0
 40
3.2
 41
1.0
 50
0.0
 71
     0
 42
3.2
  3
txt.shx
  4
bigfont.shx
  0
STYLE
  5
2DB
330
3
100
AcDbSymbolTableRecord
100
AcDbTextStyleTableRecord
  2
高6.3
 70
     0
 40
6.299999999999998
 41
1.0
 50
0.0
 71
     0
 42
6.299999999999998
  3
txt.shx
  4
bigfont.shx
  0
STYLE
  5
2DD
330
3
100
AcDbSymbolTableRecord
100
AcDbTextStyleTableRecord
  2
高4.5
 70
     0
 40
4.5
 41
1.0
 50
0.0
 71
     0
 42
6.299999999999998
  3
txt.shx
  4
bigfont.shx
  0
STYLE
  5
2DE
330
3
100
AcDbSymbolTableRecord
100
AcDbTextStyleTableRecord
  2
高2
 70
     0
 40
2.0
 41
1.0
 50
0.0
 71
     0
 42
2.0
  3
txt.shx
  4
bigfont.shx
  0
ENDTAB
  0
TABLE
  2
VIEW
  5
6
330
0
100
AcDbSymbolTable
 70
     0
  0
ENDTAB
  0
TABLE
  2
UCS
  5
7
330
0
100
AcDbSymbolTable
 70
     0
  0
ENDTAB
  0
TABLE
  2
APPID
  5
9
330
0
100
AcDbSymbolTable
 70
    12
  0
APPID
  5
56
330
9
100
AcDbSymbolTableRecord
100
AcDbRegAppTableRecord
  2
ACAD
 70
     0
  0
APPID
  5
5D
330
9
100
AcDbSymbolTableRecord
100
AcDbRegAppTableRecord
  2
AcadAnnotative
 70
     0
  0
APPID
  5
2E9
330
9
100
AcDbSymbolTableRecord
100
AcDbRegAppTableRecord
  2
ACAD_DSTYLE_DIMJOGGED_JOGANGLE_SYMBOL
 70
     0
  0
APPID
  5
2EA
330
9
100
AcDbSymbolTableRecord
100
AcDbRegAppTableRecord
  2
ACAD_DSTYLE_DIMJAG
 70
     0
  0
APPID
  5
2EB
330
9
100
AcDbSymbolTableRecord
100
AcDbRegAppTableRecord
  2
ACAD_DSTYLE_DIMBREAK
 70
     0
  0
APPID
  5
2EC
330
9
100
AcDbSymbolTableRecord
100
AcDbRegAppTableRecord
  2
ACAD_DSTYLE_DIMTALN
 70
     0
  0
APPID
  5
430
330
9
100
AcDbSymbolTableRecord
100
AcDbRegAppTableRecord
  2
ACAD_EXEMPT_FROM_CAD_STANDARDS
 70
     0
  0
APPID
  5
47A
330
9
100
AcDbSymbolTableRecord
100
AcDbRegAppTableRecord
  2
ACAD_MLEADERVER
 70
     0
  0
APPID
  5
47F
330
9
100
AcDbSymbolTableRecord
100
AcDbRegAppTableRecord
  2
ACAD_DSTYLE_DIMARC_LENGTH_SYMBOL
 70
     0
  0
APPID
  5
480
330
9
100
AcDbSymbolTableRecord
100
AcDbRegAppTableRecord
  2
ACAD_DSTYLE_DIMEXT_LENGTH
 70
     0
  0
APPID
  5
7FF
330
9
100
AcDbSymbolTableRecord
100
AcDbRegAppTableRecord
  2
ACAD_DSTYLE_DIMRADIAL_EXTENSION
 70
     0
  0
APPID
  5
987
330
9
100
AcDbSymbolTableRecord
100
AcDbRegAppTableRecord
  2
ACAD_PSEXT
 70
     0
  0
ENDTAB
  0
TABLE
  2
DIMSTYLE
  5
A
330
0
100
AcDbSymbolTable
 70
    12
100
AcDbDimStyleTable
 71
     2
340
2E3
340
57
  0
DIMSTYLE
105
57
330
A
100
AcDbSymbolTableRecord
100
AcDbDimStyleTableRecord
  2
Standard
 70
     0
340
55
  0
DIMSTYLE
105
2E3
330
A
100
AcDbSymbolTableRecord
100
AcDbDimStyleTableRecord
  2
1／2
 70
     0
 41
2.5
 42
0.25
 43
0.2
 44
1.25
 73
     0
 74
     0
 77
     3
 78
     8
 79
     2
140
3.0
141
0.0
143
0.03937007874016
144
2.0
147
0.625
171
     3
172
     1
178
     4
179
     1
271
     2
272
     2
274
     3
283
     0
284
     8
288
     1
289
     0
340
55
341
249
342
249
1001
ACAD_DSTYLE_DIMARC_LENGTH_SYMBOL
1070
   379
1070
     2
1001
ACAD_DSTYLE_DIMEXT_LENGTH
1070
   378
1040
1.25
1001
ACAD_DSTYLE_DIMJOGGED_JOGANGLE_SYMBOL
1070
   384
1040
1.570796326794896
  0
ENDTAB
  0
TABLE
  2
BLOCK_RECORD
  5
1
330
0
100
AcDbSymbolTable
 70
    64
  0
BLOCK_RECORD
  5
6B
102
{ACAD_XDICTIONARY
360
48B
102
}
330
1
100
AcDbSymbolTableRecord
100
AcDbBlockTableRecord
  2
*Model_Space
340
6E
  0
BLOCK_RECORD
  5
67
330
1
100
AcDbSymbolTableRecord
100
AcDbBlockTableRecord
  2
*Paper_Space
340
6A
  0
BLOCK_RECORD
  5
249
330
1
100
AcDbSymbolTableRecord
100
AcDbBlockTableRecord
  2
_Open30
340
0
102
{BLKREFS
331
E16
331
E17
331
E1F
331
E20
331
E28
331
E29
331
E31
331
E32
331
E43
331
E44
331
E6C
331
E6D
331
E75
331
E76
331
E80
331
E81
331
E8B
331
E8C
331
EEE
331
EEF
331
F04
331
F05
331
F23
331
F24
331
F2C
331
F2D
102
}
  0
BLOCK_RECORD
  5
D03
330
1
100
AcDbSymbolTableRecord
100
AcDbBlockTableRecord
  2
*D49
340
0
  0
BLOCK_RECORD
  5
D10
330
1
100
AcDbSymbolTableRecord
100
AcDbBlockTableRecord
  2
*D50
340
0
  0
BLOCK_RECORD
  5
D2A
330
1
100
AcDbSymbolTableRecord
100
AcDbBlockTableRecord
  2
*D52
340
0
  0
BLOCK_RECORD
  5
DB4
330
1
100
AcDbSymbolTableRecord
100
AcDbBlockTableRecord
  2
*D53
340
0
  0
BLOCK_RECORD
  5
DC3
330
1
100
AcDbSymbolTableRecord
100
AcDbBlockTableRecord
  2
*D54
340
0
  0
BLOCK_RECORD
  5
DED
330
1
100
AcDbSymbolTableRecord
100
AcDbBlockTableRecord
  2
*D55
340
0
  0
BLOCK_RECORD
  5
E03
330
1
100
AcDbSymbolTableRecord
100
AcDbBlockTableRecord
  2
*D56
340
0
  0
BLOCK_RECORD
  5
E4A
330
1
100
AcDbSymbolTableRecord
100
AcDbBlockTableRecord
  2
*D57
340
0
  0
BLOCK_RECORD
  5
E59
330
1
100
AcDbSymbolTableRecord
100
AcDbBlockTableRecord
  2
*D58
340
0
  0
BLOCK_RECORD
  5
E94
330
1
100
AcDbSymbolTableRecord
100
AcDbBlockTableRecord
  2
*D59
340
0
  0
BLOCK_RECORD
  5
ED6
330
1
100
AcDbSymbolTableRecord
100
AcDbBlockTableRecord
  2
*D60
340
0
  0
BLOCK_RECORD
  5
EF5
330
1
100
AcDbSymbolTableRecord
100
AcDbBlockTableRecord
  2
*D61
340
0
  0
BLOCK_RECORD
  5
F0B
330
1
100
AcDbSymbolTableRecord
100
AcDbBlockTableRecord
  2
*D62
340
0
  0
ENDTAB
  0
ENDSEC
  0
SECTION
  2
BLOCKS
  0
BLOCK
  5
6C
330
6B
100
AcDbEntity
  8
0
100
AcDbBlockBegin
  2
*Model_Space
 70
     0
 10
0.0
 20
0.0
 30
0.0
  3
*Model_Space
  1

  0
ENDBLK
  5
6D
330
6B
100
AcDbEntity
  8
0
100
AcDbBlockEnd
  0
BLOCK
  5
68
330
67
100
AcDbEntity
 67
     1
  8
0
100
AcDbBlockBegin
  2
*Paper_Space
 70
     0
 10
0.0
 20
0.0
 30
0.0
  3
*Paper_Space
  1

  0
ENDBLK
  5
69
330
67
100
AcDbEntity
 67
     1
  8
0
100
AcDbBlockEnd
  0
BLOCK
  5
24A
330
249
100
AcDbEntity
  8
0
100
AcDbBlockBegin
  2
_Open30
 70
     0
 10
0.0
 20
0.0
 30
0.0
  3
_Open30
  1

  0
LINE
  5
24B
330
249
100
AcDbEntity
  8
0
  6
ByBlock
 62
     0
370
    -2
100
AcDbLine
 10
-1.0
 20
0.267949
 30
0.0
 11
0.0
 21
0.0
 31
0.0
  0
LINE
  5
24C
330
249
100
AcDbEntity
  8
0
  6
ByBlock
 62
     0
370
    -2
100
AcDbLine
 10
0.0
 20
0.0
 30
0.0
 11
-1.0
 21
-0.267949
 31
0.0
  0
LINE
  5
24D
330
249
100
AcDbEntity
  8
0
  6
ByBlock
 62
     0
370
    -2
100
AcDbLine
 10
0.0
 20
0.0
 30
0.0
 11
-1.0
 21
0.0
 31
0.0
  0
ENDBLK
  5
24E
330
249
100
AcDbEntity
  8
0
100
AcDbBlockEnd
  0
BLOCK
  5
D04
330
D03
100
AcDbEntity
  8
0
100
AcDbBlockBegin
  2
*D49
 70
     1
 10
0.0
 20
0.0
 30
0.0
  3
*D49
  1

  0
LINE
  5
E72
330
D03
100
AcDbEntity
  8
0
  6
Continuous
 62
     0
370
    -2
100
AcDbLine
 10
457.9983444318502
 20
118.3667148168849
 30
0.0
 11
481.2297571152326
 21
118.3667148168849
 31
0.0
  0
LINE
  5
E73
330
D03
100
AcDbEntity
  8
0
  6
Continuous
 62
     0
370
    -2
100
AcDbLine
 10
457.9983444318502
 20
105.8667148168849
 30
0.0
 11
481.2297571152326
 21
105.8667148168848
 31
0.0
  0
LINE
  5
E74
330
D03
100
AcDbEntity
  8
0
  6
Continuous
 62
     0
370
    -2
100
AcDbLine
 10
479.9797571152326
 20
115.8667148168849
 30
0.0
 11
479.9797571152326
 21
108.3667148168849
 31
0.0
  0
INSERT
  5
E75
330
D03
100
AcDbEntity
  8
0
  6
Continuous
 62
     0
370
    -2
100
AcDbBlockReference
  2
_Open30
 10
479.9797571152326
 20
118.3667148168849
 30
0.0
 41
2.5
 42
2.5
 43
2.5
 50
90.0
  0
INSERT
  5
E76
330
D03
100
AcDbEntity
  8
0
  6
Continuous
 62
     0
370
    -2
100
AcDbBlockReference
  2
_Open30
 10
479.9797571152326
 20
105.8667148168849
 30
0.0
 41
2.5
 42
2.5
 43
2.5
 50
270.0
  0
MTEXT
  5
E77
330
D03
100
AcDbEntity
  8
0
  6
Continuous
 62
     4
100
AcDbMText
 10
477.8547571152325
 20
112.5970535270439
 30
0.0
 40
3.0
 41
0.0
 71
     5
 72
     1
  1
%%C25
 11
0.0000000000000001
 21
1.0
 31
0.0
 73
     1
 44
1.0
1001
ACAD
1000
MTEXTBEGIN
1070
    73
1070
     1
1070
    44
1040
1.0
1070
    74
1070
     0
1000
MTEXTEND
  0
POINT
  5
E78
330
D03
100
AcDbEntity
  8
Defpoints
  6
Continuous
 62
     0
100
AcDbPoint
 10
457.7483444318501
 20
118.3667148168849
 30
0.0
  0
POINT
  5
E79
330
D03
100
AcDbEntity
  8
Defpoints
  6
Continuous
 62
     0
100
AcDbPoint
 10
457.7483444318501
 20
105.8667148168849
 30
0.0
  0
POINT
  5
E7A
330
D03
100
AcDbEntity
  8
Defpoints
  6
Continuous
 62
     0
100
AcDbPoint
 10
479.9797571152326
 20
105.8667148168849
 30
0.0
  0
ENDBLK
  5
D05
330
D03
100
AcDbEntity
  8
0
100
AcDbBlockEnd
  0
BLOCK
  5
D11
330
D10
100
AcDbEntity
  8
0
100
AcDbBlockBegin
  2
*D50
 70
     1
 10
0.0
 20
0.0
 30
0.0
  3
*D50
  1

  0
LINE
  5
E25
330
D10
100
AcDbEntity
  8
0
  6
Continuous
 62
     0
370
    -2
100
AcDbLine
 10
473.74834443185
 20
112.3667148168849
 30
0.0
 11
473.74834443185
 21
129.1379961857747
 31
0.0
  0
LINE
  5
E26
330
D10
100
AcDbEntity
  8
0
  6
Continuous
 62
     0
370
    -2
100
AcDbLine
 10
458.7483444318502
 20
117.6167148168849
 30
0.0
 11
458.7483444318502
 21
129.1379961857747
 31
0.0
  0
LINE
  5
E27
330
D10
100
AcDbEntity
  8
0
  6
Continuous
 62
     0
370
    -2
100
AcDbLine
 10
471.2483444318499
 20
127.8879961857747
 30
0.0
 11
461.2483444318502
 21
127.8879961857747
 31
0.0
  0
INSERT
  5
E28
330
D10
100
AcDbEntity
  8
0
  6
Continuous
 62
     0
370
    -2
100
AcDbBlockReference
  2
_Open30
 10
473.74834443185
 20
127.8879961857747
 30
0.0
 41
2.5
 42
2.5
 43
2.5
  0
INSERT
  5
E29
330
D10
100
AcDbEntity
  8
0
  6
Continuous
 62
     0
370
    -2
100
AcDbBlockReference
  2
_Open30
 10
458.7483444318502
 20
127.8879961857747
 30
0.0
 41
2.5
 42
2.5
 43
2.5
 50
180.0
  0
MTEXT
  5
E2A
330
D10
100
AcDbEntity
  8
0
  6
Continuous
 62
     4
100
AcDbMText
 10
465.532011349697
 20
130.0129961857747
 30
0.0
 40
3.0
 41
0.0
 71
     5
 72
     1
  1
30
 73
     1
 44
1.0
1001
ACAD
1000
MTEXTBEGIN
1070
    73
1070
     1
1070
    44
1040
1.0
1070
    74
1070
     0
1000
MTEXTEND
  0
POINT
  5
E2B
330
D10
100
AcDbEntity
  8
Defpoints
  6
Continuous
 62
     0
100
AcDbPoint
 10
473.74834443185
 20
112.1167148168849
 30
0.0
  0
POINT
  5
E2C
330
D10
100
AcDbEntity
  8
Defpoints
  6
Continuous
 62
     0
100
AcDbPoint
 10
458.7483444318502
 20
117.3667148168849
 30
0.0
  0
POINT
  5
E2D
330
D10
100
AcDbEntity
  8
Defpoints
  6
Continuous
 62
     0
100
AcDbPoint
 10
458.7483444318502
 20
127.8879961857747
 30
0.0
  0
ENDBLK
  5
D12
330
D10
100
AcDbEntity
  8
0
100
AcDbBlockEnd
  0
BLOCK
  5
D2B
330
D2A
100
AcDbEntity
  8
0
100
AcDbBlockBegin
  2
*D52
 70
     1
 10
0.0
 20
0.0
 30
0.0
  3
*D52
  1

  0
LINE
  5
E40
330
D2A
100
AcDbEntity
  8
0
  6
Continuous
 62
     0
370
    -2
100
AcDbLine
 10
473.7483444318502
 20
127.4167148168849
 30
0.0
 11
473.7483444318502
 21
133.6590045232929
 31
0.0
  0
LINE
  5
E41
330
D2A
100
AcDbEntity
  8
0
  6
Continuous
 62
     0
370
    -2
100
AcDbLine
 10
407.24834443185
 20
127.4167148168849
 30
0.0
 11
407.24834443185
 21
133.6590045232929
 31
0.0
  0
LINE
  5
E42
330
D2A
100
AcDbEntity
  8
0
  6
Continuous
 62
     0
370
    -2
100
AcDbLine
 10
471.2483444318502
 20
132.4090045232928
 30
0.0
 11
409.7483444318499
 21
132.4090045232928
 31
0.0
  0
INSERT
  5
E43
330
D2A
100
AcDbEntity
  8
0
  6
Continuous
 62
     0
370
    -2
100
AcDbBlockReference
  2
_Open30
 10
473.7483444318502
 20
132.4090045232928
 30
0.0
 41
2.5
 42
2.5
 43
2.5
  0
INSERT
  5
E44
330
D2A
100
AcDbEntity
  8
0
  6
Continuous
 62
     0
370
    -2
100
AcDbBlockReference
  2
_Open30
 10
407.24834443185
 20
132.4090045232928
 30
0.0
 41
2.5
 42
2.5
 43
2.5
 50
180.0
  0
MTEXT
  5
E45
330
D2A
100
AcDbEntity
  8
0
  6
Continuous
 62
     4
100
AcDbMText
 10
440.4983444318501
 20
134.5340045232928
 30
0.0
 40
3.0
 41
0.0
 71
     5
 72
     1
  1
133
 73
     1
 44
1.0
1001
ACAD
1000
MTEXTBEGIN
1070
    73
1070
     1
1070
    44
1040
1.0
1070
    74
1070
     0
1000
MTEXTEND
  0
POINT
  5
E46
330
D2A
100
AcDbEntity
  8
Defpoints
  6
Continuous
 62
     0
100
AcDbPoint
 10
473.7483444318502
 20
127.1667148168849
 30
0.0
  0
POINT
  5
E47
330
D2A
100
AcDbEntity
  8
Defpoints
  6
Continuous
 62
     0
100
AcDbPoint
 10
407.24834443185
 20
127.1667148168849
 30
0.0
  0
POINT
  5
E48
330
D2A
100
AcDbEntity
  8
Defpoints
  6
Continuous
 62
     0
100
AcDbPoint
 10
407.24834443185
 20
132.4090045232928
 30
0.0
  0
ENDBLK
  5
D2C
330
D2A
100
AcDbEntity
  8
0
100
AcDbBlockEnd
  0
BLOCK
  5
DB5
330
DB4
100
AcDbEntity
  8
0
100
AcDbBlockBegin
  2
*D53
 70
     1
 10
0.0
 20
0.0
 30
0.0
  3
*D53
  1

  0
LINE
  5
E11
330
DB4
100
AcDbEntity
  8
0
  6
Continuous
 62
     0
370
    -2
100
AcDbLine
 10
458.7483444318502
 20
117.6167148168849
 30
0.0
 11
458.7483444318502
 21
124.43653098497
 31
0.0
  0
LINE
  5
E12
330
DB4
100
AcDbEntity
  8
0
  6
Continuous
 62
     0
370
    -2
100
AcDbLine
 10
454.2483444318502
 20
119.1167148168849
 30
0.0
 11
454.2483444318502
 21
124.43653098497
 31
0.0
  0
LINE
  5
E13
330
DB4
100
AcDbEntity
  8
0
  6
Continuous
 62
     0
370
    -2
100
AcDbLine
 10
461.2483444318502
 20
123.18653098497
 30
0.0
 11
463.7483444318502
 21
123.18653098497
 31
0.0
  0
LINE
  5
E14
330
DB4
100
AcDbEntity
  8
0
  6
Continuous
 62
     0
370
    -2
100
AcDbLine
 10
451.7483444318502
 20
123.18653098497
 30
0.0
 11
445.9983444318502
 21
123.18653098497
 31
0.0
  0
LINE
  5
E15
330
DB4
100
AcDbEntity
  8
0
  6
Continuous
 62
     0
370
    -2
100
AcDbLine
 10
458.7483444318502
 20
123.18653098497
 30
0.0
 11
454.2483444318502
 21
123.18653098497
 31
0.0
  0
INSERT
  5
E16
330
DB4
100
AcDbEntity
  8
0
  6
Continuous
 62
     0
370
    -2
100
AcDbBlockReference
  2
_Open30
 10
458.7483444318502
 20
123.18653098497
 30
0.0
 41
2.5
 42
2.5
 43
2.5
 50
180.0
  0
INSERT
  5
E17
330
DB4
100
AcDbEntity
  8
0
  6
Continuous
 62
     0
370
    -2
100
AcDbBlockReference
  2
_Open30
 10
454.2483444318502
 20
123.18653098497
 30
0.0
 41
2.5
 42
2.5
 43
2.5
  0
MTEXT
  5
E18
330
DB4
100
AcDbEntity
  8
0
  6
Continuous
 62
     4
100
AcDbMText
 10
447.6233444318502
 20
125.31153098497
 30
0.0
 40
3.0
 41
0.0
 71
     5
 72
     1
  1
9
 73
     1
 44
1.0
1001
ACAD
1000
MTEXTBEGIN
1070
    73
1070
     1
1070
    44
1040
1.0
1070
    74
1070
     0
1000
MTEXTEND
  0
POINT
  5
E19
330
DB4
100
AcDbEntity
  8
Defpoints
  6
Continuous
 62
     0
100
AcDbPoint
 10
458.7483444318502
 20
117.3667148168849
 30
0.0
  0
POINT
  5
E1A
330
DB4
100
AcDbEntity
  8
Defpoints
  6
Continuous
 62
     0
100
AcDbPoint
 10
454.2483444318502
 20
118.8667148168849
 30
0.0
  0
POINT
  5
E1B
330
DB4
100
AcDbEntity
  8
Defpoints
  6
Continuous
 62
     0
100
AcDbPoint
 10
454.2483444318502
 20
123.18653098497
 30
0.0
  0
ENDBLK
  5
DB6
330
DB4
100
AcDbEntity
  8
0
100
AcDbBlockEnd
  0
BLOCK
  5
DC4
330
DC3
100
AcDbEntity
  8
0
100
AcDbBlockBegin
  2
*D54
 70
     1
 10
0.0
 20
0.0
 30
0.0
  3
*D54
  1

  0
LINE
  5
E2E
330
DC3
100
AcDbEntity
  8
0
  6
Continuous
 62
     0
370
    -2
100
AcDbLine
 10
458.7483444318502
 20
117.6167148168849
 30
0.0
 11
458.7483444318502
 21
129.1379961857747
 31
0.0
  0
LINE
  5
E2F
330
DC3
100
AcDbEntity
  8
0
  6
Continuous
 62
     0
370
    -2
100
AcDbLine
 10
407.2483445651827
 20
115.2417148168849
 30
0.0
 11
407.2483445651827
 21
129.1379961857747
 31
0.0
  0
LINE
  5
E30
330
DC3
100
AcDbEntity
  8
0
  6
Continuous
 62
     0
370
    -2
100
AcDbLine
 10
456.2483444318502
 20
127.8879961857747
 30
0.0
 11
409.7483445651827
 21
127.8879961857747
 31
0.0
  0
INSERT
  5
E31
330
DC3
100
AcDbEntity
  8
0
  6
Continuous
 62
     0
370
    -2
100
AcDbBlockReference
  2
_Open30
 10
458.7483444318502
 20
127.8879961857747
 30
0.0
 41
2.5
 42
2.5
 43
2.5
  0
INSERT
  5
E32
330
DC3
100
AcDbEntity
  8
0
  6
Continuous
 62
     0
370
    -2
100
AcDbBlockReference
  2
_Open30
 10
407.2483445651827
 20
127.8879961857747
 30
0.0
 41
2.5
 42
2.5
 43
2.5
 50
180.0
  0
MTEXT
  5
E33
330
DC3
100
AcDbEntity
  8
0
  6
Continuous
 62
     4
100
AcDbMText
 10
434.8460772505027
 20
130.0129961857747
 30
0.0
 40
3.0
 41
0.0
 71
     5
 72
     1
  1
103
 73
     1
 44
1.0
1001
ACAD
1000
MTEXTBEGIN
1070
    73
1070
     1
1070
    44
1040
1.0
1070
    74
1070
     0
1000
MTEXTEND
  0
POINT
  5
E34
330
DC3
100
AcDbEntity
  8
Defpoints
  6
Continuous
 62
     0
100
AcDbPoint
 10
458.7483444318502
 20
117.3667148168849
 30
0.0
  0
POINT
  5
E35
330
DC3
100
AcDbEntity
  8
Defpoints
  6
Continuous
 62
     0
100
AcDbPoint
 10
407.2483445651827
 20
114.9917148168849
 30
0.0
  0
POINT
  5
E36
330
DC3
100
AcDbEntity
  8
Defpoints
  6
Continuous
 62
     0
100
AcDbPoint
 10
407.2483445651827
 20
127.8879961857747
 30
0.0
  0
ENDBLK
  5
DC5
330
DC3
100
AcDbEntity
  8
0
100
AcDbBlockEnd
  0
BLOCK
  5
DEE
330
DED
100
AcDbEntity
  8
0
100
AcDbBlockBegin
  2
*D55
 70
     1
 10
0.0
 20
0.0
 30
0.0
  3
*D55
  1

  0
LINE
  5
E1C
330
DED
100
AcDbEntity
  8
0
  6
Continuous
 62
     0
370
    -2
100
AcDbLine
 10
465.2483444318502
 20
116.7417148168849
 30
0.0
 11
465.2483444318502
 21
124.43653098497
 31
0.0
  0
LINE
  5
E1D
330
DED
100
AcDbEntity
  8
0
  6
Continuous
 62
     0
370
    -2
100
AcDbLine
 10
458.7483444318502
 20
123.43653098497
 30
0.0
 11
458.7483444318502
 21
124.43653098497
 31
0.0
  0
LINE
  5
E1E
330
DED
100
AcDbEntity
  8
0
  6
Continuous
 62
     0
370
    -2
100
AcDbLine
 10
462.7483444318502
 20
123.18653098497
 30
0.0
 11
461.2483444318502
 21
123.18653098497
 31
0.0
  0
INSERT
  5
E1F
330
DED
100
AcDbEntity
  8
0
  6
Continuous
 62
     0
370
    -2
100
AcDbBlockReference
  2
_Open30
 10
465.2483444318502
 20
123.18653098497
 30
0.0
 41
2.5
 42
2.5
 43
2.5
  0
INSERT
  5
E20
330
DED
100
AcDbEntity
  8
0
  6
Continuous
 62
     0
370
    -2
100
AcDbBlockReference
  2
_Open30
 10
458.7483444318502
 20
123.18653098497
 30
0.0
 41
2.5
 42
2.5
 43
2.5
 50
180.0
  0
MTEXT
  5
E21
330
DED
100
AcDbEntity
  8
0
  6
Continuous
 62
     4
100
AcDbMText
 10
461.9983444318502
 20
125.31153098497
 30
0.0
 40
3.0
 41
0.0
 71
     5
 72
     1
  1
13
 73
     1
 44
1.0
1001
ACAD
1000
MTEXTBEGIN
1070
    73
1070
     1
1070
    44
1040
1.0
1070
    74
1070
     0
1000
MTEXTEND
  0
POINT
  5
E22
330
DED
100
AcDbEntity
  8
Defpoints
  6
Continuous
 62
     0
100
AcDbPoint
 10
465.2483444318502
 20
116.4917148168849
 30
0.0
  0
POINT
  5
E23
330
DED
100
AcDbEntity
  8
Defpoints
  6
Continuous
 62
     0
100
AcDbPoint
 10
458.7483444318502
 20
123.18653098497
 30
0.0
  0
POINT
  5
E24
330
DED
100
AcDbEntity
  8
Defpoints
  6
Continuous
 62
     0
100
AcDbPoint
 10
458.7483444318502
 20
123.18653098497
 30
0.0
  0
ENDBLK
  5
DEF
330
DED
100
AcDbEntity
  8
0
100
AcDbBlockEnd
  0
BLOCK
  5
E04
330
E03
100
AcDbEntity
  8
0
100
AcDbBlockBegin
  2
*D56
 70
     1
 10
0.0
 20
0.0
 30
0.0
  3
*D56
  1

  0
LINE
  5
E67
330
E03
100
AcDbEntity
  8
0
  6
Continuous
 62
     0
370
    -2
100
AcDbLine
 10
465.9983444318502
 20
116.7417148168849
 30
0.0
 11
465.9983444318502
 21
121.1736648404533
 31
0.0
  0
LINE
  5
E68
330
E03
100
AcDbEntity
  8
0
  6
Continuous
 62
     0
370
    -2
100
AcDbLine
 10
464.4983444318502
 20
116.7417148168849
 30
0.0
 11
464.4983444318502
 21
121.1736648404533
 31
0.0
  0
LINE
  5
E69
330
E03
100
AcDbEntity
  8
0
  6
Continuous
 62
     0
370
    -2
100
AcDbLine
 10
461.9983444318502
 20
119.9236648404533
 30
0.0
 11
459.4983444318502
 21
119.9236648404533
 31
0.0
  0
LINE
  5
E6A
330
E03
100
AcDbEntity
  8
0
  6
Continuous
 62
     0
370
    -2
100
AcDbLine
 10
468.4983444318502
 20
119.9236648404533
 30
0.0
 11
480.9743403129357
 21
119.9236648404533
 31
0.0
  0
LINE
  5
E6B
330
E03
100
AcDbEntity
  8
0
  6
Continuous
 62
     0
370
    -2
100
AcDbLine
 10
464.4983444318502
 20
119.9236648404533
 30
0.0
 11
465.9983444318502
 21
119.9236648404533
 31
0.0
  0
INSERT
  5
E6C
330
E03
100
AcDbEntity
  8
0
  6
Continuous
 62
     0
370
    -2
100
AcDbBlockReference
  2
_Open30
 10
464.4983444318502
 20
119.9236648404533
 30
0.0
 41
2.5
 42
2.5
 43
2.5
  0
INSERT
  5
E6D
330
E03
100
AcDbEntity
  8
0
  6
Continuous
 62
     0
370
    -2
100
AcDbBlockReference
  2
_Open30
 10
465.9983444318502
 20
119.9236648404533
 30
0.0
 41
2.5
 42
2.5
 43
2.5
 50
180.0
  0
MTEXT
  5
E6E
330
E03
100
AcDbEntity
  8
0
  6
Continuous
 62
     4
100
AcDbMText
 10
477.8493403129357
 20
122.0486648404533
 30
0.0
 40
3.0
 41
0.0
 71
     5
 72
     1
  1
%%C3
 73
     1
 44
1.0
1001
ACAD
1000
MTEXTBEGIN
1070
    73
1070
     1
1070
    44
1040
1.0
1070
    74
1070
     0
1000
MTEXTEND
  0
POINT
  5
E6F
330
E03
100
AcDbEntity
  8
Defpoints
  6
Continuous
 62
     0
100
AcDbPoint
 10
465.9983444318502
 20
116.4917148168849
 30
0.0
  0
POINT
  5
E70
330
E03
100
AcDbEntity
  8
Defpoints
  6
Continuous
 62
     0
100
AcDbPoint
 10
464.4983444318502
 20
116.4917148168849
 30
0.0
  0
POINT
  5
E71
330
E03
100
AcDbEntity
  8
Defpoints
  6
Continuous
 62
     0
100
AcDbPoint
 10
464.4983444318502
 20
119.9236648404533
 30
0.0
  0
ENDBLK
  5
E05
330
E03
100
AcDbEntity
  8
0
100
AcDbBlockEnd
  0
BLOCK
  5
E4B
330
E4A
100
AcDbEntity
  8
0
100
AcDbBlockBegin
  2
*D57
 70
     1
 10
0.0
 20
0.0
 30
0.0
  3
*D57
  1

  0
LINE
  5
E7B
330
E4A
100
AcDbEntity
  8
0
  6
Continuous
 62
     0
370
    -2
100
AcDbLine
 10
406.49834443185
 20
116.1167148168849
 30
0.0
 11
401.2509842743843
 21
116.1167148168849
 31
0.0
  0
LINE
  5
E7C
330
E4A
100
AcDbEntity
  8
0
  6
Continuous
 62
     0
370
    -2
100
AcDbLine
 10
406.49834443185
 20
108.1167148168849
 30
0.0
 11
401.2509842743843
 21
108.1167148168849
 31
0.0
  0
LINE
  5
E7D
330
E4A
100
AcDbEntity
  8
0
  6
Continuous
 62
     0
370
    -2
100
AcDbLine
 10
402.5009842743843
 20
105.6167148168849
 30
0.0
 11
402.5009842743843
 21
103.1167148168849
 31
0.0
  0
LINE
  5
E7E
330
E4A
100
AcDbEntity
  8
0
  6
Continuous
 62
     0
370
    -2
100
AcDbLine
 10
402.5009842743843
 20
118.6167148168849
 30
0.0
 11
402.5009842743844
 21
129.3667148168849
 31
0.0
  0
LINE
  5
E7F
330
E4A
100
AcDbEntity
  8
0
  6
Continuous
 62
     0
370
    -2
100
AcDbLine
 10
402.5009842743843
 20
108.1167148168849
 30
0.0
 11
402.5009842743843
 21
116.1167148168849
 31
0.0
  0
INSERT
  5
E80
330
E4A
100
AcDbEntity
  8
0
  6
Continuous
 62
     0
370
    -2
100
AcDbBlockReference
  2
_Open30
 10
402.5009842743843
 20
108.1167148168849
 30
0.0
 41
2.5
 42
2.5
 43
2.5
 50
90.0
  0
INSERT
  5
E81
330
E4A
100
AcDbEntity
  8
0
  6
Continuous
 62
     0
370
    -2
100
AcDbBlockReference
  2
_Open30
 10
402.5009842743843
 20
116.1167148168849
 30
0.0
 41
2.5
 42
2.5
 43
2.5
 50
270.0
  0
MTEXT
  5
E82
330
E4A
100
AcDbEntity
  8
0
  6
Continuous
 62
     4
100
AcDbMText
 10
400.3759842743843
 20
125.2417148168849
 30
0.0
 40
3.0
 41
0.0
 71
     5
 72
     1
  1
%%C16
 11
0.0000000000000001
 21
1.0
 31
0.0
 73
     1
 44
1.0
1001
ACAD
1000
MTEXTBEGIN
1070
    73
1070
     1
1070
    44
1040
1.0
1070
    74
1070
     0
1000
MTEXTEND
  0
POINT
  5
E83
330
E4A
100
AcDbEntity
  8
Defpoints
  6
Continuous
 62
     0
100
AcDbPoint
 10
406.7483444318501
 20
116.1167148168849
 30
0.0
  0
POINT
  5
E84
330
E4A
100
AcDbEntity
  8
Defpoints
  6
Continuous
 62
     0
100
AcDbPoint
 10
406.7483444318501
 20
108.1167148168849
 30
0.0
  0
POINT
  5
E85
330
E4A
100
AcDbEntity
  8
Defpoints
  6
Continuous
 62
     0
100
AcDbPoint
 10
402.5009842743843
 20
108.1167148168849
 30
0.0
  0
ENDBLK
  5
E4C
330
E4A
100
AcDbEntity
  8
0
100
AcDbBlockEnd
  0
BLOCK
  5
E5A
330
E59
100
AcDbEntity
  8
0
100
AcDbBlockBegin
  2
*D58
 70
     1
 10
0.0
 20
0.0
 30
0.0
  3
*D58
  1

  0
LINE
  5
E86
330
E59
100
AcDbEntity
  8
0
  6
Continuous
 62
     0
370
    -2
100
AcDbLine
 10
429.49834443185
 20
118.8667148168849
 30
0.0
 11
396.1627854023934
 21
118.8667148168849
 31
0.0
  0
LINE
  5
E87
330
E59
100
AcDbEntity
  8
0
  6
Continuous
 62
     0
370
    -2
100
AcDbLine
 10
429.49834443185
 20
105.3667148168849
 30
0.0
 11
396.1627854023934
 21
105.3667148168849
 31
0.0
  0
LINE
  5
E88
330
E59
100
AcDbEntity
  8
0
  6
Continuous
 62
     0
370
    -2
100
AcDbLine
 10
397.4127854023934
 20
102.8667148168849
 30
0.0
 11
397.4127854023934
 21
100.3667148168849
 31
0.0
  0
LINE
  5
E89
330
E59
100
AcDbEntity
  8
0
  6
Continuous
 62
     0
370
    -2
100
AcDbLine
 10
397.4127854023934
 20
121.3667148168849
 30
0.0
 11
397.4127854023935
 21
133.1167148168849
 31
0.0
  0
LINE
  5
E8A
330
E59
100
AcDbEntity
  8
0
  6
Continuous
 62
     0
370
    -2
100
AcDbLine
 10
397.4127854023934
 20
105.3667148168849
 30
0.0
 11
397.4127854023934
 21
118.8667148168849
 31
0.0
  0
INSERT
  5
E8B
330
E59
100
AcDbEntity
  8
0
  6
Continuous
 62
     0
370
    -2
100
AcDbBlockReference
  2
_Open30
 10
397.4127854023934
 20
105.3667148168849
 30
0.0
 41
2.5
 42
2.5
 43
2.5
 50
90.0
  0
INSERT
  5
E8C
330
E59
100
AcDbEntity
  8
0
  6
Continuous
 62
     0
370
    -2
100
AcDbBlockReference
  2
_Open30
 10
397.4127854023934
 20
118.8667148168849
 30
0.0
 41
2.5
 42
2.5
 43
2.5
 50
270.0
  0
MTEXT
  5
E8D
330
E59
100
AcDbEntity
  8
0
  6
Continuous
 62
     4
100
AcDbMText
 10
395.2877854023934
 20
128.4917148168849
 30
0.0
 40
3.0
 41
0.0
 71
     5
 72
     1
  1
%%C27
 11
0.0000000000000001
 21
1.0
 31
0.0
 73
     1
 44
1.0
1001
ACAD
1000
MTEXTBEGIN
1070
    73
1070
     1
1070
    44
1040
1.0
1070
    74
1070
     0
1000
MTEXTEND
  0
POINT
  5
E8E
330
E59
100
AcDbEntity
  8
Defpoints
  6
Continuous
 62
     0
100
AcDbPoint
 10
429.7483444318499
 20
118.8667148168849
 30
0.0
  0
POINT
  5
E8F
330
E59
100
AcDbEntity
  8
Defpoints
  6
Continuous
 62
     0
100
AcDbPoint
 10
429.7483444318499
 20
105.3667148168849
 30
0.0
  0
POINT
  5
E90
330
E59
100
AcDbEntity
  8
Defpoints
  6
Continuous
 62
     0
100
AcDbPoint
 10
397.4127854023934
 20
105.3667148168849
 30
0.0
  0
ENDBLK
  5
E5B
330
E59
100
AcDbEntity
  8
0
100
AcDbBlockEnd
  0
BLOCK
  5
E95
330
E94
100
AcDbEntity
  8
0
100
AcDbBlockBegin
  2
*D59
 70
     1
 10
0.0
 20
0.0
 30
0.0
  3
*D59
  1

  0
LINE
  5
F29
330
E94
100
AcDbEntity
  8
0
  6
Continuous
 62
     0
370
    -2
100
AcDbLine
 10
355.5971834704052
 20
104.6087148168849
 30
0.0
 11
355.5971834704052
 21
88.85160327636549
 31
0.0
  0
LINE
  5
F2A
330
E94
100
AcDbEntity
  8
0
  6
Continuous
 62
     0
370
    -2
100
AcDbLine
 10
238.0971834704052
 20
105.8667148168849
 30
0.0
 11
238.0971834704052
 21
88.85160327636549
 31
0.0
  0
LINE
  5
F2B
330
E94
100
AcDbEntity
  8
0
  6
Continuous
 62
     0
370
    -2
100
AcDbLine
 10
353.0971834704052
 20
90.10160327636549
 30
0.0
 11
240.5971834704052
 21
90.10160327636549
 31
0.0
  0
INSERT
  5
F2C
330
E94
100
AcDbEntity
  8
0
  6
Continuous
 62
     0
370
    -2
100
AcDbBlockReference
  2
_Open30
 10
355.5971834704052
 20
90.10160327636549
 30
0.0
 41
2.5
 42
2.5
 43
2.5
  0
INSERT
  5
F2D
330
E94
100
AcDbEntity
  8
0
  6
Continuous
 62
     0
370
    -2
100
AcDbBlockReference
  2
_Open30
 10
238.0971834704052
 20
90.10160327636549
 30
0.0
 41
2.5
 42
2.5
 43
2.5
 50
180.0
  0
MTEXT
  5
F2E
330
E94
100
AcDbEntity
  8
0
  6
Continuous
 62
     4
100
AcDbMText
 10
296.7245910152989
 20
92.2266032763655
 30
0.0
 40
3.0
 41
0.0
 71
     5
 72
     1
  1
235
 73
     1
 44
1.0
1001
ACAD
1000
MTEXTBEGIN
1070
    73
1070
     1
1070
    44
1040
1.0
1070
    74
1070
     0
1000
MTEXTEND
  0
POINT
  5
F2F
330
E94
100
AcDbEntity
  8
Defpoints
  6
Continuous
 62
     0
100
AcDbPoint
 10
355.5971834704052
 20
104.8587148168849
 30
0.0
  0
POINT
  5
F30
330
E94
100
AcDbEntity
  8
Defpoints
  6
Continuous
 62
     0
100
AcDbPoint
 10
238.0971834704052
 20
106.1167148168849
 30
0.0
  0
POINT
  5
F31
330
E94
100
AcDbEntity
  8
Defpoints
  6
Continuous
 62
     0
100
AcDbPoint
 10
238.0971834704052
 20
90.10160327636549
 30
0.0
  0
ENDBLK
  5
E96
330
E94
100
AcDbEntity
  8
0
100
AcDbBlockEnd
  0
BLOCK
  5
ED7
330
ED6
100
AcDbEntity
  8
0
100
AcDbBlockBegin
  2
*D60
 70
     1
 10
0.0
 20
0.0
 30
0.0
  3
*D60
  1

  0
LINE
  5
EEB
330
ED6
100
AcDbEntity
  8
0
  6
Continuous
 62
     0
370
    -2
100
AcDbLine
 10
356.3471834704052
 20
103.6167148168849
 30
0.0
 11
364.4104107435546
 21
103.6167148168849
 31
0.0
  0
LINE
  5
EEC
330
ED6
100
AcDbEntity
  8
0
  6
Continuous
 62
     0
370
    -2
100
AcDbLine
 10
317.5966834704052
 20
142.3667148168849
 30
0.0
 11
364.4104107435547
 21
142.3667148168849
 31
0.0
  0
LINE
  5
EED
330
ED6
100
AcDbEntity
  8
0
  6
Continuous
 62
     0
370
    -2
100
AcDbLine
 10
363.1604107435546
 20
106.1167148168849
 30
0.0
 11
363.1604107435547
 21
139.8667148168849
 31
0.0
  0
INSERT
  5
EEE
330
ED6
100
AcDbEntity
  8
0
  6
Continuous
 62
     0
370
    -2
100
AcDbBlockReference
  2
_Open30
 10
363.1604107435546
 20
103.6167148168849
 30
0.0
 41
2.5
 42
2.5
 43
2.5
 50
270.0
  0
INSERT
  5
EEF
330
ED6
100
AcDbEntity
  8
0
  6
Continuous
 62
     0
370
    -2
100
AcDbBlockReference
  2
_Open30
 10
363.1604107435547
 20
142.3667148168849
 30
0.0
 41
2.5
 42
2.5
 43
2.5
 50
90.0
  0
MTEXT
  5
EF0
330
ED6
100
AcDbEntity
  8
0
  6
Continuous
 62
     4
100
AcDbMText
 10
361.0354107435546
 20
123.3160992411544
 30
0.0
 40
3.0
 41
0.0
 71
     5
 72
     1
  1
78
 11
0.0000000000000001
 21
1.0
 31
0.0
 73
     1
 44
1.0
1001
ACAD
1000
MTEXTBEGIN
1070
    73
1070
     1
1070
    44
1040
1.0
1070
    74
1070
     0
1000
MTEXTEND
  0
POINT
  5
EF1
330
ED6
100
AcDbEntity
  8
Defpoints
  6
Continuous
 62
     0
100
AcDbPoint
 10
356.0971834704052
 20
103.6167148168849
 30
0.0
  0
POINT
  5
EF2
330
ED6
100
AcDbEntity
  8
Defpoints
  6
Continuous
 62
     0
100
AcDbPoint
 10
317.3466834704052
 20
142.3667148168849
 30
0.0
  0
POINT
  5
EF3
330
ED6
100
AcDbEntity
  8
Defpoints
  6
Continuous
 62
     0
100
AcDbPoint
 10
363.1604107435547
 20
142.3667148168849
 30
0.0
  0
ENDBLK
  5
ED8
330
ED6
100
AcDbEntity
  8
0
100
AcDbBlockEnd
  0
BLOCK
  5
EF6
330
EF5
100
AcDbEntity
  8
0
100
AcDbBlockBegin
  2
*D61
 70
     1
 10
0.0
 20
0.0
 30
0.0
  3
*D61
  1

  0
LINE
  5
F01
330
EF5
100
AcDbEntity
  8
0
  6
Continuous
 62
     0
370
    -2
100
AcDbLine
 10
293.0971834704052
 20
103.6167148168849
 30
0.0
 11
293.0971834704052
 21
96.30652236499964
 31
0.0
  0
LINE
  5
F02
330
EF5
100
AcDbEntity
  8
0
  6
Continuous
 62
     0
370
    -2
100
AcDbLine
 10
355.5971834704052
 20
104.6087148168849
 30
0.0
 11
355.5971834704052
 21
96.30652236499964
 31
0.0
  0
LINE
  5
F03
330
EF5
100
AcDbEntity
  8
0
  6
Continuous
 62
     0
370
    -2
100
AcDbLine
 10
295.5971834704052
 20
97.55652236499964
 30
0.0
 11
353.0971834704052
 21
97.55652236499964
 31
0.0
  0
INSERT
  5
F04
330
EF5
100
AcDbEntity
  8
0
  6
Continuous
 62
     0
370
    -2
100
AcDbBlockReference
  2
_Open30
 10
293.0971834704052
 20
97.55652236499964
 30
0.0
 41
2.5
 42
2.5
 43
2.5
 50
180.0
  0
INSERT
  5
F05
330
EF5
100
AcDbEntity
  8
0
  6
Continuous
 62
     0
370
    -2
100
AcDbBlockReference
  2
_Open30
 10
355.5971834704052
 20
97.55652236499964
 30
0.0
 41
2.5
 42
2.5
 43
2.5
  0
MTEXT
  5
F06
330
EF5
100
AcDbEntity
  8
0
  6
Continuous
 62
     4
100
AcDbMText
 10
328.1390082756498
 20
99.68152236499964
 30
0.0
 40
3.0
 41
0.0
 71
     5
 72
     1
  1
125
 73
     1
 44
1.0
1001
ACAD
1000
MTEXTBEGIN
1070
    73
1070
     1
1070
    44
1040
1.0
1070
    74
1070
     0
1000
MTEXTEND
  0
POINT
  5
F07
330
EF5
100
AcDbEntity
  8
Defpoints
  6
Continuous
 62
     0
100
AcDbPoint
 10
293.0971834704052
 20
103.8667148168849
 30
0.0
  0
POINT
  5
F08
330
EF5
100
AcDbEntity
  8
Defpoints
  6
Continuous
 62
     0
100
AcDbPoint
 10
355.5971834704052
 20
104.8587148168849
 30
0.0
  0
POINT
  5
F09
330
EF5
100
AcDbEntity
  8
Defpoints
  6
Continuous
 62
     0
100
AcDbPoint
 10
355.5971834704052
 20
97.55652236499964
 30
0.0
  0
ENDBLK
  5
EF7
330
EF5
100
AcDbEntity
  8
0
100
AcDbBlockEnd
  0
BLOCK
  5
F0C
330
F0B
100
AcDbEntity
  8
0
100
AcDbBlockBegin
  2
*D62
 70
     1
 10
0.0
 20
0.0
 30
0.0
  3
*D62
  1

  0
LINE
  5
F20
330
F0B
100
AcDbEntity
  8
0
  6
Continuous
 62
     0
370
    -2
100
AcDbLine
 10
237.3471834704052
 20
103.6167148168849
 30
0.0
 11
231.1516378974716
 21
103.6167148168849
 31
0.0
  0
LINE
  5
F21
330
F0B
100
AcDbEntity
  8
0
  6
Continuous
 62
     0
370
    -2
100
AcDbLine
 10
237.3471834704052
 20
121.1167148168849
 30
0.0
 11
231.1516378974716
 21
121.1167148168849
 31
0.0
  0
LINE
  5
F22
330
F0B
100
AcDbEntity
  8
0
  6
Continuous
 62
     0
370
    -2
100
AcDbLine
 10
232.4016378974716
 20
106.1167148168849
 30
0.0
 11
232.4016378974716
 21
118.6167148168849
 31
0.0
  0
INSERT
  5
F23
330
F0B
100
AcDbEntity
  8
0
  6
Continuous
 62
     0
370
    -2
100
AcDbBlockReference
  2
_Open30
 10
232.4016378974716
 20
103.6167148168849
 30
0.0
 41
2.5
 42
2.5
 43
2.5
 50
270.0
  0
INSERT
  5
F24
330
F0B
100
AcDbEntity
  8
0
  6
Continuous
 62
     0
370
    -2
100
AcDbBlockReference
  2
_Open30
 10
232.4016378974716
 20
121.1167148168849
 30
0.0
 41
2.5
 42
2.5
 43
2.5
 50
90.0
  0
MTEXT
  5
F25
330
F0B
100
AcDbEntity
  8
0
  6
Continuous
 62
     4
100
AcDbMText
 10
230.2766378974716
 20
112.3667148168849
 30
0.0
 40
3.0
 41
0.0
 71
     5
 72
     1
  1
35
 11
0.0000000000000001
 21
1.0
 31
0.0
 73
     1
 44
1.0
1001
ACAD
1000
MTEXTBEGIN
1070
    73
1070
     1
1070
    44
1040
1.0
1070
    74
1070
     0
1000
MTEXTEND
  0
POINT
  5
F26
330
F0B
100
AcDbEntity
  8
Defpoints
  6
Continuous
 62
     0
100
AcDbPoint
 10
237.5971834704052
 20
103.6167148168849
 30
0.0
  0
POINT
  5
F27
330
F0B
100
AcDbEntity
  8
Defpoints
  6
Continuous
 62
     0
100
AcDbPoint
 10
237.5971834704052
 20
121.1167148168849
 30
0.0
  0
POINT
  5
F28
330
F0B
100
AcDbEntity
  8
Defpoints
  6
Continuous
 62
     0
100
AcDbPoint
 10
232.4016378974716
 20
121.1167148168849
 30
0.0
  0
ENDBLK
  5
F0D
330
F0B
100
AcDbEntity
  8
0
100
AcDbBlockEnd
  0
ENDSEC
  0
SECTION
  2
ENTITIES
  0
LINE
  5
A0
330
6B
100
AcDbEntity
  8
0
 62
     3
100
AcDbLine
 10
355.61886
 20
184.450047
 30
0.0
 11
355.61886
 21
183.201488
 31
0.0
  0
LINE
  5
A4
330
6B
100
AcDbEntity
  8
0
 62
     2
100
AcDbLine
 10
343.705522
 20
177.810757
 30
0.0
 11
344.141269
 21
177.583289
 31
0.0
  0
LINE
  5
A5
330
6B
100
AcDbEntity
  8
0
 62
     2
100
AcDbLine
 10
343.705522
 20
174.080127
 30
0.0
 11
344.141269
 21
174.307595
 31
0.0
  0
LINE
  5
A6
330
6B
100
AcDbEntity
  8
0
 62
     2
100
AcDbLine
 10
344.141269
 20
177.583289
 30
0.0
 11
344.141269
 21
174.307595
 31
0.0
  0
LINE
  5
A7
330
6B
100
AcDbEntity
  8
0
 62
     2
100
AcDbLine
 10
345.244787
 20
174.080127
 30
0.0
 11
344.809039
 21
174.307595
 31
0.0
  0
LINE
  5
A8
330
6B
100
AcDbEntity
  8
0
 62
     2
100
AcDbLine
 10
344.809039
 20
176.304454
 30
0.0
 11
344.809039
 21
174.307595
 31
0.0
  0
LINE
  5
A9
330
6B
100
AcDbEntity
  8
0
 62
     2
100
AcDbLine
 10
347.78665
 20
177.810757
 30
0.0
 11
347.350902
 21
177.583289
 31
0.0
  0
LINE
  5
AA
330
6B
100
AcDbEntity
  8
0
 62
     2
100
AcDbLine
 10
346.247384
 20
177.810757
 30
0.0
 11
346.683132
 21
177.583289
 31
0.0
  0
LINE
  5
AB
330
6B
100
AcDbEntity
  8
0
 62
     2
100
AcDbLine
 10
346.683132
 20
177.583289
 30
0.0
 11
346.683132
 21
176.140952
 31
0.0
  0
LINE
  5
AC
330
6B
100
AcDbEntity
  8
0
 62
     2
100
AcDbLine
 10
347.350902
 20
177.583289
 30
0.0
 11
347.350902
 21
173.8685659999999
 31
0.0
  0
LINE
  5
AD
330
6B
100
AcDbEntity
  8
0
 62
     2
100
AcDbLine
 10
348.001947
 20
177.810755
 30
0.0
 11
348.437693
 21
177.583283
 31
0.0
  0
LINE
  5
AE
330
6B
100
AcDbEntity
  8
0
 62
     2
100
AcDbLine
 10
348.001869
 20
174.080177
 30
0.0
 11
348.437625
 21
174.30763
 31
0.0
  0
LINE
  5
AF
330
6B
100
AcDbEntity
  8
0
 62
     2
100
AcDbLine
 10
348.437693
 20
177.583283
 30
0.0
 11
348.437693
 21
174.30763
 31
0.0
  0
LINE
  5
B0
330
6B
100
AcDbEntity
  8
0
 62
     2
100
AcDbLine
 10
349.931483
 20
177.810731
 30
0.0
 11
349.495732
 21
177.583269
 31
0.0
  0
LINE
  5
B1
330
6B
100
AcDbEntity
  8
0
 62
     2
100
AcDbLine
 10
349.495732
 20
177.583269
 30
0.0
 11
349.495732
 21
174.307615
 31
0.0
  0
LINE
  5
B2
330
6B
100
AcDbEntity
  8
0
 62
     2
100
AcDbLine
 10
349.931483
 20
174.080153
 30
0.0
 11
349.495732
 21
174.307615
 31
0.0
  0
LINE
  5
B3
330
6B
100
AcDbEntity
  8
0
 62
     2
100
AcDbLine
 10
353.621737
 20
177.81069
 30
0.0
 11
354.057484
 21
177.58322
 31
0.0
  0
LINE
  5
B4
330
6B
100
AcDbEntity
  8
0
 62
     2
100
AcDbLine
 10
354.057484
 20
177.58322
 30
0.0
 11
354.057427
 21
174.307566
 31
0.0
  0
LINE
  5
B5
330
6B
100
AcDbEntity
  8
0
 62
     2
100
AcDbLine
 10
353.621672
 20
174.080112
 30
0.0
 11
354.057427
 21
174.307566
 31
0.0
  0
LINE
  5
B6
330
6B
100
AcDbEntity
  8
0
 62
     2
100
AcDbLine
 10
355.573998
 20
177.81069
 30
0.0
 11
355.138251
 21
177.58322
 31
0.0
  0
LINE
  5
B7
330
6B
100
AcDbEntity
  8
0
 62
     2
100
AcDbLine
 10
355.574063
 20
174.080112
 30
0.0
 11
355.138308
 21
174.307566
 31
0.0
  0
LINE
  5
B8
330
6B
100
AcDbEntity
  8
0
 62
     2
100
AcDbLine
 10
355.777725
 20
177.81069
 30
0.0
 11
356.213473
 21
177.58322
 31
0.0
  0
LINE
  5
B9
330
6B
100
AcDbEntity
  8
0
 62
     2
100
AcDbLine
 10
355.77766
 20
174.080112
 30
0.0
 11
356.213415
 21
174.307566
 31
0.0
  0
LINE
  5
BA
330
6B
100
AcDbEntity
  8
0
 62
     2
100
AcDbLine
 10
357.729986
 20
177.81069
 30
0.0
 11
357.294239
 21
177.58322
 31
0.0
  0
LINE
  5
BB
330
6B
100
AcDbEntity
  8
0
 62
     2
100
AcDbLine
 10
357.294239
 20
177.58322
 30
0.0
 11
357.294297
 21
174.307566
 31
0.0
  0
LINE
  5
BC
330
6B
100
AcDbEntity
  8
0
 62
     2
100
AcDbLine
 10
357.730052
 20
174.080112
 30
0.0
 11
357.294297
 21
174.307566
 31
0.0
  0
LINE
  5
BD
330
6B
100
AcDbEntity
  8
0
 62
     2
100
AcDbLine
 10
356.213448
 20
176.156087
 30
0.0
 11
355.138275
 21
176.156087
 31
0.0
  0
LINE
  5
BE
330
6B
100
AcDbEntity
  8
0
 62
     2
100
AcDbLine
 10
356.21344
 20
175.734797
 30
0.0
 11
355.138283
 21
175.734797
 31
0.0
  0
LINE
  5
BF
330
6B
100
AcDbEntity
  8
0
 62
     2
100
AcDbLine
 10
356.213473
 20
177.58322
 30
0.0
 11
356.213448
 21
176.156087
 31
0.0
  0
LINE
  5
C0
330
6B
100
AcDbEntity
  8
0
 62
     2
100
AcDbLine
 10
356.21344
 20
175.734797
 30
0.0
 11
356.213415
 21
174.307566
 31
0.0
  0
LINE
  5
C1
330
6B
100
AcDbEntity
  8
0
 62
     2
100
AcDbLine
 10
355.138251
 20
177.58322
 30
0.0
 11
355.138275
 21
176.156087
 31
0.0
  0
LINE
  5
C2
330
6B
100
AcDbEntity
  8
0
 62
     2
100
AcDbLine
 10
355.138283
 20
175.734797
 30
0.0
 11
355.138308
 21
174.307566
 31
0.0
  0
LINE
  5
C3
330
6B
100
AcDbEntity
  8
0
 62
     2
100
AcDbLine
 10
357.936946
 20
177.81069
 30
0.0
 11
358.372693
 21
177.58322
 31
0.0
  0
LINE
  5
C4
330
6B
100
AcDbEntity
  8
0
 62
     2
100
AcDbLine
 10
358.372693
 20
177.58322
 30
0.0
 11
358.372636
 21
174.307566
 31
0.0
  0
LINE
  5
C5
330
6B
100
AcDbEntity
  8
0
 62
     2
100
AcDbLine
 10
357.93688
 20
174.080112
 30
0.0
 11
358.372636
 21
174.307566
 31
0.0
  0
LINE
  5
C6
330
6B
100
AcDbEntity
  8
0
 62
     2
100
AcDbLine
 10
359.866456
 20
177.81069
 30
0.0
 11
359.430709
 21
177.58322
 31
0.0
  0
LINE
  5
C7
330
6B
100
AcDbEntity
  8
0
 62
     2
100
AcDbLine
 10
359.430709
 20
177.58322
 30
0.0
 11
359.430766
 21
174.307566
 31
0.0
  0
LINE
  5
C8
330
6B
100
AcDbEntity
  8
0
 62
     2
100
AcDbLine
 10
359.866521
 20
174.080112
 30
0.0
 11
359.430766
 21
174.307566
 31
0.0
  0
LINE
  5
C9
330
6B
100
AcDbEntity
  8
0
 62
     2
100
AcDbLine
 10
360.080815
 20
177.81069
 30
0.0
 11
360.516563
 21
177.58322
 31
0.0
  0
LINE
  5
CA
330
6B
100
AcDbEntity
  8
0
 62
     2
100
AcDbLine
 10
360.516563
 20
177.58322
 30
0.0
 11
360.516505
 21
174.307566
 31
0.0
  0
LINE
  5
CB
330
6B
100
AcDbEntity
  8
0
 62
     2
100
AcDbLine
 10
360.08075
 20
174.080112
 30
0.0
 11
360.516505
 21
174.307566
 31
0.0
  0
ARC
  5
CC
330
6B
100
AcDbEntity
  8
0
 62
     2
100
AcDbCircle
 10
352.229825
 20
175.954832
 30
0.0
 40
2.086285999999998
100
AcDbArc
 50
97.701524
 51
270.0
  0
ARC
  5
CD
330
6B
100
AcDbEntity
  8
0
 62
     2
100
AcDbCircle
 10
365.110426
 20
175.933875
 30
0.0
 40
2.108943
100
AcDbArc
 50
0.31425
 51
69.00558199999998
  0
ARC
  5
CE
330
6B
100
AcDbEntity
  8
0
 62
     2
100
AcDbCircle
 10
365.571102
 20
175.933875
 30
0.0
 40
2.108943
100
AcDbArc
 50
110.994418
 51
148.116611
  0
ARC
  5
CF
330
6B
100
AcDbEntity
  8
0
 62
     2
100
AcDbCircle
 10
365.110426
 20
175.957009
 30
0.0
 40
2.108943
100
AcDbArc
 50
290.994418
 51
359.68575
  0
ARC
  5
D0
330
6B
100
AcDbEntity
  8
0
 62
     2
100
AcDbCircle
 10
365.571102
 20
175.957009
 30
0.0
 40
2.108943
100
AcDbArc
 50
211.883389
 51
249.005582
  0
ARC
  5
D1
330
6B
100
AcDbEntity
  8
0
 62
     2
100
AcDbCircle
 10
365.3407640000001
 20
176.808247
 30
0.0
 40
1.214070999999999
100
AcDbArc
 50
64.365172
 51
115.634828
  0
ARC
  5
D2
330
6B
100
AcDbEntity
  8
0
 62
     2
100
AcDbCircle
 10
365.3407640000001
 20
175.082637
 30
0.0
 40
1.214070999999999
100
AcDbArc
 50
244.365172
 51
295.634828
  0
ARC
  5
D3
330
6B
100
AcDbEntity
  8
0
 62
     2
100
AcDbCircle
 10
365.3407640000001
 20
176.831309
 30
0.0
 40
0.5958560000000001
100
AcDbArc
 50
19.486606
 51
160.513394
  0
ARC
  5
D4
330
6B
100
AcDbEntity
  8
0
 62
     2
100
AcDbCircle
 10
365.3407640000001
 20
175.059575
 30
0.0
 40
0.5958560000000001
100
AcDbArc
 50
199.4866059999999
 51
340.513394
  0
ARC
  5
D5
330
6B
100
AcDbEntity
  8
0
 62
     3
100
AcDbCircle
 10
360.598291
 20
153.717382
 30
0.0
 40
26.04
100
AcDbArc
 50
69.50571500000001
 51
81.689988
  0
ARC
  5
D6
330
6B
100
AcDbEntity
  8
0
 62
     3
100
AcDbCircle
 10
360.598291
 20
198.173502
 30
0.0
 40
26.04
100
AcDbArc
 50
278.310012
 51
290.494285
  0
ARC
  5
D7
330
6B
100
AcDbEntity
  8
0
 62
     3
100
AcDbCircle
 10
368.906496
 20
175.945442
 30
0.0
 40
2.31
100
AcDbArc
 50
290.494285
 51
69.50571500000001
  0
ARC
  5
D8
330
6B
100
AcDbEntity
  8
0
 62
     3
100
AcDbCircle
 10
341.606496
 20
175.945442
 30
0.0
 40
2.31
100
AcDbArc
 50
110.494285
 51
249.505715
  0
ARC
  5
D9
330
6B
100
AcDbEntity
  8
0
 62
     3
100
AcDbCircle
 10
349.9147
 20
153.717382
 30
0.0
 40
26.04
100
AcDbArc
 50
98.31001200000001
 51
110.494285
  0
ARC
  5
DA
330
6B
100
AcDbEntity
  8
0
 62
     3
100
AcDbCircle
 10
349.9147
 20
198.173502
 30
0.0
 40
26.04
100
AcDbArc
 50
249.505715
 51
261.689988
  0
ARC
  5
DB
330
6B
100
AcDbEntity
  8
0
 62
     3
100
AcDbCircle
 10
355.256496
 20
117.145442
 30
0.0
 40
63.0
100
AcDbArc
 50
81.689988
 51
98.31001200000001
  0
ARC
  5
DC
330
6B
100
AcDbEntity
  8
0
 62
     3
100
AcDbCircle
 10
355.256496
 20
234.745442
 30
0.0
 40
63.0
100
AcDbArc
 50
261.689988
 51
278.310012
  0
ARC
  5
DD
330
6B
100
AcDbEntity
  8
0
 62
     3
100
AcDbCircle
 10
355.256496
 20
117.145442
 30
0.0
 40
62.37
100
AcDbArc
 50
81.689988
 51
98.31001200000001
  0
ARC
  5
DE
330
6B
100
AcDbEntity
  8
0
 62
     3
100
AcDbCircle
 10
355.256496
 20
234.745442
 30
0.0
 40
62.37
100
AcDbArc
 50
261.689988
 51
278.310012
  0
ARC
  5
DF
330
6B
100
AcDbEntity
  8
0
 62
     3
100
AcDbCircle
 10
360.598291
 20
198.173502
 30
0.0
 40
25.41
100
AcDbArc
 50
278.310012
 51
290.494285
  0
ARC
  5
E0
330
6B
100
AcDbEntity
  8
0
 62
     3
100
AcDbCircle
 10
360.598291
 20
153.717382
 30
0.0
 40
25.41
100
AcDbArc
 50
69.50571500000001
 51
81.689988
  0
ARC
  5
E1
330
6B
100
AcDbEntity
  8
0
 62
     3
100
AcDbCircle
 10
368.906496
 20
175.945442
 30
0.0
 40
1.679999999999999
100
AcDbArc
 50
290.494285
 51
69.50571500000001
  0
ARC
  5
E2
330
6B
100
AcDbEntity
  8
0
 62
     3
100
AcDbCircle
 10
341.606496
 20
175.945442
 30
0.0
 40
1.679999999999999
100
AcDbArc
 50
110.494285
 51
249.505715
  0
ARC
  5
E3
330
6B
100
AcDbEntity
  8
0
 62
     3
100
AcDbCircle
 10
349.9147
 20
153.717382
 30
0.0
 40
25.41
100
AcDbArc
 50
98.31001200000001
 51
110.494285
  0
ARC
  5
E4
330
6B
100
AcDbEntity
  8
0
 62
     3
100
AcDbCircle
 10
349.9147
 20
198.173502
 30
0.0
 40
25.41
100
AcDbArc
 50
249.505715
 51
261.689988
  0
LINE
  5
E5
330
6B
100
AcDbEntity
  8
0
 62
     2
100
AcDbLine
 10
359.866457
 20
173.8685659999999
 30
0.0
 11
357.9369450000001
 21
173.8685659999999
 31
0.0
  0
LINE
  5
E6
330
6B
100
AcDbEntity
  8
0
 62
     2
100
AcDbLine
 10
359.866457
 20
174.080127
 30
0.0
 11
359.866457
 21
173.8685659999999
 31
0.0
  0
LINE
  5
E7
330
6B
100
AcDbEntity
  8
0
 62
     2
100
AcDbLine
 10
357.729987
 20
178.02222
 30
0.0
 11
355.777725
 21
178.02222
 31
0.0
  0
LINE
  5
E8
330
6B
100
AcDbEntity
  8
0
 62
     2
100
AcDbLine
 10
357.729987
 20
178.02222
 30
0.0
 11
357.729987
 21
177.810757
 31
0.0
  0
LINE
  5
E9
330
6B
100
AcDbEntity
  8
0
 62
     2
100
AcDbLine
 10
357.729987
 20
174.080127
 30
0.0
 11
357.729987
 21
173.868467
 31
0.0
  0
LINE
  5
EA
330
6B
100
AcDbEntity
  8
0
 62
     2
100
AcDbLine
 10
357.729987
 20
173.868467
 30
0.0
 11
355.777725
 21
173.868467
 31
0.0
  0
LINE
  5
EB
330
6B
100
AcDbEntity
  8
0
 62
     2
100
AcDbLine
 10
359.866457
 20
178.022318
 30
0.0
 11
359.866457
 21
177.810757
 31
0.0
  0
LINE
  5
EC
330
6B
100
AcDbEntity
  8
0
 62
     2
100
AcDbLine
 10
359.866457
 20
178.022318
 30
0.0
 11
357.9369450000001
 21
178.022318
 31
0.0
  0
LINE
  5
ED
330
6B
100
AcDbEntity
  8
0
 62
     2
100
AcDbLine
 10
357.9369450000001
 20
178.022318
 30
0.0
 11
357.9369450000001
 21
177.810757
 31
0.0
  0
LINE
  5
EE
330
6B
100
AcDbEntity
  8
0
 62
     2
100
AcDbLine
 10
360.080815
 20
174.080127
 30
0.0
 11
360.080815
 21
173.8685659999999
 31
0.0
  0
LINE
  5
EF
330
6B
100
AcDbEntity
  8
0
 62
     2
100
AcDbLine
 10
362.065115
 20
173.8685659999999
 30
0.0
 11
360.080815
 21
173.8685659999999
 31
0.0
  0
LINE
  5
F0
330
6B
100
AcDbEntity
  8
0
 62
     2
100
AcDbLine
 10
361.574579
 20
177.354549
 30
0.0
 11
361.574579
 21
174.536335
 31
0.0
  0
LINE
  5
F1
330
6B
100
AcDbEntity
  8
0
 62
     2
100
AcDbLine
 10
361.574579
 20
174.536335
 30
0.0
 11
361.764628
 21
174.536335
 31
0.0
  0
ARC
  5
F2
330
6B
100
AcDbEntity
  8
0
 62
     2
100
AcDbCircle
 10
360.792842
 20
175.945442
 30
0.0
 40
1.711709999999999
100
AcDbArc
 50
304.591955
 51
55.408045
  0
LINE
  5
F3
330
6B
100
AcDbEntity
  8
0
 62
     2
100
AcDbLine
 10
362.065115
 20
178.022318
 30
0.0
 11
360.080815
 21
178.022318
 31
0.0
  0
LINE
  5
F4
330
6B
100
AcDbEntity
  8
0
 62
     2
100
AcDbLine
 10
360.080815
 20
178.022318
 30
0.0
 11
360.080815
 21
177.810757
 31
0.0
  0
LINE
  5
F5
330
6B
100
AcDbEntity
  8
0
 62
     2
100
AcDbLine
 10
357.9369450000001
 20
174.080127
 30
0.0
 11
357.9369450000001
 21
173.8685659999999
 31
0.0
  0
LINE
  5
F6
330
6B
100
AcDbEntity
  8
0
 62
     2
100
AcDbLine
 10
361.574579
 20
177.354549
 30
0.0
 11
361.764628
 21
177.354549
 31
0.0
  0
LINE
  5
F7
330
6B
100
AcDbEntity
  8
0
 62
     2
100
AcDbLine
 10
349.931419
 20
174.080127
 30
0.0
 11
349.931415
 21
173.868546
 31
0.0
  0
LINE
  5
F8
330
6B
100
AcDbEntity
  8
0
 62
     2
100
AcDbLine
 10
348.001903
 20
173.868585
 30
0.0
 11
349.931415
 21
173.868552
 31
0.0
  0
LINE
  5
F9
330
6B
100
AcDbEntity
  8
0
 62
     2
100
AcDbLine
 10
343.705522
 20
173.8685659999999
 30
0.0
 11
345.244787
 21
173.8685659999999
 31
0.0
  0
ARC
  5
FA
330
6B
100
AcDbEntity
  8
0
 62
     2
100
AcDbCircle
 10
338.723579
 20
175.994349
 30
0.0
 40
14.713566
100
AcDbArc
 50
353.866006
 51
357.694034
  0
LINE
  5
FB
330
6B
100
AcDbEntity
  8
0
 62
     2
100
AcDbLine
 10
352.440159
 20
175.405981
 30
0.0
 11
353.42523
 21
175.402336
 31
0.0
  0
LINE
  5
13E
330
6B
100
AcDbEntity
  8
0
 62
     2
100
AcDbLine
 10
352.444137
 20
176.481196
 30
0.0
 11
353.429208
 21
176.477551
 31
0.0
  0
ARC
  5
13F
330
6B
100
AcDbEntity
  8
0
 62
     2
100
AcDbCircle
 10
338.723579
 20
175.994349
 30
0.0
 40
14.713566
100
AcDbArc
 50
1.881965999999999
 51
5.709994
  0
LINE
  5
140
330
6B
100
AcDbEntity
  8
0
 62
     2
100
AcDbLine
 10
349.931488
 20
178.022299
 30
0.0
 11
349.931484
 21
177.810757
 31
0.0
  0
LINE
  5
141
330
6B
100
AcDbEntity
  8
0
 62
     2
100
AcDbLine
 10
348.001976
 20
178.022338
 30
0.0
 11
349.931488
 21
178.022304
 31
0.0
  0
LINE
  5
142
330
6B
100
AcDbEntity
  8
0
 62
     2
100
AcDbLine
 10
348.0019069999999
 20
174.080127
 30
0.0
 11
348.001903
 21
173.868585
 31
0.0
  0
LINE
  5
143
330
6B
100
AcDbEntity
  8
0
 62
     2
100
AcDbLine
 10
348.001976
 20
178.022338
 30
0.0
 11
348.001972
 21
177.810757
 31
0.0
  0
LINE
  5
144
330
6B
100
AcDbEntity
  8
0
 62
     2
100
AcDbLine
 10
345.244787
 20
174.080127
 30
0.0
 11
345.244787
 21
173.8685659999999
 31
0.0
  0
LINE
  5
145
330
6B
100
AcDbEntity
  8
0
 62
     2
100
AcDbLine
 10
344.809039
 20
176.304454
 30
0.0
 11
346.331469
 21
173.8685659999999
 31
0.0
  0
LINE
  5
146
330
6B
100
AcDbEntity
  8
0
 62
     2
100
AcDbLine
 10
346.331469
 20
173.8685659999999
 30
0.0
 11
347.350902
 21
173.8685659999999
 31
0.0
  0
LINE
  5
147
330
6B
100
AcDbEntity
  8
0
 62
     2
100
AcDbLine
 10
347.78665
 20
178.022318
 30
0.0
 11
347.78665
 21
177.810757
 31
0.0
  0
LINE
  5
148
330
6B
100
AcDbEntity
  8
0
 62
     2
100
AcDbLine
 10
346.247384
 20
178.022318
 30
0.0
 11
347.78665
 21
178.022318
 31
0.0
  0
LINE
  5
149
330
6B
100
AcDbEntity
  8
0
 62
     2
100
AcDbLine
 10
346.247384
 20
178.022318
 30
0.0
 11
346.247384
 21
177.810757
 31
0.0
  0
LINE
  5
14A
330
6B
100
AcDbEntity
  8
0
 62
     2
100
AcDbLine
 10
346.683132
 20
176.140952
 30
0.0
 11
345.448486
 21
178.022318
 31
0.0
  0
LINE
  5
14B
330
6B
100
AcDbEntity
  8
0
 62
     2
100
AcDbLine
 10
343.705522
 20
178.022318
 30
0.0
 11
345.448486
 21
178.022318
 31
0.0
  0
LINE
  5
14C
330
6B
100
AcDbEntity
  8
0
 62
     2
100
AcDbLine
 10
353.621736
 20
178.02222
 30
0.0
 11
355.573998
 21
178.02222
 31
0.0
  0
LINE
  5
14D
330
6B
100
AcDbEntity
  8
0
 62
     2
100
AcDbLine
 10
353.621736
 20
177.810757
 30
0.0
 11
353.621736
 21
178.02222
 31
0.0
  0
LINE
  5
14E
330
6B
100
AcDbEntity
  8
0
 62
     2
100
AcDbLine
 10
353.621736
 20
173.868467
 30
0.0
 11
353.621736
 21
174.080127
 31
0.0
  0
LINE
  5
14F
330
6B
100
AcDbEntity
  8
0
 62
     2
100
AcDbLine
 10
353.621736
 20
173.868467
 30
0.0
 11
355.573998
 21
173.868467
 31
0.0
  0
LINE
  5
150
330
6B
100
AcDbEntity
  8
0
 62
     2
100
AcDbLine
 10
355.777725
 20
174.080127
 30
0.0
 11
355.777725
 21
173.868467
 31
0.0
  0
LINE
  5
151
330
6B
100
AcDbEntity
  8
0
 62
     2
100
AcDbLine
 10
355.573998
 20
174.080127
 30
0.0
 11
355.573998
 21
173.868467
 31
0.0
  0
LINE
  5
152
330
6B
100
AcDbEntity
  8
0
 62
     2
100
AcDbLine
 10
355.573998
 20
177.810757
 30
0.0
 11
355.573998
 21
178.02222
 31
0.0
  0
LINE
  5
153
330
6B
100
AcDbEntity
  8
0
 62
     2
100
AcDbLine
 10
355.777725
 20
177.810757
 30
0.0
 11
355.777725
 21
178.02222
 31
0.0
  0
LINE
  5
154
330
6B
100
AcDbEntity
  8
0
 62
     2
100
AcDbLine
 10
343.705522
 20
174.080127
 30
0.0
 11
343.705522
 21
173.8685659999999
 31
0.0
  0
LINE
  5
155
330
6B
100
AcDbEntity
  8
0
 62
     2
100
AcDbLine
 10
343.705522
 20
178.022318
 30
0.0
 11
343.705522
 21
177.810757
 31
0.0
  0
ARC
  5
156
330
6B
100
AcDbEntity
  8
0
 62
     2
100
AcDbCircle
 10
362.275115
 20
176.38119
 30
0.0
 40
1.641127999999999
100
AcDbArc
 50
17.308749
 51
23.765071
  0
ARC
  5
157
330
6B
100
AcDbEntity
  8
0
 62
     2
100
AcDbCircle
 10
360.876842
 20
175.945442
 30
0.0
 40
3.105725999999998
100
AcDbArc
 50
342.691251
 51
17.308566
  0
ARC
  5
158
330
6B
100
AcDbEntity
  8
0
 62
     2
100
AcDbCircle
 10
362.275115
 20
175.509694
 30
0.0
 40
1.641127999999999
100
AcDbArc
 50
336.234929
 51
342.691251
  0
ARC
  5
159
330
6B
100
AcDbEntity
  8
0
 62
     2
100
AcDbCircle
 10
362.065115
 20
176.38119
 30
0.0
 40
1.641127999999999
100
AcDbArc
 50
17.308749
 51
90.0
  0
ARC
  5
15A
330
6B
100
AcDbEntity
  8
0
 62
     2
100
AcDbCircle
 10
360.666842
 20
175.945442
 30
0.0
 40
3.105725999999998
100
AcDbArc
 50
342.691251
 51
17.308566
  0
ARC
  5
15B
330
6B
100
AcDbEntity
  8
0
 62
     2
100
AcDbCircle
 10
362.065115
 20
175.509694
 30
0.0
 40
1.641127999999999
100
AcDbArc
 50
270.0
 51
342.691251
  0
ARC
  5
15C
330
6B
100
AcDbEntity
  8
0
 62
     2
100
AcDbCircle
 10
351.941175
 20
175.945442
 30
0.0
 40
2.076875999999999
100
AcDbArc
 50
46.75287999999999
 51
89.749998
  0
ARC
  5
15D
330
6B
100
AcDbEntity
  8
0
 62
     2
100
AcDbCircle
 10
351.941175
 20
175.945442
 30
0.0
 40
2.076875999999999
100
AcDbArc
 50
273.976333
 51
312.82312
  0
ARC
  5
15E
330
6B
100
AcDbEntity
  8
0
 62
     2
100
AcDbCircle
 10
363.382983
 20
175.91338
 30
0.0
 40
2.755888999999998
100
AcDbArc
 50
0.6665840000000001
 51
23.903928
  0
ARC
  5
15F
330
6B
100
AcDbEntity
  8
0
 62
     2
100
AcDbCircle
 10
367.298545
 20
175.91338
 30
0.0
 40
2.755888999999998
100
AcDbArc
 50
156.096072
 51
179.333416
  0
ARC
  5
160
330
6B
100
AcDbEntity
  8
0
 62
     2
100
AcDbCircle
 10
363.382983
 20
175.977503
 30
0.0
 40
2.755888999999998
100
AcDbArc
 50
336.096072
 51
359.333416
  0
ARC
  5
161
330
6B
100
AcDbEntity
  8
0
 62
     2
100
AcDbCircle
 10
367.298545
 20
175.977503
 30
0.0
 40
2.755888999999998
100
AcDbArc
 50
180.666584
 51
203.903928
  0
LINE
  5
162
330
6B
100
AcDbEntity
  8
0
 62
     3
100
AcDbLine
 10
442.419497
 20
12.643151
 30
0.0
 11
442.419497
 21
33.64315100000001
 31
0.0
  0
LINE
  5
163
330
6B
100
AcDbEntity
  8
0
 62
     3
100
AcDbLine
 10
455.419497
 20
12.643151
 30
0.0
 11
455.419497
 21
33.64315100000001
 31
0.0
  0
LINE
  5
164
330
6B
100
AcDbEntity
  8
0
 62
     3
100
AcDbLine
 10
468.419497
 20
12.643151
 30
0.0
 11
468.419497
 21
33.64315100000001
 31
0.0
  0
LINE
  5
165
330
6B
100
AcDbEntity
  8
0
 62
     3
100
AcDbLine
 10
442.419497
 20
12.643151
 30
0.0
 11
442.419497
 21
5.643150999999997
 31
0.0
  0
LINE
  5
166
330
6B
100
AcDbEntity
  8
0
 62
     3
100
AcDbLine
 10
415.365887
 20
5.643150999999997
 30
0.0
 11
415.365887
 21
19.643151
 31
0.0
  0
LINE
  5
167
330
6B
100
AcDbEntity
  8
0
 62
     3
100
AcDbLine
 10
425.6978219999998
 20
19.643151
 30
0.0
 11
425.6978219999998
 21
5.643150999999997
 31
0.0
  0
TEXT
  5
168
330
6B
100
AcDbEntity
  8
0
 62
     3
100
AcDbText
 10
444.429815
 20
31.848267
 30
0.0
 40
2.0
  1
A
 41
0.7
100
AcDbText
  0
TEXT
  5
169
330
6B
100
AcDbEntity
  8
0
 62
     3
100
AcDbText
 10
446.9651009999998
 20
31.848267
 30
0.0
 40
2.0
  1
P
 41
0.7
100
AcDbText
  0
TEXT
  5
16A
330
6B
100
AcDbEntity
  8
0
 62
     3
100
AcDbText
 10
449.5003869999998
 20
31.848267
 30
0.0
 40
2.0
  1
P
 41
0.7
100
AcDbText
  0
TEXT
  5
16B
330
6B
100
AcDbEntity
  8
0
 62
     3
100
AcDbText
 10
452.0356729999998
 20
31.848267
 30
0.0
 40
2.0
  1
D
 41
0.7
100
AcDbText
  0
TEXT
  5
16C
330
6B
100
AcDbEntity
  8
0
 62
     3
100
AcDbText
 10
457.4043569999998
 20
31.848267
 30
0.0
 40
2.0
  1
C
 41
0.7
100
AcDbText
  0
TEXT
  5
16D
330
6B
100
AcDbEntity
  8
0
 62
     3
100
AcDbText
 10
459.9396429999997
 20
31.848267
 30
0.0
 40
2.0
  1
H
 41
0.7
100
AcDbText
  0
TEXT
  5
16E
330
6B
100
AcDbEntity
  8
0
 62
     3
100
AcDbText
 10
462.4749289999998
 20
31.848267
 30
0.0
 40
2.0
  1
C
 41
0.7
100
AcDbText
  0
TEXT
  5
16F
330
6B
100
AcDbEntity
  8
0
 62
     3
100
AcDbText
 10
465.010215
 20
31.848267
 30
0.0
 40
2.0
  1
K
 41
0.7
100
AcDbText
  0
TEXT
  5
170
330
6B
100
AcDbEntity
  8
0
 62
     3
100
AcDbText
 10
470.684182
 20
31.848267
 30
0.0
 40
2.0
  1
DESN
 41
1.216762999999998
100
AcDbText
  0
TEXT
  5
171
330
6B
100
AcDbEntity
  8
0
 62
     3
100
AcDbText
 10
385.677823
 20
2.501768999999999
 30
0.0
 40
2.0
  1
NICHIDO IND.CO.LTD
 41
1.274876
100
AcDbText
  0
LINE
  5
172
330
6B
100
AcDbEntity
  8
0
 62
     3
100
AcDbLine
 10
396.060852
 20
35.643151
 30
0.0
 11
396.060852
 21
12.643151
 31
0.0
  0
LINE
  5
173
330
6B
100
AcDbEntity
  8
0
 62
     3
100
AcDbLine
 10
442.419497
 20
5.643150999999997
 30
0.0
 11
442.419497
 21
-4.022571
 31
0.0
  0
LINE
  5
175
330
6B
100
AcDbEntity
  8
0
 62
     3
100
AcDbLine
 10
442.419497
 20
33.64315100000001
 30
0.0
 11
442.419497
 21
35.643151
 31
0.0
  0
LINE
  5
176
330
6B
100
AcDbEntity
  8
0
 62
     3
100
AcDbLine
 10
455.419497
 20
33.64315100000001
 30
0.0
 11
455.419497
 21
35.643151
 31
0.0
  0
LINE
  5
177
330
6B
100
AcDbEntity
  8
0
 62
     3
100
AcDbLine
 10
468.419497
 20
33.64315100000001
 30
0.0
 11
468.419497
 21
35.643151
 31
0.0
  0
LINE
  5
178
330
6B
100
AcDbEntity
  8
0
 62
     3
100
AcDbLine
 10
455.419497
 20
12.643151
 30
0.0
 11
455.419497
 21
5.643150999999997
 31
0.0
  0
TEXT
  5
179
330
6B
100
AcDbEntity
  8
0
 62
     3
100
AcDbText
 10
443.5319409999998
 20
6.507837999999997
 30
0.0
 40
3.2
  1
作成日
 41
1.017225999999997
100
AcDbText
  0
LINE
  5
17A
330
6B
100
AcDbEntity
  8
0
 62
     3
100
AcDbLine
 10
494.11886
 20
35.643151
 30
0.0
 11
382.815418
 21
35.643151
 31
0.0
  0
LINE
  5
17B
330
6B
100
AcDbEntity
  8
0
 62
     3
100
AcDbLine
 10
481.4194969999999
 20
12.643151
 30
0.0
 11
481.4194969999999
 21
35.643151
 31
0.0
  0
TEXT
  5
17C
330
6B
100
AcDbEntity
  8
0
 62
     3
100
AcDbText
 10
484.7432999999998
 20
31.934086
 30
0.0
 40
1.8
  1
D
 41
0.666667
100
AcDbText
  0
TEXT
  5
17D
330
6B
100
AcDbEntity
  8
0
 62
     3
100
AcDbText
 10
487.5599279999998
 20
31.934086
 30
0.0
 40
1.8
  1
E
 41
0.666667
100
AcDbText
  0
TEXT
  5
17E
330
6B
100
AcDbEntity
  8
0
 62
     3
100
AcDbText
 10
490.3765559999998
 20
31.934086
 30
0.0
 40
1.8
  1
F
 41
0.666667
100
AcDbText
  0
TEXT
  5
17F
330
6B
100
AcDbEntity
  8
0
 62
     3
100
AcDbText
 10
484.7432999999998
 20
27.941532
 30
0.0
 40
3.2
  1
製図
 41
1.076369
100
AcDbText
  0
LINE
  5
180
330
6B
100
AcDbEntity
  8
0
 62
     3
100
AcDbLine
 10
382.815418
 20
35.643151
 30
0.0
 11
382.815418
 21
-4.022571
 31
0.0
  0
TEXT
  5
181
330
6B
100
AcDbEntity
  8
0
 62
     3
100
AcDbText
 10
384.19207
 20
-3.690105999999998
 30
0.0
 40
5.0
  1
日動工業株式会社
 41
0.833333
100
AcDbText
  0
LINE
  5
182
330
6B
100
AcDbEntity
  8
0
 62
     3
100
AcDbLine
 10
425.6978219999998
 20
5.643150999999997
 30
0.0
 11
425.6978219999998
 21
-4.022571
 31
0.0
  0
LINE
  5
183
330
6B
100
AcDbEntity
  8
0
 62
     3
100
AcDbLine
 10
425.6978219999998
 20
0.8102899999999999
 30
0.0
 11
442.419497
 21
0.8102899999999999
 31
0.0
  0
TEXT
  5
184
330
6B
100
AcDbEntity
  8
0
 62
     3
100
AcDbText
 10
426.2844229999998
 20
1.626720999999999
 30
0.0
 40
3.2
  1
出図コード
 41
0.8356860000000001
100
AcDbText
  0
LINE
  5
185
330
6B
100
AcDbEntity
  8
0
 62
     3
100
AcDbLine
 10
490.4825929999998
 20
5.643150999999997
 30
0.0
 11
459.0030459999998
 21
5.643150999999997
 31
0.0
  0
LINE
  5
186
330
6B
100
AcDbEntity
  8
0
 62
     3
100
AcDbLine
 10
490.4825929999998
 20
5.643150999999997
 30
0.0
 11
494.11886
 21
5.643150999999997
 31
0.0
  0
LINE
  5
187
330
6B
100
AcDbEntity
  8
0
 62
     3
100
AcDbLine
 10
397.961789
 20
26.643151
 30
0.0
 11
382.815418
 21
26.643151
 31
0.0
  0
LINE
  5
188
330
6B
100
AcDbEntity
  8
0
 62
     3
100
AcDbLine
 10
440.233643
 20
26.643151
 30
0.0
 11
494.11886
 21
26.643151
 31
0.0
  0
LINE
  5
189
330
6B
100
AcDbEntity
  8
0
 62
     3
100
AcDbLine
 10
401.547312
 20
26.643151
 30
0.0
 11
397.961789
 21
26.643151
 31
0.0
  0
LINE
  5
18A
330
6B
100
AcDbEntity
  8
0
 62
     3
100
AcDbLine
 10
436.65209
 20
26.643151
 30
0.0
 11
401.547312
 21
26.643151
 31
0.0
  0
LINE
  5
18B
330
6B
100
AcDbEntity
  8
0
 62
     3
100
AcDbLine
 10
436.65209
 20
26.643151
 30
0.0
 11
440.233643
 21
26.643151
 31
0.0
  0
LINE
  5
18C
330
6B
100
AcDbEntity
  8
0
 62
     3
100
AcDbLine
 10
401.547312
 20
19.643151
 30
0.0
 11
382.815418
 21
19.643151
 31
0.0
  0
LINE
  5
18D
330
6B
100
AcDbEntity
  8
0
 62
     3
100
AcDbLine
 10
436.5647349999998
 20
19.643151
 30
0.0
 11
401.547312
 21
19.643151
 31
0.0
  0
LINE
  5
18E
330
6B
100
AcDbEntity
  8
0
 62
     3
100
AcDbLine
 10
436.5647349999998
 20
19.643151
 30
0.0
 11
442.419497
 21
19.643151
 31
0.0
  0
LINE
  5
18F
330
6B
100
AcDbEntity
  8
0
 62
     3
100
AcDbLine
 10
429.0164739999998
 20
5.643150999999997
 30
0.0
 11
382.815418
 21
5.643150999999997
 31
0.0
  0
LINE
  5
190
330
6B
100
AcDbEntity
  8
0
 62
     3
100
AcDbLine
 10
438.784345
 20
5.643150999999997
 30
0.0
 11
429.0164739999998
 21
5.643150999999997
 31
0.0
  0
LINE
  5
191
330
6B
100
AcDbEntity
  8
0
 62
     3
100
AcDbLine
 10
438.784345
 20
5.643150999999997
 30
0.0
 11
459.0030459999998
 21
5.643150999999997
 31
0.0
  0
LINE
  5
192
330
6B
100
AcDbEntity
  8
0
 62
     3
100
AcDbLine
 10
398.219883
 20
12.643151
 30
0.0
 11
382.815418
 21
12.643151
 31
0.0
  0
LINE
  5
193
330
6B
100
AcDbEntity
  8
0
 62
     3
100
AcDbLine
 10
412.6771269999998
 20
12.643151
 30
0.0
 11
398.219883
 21
12.643151
 31
0.0
  0
LINE
  5
194
330
6B
100
AcDbEntity
  8
0
 62
     3
100
AcDbLine
 10
412.6771269999998
 20
12.643151
 30
0.0
 11
494.11886
 21
12.643151
 31
0.0
  0
TEXT
  5
195
330
6B
100
AcDbEntity
  8
0
 62
     3
100
AcDbText
 10
426.1518749999998
 20
-3.420376999999998
 30
0.0
 40
3.2
  1
ZK-A4X
 41
0.8112849999999999
100
AcDbText
  0
LINE
  5
196
330
6B
100
AcDbEntity
  8
0
 62
     3
100
AcDbLine
 10
337.875305
 20
175.977429
 30
0.0
 11
217.11886
 21
175.977429
 31
0.0
  0
LINE
  5
197
330
6B
100
AcDbEntity
  8
0
 62
     3
100
AcDbLine
 10
494.11886
 20
175.977429
 30
0.0
 11
372.680398
 21
175.977429
 31
0.0
  0
LINE
  5
198
330
6B
100
AcDbEntity
  8
0
 62
     3
100
AcDbLine
 10
494.11886
 20
-4.022571
 30
0.0
 11
494.11886
 21
175.977429
 31
0.0
  0
LINE
  5
199
330
6B
100
AcDbEntity
  8
0
 62
     3
100
AcDbLine
 10
494.11886
 20
-4.022571
 30
0.0
 11
217.11886
 21
-4.022571
 31
0.0
  0
LINE
  5
19E
330
6B
100
AcDbEntity
  8
0
 62
     3
100
AcDbLine
 10
217.11886
 20
175.977429
 30
0.0
 11
217.11886
 21
-4.022571
 31
0.0
  0
TEXT
  5
19F
330
6B
100
AcDbEntity
  8
0
 62
     3
100
AcDbText
 10
384.632815
 20
31.812677
 30
0.0
 40
2.0
  1
CONPONENTS
 41
0.5331600000000001
100
AcDbText
  0
TEXT
  5
1A0
330
6B
100
AcDbEntity
  8
0
 62
     3
100
AcDbText
 10
384.283088
 20
12.8805
 30
0.0
 40
3.0
  1
材
 41
0.833333
100
AcDbText
  0
TEXT
  5
1A1
330
6B
100
AcDbEntity
  8
0
 62
     3
100
AcDbText
 10
391.818731
 20
12.8805
 30
0.0
 40
3.0
  1
質
 41
0.833333
100
AcDbText
  0
TEXT
  5
1A2
330
6B
100
AcDbEntity
  8
0
 62
     3
100
AcDbText
 10
384.371159
 20
23.50502500000001
 30
0.0
 40
2.0
  1
MODEL
 41
1.031072999999999
100
AcDbText
  0
TEXT
  5
1A3
330
6B
100
AcDbEntity
  8
0
 62
     3
100
AcDbText
 10
384.283088
 20
16.562808
 30
0.0
 40
2.0
  1
MATERIAL
 41
0.659278
100
AcDbText
  0
TEXT
  5
1A4
330
6B
100
AcDbEntity
  8
0
 62
     3
100
AcDbText
 10
415.5903679999998
 20
12.8805
 30
0.0
 40
3.0
  1
備
 41
0.833333
100
AcDbText
  0
TEXT
  5
1A5
330
6B
100
AcDbEntity
  8
0
 62
     3
100
AcDbText
 10
422.3233699999998
 20
12.8805
 30
0.0
 40
3.0
  1
考
 41
0.833333
100
AcDbText
  0
TEXT
  5
1A6
330
6B
100
AcDbEntity
  8
0
 62
     3
100
AcDbText
 10
415.9408233550957
 20
16.562808
 30
0.0
 40
2.0
  1
REMARKS
 41
0.675794
100
AcDbText
  0
TEXT
  5
1A7
330
6B
100
AcDbEntity
  8
0
 62
     3
100
AcDbText
 10
385.872817
 20
9.642687999999999
 30
0.0
 40
2.0
  1
3AD
 41
1.42614
100
AcDbText
  0
TEXT
  5
1A8
330
6B
100
AcDbEntity
  8
0
 62
     3
100
AcDbText
 10
395.183797
 20
9.808420999999999
 30
0.0
 40
2.0
  1
ANGLE
 41
1.669883999999997
100
AcDbText
  0
TEXT
  5
1A9
330
6B
100
AcDbEntity
  8
0
 62
     3
100
AcDbText
 10
416.117684
 20
9.43158
 30
0.0
 40
2.0
  1
SCALE
 41
0.7719630000000001
100
AcDbText
  0
TEXT
  5
1AA
330
6B
100
AcDbEntity
  8
0
 62
     3
100
AcDbText
 10
385.558947
 20
5.643150999999997
 30
0.0
 40
3.0
  1
第
 41
0.833333
100
AcDbText
  0
TEXT
  5
1AB
330
6B
100
AcDbEntity
  8
0
 62
     3
100
AcDbText
 10
393.345797
 20
5.643150999999997
 30
0.0
 40
3.0
  1
三
 41
0.833333
100
AcDbText
  0
TEXT
  5
1AC
330
6B
100
AcDbEntity
  8
0
 62
     3
100
AcDbText
 10
401.1326469999998
 20
5.643150999999997
 30
0.0
 40
3.0
  1
角
 41
0.833333
100
AcDbText
  0
TEXT
  5
1AD
330
6B
100
AcDbEntity
  8
0
 62
     3
100
AcDbText
 10
408.9194969999998
 20
5.643150999999997
 30
0.0
 40
3.0
  1
法
 41
0.833333
100
AcDbText
  0
TEXT
  5
1AE
330
6B
100
AcDbEntity
  8
0
 62
     3
100
AcDbText
 10
415.9808889999998
 20
5.93158
 30
0.0
 40
3.0
  1
尺
 41
0.833333
100
AcDbText
  0
TEXT
  5
1AF
330
6B
100
AcDbEntity
  8
0
 62
     3
100
AcDbText
 10
422.7138899999998
 20
5.93158
 30
0.0
 40
3.0
  1
度
 41
0.833333
100
AcDbText
  0
TEXT
  5
1B0
330
6B
100
AcDbEntity
  8
0
 62
     3
100
AcDbText
 10
445.297161
 20
28.10088
 30
0.0
 40
3.0
  1
承認
 41
1.089472999999999
100
AcDbText
  0
TEXT
  5
1B1
330
6B
100
AcDbEntity
  8
0
 62
     3
100
AcDbText
 10
458.540041
 20
28.043151
 30
0.0
 40
3.0
  1
検図
 41
0.931761
100
AcDbText
  0
TEXT
  5
1B2
330
6B
100
AcDbEntity
  8
0
 62
     3
100
AcDbText
 10
471.5404379999998
 20
28.043151
 30
0.0
 40
3.0
  1
設
 41
0.833333
100
AcDbText
  0
TEXT
  5
1B3
330
6B
100
AcDbEntity
  8
0
 62
     3
100
AcDbText
 10
476.0303059999998
 20
28.043151
 30
0.0
 40
3.0
  1
計
 41
0.833333
100
AcDbText
  0
TEXT
  5
1B4
330
6B
100
AcDbEntity
  8
0
 62
     3
100
AcDbText
 10
384.564286
 20
27.33190700000001
 30
0.0
 40
3.0
  1
品
 41
0.833333
100
AcDbText
  0
TEXT
  5
1B5
330
6B
100
AcDbEntity
  8
0
 62
     3
100
AcDbText
 10
392.0999290000001
 20
27.33190700000001
 30
0.0
 40
3.0
  1
名
 41
0.833333
100
AcDbText
  0
TEXT
  5
1B6
330
6B
100
AcDbEntity
  8
0
 62
     3
100
AcDbText
 10
384.371159
 20
19.872765
 30
0.0
 40
3.0
  1
型
 41
0.833333
100
AcDbText
  0
TEXT
  5
1B7
330
6B
100
AcDbEntity
  8
0
 62
     3
100
AcDbText
 10
391.919249
 20
19.872765
 30
0.0
 40
3.0
  1
式
 41
0.833333
100
AcDbText
  0
TEXT
  5
1C5
330
6B
100
AcDbEntity
  8
0
 62
     3
100
AcDbText
 10
218.61886
 20
-3.522570999999998
 30
0.0
 40
3.2
  1
No
 41
0.8
  7
高3.2
100
AcDbText
  0
TEXT
  5
1C6
330
6B
100
AcDbEntity
  8
0
 62
     3
100
AcDbText
 10
225.3719601902486
 20
-3.522571000000001
 30
0.0
 40
3.2
  1
部品名
 41
0.8
  7
高3.2
100
AcDbText
  0
TEXT
  5
1C7
330
6B
100
AcDbEntity
  8
0
 62
     3
100
AcDbText
 10
245.0015371133256
 20
-3.522571
 30
0.0
 40
3.2
  1
材質
 41
0.8
  7
高3.2
100
AcDbText
  0
TEXT
  5
1C8
330
6B
100
AcDbEntity
  8
0
 62
     3
100
AcDbText
 10
255.5543202064403
 20
-3.522571
 30
0.0
 40
3.2
  1
備考
 41
0.8
  7
高3.2
100
AcDbText
  0
TEXT
  5
1C9
330
6B
100
AcDbEntity
  8
0
 62
     3
100
AcDbText
 10
301.1448703409218
 20
-3.522571000000001
 30
0.0
 40
3.2
  1
数
 41
0.8
  7
高3.2
100
AcDbText
  0
LINE
  5
1CA
330
6B
100
AcDbEntity
  8
0
 62
     3
100
AcDbLine
 10
304.9638526486143
 20
15.977429
 30
0.0
 11
304.9638526486143
 21
-4.022571
 31
0.0
  0
TEXT
  5
1CB
330
6B
100
AcDbEntity
  8
0
 62
     3
100
AcDbText
 10
255.5543202064403
 20
6.477428999999997
 30
0.0
 40
3.2
  1
SANRITSU S-300
 41
0.8
  7
高3.2
100
AcDbText
  0
TEXT
  5
1CC
330
6B
100
AcDbEntity
  8
0
 62
     3
100
AcDbText
 10
255.5543202064403
 20
11.477429
 30
0.0
 40
3.2
  1
SANRITSU JA300 オス
 41
0.8
  7
高3.2
100
AcDbText
  0
TEXT
  5
1CD
330
6B
100
AcDbEntity
  8
0
 62
     3
100
AcDbText
 10
301.1448703409218
 20
1.477429
 30
0.0
 40
3.2
  1
1
 41
0.8
  7
高3.2
100
AcDbText
  0
TEXT
  5
1CE
330
6B
100
AcDbEntity
  8
0
 62
     3
100
AcDbText
 10
301.1448703409218
 20
6.477428999999998
 30
0.0
 40
3.2
  1
1
 41
0.8
  7
高3.2
100
AcDbText
  0
TEXT
  5
1CF
330
6B
100
AcDbEntity
  8
0
 62
     3
100
AcDbText
 10
301.1448703409218
 20
11.477429
 30
0.0
 40
3.2
  1
1
 41
0.8
  7
高3.2
100
AcDbText
  0
LINE
  5
1D0
330
6B
100
AcDbEntity
  8
0
100
AcDbLine
 10
254.0543202064402
 20
15.977429
 30
0.0
 11
254.0543202064402
 21
-4.022571
 31
0.0
  0
LINE
  5
1D1
330
6B
100
AcDbEntity
  8
0
100
AcDbLine
 10
299.6448703409218
 20
15.977429
 30
0.0
 11
299.6448703409218
 21
-4.022571
 31
0.0
  0
TEXT
  5
1D2
330
6B
100
AcDbEntity
  8
0
 62
     3
100
AcDbText
 10
218.61886
 20
1.477429
 30
0.0
 40
3.2
  1
1
 41
0.8
  7
高3.2
100
AcDbText
  0
TEXT
  5
1D3
330
6B
100
AcDbEntity
  8
0
 62
     3
100
AcDbText
 10
218.61886
 20
6.477428999999997
 30
0.0
 40
3.2
  1
2
 41
0.8
  7
高3.2
100
AcDbText
  0
TEXT
  5
1D4
330
6B
100
AcDbEntity
  8
0
 62
     3
100
AcDbText
 10
218.61886
 20
11.477429
 30
0.0
 40
3.2
  1
3
 41
0.8
  7
高3.2
100
AcDbText
  0
TEXT
  5
1D5
330
6B
100
AcDbEntity
  8
0
 62
     3
100
AcDbText
 10
225.3719601902486
 20
1.477429
 30
0.0
 40
3.2
  1
電線
 41
0.8
  7
高3.2
100
AcDbText
  0
TEXT
  5
1D6
330
6B
100
AcDbEntity
  8
0
 62
     3
100
AcDbText
 10
225.3719601902486
 20
6.477428999999997
 30
0.0
 40
3.2
  1
溶接ホルダ
 41
0.8
  7
高3.2
100
AcDbText
  0
TEXT
  5
1D7
330
6B
100
AcDbEntity
  8
0
 62
     3
100
AcDbText
 10
225.3719601902486
 20
11.477429
 30
0.0
 40
3.2
  1
ジョイント
 41
0.8
  7
高3.2
100
AcDbText
  0
TEXT
  5
1D8
330
6B
100
AcDbEntity
  8
0
 62
     3
100
AcDbText
 10
245.0015371133256
 20
6.477428999999998
 30
0.0
 40
3.2
  1
-
 41
0.8
  7
高3.2
100
AcDbText
  0
TEXT
  5
1D9
330
6B
100
AcDbEntity
  8
0
 62
     3
100
AcDbText
 10
245.0015371133256
 20
11.477429
 30
0.0
 40
3.2
  1
-
 41
0.8
  7
高3.2
100
AcDbText
  0
LINE
  5
1DA
330
6B
100
AcDbEntity
  8
0
100
AcDbLine
 10
223.8719601902487
 20
15.977429
 30
0.0
 11
223.8719601902487
 21
-4.022571
 31
0.0
  0
LINE
  5
1DB
330
6B
100
AcDbEntity
  8
0
100
AcDbLine
 10
243.5015371133256
 20
15.977429
 30
0.0
 11
243.5015371133256
 21
-4.022571
 31
0.0
  0
CIRCLE
  5
22E
330
6B
100
AcDbEntity
  8
0
100
AcDbCircle
 10
385.7853584336412
 20
148.8436840417316
 30
0.0
 40
5.0
  0
TEXT
  5
22F
330
6B
100
AcDbEntity
  8
0
 62
     4
100
AcDbText
 10
384.5846521138105
 20
145.4032320243764
 30
0.0
 40
6.299999999999998
  1
1
  7
高6.3
100
AcDbText
  0
CIRCLE
  5
236
330
6B
100
AcDbEntity
  8
0
100
AcDbCircle
 10
256.58923283033
 20
148.8436840417316
 30
0.0
 40
5.0
  0
TEXT
  5
237
330
6B
100
AcDbEntity
  8
0
 62
     4
100
AcDbText
 10
254.3461867236019
 20
145.3527750417317
 30
0.0
 40
6.299999999999998
  1
2
  7
高6.3
100
AcDbText
  0
TEXT
  5
238
330
6B
100
AcDbEntity
  8
0
 62
     3
100
AcDbText
 10
459.4720119999998
 20
7.043552999999997
 30
0.0
 40
3.2
  1
2008.10.01
  7
高3.2
100
AcDbText
  0
TEXT
  5
239
330
6B
100
AcDbEntity
  8
0
 62
     3
100
AcDbText
 10
428.1635719999998
 20
7.186513999999997
 30
0.0
 40
3.2
  1
FREE
  7
高3.2
100
AcDbText
  0
LINE
  5
23A
330
6B
100
AcDbEntity
  8
0
 62
     3
100
AcDbLine
 10
468.419497
 20
35.643151
 30
0.0
 11
468.419497
 21
41.643151
 31
0.0
  0
LINE
  5
23B
330
6B
100
AcDbEntity
  8
0
 62
     3
100
AcDbLine
 10
442.419497
 20
35.643151
 30
0.0
 11
442.419497
 21
41.643151
 31
0.0
  0
LINE
  5
23C
330
6B
100
AcDbEntity
  8
0
 62
     3
100
AcDbLine
 10
494.11886
 20
41.643151
 30
0.0
 11
442.419497
 21
41.643151
 31
0.0
  0
TEXT
  5
23D
330
6B
100
AcDbEntity
  8
0
 62
     3
100
AcDbText
 10
448.415095
 20
36.4395
 30
0.0
 40
4.5
  1
コード
  7
高4.5
100
AcDbText
  0
LINE
  5
23E
330
6B
100
AcDbEntity
  8
0
 62
     3
100
AcDbLine
 10
304.9638526486143
 20
0.977429
 30
0.0
 11
217.11886
 21
0.977429
 31
0.0
  0
LINE
  5
23F
330
6B
100
AcDbEntity
  8
0
 62
     3
100
AcDbLine
 10
304.9638526486143
 20
15.977429
 30
0.0
 11
217.11886
 21
15.977429
 31
0.0
  0
LINE
  5
240
330
6B
100
AcDbEntity
  8
0
100
AcDbLine
 10
304.9638526486143
 20
5.977428999999997
 30
0.0
 11
217.11886
 21
5.977428999999997
 31
0.0
  0
LINE
  5
241
330
6B
100
AcDbEntity
  8
0
100
AcDbLine
 10
304.9638526486143
 20
10.977429
 30
0.0
 11
217.11886
 21
10.977429
 31
0.0
  0
TEXT
  5
242
330
6B
100
AcDbEntity
  8
0
 62
     3
100
AcDbText
 10
245.0015371133256
 20
1.477429
 30
0.0
 40
3.2
  1
WCT
 41
0.8
  7
高3.2
100
AcDbText
  0
TEXT
  5
243
330
6B
100
AcDbEntity
  8
0
 62
     3
100
AcDbText
 10
398.4382631042672
 20
28.48769
 30
0.0
 40
4.5
  1
ホルダークリップ
  7
高4.5
100
AcDbText
  0
TEXT
  5
244
330
6B
100
AcDbEntity
  8
0
 62
     3
100
AcDbText
 10
255.5543202064403
 20
1.477429
 30
0.0
 40
3.2
  1
22sqx5m
 41
0.8
  7
高3.2
100
AcDbText
  0
TEXT
  5
245
330
6B
100
AcDbEntity
  8
0
 62
     3
100
AcDbText
 10
404.4318982257783
 20
20.623857
 30
0.0
 40
4.5
  1
NA-HJ5
  7
高4.5
100
AcDbText
  0
TEXT
  5
246
330
6B
100
AcDbEntity
  8
0
 62
     3
100
AcDbText
 10
447.8126785530721
 20
-2.678771999999999
 30
0.0
 40
6.299999999999998
  1
NA-HJ5
  7
高6.3
100
AcDbText
  0
TEXT
  5
247
330
6B
100
AcDbEntity
  8
0
 62
     3
100
AcDbText
 10
470.406644
 20
36.28728800000001
 30
0.0
 40
4.5
  1
52643
  7
高4.5
100
AcDbText
  0
TEXT
  5
325
330
6B
100
AcDbEntity
  8
0
 62
     3
100
AcDbText
 10
481.61886
 20
166.477429
 30
0.0
 40
3.2
  1
担　当
  7
高3.2
100
AcDbText
  0
TEXT
  5
326
330
6B
100
AcDbEntity
  8
0
 62
     3
100
AcDbText
 10
437.6188599999998
 20
166.477429
 30
0.0
 40
3.2
  1
変更・追記内容
  7
高3.2
100
AcDbText
  0
TEXT
  5
327
330
6B
100
AcDbEntity
  8
0
 62
     3
100
AcDbText
 10
412.7323750003391
 20
161.8068904900917
 30
0.0
 40
2.0
  1
1
  7
高2
100
AcDbText
  0
TEXT
  5
328
330
6B
100
AcDbEntity
  8
0
 62
     3
100
AcDbText
 10
412.4238635235818
 20
156.6370737778188
 30
0.0
 40
2.0
  1
2
  7
高2
100
AcDbText
  0
TEXT
  5
329
330
6B
100
AcDbEntity
  8
0
 62
     3
100
AcDbText
 10
419.61886
 20
166.477429
 30
0.0
 40
3.2
  1
日　付
  7
高3.2
100
AcDbText
  0
TEXT
  5
32A
330
6B
100
AcDbEntity
  8
0
 62
     3
100
AcDbText
 10
419.61886
 20
171.477429
 30
0.0
 40
3.2
  1
図　　　　面　　　　略　　　　歴
  7
高3.2
100
AcDbText
  0
TEXT
  5
32B
330
6B
100
AcDbEntity
  8
0
 62
     3
100
AcDbText
 10
409.6188599999998
 20
166.477429
 30
0.0
 40
3.2
  1
記号
  7
高3.2
100
AcDbText
  0
LINE
  5
32C
330
6B
100
AcDbEntity
  8
0
100
AcDbLine
 10
413.1188599999998
 20
159.7683250000001
 30
0.0
 11
411.21886
 21
156.477429
 31
0.0
  0
LINE
  5
32D
330
6B
100
AcDbEntity
  8
0
100
AcDbLine
 10
413.1188599999998
 20
159.7683250000001
 30
0.0
 11
415.0188599999998
 21
156.477429
 31
0.0
  0
LINE
  5
32E
330
6B
100
AcDbEntity
  8
0
100
AcDbLine
 10
411.21886
 20
156.477429
 30
0.0
 11
415.0188599999998
 21
156.477429
 31
0.0
  0
LINE
  5
32F
330
6B
100
AcDbEntity
  8
0
100
AcDbLine
 10
413.1188599999998
 20
164.7683260000001
 30
0.0
 11
411.21886
 21
161.477429
 31
0.0
  0
LINE
  5
330
330
6B
100
AcDbEntity
  8
0
100
AcDbLine
 10
413.1188599999998
 20
164.7683260000001
 30
0.0
 11
415.0188599999998
 21
161.477429
 31
0.0
  0
LINE
  5
331
330
6B
100
AcDbEntity
  8
0
100
AcDbLine
 10
411.21886
 20
161.477429
 30
0.0
 11
415.0188599999998
 21
161.477429
 31
0.0
  0
LINE
  5
332
330
6B
100
AcDbEntity
  8
0
 62
     3
100
AcDbLine
 10
408.1188599999999
 20
170.977429
 30
0.0
 11
494.11886
 21
170.977429
 31
0.0
  0
LINE
  5
333
330
6B
100
AcDbEntity
  8
0
 62
     3
100
AcDbLine
 10
408.1188599999999
 20
165.977429
 30
0.0
 11
494.11886
 21
165.977429
 31
0.0
  0
LINE
  5
334
330
6B
100
AcDbEntity
  8
0
 62
     7
100
AcDbLine
 10
408.1188599999999
 20
160.977429
 30
0.0
 11
494.11886
 21
160.977429
 31
0.0
  0
LINE
  5
335
330
6B
100
AcDbEntity
  8
0
 62
     3
100
AcDbLine
 10
408.1188599999999
 20
155.977429
 30
0.0
 11
494.11886
 21
155.977429
 31
0.0
  0
LINE
  5
336
330
6B
100
AcDbEntity
  8
0
 62
     7
100
AcDbLine
 10
480.1188599999998
 20
155.977429
 30
0.0
 11
480.1188599999998
 21
170.977429
 31
0.0
  0
LINE
  5
337
330
6B
100
AcDbEntity
  8
0
 62
     7
100
AcDbLine
 10
436.11886
 20
155.977429
 30
0.0
 11
436.11886
 21
170.977429
 31
0.0
  0
LINE
  5
338
330
6B
100
AcDbEntity
  8
0
 62
     7
100
AcDbLine
 10
418.1188599999998
 20
155.977429
 30
0.0
 11
418.1188599999998
 21
170.977429
 31
0.0
  0
LINE
  5
339
330
6B
100
AcDbEntity
  8
0
 62
     3
100
AcDbLine
 10
408.1188599999999
 20
155.977429
 30
0.0
 11
408.1188599999999
 21
175.977429
 31
0.0
  0
LINE
  5
4A9
330
6B
100
AcDbEntity
  8
0
  6
Continuous
 62
     3
100
AcDbLine
 10
407.2483445651827
 20
114.9917148168849
 30
0.0
 11
381.8844254188327
 21
114.9917148168849
 31
0.0
  0
LINE
  5
4AA
330
6B
100
AcDbEntity
  8
0
  6
Continuous
 62
     3
100
AcDbLine
 10
407.2483445651827
 20
109.2417148168849
 30
0.0
 11
381.8844254188327
 21
109.2417148168849
 31
0.0
  0
LINE
  5
778
330
6B
100
AcDbEntity
  8
0
  6
Continuous
 62
     3
100
AcDbLine
 10
379.46804022018
 20
109.2417148168849
 30
0.0
 11
355.5971834704052
 21
109.2417148168849
 31
0.0
  0
LINE
  5
779
330
6B
100
AcDbEntity
  8
0
  6
Continuous
 62
     3
100
AcDbLine
 10
379.46804022018
 20
114.9917148168849
 30
0.0
 11
355.5971834704052
 21
114.9917148168849
 31
0.0
  0
ARC
  5
77B
330
6B
100
AcDbEntity
  8
0
  6
Continuous
 62
     7
100
AcDbCircle
 10
377.9586652201799
 20
113.554214816885
 30
0.0
 40
2.084374999999972
100
AcDbArc
 50
316.3971810272932
 51
43.60281897270249
  0
ARC
  5
77C
330
6B
100
AcDbEntity
  8
0
  6
Continuous
 62
     7
100
AcDbCircle
 10
380.9774152201799
 20
113.554214816885
 30
0.0
 40
2.084374999999972
100
AcDbArc
 50
136.3971810272994
 51
223.6028189727074
  0
ARC
  5
77D
330
6B
100
AcDbEntity
  8
0
  6
Continuous
 62
     7
100
AcDbCircle
 10
377.9586652201799
 20
110.679214816885
 30
0.0
 40
2.084374999999972
100
AcDbArc
 50
316.3971810272997
 51
43.60281897270732
  0
ARC
  5
77E
330
6B
100
AcDbEntity
  8
0
  6
Continuous
 62
     7
100
AcDbCircle
 10
383.3938004188329
 20
110.6792148168847
 30
0.0
 40
2.084374999999972
100
AcDbArc
 50
136.3971810272926
 51
223.6028189727006
  0
ARC
  5
77F
330
6B
100
AcDbEntity
  8
0
  6
Continuous
 62
     7
100
AcDbCircle
 10
380.375050418833
 20
110.6792148168847
 30
0.0
 40
2.084374999999972
100
AcDbArc
 50
316.3971810272997
 51
43.60281897270732
  0
ARC
  5
780
330
6B
100
AcDbEntity
  8
0
  6
Continuous
 62
     7
100
AcDbCircle
 10
383.3938004188329
 20
113.5542148168847
 30
0.0
 40
2.084374999999972
100
AcDbArc
 50
136.3971810272998
 51
223.6028189727074
  0
CIRCLE
  5
785
330
6B
100
AcDbEntity
  8
0
100
AcDbCircle
 10
424.0713789716978
 20
145.6948708119949
 30
0.0
 40
5.0
  0
TEXT
  5
786
330
6B
100
AcDbEntity
  8
0
 62
     4
100
AcDbText
 10
421.8283328649696
 20
142.203961811995
 30
0.0
 40
6.299999999999998
  1
3
  7
高6.3
100
AcDbText
  0
TEXT
  5
97F
330
6B
100
AcDbEntity
  8
0
  6
Continuous
 62
     4
100
AcDbText
 10
257.8276115934928
 20
79.64560737123156
 30
0.0
 40
3.2
  1
SANRITSU S-300
  7
高3.2
100
AcDbText
  0
TEXT
  5
980
330
6B
100
AcDbEntity
  8
0
  6
Continuous
 62
     4
100
AcDbText
 10
257.8276115934928
 20
75.80560737123156
 30
0.0
 40
3.2
  1
定格溶接電流：300A
  7
高3.2
100
AcDbText
  0
TEXT
  5
981
330
6B
100
AcDbEntity
  8
0
  6
Continuous
 62
     4
100
AcDbText
 10
257.8276115934928
 20
71.96560737123157
 30
0.0
 40
3.2
  1
使用率：60%%%
  7
高3.2
100
AcDbText
  0
TEXT
  5
982
330
6B
100
AcDbEntity
  8
0
  6
Continuous
 62
     4
100
AcDbText
 10
257.8276115934928
 20
68.12560737123155
 30
0.0
 40
3.2
  1
使用可能溶接棒径：3.2～6mm
  7
高3.2
100
AcDbText
  0
TEXT
  5
983
330
6B
100
AcDbEntity
  8
0
  6
Continuous
 62
     4
100
AcDbText
 10
419.9163415637357
 20
79.64560737123156
 30
0.0
 40
3.2
  1
SANRITSU JA300
  7
高3.2
100
AcDbText
  0
TEXT
  5
984
330
6B
100
AcDbEntity
  8
0
  6
Continuous
 62
     4
100
AcDbText
 10
419.9163415637357
 20
75.80560737123156
 30
0.0
 40
3.2
  1
適用電流：300A
  7
高3.2
100
AcDbText
  0
LINE
  5
BE8
330
6B
100
AcDbEntity
  8
0
  6
Continuous
 62
     3
370
     9
100
AcDbLine
 10
293.3471834704052
 20
120.6167148168849
 30
0.0
 11
308.0971834704052
 21
120.6167148168849
 31
0.0
  0
LINE
  5
BE9
330
6B
100
AcDbEntity
  8
0
  6
Continuous
 62
     7
370
     9
100
AcDbLine
 10
308.0971834704052
 20
120.6167148168849
 30
0.0
 11
308.0971834704052
 21
112.1167148168849
 31
0.0
  0
LINE
  5
BEA
330
6B
100
AcDbEntity
  8
0
  6
Continuous
 62
     3
370
     9
100
AcDbLine
 10
293.0971834704052
 20
112.1167148168849
 30
0.0
 11
293.0971834704052
 21
120.3667148168849
 31
0.0
  0
LINE
  5
BEB
330
6B
100
AcDbEntity
  8
0
  6
Continuous
 62
     3
370
     9
100
AcDbLine
 10
293.3471834704052
 20
120.6167148168849
 30
0.0
 11
293.0971834704052
 21
120.3667148168849
 31
0.0
  0
LINE
  5
BEC
330
6B
100
AcDbEntity
  8
0
  6
Continuous
 62
     3
370
     9
100
AcDbLine
 10
308.0971834704052
 20
103.6167148168849
 30
0.0
 11
293.3471834704052
 21
103.6167148168849
 31
0.0
  0
LINE
  5
BED
330
6B
100
AcDbEntity
  8
0
  6
Continuous
 62
     3
370
     9
100
AcDbLine
 10
293.0971834704052
 20
103.8667148168849
 30
0.0
 11
293.0971834704052
 21
112.1167148168849
 31
0.0
  0
LINE
  5
BEE
330
6B
100
AcDbEntity
  8
0
  6
Continuous
 62
     3
370
     9
100
AcDbLine
 10
293.0971834704052
 20
103.8667148168849
 30
0.0
 11
293.3471834704052
 21
103.6167148168849
 31
0.0
  0
LINE
  5
BEF
330
6B
100
AcDbEntity
  8
0
  6
Continuous
 62
     3
370
     9
100
AcDbLine
 10
354.8551834704052
 20
120.1247148168849
 30
0.0
 11
308.0971834704052
 21
120.6167148168849
 31
0.0
  0
LINE
  5
BF0
330
6B
100
AcDbEntity
  8
0
  6
Continuous
 62
     3
370
     9
100
AcDbLine
 10
354.8551834704052
 20
104.1087148168849
 30
0.0
 11
308.0971834704052
 21
103.6167148168849
 31
0.0
  0
LINE
  5
BF1
330
6B
100
AcDbEntity
  8
0
  6
Continuous
 62
     3
370
     9
100
AcDbLine
 10
355.5971834704052
 20
104.8587148168849
 30
0.0
 11
355.5971834704052
 21
119.3747148168849
 31
0.0
  0
ARC
  5
BF2
330
6B
100
AcDbEntity
  8
0
  6
Continuous
 62
     3
370
     9
100
AcDbCircle
 10
354.8471834704052
 20
119.3747148168849
 30
0.0
 40
0.75
100
AcDbArc
 50
0.0
 51
89.38900000000026
  0
ARC
  5
BF3
330
6B
100
AcDbEntity
  8
0
  6
Continuous
 62
     3
370
     9
100
AcDbCircle
 10
354.8471834704052
 20
104.8587148168849
 30
0.0
 40
0.75
100
AcDbArc
 50
270.6109999999998
 51
0.0
  0
ARC
  5
BF4
330
6B
100
AcDbEntity
  8
0
  6
Continuous
 62
     7
370
     9
100
AcDbCircle
 10
354.8971834704051
 20
119.1252148168849
 30
0.0
 40
0.743
100
AcDbArc
 50
19.61799999999941
 51
93.85800000000305
  0
ARC
  5
BF5
330
6B
100
AcDbEntity
  8
0
  6
Continuous
 62
     7
370
     9
100
AcDbCircle
 10
355.1746834704052
 20
118.7267148168849
 30
0.0
 40
0.398
100
AcDbArc
 50
20.59800000000208
 51
101.2389999999982
  0
ARC
  5
BF6
330
6B
100
AcDbEntity
  8
0
  6
Continuous
 62
     7
370
     9
100
AcDbCircle
 10
353.3491834704051
 20
108.7272148168849
 30
0.0
 40
9.551
100
AcDbArc
 50
76.38600000000202
 51
79.45400000000133
  0
LINE
  5
BF7
330
6B
100
AcDbEntity
  8
0
  6
Continuous
 62
     7
370
     9
100
AcDbLine
 10
308.0971834704052
 20
103.6167148168849
 30
0.0
 11
308.0971834704052
 21
112.1167148168849
 31
0.0
  0
LINE
  5
BF8
330
6B
100
AcDbEntity
  8
0
  6
Continuous
 62
     7
370
     9
100
AcDbLine
 10
354.8471834704052
 20
104.3667148168849
 30
0.0
 11
308.0971834704052
 21
104.1167148168849
 31
0.0
  0
ARC
  5
BF9
330
6B
100
AcDbEntity
  8
0
  6
Continuous
 62
     7
370
     9
100
AcDbCircle
 10
354.8971834704051
 20
105.1082148168849
 30
0.0
 40
0.743
100
AcDbArc
 50
266.1419999999969
 51
340.3820000000006
  0
ARC
  5
BFA
330
6B
100
AcDbEntity
  8
0
  6
Continuous
 62
     7
370
     9
100
AcDbCircle
 10
355.1746834704052
 20
105.5067148168849
 30
0.0
 40
0.398
100
AcDbArc
 50
258.7610000000017
 51
339.4019999999979
  0
ARC
  5
BFB
330
6B
100
AcDbEntity
  8
0
  6
Continuous
 62
     7
370
     9
100
AcDbCircle
 10
353.3491834704051
 20
115.5062148168849
 30
0.0
 40
9.551
100
AcDbArc
 50
280.5459999999986
 51
283.613999999998
  0
ARC
  5
BFC
330
6B
100
AcDbEntity
  8
0
  6
Continuous
 62
     3
370
     9
100
AcDbCircle
 10
282.1601834704052
 20
153.1342148168848
 30
0.0
 40
40.52150000000001
100
AcDbArc
 50
244.3150000000036
 51
285.6589999999977
  0
ARC
  5
BFD
330
6B
100
AcDbEntity
  8
0
  6
Continuous
 62
     3
370
     9
100
AcDbCircle
 10
262.3471834704052
 20
111.8667148168849
 30
0.0
 40
5.256
100
AcDbArc
 50
64.65399999999999
 51
92.72599999999648
  0
ARC
  5
BFE
330
6B
100
AcDbEntity
  8
0
  6
Continuous
 62
     3
370
     9
100
AcDbCircle
 10
253.2296834704051
 20
117.6827148168849
 30
0.0
 40
7.067
100
AcDbArc
 50
268.926000000001
 51
334.2890000000013
  0
LINE
  5
BFF
330
6B
100
AcDbEntity
  8
0
  6
Continuous
 62
     3
370
     9
100
AcDbLine
 10
253.0971834704052
 20
110.6167148168849
 30
0.0
 11
238.0971834704052
 21
110.6167148168849
 31
0.0
  0
LINE
  5
C00
330
6B
100
AcDbEntity
  8
0
  6
Continuous
 62
     3
370
     9
100
AcDbLine
 10
240.0971834704052
 20
104.1167148168849
 30
0.0
 11
293.0971834704052
 21
104.1167148168849
 31
0.0
  0
LINE
  5
C01
330
6B
100
AcDbEntity
  8
0
  6
Continuous
 62
     3
370
     9
100
AcDbLine
 10
238.0971834704052
 20
106.1167148168849
 30
0.0
 11
238.0971834704052
 21
110.6167148168849
 31
0.0
  0
ARC
  5
C02
330
6B
100
AcDbEntity
  8
0
  6
Continuous
 62
     3
370
     9
100
AcDbCircle
 10
240.0971834704052
 20
106.1167148168849
 30
0.0
 40
2.0
100
AcDbArc
 50
180.0
 51
270.0
  0
ARC
  5
C03
330
6B
100
AcDbEntity
  8
0
  6
Continuous
 62
     3
370
     9
100
AcDbCircle
 10
263.3471834704052
 20
113.3667148168849
 30
0.0
 40
3.953
100
AcDbArc
 50
108.4350000000005
 51
161.5649999999995
  0
ARC
  5
C04
330
6B
100
AcDbEntity
  8
0
  6
Continuous
 62
     3
370
     9
100
AcDbCircle
 10
243.3471834704052
 20
111.4917148168849
 30
0.0
 40
1.504999999999999
100
AcDbArc
 50
131.6339999999991
 51
184.7639999999981
  0
LINE
  5
C05
330
6B
100
AcDbEntity
  8
0
  6
Continuous
 62
     3
370
     9
100
AcDbLine
 10
241.8471834704052
 20
110.6167148168849
 30
0.0
 11
241.8471834704052
 21
111.6142148168849
 31
0.0
  0
LINE
  5
C06
330
6B
100
AcDbEntity
  8
0
  6
Continuous
 62
     3
370
     9
100
AcDbLine
 10
244.6021834704052
 20
111.5417148168849
 30
0.0
 11
243.0971834704052
 21
112.6162148168849
 31
0.0
  0
ARC
  5
C07
330
6B
100
AcDbEntity
  8
0
  6
Continuous
 62
     3
370
     9
100
AcDbCircle
 10
244.8926834704051
 20
111.9487148168849
 30
0.0
 40
0.5
100
AcDbArc
 50
234.4819999999964
 51
296.5389999999966
  0
LINE
  5
C08
330
6B
100
AcDbEntity
  8
0
  6
Continuous
 62
     3
370
     9
100
AcDbLine
 10
242.3471834704052
 20
112.6162148168849
 30
0.0
 11
243.0971834704052
 21
112.6162148168849
 31
0.0
  0
LINE
  5
C09
330
6B
100
AcDbEntity
  8
0
  6
Continuous
 62
     3
370
     9
100
AcDbLine
 10
246.9006834704052
 20
112.3932148168849
 30
0.0
 11
245.1161834704052
 21
111.5012148168849
 31
0.0
  0
ARC
  5
C0A
330
6B
100
AcDbEntity
  8
0
  6
Continuous
 62
     3
370
     9
100
AcDbCircle
 10
247.3476834704052
 20
111.4987148168849
 30
0.0
 40
1.0
100
AcDbArc
 50
63.43499999999913
 51
116.5520000000008
  0
LINE
  5
C0B
330
6B
100
AcDbEntity
  8
0
  6
Continuous
 62
     3
370
     9
100
AcDbLine
 10
249.3756834704052
 20
111.6027148168849
 30
0.0
 11
247.7946834704052
 21
112.3927148168849
 31
0.0
  0
ARC
  5
C0C
330
6B
100
AcDbEntity
  8
0
  6
Continuous
 62
     3
370
     9
100
AcDbCircle
 10
249.8226834704052
 20
112.4972148168849
 30
0.0
 40
1.0
100
AcDbArc
 50
243.4479999999992
 51
299.0379999999968
  0
LINE
  5
C0D
330
6B
100
AcDbEntity
  8
0
  6
Continuous
 62
     3
370
     9
100
AcDbLine
 10
251.6361834704052
 20
112.3602148168849
 30
0.0
 11
250.3081834704052
 21
111.6227148168849
 31
0.0
  0
ARC
  5
C0E
330
6B
100
AcDbEntity
  8
0
  6
Continuous
 62
     3
370
     9
100
AcDbCircle
 10
252.1216834704052
 20
111.4862148168849
 30
0.0
 40
1.0
100
AcDbArc
 50
63.42199999999904
 51
119.0519999999977
  0
LINE
  5
C0F
330
6B
100
AcDbEntity
  8
0
  6
Continuous
 62
     3
370
     9
100
AcDbLine
 10
254.0956834704052
 20
111.6177148168849
 30
0.0
 11
252.5691834704052
 21
112.3807148168849
 31
0.0
  0
ARC
  5
C10
330
6B
100
AcDbEntity
  8
0
  6
Continuous
 62
     3
370
     9
100
AcDbCircle
 10
254.5426834704052
 20
112.5117148168849
 30
0.0
 40
1.0
100
AcDbArc
 50
243.4349999999991
 51
302.0049999999991
  0
LINE
  5
C11
330
6B
100
AcDbEntity
  8
0
  6
Continuous
 62
     3
370
     9
100
AcDbLine
 10
256.3541834704052
 20
112.4647148168849
 30
0.0
 11
255.0726834704052
 21
111.6637148168849
 31
0.0
  0
LINE
  5
C12
330
6B
100
AcDbEntity
  8
0
  6
Continuous
 62
     3
370
     9
100
AcDbLine
 10
256.8841834704052
 20
112.6167148168849
 30
0.0
 11
258.1571834704051
 21
112.6167148168849
 31
0.0
  0
ARC
  5
C13
330
6B
100
AcDbEntity
  8
0
  6
Continuous
 62
     3
370
     9
100
AcDbCircle
 10
256.8841834704052
 20
111.6167148168849
 30
0.0
 40
1.0
100
AcDbArc
 50
90.0
 51
122.0049999999992
  0
LINE
  5
C14
330
6B
100
AcDbEntity
  8
0
  6
Continuous
 62
     3
370
     9
100
AcDbLine
 10
266.7046834704053
 20
118.7402148168849
 30
0.0
 11
263.7191834704053
 21
123.4667148168849
 31
0.0
  0
LINE
  5
C15
330
6B
100
AcDbEntity
  8
0
  6
Continuous
 62
     3
370
     9
100
AcDbLine
 10
266.7046834704053
 20
118.7402148168849
 30
0.0
 11
259.2416834704052
 21
117.9937148168849
 31
0.0
  0
LINE
  5
C16
330
6B
100
AcDbEntity
  8
0
  6
Continuous
 62
     3
370
     9
100
AcDbLine
 10
254.5151834704052
 20
115.0087148168849
 30
0.0
 11
238.0971834704052
 21
113.3667148168849
 31
0.0
  0
ARC
  5
C17
330
6B
100
AcDbEntity
  8
0
  6
Continuous
 62
     3
370
     9
100
AcDbCircle
 10
254.5026834704052
 20
117.6457148168849
 30
0.0
 40
2.637
100
AcDbArc
 50
270.2709999999988
 51
334.2809999999971
  0
ARC
  5
C18
330
6B
100
AcDbEntity
  8
0
  6
Continuous
 62
     3
370
     9
100
AcDbCircle
 10
259.2541834704051
 20
115.3567148168849
 30
0.0
 40
2.637
100
AcDbArc
 50
90.27099999999887
 51
154.280999999997
  0
LINE
  5
C19
330
6B
100
AcDbEntity
  8
0
  6
Continuous
 62
     3
370
     9
100
AcDbLine
 10
237.6991834704051
 20
117.3467148168849
 30
0.0
 11
238.0971834704052
 21
113.3667148168849
 31
0.0
  0
LINE
  5
C1A
330
6B
100
AcDbEntity
  8
0
  6
Continuous
 62
     3
370
     9
100
AcDbLine
 10
240.8336834704051
 20
121.1777148168849
 30
0.0
 11
263.7191834704053
 21
123.4667148168849
 31
0.0
  0
ARC
  5
C1B
330
6B
100
AcDbEntity
  8
0
  6
Continuous
 62
     3
370
     9
100
AcDbCircle
 10
241.1816834704051
 20
117.6952148168849
 30
0.0
 40
3.5
100
AcDbArc
 50
95.71099999999827
 51
185.7109999999982
  0
LINE
  5
C1D
330
6B
100
AcDbEntity
  8
0
  6
Continuous
 62
     3
370
     9
100
AcDbLine
 10
250.1481834704052
 20
112.4762148168849
 30
0.0
 11
248.9951834704052
 21
111.7927148168849
 31
0.0
  0
LINE
  5
C1E
330
6B
100
AcDbEntity
  8
0
  6
Continuous
 62
     3
370
     9
100
AcDbLine
 10
250.6576834704052
 20
112.6162148168849
 30
0.0
 11
252.0681834704052
 21
112.6167148168849
 31
0.0
  0
ARC
  5
C1F
330
6B
100
AcDbEntity
  8
0
  6
Continuous
 62
     3
370
     9
100
AcDbCircle
 10
250.6581834704052
 20
111.6162148168849
 30
0.0
 40
1.0
100
AcDbArc
 50
90.02900000000106
 51
120.6689999999968
  0
LINE
  5
C20
330
6B
100
AcDbEntity
  8
0
  6
Continuous
 62
     3
370
     9
100
AcDbLine
 10
244.0701834704051
 20
112.6167148168849
 30
0.0
 11
243.0971834704052
 21
112.6167148168849
 31
0.0
  0
LINE
  5
C21
330
6B
100
AcDbEntity
  8
0
  6
Continuous
 62
     3
370
     9
100
AcDbLine
 10
244.5846834704052
 20
112.4742148168849
 30
0.0
 11
245.5971834704052
 21
111.8667148168849
 31
0.0
  0
ARC
  5
C22
330
6B
100
AcDbEntity
  8
0
  6
Continuous
 62
     3
370
     9
100
AcDbCircle
 10
244.0701834704051
 20
111.6167148168849
 30
0.0
 40
1.0
100
AcDbArc
 50
59.03600000000053
 51
90.0
  0
LINE
  5
C23
330
6B
100
AcDbEntity
  8
0
  6
Continuous
 62
     3
370
     9
100
AcDbLine
 10
257.8471834704052
 20
112.6167148168849
 30
0.0
 11
257.2736834704052
 21
113.4277148168849
 31
0.0
  0
ARC
  5
C24
330
6B
100
AcDbEntity
  8
0
  6
Continuous
 62
     3
370
     9
100
AcDbCircle
 10
256.4571834704052
 20
112.8507148168849
 30
0.0
 40
1.0
100
AcDbArc
 50
35.24799999999919
 51
113.9509999999987
  0
LINE
  5
C25
330
6B
100
AcDbEntity
  8
0
  6
Continuous
 62
     3
370
     9
100
AcDbLine
 10
254.2866834704051
 20
113.1167148168849
 30
0.0
 11
254.0986834704051
 21
114.9982148168849
 31
0.0
  0
LINE
  5
C26
330
6B
100
AcDbEntity
  8
0
  6
Continuous
 62
     3
370
     9
100
AcDbLine
 10
250.7116834704052
 20
112.6167148168849
 30
0.0
 11
250.5091834704052
 21
114.6392148168849
 31
0.0
  0
ARC
  5
C27
330
6B
100
AcDbEntity
  8
0
  6
Continuous
 62
     3
370
     9
100
AcDbCircle
 10
249.6591834704052
 20
126.7317148168849
 30
0.0
 40
14.457
100
AcDbArc
 50
279.8069999999977
 51
296.2410000000022
  0
LINE
  5
C28
330
6B
100
AcDbEntity
  8
0
  6
Continuous
 62
     3
370
     9
100
AcDbLine
 10
263.7191834704053
 20
125.6167148168849
 30
0.0
 11
269.5971834704052
 21
119.1167148168849
 31
0.0
  0
LINE
  5
C29
330
6B
100
AcDbEntity
  8
0
  6
Continuous
 62
     3
370
     9
100
AcDbLine
 10
269.1451834704052
 20
119.6167148168849
 30
0.0
 11
267.5971834704052
 21
115.3202148168849
 31
0.0
  0
ARC
  5
C2A
330
6B
100
AcDbEntity
  8
0
  6
Continuous
 62
     3
370
     9
100
AcDbCircle
 10
292.6281834704052
 20
112.1042148168849
 30
0.0
 40
24.0745
100
AcDbArc
 50
110.7540000000007
 51
163.0660000000011
  0
ARC
  5
C2B
330
6B
100
AcDbEntity
  8
0
  6
Continuous
 62
     3
370
     9
100
AcDbCircle
 10
288.2166834704052
 20
112.7577148168849
 30
0.0
 40
27.6675
100
AcDbArc
 50
98.56300000000242
 51
152.3050000000004
  0
ARC
  5
C2C
330
6B
100
AcDbEntity
  8
0
  6
Continuous
 62
     3
370
     9
100
AcDbCircle
 10
316.4541834704051
 20
139.8667148168849
 30
0.0
 40
2.6545
100
AcDbArc
 50
289.6569999999968
 51
70.34300000000314
  0
LINE
  5
C2D
330
6B
100
AcDbEntity
  8
0
  6
Continuous
 62
     3
370
     9
100
AcDbLine
 10
284.0971834704052
 20
134.6167148168849
 30
0.0
 11
317.3471834704052
 21
137.3667148168849
 31
0.0
  0
LINE
  5
C2E
330
6B
100
AcDbEntity
  8
0
  6
Continuous
 62
     3
370
     9
100
AcDbLine
 10
284.0966834704052
 20
140.1167148168849
 30
0.0
 11
317.3466834704052
 21
142.3667148168849
 31
0.0
  0
LINE
  5
C2F
330
6B
100
AcDbEntity
  8
0
  6
Continuous
 62
     3
370
     9
100
AcDbLine
 10
293.0976834704052
 20
114.6167148168849
 30
0.0
 11
281.7386834704052
 21
112.8177148168849
 31
0.0
  0
LINE
  5
C30
330
6B
100
AcDbEntity
  8
0
  6
Continuous
 62
     3
370
     9
100
AcDbLine
 10
281.7386834704052
 20
112.8177148168849
 30
0.0
 11
280.6676834704052
 21
112.8092148168849
 31
0.0
  0
LINE
  5
C31
330
6B
100
AcDbEntity
  8
0
  6
Continuous
 62
     3
370
     9
100
AcDbLine
 10
280.6676834704052
 20
112.8092148168849
 30
0.0
 11
268.5971834704052
 21
115.6167148168849
 31
0.0
  0
LINE
  5
C32
330
6B
100
AcDbEntity
  8
0
  6
Continuous
 62
     3
370
     9
100
AcDbLine
 10
268.5971834704052
 20
115.6167148168849
 30
0.0
 11
268.5971834704052
 21
114.9497148168849
 31
0.0
  0
LINE
  5
C33
330
6B
100
AcDbEntity
  8
0
  6
Continuous
 62
     3
370
     9
100
AcDbLine
 10
280.8491834704051
 20
125.8432148168849
 30
0.0
 11
282.5701834704052
 21
114.9787148168849
 31
0.0
  0
LINE
  5
C34
330
6B
100
AcDbEntity
  8
0
  6
Continuous
 62
     3
370
     9
100
AcDbLine
 10
290.2326834704052
 20
127.3292148168849
 30
0.0
 11
291.9531834704052
 21
116.4647148168849
 31
0.0
  0
LINE
  5
C35
330
6B
100
AcDbEntity
  8
0
  6
Continuous
 62
     3
370
     9
100
AcDbLine
 10
289.9196834704052
 20
129.3047148168849
 30
0.0
 11
280.5366834704051
 21
127.8187148168849
 31
0.0
  0
LINE
  5
C36
330
6B
100
AcDbEntity
  8
0
  6
Continuous
 62
     3
370
     9
100
AcDbLine
 10
290.2326834704052
 20
127.3292148168849
 30
0.0
 11
280.8491834704051
 21
125.8432148168849
 31
0.0
  0
LINE
  5
C37
330
6B
100
AcDbEntity
  8
0
  6
Continuous
 62
     3
370
     9
100
AcDbLine
 10
291.9531834704052
 20
116.4647148168849
 30
0.0
 11
282.5701834704052
 21
114.9787148168849
 31
0.0
  0
LINE
  5
C38
330
6B
100
AcDbEntity
  8
0
  6
Continuous
 62
     3
370
     9
100
AcDbLine
 10
292.2656834704052
 20
114.4892148168849
 30
0.0
 11
282.8826834704051
 21
113.0032148168849
 31
0.0
  0
ARC
  5
C39
330
6B
100
AcDbEntity
  8
0
  6
Continuous
 62
     3
370
     9
100
AcDbCircle
 10
280.6931834704052
 20
126.8307148168849
 30
0.0
 40
1.0
100
AcDbArc
 50
98.99900000000208
 51
278.9990000000021
  0
ARC
  5
C3A
330
6B
100
AcDbEntity
  8
0
  6
Continuous
 62
     3
370
     9
100
AcDbCircle
 10
290.1071834704051
 20
128.3217148168849
 30
0.0
 40
1.000499999999999
100
AcDbArc
 50
277.1949999999974
 51
100.8029999999982
  0
ARC
  5
C3B
330
6B
100
AcDbEntity
  8
0
  6
Continuous
 62
     3
370
     9
100
AcDbCircle
 10
292.1096834704052
 20
115.4767148168849
 30
0.0
 40
1.0
100
AcDbArc
 50
278.9990000000021
 51
98.99900000000208
  0
ARC
  5
C3C
330
6B
100
AcDbEntity
  8
0
  6
Continuous
 62
     3
370
     9
100
AcDbCircle
 10
282.7261834704052
 20
113.9907148168849
 30
0.0
 40
1.0
100
AcDbArc
 50
98.99900000000208
 51
278.9990000000021
  0
LINE
  5
C3D
330
6B
100
AcDbEntity
  8
0
  6
Continuous
 62
     3
370
     9
100
AcDbLine
 10
280.4846834704052
 20
132.8977148168849
 30
0.0
 11
287.3561834704052
 21
134.2332148168849
 31
0.0
  0
LINE
  5
C3E
330
6B
100
AcDbEntity
  8
0
  6
Continuous
 62
     3
370
     9
100
AcDbLine
 10
287.3561834704052
 20
134.2332148168849
 30
0.0
 11
287.6621834704053
 21
134.9117148168849
 31
0.0
  0
LINE
  5
C3F
330
6B
100
AcDbEntity
  8
0
  6
Continuous
 62
     3
370
     9
100
AcDbLine
 10
281.3981834704051
 20
132.0562148168849
 30
0.0
 11
287.2881834704052
 21
133.2012148168849
 31
0.0
  0
ARC
  5
C40
330
6B
100
AcDbEntity
  8
0
  6
Continuous
 62
     3
370
     9
100
AcDbCircle
 10
287.1926834704052
 20
133.6917148168849
 30
0.0
 40
0.5
100
AcDbArc
 50
280.9989999999988
 51
100.9989999999988
  0
ARC
  5
C41
330
6B
100
AcDbEntity
  8
0
  6
Continuous
 62
     3
370
     9
100
AcDbCircle
 10
281.3026834704052
 20
132.5472148168849
 30
0.0
 40
0.5
100
AcDbArc
 50
100.9989999999988
 51
280.9989999999988
  0
ARC
  5
C42
330
6B
100
AcDbEntity
  8
0
  6
Continuous
 62
     3
370
     9
100
AcDbCircle
 10
287.2181834704051
 20
132.6792148168849
 30
0.0
 40
0.5
100
AcDbArc
 50
283.9990000000043
 51
103.9989999999976
  0
LINE
  5
C43
330
6B
100
AcDbEntity
  8
0
  6
Continuous
 62
     3
370
     9
100
AcDbLine
 10
287.0971834704052
 20
133.1642148168849
 30
0.0
 11
281.4956834704052
 21
131.0142148168849
 31
0.0
  0
LINE
  5
C44
330
6B
100
AcDbEntity
  8
0
  6
Continuous
 62
     3
370
     9
100
AcDbLine
 10
281.8536834704051
 20
130.0807148168849
 30
0.0
 11
287.4556834704052
 21
132.2302148168849
 31
0.0
  0
ARC
  5
C45
330
6B
100
AcDbEntity
  8
0
  6
Continuous
 62
     3
370
     9
100
AcDbCircle
 10
281.6746834704052
 20
130.5472148168849
 30
0.0
 40
0.5
100
AcDbArc
 50
110.9990000000013
 51
290.9990000000013
  0
ARC
  5
C46
330
6B
100
AcDbEntity
  8
0
  6
Continuous
 62
     3
370
     9
100
AcDbCircle
 10
283.0656834704051
 20
129.5792148168849
 30
0.0
 40
0.25
100
AcDbArc
 50
198.1239999999959
 51
280.9989999999988
  0
LINE
  5
C47
330
6B
100
AcDbEntity
  8
0
  6
Continuous
 62
     3
370
     9
100
AcDbLine
 10
282.8281834704052
 20
129.5012148168849
 30
0.0
 11
282.5511834704051
 21
130.3482148168849
 31
0.0
  0
LINE
  5
C48
330
6B
100
AcDbEntity
  8
0
  6
Continuous
 62
     3
370
     9
100
AcDbLine
 10
282.2396834704051
 20
131.2997148168849
 30
0.0
 11
281.9566834704052
 21
132.1647148168849
 31
0.0
  0
LINE
  5
C49
330
6B
100
AcDbEntity
  8
0
  6
Continuous
 62
     3
370
     9
100
AcDbLine
 10
286.6251834704052
 20
132.9832148168849
 30
0.0
 11
286.6191834704051
 21
133.0712148168849
 31
0.0
  0
LINE
  5
C4A
330
6B
100
AcDbEntity
  8
0
  6
Continuous
 62
     3
370
     9
100
AcDbLine
 10
281.6716834704051
 20
130.0417148168849
 30
0.0
 11
282.6516834704051
 21
130.0407148168849
 31
0.0
  0
ARC
  5
C4B
330
6B
100
AcDbEntity
  8
0
  6
Continuous
 62
     3
370
     9
100
AcDbCircle
 10
287.5221834704051
 20
130.5532148168849
 30
0.0
 40
0.5
100
AcDbArc
 50
295.0
 51
115.0
  0
LINE
  5
C4C
330
6B
100
AcDbEntity
  8
0
  6
Continuous
 62
     3
370
     9
100
AcDbLine
 10
284.1171834704052
 20
128.4142148168849
 30
0.0
 11
287.7336834704053
 21
130.1002148168849
 31
0.0
  0
LINE
  5
C4D
330
6B
100
AcDbEntity
  8
0
  6
Continuous
 62
     3
370
     9
100
AcDbLine
 10
281.9926834704052
 20
128.5262148168849
 30
0.0
 11
287.3106834704053
 21
131.0067148168849
 31
0.0
  0
ARC
  5
C4E
330
6B
100
AcDbEntity
  8
0
  6
Continuous
 62
     3
370
     9
100
AcDbCircle
 10
282.2041834704052
 20
128.0732148168849
 30
0.0
 40
0.5
100
AcDbArc
 50
115.0269999999953
 51
180.0
  0
LINE
  5
C4F
330
6B
100
AcDbEntity
  8
0
  6
Continuous
 62
     3
370
     9
100
AcDbLine
 10
281.7041834704052
 20
128.0732148168849
 30
0.0
 11
281.7041834704052
 21
128.0317148168849
 31
0.0
  0
LINE
  5
C50
330
6B
100
AcDbEntity
  8
0
  6
Continuous
 62
     3
370
     9
100
AcDbLine
 10
284.1606834704052
 20
129.5372148168849
 30
0.0
 11
283.1136834704052
 21
129.3337148168849
 31
0.0
  0
LINE
  5
C51
330
6B
100
AcDbEntity
  8
0
  6
Continuous
 62
     3
370
     9
100
AcDbLine
 10
286.7501834704052
 20
131.0387148168849
 30
0.0
 11
287.4111834704052
 21
131.0407148168849
 31
0.0
  0
LINE
  5
C52
330
6B
100
AcDbEntity
  8
0
  6
Continuous
 62
     3
370
     9
100
AcDbLine
 10
286.7676834704051
 20
130.7532148168849
 30
0.0
 11
286.6961834704051
 21
131.9387148168849
 31
0.0
  0
LINE
  5
C53
330
6B
100
AcDbEntity
  8
0
  6
Continuous
 62
     3
370
     9
100
AcDbLine
 10
264.4141834704052
 20
122.3667148168849
 30
0.0
 11
265.0756834704051
 21
124.1167148168849
 31
0.0
  0
LINE
  5
C59
330
6B
100
AcDbEntity
  8
0
  6
Continuous
 62
     7
370
     9
100
AcDbLine
 10
308.0971834704052
 20
108.9687148168849
 30
0.0
 11
355.5971834704052
 21
108.9687148168849
 31
0.0
  0
LINE
  5
C5A
330
6B
100
AcDbEntity
  8
0
  6
Continuous
 62
     7
370
     9
100
AcDbLine
 10
355.5971834704052
 20
110.8492148168849
 30
0.0
 11
308.0971834704052
 21
110.8492148168849
 31
0.0
  0
LINE
  5
C5B
330
6B
100
AcDbEntity
  8
0
  6
Continuous
 62
     7
370
     9
100
AcDbLine
 10
355.0971834704052
 20
105.1167148168849
 30
0.0
 11
308.0971834704052
 21
104.8667148168849
 31
0.0
  0
LINE
  5
C5C
330
6B
100
AcDbEntity
  8
0
  6
Continuous
 62
     7
370
     9
100
AcDbLine
 10
355.0971834704052
 20
106.1167148168849
 30
0.0
 11
308.0971834704052
 21
105.8667148168849
 31
0.0
  0
LINE
  5
C5D
330
6B
100
AcDbEntity
  8
0
  6
Continuous
 62
     7
370
     9
100
AcDbLine
 10
355.5971834704052
 20
107.7192148168849
 30
0.0
 11
308.0971834704052
 21
107.6167148168849
 31
0.0
  0
LINE
  5
C5E
330
6B
100
AcDbEntity
  8
0
  6
Continuous
 62
     7
370
     9
100
AcDbLine
 10
355.5971834704052
 20
109.6167148168849
 30
0.0
 11
308.0971834704052
 21
109.6167148168849
 31
0.0
  0
LINE
  5
C5F
330
6B
100
AcDbEntity
  8
0
  6
Continuous
 62
     7
370
     9
100
AcDbLine
 10
355.5971834704052
 20
111.3982148168849
 30
0.0
 11
308.0971834704052
 21
111.3982148168849
 31
0.0
  0
LINE
  5
C60
330
6B
100
AcDbEntity
  8
0
  6
Continuous
 62
     7
370
     9
100
AcDbLine
 10
308.0971834704052
 20
115.2647148168849
 30
0.0
 11
355.5971834704052
 21
115.2647148168849
 31
0.0
  0
LINE
  5
C61
330
6B
100
AcDbEntity
  8
0
  6
Continuous
 62
     7
370
     9
100
AcDbLine
 10
355.5971834704052
 20
113.3842148168849
 30
0.0
 11
308.0971834704052
 21
113.3842148168849
 31
0.0
  0
LINE
  5
C62
330
6B
100
AcDbEntity
  8
0
  6
Continuous
 62
     7
370
     9
100
AcDbLine
 10
354.8471834704052
 20
119.8667148168849
 30
0.0
 11
308.0971834704052
 21
120.1167148168849
 31
0.0
  0
LINE
  5
C63
330
6B
100
AcDbEntity
  8
0
  6
Continuous
 62
     7
370
     9
100
AcDbLine
 10
355.0971834704052
 20
119.1167148168849
 30
0.0
 11
308.0971834704052
 21
119.3667148168849
 31
0.0
  0
LINE
  5
C64
330
6B
100
AcDbEntity
  8
0
  6
Continuous
 62
     7
370
     9
100
AcDbLine
 10
355.0971834704052
 20
118.1167148168849
 30
0.0
 11
308.0971834704052
 21
118.3667148168849
 31
0.0
  0
LINE
  5
C65
330
6B
100
AcDbEntity
  8
0
  6
Continuous
 62
     7
370
     9
100
AcDbLine
 10
355.5971834704052
 20
116.5142148168849
 30
0.0
 11
308.0971834704052
 21
116.6167148168849
 31
0.0
  0
LINE
  5
C66
330
6B
100
AcDbEntity
  8
0
  6
Continuous
 62
     7
370
     9
100
AcDbLine
 10
355.5971834704052
 20
114.6167148168849
 30
0.0
 11
308.0971834704052
 21
114.6167148168849
 31
0.0
  0
LINE
  5
C67
330
6B
100
AcDbEntity
  8
0
  6
Continuous
 62
     7
370
     9
100
AcDbLine
 10
355.5971834704052
 20
112.8352148168849
 30
0.0
 11
308.0971834704052
 21
112.8352148168849
 31
0.0
  0
LINE
  5
CE3
330
6B
100
AcDbEntity
  8
0
  6
Continuous
 62
     3
370
    70
100
AcDbLine
 10
458.74834443185
 20
108.7417148168849
 30
0.0
 11
472.4983444318502
 21
109.2417148168849
 31
0.0
  0
ARC
  5
CE4
330
6B
100
AcDbEntity
  8
0
  6
Continuous
 62
     3
370
    70
100
AcDbCircle
 10
469.8168444318501
 20
112.1167148168849
 30
0.0
 40
3.931500000000005
100
AcDbArc
 50
313.003000000001
 51
46.99699999999898
  0
LINE
  5
CE5
330
6B
100
AcDbEntity
  8
0
  6
Continuous
 62
     3
370
    70
100
AcDbLine
 10
464.4983444318502
 20
115.2827148168849
 30
0.0
 11
464.4983444318502
 21
116.4917148168849
 31
0.0
  0
LINE
  5
CE6
330
6B
100
AcDbEntity
  8
0
  6
Continuous
 62
     3
370
    70
100
AcDbLine
 10
464.4983444318502
 20
116.4917148168849
 30
0.0
 11
465.9983444318502
 21
116.4917148168849
 31
0.0
  0
LINE
  5
CE7
330
6B
100
AcDbEntity
  8
0
  6
Continuous
 62
     3
370
    70
100
AcDbLine
 10
465.9983444318502
 20
116.4917148168849
 30
0.0
 11
465.9983444318502
 21
115.2282148168849
 31
0.0
  0
LINE
  5
CE8
330
6B
100
AcDbEntity
  8
0
  6
Continuous
 62
     7
370
    70
100
AcDbLine
 10
472.4983444318502
 20
114.9917148168849
 30
0.0
 11
472.4983444318502
 21
109.2417148168849
 31
0.0
  0
LINE
  5
CE9
330
6B
100
AcDbEntity
  8
0
  6
Continuous
 62
     3
370
    70
100
AcDbLine
 10
458.74834443185
 20
115.4917148168849
 30
0.0
 11
472.4983444318502
 21
114.9917148168849
 31
0.0
  0
LINE
  5
CEA
330
6B
100
AcDbEntity
  8
0
  6
Continuous
 62
     3
370
    70
100
AcDbLine
 10
429.7483444318499
 20
105.3667148168849
 30
0.0
 11
454.2483444318502
 21
105.3667148168849
 31
0.0
  0
LINE
  5
CEB
330
6B
100
AcDbEntity
  8
0
  6
Continuous
 62
     3
370
    70
100
AcDbLine
 10
458.74834443185
 20
106.8667148168849
 30
0.0
 11
458.74834443185
 21
117.3667148168849
 31
0.0
  0
LINE
  5
CEC
330
6B
100
AcDbEntity
  8
0
  6
Continuous
 62
     3
370
    70
100
AcDbLine
 10
457.7483444318501
 20
105.8667148168849
 30
0.0
 11
454.2483444318502
 21
105.8667148168849
 31
0.0
  0
ARC
  5
CED
330
6B
100
AcDbEntity
  8
0
  6
Continuous
 62
     3
370
    70
100
AcDbCircle
 10
457.7483444318501
 20
106.8667148168849
 30
0.0
 40
1.000000000000001
100
AcDbArc
 50
270.0
 51
0.0
  0
LINE
  5
CEE
330
6B
100
AcDbEntity
  8
0
  6
Continuous
 62
     3
370
    70
100
AcDbLine
 10
454.2483444318502
 20
118.8667148168849
 30
0.0
 11
454.2483444318502
 21
105.3667148168849
 31
0.0
  0
LINE
  5
CEF
330
6B
100
AcDbEntity
  8
0
  6
Continuous
 62
     3
370
    70
100
AcDbLine
 10
454.2483444318502
 20
118.8667148168849
 30
0.0
 11
429.7483444318499
 21
118.8667148168849
 31
0.0
  0
LINE
  5
CF0
330
6B
100
AcDbEntity
  8
0
  6
Continuous
 62
     3
370
    70
100
AcDbLine
 10
457.7483444318501
 20
118.3667148168849
 30
0.0
 11
454.2483444318502
 21
118.3667148168849
 31
0.0
  0
ARC
  5
CF1
330
6B
100
AcDbEntity
  8
0
  6
Continuous
 62
     3
370
    70
100
AcDbCircle
 10
457.7483444318501
 20
117.3667148168849
 30
0.0
 40
1.000000000000001
100
AcDbArc
 50
0.0
 51
90.0
  0
LINE
  5
CF2
330
6B
100
AcDbEntity
  8
0
  6
Continuous
 62
     7
370
    70
100
AcDbLine
 10
429.7483444318499
 20
118.8667148168849
 30
0.0
 11
429.7483444318499
 21
105.3667148168849
 31
0.0
  0
LINE
  5
CF3
330
6B
100
AcDbEntity
  8
0
  6
Continuous
 62
     3
370
    70
100
AcDbLine
 10
408.34684443185
 20
107.9827148168849
 30
0.0
 11
429.7483444318499
 21
105.3667148168849
 31
0.0
  0
ARC
  5
CF4
330
6B
100
AcDbEntity
  8
0
  6
Continuous
 62
     3
370
    70
100
AcDbCircle
 10
408.49834443185
 20
109.2232148168849
 30
0.0
 40
1.250000000000001
100
AcDbArc
 50
180.0
 51
263.0369999999975
  0
LINE
  5
CF5
330
6B
100
AcDbEntity
  8
0
  6
Continuous
 62
     3
370
    70
100
AcDbLine
 10
408.34684443185
 20
116.2507148168849
 30
0.0
 11
429.7483444318499
 21
118.8667148168849
 31
0.0
  0
ARC
  5
CF6
330
6B
100
AcDbEntity
  8
0
  6
Continuous
 62
     3
370
    70
100
AcDbCircle
 10
408.49834443185
 20
115.0102148168849
 30
0.0
 40
1.250000000000001
100
AcDbArc
 50
96.96300000000249
 51
180.0
  0
LINE
  5
CF7
330
6B
100
AcDbEntity
  8
0
  6
Continuous
 62
     3
370
    70
100
AcDbLine
 10
407.24834443185
 20
109.2232148168849
 30
0.0
 11
407.24834443185
 21
115.0102148168849
 31
0.0
  0
LINE
  5
EC4
330
6B
100
AcDbEntity
  8
0
  6
Continuous
 62
     3
370
     9
100
AcDbLine
 10
241.9191834704052
 20
112.2277148168849
 30
0.0
 11
242.0176834704052
 21
112.1972148168849
 31
0.0
  0
LINE
  5
EC5
330
6B
100
AcDbEntity
  8
0
  6
Continuous
 62
     3
370
     9
100
AcDbLine
 10
241.7446834704052
 20
112.4382148168849
 30
0.0
 11
241.5971834704052
 21
113.7167148168849
 31
0.0
  0
ARC
  5
EC6
330
6B
100
AcDbEntity
  8
0
  6
Continuous
 62
     3
370
     9
100
AcDbCircle
 10
241.9926834704052
 20
112.4667148168849
 30
0.0
 40
0.25
100
AcDbArc
 50
186.5560000000004
 51
252.9060000000016
  0
LINE
  5
F79
330
6B
100
AcDbEntity
  8
0
  6
Continuous
100
AcDbLine
 10
237.3471834704052
 20
103.6167148168849
 30
0.0
 11
231.1516378974716
 21
103.6167148168849
 31
0.0
  0
LINE
  5
F7A
330
6B
100
AcDbEntity
  8
0
  6
Continuous
100
AcDbLine
 10
237.3471834704052
 20
121.1167148168849
 30
0.0
 11
231.1516378974716
 21
121.1167148168849
 31
0.0
  0
LINE
  5
F7B
330
6B
100
AcDbEntity
  8
0
  6
Continuous
100
AcDbLine
 10
232.4016378974716
 20
106.1167148168849
 30
0.0
 11
232.4016378974716
 21
118.6167148168849
 31
0.0
  0
LINE
  5
F7F
330
6B
100
AcDbEntity
  8
0
  6
Continuous
100
AcDbLine
 10
293.0971834704052
 20
103.6167148168849
 30
0.0
 11
293.0971834704052
 21
96.30652236499964
 31
0.0
  0
LINE
  5
F80
330
6B
100
AcDbEntity
  8
0
  6
Continuous
100
AcDbLine
 10
355.5971834704052
 20
104.6087148168849
 30
0.0
 11
355.5971834704052
 21
96.30652236499964
 31
0.0
  0
LINE
  5
F81
330
6B
100
AcDbEntity
  8
0
  6
Continuous
100
AcDbLine
 10
295.5971834704052
 20
97.55652236499964
 30
0.0
 11
353.0971834704052
 21
97.55652236499964
 31
0.0
  0
LINE
  5
F85
330
6B
100
AcDbEntity
  8
0
  6
Continuous
100
AcDbLine
 10
356.3471834704052
 20
103.6167148168849
 30
0.0
 11
364.4104107435546
 21
103.6167148168849
 31
0.0
  0
LINE
  5
F86
330
6B
100
AcDbEntity
  8
0
  6
Continuous
100
AcDbLine
 10
317.5966834704052
 20
142.3667148168849
 30
0.0
 11
364.4104107435547
 21
142.3667148168849
 31
0.0
  0
LINE
  5
F87
330
6B
100
AcDbEntity
  8
0
  6
Continuous
100
AcDbLine
 10
363.1604107435546
 20
106.1167148168849
 30
0.0
 11
363.1604107435547
 21
139.8667148168849
 31
0.0
  0
LINE
  5
F8B
330
6B
100
AcDbEntity
  8
0
  6
Continuous
100
AcDbLine
 10
355.5971834704052
 20
104.6087148168849
 30
0.0
 11
355.5971834704052
 21
88.85160327636549
 31
0.0
  0
LINE
  5
F8C
330
6B
100
AcDbEntity
  8
0
  6
Continuous
100
AcDbLine
 10
238.0971834704052
 20
105.8667148168849
 30
0.0
 11
238.0971834704052
 21
88.85160327636549
 31
0.0
  0
LINE
  5
F8D
330
6B
100
AcDbEntity
  8
0
  6
Continuous
100
AcDbLine
 10
353.0971834704052
 20
90.10160327636549
 30
0.0
 11
240.5971834704052
 21
90.10160327636549
 31
0.0
  0
LINE
  5
F91
330
6B
100
AcDbEntity
  8
0
  6
Continuous
100
AcDbLine
 10
429.49834443185
 20
118.8667148168849
 30
0.0
 11
396.1627854023934
 21
118.8667148168849
 31
0.0
  0
LINE
  5
F92
330
6B
100
AcDbEntity
  8
0
  6
Continuous
100
AcDbLine
 10
429.49834443185
 20
105.3667148168849
 30
0.0
 11
396.1627854023934
 21
105.3667148168849
 31
0.0
  0
LINE
  5
F93
330
6B
100
AcDbEntity
  8
0
  6
Continuous
100
AcDbLine
 10
397.4127854023934
 20
102.8667148168849
 30
0.0
 11
397.4127854023934
 21
100.3667148168849
 31
0.0
  0
LINE
  5
F94
330
6B
100
AcDbEntity
  8
0
  6
Continuous
100
AcDbLine
 10
397.4127854023934
 20
121.3667148168849
 30
0.0
 11
397.4127854023935
 21
133.1167148168849
 31
0.0
  0
LINE
  5
F95
330
6B
100
AcDbEntity
  8
0
  6
Continuous
100
AcDbLine
 10
397.4127854023934
 20
105.3667148168849
 30
0.0
 11
397.4127854023934
 21
118.8667148168849
 31
0.0
  0
LINE
  5
F99
330
6B
100
AcDbEntity
  8
0
  6
Continuous
100
AcDbLine
 10
406.49834443185
 20
116.1167148168849
 30
0.0
 11
401.2509842743843
 21
116.1167148168849
 31
0.0
  0
LINE
  5
F9A
330
6B
100
AcDbEntity
  8
0
  6
Continuous
100
AcDbLine
 10
406.49834443185
 20
108.1167148168849
 30
0.0
 11
401.2509842743843
 21
108.1167148168849
 31
0.0
  0
LINE
  5
F9B
330
6B
100
AcDbEntity
  8
0
  6
Continuous
100
AcDbLine
 10
402.5009842743843
 20
105.6167148168849
 30
0.0
 11
402.5009842743843
 21
103.1167148168849
 31
0.0
  0
LINE
  5
F9C
330
6B
100
AcDbEntity
  8
0
  6
Continuous
100
AcDbLine
 10
402.5009842743843
 20
118.6167148168849
 30
0.0
 11
402.5009842743844
 21
129.3667148168849
 31
0.0
  0
LINE
  5
F9D
330
6B
100
AcDbEntity
  8
0
  6
Continuous
100
AcDbLine
 10
402.5009842743843
 20
108.1167148168849
 30
0.0
 11
402.5009842743843
 21
116.1167148168849
 31
0.0
  0
LINE
  5
FA1
330
6B
100
AcDbEntity
  8
0
  6
Continuous
100
AcDbLine
 10
465.9983444318502
 20
116.7417148168849
 30
0.0
 11
465.9983444318502
 21
121.1736648404533
 31
0.0
  0
LINE
  5
FA2
330
6B
100
AcDbEntity
  8
0
  6
Continuous
100
AcDbLine
 10
464.4983444318502
 20
116.7417148168849
 30
0.0
 11
464.4983444318502
 21
121.1736648404533
 31
0.0
  0
LINE
  5
FA3
330
6B
100
AcDbEntity
  8
0
  6
Continuous
100
AcDbLine
 10
461.9983444318502
 20
119.9236648404533
 30
0.0
 11
459.4983444318502
 21
119.9236648404533
 31
0.0
  0
LINE
  5
FA4
330
6B
100
AcDbEntity
  8
0
  6
Continuous
100
AcDbLine
 10
468.4983444318502
 20
119.9236648404533
 30
0.0
 11
480.9743403129357
 21
119.9236648404533
 31
0.0
  0
LINE
  5
FA5
330
6B
100
AcDbEntity
  8
0
  6
Continuous
100
AcDbLine
 10
464.4983444318502
 20
119.9236648404533
 30
0.0
 11
465.9983444318502
 21
119.9236648404533
 31
0.0
  0
LINE
  5
FA9
330
6B
100
AcDbEntity
  8
0
  6
Continuous
100
AcDbLine
 10
465.2483444318502
 20
116.7417148168849
 30
0.0
 11
465.2483444318502
 21
124.43653098497
 31
0.0
  0
LINE
  5
FAA
330
6B
100
AcDbEntity
  8
0
  6
Continuous
100
AcDbLine
 10
458.7483444318502
 20
123.43653098497
 30
0.0
 11
458.7483444318502
 21
124.43653098497
 31
0.0
  0
LINE
  5
FAB
330
6B
100
AcDbEntity
  8
0
  6
Continuous
100
AcDbLine
 10
462.7483444318502
 20
123.18653098497
 30
0.0
 11
461.2483444318502
 21
123.18653098497
 31
0.0
  0
LINE
  5
FAF
330
6B
100
AcDbEntity
  8
0
  6
Continuous
100
AcDbLine
 10
458.7483444318502
 20
117.6167148168849
 30
0.0
 11
458.7483444318502
 21
129.1379961857747
 31
0.0
  0
LINE
  5
FB0
330
6B
100
AcDbEntity
  8
0
  6
Continuous
100
AcDbLine
 10
407.2483445651827
 20
115.2417148168849
 30
0.0
 11
407.2483445651827
 21
129.1379961857747
 31
0.0
  0
LINE
  5
FB1
330
6B
100
AcDbEntity
  8
0
  6
Continuous
100
AcDbLine
 10
456.2483444318502
 20
127.8879961857747
 30
0.0
 11
409.7483445651827
 21
127.8879961857747
 31
0.0
  0
LINE
  5
FB5
330
6B
100
AcDbEntity
  8
0
  6
Continuous
100
AcDbLine
 10
458.7483444318502
 20
117.6167148168849
 30
0.0
 11
458.7483444318502
 21
124.43653098497
 31
0.0
  0
LINE
  5
FB6
330
6B
100
AcDbEntity
  8
0
  6
Continuous
100
AcDbLine
 10
454.2483444318502
 20
119.1167148168849
 30
0.0
 11
454.2483444318502
 21
124.43653098497
 31
0.0
  0
LINE
  5
FB7
330
6B
100
AcDbEntity
  8
0
  6
Continuous
100
AcDbLine
 10
461.2483444318502
 20
123.18653098497
 30
0.0
 11
463.7483444318502
 21
123.18653098497
 31
0.0
  0
LINE
  5
FB8
330
6B
100
AcDbEntity
  8
0
  6
Continuous
100
AcDbLine
 10
451.7483444318502
 20
123.18653098497
 30
0.0
 11
445.9983444318502
 21
123.18653098497
 31
0.0
  0
LINE
  5
FB9
330
6B
100
AcDbEntity
  8
0
  6
Continuous
100
AcDbLine
 10
458.7483444318502
 20
123.18653098497
 30
0.0
 11
454.2483444318502
 21
123.18653098497
 31
0.0
  0
LINE
  5
FBD
330
6B
100
AcDbEntity
  8
0
  6
Continuous
100
AcDbLine
 10
473.7483444318502
 20
127.4167148168849
 30
0.0
 11
473.7483444318502
 21
133.6590045232929
 31
0.0
  0
LINE
  5
FBE
330
6B
100
AcDbEntity
  8
0
  6
Continuous
100
AcDbLine
 10
407.24834443185
 20
127.4167148168849
 30
0.0
 11
407.24834443185
 21
133.6590045232929
 31
0.0
  0
LINE
  5
FBF
330
6B
100
AcDbEntity
  8
0
  6
Continuous
100
AcDbLine
 10
471.2483444318502
 20
132.4090045232928
 30
0.0
 11
409.7483444318499
 21
132.4090045232928
 31
0.0
  0
LINE
  5
FC3
330
6B
100
AcDbEntity
  8
0
  6
Continuous
100
AcDbLine
 10
473.74834443185
 20
112.3667148168849
 30
0.0
 11
473.74834443185
 21
129.1379961857747
 31
0.0
  0
LINE
  5
FC4
330
6B
100
AcDbEntity
  8
0
  6
Continuous
100
AcDbLine
 10
458.7483444318502
 20
117.6167148168849
 30
0.0
 11
458.7483444318502
 21
129.1379961857747
 31
0.0
  0
LINE
  5
FC5
330
6B
100
AcDbEntity
  8
0
  6
Continuous
100
AcDbLine
 10
471.2483444318499
 20
127.8879961857747
 30
0.0
 11
461.2483444318502
 21
127.8879961857747
 31
0.0
  0
LINE
  5
FC9
330
6B
100
AcDbEntity
  8
0
  6
Continuous
100
AcDbLine
 10
457.9983444318502
 20
118.3667148168849
 30
0.0
 11
481.2297571152326
 21
118.3667148168849
 31
0.0
  0
LINE
  5
FCA
330
6B
100
AcDbEntity
  8
0
  6
Continuous
100
AcDbLine
 10
457.9983444318502
 20
105.8667148168849
 30
0.0
 11
481.2297571152326
 21
105.8667148168848
 31
0.0
  0
LINE
  5
FCB
330
6B
100
AcDbEntity
  8
0
  6
Continuous
100
AcDbLine
 10
479.9797571152326
 20
115.8667148168849
 30
0.0
 11
479.9797571152326
 21
108.3667148168849
 31
0.0
  0
LINE
  5
FD5
330
6B
100
AcDbEntity
  8
0
 62
     2
100
AcDbLine
 10
352.444137
 20
176.481196
 30
0.0
 11
352.42551
 21
176.600463
 31
0.0
  0
LINE
  5
FD6
330
6B
100
AcDbEntity
  8
0
 62
     2
100
AcDbLine
 10
352.42551
 20
176.600463
 30
0.0
 11
352.403138
 21
176.714668
 31
0.0
  0
LINE
  5
FD7
330
6B
100
AcDbEntity
  8
0
 62
     2
100
AcDbLine
 10
352.403138
 20
176.714668
 30
0.0
 11
352.377196
 21
176.822927
 31
0.0
  0
LINE
  5
FD8
330
6B
100
AcDbEntity
  8
0
 62
     2
100
AcDbLine
 10
352.377196
 20
176.822927
 30
0.0
 11
352.347884
 21
176.924404
 31
0.0
  0
LINE
  5
FD9
330
6B
100
AcDbEntity
  8
0
 62
     2
100
AcDbLine
 10
352.347884
 20
176.924404
 30
0.0
 11
352.315429
 21
177.0183129999999
 31
0.0
  0
LINE
  5
FDA
330
6B
100
AcDbEntity
  8
0
 62
     2
100
AcDbLine
 10
352.315429
 20
177.0183129999999
 30
0.0
 11
352.28008
 21
177.10393
 31
0.0
  0
LINE
  5
FDB
330
6B
100
AcDbEntity
  8
0
 62
     2
100
AcDbLine
 10
352.28008
 20
177.10393
 30
0.0
 11
352.242112
 21
177.180593
 31
0.0
  0
LINE
  5
FDC
330
6B
100
AcDbEntity
  8
0
 62
     2
100
AcDbLine
 10
352.242112
 20
177.180593
 30
0.0
 11
352.201818
 21
177.247708
 31
0.0
  0
LINE
  5
FDD
330
6B
100
AcDbEntity
  8
0
 62
     2
100
AcDbLine
 10
352.201818
 20
177.247708
 30
0.0
 11
352.1595089999999
 21
177.304758
 31
0.0
  0
LINE
  5
FDE
330
6B
100
AcDbEntity
  8
0
 62
     2
100
AcDbLine
 10
352.1595089999999
 20
177.304758
 30
0.0
 11
352.115512
 21
177.3513
 31
0.0
  0
LINE
  5
FDF
330
6B
100
AcDbEntity
  8
0
 62
     2
100
AcDbLine
 10
352.115512
 20
177.3513
 30
0.0
 11
352.070168
 21
177.386976
 31
0.0
  0
LINE
  5
FE0
330
6B
100
AcDbEntity
  8
0
 62
     2
100
AcDbLine
 10
352.070168
 20
177.386976
 30
0.0
 11
352.023827
 21
177.41151
 31
0.0
  0
LINE
  5
FE1
330
6B
100
AcDbEntity
  8
0
 62
     2
100
AcDbLine
 10
352.023827
 20
177.41151
 30
0.0
 11
351.976847
 21
177.424712
 31
0.0
  0
LINE
  5
FE2
330
6B
100
AcDbEntity
  8
0
 62
     2
100
AcDbLine
 10
351.976847
 20
177.424712
 30
0.0
 11
351.929591
 21
177.42648
 31
0.0
  0
LINE
  5
FE3
330
6B
100
AcDbEntity
  8
0
 62
     2
100
AcDbLine
 10
351.929591
 20
177.42648
 30
0.0
 11
351.882425
 21
177.4168
 31
0.0
  0
LINE
  5
FE4
330
6B
100
AcDbEntity
  8
0
 62
     2
100
AcDbLine
 10
351.882425
 20
177.4168
 30
0.0
 11
351.835713
 21
177.395747
 31
0.0
  0
LINE
  5
FE5
330
6B
100
AcDbEntity
  8
0
 62
     2
100
AcDbLine
 10
351.835713
 20
177.395747
 30
0.0
 11
351.789816
 21
177.363485
 31
0.0
  0
LINE
  5
FE6
330
6B
100
AcDbEntity
  8
0
 62
     2
100
AcDbLine
 10
351.789816
 20
177.363485
 30
0.0
 11
351.74509
 21
177.320261
 31
0.0
  0
LINE
  5
FE7
330
6B
100
AcDbEntity
  8
0
 62
     2
100
AcDbLine
 10
351.74509
 20
177.320261
 30
0.0
 11
351.701878
 21
177.266411
 31
0.0
  0
LINE
  5
FE8
330
6B
100
AcDbEntity
  8
0
 62
     2
100
AcDbLine
 10
351.701878
 20
177.266411
 30
0.0
 11
351.660517
 21
177.20235
 31
0.0
  0
LINE
  5
FE9
330
6B
100
AcDbEntity
  8
0
 62
     2
100
AcDbLine
 10
351.660517
 20
177.20235
 30
0.0
 11
351.621324
 21
177.128575
 31
0.0
  0
LINE
  5
FEA
330
6B
100
AcDbEntity
  8
0
 62
     2
100
AcDbLine
 10
351.621324
 20
177.128575
 30
0.0
 11
351.584604
 21
177.045654
 31
0.0
  0
LINE
  5
FEB
330
6B
100
AcDbEntity
  8
0
 62
     2
100
AcDbLine
 10
351.584604
 20
177.045654
 30
0.0
 11
351.55064
 21
176.954229
 31
0.0
  0
LINE
  5
FEC
330
6B
100
AcDbEntity
  8
0
 62
     2
100
AcDbLine
 10
351.55064
 20
176.954229
 30
0.0
 11
351.519695
 21
176.855007
 31
0.0
  0
LINE
  5
FED
330
6B
100
AcDbEntity
  8
0
 62
     2
100
AcDbLine
 10
351.519695
 20
176.855007
 30
0.0
 11
351.492007
 21
176.748754
 31
0.0
  0
LINE
  5
FEE
330
6B
100
AcDbEntity
  8
0
 62
     2
100
AcDbLine
 10
351.492007
 20
176.748754
 30
0.0
 11
351.467792
 21
176.636292
 31
0.0
  0
LINE
  5
FEF
330
6B
100
AcDbEntity
  8
0
 62
     2
100
AcDbLine
 10
351.467792
 20
176.636292
 30
0.0
 11
351.4472350000001
 21
176.51849
 31
0.0
  0
LINE
  5
FF0
330
6B
100
AcDbEntity
  8
0
 62
     2
100
AcDbLine
 10
351.4472350000001
 20
176.51849
 30
0.0
 11
351.430496
 21
176.396259
 31
0.0
  0
LINE
  5
FF1
330
6B
100
AcDbEntity
  8
0
 62
     2
100
AcDbLine
 10
351.430496
 20
176.396259
 30
0.0
 11
351.417705
 21
176.270543
 31
0.0
  0
LINE
  5
FF2
330
6B
100
AcDbEntity
  8
0
 62
     2
100
AcDbLine
 10
351.417705
 20
176.270543
 30
0.0
 11
351.4089600000001
 21
176.142314
 31
0.0
  0
LINE
  5
FF3
330
6B
100
AcDbEntity
  8
0
 62
     2
100
AcDbLine
 10
351.4089600000001
 20
176.142314
 30
0.0
 11
351.404328
 21
176.012564
 31
0.0
  0
LINE
  5
FF4
330
6B
100
AcDbEntity
  8
0
 62
     2
100
AcDbLine
 10
351.404328
 20
176.012564
 30
0.0
 11
351.403846
 21
175.882295
 31
0.0
  0
LINE
  5
FF5
330
6B
100
AcDbEntity
  8
0
 62
     2
100
AcDbLine
 10
351.403846
 20
175.882295
 30
0.0
 11
351.407517
 21
175.752513
 31
0.0
  0
LINE
  5
FF6
330
6B
100
AcDbEntity
  8
0
 62
     2
100
AcDbLine
 10
351.407517
 20
175.752513
 30
0.0
 11
351.415314
 21
175.624224
 31
0.0
  0
LINE
  5
FF7
330
6B
100
AcDbEntity
  8
0
 62
     2
100
AcDbLine
 10
351.415314
 20
175.624224
 30
0.0
 11
351.427174
 21
175.498417
 31
0.0
  0
LINE
  5
FF8
330
6B
100
AcDbEntity
  8
0
 62
     2
100
AcDbLine
 10
351.427174
 20
175.498417
 30
0.0
 11
351.443008
 21
175.376065
 31
0.0
  0
LINE
  5
FF9
330
6B
100
AcDbEntity
  8
0
 62
     2
100
AcDbLine
 10
351.443008
 20
175.376065
 30
0.0
 11
351.462692
 21
175.258114
 31
0.0
  0
LINE
  5
FFA
330
6B
100
AcDbEntity
  8
0
 62
     2
100
AcDbLine
 10
351.462692
 20
175.258114
 30
0.0
 11
351.486075
 21
175.145476
 31
0.0
  0
LINE
  5
FFB
330
6B
100
AcDbEntity
  8
0
 62
     2
100
AcDbLine
 10
351.486075
 20
175.145476
 30
0.0
 11
351.512976
 21
175.039021
 31
0.0
  0
LINE
  5
FFC
330
6B
100
AcDbEntity
  8
0
 62
     2
100
AcDbLine
 10
351.512976
 20
175.039021
 30
0.0
 11
351.543186
 21
174.939573
 31
0.0
  0
LINE
  5
FFD
330
6B
100
AcDbEntity
  8
0
 62
     2
100
AcDbLine
 10
351.543186
 20
174.939573
 30
0.0
 11
351.576472
 21
174.847899
 31
0.0
  0
LINE
  5
FFE
330
6B
100
AcDbEntity
  8
0
 62
     2
100
AcDbLine
 10
351.576472
 20
174.847899
 30
0.0
 11
351.612578
 21
174.764709
 31
0.0
  0
LINE
  5
FFF
330
6B
100
AcDbEntity
  8
0
 62
     2
100
AcDbLine
 10
351.612578
 20
174.764709
 30
0.0
 11
351.651223
 21
174.690645
 31
0.0
  0
LINE
  5
1000
330
6B
100
AcDbEntity
  8
0
 62
     2
100
AcDbLine
 10
351.651223
 20
174.690645
 30
0.0
 11
351.692109
 21
174.62628
 31
0.0
  0
LINE
  5
1001
330
6B
100
AcDbEntity
  8
0
 62
     2
100
AcDbLine
 10
351.692109
 20
174.62628
 30
0.0
 11
351.734921
 21
174.572111
 31
0.0
  0
LINE
  5
1002
330
6B
100
AcDbEntity
  8
0
 62
     2
100
AcDbLine
 10
351.734921
 20
174.572111
 30
0.0
 11
351.779327
 21
174.528558
 31
0.0
  0
LINE
  5
1003
330
6B
100
AcDbEntity
  8
0
 62
     2
100
AcDbLine
 10
351.779327
 20
174.528558
 30
0.0
 11
351.824984
 21
174.495957
 31
0.0
  0
LINE
  5
1004
330
6B
100
AcDbEntity
  8
0
 62
     2
100
AcDbLine
 10
351.824984
 20
174.495957
 30
0.0
 11
351.871539
 21
174.474559
 31
0.0
  0
LINE
  5
1005
330
6B
100
AcDbEntity
  8
0
 62
     2
100
AcDbLine
 10
351.871539
 20
174.474559
 30
0.0
 11
351.918632
 21
174.46453
 31
0.0
  0
LINE
  5
1006
330
6B
100
AcDbEntity
  8
0
 62
     2
100
AcDbLine
 10
351.918632
 20
174.46453
 30
0.0
 11
351.965899
 21
174.465948
 31
0.0
  0
LINE
  5
1007
330
6B
100
AcDbEntity
  8
0
 62
     2
100
AcDbLine
 10
351.965899
 20
174.465948
 30
0.0
 11
352.012976
 21
174.478802
 31
0.0
  0
LINE
  5
1008
330
6B
100
AcDbEntity
  8
0
 62
     2
100
AcDbLine
 10
352.012976
 20
174.478802
 30
0.0
 11
352.059497
 21
174.502992
 31
0.0
  0
LINE
  5
1009
330
6B
100
AcDbEntity
  8
0
 62
     2
100
AcDbLine
 10
352.059497
 20
174.502992
 30
0.0
 11
352.105104
 21
174.538332
 31
0.0
  0
LINE
  5
100A
330
6B
100
AcDbEntity
  8
0
 62
     2
100
AcDbLine
 10
352.105104
 20
174.538332
 30
0.0
 11
352.149444
 21
174.584548
 31
0.0
  0
LINE
  5
100B
330
6B
100
AcDbEntity
  8
0
 62
     2
100
AcDbLine
 10
352.149444
 20
174.584548
 30
0.0
 11
352.192173
 21
174.641283
 31
0.0
  0
LINE
  5
100C
330
6B
100
AcDbEntity
  8
0
 62
     2
100
AcDbLine
 10
352.192173
 20
174.641283
 30
0.0
 11
352.232963
 21
174.708098
 31
0.0
  0
LINE
  5
100D
330
6B
100
AcDbEntity
  8
0
 62
     2
100
AcDbLine
 10
352.232963
 20
174.708098
 30
0.0
 11
352.271498
 21
174.784477
 31
0.0
  0
LINE
  5
100E
330
6B
100
AcDbEntity
  8
0
 62
     2
100
AcDbLine
 10
352.271498
 20
174.784477
 30
0.0
 11
352.307479
 21
174.86983
 31
0.0
  0
LINE
  5
100F
330
6B
100
AcDbEntity
  8
0
 62
     2
100
AcDbLine
 10
352.307479
 20
174.86983
 30
0.0
 11
352.340629
 21
174.963497
 31
0.0
  0
LINE
  5
1010
330
6B
100
AcDbEntity
  8
0
 62
     2
100
AcDbLine
 10
352.340629
 20
174.963497
 30
0.0
 11
352.370691
 21
175.064754
 31
0.0
  0
LINE
  5
1011
330
6B
100
AcDbEntity
  8
0
 62
     2
100
AcDbLine
 10
352.370691
 20
175.064754
 30
0.0
 11
352.3974330000001
 21
175.172818
 31
0.0
  0
LINE
  5
1012
330
6B
100
AcDbEntity
  8
0
 62
     2
100
AcDbLine
 10
352.3974330000001
 20
175.172818
 30
0.0
 11
352.420649
 21
175.286854
 31
0.0
  0
LINE
  5
1013
330
6B
100
AcDbEntity
  8
0
 62
     2
100
AcDbLine
 10
352.420649
 20
175.286854
 30
0.0
 11
352.440159
 21
175.405981
 31
0.0
  0
TEXT
  5
1014
330
6B
100
AcDbEntity
  8
0
  6
Continuous
 62
     4
100
AcDbText
 10
231.7766378974716
 20
109.8667148168849
 30
0.0
 40
3.0
  1
35
 50
90.0
100
AcDbText
  0
LINE
  5
1015
330
6B
100
AcDbEntity
  8
0
  6
ByBlock
 62
     0
370
    -2
100
AcDbLine
 10
231.7317653974716
 20
118.6167148168849
 30
0.0
 11
232.4016378974716
 21
121.1167148168849
 31
0.0
  0
LINE
  5
1016
330
6B
100
AcDbEntity
  8
0
  6
ByBlock
 62
     0
370
    -2
100
AcDbLine
 10
232.4016378974716
 20
121.1167148168849
 30
0.0
 11
233.0715103974716
 21
118.6167148168849
 31
0.0
  0
LINE
  5
1017
330
6B
100
AcDbEntity
  8
0
  6
ByBlock
 62
     0
370
    -2
100
AcDbLine
 10
232.4016378974716
 20
121.1167148168849
 30
0.0
 11
232.4016378974716
 21
118.6167148168849
 31
0.0
  0
LINE
  5
1018
330
6B
100
AcDbEntity
  8
0
  6
ByBlock
 62
     0
370
    -2
100
AcDbLine
 10
233.0715103974716
 20
106.1167148168849
 30
0.0
 11
232.4016378974716
 21
103.6167148168849
 31
0.0
  0
LINE
  5
1019
330
6B
100
AcDbEntity
  8
0
  6
ByBlock
 62
     0
370
    -2
100
AcDbLine
 10
232.4016378974716
 20
103.6167148168849
 30
0.0
 11
231.7317653974716
 21
106.1167148168849
 31
0.0
  0
LINE
  5
101A
330
6B
100
AcDbEntity
  8
0
  6
ByBlock
 62
     0
370
    -2
100
AcDbLine
 10
232.4016378974716
 20
103.6167148168849
 30
0.0
 11
232.4016378974716
 21
106.1167148168849
 31
0.0
  0
TEXT
  5
101B
330
6B
100
AcDbEntity
  8
0
  6
Continuous
 62
     4
100
AcDbText
 10
324.6390082756497
 20
98.18152236499964
 30
0.0
 40
3.0
  1
125
100
AcDbText
  0
LINE
  5
101C
330
6B
100
AcDbEntity
  8
0
  6
ByBlock
 62
     0
370
    -2
100
AcDbLine
 10
353.0971834704052
 20
98.22639486499964
 30
0.0
 11
355.5971834704052
 21
97.55652236499964
 31
0.0
  0
LINE
  5
101D
330
6B
100
AcDbEntity
  8
0
  6
ByBlock
 62
     0
370
    -2
100
AcDbLine
 10
355.5971834704052
 20
97.55652236499964
 30
0.0
 11
353.0971834704052
 21
96.88664986499965
 31
0.0
  0
LINE
  5
101E
330
6B
100
AcDbEntity
  8
0
  6
ByBlock
 62
     0
370
    -2
100
AcDbLine
 10
355.5971834704052
 20
97.55652236499964
 30
0.0
 11
353.0971834704052
 21
97.55652236499964
 31
0.0
  0
LINE
  5
101F
330
6B
100
AcDbEntity
  8
0
  6
ByBlock
 62
     0
370
    -2
100
AcDbLine
 10
295.5971834704052
 20
96.88664986499965
 30
0.0
 11
293.0971834704052
 21
97.55652236499964
 31
0.0
  0
LINE
  5
1020
330
6B
100
AcDbEntity
  8
0
  6
ByBlock
 62
     0
370
    -2
100
AcDbLine
 10
293.0971834704052
 20
97.55652236499964
 30
0.0
 11
295.5971834704052
 21
98.22639486499964
 31
0.0
  0
LINE
  5
1021
330
6B
100
AcDbEntity
  8
0
  6
ByBlock
 62
     0
370
    -2
100
AcDbLine
 10
293.0971834704052
 20
97.55652236499964
 30
0.0
 11
295.5971834704052
 21
97.55652236499964
 31
0.0
  0
TEXT
  5
1022
330
6B
100
AcDbEntity
  8
0
  6
Continuous
 62
     4
100
AcDbText
 10
362.5354107435546
 20
120.8160992411544
 30
0.0
 40
3.0
  1
78
 50
90.0
100
AcDbText
  0
LINE
  5
1023
330
6B
100
AcDbEntity
  8
0
  6
ByBlock
 62
     0
370
    -2
100
AcDbLine
 10
362.4905382435547
 20
139.8667148168849
 30
0.0
 11
363.1604107435547
 21
142.3667148168849
 31
0.0
  0
LINE
  5
1024
330
6B
100
AcDbEntity
  8
0
  6
ByBlock
 62
     0
370
    -2
100
AcDbLine
 10
363.1604107435547
 20
142.3667148168849
 30
0.0
 11
363.8302832435547
 21
139.8667148168849
 31
0.0
  0
LINE
  5
1025
330
6B
100
AcDbEntity
  8
0
  6
ByBlock
 62
     0
370
    -2
100
AcDbLine
 10
363.1604107435547
 20
142.3667148168849
 30
0.0
 11
363.1604107435547
 21
139.8667148168849
 31
0.0
  0
LINE
  5
1026
330
6B
100
AcDbEntity
  8
0
  6
ByBlock
 62
     0
370
    -2
100
AcDbLine
 10
363.8302832435546
 20
106.1167148168849
 30
0.0
 11
363.1604107435546
 21
103.6167148168849
 31
0.0
  0
LINE
  5
1027
330
6B
100
AcDbEntity
  8
0
  6
ByBlock
 62
     0
370
    -2
100
AcDbLine
 10
363.1604107435546
 20
103.6167148168849
 30
0.0
 11
362.4905382435546
 21
106.1167148168849
 31
0.0
  0
LINE
  5
1028
330
6B
100
AcDbEntity
  8
0
  6
ByBlock
 62
     0
370
    -2
100
AcDbLine
 10
363.1604107435546
 20
103.6167148168849
 30
0.0
 11
363.1604107435546
 21
106.1167148168849
 31
0.0
  0
TEXT
  5
1029
330
6B
100
AcDbEntity
  8
0
  6
Continuous
 62
     4
100
AcDbText
 10
292.7245910152988
 20
90.72660327636549
 30
0.0
 40
3.0
  1
235
100
AcDbText
  0
LINE
  5
102A
330
6B
100
AcDbEntity
  8
0
  6
ByBlock
 62
     0
370
    -2
100
AcDbLine
 10
240.5971834704052
 20
89.43173077636549
 30
0.0
 11
238.0971834704052
 21
90.10160327636549
 31
0.0
  0
LINE
  5
102B
330
6B
100
AcDbEntity
  8
0
  6
ByBlock
 62
     0
370
    -2
100
AcDbLine
 10
238.0971834704052
 20
90.10160327636549
 30
0.0
 11
240.5971834704052
 21
90.7714757763655
 31
0.0
  0
LINE
  5
102C
330
6B
100
AcDbEntity
  8
0
  6
ByBlock
 62
     0
370
    -2
100
AcDbLine
 10
238.0971834704052
 20
90.10160327636549
 30
0.0
 11
240.5971834704052
 21
90.10160327636549
 31
0.0
  0
LINE
  5
102D
330
6B
100
AcDbEntity
  8
0
  6
ByBlock
 62
     0
370
    -2
100
AcDbLine
 10
353.0971834704052
 20
90.7714757763655
 30
0.0
 11
355.5971834704052
 21
90.10160327636549
 31
0.0
  0
LINE
  5
102E
330
6B
100
AcDbEntity
  8
0
  6
ByBlock
 62
     0
370
    -2
100
AcDbLine
 10
355.5971834704052
 20
90.10160327636549
 30
0.0
 11
353.0971834704052
 21
89.43173077636549
 31
0.0
  0
LINE
  5
102F
330
6B
100
AcDbEntity
  8
0
  6
ByBlock
 62
     0
370
    -2
100
AcDbLine
 10
355.5971834704052
 20
90.10160327636549
 30
0.0
 11
353.0971834704052
 21
90.10160327636549
 31
0.0
  0
TEXT
  5
1030
330
6B
100
AcDbEntity
  8
0
  6
Continuous
 62
     4
100
AcDbText
 10
396.7877854023934
 20
124.491714816885
 30
0.0
 40
3.0
  1
\U+220527
 50
90.0
100
AcDbText
  0
LINE
  5
1031
330
6B
100
AcDbEntity
  8
0
  6
ByBlock
 62
     0
370
    -2
100
AcDbLine
 10
398.0826579023934
 20
121.3667148168849
 30
0.0
 11
397.4127854023934
 21
118.8667148168849
 31
0.0
  0
LINE
  5
1032
330
6B
100
AcDbEntity
  8
0
  6
ByBlock
 62
     0
370
    -2
100
AcDbLine
 10
397.4127854023934
 20
118.8667148168849
 30
0.0
 11
396.7429129023934
 21
121.3667148168849
 31
0.0
  0
LINE
  5
1033
330
6B
100
AcDbEntity
  8
0
  6
ByBlock
 62
     0
370
    -2
100
AcDbLine
 10
397.4127854023934
 20
118.8667148168849
 30
0.0
 11
397.4127854023934
 21
121.3667148168849
 31
0.0
  0
LINE
  5
1034
330
6B
100
AcDbEntity
  8
0
  6
ByBlock
 62
     0
370
    -2
100
AcDbLine
 10
396.7429129023934
 20
102.8667148168849
 30
0.0
 11
397.4127854023934
 21
105.3667148168849
 31
0.0
  0
LINE
  5
1035
330
6B
100
AcDbEntity
  8
0
  6
ByBlock
 62
     0
370
    -2
100
AcDbLine
 10
397.4127854023934
 20
105.3667148168849
 30
0.0
 11
398.0826579023934
 21
102.8667148168849
 31
0.0
  0
LINE
  5
1036
330
6B
100
AcDbEntity
  8
0
  6
ByBlock
 62
     0
370
    -2
100
AcDbLine
 10
397.4127854023934
 20
105.3667148168849
 30
0.0
 11
397.4127854023934
 21
102.8667148168849
 31
0.0
  0
TEXT
  5
1037
330
6B
100
AcDbEntity
  8
0
  6
Continuous
 62
     4
100
AcDbText
 10
401.8759842743843
 20
121.741714816885
 30
0.0
 40
3.0
  1
\U+220516
 50
90.0
100
AcDbText
  0
LINE
  5
1038
330
6B
100
AcDbEntity
  8
0
  6
ByBlock
 62
     0
370
    -2
100
AcDbLine
 10
403.1708567743843
 20
118.6167148168849
 30
0.0
 11
402.5009842743843
 21
116.1167148168849
 31
0.0
  0
LINE
  5
1039
330
6B
100
AcDbEntity
  8
0
  6
ByBlock
 62
     0
370
    -2
100
AcDbLine
 10
402.5009842743843
 20
116.1167148168849
 30
0.0
 11
401.8311117743843
 21
118.6167148168849
 31
0.0
  0
LINE
  5
103A
330
6B
100
AcDbEntity
  8
0
  6
ByBlock
 62
     0
370
    -2
100
AcDbLine
 10
402.5009842743843
 20
116.1167148168849
 30
0.0
 11
402.5009842743843
 21
118.6167148168849
 31
0.0
  0
LINE
  5
103B
330
6B
100
AcDbEntity
  8
0
  6
ByBlock
 62
     0
370
    -2
100
AcDbLine
 10
401.8311117743843
 20
105.6167148168849
 30
0.0
 11
402.5009842743843
 21
108.1167148168849
 31
0.0
  0
LINE
  5
103C
330
6B
100
AcDbEntity
  8
0
  6
ByBlock
 62
     0
370
    -2
100
AcDbLine
 10
402.5009842743843
 20
108.1167148168849
 30
0.0
 11
403.1708567743843
 21
105.6167148168849
 31
0.0
  0
LINE
  5
103D
330
6B
100
AcDbEntity
  8
0
  6
ByBlock
 62
     0
370
    -2
100
AcDbLine
 10
402.5009842743843
 20
108.1167148168849
 30
0.0
 11
402.5009842743843
 21
105.6167148168849
 31
0.0
  0
TEXT
  5
103E
330
6B
100
AcDbEntity
  8
0
  6
Continuous
 62
     4
100
AcDbText
 10
475.3493403129357
 20
120.5486648404533
 30
0.0
 40
3.0
  1
\U+22053
100
AcDbText
  0
LINE
  5
103F
330
6B
100
AcDbEntity
  8
0
  6
ByBlock
 62
     0
370
    -2
100
AcDbLine
 10
468.4983444318502
 20
119.2537923404533
 30
0.0
 11
465.9983444318502
 21
119.9236648404533
 31
0.0
  0
LINE
  5
1040
330
6B
100
AcDbEntity
  8
0
  6
ByBlock
 62
     0
370
    -2
100
AcDbLine
 10
465.9983444318502
 20
119.9236648404533
 30
0.0
 11
468.4983444318502
 21
120.5935373404533
 31
0.0
  0
LINE
  5
1041
330
6B
100
AcDbEntity
  8
0
  6
ByBlock
 62
     0
370
    -2
100
AcDbLine
 10
465.9983444318502
 20
119.9236648404533
 30
0.0
 11
468.4983444318502
 21
119.9236648404533
 31
0.0
  0
LINE
  5
1042
330
6B
100
AcDbEntity
  8
0
  6
ByBlock
 62
     0
370
    -2
100
AcDbLine
 10
461.9983444318502
 20
120.5935373404533
 30
0.0
 11
464.4983444318502
 21
119.9236648404533
 31
0.0
  0
LINE
  5
1043
330
6B
100
AcDbEntity
  8
0
  6
ByBlock
 62
     0
370
    -2
100
AcDbLine
 10
464.4983444318502
 20
119.9236648404533
 30
0.0
 11
461.9983444318502
 21
119.2537923404533
 31
0.0
  0
LINE
  5
1044
330
6B
100
AcDbEntity
  8
0
  6
ByBlock
 62
     0
370
    -2
100
AcDbLine
 10
464.4983444318502
 20
119.9236648404533
 30
0.0
 11
461.9983444318502
 21
119.9236648404533
 31
0.0
  0
TEXT
  5
1045
330
6B
100
AcDbEntity
  8
0
  6
Continuous
 62
     4
100
AcDbText
 10
459.9983444318502
 20
123.8115309849699
 30
0.0
 40
3.0
  1
13
100
AcDbText
  0
LINE
  5
1046
330
6B
100
AcDbEntity
  8
0
  6
ByBlock
 62
     0
370
    -2
100
AcDbLine
 10
461.2483444318502
 20
122.5166584849699
 30
0.0
 11
458.7483444318502
 21
123.18653098497
 31
0.0
  0
LINE
  5
1047
330
6B
100
AcDbEntity
  8
0
  6
ByBlock
 62
     0
370
    -2
100
AcDbLine
 10
458.7483444318502
 20
123.18653098497
 30
0.0
 11
461.2483444318502
 21
123.85640348497
 31
0.0
  0
LINE
  5
1048
330
6B
100
AcDbEntity
  8
0
  6
ByBlock
 62
     0
370
    -2
100
AcDbLine
 10
458.7483444318502
 20
123.18653098497
 30
0.0
 11
461.2483444318502
 21
123.18653098497
 31
0.0
  0
LINE
  5
1049
330
6B
100
AcDbEntity
  8
0
  6
ByBlock
 62
     0
370
    -2
100
AcDbLine
 10
462.7483444318502
 20
123.85640348497
 30
0.0
 11
465.2483444318502
 21
123.18653098497
 31
0.0
  0
LINE
  5
104A
330
6B
100
AcDbEntity
  8
0
  6
ByBlock
 62
     0
370
    -2
100
AcDbLine
 10
465.2483444318502
 20
123.18653098497
 30
0.0
 11
462.7483444318502
 21
122.5166584849699
 31
0.0
  0
LINE
  5
104B
330
6B
100
AcDbEntity
  8
0
  6
ByBlock
 62
     0
370
    -2
100
AcDbLine
 10
465.2483444318502
 20
123.18653098497
 30
0.0
 11
462.7483444318502
 21
123.18653098497
 31
0.0
  0
TEXT
  5
104C
330
6B
100
AcDbEntity
  8
0
  6
Continuous
 62
     4
100
AcDbText
 10
431.5960772505027
 20
128.5129961857746
 30
0.0
 40
3.0
  1
103
100
AcDbText
  0
LINE
  5
104D
330
6B
100
AcDbEntity
  8
0
  6
ByBlock
 62
     0
370
    -2
100
AcDbLine
 10
409.7483445651827
 20
127.2181236857747
 30
0.0
 11
407.2483445651827
 21
127.8879961857747
 31
0.0
  0
LINE
  5
104E
330
6B
100
AcDbEntity
  8
0
  6
ByBlock
 62
     0
370
    -2
100
AcDbLine
 10
407.2483445651827
 20
127.8879961857747
 30
0.0
 11
409.7483445651827
 21
128.5578686857747
 31
0.0
  0
LINE
  5
104F
330
6B
100
AcDbEntity
  8
0
  6
ByBlock
 62
     0
370
    -2
100
AcDbLine
 10
407.2483445651827
 20
127.8879961857747
 30
0.0
 11
409.7483445651827
 21
127.8879961857747
 31
0.0
  0
LINE
  5
1050
330
6B
100
AcDbEntity
  8
0
  6
ByBlock
 62
     0
370
    -2
100
AcDbLine
 10
456.2483444318502
 20
128.5578686857747
 30
0.0
 11
458.7483444318502
 21
127.8879961857747
 31
0.0
  0
LINE
  5
1051
330
6B
100
AcDbEntity
  8
0
  6
ByBlock
 62
     0
370
    -2
100
AcDbLine
 10
458.7483444318502
 20
127.8879961857747
 30
0.0
 11
456.2483444318502
 21
127.2181236857747
 31
0.0
  0
LINE
  5
1052
330
6B
100
AcDbEntity
  8
0
  6
ByBlock
 62
     0
370
    -2
100
AcDbLine
 10
458.7483444318502
 20
127.8879961857747
 30
0.0
 11
456.2483444318502
 21
127.8879961857747
 31
0.0
  0
TEXT
  5
1053
330
6B
100
AcDbEntity
  8
0
  6
Continuous
 62
     4
100
AcDbText
 10
446.6233444318502
 20
123.8115309849699
 30
0.0
 40
3.0
  1
9
100
AcDbText
  0
LINE
  5
1054
330
6B
100
AcDbEntity
  8
0
  6
ByBlock
 62
     0
370
    -2
100
AcDbLine
 10
451.7483444318502
 20
123.85640348497
 30
0.0
 11
454.2483444318502
 21
123.18653098497
 31
0.0
  0
LINE
  5
1055
330
6B
100
AcDbEntity
  8
0
  6
ByBlock
 62
     0
370
    -2
100
AcDbLine
 10
454.2483444318502
 20
123.18653098497
 30
0.0
 11
451.7483444318502
 21
122.5166584849699
 31
0.0
  0
LINE
  5
1056
330
6B
100
AcDbEntity
  8
0
  6
ByBlock
 62
     0
370
    -2
100
AcDbLine
 10
454.2483444318502
 20
123.18653098497
 30
0.0
 11
451.7483444318502
 21
123.18653098497
 31
0.0
  0
LINE
  5
1057
330
6B
100
AcDbEntity
  8
0
  6
ByBlock
 62
     0
370
    -2
100
AcDbLine
 10
461.2483444318502
 20
122.5166584849699
 30
0.0
 11
458.7483444318502
 21
123.18653098497
 31
0.0
  0
LINE
  5
1058
330
6B
100
AcDbEntity
  8
0
  6
ByBlock
 62
     0
370
    -2
100
AcDbLine
 10
458.7483444318502
 20
123.18653098497
 30
0.0
 11
461.2483444318502
 21
123.85640348497
 31
0.0
  0
LINE
  5
1059
330
6B
100
AcDbEntity
  8
0
  6
ByBlock
 62
     0
370
    -2
100
AcDbLine
 10
458.7483444318502
 20
123.18653098497
 30
0.0
 11
461.2483444318502
 21
123.18653098497
 31
0.0
  0
TEXT
  5
105A
330
6B
100
AcDbEntity
  8
0
  6
Continuous
 62
     4
100
AcDbText
 10
436.9983444318501
 20
133.0340045232929
 30
0.0
 40
3.0
  1
133
100
AcDbText
  0
LINE
  5
105B
330
6B
100
AcDbEntity
  8
0
  6
ByBlock
 62
     0
370
    -2
100
AcDbLine
 10
409.7483444318499
 20
131.7391320232929
 30
0.0
 11
407.24834443185
 21
132.4090045232928
 31
0.0
  0
LINE
  5
105C
330
6B
100
AcDbEntity
  8
0
  6
ByBlock
 62
     0
370
    -2
100
AcDbLine
 10
407.24834443185
 20
132.4090045232928
 30
0.0
 11
409.7483444318499
 21
133.0788770232929
 31
0.0
  0
LINE
  5
105D
330
6B
100
AcDbEntity
  8
0
  6
ByBlock
 62
     0
370
    -2
100
AcDbLine
 10
407.24834443185
 20
132.4090045232928
 30
0.0
 11
409.7483444318499
 21
132.4090045232928
 31
0.0
  0
LINE
  5
105E
330
6B
100
AcDbEntity
  8
0
  6
ByBlock
 62
     0
370
    -2
100
AcDbLine
 10
471.2483444318502
 20
133.0788770232929
 30
0.0
 11
473.7483444318502
 21
132.4090045232928
 31
0.0
  0
LINE
  5
105F
330
6B
100
AcDbEntity
  8
0
  6
ByBlock
 62
     0
370
    -2
100
AcDbLine
 10
473.7483444318502
 20
132.4090045232928
 30
0.0
 11
471.2483444318502
 21
131.7391320232929
 31
0.0
  0
LINE
  5
1060
330
6B
100
AcDbEntity
  8
0
  6
ByBlock
 62
     0
370
    -2
100
AcDbLine
 10
473.7483444318502
 20
132.4090045232928
 30
0.0
 11
471.2483444318502
 21
132.4090045232928
 31
0.0
  0
TEXT
  5
1061
330
6B
100
AcDbEntity
  8
0
  6
Continuous
 62
     4
100
AcDbText
 10
463.282011349697
 20
128.5129961857746
 30
0.0
 40
3.0
  1
30
100
AcDbText
  0
LINE
  5
1062
330
6B
100
AcDbEntity
  8
0
  6
ByBlock
 62
     0
370
    -2
100
AcDbLine
 10
461.2483444318502
 20
127.2181236857747
 30
0.0
 11
458.7483444318502
 21
127.8879961857747
 31
0.0
  0
LINE
  5
1063
330
6B
100
AcDbEntity
  8
0
  6
ByBlock
 62
     0
370
    -2
100
AcDbLine
 10
458.7483444318502
 20
127.8879961857747
 30
0.0
 11
461.2483444318502
 21
128.5578686857747
 31
0.0
  0
LINE
  5
1064
330
6B
100
AcDbEntity
  8
0
  6
ByBlock
 62
     0
370
    -2
100
AcDbLine
 10
458.7483444318502
 20
127.8879961857747
 30
0.0
 11
461.2483444318502
 21
127.8879961857747
 31
0.0
  0
LINE
  5
1065
330
6B
100
AcDbEntity
  8
0
  6
ByBlock
 62
     0
370
    -2
100
AcDbLine
 10
471.2483444318499
 20
128.5578686857747
 30
0.0
 11
473.74834443185
 21
127.8879961857747
 31
0.0
  0
LINE
  5
1066
330
6B
100
AcDbEntity
  8
0
  6
ByBlock
 62
     0
370
    -2
100
AcDbLine
 10
473.74834443185
 20
127.8879961857747
 30
0.0
 11
471.2483444318499
 21
127.2181236857747
 31
0.0
  0
LINE
  5
1067
330
6B
100
AcDbEntity
  8
0
  6
ByBlock
 62
     0
370
    -2
100
AcDbLine
 10
473.74834443185
 20
127.8879961857747
 30
0.0
 11
471.2483444318499
 21
127.8879961857747
 31
0.0
  0
TEXT
  5
1068
330
6B
100
AcDbEntity
  8
0
  6
Continuous
 62
     4
100
AcDbText
 10
479.3547571152325
 20
108.5970535270439
 30
0.0
 40
3.0
  1
\U+220525
 50
90.0
100
AcDbText
  0
LINE
  5
1069
330
6B
100
AcDbEntity
  8
0
  6
ByBlock
 62
     0
370
    -2
100
AcDbLine
 10
480.6496296152325
 20
108.3667148168849
 30
0.0
 11
479.9797571152326
 21
105.8667148168849
 31
0.0
  0
LINE
  5
106A
330
6B
100
AcDbEntity
  8
0
  6
ByBlock
 62
     0
370
    -2
100
AcDbLine
 10
479.9797571152326
 20
105.8667148168849
 30
0.0
 11
479.3098846152325
 21
108.3667148168849
 31
0.0
  0
LINE
  5
106B
330
6B
100
AcDbEntity
  8
0
  6
ByBlock
 62
     0
370
    -2
100
AcDbLine
 10
479.9797571152326
 20
105.8667148168849
 30
0.0
 11
479.9797571152326
 21
108.3667148168849
 31
0.0
  0
LINE
  5
106C
330
6B
100
AcDbEntity
  8
0
  6
ByBlock
 62
     0
370
    -2
100
AcDbLine
 10
479.3098846152325
 20
115.8667148168849
 30
0.0
 11
479.9797571152326
 21
118.3667148168849
 31
0.0
  0
LINE
  5
106D
330
6B
100
AcDbEntity
  8
0
  6
ByBlock
 62
     0
370
    -2
100
AcDbLine
 10
479.9797571152326
 20
118.3667148168849
 30
0.0
 11
480.6496296152325
 21
115.8667148168849
 31
0.0
  0
LINE
  5
106E
330
6B
100
AcDbEntity
  8
0
  6
ByBlock
 62
     0
370
    -2
100
AcDbLine
 10
479.9797571152326
 20
118.3667148168849
 30
0.0
 11
479.9797571152326
 21
115.8667148168849
 31
0.0
  0
LINE
  5
106F
330
6B
100
AcDbEntity
  8
0
  6
Continuous
100
AcDbLine
 10
266.4758117921202
 20
133.56588492513
 30
0.0
 11
259.305672091716
 21
144.6459515896571
 31
0.0
1001
ACAD
1000
DSTYLE
1002
{
1070
   147
1040
0.625
1070
    77
1070
     0
1002
}
  0
LINE
  5
1070
330
6B
100
AcDbEntity
  8
0
  6
ByBlock
 62
     0
370
    -2
100
AcDbLine
 10
267.0382008985207
 20
133.9298185169546
 30
0.0
 11
267.8340314228132
 21
131.4670186990927
 31
0.0
  0
LINE
  5
1071
330
6B
100
AcDbEntity
  8
0
  6
ByBlock
 62
     0
370
    -2
100
AcDbLine
 10
267.8340314228132
 20
131.4670186990927
 30
0.0
 11
265.9134226857197
 21
133.2019513333055
 31
0.0
  0
LINE
  5
1072
330
6B
100
AcDbEntity
  8
0
  6
ByBlock
 62
     0
370
    -2
100
AcDbLine
 10
267.8340314228132
 20
131.4670186990927
 30
0.0
 11
266.4758117921202
 21
133.56588492513
 31
0.0
  0
LINE
  5
1073
330
6B
100
AcDbEntity
  8
0
  6
Continuous
100
AcDbLine
 10
393.9386721425971
 20
117.4116273315607
 30
0.0
 11
387.0407841324627
 21
144.0038590123801
 31
0.0
1001
ACAD
1000
DSTYLE
1002
{
1070
   147
1040
0.625
1070
    77
1070
     0
1002
}
  0
LINE
  5
1074
330
6B
100
AcDbEntity
  8
0
  6
ByBlock
 62
     0
370
    -2
100
AcDbLine
 10
394.587085280992
 20
117.5798223618474
 30
0.0
 11
394.5663849920078
 21
114.9917148168849
 31
0.0
  0
LINE
  5
1075
330
6B
100
AcDbEntity
  8
0
  6
ByBlock
 62
     0
370
    -2
100
AcDbLine
 10
394.5663849920078
 20
114.9917148168849
 30
0.0
 11
393.2902590042023
 21
117.2434323012739
 31
0.0
  0
LINE
  5
1076
330
6B
100
AcDbEntity
  8
0
  6
ByBlock
 62
     0
370
    -2
100
AcDbLine
 10
394.5663849920078
 20
114.9917148168849
 30
0.0
 11
393.9386721425971
 21
117.4116273315607
 31
0.0
  0
LINE
  5
1077
330
6B
100
AcDbEntity
  8
0
  6
Continuous
100
AcDbLine
 10
429.2307927495809
 20
121.3125562377829
 30
0.0
 11
425.106482336236
 21
140.8031879701989
 31
0.0
1001
ACAD
1000
DSTYLE
1002
{
1070
   147
1040
0.625
1070
    77
1070
     0
1002
}
  0
LINE
  5
1078
330
6B
100
AcDbEntity
  8
0
  6
ByBlock
 62
     0
370
    -2
100
AcDbLine
 10
429.886153512469
 20
121.4512336934952
 30
0.0
 11
429.7483444318499
 21
118.8667148168849
 31
0.0
  0
LINE
  5
1079
330
6B
100
AcDbEntity
  8
0
  6
ByBlock
 62
     0
370
    -2
100
AcDbLine
 10
429.7483444318499
 20
118.8667148168849
 30
0.0
 11
428.5754319866927
 21
121.1738787820705
 31
0.0
  0
LINE
  5
107A
330
6B
100
AcDbEntity
  8
0
  6
ByBlock
 62
     0
370
    -2
100
AcDbLine
 10
429.7483444318499
 20
118.8667148168849
 30
0.0
 11
429.2307927495809
 21
121.3125562377829
 31
0.0
  0
ENDSEC
  0
SECTION
  2
OBJECTS
  0
DICTIONARY
  5
C
330
0
100
AcDbDictionary
281
     1
  3
ACAD_2007HEADERVARS_RT
350
107E
  3
ACAD_COLOR
350
62
  3
ACAD_GROUP
350
D
  3
ACAD_LAYOUT
350
61
  3
ACAD_MATERIAL
350
10
  3
ACAD_MLEADERSTYLE
350
65
  3
ACAD_MLINESTYLE
350
5E
  3
ACAD_PLOTSETTINGS
350
60
  3
ACAD_PLOTSTYLENAME
350
E
  3
ACAD_SCALELIST
350
42
  3
ACAD_TABLESTYLE
350
63
  3
ACAD_VISUALSTYLE
350
29
  3
AcadDim
350
57B
  3
ACDB_RECOMPOSE_DATA
350
107C
  3
AcDbVariableDictionary
350
43A
  3
DWGPROPS
350
107D
  0
DICTIONARY
  5
2F0
330
2
100
AcDbDictionary
280
     1
281
     1
  3
ACAD_LAYERSTATES
360
2F1
  0
DICTIONARY
  5
438
330
54
100
AcDbDictionary
280
     1
281
     1
  3
ADSK_XREC_LAYER_RECONCILED
360
439
  0
DICTIONARY
  5
48B
330
6B
100
AcDbDictionary
280
     1
281
     1
  3
ACAD_SORTENTS
360
48C
  0
DICTIONARY
  5
107E
102
{ACAD_REACTORS
330
C
102
}
330
C
100
AcDbDictionary
281
     1
  3
DIMARCSYM
350
1080
  3
DIMFXL
350
107F
  3
DIMJOGANG
350
1081
  0
DICTIONARY
  5
62
102
{ACAD_REACTORS
330
C
102
}
330
C
100
AcDbDictionary
281
     1
  0
DICTIONARY
  5
D
102
{ACAD_REACTORS
330
C
102
}
330
C
100
AcDbDictionary
281
     1
  0
DICTIONARY
  5
61
102
{ACAD_REACTORS
330
C
102
}
330
C
100
AcDbDictionary
281
     1
  3
Model
350
6E
  3
レイアウト1
350
6A
  0
DICTIONARY
  5
10
102
{ACAD_REACTORS
330
C
102
}
330
C
100
AcDbDictionary
281
     1
  3
ByBlock
350
19
  3
ByLayer
350
11
  3
Global
350
21
  0
DICTIONARY
  5
65
102
{ACAD_REACTORS
330
C
102
}
330
C
100
AcDbDictionary
281
     1
  3
Standard
350
66
  0
DICTIONARY
  5
5E
102
{ACAD_REACTORS
330
C
102
}
330
C
100
AcDbDictionary
281
     1
  3
Standard
350
5F
  0
DICTIONARY
  5
60
102
{ACAD_REACTORS
330
C
102
}
330
C
100
AcDbDictionary
281
     1
  0
ACDBDICTIONARYWDFLT
  5
E
102
{ACAD_REACTORS
330
C
102
}
330
C
100
AcDbDictionary
281
     1
  3
Normal
350
F
100
AcDbDictionaryWithDefault
340
F
  0
DICTIONARY
  5
42
102
{ACAD_REACTORS
330
C
102
}
330
C
100
AcDbDictionary
281
     1
  3
A0
350
43
  3
A1
350
44
  3
A2
350
45
  3
A3
350
46
  3
A4
350
47
  3
A5
350
48
  3
A6
350
49
  3
A7
350
4A
  3
A8
350
4B
  3
A9
350
4C
  3
B0
350
4D
  3
B1
350
4E
  3
B2
350
4F
  3
B3
350
50
  3
B4
350
51
  3
B5
350
52
  3
B6
350
53
  0
DICTIONARY
  5
63
102
{ACAD_REACTORS
330
C
102
}
330
C
100
AcDbDictionary
281
     1
  3
Standard
350
64
  0
DICTIONARY
  5
29
102
{ACAD_REACTORS
330
C
102
}
330
C
100
AcDbDictionary
281
     1
  3
2dWireframe
350
2F
  3
3dWireframe
350
2ED
  3
Basic
350
2E
  3
Brighten
350
35
  3
ColorChange
350
39
  3
Conceptual
350
32
  3
Dim
350
34
  3
EdgeColorOff
350
41
  3
Facepattern
350
38
  3
Flat
350
2A
  3
FlatWithEdges
350
2B
  3
Gouraud
350
2C
  3
GouraudWithEdges
350
2D
  3
Hidden
350
31
  3
JitterOff
350
3F
  3
Linepattern
350
37
  3
OverhangOff
350
40
  3
Realistic
350
33
  3
Shaded
350
3E
  3
Shaded with edges
350
3D
  3
Shades of Gray
350
3A
  3
Sketchy
350
3B
  3
Thicken
350
36
  3
Wireframe
350
30
  3
X-Ray
350
3C
  0
XRECORD
  5
57B
102
{ACAD_REACTORS
330
C
102
}
330
C
100
AcDbXrecord
280
     1
 90
   990106
  3

 60
     0
 61
     0
 62
     1
 63
     3
 64
     0
 65
     0
 66
     0
 67
     3
 68
     1
 69
     0
 70
     0
 71
     0
 72
     0
 40
0.0
170
     0
  0
XRECORD
  5
107C
102
{ACAD_REACTORS
330
C
102
}
330
C
100
AcDbXrecord
280
     1
 90
        1
330
64
  0
DICTIONARY
  5
43A
102
{ACAD_REACTORS
330
C
102
}
330
C
100
AcDbDictionary
281
     1
  3
CANNOSCALE
350
43D
  3
CMLEADERSTYLE
350
43C
  3
CTABLESTYLE
350
43B
  3
DIMASSOC
350
440
  3
INDEXCTL
350
43F
  3
SORTENTS
350
43E
  3
XCLIPFRAME
350
F32
  0
XRECORD
  5
107D
102
{ACAD_REACTORS
330
C
102
}
330
C
100
AcDbXrecord
280
     1
  1
DWGPROPS COOKIE
  2

  3

  4

  6

  7

  8
imamura
  9

300
=
301
=
302
=
303
=
304
=
305
=
306
=
307
=
308
=
309
=
 40
0.1166162268518518
 41
2456346.423929201
 42
2456504.481478692
  1

 90
        0
  0
DICTIONARY
  5
2F1
102
{ACAD_REACTORS
330
2F0
102
}
330
2F0
100
AcDbDictionary
281
     1
  0
XRECORD
  5
439
102
{ACAD_REACTORS
330
438
102
}
330
438
100
AcDbXrecord
280
     1
290
     1
  0
SORTENTSTABLE
  5
48C
102
{ACAD_REACTORS
330
48B
102
}
330
48B
100
AcDbSortentsTable
330
6B
331
DF
  5
DF
331
327
  5
C02
331
185
  5
1D5
331
DB
  5
DB
331
14E
  5
18E
331
181
  5
1D1
331
D7
  5
D7
331
14A
  5
18A
331
1074
  5
C2C
331
247
  5
BFF
331
17D
  5
1CD
331
D3
  5
D3
331
4AA
  5
C15
331
179
  5
1C9
331
1070
  5
C30
331
243
  5
BFB
331
106C
  5
FD9
331
1068
  5
FE5
331
CED
  5
FBF
331
C3D
  5
F8F
331
77F
  5
C1E
331
CE9
  5
FBB
331
C39
  5
F8B
331
77B
  5
C19
331
C35
  5
F87
331
BFD
  5
C4F
331
FFE
  5
167
331
F80
  5
1068
331
FBF
  5
FF8
331
C31
  5
F83
331
BF9
  5
C4B
331
FFA
  5
163
331
1035
  5
104D
331
FF6
  5
15F
331
1031
  5
104F
331
FF2
  5
15B
331
146
  5
186
331
CF
  5
CF
331
142
  5
182
331
1B4
  5
335
331
CB
  5
CB
331
23F
  5
BF7
331
175
  5
1C5
331
13E
  5
17E
331
1B0
  5
331
331
23B
  5
BF3
331
171
  5
1B5
331
C7
  5
C7
331
1064
  5
FF4
331
237
  5
BEF
331
1AC
  5
32D
331
C3
  5
C3
331
1060
  5
FFE
331
CE5
  5
FB7
331
1A8
  5
329
331
105C
  5
1003
331
1058
  5
1015
331
C2D
  5
F7F
331
BF5
  5
C47
331
FB7
  5
100E
331
C29
  5
F7B
331
BF1
  5
C43
331
C64
  5
FB1
331
102D
  5
1056
331
C25
  5
D02
331
BED
  5
C3F
331
FEE
  5
157
331
C60
  5
FAD
331
1029
  5
105C
331
FAF
  5
101B
331
C21
  5
CF5
331
BE9
  5
C3B
331
FEA
  5
153
331
1025
  5
1065
331
FAB
  5
1027
331
FE6
  5
14F
331
1021
  5
106C
331
EC4
  5
CEE
331
FE2
  5
14B
331
BF
  5
BF
331
1A4
  5
325
331
BB
  5
BB
331
FA
  5
FA
331
22F
  5
BED
331
16D
  5
1B1
331
1A0
  5
244
331
169
  5
1AD
331
B7
  5
B7
331
F6
  5
F6
331
1054
  5
1017
331
165
  5
1A9
331
B3
  5
B3
331
F2
  5
F2
331
198
  5
240
331
1050
  5
101E
331
1DB
  5
BEB
331
161
  5
1A5
331
104C
  5
1024
331
1048
  5
102D
331
C5C
  5
FA9
331
C1D
  5
CF1
331
785
  5
C20
331
C19
  5
CEB
331
982
  5
C37
331
101D
  5
106E
331
FA3
  5
1031
331
C15
  5
CE7
331
FDE
  5
147
331
C50
  5
FA2
331
1019
  5
1075
331
C11
  5
CE3
331
FDA
  5
143
331
1015
  5
1077
331
F9B
  5
103D
331
FD6
  5
13F
331
1011
  5
17B
331
EE
  5
EE
331
AF
  5
AF
331
194
  5
23C
331
AB
  5
AB
331
EA
  5
EA
331
336
  5
C11
331
1D7
  5
984
331
15D
  5
1A1
331
190
  5
238
331
332
  5
C0D
331
159
  5
199
331
A7
  5
A7
331
E6
  5
E6
331
1D3
  5
980
331
18C
  5
22E
331
32E
  5
C09
331
155
  5
195
331
E2
  5
E2
331
1044
  5
1036
331
1CF
  5
786
331
188
  5
1D8
331
32A
  5
C05
331
151
  5
191
331
1040
  5
1038
331
1CB
  5
77E
331
103C
  5
1041
331
1038
  5
1043
331
C4C
  5
F9E
331
C0D
  5
C64
331
CF4
  5
FCC
331
C48
  5
F9A
331
C09
  5
C60
331
CF0
  5
FC5
331
C44
  5
F96
331
F93
  5
1049
331
C05
  5
C5C
331
100D
  5
177
331
C40
  5
F92
331
C01
  5
C53
331
FCA
  5
FD4
331
1009
  5
172
331
F8B
  5
1053
331
1005
  5
16E
331
1001
  5
16A
331
DE
  5
DE
331
326
  5
C01
331
184
  5
1D4
331
DA
  5
DA
331
14D
  5
18D
331
1C7
  5
49F
331
1077
  5
C2B
331
180
  5
1D0
331
D6
  5
D6
331
149
  5
189
331
1073
  5
C2F
331
246
  5
BFE
331
17C
  5
1CC
331
D2
  5
D2
331
4A9
  5
C17
331
178
  5
1C8
331
106F
  5
C33
331
242
  5
BFA
331
106B
  5
FE4
331
CEC
  5
FBE
331
C3C
  5
F8E
331
77E
  5
C1D
331
CE8
  5
FBA
331
F87
  5
105F
331
C38
  5
F8A
331
C34
  5
F86
331
BFC
  5
C4E
331
FFD
  5
166
331
F7F
  5
1067
331
FBE
  5
FF7
331
C30
  5
F82
331
BF8
  5
C4A
331
FF9
  5
162
331
F7B
  5
1073
331
1034
  5
104C
331
FF5
  5
15E
331
1030
  5
1052
331
FF1
  5
15A
331
145
  5
185
331
1B7
  5
338
331
CE
  5
CE
331
141
  5
181
331
23E
  5
BF6
331
1B3
  5
334
331
CA
  5
CA
331
1AF
  5
330
331
1067
  5
FEE
331
23A
  5
BF2
331
170
  5
1B4
331
C6
  5
C6
331
1063
  5
FF0
331
236
  5
BEE
331
1AB
  5
32C
331
C2
  5
C2
331
105F
  5
FFD
331
CE4
  5
FB6
331
105B
  5
1002
331
C2C
  5
F7E
331
BF4
  5
C46
331
C67
  5
FB4
331
FB6
  5
100A
331
C28
  5
F7A
331
BF0
  5
C42
331
C63
  5
FB0
331
102C
  5
105B
331
C24
  5
CF8
331
BEC
  5
C3E
331
FED
  5
156
331
1028
  5
1062
331
C20
  5
CF4
331
BE8
  5
C3A
331
FE9
  5
152
331
1024
  5
1064
331
FAA
  5
1026
331
FE5
  5
14E
331
1020
  5
106B
331
FE1
  5
14A
331
1A7
  5
328
331
BE
  5
BE
331
1A3
  5
247
331
BA
  5
BA
331
F9
  5
F9
331
22E
  5
BEC
331
16C
  5
1B0
331
19F
  5
243
331
1057
  5
1014
331
168
  5
1AC
331
B6
  5
B6
331
F5
  5
F5
331
1053
  5
101A
331
164
  5
1A8
331
B2
  5
B2
331
F1
  5
F1
331
339
  5
C14
331
160
  5
1A4
331
104F
  5
1023
331
1DA
  5
BEA
331
104B
  5
102A
331
C5F
  5
FAC
331
C5B
  5
FA8
331
C18
  5
CEA
331
981
  5
C36
331
780
  5
C1F
331
C53
  5
FA5
331
101C
  5
106D
331
FA2
  5
1030
331
C14
  5
CE6
331
FDD
  5
146
331
1018
  5
1074
331
C10
  5
C67
331
FD9
  5
142
331
1014
  5
107A
331
F9A
  5
103C
331
FD5
  5
13E
331
1010
  5
17A
331
ED
  5
ED
331
197
  5
23F
331
AE
  5
AE
331
193
  5
23B
331
AA
  5
AA
331
E9
  5
E9
331
335
  5
C10
331
1D6
  5
983
331
15C
  5
1A0
331
18F
  5
237
331
331
  5
C0C
331
158
  5
198
331
A6
  5
A6
331
E5
  5
E5
331
1047
  5
102C
331
1D2
  5
97F
331
18B
  5
1DB
331
32D
  5
C08
331
154
  5
194
331
1043
  5
1035
331
1CE
  5
785
331
E1
  5
E1
331
329
  5
C04
331
150
  5
190
331
103F
  5
1037
331
1CA
  5
77D
331
103B
  5
1040
331
107A
  5
C2A
331
C4F
  5
FA1
331
CF7
  5
FD2
331
C4B
  5
F9D
331
C0C
  5
C63
331
CF3
  5
FCB
331
C47
  5
F99
331
C08
  5
C5F
331
C43
  5
F95
331
F92
  5
1048
331
C04
  5
C56
331
100C
  5
176
331
C00
  5
C52
331
FC9
  5
FD3
331
1008
  5
171
331
FC5
  5
FE8
331
1004
  5
16D
331
1000
  5
169
331
187
  5
1D7
331
DD
  5
DD
331
325
  5
C00
331
183
  5
1D3
331
D9
  5
D9
331
14C
  5
18C
331
1C6
  5
49D
331
1076
  5
C2E
331
17F
  5
1CF
331
D5
  5
D5
331
148
  5
188
331
1072
  5
C32
331
245
  5
BFD
331
17B
  5
1CB
331
D1
  5
D1
331
106E
  5
FDE
331
241
  5
BF9
331
106A
  5
FE0
331
CEF
  5
FC4
331
C3F
  5
F91
331
CEB
  5
FBD
331
C3B
  5
F8D
331
77D
  5
C1B
331
F86
  5
105E
331
C37
  5
F89
331
BFF
  5
C51
331
779
  5
C18
331
C33
  5
F85
331
BFB
  5
C4D
331
FFC
  5
165
331
1037
  5
1046
331
FBD
  5
FF6
331
FF8
  5
161
331
F7A
  5
1072
331
FB9
  5
1010
331
1033
  5
1051
331
FF4
  5
15D
331
FF0
  5
159
331
144
  5
184
331
1B6
  5
337
331
CD
  5
CD
331
177
  5
1C7
331
140
  5
180
331
1B2
  5
333
331
23D
  5
BF5
331
173
  5
1B7
331
C9
  5
C9
331
1066
  5
FED
331
239
  5
BF1
331
1AE
  5
32F
331
C5
  5
C5
331
1062
  5
FEF
331
CE7
  5
FB9
331
1AA
  5
32B
331
C1
  5
C1
331
105E
  5
FFC
331
CE3
  5
FB5
331
105A
  5
1008
331
C2F
  5
F81
331
BF7
  5
C49
331
C2B
  5
F7D
331
BF3
  5
C45
331
C66
  5
FB3
331
102F
  5
1058
331
FB5
  5
1009
331
C27
  5
F79
331
BEF
  5
C41
331
C62
  5
FAF
331
102B
  5
105A
331
FB1
  5
101D
331
C23
  5
CF7
331
BEB
  5
C3D
331
FEC
  5
155
331
1027
  5
1061
331
FE8
  5
151
331
1023
  5
1063
331
FA9
  5
1025
331
EC6
  5
CF0
331
FE4
  5
14D
331
FE0
  5
149
331
1A6
  5
327
331
BD
  5
BD
331
16F
  5
1B3
331
1A2
  5
246
331
B9
  5
B9
331
F8
  5
F8
331
16B
  5
1AF
331
19E
  5
242
331
1056
  5
1019
331
167
  5
1AB
331
B5
  5
B5
331
F4
  5
F4
331
F0
  5
F0
331
1052
  5
1020
331
163
  5
1A7
331
B1
  5
B1
331
338
  5
C13
331
104E
  5
1022
331
1D9
  5
BE9
331
104A
  5
1029
331
C5E
  5
FAB
331
C1F
  5
CF3
331
C5A
  5
FA7
331
984
  5
C39
331
C1B
  5
CED
331
101F
  5
106A
331
FA5
  5
1033
331
C17
  5
CE9
331
980
  5
C35
331
C52
  5
FA4
331
101B
  5
1070
331
FA1
  5
102F
331
C13
  5
CE5
331
FDC
  5
145
331
1017
  5
1079
331
F9D
  5
103F
331
FD8
  5
141
331
F99
  5
103B
331
1013
  5
17D
331
EC
  5
EC
331
196
  5
23E
331
15F
  5
1A3
331
AD
  5
AD
331
192
  5
23A
331
A9
  5
A9
331
E8
  5
E8
331
334
  5
C0F
331
1D5
  5
982
331
15B
  5
19F
331
18E
  5
236
331
330
  5
C0B
331
157
  5
197
331
A5
  5
A5
331
E4
  5
E4
331
1046
  5
102B
331
1D1
  5
79D
331
18A
  5
1DA
331
32C
  5
C07
331
153
  5
193
331
1042
  5
1034
331
1CD
  5
780
331
E0
  5
E0
331
328
  5
C03
331
103E
  5
103A
331
1C9
  5
4A2
331
103A
  5
1045
331
1079
  5
C29
331
C4E
  5
FA0
331
C0F
  5
C66
331
CF6
  5
FD1
331
C4A
  5
F9C
331
C0B
  5
C62
331
CF2
  5
FCA
331
C46
  5
F98
331
C07
  5
C5E
331
F95
  5
104B
331
97F
  5
C34
331
100F
  5
179
331
C42
  5
F94
331
F91
  5
1047
331
C03
  5
C55
331
100B
  5
175
331
F8D
  5
1055
331
1007
  5
170
331
FC4
  5
FE7
331
1003
  5
16C
331
186
  5
1D6
331
DC
  5
DC
331
14F
  5
18F
331
182
  5
1D2
331
D8
  5
D8
331
14B
  5
18B
331
1C5
  5
339
331
1075
  5
C2D
331
17E
  5
1CE
331
D4
  5
D4
331
1071
  5
C31
331
244
  5
BFC
331
17A
  5
1CA
331
D0
  5
D0
331
106D
  5
FDA
331
240
  5
BF8
331
1069
  5
FDF
331
CEE
  5
FC0
331
C3E
  5
F90
331
CEA
  5
FBC
331
C3A
  5
F8C
331
77C
  5
C1A
331
F85
  5
105D
331
C36
  5
F88
331
BFE
  5
C50
331
778
  5
C16
331
FFF
  5
168
331
F81
  5
1069
331
C32
  5
F84
331
BFA
  5
C4C
331
FFB
  5
164
331
1036
  5
104E
331
FF7
  5
160
331
F79
  5
1071
331
FB8
  5
100F
331
1032
  5
1050
331
FF3
  5
15C
331
147
  5
187
331
143
  5
183
331
1B5
  5
336
331
CC
  5
CC
331
176
  5
1C6
331
13F
  5
17F
331
1B1
  5
332
331
23C
  5
BF4
331
172
  5
1B6
331
C8
  5
C8
331
1065
  5
FEC
331
238
  5
BF0
331
1AD
  5
32E
331
C4
  5
C4
331
1061
  5
FF5
331
CE6
  5
FB8
331
1A9
  5
32A
331
C0
  5
C0
331
105D
  5
1004
331
1059
  5
1016
331
C2E
  5
F80
331
BF6
  5
C48
331
C2A
  5
F7C
331
BF2
  5
C44
331
C65
  5
FB2
331
102E
  5
1057
331
C26
  5
D0F
331
BEE
  5
C40
331
FEF
  5
158
331
C61
  5
FAE
331
102A
  5
1059
331
FB0
  5
101C
331
C22
  5
CF6
331
BEA
  5
C3C
331
FEB
  5
154
331
1026
  5
1060
331
FE7
  5
150
331
1022
  5
1066
331
EC5
  5
CEF
331
FE3
  5
14C
331
1A5
  5
326
331
BC
  5
BC
331
FB
  5
FB
331
16E
  5
1B2
331
1A1
  5
245
331
16A
  5
1AE
331
B8
  5
B8
331
F7
  5
F7
331
1055
  5
1018
331
166
  5
1AA
331
B4
  5
B4
331
F3
  5
F3
331
199
  5
241
331
1051
  5
101F
331
162
  5
1A6
331
B0
  5
B0
331
104D
  5
1021
331
1D8
  5
BE8
331
1049
  5
1028
331
C5D
  5
FAA
331
C1E
  5
CF2
331
786
  5
C21
331
C59
  5
FA6
331
983
  5
C38
331
C1A
  5
CEC
331
101E
  5
106F
331
FA4
  5
1032
331
C16
  5
CE8
331
FDF
  5
148
331
C51
  5
FA3
331
101A
  5
1076
331
C12
  5
CE4
331
FDB
  5
144
331
1016
  5
1078
331
F9C
  5
103E
331
FD7
  5
140
331
1012
  5
17C
331
EF
  5
EF
331
195
  5
23D
331
AC
  5
AC
331
EB
  5
EB
331
337
  5
C12
331
15E
  5
1A2
331
191
  5
239
331
A8
  5
A8
331
E7
  5
E7
331
333
  5
C0E
331
1D4
  5
981
331
15A
  5
19E
331
18D
  5
22F
331
32F
  5
C0A
331
156
  5
196
331
A4
  5
A4
331
E3
  5
E3
331
1045
  5
102E
331
1D0
  5
787
331
189
  5
1D9
331
32B
  5
C06
331
152
  5
192
331
A0
  5
A0
331
1041
  5
1039
331
1CC
  5
77F
331
103D
  5
1042
331
1C8
  5
4A1
331
1039
  5
1044
331
1078
  5
C28
331
C4D
  5
F9F
331
C0E
  5
C65
331
CF5
  5
FD0
331
C49
  5
F9B
331
C0A
  5
C61
331
CF1
  5
FC6
331
C45
  5
F97
331
F94
  5
104A
331
C06
  5
C5D
331
100E
  5
178
331
C41
  5
F93
331
C02
  5
C54
331
FCB
  5
FD8
331
100A
  5
173
331
F8C
  5
1054
331
1006
  5
16F
331
FC3
  5
FE6
331
1002
  5
16B
  0
XRECORD
  5
1080
102
{ACAD_REACTORS
330
107E
102
}
330
107E
100
AcDbXrecord
280
     1
 70
     2
  0
XRECORD
  5
107F
102
{ACAD_REACTORS
330
107E
102
}
330
107E
100
AcDbXrecord
280
     1
 40
1.25
  0
XRECORD
  5
1081
102
{ACAD_REACTORS
330
107E
102
}
330
107E
100
AcDbXrecord
280
     1
 40
1.570796326794896
  0
LAYOUT
  5
6E
102
{ACAD_XDICTIONARY
360
10B5
102
}
102
{ACAD_REACTORS
330
61
102
}
330
61
100
AcDbPlotSettings
  1

  2
none_device
  4
Letter_(8.50_x_11.00_Inches)
  6

 40
6.349999904632567
 41
6.349999904632567
 42
6.350006103515625
 43
6.350006103515625
 44
215.8999938964844
 45
279.3999938964844
 46
0.0
 47
0.0
 48
0.0
 49
0.0
140
0.0
141
0.0
142
1.0
143
73.38282267701301
 70
 11952
 72
     0
 73
     1
 74
     0
  7

 75
     0
147
0.0136271672786614
148
-926.1290504705144
149
3268.001665903085
100
AcDbLayout
  1
Model
 70
     1
 71
     0
 10
0.0
 20
0.0
 11
12.0
 21
9.0
 12
0.0
 22
0.0
 32
0.0
 14
0.0
 24
0.0
 34
0.0
 15
0.0
 25
0.0
 35
0.0
146
0.0
 13
0.0
 23
0.0
 33
0.0
 16
1.0
 26
0.0
 36
0.0
 17
0.0
 27
1.0
 37
0.0
 76
     0
330
6B
331
8B
1001
ACAD_PSEXT
1000
なし
1000
なし
1000
適切ではありません
1000
新しいプロッタ環境設定名を選択しない限り、レイアウトは印刷されません。
1070
     0
  0
LAYOUT
  5
6A
102
{ACAD_XDICTIONARY
360
10B3
102
}
102
{ACAD_REACTORS
330
61
102
}
330
61
100
AcDbPlotSettings
  1

  2
FX DP 205
  4

  6

 40
0.0
 41
0.0
 42
0.0
 43
0.0
 44
0.0
 45
0.0
 46
0.0
 47
0.0
 48
0.0
 49
0.0
140
0.0
141
0.0
142
1.0
143
1.0
 70
   688
 72
     0
 73
     0
 74
     5
  7

 75
    16
147
1.0
148
0.0
149
0.0
100
AcDbLayout
  1
レイアウト1
 70
     1
 71
     1
 10
0.0
 20
0.0
 11
12.0
 21
9.0
 12
0.0
 22
0.0
 32
0.0
 14
1.000000000000000E+20
 24
1.000000000000000E+20
 34
1.000000000000000E+20
 15
-1.000000000000000E+20
 25
-1.000000000000000E+20
 35
-1.000000000000000E+20
146
0.0
 13
0.0
 23
0.0
 33
0.0
 16
1.0
 26
0.0
 36
0.0
 17
0.0
 27
1.0
 37
0.0
 76
     0
330
67
  0
MATERIAL
  5
19
102
{ACAD_XDICTIONARY
360
1A
102
}
102
{ACAD_REACTORS
330
10
102
}
330
10
100
AcDbMaterial
  1
ByBlock
 72
     0
 43
0.0208333333333333
 43
0.0
 43
0.0
 43
0.0
 43
0.0
 43
0.0208333333333333
 43
0.0
 43
0.0
 43
0.0
 43
0.0
 43
1.0
 43
0.0
 43
0.0
 43
0.0
 43
0.0
 43
1.0
 77
     0
 47
0.0208333333333333
 47
0.0
 47
0.0
 47
0.0
 47
0.0
 47
0.0208333333333333
 47
0.0
 47
0.0
 47
0.0
 47
0.0
 47
1.0
 47
0.0
 47
0.0
 47
0.0
 47
0.0
 47
1.0
171
     0
 49
0.0208333333333333
 49
0.0
 49
0.0
 49
0.0
 49
0.0
 49
0.0208333333333333
 49
0.0
 49
0.0
 49
0.0
 49
0.0
 49
1.0
 49
0.0
 49
0.0
 49
0.0
 49
0.0
 49
1.0
175
     0
142
0.0208333333333333
142
0.0
142
0.0
142
0.0
142
0.0
142
0.0208333333333333
142
0.0
142
0.0
142
0.0
142
0.0
142
1.0
142
0.0
142
0.0
142
0.0
142
0.0
142
1.0
179
     0
144
0.0208333333333333
144
0.0
144
0.0
144
0.0
144
0.0
144
0.0208333333333333
144
0.0
144
0.0
144
0.0
144
0.0
144
1.0
144
0.0
144
0.0
144
0.0
144
0.0
144
1.0
147
0.0208333333333333
147
0.0
147
0.0
147
0.0
147
0.0
147
0.0208333333333333
147
0.0
147
0.0
147
0.0
147
0.0
147
1.0
147
0.0
147
0.0
147
0.0
147
0.0
147
1.0
  0
MATERIAL
  5
11
102
{ACAD_XDICTIONARY
360
12
102
}
102
{ACAD_REACTORS
330
10
102
}
330
10
100
AcDbMaterial
  1
ByLayer
 72
     0
 43
0.0208333333333333
 43
0.0
 43
0.0
 43
0.0
 43
0.0
 43
0.0208333333333333
 43
0.0
 43
0.0
 43
0.0
 43
0.0
 43
1.0
 43
0.0
 43
0.0
 43
0.0
 43
0.0
 43
1.0
 77
     0
 47
0.0208333333333333
 47
0.0
 47
0.0
 47
0.0
 47
0.0
 47
0.0208333333333333
 47
0.0
 47
0.0
 47
0.0
 47
0.0
 47
1.0
 47
0.0
 47
0.0
 47
0.0
 47
0.0
 47
1.0
171
     0
 49
0.0208333333333333
 49
0.0
 49
0.0
 49
0.0
 49
0.0
 49
0.0208333333333333
 49
0.0
 49
0.0
 49
0.0
 49
0.0
 49
1.0
 49
0.0
 49
0.0
 49
0.0
 49
0.0
 49
1.0
175
     0
142
0.0208333333333333
142
0.0
142
0.0
142
0.0
142
0.0
142
0.0208333333333333
142
0.0
142
0.0
142
0.0
142
0.0
142
1.0
142
0.0
142
0.0
142
0.0
142
0.0
142
1.0
179
     0
144
0.0208333333333333
144
0.0
144
0.0
144
0.0
144
0.0
144
0.0208333333333333
144
0.0
144
0.0
144
0.0
144
0.0
144
1.0
144
0.0
144
0.0
144
0.0
144
0.0
144
1.0
147
0.0208333333333333
147
0.0
147
0.0
147
0.0
147
0.0
147
0.0208333333333333
147
0.0
147
0.0
147
0.0
147
0.0
147
1.0
147
0.0
147
0.0
147
0.0
147
0.0
147
1.0
  0
MATERIAL
  5
21
102
{ACAD_XDICTIONARY
360
22
102
}
102
{ACAD_REACTORS
330
10
102
}
330
10
100
AcDbMaterial
  1
Global
 72
     0
 43
0.0208333333333333
 43
0.0
 43
0.0
 43
0.0
 43
0.0
 43
0.0208333333333333
 43
0.0
 43
0.0
 43
0.0
 43
0.0
 43
1.0
 43
0.0
 43
0.0
 43
0.0
 43
0.0
 43
1.0
 77
     0
 47
0.0208333333333333
 47
0.0
 47
0.0
 47
0.0
 47
0.0
 47
0.0208333333333333
 47
0.0
 47
0.0
 47
0.0
 47
0.0
 47
1.0
 47
0.0
 47
0.0
 47
0.0
 47
0.0
 47
1.0
171
     0
 49
0.0208333333333333
 49
0.0
 49
0.0
 49
0.0
 49
0.0
 49
0.0208333333333333
 49
0.0
 49
0.0
 49
0.0
 49
0.0
 49
1.0
 49
0.0
 49
0.0
 49
0.0
 49
0.0
 49
1.0
175
     0
142
0.0208333333333333
142
0.0
142
0.0
142
0.0
142
0.0
142
0.0208333333333333
142
0.0
142
0.0
142
0.0
142
0.0
142
1.0
142
0.0
142
0.0
142
0.0
142
0.0
142
1.0
179
     0
144
0.0208333333333333
144
0.0
144
0.0
144
0.0
144
0.0
144
0.0208333333333333
144
0.0
144
0.0
144
0.0
144
0.0
144
1.0
144
0.0
144
0.0
144
0.0
144
0.0
144
1.0
147
0.0208333333333333
147
0.0
147
0.0
147
0.0
147
0.0
147
0.0208333333333333
147
0.0
147
0.0
147
0.0
147
0.0
147
1.0
147
0.0
147
0.0
147
0.0
147
0.0
147
1.0
  0
MLEADERSTYLE
  5
66
102
{ACAD_REACTORS
330
65
102
}
330
65
100
AcDbMLeaderStyle
170
     2
171
     1
172
     0
 90
        2
 40
0.0
 41
0.0
173
     1
 91
-1056964608
340
5A
 92
       -2
290
     1
 42
0.09
291
     1
 43
0.36
  3
Standard
 44
0.18
300

342
55
174
     1
178
     6
175
     1
176
     0
 93
-1056964608
 45
0.18
292
     0
297
     0
 46
0.18
 94
-1056964608
 47
1.0
 49
1.0
140
1.0
293
     1
141
0.0
294
     1
177
     0
142
1.0
295
     0
296
     0
143
0.125
1001
ACAD_MLEADERVER
1070
     2
  0
MLINESTYLE
  5
5F
102
{ACAD_REACTORS
330
5E
102
}
330
5E
100
AcDbMlineStyle
  2
STANDARD
 70
     0
  3

 62
   256
 51
90.0
 52
90.0
 71
     2
 49
0.5
 62
   256
  6
BYLAYER
 49
-0.5
 62
   256
  6
BYLAYER
  0
ACDBPLACEHOLDER
  5
F
102
{ACAD_REACTORS
330
E
102
}
330
E
  0
SCALE
  5
43
102
{ACAD_REACTORS
330
42
102
}
330
42
100
AcDbScale
 70
     0
300
1:1
140
1.0
141
1.0
290
     1
  0
SCALE
  5
44
102
{ACAD_REACTORS
330
42
102
}
330
42
100
AcDbScale
 70
     0
300
1/128" = 1'-0"
140
0.0078125
141
12.0
290
     0
  0
SCALE
  5
45
102
{ACAD_REACTORS
330
42
102
}
330
42
100
AcDbScale
 70
     0
300
1/64" = 1'-0"
140
0.015625
141
12.0
290
     0
  0
SCALE
  5
46
102
{ACAD_REACTORS
330
42
102
}
330
42
100
AcDbScale
 70
     0
300
1/32" = 1'-0"
140
0.03125
141
12.0
290
     0
  0
SCALE
  5
47
102
{ACAD_REACTORS
330
42
102
}
330
42
100
AcDbScale
 70
     0
300
1/16" = 1'-0"
140
0.0625
141
12.0
290
     0
  0
SCALE
  5
48
102
{ACAD_REACTORS
330
42
102
}
330
42
100
AcDbScale
 70
     0
300
3/32" = 1'-0"
140
0.09375
141
12.0
290
     0
  0
SCALE
  5
49
102
{ACAD_REACTORS
330
42
102
}
330
42
100
AcDbScale
 70
     0
300
1/8" = 1'-0"
140
0.125
141
12.0
290
     0
  0
SCALE
  5
4A
102
{ACAD_REACTORS
330
42
102
}
330
42
100
AcDbScale
 70
     0
300
3/16" = 1'-0"
140
0.1875
141
12.0
290
     0
  0
SCALE
  5
4B
102
{ACAD_REACTORS
330
42
102
}
330
42
100
AcDbScale
 70
     0
300
1/4" = 1'-0"
140
0.25
141
12.0
290
     0
  0
SCALE
  5
4C
102
{ACAD_REACTORS
330
42
102
}
330
42
100
AcDbScale
 70
     0
300
3/8" = 1'-0"
140
0.375
141
12.0
290
     0
  0
SCALE
  5
4D
102
{ACAD_REACTORS
330
42
102
}
330
42
100
AcDbScale
 70
     0
300
1/2" = 1'-0"
140
0.5
141
12.0
290
     0
  0
SCALE
  5
4E
102
{ACAD_REACTORS
330
42
102
}
330
42
100
AcDbScale
 70
     0
300
3/4" = 1'-0"
140
0.75
141
12.0
290
     0
  0
SCALE
  5
4F
102
{ACAD_REACTORS
330
42
102
}
330
42
100
AcDbScale
 70
     0
300
1" = 1'-0"
140
1.0
141
12.0
290
     0
  0
SCALE
  5
50
102
{ACAD_REACTORS
330
42
102
}
330
42
100
AcDbScale
 70
     0
300
1-1/2" = 1'-0"
140
1.5
141
12.0
290
     0
  0
SCALE
  5
51
102
{ACAD_REACTORS
330
42
102
}
330
42
100
AcDbScale
 70
     0
300
3" = 1'-0"
140
3.0
141
12.0
290
     0
  0
SCALE
  5
52
102
{ACAD_REACTORS
330
42
102
}
330
42
100
AcDbScale
 70
     0
300
6" = 1'-0"
140
6.0
141
12.0
290
     0
  0
SCALE
  5
53
102
{ACAD_REACTORS
330
42
102
}
330
42
100
AcDbScale
 70
     0
300
1'-0" = 1'-0"
140
12.0
141
12.0
290
     0
  0
TABLESTYLE
  5
64
102
{ACAD_XDICTIONARY
360
442
102
}
102
{ACAD_REACTORS
330
63
102
}
330
63
100
AcDbTableStyle
  3
Standard
 70
     0
 71
     0
 40
0.06
 41
0.06
280
     0
281
     0
  7
STANDARD
140
0.18
170
     2
 62
     0
 63
     7
283
     0
274
    -2
284
     1
 64
     0
275
    -2
285
     1
 65
     0
276
    -2
286
     1
 66
     0
277
    -2
287
     1
 67
     0
278
    -2
288
     1
 68
     0
279
    -2
289
     1
 69
     0
  7
STANDARD
140
0.25
170
     5
 62
     0
 63
     7
283
     0
274
    -2
284
     1
 64
     0
275
    -2
285
     1
 65
     0
276
    -2
286
     1
 66
     0
277
    -2
287
     1
 67
     0
278
    -2
288
     1
 68
     0
279
    -2
289
     1
 69
     0
  7
STANDARD
140
0.18
170
     5
 62
     0
 63
     7
283
     0
274
    -2
284
     1
 64
     0
275
    -2
285
     1
 65
     0
276
    -2
286
     1
 66
     0
277
    -2
287
     1
 67
     0
278
    -2
288
     1
 68
     0
279
    -2
289
     1
 69
     0
  0
VISUALSTYLE
  5
2F
102
{ACAD_XDICTIONARY
360
108C
102
}
102
{ACAD_REACTORS
330
29
102
}
330
29
100
AcDbVisualStyle
  2

 70
     4
 71
     0
 72
     2
 73
     0
 90
        0
 40
-0.6
 41
-30.0
 62
     5
 63
     7
 74
     1
 91
        4
 64
     7
 65
   257
 75
     1
175
     1
 42
1.0
 92
        0
 66
   257
 43
1.0
 76
     1
 77
     6
 78
     2
 67
     7
 79
     5
170
     0
171
     0
290
     0
174
     0
 93
        1
 44
0.0
173
     0
291
     0
 45
0.0
1001
ACAD
1000
AcDbSavedByObjectVersion
1070
     0
  0
VISUALSTYLE
  5
2ED
102
{ACAD_XDICTIONARY
360
10B7
102
}
102
{ACAD_REACTORS
330
29
102
}
330
29
100
AcDbVisualStyle
  2

 70
     5
 71
     0
 72
     2
 73
     1
 90
        0
 40
-0.6
 41
-30.0
 62
     5
 63
     7
 74
     1
 91
        4
 64
     7
 65
   257
 75
     1
175
     1
 42
1.0
 92
        0
 66
   257
 43
1.0
 76
     1
 77
     6
 78
     2
 67
     7
 79
     5
170
     0
171
     0
290
     0
174
     0
 93
        1
 44
0.0
173
     0
291
     0
 45
0.0
1001
ACAD
1000
AcDbSavedByObjectVersion
1070
     0
  0
VISUALSTYLE
  5
2E
102
{ACAD_XDICTIONARY
360
108A
102
}
102
{ACAD_REACTORS
330
29
102
}
330
29
100
AcDbVisualStyle
  2

 70
     7
 71
     1
 72
     0
 73
     1
 90
        0
 40
-0.6
 41
-30.0
 62
     5
 63
     7
 74
     0
 91
        4
 64
     7
 65
   257
 75
     1
175
     1
 42
1.0
 92
        8
 66
     7
 43
1.0
 76
     1
 77
     6
 78
     2
 67
     7
 79
     5
170
     0
171
     0
290
     0
174
     0
 93
        1
 44
0.0
173
     0
291
     1
 45
0.0
1001
ACAD
1000
AcDbSavedByObjectVersion
1070
     0
  0
VISUALSTYLE
  5
35
102
{ACAD_XDICTIONARY
360
1098
102
}
102
{ACAD_REACTORS
330
29
102
}
330
29
100
AcDbVisualStyle
  2

 70
    12
 71
     2
 72
     2
 73
     0
 90
        0
 40
-0.6
 41
-30.0
 62
     5
 63
     7
 74
     1
 91
        4
 64
     7
 65
   257
 75
     1
175
     1
 42
1.0
 92
        8
 66
     7
 43
1.0
 76
     1
 77
     6
 78
     2
 67
     7
 79
     5
170
     0
171
     0
290
     0
174
     0
 93
        1
 44
50.0
173
     0
291
     1
 45
0.0
1001
ACAD
1000
AcDbSavedByObjectVersion
1070
     0
  0
VISUALSTYLE
  5
39
102
{ACAD_XDICTIONARY
360
10A0
102
}
102
{ACAD_REACTORS
330
29
102
}
330
29
100
AcDbVisualStyle
  2

 70
    16
 71
     2
 72
     2
 73
     3
 90
        0
 40
-0.6
 41
-30.0
 62
     5
 63
     8
 74
     1
 91
        4
 64
     7
 65
   257
 75
     1
175
     1
 42
1.0
 92
        8
 66
     8
 43
1.0
 76
     1
 77
     6
 78
     2
 67
     7
 79
     5
170
     0
171
     0
290
     0
174
     0
 93
        1
 44
0.0
173
     0
291
     1
 45
0.0
1001
ACAD
1000
AcDbSavedByObjectVersion
1070
     0
  0
VISUALSTYLE
  5
32
102
{ACAD_XDICTIONARY
360
1092
102
}
102
{ACAD_REACTORS
330
29
102
}
330
29
100
AcDbVisualStyle
  2

 70
     9
 71
     3
 72
     2
 73
     0
 90
        0
 40
-0.6
 41
-30.0
 62
     5
 63
     7
 74
     2
 91
        2
 64
     7
 65
   257
 75
     1
175
     1
 42
179.0
 92
        8
 66
     7
 43
1.0
 76
     1
 77
     6
 78
     2
 67
     7
 79
     3
170
     0
171
     0
290
     0
174
     0
 93
        1
 44
0.0
173
     0
291
     0
 45
0.0
1001
ACAD
1000
AcDbSavedByObjectVersion
1070
     0
  0
VISUALSTYLE
  5
34
102
{ACAD_XDICTIONARY
360
1096
102
}
102
{ACAD_REACTORS
330
29
102
}
330
29
100
AcDbVisualStyle
  2

 70
    11
 71
     2
 72
     2
 73
     0
 90
        0
 40
-0.6
 41
-30.0
 62
     5
 63
     7
 74
     1
 91
        4
 64
     7
 65
   257
 75
     1
175
     1
 42
1.0
 92
        8
 66
     7
 43
1.0
 76
     1
 77
     6
 78
     2
 67
     7
 79
     5
170
     0
171
     0
290
     0
174
     0
 93
        1
 44
-50.0
173
     0
291
     1
 45
0.0
1001
ACAD
1000
AcDbSavedByObjectVersion
1070
     0
  0
VISUALSTYLE
  5
41
102
{ACAD_XDICTIONARY
360
10B0
102
}
102
{ACAD_REACTORS
330
29
102
}
330
29
100
AcDbVisualStyle
  2

 70
    22
 71
     2
 72
     2
 73
     0
 90
        0
 40
-0.6
 41
-30.0
 62
     5
 63
     7
 74
     1
 91
        4
 64
     7
 65
   257
 75
     1
175
     1
 42
1.0
 92
        8
 66
     7
 43
1.0
 76
     1
 77
     6
 78
     2
 67
     7
 79
     5
170
     0
171
     0
290
     0
174
     0
 93
        1
 44
0.0
173
     0
291
     1
 45
0.0
1001
ACAD
1000
AcDbSavedByObjectVersion
1070
     0
  0
VISUALSTYLE
  5
38
102
{ACAD_XDICTIONARY
360
109E
102
}
102
{ACAD_REACTORS
330
29
102
}
330
29
100
AcDbVisualStyle
  2

 70
    15
 71
     2
 72
     2
 73
     0
 90
        0
 40
-0.6
 41
-30.0
 62
     5
 63
     7
 74
     1
 91
        4
 64
     7
 65
   257
 75
     1
175
     1
 42
1.0
 92
        8
 66
     7
 43
1.0
 76
     1
 77
     6
 78
     2
 67
     7
 79
     5
170
     0
171
     0
290
     0
174
     0
 93
        1
 44
0.0
173
     0
291
     1
 45
0.0
1001
ACAD
1000
AcDbSavedByObjectVersion
1070
     0
  0
VISUALSTYLE
  5
2A
102
{ACAD_XDICTIONARY
360
1082
102
}
102
{ACAD_REACTORS
330
29
102
}
330
29
100
AcDbVisualStyle
  2

 70
     0
 71
     2
 72
     1
 73
     1
 90
        2
 40
-0.6
 41
30.0
 62
     5
 63
     7
 74
     0
 91
        0
 64
     7
 65
   257
 75
     1
175
     1
 42
1.0
 92
        8
 66
     7
 43
1.0
 76
     1
 77
     6
 78
     2
 67
     7
 79
     5
170
     0
171
     0
290
     0
174
     0
 93
       13
 44
0.0
173
     0
291
     1
 45
0.0
1001
ACAD
1000
AcDbSavedByObjectVersion
1070
     0
  0
VISUALSTYLE
  5
2B
102
{ACAD_XDICTIONARY
360
1084
102
}
102
{ACAD_REACTORS
330
29
102
}
330
29
100
AcDbVisualStyle
  2

 70
     1
 71
     2
 72
     1
 73
     1
 90
        2
 40
-0.6
 41
30.0
 62
     5
 63
     7
 74
     1
 91
        0
 64
     7
 65
   257
 75
     1
175
     1
 42
1.0
 92
        0
 66
   257
 43
1.0
 76
     1
 77
     6
 78
     2
 67
     7
 79
     5
170
     0
171
     0
290
     0
174
     0
 93
       13
 44
0.0
173
     0
291
     1
 45
0.0
1001
ACAD
1000
AcDbSavedByObjectVersion
1070
     0
  0
VISUALSTYLE
  5
2C
102
{ACAD_XDICTIONARY
360
1086
102
}
102
{ACAD_REACTORS
330
29
102
}
330
29
100
AcDbVisualStyle
  2

 70
     2
 71
     2
 72
     2
 73
     1
 90
        2
 40
-0.6
 41
30.0
 62
     5
 63
     7
 74
     0
 91
        0
 64
     7
 65
   257
 75
     1
175
     1
 42
1.0
 92
        0
 66
     7
 43
1.0
 76
     1
 77
     6
 78
     2
 67
     7
 79
     5
170
     0
171
     0
290
     0
174
     0
 93
       13
 44
0.0
173
     0
291
     1
 45
0.0
1001
ACAD
1000
AcDbSavedByObjectVersion
1070
     0
  0
VISUALSTYLE
  5
2D
102
{ACAD_XDICTIONARY
360
1088
102
}
102
{ACAD_REACTORS
330
29
102
}
330
29
100
AcDbVisualStyle
  2

 70
     3
 71
     2
 72
     2
 73
     1
 90
        2
 40
-0.6
 41
30.0
 62
     5
 63
     7
 74
     1
 91
        0
 64
     7
 65
   257
 75
     1
175
     1
 42
1.0
 92
        0
 66
   257
 43
1.0
 76
     1
 77
     6
 78
     2
 67
     7
 79
     5
170
     0
171
     0
290
     0
174
     0
 93
       13
 44
0.0
173
     0
291
     1
 45
0.0
1001
ACAD
1000
AcDbSavedByObjectVersion
1070
     0
  0
VISUALSTYLE
  5
31
102
{ACAD_XDICTIONARY
360
1090
102
}
102
{ACAD_REACTORS
330
29
102
}
330
29
100
AcDbVisualStyle
  2

 70
     6
 71
     1
 72
     2
 73
     2
 90
        0
 40
-0.6
 41
-30.0
 62
     5
 63
     7
 74
     2
 91
        2
 64
     7
 65
   257
 75
     2
175
     1
 42
40.0
 92
        0
 66
   257
 43
1.0
 76
     1
 77
     6
 78
     2
 67
     7
 79
     3
170
     0
171
     0
290
     0
174
     0
 93
        1
 44
0.0
173
     0
291
     0
 45
0.0
1001
ACAD
1000
AcDbSavedByObjectVersion
1070
     0
  0
VISUALSTYLE
  5
3F
102
{ACAD_XDICTIONARY
360
10AC
102
}
102
{ACAD_REACTORS
330
29
102
}
330
29
100
AcDbVisualStyle
  2

 70
    20
 71
     2
 72
     2
 73
     0
 90
        0
 40
-0.6
 41
-30.0
 62
     5
 63
     7
 74
     1
 91
        4
 64
     7
 65
   257
 75
     1
175
     1
 42
1.0
 92
       10
 66
     7
 43
1.0
 76
     1
 77
     6
 78
     2
 67
     7
 79
     5
170
     0
171
     0
290
     0
174
     0
 93
        1
 44
0.0
173
     0
291
     1
 45
0.0
1001
ACAD
1000
AcDbSavedByObjectVersion
1070
     0
  0
VISUALSTYLE
  5
37
102
{ACAD_XDICTIONARY
360
109C
102
}
102
{ACAD_REACTORS
330
29
102
}
330
29
100
AcDbVisualStyle
  2

 70
    14
 71
     2
 72
     2
 73
     0
 90
        0
 40
-0.6
 41
-30.0
 62
     5
 63
     7
 74
     1
 91
        4
 64
     7
 65
   257
 75
     7
175
     7
 42
1.0
 92
        8
 66
     7
 43
1.0
 76
     1
 77
     6
 78
     2
 67
     7
 79
     5
170
     0
171
     0
290
     0
174
     0
 93
        1
 44
0.0
173
     0
291
     1
 45
0.0
1001
ACAD
1000
AcDbSavedByObjectVersion
1070
     0
  0
VISUALSTYLE
  5
40
102
{ACAD_XDICTIONARY
360
10AE
102
}
102
{ACAD_REACTORS
330
29
102
}
330
29
100
AcDbVisualStyle
  2

 70
    21
 71
     2
 72
     2
 73
     0
 90
        0
 40
-0.6
 41
-30.0
 62
     5
 63
     7
 74
     1
 91
        4
 64
     7
 65
   257
 75
     1
175
     1
 42
1.0
 92
        9
 66
     7
 43
1.0
 76
     1
 77
     6
 78
     2
 67
     7
 79
     5
170
     0
171
     0
290
     0
174
     0
 93
        1
 44
0.0
173
     0
291
     1
 45
0.0
1001
ACAD
1000
AcDbSavedByObjectVersion
1070
     0
  0
VISUALSTYLE
  5
33
102
{ACAD_XDICTIONARY
360
1094
102
}
102
{ACAD_REACTORS
330
29
102
}
330
29
100
AcDbVisualStyle
  2

 70
     8
 71
     2
 72
     3
 73
     0
 90
        2
 40
-0.6
 41
30.0
 62
     5
 63
     7
 74
     0
 91
        0
 64
     7
 65
   257
 75
     1
175
     1
 42
1.0
 92
        8
 66
   257
 43
1.0
 76
     1
 77
     6
 78
     2
 67
     7
 79
     3
170
     0
171
     0
290
     0
174
     0
 93
       13
 44
0.0
173
     0
291
     0
 45
0.0
1001
ACAD
1000
AcDbSavedByObjectVersion
1070
     0
  0
VISUALSTYLE
  5
3E
102
{ACAD_XDICTIONARY
360
10AA
102
}
102
{ACAD_REACTORS
330
29
102
}
330
29
100
AcDbVisualStyle
  2

 70
    27
 71
     2
 72
     2
 73
     1
 90
        2
 40
-0.6
 41
30.0
 62
     5
 63
     7
 74
     0
 91
        4
 64
     7
 65
   257
 75
     1
175
     1
 42
1.0
 92
        8
 66
   257
 43
1.0
 76
     1
 77
     6
 78
     2
 67
     8
 79
     3
170
     0
171
     0
290
     0
174
     0
 93
        5
 44
0.0
173
     0
291
     0
 45
0.0
1001
ACAD
1000
AcDbSavedByObjectVersion
1070
     0
  0
VISUALSTYLE
  5
3D
102
{ACAD_XDICTIONARY
360
10A8
102
}
102
{ACAD_REACTORS
330
29
102
}
330
29
100
AcDbVisualStyle
  2

 70
    26
 71
     2
 72
     2
 73
     1
 90
        2
 40
-0.6
 41
30.0
 62
     5
 63
     7
 74
     1
 91
       10
 64
     7
 65
   257
 75
     2
175
     1
 42
1.0
 92
        8
 66
   257
 43
1.0
 76
     1
 77
     6
 78
     2
 67
     7
 79
     3
170
     0
171
     0
290
     0
174
     0
 93
        5
 44
0.0
173
     0
291
     0
 45
0.0
1001
ACAD
1000
AcDbSavedByObjectVersion
1070
     0
  0
VISUALSTYLE
  5
3A
102
{ACAD_XDICTIONARY
360
10A2
102
}
102
{ACAD_REACTORS
330
29
102
}
330
29
100
AcDbVisualStyle
  2

 70
    23
 71
     2
 72
     2
 73
     3
 90
        0
 40
-0.6
 41
-30.0
 62
     5
 63
     7
 74
     2
 91
        2
 64
     7
 65
     7
 75
     1
175
     1
 42
40.0
 92
        8
 66
     7
 43
1.0
 76
     1
 77
     6
 78
     2
 67
     7
 79
     3
170
     0
171
     0
290
     0
174
     0
 93
        1
 44
0.0
173
     0
291
     0
 45
0.0
1001
ACAD
1000
AcDbSavedByObjectVersion
1070
     0
  0
VISUALSTYLE
  5
3B
102
{ACAD_XDICTIONARY
360
10A4
102
}
102
{ACAD_REACTORS
330
29
102
}
330
29
100
AcDbVisualStyle
  2

 70
    24
 71
     1
 72
     2
 73
     2
 90
        0
 40
-0.6
 41
-30.0
 62
     5
 63
     7
 74
     2
 91
        2
 64
     7
 65
     7
 75
     1
175
     1
 42
40.0
 92
       11
 66
     7
 43
1.0
 76
     1
 77
     6
 78
     2
 67
     7
 79
     6
170
     0
171
     0
290
     0
174
     0
 93
        1
 44
0.0
173
     0
291
     0
 45
0.0
1001
ACAD
1000
AcDbSavedByObjectVersion
1070
     0
  0
VISUALSTYLE
  5
36
102
{ACAD_XDICTIONARY
360
109A
102
}
102
{ACAD_REACTORS
330
29
102
}
330
29
100
AcDbVisualStyle
  2

 70
    13
 71
     2
 72
     2
 73
     0
 90
        0
 40
-0.6
 41
-30.0
 62
     5
 63
     7
 74
     1
 91
        4
 64
     7
 65
   257
 75
     1
175
     1
 42
1.0
 92
       12
 66
     7
 43
1.0
 76
     1
 77
     6
 78
     2
 67
     7
 79
     5
170
     0
171
     0
290
     0
174
     0
 93
        1
 44
0.0
173
     0
291
     1
 45
0.0
1001
ACAD
1000
AcDbSavedByObjectVersion
1070
     0
  0
VISUALSTYLE
  5
30
102
{ACAD_XDICTIONARY
360
108E
102
}
102
{ACAD_REACTORS
330
29
102
}
330
29
100
AcDbVisualStyle
  2

 70
     5
 71
     0
 72
     2
 73
     0
 90
        0
 40
-0.6
 41
-30.0
 62
     5
 63
     7
 74
     1
 91
        4
 64
     7
 65
   257
 75
     1
175
     1
 42
1.0
 92
        0
 66
   257
 43
1.0
 76
     1
 77
     6
 78
     2
 67
     7
 79
     3
170
     0
171
     0
290
     0
174
     0
 93
        1
 44
0.0
173
     0
291
     0
 45
0.0
1001
ACAD
1000
AcDbSavedByObjectVersion
1070
     0
  0
VISUALSTYLE
  5
3C
102
{ACAD_XDICTIONARY
360
10A6
102
}
102
{ACAD_REACTORS
330
29
102
}
330
29
100
AcDbVisualStyle
  2

 70
    25
 71
     2
 72
     2
 73
     1
 90
        1
 40
0.5
 41
-30.0
 62
     5
 63
     7
 74
     1
 91
        0
 64
     7
 65
   257
 75
     1
175
     1
 42
1.0
 92
        8
 66
     7
 43
1.0
 76
     1
 77
     6
 78
     2
 67
     7
 79
     3
170
     0
171
     0
290
     0
174
     0
 93
       13
 44
0.0
173
     0
291
     0
 45
0.0
1001
ACAD
1000
AcDbSavedByObjectVersion
1070
     0
  0
DICTIONARYVAR
  5
43D
102
{ACAD_REACTORS
330
43A
102
}
330
43A
100
DictionaryVariables
280
     0
  1
1:1
  0
DICTIONARYVAR
  5
43C
102
{ACAD_REACTORS
330
43A
102
}
330
43A
100
DictionaryVariables
280
     0
  1
STANDARD
  0
DICTIONARYVAR
  5
43B
102
{ACAD_REACTORS
330
43A
102
}
330
43A
100
DictionaryVariables
280
     0
  1
STANDARD
  0
DICTIONARYVAR
  5
440
102
{ACAD_REACTORS
330
43A
102
}
330
43A
100
DictionaryVariables
280
     0
  1
1
  0
DICTIONARYVAR
  5
43F
102
{ACAD_REACTORS
330
43A
102
}
330
43A
100
DictionaryVariables
280
     0
  1
0
  0
DICTIONARYVAR
  5
43E
102
{ACAD_REACTORS
330
43A
102
}
330
43A
100
DictionaryVariables
280
     0
  1
127
  0
DICTIONARYVAR
  5
F32
102
{ACAD_REACTORS
330
43A
102
}
330
43A
100
DictionaryVariables
280
     0
  1
2
  0
DICTIONARY
  5
10B5
330
6E
100
AcDbDictionary
280
     1
281
     1
  3
ACAD_XREC_ROUNDTRIP
360
10B6
  0
DICTIONARY
  5
10B3
330
6A
100
AcDbDictionary
280
     1
281
     1
  3
ACAD_XREC_ROUNDTRIP
360
10B4
  0
DICTIONARY
  5
1A
330
19
100
AcDbDictionary
280
     1
281
     1
  3
ACAD_XREC_ROUNDTRIP
360
447
  3
BUMPTILE
360
1C
  3
DIFFUSETILE
360
1B
  3
OPACITYTILE
360
1F
  3
REFLECTIONTILE
360
1E
  3
REFRACTIONTILE
360
20
  3
SPECULARTILE
360
1D
  0
DICTIONARY
  5
12
330
11
100
AcDbDictionary
280
     1
281
     1
  3
ACAD_XREC_ROUNDTRIP
360
446
  3
BUMPTILE
360
14
  3
DIFFUSETILE
360
13
  3
OPACITYTILE
360
17
  3
REFLECTIONTILE
360
16
  3
REFRACTIONTILE
360
18
  3
SPECULARTILE
360
15
  0
DICTIONARY
  5
22
330
21
100
AcDbDictionary
280
     1
281
     1
  3
ACAD_XREC_ROUNDTRIP
360
448
  3
BUMPTILE
360
24
  3
DIFFUSETILE
360
23
  3
OPACITYTILE
360
27
  3
REFLECTIONTILE
360
26
  3
REFRACTIONTILE
360
28
  3
SPECULARTILE
360
25
  0
DICTIONARY
  5
442
330
64
100
AcDbDictionary
280
     1
281
     1
  3
ACAD_ROUNDTRIP_2008_TABLESTYLE_CELLSTYLEMAP
360
107B
  3
ACAD_XREC_ROUNDTRIP
360
10B2
  0
DICTIONARY
  5
108C
330
2F
100
AcDbDictionary
280
     1
281
     1
  3
ACAD_XREC_ROUNDTRIP
360
108D
  0
DICTIONARY
  5
10B7
330
2ED
100
AcDbDictionary
280
     1
281
     1
  3
ACAD_XREC_ROUNDTRIP
360
10B8
  0
DICTIONARY
  5
108A
330
2E
100
AcDbDictionary
280
     1
281
     1
  3
ACAD_XREC_ROUNDTRIP
360
108B
  0
DICTIONARY
  5
1098
330
35
100
AcDbDictionary
280
     1
281
     1
  3
ACAD_XREC_ROUNDTRIP
360
1099
  0
DICTIONARY
  5
10A0
330
39
100
AcDbDictionary
280
     1
281
     1
  3
ACAD_XREC_ROUNDTRIP
360
10A1
  0
DICTIONARY
  5
1092
330
32
100
AcDbDictionary
280
     1
281
     1
  3
ACAD_XREC_ROUNDTRIP
360
1093
  0
DICTIONARY
  5
1096
330
34
100
AcDbDictionary
280
     1
281
     1
  3
ACAD_XREC_ROUNDTRIP
360
1097
  0
DICTIONARY
  5
10B0
330
41
100
AcDbDictionary
280
     1
281
     1
  3
ACAD_XREC_ROUNDTRIP
360
10B1
  0
DICTIONARY
  5
109E
330
38
100
AcDbDictionary
280
     1
281
     1
  3
ACAD_XREC_ROUNDTRIP
360
109F
  0
DICTIONARY
  5
1082
330
2A
100
AcDbDictionary
280
     1
281
     1
  3
ACAD_XREC_ROUNDTRIP
360
1083
  0
DICTIONARY
  5
1084
330
2B
100
AcDbDictionary
280
     1
281
     1
  3
ACAD_XREC_ROUNDTRIP
360
1085
  0
DICTIONARY
  5
1086
330
2C
100
AcDbDictionary
280
     1
281
     1
  3
ACAD_XREC_ROUNDTRIP
360
1087
  0
DICTIONARY
  5
1088
330
2D
100
AcDbDictionary
280
     1
281
     1
  3
ACAD_XREC_ROUNDTRIP
360
1089
  0
DICTIONARY
  5
1090
330
31
100
AcDbDictionary
280
     1
281
     1
  3
ACAD_XREC_ROUNDTRIP
360
1091
  0
DICTIONARY
  5
10AC
330
3F
100
AcDbDictionary
280
     1
281
     1
  3
ACAD_XREC_ROUNDTRIP
360
10AD
  0
DICTIONARY
  5
109C
330
37
100
AcDbDictionary
280
     1
281
     1
  3
ACAD_XREC_ROUNDTRIP
360
109D
  0
DICTIONARY
  5
10AE
330
40
100
AcDbDictionary
280
     1
281
     1
  3
ACAD_XREC_ROUNDTRIP
360
10AF
  0
DICTIONARY
  5
1094
330
33
100
AcDbDictionary
280
     1
281
     1
  3
ACAD_XREC_ROUNDTRIP
360
1095
  0
DICTIONARY
  5
10AA
330
3E
100
AcDbDictionary
280
     1
281
     1
  3
ACAD_XREC_ROUNDTRIP
360
10AB
  0
DICTIONARY
  5
10A8
330
3D
100
AcDbDictionary
280
     1
281
     1
  3
ACAD_XREC_ROUNDTRIP
360
10A9
  0
DICTIONARY
  5
10A2
330
3A
100
AcDbDictionary
280
     1
281
     1
  3
ACAD_XREC_ROUNDTRIP
360
10A3
  0
DICTIONARY
  5
10A4
330
3B
100
AcDbDictionary
280
     1
281
     1
  3
ACAD_XREC_ROUNDTRIP
360
10A5
  0
DICTIONARY
  5
109A
330
36
100
AcDbDictionary
280
     1
281
     1
  3
ACAD_XREC_ROUNDTRIP
360
109B
  0
DICTIONARY
  5
108E
330
30
100
AcDbDictionary
280
     1
281
     1
  3
ACAD_XREC_ROUNDTRIP
360
108F
  0
DICTIONARY
  5
10A6
330
3C
100
AcDbDictionary
280
     1
281
     1
  3
ACAD_XREC_ROUNDTRIP
360
10A7
  0
XRECORD
  5
10B6
102
{ACAD_REACTORS
330
10B5
102
}
330
10B5
100
AcDbXrecord
280
     1
102
SHADEPLOT
 70
     0
102
SHADEPLOTRESLEVEL
 70
     2
102
SHADEPLOTCUSTOMDPI
 70
   300
  0
XRECORD
  5
10B4
102
{ACAD_REACTORS
330
10B3
102
}
330
10B3
100
AcDbXrecord
280
     1
102
SHADEPLOT
 70
     0
102
SHADEPLOTRESLEVEL
 70
     2
102
SHADEPLOTCUSTOMDPI
 70
   300
  0
XRECORD
  5
447
102
{ACAD_REACTORS
330
1A
102
}
330
1A
100
AcDbXrecord
280
     1
102
MATERIAL
148
0.0
149
0.0
149
0.0
 93
        0
 94
      127
282
     0
 72
     0
 77
     0
171
     0
175
     0
179
     0
273
     0
  0
XRECORD
  5
1C
102
{ACAD_REACTORS
330
1A
102
}
330
1A
100
AcDbXrecord
280
     1
270
     1
271
     1
  0
XRECORD
  5
1B
102
{ACAD_REACTORS
330
1A
102
}
330
1A
100
AcDbXrecord
280
     1
270
     1
271
     1
  0
XRECORD
  5
1F
102
{ACAD_REACTORS
330
1A
102
}
330
1A
100
AcDbXrecord
280
     1
270
     1
271
     1
  0
XRECORD
  5
1E
102
{ACAD_REACTORS
330
1A
102
}
330
1A
100
AcDbXrecord
280
     1
270
     1
271
     1
  0
XRECORD
  5
20
102
{ACAD_REACTORS
330
1A
102
}
330
1A
100
AcDbXrecord
280
     1
270
     1
271
     1
  0
XRECORD
  5
1D
102
{ACAD_REACTORS
330
1A
102
}
330
1A
100
AcDbXrecord
280
     1
270
     1
271
     1
  0
XRECORD
  5
446
102
{ACAD_REACTORS
330
12
102
}
330
12
100
AcDbXrecord
280
     1
102
MATERIAL
148
0.0
149
0.0
149
0.0
 93
        0
 94
      127
282
     0
 72
     0
 77
     0
171
     0
175
     0
179
     0
273
     0
  0
XRECORD
  5
14
102
{ACAD_REACTORS
330
12
102
}
330
12
100
AcDbXrecord
280
     1
270
     1
271
     1
  0
XRECORD
  5
13
102
{ACAD_REACTORS
330
12
102
}
330
12
100
AcDbXrecord
280
     1
270
     1
271
     1
  0
XRECORD
  5
17
102
{ACAD_REACTORS
330
12
102
}
330
12
100
AcDbXrecord
280
     1
270
     1
271
     1
  0
XRECORD
  5
16
102
{ACAD_REACTORS
330
12
102
}
330
12
100
AcDbXrecord
280
     1
270
     1
271
     1
  0
XRECORD
  5
18
102
{ACAD_REACTORS
330
12
102
}
330
12
100
AcDbXrecord
280
     1
270
     1
271
     1
  0
XRECORD
  5
15
102
{ACAD_REACTORS
330
12
102
}
330
12
100
AcDbXrecord
280
     1
270
     1
271
     1
  0
XRECORD
  5
448
102
{ACAD_REACTORS
330
22
102
}
330
22
100
AcDbXrecord
280
     1
102
MATERIAL
148
0.0
149
0.0
149
0.0
 93
        0
 94
      127
282
     0
 72
     0
 77
     0
171
     0
175
     0
179
     0
273
     0
  0
XRECORD
  5
24
102
{ACAD_REACTORS
330
22
102
}
330
22
100
AcDbXrecord
280
     1
270
     1
271
     1
  0
XRECORD
  5
23
102
{ACAD_REACTORS
330
22
102
}
330
22
100
AcDbXrecord
280
     1
270
     1
271
     1
  0
XRECORD
  5
27
102
{ACAD_REACTORS
330
22
102
}
330
22
100
AcDbXrecord
280
     1
270
     1
271
     1
  0
XRECORD
  5
26
102
{ACAD_REACTORS
330
22
102
}
330
22
100
AcDbXrecord
280
     1
270
     1
271
     1
  0
XRECORD
  5
28
102
{ACAD_REACTORS
330
22
102
}
330
22
100
AcDbXrecord
280
     1
270
     1
271
     1
  0
XRECORD
  5
25
102
{ACAD_REACTORS
330
22
102
}
330
22
100
AcDbXrecord
280
     1
270
     1
271
     1
  0
CELLSTYLEMAP
  5
107B
102
{ACAD_REACTORS
330
442
102
}
330
442
100
AcDbCellStyleMap
 90
        3
300
CELLSTYLE
  1
TABLEFORMAT_BEGIN
 90
        5
170
     1
 91
        0
 92
    32768
 62
   257
 93
        1
300
CONTENTFORMAT
  1
CONTENTFORMAT_BEGIN
 90
        0
 91
        0
 92
      512
 93
        0
300

 40
0.0
140
1.0
 94
        5
 62
     0
340
55
144
0.25
309
CONTENTFORMAT_END
171
     1
301
MARGIN
  1
CELLMARGIN_BEGIN
 40
0.06
 40
0.06
 40
0.06
 40
0.06
 40
0.18
 40
0.18
309
CELLMARGIN_END
 94
        6
 95
        1
302
GRIDFORMAT
  1
GRIDFORMAT_BEGIN
 90
        0
 91
        1
 62
     0
 92
       -2
340
0
 93
        0
 40
0.045
309
GRIDFORMAT_END
 95
        2
302
GRIDFORMAT
  1
GRIDFORMAT_BEGIN
 90
        0
 91
        1
 62
     0
 92
       -2
340
0
 93
        0
 40
0.045
309
GRIDFORMAT_END
 95
        4
302
GRIDFORMAT
  1
GRIDFORMAT_BEGIN
 90
        0
 91
        1
 62
     0
 92
       -2
340
0
 93
        0
 40
0.045
309
GRIDFORMAT_END
 95
        8
302
GRIDFORMAT
  1
GRIDFORMAT_BEGIN
 90
        0
 91
        1
 62
     0
 92
       -2
340
0
 93
        0
 40
0.045
309
GRIDFORMAT_END
 95
       16
302
GRIDFORMAT
  1
GRIDFORMAT_BEGIN
 90
        0
 91
        1
 62
     0
 92
       -2
340
0
 93
        0
 40
0.045
309
GRIDFORMAT_END
 95
       32
302
GRIDFORMAT
  1
GRIDFORMAT_BEGIN
 90
        0
 91
        1
 62
     0
 92
       -2
340
0
 93
        0
 40
0.045
309
GRIDFORMAT_END
309
TABLEFORMAT_END
  1
CELLSTYLE_BEGIN
 90
        1
 91
        1
300
_TITLE
309
CELLSTYLE_END
300
CELLSTYLE
  1
TABLEFORMAT_BEGIN
 90
        5
170
     1
 91
        0
 92
        0
 62
   257
 93
        1
300
CONTENTFORMAT
  1
CONTENTFORMAT_BEGIN
 90
        0
 91
        0
 92
      512
 93
        0
300

 40
0.0
140
1.0
 94
        5
 62
     0
340
55
144
0.18
309
CONTENTFORMAT_END
171
     1
301
MARGIN
  1
CELLMARGIN_BEGIN
 40
0.06
 40
0.06
 40
0.06
 40
0.06
 40
0.18
 40
0.18
309
CELLMARGIN_END
 94
        6
 95
        1
302
GRIDFORMAT
  1
GRIDFORMAT_BEGIN
 90
        0
 91
        1
 62
     0
 92
       -2
340
0
 93
        0
 40
0.045
309
GRIDFORMAT_END
 95
        2
302
GRIDFORMAT
  1
GRIDFORMAT_BEGIN
 90
        0
 91
        1
 62
     0
 92
       -2
340
0
 93
        0
 40
0.045
309
GRIDFORMAT_END
 95
        4
302
GRIDFORMAT
  1
GRIDFORMAT_BEGIN
 90
        0
 91
        1
 62
     0
 92
       -2
340
0
 93
        0
 40
0.045
309
GRIDFORMAT_END
 95
        8
302
GRIDFORMAT
  1
GRIDFORMAT_BEGIN
 90
        0
 91
        1
 62
     0
 92
       -2
340
0
 93
        0
 40
0.045
309
GRIDFORMAT_END
 95
       16
302
GRIDFORMAT
  1
GRIDFORMAT_BEGIN
 90
        0
 91
        1
 62
     0
 92
       -2
340
0
 93
        0
 40
0.045
309
GRIDFORMAT_END
 95
       32
302
GRIDFORMAT
  1
GRIDFORMAT_BEGIN
 90
        0
 91
        1
 62
     0
 92
       -2
340
0
 93
        0
 40
0.045
309
GRIDFORMAT_END
309
TABLEFORMAT_END
  1
CELLSTYLE_BEGIN
 90
        2
 91
        1
300
_HEADER
309
CELLSTYLE_END
300
CELLSTYLE
  1
TABLEFORMAT_BEGIN
 90
        5
170
     1
 91
        0
 92
        0
 62
   257
 93
        1
300
CONTENTFORMAT
  1
CONTENTFORMAT_BEGIN
 90
        0
 91
        0
 92
      512
 93
        0
300

 40
0.0
140
1.0
 94
        2
 62
     0
340
55
144
0.18
309
CONTENTFORMAT_END
171
     1
301
MARGIN
  1
CELLMARGIN_BEGIN
 40
0.06
 40
0.06
 40
0.06
 40
0.06
 40
0.18
 40
0.18
309
CELLMARGIN_END
 94
        6
 95
        1
302
GRIDFORMAT
  1
GRIDFORMAT_BEGIN
 90
        0
 91
        1
 62
     0
 92
       -2
340
0
 93
        0
 40
0.045
309
GRIDFORMAT_END
 95
        2
302
GRIDFORMAT
  1
GRIDFORMAT_BEGIN
 90
        0
 91
        1
 62
     0
 92
       -2
340
0
 93
        0
 40
0.045
309
GRIDFORMAT_END
 95
        4
302
GRIDFORMAT
  1
GRIDFORMAT_BEGIN
 90
        0
 91
        1
 62
     0
 92
       -2
340
0
 93
        0
 40
0.045
309
GRIDFORMAT_END
 95
        8
302
GRIDFORMAT
  1
GRIDFORMAT_BEGIN
 90
        0
 91
        1
 62
     0
 92
       -2
340
0
 93
        0
 40
0.045
309
GRIDFORMAT_END
 95
       16
302
GRIDFORMAT
  1
GRIDFORMAT_BEGIN
 90
        0
 91
        1
 62
     0
 92
       -2
340
0
 93
        0
 40
0.045
309
GRIDFORMAT_END
 95
       32
302
GRIDFORMAT
  1
GRIDFORMAT_BEGIN
 90
        0
 91
        1
 62
     0
 92
       -2
340
0
 93
        0
 40
0.045
309
GRIDFORMAT_END
309
TABLEFORMAT_END
  1
CELLSTYLE_BEGIN
 90
        3
 91
        2
300
_DATA
309
CELLSTYLE_END
  0
XRECORD
  5
10B2
102
{ACAD_REACTORS
330
442
102
}
330
442
100
AcDbXrecord
280
     1
102
ACAD_ROUNDTRIP_PRE2007_TABLESTYLE
 90
      512
 91
        0
  1

 92
      512
 93
        0
  2

 94
      512
 95
        0
  3

  0
XRECORD
  5
108D
102
{ACAD_REACTORS
330
108C
102
}
330
108C
100
AcDbXrecord
280
     1
102
RTVSPropertyOp0
 70
     1
102
RTVSPropertyOp1
 70
     1
102
RTVSPropertyOp2
 70
     1
102
RTVSPropertyOp3
 70
     1
102
RTVSPropertyOp4
 70
     1
102
RTVSPropertyOp5
 70
     1
102
RTVSPropertyOp6
 70
     1
102
RTVSPropertyOp7
 70
     1
102
RTVSPropertyOp8
 70
     1
102
RTVSPropertyOp9
 70
     1
102
RTVSPropertyOp10
 70
     1
102
RTVSPropertyOp11
 70
     1
102
RTVSPropertyOp12
 70
     1
102
RTVSPropertyOp13
 70
     1
102
RTVSPropertyOp14
 70
     1
102
RTVSPropertyOp15
 70
     1
102
RTVSPropertyOp16
 70
     1
102
RTVSPropertyOp17
 70
     1
102
RTVSPropertyOp18
 70
     1
102
RTVSPropertyOp19
 70
     1
102
RTVSPropertyOp20
 70
     1
102
RTVSPropertyOp21
 70
     1
102
RTVSPropertyOp22
 70
     1
102
RTVSPropertyOp23
 70
     1
102
RTVSPropertyOp24
 70
     1
102
RTVSPropertyOp25
 70
     1
102
RTVSPropertyOp26
 70
     1
102
RTVSPropertyOp27
 70
     1
102
RTVSPropertyOp28
 70
     1
102
RTVSPropertyOp29
 70
     1
102
RTVSPropertyOp30
 70
     1
102
RTVSPropertyOp31
 70
     1
102
RTVSPropertyOp32
 70
     1
  0
XRECORD
  5
10B8
102
{ACAD_REACTORS
330
10B7
102
}
330
10B7
100
AcDbXrecord
280
     1
102
RTVSPropertyOp0
 70
     1
102
RTVSPropertyOp1
 70
     1
102
RTVSPropertyOp2
 70
     1
102
RTVSPropertyOp3
 70
     1
102
RTVSPropertyOp4
 70
     1
102
RTVSPropertyOp5
 70
     1
102
RTVSPropertyOp6
 70
     1
102
RTVSPropertyOp7
 70
     1
102
RTVSPropertyOp8
 70
     1
102
RTVSPropertyOp9
 70
     1
102
RTVSPropertyOp10
 70
     1
102
RTVSPropertyOp11
 70
     1
102
RTVSPropertyOp12
 70
     1
102
RTVSPropertyOp13
 70
     1
102
RTVSPropertyOp14
 70
     1
102
RTVSPropertyOp15
 70
     1
102
RTVSPropertyOp16
 70
     1
102
RTVSPropertyOp17
 70
     1
102
RTVSPropertyOp18
 70
     1
102
RTVSPropertyOp19
 70
     1
102
RTVSPropertyOp20
 70
     1
102
RTVSPropertyOp21
 70
     1
102
RTVSPropertyOp22
 70
     1
102
RTVSPropertyOp23
 70
     1
102
RTVSPropertyOp24
 70
     1
102
RTVSPropertyOp25
 70
     1
102
RTVSPropertyOp26
 70
     1
102
RTVSPropertyOp27
 70
     1
102
RTVSPropertyOp28
 70
     1
102
RTVSPropertyOp29
 70
     1
102
RTVSPropertyOp30
 70
     1
102
RTVSPropertyOp31
 70
     1
102
RTVSPropertyOp32
 70
     1
  0
XRECORD
  5
108B
102
{ACAD_REACTORS
330
108A
102
}
330
108A
100
AcDbXrecord
280
     1
102
RTVSPropertyOp0
 70
     1
102
RTVSPropertyOp1
 70
     1
102
RTVSPropertyOp2
 70
     1
102
RTVSPropertyOp3
 70
     1
102
RTVSPropertyOp4
 70
     1
102
RTVSPropertyOp5
 70
     1
102
RTVSPropertyOp6
 70
     1
102
RTVSPropertyOp7
 70
     1
102
RTVSPropertyOp8
 70
     1
102
RTVSPropertyOp9
 70
     1
102
RTVSPropertyOp10
 70
     1
102
RTVSPropertyOp11
 70
     1
102
RTVSPropertyOp12
 70
     1
102
RTVSPropertyOp13
 70
     1
102
RTVSPropertyOp14
 70
     1
102
RTVSPropertyOp15
 70
     1
102
RTVSPropertyOp16
 70
     1
102
RTVSPropertyOp17
 70
     1
102
RTVSPropertyOp18
 70
     1
102
RTVSPropertyOp19
 70
     1
102
RTVSPropertyOp20
 70
     1
102
RTVSPropertyOp21
 70
     1
102
RTVSPropertyOp22
 70
     1
102
RTVSPropertyOp23
 70
     1
102
RTVSPropertyOp24
 70
     1
102
RTVSPropertyOp25
 70
     1
102
RTVSPropertyOp26
 70
     1
102
RTVSPropertyOp27
 70
     1
102
RTVSPropertyOp28
 70
     1
102
RTVSPropertyOp29
 70
     1
102
RTVSPropertyOp30
 70
     1
102
RTVSPropertyOp31
 70
     1
102
RTVSPropertyOp32
 70
     1
  0
XRECORD
  5
1099
102
{ACAD_REACTORS
330
1098
102
}
330
1098
100
AcDbXrecord
280
     1
102
RTVSPropertyOp0
 70
     1
102
RTVSPropertyOp1
 70
     1
102
RTVSPropertyOp2
 70
     1
102
RTVSPropertyOp3
 70
     1
102
RTVSPropertyOp4
 70
     1
102
RTVSPropertyOp5
 70
     1
102
RTVSPropertyOp6
 70
     1
102
RTVSPropertyOp7
 70
     1
102
RTVSPropertyOp8
 70
     1
102
RTVSPropertyOp9
 70
     1
102
RTVSPropertyOp10
 70
     1
102
RTVSPropertyOp11
 70
     1
102
RTVSPropertyOp12
 70
     1
102
RTVSPropertyOp13
 70
     1
102
RTVSPropertyOp14
 70
     1
102
RTVSPropertyOp15
 70
     1
102
RTVSPropertyOp16
 70
     1
102
RTVSPropertyOp17
 70
     1
102
RTVSPropertyOp18
 70
     1
102
RTVSPropertyOp19
 70
     1
102
RTVSPropertyOp20
 70
     1
102
RTVSPropertyOp21
 70
     1
102
RTVSPropertyOp22
 70
     1
102
RTVSPropertyOp23
 70
     1
102
RTVSPropertyOp24
 70
     1
102
RTVSPropertyOp25
 70
     1
102
RTVSPropertyOp26
 70
     1
102
RTVSPropertyOp27
 70
     1
102
RTVSPropertyOp28
 70
     1
102
RTVSPropertyOp29
 70
     1
102
RTVSPropertyOp30
 70
     1
102
RTVSPropertyOp31
 70
     1
102
RTVSPropertyOp32
 70
     1
  0
XRECORD
  5
10A1
102
{ACAD_REACTORS
330
10A0
102
}
330
10A0
100
AcDbXrecord
280
     1
102
RTVSPropertyOp0
 70
     1
102
RTVSPropertyOp1
 70
     1
102
RTVSPropertyOp2
 70
     1
102
RTVSPropertyOp3
 70
     1
102
RTVSPropertyOp4
 70
     1
102
RTVSPropertyOp5
 70
     1
102
RTVSPropertyOp6
 70
     1
102
RTVSPropertyOp7
 70
     1
102
RTVSPropertyOp8
 70
     1
102
RTVSPropertyOp9
 70
     1
102
RTVSPropertyOp10
 70
     1
102
RTVSPropertyOp11
 70
     1
102
RTVSPropertyOp12
 70
     1
102
RTVSPropertyOp13
 70
     1
102
RTVSPropertyOp14
 70
     1
102
RTVSPropertyOp15
 70
     1
102
RTVSPropertyOp16
 70
     1
102
RTVSPropertyOp17
 70
     1
102
RTVSPropertyOp18
 70
     1
102
RTVSPropertyOp19
 70
     1
102
RTVSPropertyOp20
 70
     1
102
RTVSPropertyOp21
 70
     1
102
RTVSPropertyOp22
 70
     1
102
RTVSPropertyOp23
 70
     1
102
RTVSPropertyOp24
 70
     1
102
RTVSPropertyOp25
 70
     1
102
RTVSPropertyOp26
 70
     1
102
RTVSPropertyOp27
 70
     1
102
RTVSPropertyOp28
 70
     1
102
RTVSPropertyOp29
 70
     1
102
RTVSPropertyOp30
 70
     1
102
RTVSPropertyOp31
 70
     1
102
RTVSPropertyOp32
 70
     1
  0
XRECORD
  5
1093
102
{ACAD_REACTORS
330
1092
102
}
330
1092
100
AcDbXrecord
280
     1
102
RTVSPropertyOp0
 70
     1
102
RTVSPropertyOp1
 70
     1
102
RTVSPropertyOp2
 70
     1
102
RTVSPropertyOp3
 70
     1
102
RTVSPropertyOp4
 70
     1
102
RTVSPropertyOp5
 70
     1
102
RTVSPropertyOp6
 70
     1
102
RTVSPropertyOp7
 70
     1
102
RTVSPropertyOp8
 70
     1
102
RTVSPropertyOp9
 70
     1
102
RTVSPropertyOp10
 70
     1
102
RTVSPropertyOp11
 70
     1
102
RTVSPropertyOp12
 70
     1
102
RTVSPropertyOp13
 70
     1
102
RTVSPropertyOp14
 70
     1
102
RTVSPropertyOp15
 70
     1
102
RTVSPropertyOp16
 70
     1
102
RTVSPropertyOp17
 70
     1
102
RTVSPropertyOp18
 70
     1
102
RTVSPropertyOp19
 70
     1
102
RTVSPropertyOp20
 70
     1
102
RTVSPropertyOp21
 70
     1
102
RTVSPropertyOp22
 70
     1
102
RTVSPropertyOp23
 70
     1
102
RTVSPropertyOp24
 70
     1
102
RTVSPropertyOp25
 70
     1
102
RTVSPropertyOp26
 70
     1
102
RTVSPropertyOp27
 70
     1
102
RTVSPropertyOp28
 70
     1
102
RTVSPropertyOp29
 70
     1
102
RTVSPropertyOp30
 70
     1
102
RTVSPropertyOp31
 70
     1
102
RTVSPropertyOp32
 70
     1
  0
XRECORD
  5
1097
102
{ACAD_REACTORS
330
1096
102
}
330
1096
100
AcDbXrecord
280
     1
102
RTVSPropertyOp0
 70
     1
102
RTVSPropertyOp1
 70
     1
102
RTVSPropertyOp2
 70
     1
102
RTVSPropertyOp3
 70
     1
102
RTVSPropertyOp4
 70
     1
102
RTVSPropertyOp5
 70
     1
102
RTVSPropertyOp6
 70
     1
102
RTVSPropertyOp7
 70
     1
102
RTVSPropertyOp8
 70
     1
102
RTVSPropertyOp9
 70
     1
102
RTVSPropertyOp10
 70
     1
102
RTVSPropertyOp11
 70
     1
102
RTVSPropertyOp12
 70
     1
102
RTVSPropertyOp13
 70
     1
102
RTVSPropertyOp14
 70
     1
102
RTVSPropertyOp15
 70
     1
102
RTVSPropertyOp16
 70
     1
102
RTVSPropertyOp17
 70
     1
102
RTVSPropertyOp18
 70
     1
102
RTVSPropertyOp19
 70
     1
102
RTVSPropertyOp20
 70
     1
102
RTVSPropertyOp21
 70
     1
102
RTVSPropertyOp22
 70
     1
102
RTVSPropertyOp23
 70
     1
102
RTVSPropertyOp24
 70
     1
102
RTVSPropertyOp25
 70
     1
102
RTVSPropertyOp26
 70
     1
102
RTVSPropertyOp27
 70
     1
102
RTVSPropertyOp28
 70
     1
102
RTVSPropertyOp29
 70
     1
102
RTVSPropertyOp30
 70
     1
102
RTVSPropertyOp31
 70
     1
102
RTVSPropertyOp32
 70
     1
  0
XRECORD
  5
10B1
102
{ACAD_REACTORS
330
10B0
102
}
330
10B0
100
AcDbXrecord
280
     1
102
RTVSPropertyOp0
 70
     0
102
RTVSPropertyOp1
 70
     0
102
RTVSPropertyOp2
 70
     0
102
RTVSPropertyOp3
 70
     0
102
RTVSPropertyOp4
 70
     0
102
RTVSPropertyOp5
 70
     0
102
RTVSPropertyOp6
 70
     0
102
RTVSPropertyOp7
 70
     0
102
RTVSPropertyOp8
 70
     0
102
RTVSPropertyOp9
 70
     0
102
RTVSPropertyOp10
 70
     0
102
RTVSPropertyOp11
 70
     0
102
RTVSPropertyOp12
 70
     0
102
RTVSPropertyOp13
 70
     0
102
RTVSPropertyOp14
 70
     2
102
RTVSPropertyOp15
 70
     0
102
RTVSPropertyOp16
 70
     0
102
RTVSPropertyOp17
 70
     0
102
RTVSPropertyOp18
 70
     0
102
RTVSPropertyOp19
 70
     0
102
RTVSPropertyOp20
 70
     0
102
RTVSPropertyOp21
 70
     0
102
RTVSPropertyOp22
 70
     0
102
RTVSPropertyOp23
 70
     0
102
RTVSPropertyOp24
 70
     0
102
RTVSPropertyOp25
 70
     0
102
RTVSPropertyOp26
 70
     0
102
RTVSPropertyOp27
 70
     0
102
RTVSPropertyOp28
 70
     0
102
RTVSPropertyOp29
 70
     0
102
RTVSPropertyOp30
 70
     0
102
RTVSPropertyOp31
 70
     0
102
RTVSPropertyOp32
 70
     0
  0
XRECORD
  5
109F
102
{ACAD_REACTORS
330
109E
102
}
330
109E
100
AcDbXrecord
280
     1
102
RTVSPropertyOp0
 70
     1
102
RTVSPropertyOp1
 70
     1
102
RTVSPropertyOp2
 70
     1
102
RTVSPropertyOp3
 70
     1
102
RTVSPropertyOp4
 70
     1
102
RTVSPropertyOp5
 70
     1
102
RTVSPropertyOp6
 70
     1
102
RTVSPropertyOp7
 70
     1
102
RTVSPropertyOp8
 70
     1
102
RTVSPropertyOp9
 70
     1
102
RTVSPropertyOp10
 70
     1
102
RTVSPropertyOp11
 70
     1
102
RTVSPropertyOp12
 70
     1
102
RTVSPropertyOp13
 70
     1
102
RTVSPropertyOp14
 70
     1
102
RTVSPropertyOp15
 70
     1
102
RTVSPropertyOp16
 70
     1
102
RTVSPropertyOp17
 70
     1
102
RTVSPropertyOp18
 70
     1
102
RTVSPropertyOp19
 70
     1
102
RTVSPropertyOp20
 70
     1
102
RTVSPropertyOp21
 70
     1
102
RTVSPropertyOp22
 70
     1
102
RTVSPropertyOp23
 70
     1
102
RTVSPropertyOp24
 70
     1
102
RTVSPropertyOp25
 70
     1
102
RTVSPropertyOp26
 70
     1
102
RTVSPropertyOp27
 70
     1
102
RTVSPropertyOp28
 70
     1
102
RTVSPropertyOp29
 70
     1
102
RTVSPropertyOp30
 70
     1
102
RTVSPropertyOp31
 70
     1
102
RTVSPropertyOp32
 70
     1
  0
XRECORD
  5
1083
102
{ACAD_REACTORS
330
1082
102
}
330
1082
100
AcDbXrecord
280
     1
102
RTVSPropertyOp0
 70
     1
102
RTVSPropertyOp1
 70
     1
102
RTVSPropertyOp2
 70
     1
102
RTVSPropertyOp3
 70
     1
102
RTVSPropertyOp4
 70
     1
102
RTVSPropertyOp5
 70
     1
102
RTVSPropertyOp6
 70
     1
102
RTVSPropertyOp7
 70
     1
102
RTVSPropertyOp8
 70
     1
102
RTVSPropertyOp9
 70
     1
102
RTVSPropertyOp10
 70
     1
102
RTVSPropertyOp11
 70
     1
102
RTVSPropertyOp12
 70
     1
102
RTVSPropertyOp13
 70
     1
102
RTVSPropertyOp14
 70
     1
102
RTVSPropertyOp15
 70
     1
102
RTVSPropertyOp16
 70
     1
102
RTVSPropertyOp17
 70
     1
102
RTVSPropertyOp18
 70
     1
102
RTVSPropertyOp19
 70
     1
102
RTVSPropertyOp20
 70
     1
102
RTVSPropertyOp21
 70
     1
102
RTVSPropertyOp22
 70
     1
102
RTVSPropertyOp23
 70
     1
102
RTVSPropertyOp24
 70
     1
102
RTVSPropertyOp25
 70
     1
102
RTVSPropertyOp26
 70
     1
102
RTVSPropertyOp27
 70
     1
102
RTVSPropertyOp28
 70
     1
102
RTVSPropertyOp29
 70
     1
102
RTVSPropertyOp30
 70
     1
102
RTVSPropertyOp31
 70
     1
102
RTVSPropertyOp32
 70
     1
  0
XRECORD
  5
1085
102
{ACAD_REACTORS
330
1084
102
}
330
1084
100
AcDbXrecord
280
     1
102
RTVSPropertyOp0
 70
     1
102
RTVSPropertyOp1
 70
     1
102
RTVSPropertyOp2
 70
     1
102
RTVSPropertyOp3
 70
     1
102
RTVSPropertyOp4
 70
     1
102
RTVSPropertyOp5
 70
     1
102
RTVSPropertyOp6
 70
     1
102
RTVSPropertyOp7
 70
     1
102
RTVSPropertyOp8
 70
     1
102
RTVSPropertyOp9
 70
     1
102
RTVSPropertyOp10
 70
     1
102
RTVSPropertyOp11
 70
     1
102
RTVSPropertyOp12
 70
     1
102
RTVSPropertyOp13
 70
     1
102
RTVSPropertyOp14
 70
     1
102
RTVSPropertyOp15
 70
     1
102
RTVSPropertyOp16
 70
     1
102
RTVSPropertyOp17
 70
     1
102
RTVSPropertyOp18
 70
     1
102
RTVSPropertyOp19
 70
     1
102
RTVSPropertyOp20
 70
     1
102
RTVSPropertyOp21
 70
     1
102
RTVSPropertyOp22
 70
     1
102
RTVSPropertyOp23
 70
     1
102
RTVSPropertyOp24
 70
     1
102
RTVSPropertyOp25
 70
     1
102
RTVSPropertyOp26
 70
     1
102
RTVSPropertyOp27
 70
     1
102
RTVSPropertyOp28
 70
     1
102
RTVSPropertyOp29
 70
     1
102
RTVSPropertyOp30
 70
     1
102
RTVSPropertyOp31
 70
     1
102
RTVSPropertyOp32
 70
     1
  0
XRECORD
  5
1087
102
{ACAD_REACTORS
330
1086
102
}
330
1086
100
AcDbXrecord
280
     1
102
RTVSPropertyOp0
 70
     1
102
RTVSPropertyOp1
 70
     1
102
RTVSPropertyOp2
 70
     1
102
RTVSPropertyOp3
 70
     1
102
RTVSPropertyOp4
 70
     1
102
RTVSPropertyOp5
 70
     1
102
RTVSPropertyOp6
 70
     1
102
RTVSPropertyOp7
 70
     1
102
RTVSPropertyOp8
 70
     1
102
RTVSPropertyOp9
 70
     1
102
RTVSPropertyOp10
 70
     1
102
RTVSPropertyOp11
 70
     1
102
RTVSPropertyOp12
 70
     1
102
RTVSPropertyOp13
 70
     1
102
RTVSPropertyOp14
 70
     1
102
RTVSPropertyOp15
 70
     1
102
RTVSPropertyOp16
 70
     1
102
RTVSPropertyOp17
 70
     1
102
RTVSPropertyOp18
 70
     1
102
RTVSPropertyOp19
 70
     1
102
RTVSPropertyOp20
 70
     1
102
RTVSPropertyOp21
 70
     1
102
RTVSPropertyOp22
 70
     1
102
RTVSPropertyOp23
 70
     1
102
RTVSPropertyOp24
 70
     1
102
RTVSPropertyOp25
 70
     1
102
RTVSPropertyOp26
 70
     1
102
RTVSPropertyOp27
 70
     1
102
RTVSPropertyOp28
 70
     1
102
RTVSPropertyOp29
 70
     1
102
RTVSPropertyOp30
 70
     1
102
RTVSPropertyOp31
 70
     1
102
RTVSPropertyOp32
 70
     1
  0
XRECORD
  5
1089
102
{ACAD_REACTORS
330
1088
102
}
330
1088
100
AcDbXrecord
280
     1
102
RTVSPropertyOp0
 70
     1
102
RTVSPropertyOp1
 70
     1
102
RTVSPropertyOp2
 70
     1
102
RTVSPropertyOp3
 70
     1
102
RTVSPropertyOp4
 70
     1
102
RTVSPropertyOp5
 70
     1
102
RTVSPropertyOp6
 70
     1
102
RTVSPropertyOp7
 70
     1
102
RTVSPropertyOp8
 70
     1
102
RTVSPropertyOp9
 70
     1
102
RTVSPropertyOp10
 70
     1
102
RTVSPropertyOp11
 70
     1
102
RTVSPropertyOp12
 70
     1
102
RTVSPropertyOp13
 70
     1
102
RTVSPropertyOp14
 70
     1
102
RTVSPropertyOp15
 70
     1
102
RTVSPropertyOp16
 70
     1
102
RTVSPropertyOp17
 70
     1
102
RTVSPropertyOp18
 70
     1
102
RTVSPropertyOp19
 70
     1
102
RTVSPropertyOp20
 70
     1
102
RTVSPropertyOp21
 70
     1
102
RTVSPropertyOp22
 70
     1
102
RTVSPropertyOp23
 70
     1
102
RTVSPropertyOp24
 70
     1
102
RTVSPropertyOp25
 70
     1
102
RTVSPropertyOp26
 70
     1
102
RTVSPropertyOp27
 70
     1
102
RTVSPropertyOp28
 70
     1
102
RTVSPropertyOp29
 70
     1
102
RTVSPropertyOp30
 70
     1
102
RTVSPropertyOp31
 70
     1
102
RTVSPropertyOp32
 70
     1
  0
XRECORD
  5
1091
102
{ACAD_REACTORS
330
1090
102
}
330
1090
100
AcDbXrecord
280
     1
102
RTVSPropertyOp0
 70
     1
102
RTVSPropertyOp1
 70
     1
102
RTVSPropertyOp2
 70
     1
102
RTVSPropertyOp3
 70
     1
102
RTVSPropertyOp4
 70
     1
102
RTVSPropertyOp5
 70
     1
102
RTVSPropertyOp6
 70
     1
102
RTVSPropertyOp7
 70
     1
102
RTVSPropertyOp8
 70
     1
102
RTVSPropertyOp9
 70
     1
102
RTVSPropertyOp10
 70
     1
102
RTVSPropertyOp11
 70
     1
102
RTVSPropertyOp12
 70
     1
102
RTVSPropertyOp13
 70
     1
102
RTVSPropertyOp14
 70
     1
102
RTVSPropertyOp15
 70
     1
102
RTVSPropertyOp16
 70
     1
102
RTVSPropertyOp17
 70
     1
102
RTVSPropertyOp18
 70
     1
102
RTVSPropertyOp19
 70
     1
102
RTVSPropertyOp20
 70
     1
102
RTVSPropertyOp21
 70
     1
102
RTVSPropertyOp22
 70
     1
102
RTVSPropertyOp23
 70
     1
102
RTVSPropertyOp24
 70
     1
102
RTVSPropertyOp25
 70
     1
102
RTVSPropertyOp26
 70
     1
102
RTVSPropertyOp27
 70
     1
102
RTVSPropertyOp28
 70
     1
102
RTVSPropertyOp29
 70
     1
102
RTVSPropertyOp30
 70
     1
102
RTVSPropertyOp31
 70
     1
102
RTVSPropertyOp32
 70
     1
  0
XRECORD
  5
10AD
102
{ACAD_REACTORS
330
10AC
102
}
330
10AC
100
AcDbXrecord
280
     1
102
RTVSPropertyOp0
 70
     0
102
RTVSPropertyOp1
 70
     0
102
RTVSPropertyOp2
 70
     0
102
RTVSPropertyOp3
 70
     0
102
RTVSPropertyOp4
 70
     0
102
RTVSPropertyOp5
 70
     0
102
RTVSPropertyOp6
 70
     0
102
RTVSPropertyOp7
 70
     0
102
RTVSPropertyOp8
 70
     0
102
RTVSPropertyOp9
 70
     0
102
RTVSPropertyOp10
 70
     0
102
RTVSPropertyOp11
 70
     0
102
RTVSPropertyOp12
 70
     0
102
RTVSPropertyOp13
 70
     0
102
RTVSPropertyOp14
 70
     2
102
RTVSPropertyOp15
 70
     0
102
RTVSPropertyOp16
 70
     0
102
RTVSPropertyOp17
 70
     0
102
RTVSPropertyOp18
 70
     0
102
RTVSPropertyOp19
 70
     0
102
RTVSPropertyOp20
 70
     0
102
RTVSPropertyOp21
 70
     0
102
RTVSPropertyOp22
 70
     0
102
RTVSPropertyOp23
 70
     0
102
RTVSPropertyOp24
 70
     0
102
RTVSPropertyOp25
 70
     0
102
RTVSPropertyOp26
 70
     0
102
RTVSPropertyOp27
 70
     0
102
RTVSPropertyOp28
 70
     0
102
RTVSPropertyOp29
 70
     0
102
RTVSPropertyOp30
 70
     0
102
RTVSPropertyOp31
 70
     0
102
RTVSPropertyOp32
 70
     0
  0
XRECORD
  5
109D
102
{ACAD_REACTORS
330
109C
102
}
330
109C
100
AcDbXrecord
280
     1
102
RTVSPropertyOp0
 70
     1
102
RTVSPropertyOp1
 70
     1
102
RTVSPropertyOp2
 70
     1
102
RTVSPropertyOp3
 70
     1
102
RTVSPropertyOp4
 70
     1
102
RTVSPropertyOp5
 70
     1
102
RTVSPropertyOp6
 70
     1
102
RTVSPropertyOp7
 70
     1
102
RTVSPropertyOp8
 70
     1
102
RTVSPropertyOp9
 70
     1
102
RTVSPropertyOp10
 70
     1
102
RTVSPropertyOp11
 70
     1
102
RTVSPropertyOp12
 70
     1
102
RTVSPropertyOp13
 70
     1
102
RTVSPropertyOp14
 70
     1
102
RTVSPropertyOp15
 70
     1
102
RTVSPropertyOp16
 70
     1
102
RTVSPropertyOp17
 70
     1
102
RTVSPropertyOp18
 70
     1
102
RTVSPropertyOp19
 70
     1
102
RTVSPropertyOp20
 70
     1
102
RTVSPropertyOp21
 70
     1
102
RTVSPropertyOp22
 70
     1
102
RTVSPropertyOp23
 70
     1
102
RTVSPropertyOp24
 70
     1
102
RTVSPropertyOp25
 70
     1
102
RTVSPropertyOp26
 70
     1
102
RTVSPropertyOp27
 70
     1
102
RTVSPropertyOp28
 70
     1
102
RTVSPropertyOp29
 70
     1
102
RTVSPropertyOp30
 70
     1
102
RTVSPropertyOp31
 70
     1
102
RTVSPropertyOp32
 70
     1
  0
XRECORD
  5
10AF
102
{ACAD_REACTORS
330
10AE
102
}
330
10AE
100
AcDbXrecord
280
     1
102
RTVSPropertyOp0
 70
     0
102
RTVSPropertyOp1
 70
     0
102
RTVSPropertyOp2
 70
     0
102
RTVSPropertyOp3
 70
     0
102
RTVSPropertyOp4
 70
     0
102
RTVSPropertyOp5
 70
     0
102
RTVSPropertyOp6
 70
     0
102
RTVSPropertyOp7
 70
     0
102
RTVSPropertyOp8
 70
     0
102
RTVSPropertyOp9
 70
     0
102
RTVSPropertyOp10
 70
     0
102
RTVSPropertyOp11
 70
     0
102
RTVSPropertyOp12
 70
     0
102
RTVSPropertyOp13
 70
     0
102
RTVSPropertyOp14
 70
     2
102
RTVSPropertyOp15
 70
     0
102
RTVSPropertyOp16
 70
     0
102
RTVSPropertyOp17
 70
     0
102
RTVSPropertyOp18
 70
     0
102
RTVSPropertyOp19
 70
     0
102
RTVSPropertyOp20
 70
     0
102
RTVSPropertyOp21
 70
     0
102
RTVSPropertyOp22
 70
     0
102
RTVSPropertyOp23
 70
     0
102
RTVSPropertyOp24
 70
     0
102
RTVSPropertyOp25
 70
     0
102
RTVSPropertyOp26
 70
     0
102
RTVSPropertyOp27
 70
     0
102
RTVSPropertyOp28
 70
     0
102
RTVSPropertyOp29
 70
     0
102
RTVSPropertyOp30
 70
     0
102
RTVSPropertyOp31
 70
     0
102
RTVSPropertyOp32
 70
     0
  0
XRECORD
  5
1095
102
{ACAD_REACTORS
330
1094
102
}
330
1094
100
AcDbXrecord
280
     1
102
RTVSPropertyOp0
 70
     1
102
RTVSPropertyOp1
 70
     1
102
RTVSPropertyOp2
 70
     1
102
RTVSPropertyOp3
 70
     1
102
RTVSPropertyOp4
 70
     1
102
RTVSPropertyOp5
 70
     1
102
RTVSPropertyOp6
 70
     1
102
RTVSPropertyOp7
 70
     1
102
RTVSPropertyOp8
 70
     1
102
RTVSPropertyOp9
 70
     1
102
RTVSPropertyOp10
 70
     1
102
RTVSPropertyOp11
 70
     1
102
RTVSPropertyOp12
 70
     1
102
RTVSPropertyOp13
 70
     1
102
RTVSPropertyOp14
 70
     1
102
RTVSPropertyOp15
 70
     1
102
RTVSPropertyOp16
 70
     1
102
RTVSPropertyOp17
 70
     1
102
RTVSPropertyOp18
 70
     1
102
RTVSPropertyOp19
 70
     1
102
RTVSPropertyOp20
 70
     1
102
RTVSPropertyOp21
 70
     1
102
RTVSPropertyOp22
 70
     1
102
RTVSPropertyOp23
 70
     1
102
RTVSPropertyOp24
 70
     1
102
RTVSPropertyOp25
 70
     1
102
RTVSPropertyOp26
 70
     1
102
RTVSPropertyOp27
 70
     1
102
RTVSPropertyOp28
 70
     1
102
RTVSPropertyOp29
 70
     1
102
RTVSPropertyOp30
 70
     1
102
RTVSPropertyOp31
 70
     1
102
RTVSPropertyOp32
 70
     1
  0
XRECORD
  5
10AB
102
{ACAD_REACTORS
330
10AA
102
}
330
10AA
100
AcDbXrecord
280
     1
102
RTVSPropertyOp0
 70
     1
102
RTVSPropertyOp1
 70
     1
102
RTVSPropertyOp2
 70
     1
102
RTVSPropertyOp3
 70
     1
102
RTVSPropertyOp4
 70
     1
102
RTVSPropertyOp5
 70
     1
102
RTVSPropertyOp6
 70
     1
102
RTVSPropertyOp7
 70
     1
102
RTVSPropertyOp8
 70
     1
102
RTVSPropertyOp9
 70
     1
102
RTVSPropertyOp10
 70
     1
102
RTVSPropertyOp11
 70
     1
102
RTVSPropertyOp12
 70
     1
102
RTVSPropertyOp13
 70
     1
102
RTVSPropertyOp14
 70
     1
102
RTVSPropertyOp15
 70
     1
102
RTVSPropertyOp16
 70
     1
102
RTVSPropertyOp17
 70
     1
102
RTVSPropertyOp18
 70
     1
102
RTVSPropertyOp19
 70
     1
102
RTVSPropertyOp20
 70
     1
102
RTVSPropertyOp21
 70
     1
102
RTVSPropertyOp22
 70
     1
102
RTVSPropertyOp23
 70
     1
102
RTVSPropertyOp24
 70
     1
102
RTVSPropertyOp25
 70
     1
102
RTVSPropertyOp26
 70
     1
102
RTVSPropertyOp27
 70
     1
102
RTVSPropertyOp28
 70
     1
102
RTVSPropertyOp29
 70
     1
102
RTVSPropertyOp30
 70
     1
102
RTVSPropertyOp31
 70
     1
102
RTVSPropertyOp32
 70
     1
  0
XRECORD
  5
10A9
102
{ACAD_REACTORS
330
10A8
102
}
330
10A8
100
AcDbXrecord
280
     1
102
RTVSPropertyOp0
 70
     1
102
RTVSPropertyOp1
 70
     1
102
RTVSPropertyOp2
 70
     1
102
RTVSPropertyOp3
 70
     1
102
RTVSPropertyOp4
 70
     1
102
RTVSPropertyOp5
 70
     1
102
RTVSPropertyOp6
 70
     1
102
RTVSPropertyOp7
 70
     1
102
RTVSPropertyOp8
 70
     1
102
RTVSPropertyOp9
 70
     1
102
RTVSPropertyOp10
 70
     1
102
RTVSPropertyOp11
 70
     1
102
RTVSPropertyOp12
 70
     1
102
RTVSPropertyOp13
 70
     1
102
RTVSPropertyOp14
 70
     1
102
RTVSPropertyOp15
 70
     1
102
RTVSPropertyOp16
 70
     1
102
RTVSPropertyOp17
 70
     1
102
RTVSPropertyOp18
 70
     1
102
RTVSPropertyOp19
 70
     1
102
RTVSPropertyOp20
 70
     1
102
RTVSPropertyOp21
 70
     1
102
RTVSPropertyOp22
 70
     1
102
RTVSPropertyOp23
 70
     1
102
RTVSPropertyOp24
 70
     1
102
RTVSPropertyOp25
 70
     1
102
RTVSPropertyOp26
 70
     1
102
RTVSPropertyOp27
 70
     1
102
RTVSPropertyOp28
 70
     1
102
RTVSPropertyOp29
 70
     1
102
RTVSPropertyOp30
 70
     1
102
RTVSPropertyOp31
 70
     1
102
RTVSPropertyOp32
 70
     1
  0
XRECORD
  5
10A3
102
{ACAD_REACTORS
330
10A2
102
}
330
10A2
100
AcDbXrecord
280
     1
102
RTVSPropertyOp0
 70
     1
102
RTVSPropertyOp1
 70
     1
102
RTVSPropertyOp2
 70
     1
102
RTVSPropertyOp3
 70
     1
102
RTVSPropertyOp4
 70
     1
102
RTVSPropertyOp5
 70
     1
102
RTVSPropertyOp6
 70
     1
102
RTVSPropertyOp7
 70
     1
102
RTVSPropertyOp8
 70
     1
102
RTVSPropertyOp9
 70
     1
102
RTVSPropertyOp10
 70
     1
102
RTVSPropertyOp11
 70
     1
102
RTVSPropertyOp12
 70
     1
102
RTVSPropertyOp13
 70
     1
102
RTVSPropertyOp14
 70
     1
102
RTVSPropertyOp15
 70
     1
102
RTVSPropertyOp16
 70
     1
102
RTVSPropertyOp17
 70
     1
102
RTVSPropertyOp18
 70
     1
102
RTVSPropertyOp19
 70
     1
102
RTVSPropertyOp20
 70
     1
102
RTVSPropertyOp21
 70
     1
102
RTVSPropertyOp22
 70
     1
102
RTVSPropertyOp23
 70
     1
102
RTVSPropertyOp24
 70
     1
102
RTVSPropertyOp25
 70
     1
102
RTVSPropertyOp26
 70
     1
102
RTVSPropertyOp27
 70
     1
102
RTVSPropertyOp28
 70
     1
102
RTVSPropertyOp29
 70
     1
102
RTVSPropertyOp30
 70
     1
102
RTVSPropertyOp31
 70
     1
102
RTVSPropertyOp32
 70
     1
  0
XRECORD
  5
10A5
102
{ACAD_REACTORS
330
10A4
102
}
330
10A4
100
AcDbXrecord
280
     1
102
RTVSPropertyOp0
 70
     1
102
RTVSPropertyOp1
 70
     1
102
RTVSPropertyOp2
 70
     1
102
RTVSPropertyOp3
 70
     1
102
RTVSPropertyOp4
 70
     1
102
RTVSPropertyOp5
 70
     1
102
RTVSPropertyOp6
 70
     1
102
RTVSPropertyOp7
 70
     1
102
RTVSPropertyOp8
 70
     1
102
RTVSPropertyOp9
 70
     1
102
RTVSPropertyOp10
 70
     1
102
RTVSPropertyOp11
 70
     1
102
RTVSPropertyOp12
 70
     1
102
RTVSPropertyOp13
 70
     1
102
RTVSPropertyOp14
 70
     1
102
RTVSPropertyOp15
 70
     1
102
RTVSPropertyOp16
 70
     1
102
RTVSPropertyOp17
 70
     1
102
RTVSPropertyOp18
 70
     1
102
RTVSPropertyOp19
 70
     1
102
RTVSPropertyOp20
 70
     1
102
RTVSPropertyOp21
 70
     1
102
RTVSPropertyOp22
 70
     1
102
RTVSPropertyOp23
 70
     1
102
RTVSPropertyOp24
 70
     1
102
RTVSPropertyOp25
 70
     1
102
RTVSPropertyOp26
 70
     1
102
RTVSPropertyOp27
 70
     1
102
RTVSPropertyOp28
 70
     1
102
RTVSPropertyOp29
 70
     1
102
RTVSPropertyOp30
 70
     1
102
RTVSPropertyOp31
 70
     1
102
RTVSPropertyOp32
 70
     1
  0
XRECORD
  5
109B
102
{ACAD_REACTORS
330
109A
102
}
330
109A
100
AcDbXrecord
280
     1
102
RTVSPropertyOp0
 70
     1
102
RTVSPropertyOp1
 70
     1
102
RTVSPropertyOp2
 70
     1
102
RTVSPropertyOp3
 70
     1
102
RTVSPropertyOp4
 70
     1
102
RTVSPropertyOp5
 70
     1
102
RTVSPropertyOp6
 70
     1
102
RTVSPropertyOp7
 70
     1
102
RTVSPropertyOp8
 70
     1
102
RTVSPropertyOp9
 70
     1
102
RTVSPropertyOp10
 70
     1
102
RTVSPropertyOp11
 70
     1
102
RTVSPropertyOp12
 70
     1
102
RTVSPropertyOp13
 70
     1
102
RTVSPropertyOp14
 70
     1
102
RTVSPropertyOp15
 70
     1
102
RTVSPropertyOp16
 70
     1
102
RTVSPropertyOp17
 70
     1
102
RTVSPropertyOp18
 70
     1
102
RTVSPropertyOp19
 70
     1
102
RTVSPropertyOp20
 70
     1
102
RTVSPropertyOp21
 70
     1
102
RTVSPropertyOp22
 70
     1
102
RTVSPropertyOp23
 70
     1
102
RTVSPropertyOp24
 70
     1
102
RTVSPropertyOp25
 70
     1
102
RTVSPropertyOp26
 70
     1
102
RTVSPropertyOp27
 70
     1
102
RTVSPropertyOp28
 70
     1
102
RTVSPropertyOp29
 70
     1
102
RTVSPropertyOp30
 70
     1
102
RTVSPropertyOp31
 70
     1
102
RTVSPropertyOp32
 70
     1
  0
XRECORD
  5
108F
102
{ACAD_REACTORS
330
108E
102
}
330
108E
100
AcDbXrecord
280
     1
102
RTVSPropertyOp0
 70
     1
102
RTVSPropertyOp1
 70
     1
102
RTVSPropertyOp2
 70
     1
102
RTVSPropertyOp3
 70
     1
102
RTVSPropertyOp4
 70
     1
102
RTVSPropertyOp5
 70
     1
102
RTVSPropertyOp6
 70
     1
102
RTVSPropertyOp7
 70
     1
102
RTVSPropertyOp8
 70
     1
102
RTVSPropertyOp9
 70
     1
102
RTVSPropertyOp10
 70
     1
102
RTVSPropertyOp11
 70
     1
102
RTVSPropertyOp12
 70
     1
102
RTVSPropertyOp13
 70
     1
102
RTVSPropertyOp14
 70
     1
102
RTVSPropertyOp15
 70
     1
102
RTVSPropertyOp16
 70
     1
102
RTVSPropertyOp17
 70
     1
102
RTVSPropertyOp18
 70
     1
102
RTVSPropertyOp19
 70
     1
102
RTVSPropertyOp20
 70
     1
102
RTVSPropertyOp21
 70
     1
102
RTVSPropertyOp22
 70
     1
102
RTVSPropertyOp23
 70
     1
102
RTVSPropertyOp24
 70
     1
102
RTVSPropertyOp25
 70
     1
102
RTVSPropertyOp26
 70
     1
102
RTVSPropertyOp27
 70
     1
102
RTVSPropertyOp28
 70
     1
102
RTVSPropertyOp29
 70
     1
102
RTVSPropertyOp30
 70
     1
102
RTVSPropertyOp31
 70
     1
102
RTVSPropertyOp32
 70
     1
  0
XRECORD
  5
10A7
102
{ACAD_REACTORS
330
10A6
102
}
330
10A6
100
AcDbXrecord
280
     1
102
RTVSPropertyOp0
 70
     1
102
RTVSPropertyOp1
 70
     1
102
RTVSPropertyOp2
 70
     1
102
RTVSPropertyOp3
 70
     1
102
RTVSPropertyOp4
 70
     1
102
RTVSPropertyOp5
 70
     1
102
RTVSPropertyOp6
 70
     1
102
RTVSPropertyOp7
 70
     1
102
RTVSPropertyOp8
 70
     1
102
RTVSPropertyOp9
 70
     1
102
RTVSPropertyOp10
 70
     1
102
RTVSPropertyOp11
 70
     1
102
RTVSPropertyOp12
 70
     1
102
RTVSPropertyOp13
 70
     1
102
RTVSPropertyOp14
 70
     1
102
RTVSPropertyOp15
 70
     1
102
RTVSPropertyOp16
 70
     1
102
RTVSPropertyOp17
 70
     1
102
RTVSPropertyOp18
 70
     1
102
RTVSPropertyOp19
 70
     1
102
RTVSPropertyOp20
 70
     1
102
RTVSPropertyOp21
 70
     1
102
RTVSPropertyOp22
 70
     1
102
RTVSPropertyOp23
 70
     1
102
RTVSPropertyOp24
 70
     1
102
RTVSPropertyOp25
 70
     1
102
RTVSPropertyOp26
 70
     1
102
RTVSPropertyOp27
 70
     1
102
RTVSPropertyOp28
 70
     1
102
RTVSPropertyOp29
 70
     1
102
RTVSPropertyOp30
 70
     1
102
RTVSPropertyOp31
 70
     1
102
RTVSPropertyOp32
 70
     1
  0
ENDSEC
  0
EOF
