 0
SECTION
 2
HEADER
 9
$ACADVER
 1
AC1003
 9
$EXTMIN
 10
217.118866
 20
-4.022571
 9
$EXTMAX
 10
494.128265
 20
184.450043
 9
$LIMMIN
 10
217.117866
 20
-4.023571
 9
$LIMMAX
 10
494.129265
 20
184.451043
 9
$SNAPUNIT
 10
1
 20
1
 9
$SNAPBASE
 10
0
 20
0
 9
$GRIDMODE
 70
0
 9
$GRIDUNIT
 10
0
 20
0
 9
$LTSCALE
 40
4.616823
 9
$TEXTSIZE
 40
3.2
 9
$DIMTAD
 70
0
 9
$LUNITS
 70
2
 9
$LUPREC
 70
4
 9
$FILLETRAD
 40
0
 9
$AUNITS
 70
0
 9
$AUPREC
 70
0
 0
ENDSEC
 0
SECTION
 2
TABLES
 0
TABLE
 2
LTYPE
 70
25
  0
LTYPE
  2
CONTINUOUS
 70
    64
  3
Solid-line
 72
    65
 73
     0
 40
0.0
  0
LTYPE
  2
BORDER
 70
    64
  3
BORDER
 72
    65
 73
     6
 40
1.75
 49
0.5
 49
-0.25
 49
0.5
 49
-0.25
 49
0.0
 49
-0.25
  0
LTYPE
  2
BORDER2
 70
    64
  3
BORDER2
 72
    65
 73
     6
 40
0.875
 49
0.25
 49
-0.125
 49
0.25
 49
-0.125
 49
0.0
 49
-0.125
  0
LTYPE
  2
BORDERX2
 70
    64
  3
BORDERX2
 72
    65
 73
     6
 40
3.5
 49
1.0
 49
-0.5
 49
1.0
 49
-0.5
 49
0.0
 49
-0.5
  0
LTYPE
  2
CENTER
 70
    64
  3
CENTER
 72
    65
 73
     4
 40
2.0
 49
1.25
 49
-0.25
 49
0.25
 49
-0.25
  0
LTYPE
  2
CENTER2
 70
    64
  3
CENTER2
 72
    65
 73
     4
 40
1.125
 49
0.75
 49
-0.125
 49
0.125
 49
-0.125
  0
LTYPE
  2
CENTERX2
 70
    64
  3
CENTERX2
 72
    65
 73
     4
 40
4.0
 49
2.5
 49
-0.5
 49
0.5
 49
-0.5
  0
LTYPE
  2
DASHDOT
 70
    64
  3
DASHDOT
 72
    65
 73
     4
 40
1.0
 49
0.5
 49
-0.25
 49
0.0
 49
-0.25
  0
LTYPE
  2
DASHDOT2
 70
    64
  3
DASHDOT2
 72
    65
 73
     4
 40
0.5
 49
0.25
 49
-0.125
 49
0.0
 49
-0.125
  0
LTYPE
  2
DASHDOTX2
 70
    64
  3
DASHDOTX2
 72
    65
 73
     4
 40
2.0
 49
1.0
 49
-0.5
 49
0.0
 49
-0.5
  0
LTYPE
  2
DASHED
 70
    64
  3
DASHED
 72
    65
 73
     2
 40
0.75
 49
0.5
 49
-0.25
  0
LTYPE
  2
DASHED2
 70
    64
  3
DASHED2
 72
    65
 73
     2
 40
0.375
 49
0.25
 49
-0.125
  0
LTYPE
  2
DASHEDX2
 70
    64
  3
DASHEDX2
 72
    65
 73
     2
 40
1.5
 49
1.0
 49
-0.5
  0
LTYPE
  2
DIVIDE
 70
    64
  3
DIVIDE
 72
    65
 73
     6
 40
1.25
 49
0.5
 49
-0.25
 49
0.0
 49
-0.25
 49
0.0
 49
-0.25
  0
LTYPE
  2
DIVIDE2
 70
    64
  3
DIVIDE2
 72
    65
 73
     6
 40
0.625
 49
0.25
 49
-0.125
 49
0.0
 49
-0.125
 49
0.0
 49
-0.125
  0
LTYPE
  2
DIVIDEX2
 70
    64
  3
DIVIDEX2
 72
    65
 73
     6
 40
2.5
 49
1.0
 49
-0.5
 49
0.0
 49
-0.5
 49
0.0
 49
-0.5
  0
LTYPE
  2
DOT
 70
    64
  3
DOT
 72
    65
 73
     2
 40
0.25
 49
0.0
 49
-0.25
  0
LTYPE
  2
DOT2
 70
    64
  3
DOT2
 72
    65
 73
     2
 40
0.125
 49
0.0
 49
-0.125
  0
LTYPE
  2
DOTX2
 70
    64
  3
DOTX2
 72
    65
 73
     2
 40
0.5
 49
0.0
 49
-0.5
  0
LTYPE
  2
HIDDEN
 70
    64
  3
HIDDEN
 72
    65
 73
     2
 40
0.375
 49
0.25
 49
-0.125
  0
LTYPE
  2
HIDDEN2
 70
    64
  3
HIDDEN2
 72
    65
 73
     2
 40
0.1875
 49
0.125
 49
-0.0625
  0
LTYPE
  2
HIDDENX2
 70
    64
  3
HIDDENX2
 72
    65
 73
     2
 40
0.75
 49
0.5
 49
-0.25
  0
LTYPE
  2
PHANTOM
 70
    64
  3
PHANTOM
 72
    65
 73
     6
 40
2.5
 49
1.25
 49
-0.25
 49
0.25
 49
-0.25
 49
0.25
 49
-0.25
  0
LTYPE
  2
PHANTOM2
 70
    64
  3
PHANTOM2
 72
    65
 73
     6
 40
1.25
 49
0.625
 49
-0.125
 49
0.125
 49
-0.125
 49
0.125
 49
-0.125
  0
LTYPE
  2
PHANTOMX2
 70
    64
  3
PHANTOMX2
 72
    65
 73
     6
 40
5.0
 49
2.5
 49
-0.5
 49
0.5
 49
-0.5
 49
0.5
 49
-0.5
 0
ENDTAB
 0
TABLE
 2
LAYER
 70
1
 0
LAYER
 2
001
 70
0
 62
7
 6
CONTINUOUS
 0
ENDTAB
 0
TABLE
 2
STYLE
 70
2
 0
STYLE
 2
STANDARD
 70
0
 40
0
 41
1
 50
0
 71
0
 42
.2
 3
TXT
 4
BIGFONT
 0
STYLE
 2
TATEGAKI
 70
4
 40
1
 41
1
 50
0
 71
0
 42
.2
 3
TXT
 4
BIGFONT
 0
ENDTAB
 0
ENDSEC
 0
SECTION
 2
ENTITIES
 0
LINE
 8
001
 62
3
 10
268.991565
 20
98.808669
 11
268.991565
 21
106.908669
 0
LINE
 8
001
 62
3
 10
283.919188
 20
98.808669
 11
283.919188
 21
106.908669
 0
LINE
 8
001
 62
3
 10
248.519188
 20
101.508669
 11
268.991565
 21
101.508669
 0
LINE
 8
001
 62
3
 10
248.519188
 20
104.208669
 11
268.991565
 21
104.208669
 0
LINE
 8
001
 62
3
 10
425.043155
 20
106.908669
 11
425.043155
 21
98.808669
 0
LINE
 8
001
 62
3
 10
410.528270
 20
171.472040
 11
494.128270
 21
171.472040
 0
TEXT
 8
001
 62
3
 10
483.403270
 20
167.327040
 40
3.040000
 1
担
 41
0.859375
 7
STANDARD
 0
TEXT
 8
001
 62
3
 10
490.290770
 20
167.327040
 40
3.040000
 1
当
 41
0.859375
 7
STANDARD
 0
TEXT
 8
001
 62
3
 10
443.207493
 20
167.309878
 40
3.040000
 1
変更・追記内容
 41
1.182726
 7
STANDARD
 0
LINE
 8
001
 62
3
 10
410.528270
 20
175.977429
 11
410.528270
 21
156.622040
 0
TEXT
 8
001
 62
3
 10
414.300974
 20
162.372864
 40
2.432000
 1
1
 41
1.499999
 7
STANDARD
 0
TEXT
 8
001
 62
3
 10
414.300974
 20
157.216654
 40
2.432000
 1
2
 41
1.000000
 7
STANDARD
 0
TEXT
 8
001
 62
3
 10
423.487219
 20
167.886406
 40
3.200000
 1
日
 41
0.859375
 7
STANDARD
 0
TEXT
 8
001
 62
3
 10
432.364093
 20
167.886406
 40
3.200000
 1
付
 41
0.859375
 7
STANDARD
 0
TEXT
 8
001
 62
3
 10
423.313060
 20
172.122040
 40
3.200000
 1
図
 41
0.859375
 7
STANDARD
 0
TEXT
 8
001
 62
3
 10
441.968955
 20
172.122040
 40
3.200000
 1
面
 41
0.859375
 7
STANDARD
 0
TEXT
 8
001
 62
3
 10
460.624851
 20
172.122040
 40
3.200000
 1
略
 41
0.859375
 7
STANDARD
 0
TEXT
 8
001
 62
3
 10
479.280746
 20
172.122040
 40
3.200000
 1
歴
 41
0.859375
 7
STANDARD
 0
TEXT
 8
001
 62
3
 10
411.130634
 20
167.247040
 40
3.200000
 1
記
 41
0.859375
 7
STANDARD
 0
TEXT
 8
001
 62
3
 10
417.383542
 20
167.247040
 40
3.200000
 1
号
 41
0.859375
 7
STANDARD
 0
LINE
 8
001
 62
3
 10
355.618860
 20
184.450047
 11
355.618860
 21
183.201488
 0
LINE
 8
001
 62
3
 10
484.529626
 20
156.622040
 11
410.528270
 21
156.622040
 0
LINE
 8
001
 62
3
 10
492.679961
 20
156.622040
 11
484.529626
 21
156.622040
 0
LINE
 8
001
 62
3
 10
492.679961
 20
156.622040
 11
494.128270
 21
156.622040
 0
LINE
 8
001
 62
2
 10
343.705522
 20
177.810757
 11
344.141269
 21
177.583289
 0
LINE
 8
001
 62
2
 10
343.705522
 20
174.080127
 11
344.141269
 21
174.307595
 0
LINE
 8
001
 62
2
 10
344.141269
 20
177.583289
 11
344.141269
 21
174.307595
 0
LINE
 8
001
 62
2
 10
345.244787
 20
174.080127
 11
344.809039
 21
174.307595
 0
LINE
 8
001
 62
2
 10
344.809039
 20
176.304454
 11
344.809039
 21
174.307595
 0
LINE
 8
001
 62
2
 10
347.786650
 20
177.810757
 11
347.350902
 21
177.583289
 0
LINE
 8
001
 62
2
 10
346.247384
 20
177.810757
 11
346.683132
 21
177.583289
 0
LINE
 8
001
 62
2
 10
346.683132
 20
177.583289
 11
346.683132
 21
176.140952
 0
LINE
 8
001
 62
2
 10
347.350902
 20
177.583289
 11
347.350902
 21
173.868566
 0
LINE
 8
001
 62
2
 10
348.001947
 20
177.810755
 11
348.437693
 21
177.583283
 0
LINE
 8
001
 62
2
 10
348.001869
 20
174.080177
 11
348.437625
 21
174.307630
 0
LINE
 8
001
 62
2
 10
348.437693
 20
177.583283
 11
348.437693
 21
174.307630
 0
LINE
 8
001
 62
2
 10
349.931483
 20
177.810731
 11
349.495732
 21
177.583269
 0
LINE
 8
001
 62
2
 10
349.495732
 20
177.583269
 11
349.495732
 21
174.307615
 0
LINE
 8
001
 62
2
 10
349.931483
 20
174.080153
 11
349.495732
 21
174.307615
 0
LINE
 8
001
 62
2
 10
353.621737
 20
177.810690
 11
354.057484
 21
177.583220
 0
LINE
 8
001
 62
2
 10
354.057484
 20
177.583220
 11
354.057427
 21
174.307566
 0
LINE
 8
001
 62
2
 10
353.621672
 20
174.080112
 11
354.057427
 21
174.307566
 0
LINE
 8
001
 62
2
 10
355.573998
 20
177.810690
 11
355.138251
 21
177.583220
 0
LINE
 8
001
 62
2
 10
355.574063
 20
174.080112
 11
355.138308
 21
174.307566
 0
LINE
 8
001
 62
2
 10
355.777725
 20
177.810690
 11
356.213473
 21
177.583220
 0
LINE
 8
001
 62
2
 10
355.777660
 20
174.080112
 11
356.213415
 21
174.307566
 0
LINE
 8
001
 62
2
 10
357.729986
 20
177.810690
 11
357.294239
 21
177.583220
 0
LINE
 8
001
 62
2
 10
357.294239
 20
177.583220
 11
357.294297
 21
174.307566
 0
LINE
 8
001
 62
2
 10
357.730052
 20
174.080112
 11
357.294297
 21
174.307566
 0
LINE
 8
001
 62
2
 10
356.213448
 20
176.156087
 11
355.138275
 21
176.156087
 0
LINE
 8
001
 62
2
 10
356.213440
 20
175.734797
 11
355.138283
 21
175.734797
 0
LINE
 8
001
 62
2
 10
356.213473
 20
177.583220
 11
356.213448
 21
176.156087
 0
LINE
 8
001
 62
2
 10
356.213440
 20
175.734797
 11
356.213415
 21
174.307566
 0
LINE
 8
001
 62
2
 10
355.138251
 20
177.583220
 11
355.138275
 21
176.156087
 0
LINE
 8
001
 62
2
 10
355.138283
 20
175.734797
 11
355.138308
 21
174.307566
 0
LINE
 8
001
 62
2
 10
357.936946
 20
177.810690
 11
358.372693
 21
177.583220
 0
LINE
 8
001
 62
2
 10
358.372693
 20
177.583220
 11
358.372636
 21
174.307566
 0
LINE
 8
001
 62
2
 10
357.936880
 20
174.080112
 11
358.372636
 21
174.307566
 0
LINE
 8
001
 62
2
 10
359.866456
 20
177.810690
 11
359.430709
 21
177.583220
 0
LINE
 8
001
 62
2
 10
359.430709
 20
177.583220
 11
359.430766
 21
174.307566
 0
LINE
 8
001
 62
2
 10
359.866521
 20
174.080112
 11
359.430766
 21
174.307566
 0
LINE
 8
001
 62
2
 10
360.080815
 20
177.810690
 11
360.516563
 21
177.583220
 0
LINE
 8
001
 62
2
 10
360.516563
 20
177.583220
 11
360.516505
 21
174.307566
 0
LINE
 8
001
 62
2
 10
360.080750
 20
174.080112
 11
360.516505
 21
174.307566
 0
ARC
 8
001
 62
2
 10
352.229825
 20
175.954832
 40
2.086286
 50
97.701524
 51
270.000000
 0
ARC
 8
001
 62
2
 10
365.110426
 20
175.933875
 40
2.108943
 50
0.314250
 51
69.005582
 0
ARC
 8
001
 62
2
 10
365.571102
 20
175.933875
 40
2.108943
 50
110.994418
 51
148.116611
 0
ARC
 8
001
 62
2
 10
365.110426
 20
175.957009
 40
2.108943
 50
290.994418
 51
359.685750
 0
ARC
 8
001
 62
2
 10
365.571102
 20
175.957009
 40
2.108943
 50
211.883389
 51
249.005582
 0
ARC
 8
001
 62
2
 10
365.340764
 20
176.808247
 40
1.214071
 50
64.365172
 51
115.634828
 0
ARC
 8
001
 62
2
 10
365.340764
 20
175.082637
 40
1.214071
 50
244.365172
 51
295.634828
 0
ARC
 8
001
 62
2
 10
365.340764
 20
176.831309
 40
0.595856
 50
19.486606
 51
160.513394
 0
ARC
 8
001
 62
2
 10
365.340764
 20
175.059575
 40
0.595856
 50
199.486606
 51
340.513394
 0
ARC
 8
001
 62
3
 10
360.598291
 20
153.717382
 40
26.040000
 50
69.505715
 51
81.689988
 0
ARC
 8
001
 62
3
 10
360.598291
 20
198.173502
 40
26.040000
 50
278.310012
 51
290.494285
 0
ARC
 8
001
 62
3
 10
368.906496
 20
175.945442
 40
2.310000
 50
290.494285
 51
69.505715
 0
ARC
 8
001
 62
3
 10
341.606496
 20
175.945442
 40
2.310000
 50
110.494285
 51
249.505715
 0
ARC
 8
001
 62
3
 10
349.914700
 20
153.717382
 40
26.040000
 50
98.310012
 51
110.494285
 0
ARC
 8
001
 62
3
 10
349.914700
 20
198.173502
 40
26.040000
 50
249.505715
 51
261.689988
 0
ARC
 8
001
 62
3
 10
355.256496
 20
117.145442
 40
63.000000
 50
81.689988
 51
98.310012
 0
ARC
 8
001
 62
3
 10
355.256496
 20
234.745442
 40
63.000000
 50
261.689988
 51
278.310012
 0
ARC
 8
001
 62
3
 10
355.256496
 20
117.145442
 40
62.370000
 50
81.689988
 51
98.310012
 0
ARC
 8
001
 62
3
 10
355.256496
 20
234.745442
 40
62.370000
 50
261.689988
 51
278.310012
 0
ARC
 8
001
 62
3
 10
360.598291
 20
198.173502
 40
25.410000
 50
278.310012
 51
290.494285
 0
ARC
 8
001
 62
3
 10
360.598291
 20
153.717382
 40
25.410000
 50
69.505715
 51
81.689988
 0
ARC
 8
001
 62
3
 10
368.906496
 20
175.945442
 40
1.680000
 50
290.494285
 51
69.505715
 0
ARC
 8
001
 62
3
 10
341.606496
 20
175.945442
 40
1.680000
 50
110.494285
 51
249.505715
 0
ARC
 8
001
 62
3
 10
349.914700
 20
153.717382
 40
25.410000
 50
98.310012
 51
110.494285
 0
ARC
 8
001
 62
3
 10
349.914700
 20
198.173502
 40
25.410000
 50
249.505715
 51
261.689988
 0
LINE
 8
001
 62
2
 10
359.866457
 20
173.868566
 11
357.936945
 21
173.868566
 0
LINE
 8
001
 62
2
 10
359.866457
 20
174.080127
 11
359.866457
 21
173.868566
 0
LINE
 8
001
 62
2
 10
357.729987
 20
178.022220
 11
355.777725
 21
178.022220
 0
LINE
 8
001
 62
2
 10
357.729987
 20
178.022220
 11
357.729987
 21
177.810757
 0
LINE
 8
001
 62
2
 10
357.729987
 20
174.080127
 11
357.729987
 21
173.868467
 0
LINE
 8
001
 62
2
 10
357.729987
 20
173.868467
 11
355.777725
 21
173.868467
 0
LINE
 8
001
 62
2
 10
359.866457
 20
178.022318
 11
359.866457
 21
177.810757
 0
LINE
 8
001
 62
2
 10
359.866457
 20
178.022318
 11
357.936945
 21
178.022318
 0
LINE
 8
001
 62
2
 10
357.936945
 20
178.022318
 11
357.936945
 21
177.810757
 0
LINE
 8
001
 62
2
 10
360.080815
 20
174.080127
 11
360.080815
 21
173.868566
 0
LINE
 8
001
 62
2
 10
362.065115
 20
173.868566
 11
360.080815
 21
173.868566
 0
LINE
 8
001
 62
2
 10
361.574579
 20
177.354549
 11
361.574579
 21
174.536335
 0
LINE
 8
001
 62
2
 10
361.574579
 20
174.536335
 11
361.764628
 21
174.536335
 0
ARC
 8
001
 62
2
 10
360.792842
 20
175.945442
 40
1.711710
 50
304.591955
 51
55.408045
 0
LINE
 8
001
 62
2
 10
362.065115
 20
178.022318
 11
360.080815
 21
178.022318
 0
LINE
 8
001
 62
2
 10
360.080815
 20
178.022318
 11
360.080815
 21
177.810757
 0
LINE
 8
001
 62
2
 10
357.936945
 20
174.080127
 11
357.936945
 21
173.868566
 0
LINE
 8
001
 62
2
 10
361.574579
 20
177.354549
 11
361.764628
 21
177.354549
 0
LINE
 8
001
 62
2
 10
349.931419
 20
174.080127
 11
349.931415
 21
173.868546
 0
LINE
 8
001
 62
2
 10
348.001903
 20
173.868585
 11
349.931415
 21
173.868552
 0
LINE
 8
001
 62
2
 10
343.705522
 20
173.868566
 11
345.244787
 21
173.868566
 0
ARC
 8
001
 62
2
 10
338.723579
 20
175.994349
 40
14.713566
 50
353.866006
 51
357.694034
 0
LINE
 8
001
 62
2
 10
352.440159
 20
175.405981
 11
353.425230
 21
175.402336
 0
POLYLINE
 8
001
 62
2
 66
1
 0
VERTEX
 8
001
 62
2
 10
352.444137
 20
176.481196
 0
VERTEX
 8
001
 62
2
 10
352.425510
 20
176.600463
 0
VERTEX
 8
001
 62
2
 10
352.403138
 20
176.714668
 0
VERTEX
 8
001
 62
2
 10
352.377196
 20
176.822927
 0
VERTEX
 8
001
 62
2
 10
352.347884
 20
176.924404
 0
VERTEX
 8
001
 62
2
 10
352.315429
 20
177.018313
 0
VERTEX
 8
001
 62
2
 10
352.280080
 20
177.103930
 0
VERTEX
 8
001
 62
2
 10
352.242112
 20
177.180593
 0
VERTEX
 8
001
 62
2
 10
352.201818
 20
177.247708
 0
VERTEX
 8
001
 62
2
 10
352.159509
 20
177.304758
 0
VERTEX
 8
001
 62
2
 10
352.115512
 20
177.351300
 0
VERTEX
 8
001
 62
2
 10
352.070168
 20
177.386976
 0
VERTEX
 8
001
 62
2
 10
352.023827
 20
177.411510
 0
VERTEX
 8
001
 62
2
 10
351.976847
 20
177.424712
 0
VERTEX
 8
001
 62
2
 10
351.929591
 20
177.426480
 0
VERTEX
 8
001
 62
2
 10
351.882425
 20
177.416800
 0
VERTEX
 8
001
 62
2
 10
351.835713
 20
177.395747
 0
VERTEX
 8
001
 62
2
 10
351.789816
 20
177.363485
 0
VERTEX
 8
001
 62
2
 10
351.745090
 20
177.320261
 0
VERTEX
 8
001
 62
2
 10
351.701878
 20
177.266411
 0
VERTEX
 8
001
 62
2
 10
351.660517
 20
177.202350
 0
VERTEX
 8
001
 62
2
 10
351.621324
 20
177.128575
 0
VERTEX
 8
001
 62
2
 10
351.584604
 20
177.045654
 0
VERTEX
 8
001
 62
2
 10
351.550640
 20
176.954229
 0
VERTEX
 8
001
 62
2
 10
351.519695
 20
176.855007
 0
VERTEX
 8
001
 62
2
 10
351.492007
 20
176.748754
 0
VERTEX
 8
001
 62
2
 10
351.467792
 20
176.636292
 0
VERTEX
 8
001
 62
2
 10
351.447235
 20
176.518490
 0
VERTEX
 8
001
 62
2
 10
351.430496
 20
176.396259
 0
VERTEX
 8
001
 62
2
 10
351.417705
 20
176.270543
 0
VERTEX
 8
001
 62
2
 10
351.408960
 20
176.142314
 0
VERTEX
 8
001
 62
2
 10
351.404328
 20
176.012564
 0
VERTEX
 8
001
 62
2
 10
351.403846
 20
175.882295
 0
VERTEX
 8
001
 62
2
 10
351.407517
 20
175.752513
 0
VERTEX
 8
001
 62
2
 10
351.415314
 20
175.624224
 0
VERTEX
 8
001
 62
2
 10
351.427174
 20
175.498417
 0
VERTEX
 8
001
 62
2
 10
351.443008
 20
175.376065
 0
VERTEX
 8
001
 62
2
 10
351.462692
 20
175.258114
 0
VERTEX
 8
001
 62
2
 10
351.486075
 20
175.145476
 0
VERTEX
 8
001
 62
2
 10
351.512976
 20
175.039021
 0
VERTEX
 8
001
 62
2
 10
351.543186
 20
174.939573
 0
VERTEX
 8
001
 62
2
 10
351.576472
 20
174.847899
 0
VERTEX
 8
001
 62
2
 10
351.612578
 20
174.764709
 0
VERTEX
 8
001
 62
2
 10
351.651223
 20
174.690645
 0
VERTEX
 8
001
 62
2
 10
351.692109
 20
174.626280
 0
VERTEX
 8
001
 62
2
 10
351.734921
 20
174.572111
 0
VERTEX
 8
001
 62
2
 10
351.779327
 20
174.528558
 0
VERTEX
 8
001
 62
2
 10
351.824984
 20
174.495957
 0
VERTEX
 8
001
 62
2
 10
351.871539
 20
174.474559
 0
VERTEX
 8
001
 62
2
 10
351.918632
 20
174.464530
 0
VERTEX
 8
001
 62
2
 10
351.965899
 20
174.465948
 0
VERTEX
 8
001
 62
2
 10
352.012976
 20
174.478802
 0
VERTEX
 8
001
 62
2
 10
352.059497
 20
174.502992
 0
VERTEX
 8
001
 62
2
 10
352.105104
 20
174.538332
 0
VERTEX
 8
001
 62
2
 10
352.149444
 20
174.584548
 0
VERTEX
 8
001
 62
2
 10
352.192173
 20
174.641283
 0
VERTEX
 8
001
 62
2
 10
352.232963
 20
174.708098
 0
VERTEX
 8
001
 62
2
 10
352.271498
 20
174.784477
 0
VERTEX
 8
001
 62
2
 10
352.307479
 20
174.869830
 0
VERTEX
 8
001
 62
2
 10
352.340629
 20
174.963497
 0
VERTEX
 8
001
 62
2
 10
352.370691
 20
175.064754
 0
VERTEX
 8
001
 62
2
 10
352.397433
 20
175.172818
 0
VERTEX
 8
001
 62
2
 10
352.420649
 20
175.286854
 0
VERTEX
 8
001
 62
2
 10
352.440159
 20
175.405981
 0
SEQEND
 8
001
 0
LINE
 8
001
 62
2
 10
352.444137
 20
176.481196
 11
353.429208
 21
176.477551
 0
ARC
 8
001
 62
2
 10
338.723579
 20
175.994349
 40
14.713566
 50
1.881966
 51
5.709994
 0
LINE
 8
001
 62
2
 10
349.931488
 20
178.022299
 11
349.931484
 21
177.810757
 0
LINE
 8
001
 62
2
 10
348.001976
 20
178.022338
 11
349.931488
 21
178.022304
 0
LINE
 8
001
 62
2
 10
348.001907
 20
174.080127
 11
348.001903
 21
173.868585
 0
LINE
 8
001
 62
2
 10
348.001976
 20
178.022338
 11
348.001972
 21
177.810757
 0
LINE
 8
001
 62
2
 10
345.244787
 20
174.080127
 11
345.244787
 21
173.868566
 0
LINE
 8
001
 62
2
 10
344.809039
 20
176.304454
 11
346.331469
 21
173.868566
 0
LINE
 8
001
 62
2
 10
346.331469
 20
173.868566
 11
347.350902
 21
173.868566
 0
LINE
 8
001
 62
2
 10
347.786650
 20
178.022318
 11
347.786650
 21
177.810757
 0
LINE
 8
001
 62
2
 10
346.247384
 20
178.022318
 11
347.786650
 21
178.022318
 0
LINE
 8
001
 62
2
 10
346.247384
 20
178.022318
 11
346.247384
 21
177.810757
 0
LINE
 8
001
 62
2
 10
346.683132
 20
176.140952
 11
345.448486
 21
178.022318
 0
LINE
 8
001
 62
2
 10
343.705522
 20
178.022318
 11
345.448486
 21
178.022318
 0
LINE
 8
001
 62
2
 10
353.621736
 20
178.022220
 11
355.573998
 21
178.022220
 0
LINE
 8
001
 62
2
 10
353.621736
 20
177.810757
 11
353.621736
 21
178.022220
 0
LINE
 8
001
 62
2
 10
353.621736
 20
173.868467
 11
353.621736
 21
174.080127
 0
LINE
 8
001
 62
2
 10
353.621736
 20
173.868467
 11
355.573998
 21
173.868467
 0
LINE
 8
001
 62
2
 10
355.777725
 20
174.080127
 11
355.777725
 21
173.868467
 0
LINE
 8
001
 62
2
 10
355.573998
 20
174.080127
 11
355.573998
 21
173.868467
 0
LINE
 8
001
 62
2
 10
355.573998
 20
177.810757
 11
355.573998
 21
178.022220
 0
LINE
 8
001
 62
2
 10
355.777725
 20
177.810757
 11
355.777725
 21
178.022220
 0
LINE
 8
001
 62
2
 10
343.705522
 20
174.080127
 11
343.705522
 21
173.868566
 0
LINE
 8
001
 62
2
 10
343.705522
 20
178.022318
 11
343.705522
 21
177.810757
 0
ARC
 8
001
 62
2
 10
362.275115
 20
176.381190
 40
1.641128
 50
17.308749
 51
23.765071
 0
ARC
 8
001
 62
2
 10
360.876842
 20
175.945442
 40
3.105726
 50
342.691251
 51
17.308566
 0
ARC
 8
001
 62
2
 10
362.275115
 20
175.509694
 40
1.641128
 50
336.234929
 51
342.691251
 0
ARC
 8
001
 62
2
 10
362.065115
 20
176.381190
 40
1.641128
 50
17.308749
 51
90.000000
 0
ARC
 8
001
 62
2
 10
360.666842
 20
175.945442
 40
3.105726
 50
342.691251
 51
17.308566
 0
ARC
 8
001
 62
2
 10
362.065115
 20
175.509694
 40
1.641128
 50
270.000000
 51
342.691251
 0
ARC
 8
001
 62
2
 10
351.941175
 20
175.945442
 40
2.076876
 50
46.752880
 51
89.749998
 0
ARC
 8
001
 62
2
 10
351.941175
 20
175.945442
 40
2.076876
 50
273.976333
 51
312.823120
 0
ARC
 8
001
 62
2
 10
363.382983
 20
175.913380
 40
2.755889
 50
0.666584
 51
23.903928
 0
ARC
 8
001
 62
2
 10
367.298545
 20
175.913380
 40
2.755889
 50
156.096072
 51
179.333416
 0
ARC
 8
001
 62
2
 10
363.382983
 20
175.977503
 40
2.755889
 50
336.096072
 51
359.333416
 0
ARC
 8
001
 62
2
 10
367.298545
 20
175.977503
 40
2.755889
 50
180.666584
 51
203.903928
 0
LINE
 8
001
 62
3
 10
442.319461
 20
12.706296
 11
442.319461
 21
33.706296
 0
LINE
 8
001
 62
3
 10
455.319461
 20
12.706296
 11
455.319461
 21
33.706296
 0
LINE
 8
001
 62
3
 10
468.319461
 20
12.706296
 11
468.319461
 21
33.706296
 0
LINE
 8
001
 62
3
 10
442.319461
 20
12.706296
 11
442.319461
 21
5.706296
 0
LINE
 8
001
 62
3
 10
415.265851
 20
5.706296
 11
415.265851
 21
19.706296
 0
LINE
 8
001
 62
3
 10
425.597786
 20
19.316272
 11
425.597786
 21
5.706296
 0
TEXT
 8
001
 62
3
 10
444.329779
 20
31.911412
 40
2.000000
 1
A
 41
0.700000
 7
STANDARD
 0
TEXT
 8
001
 62
3
 10
446.865065
 20
31.911412
 40
2.000000
 1
P
 41
0.700000
 7
STANDARD
 0
TEXT
 8
001
 62
3
 10
449.400351
 20
31.911412
 40
2.000000
 1
P
 41
0.700000
 7
STANDARD
 0
TEXT
 8
001
 62
3
 10
451.935637
 20
31.911412
 40
2.000000
 1
D
 41
0.700000
 7
STANDARD
 0
TEXT
 8
001
 62
3
 10
457.304321
 20
31.911412
 40
2.000000
 1
C
 41
0.700000
 7
STANDARD
 0
TEXT
 8
001
 62
3
 10
459.839607
 20
31.911412
 40
2.000000
 1
H
 41
0.700000
 7
STANDARD
 0
TEXT
 8
001
 62
3
 10
462.374893
 20
31.911412
 40
2.000000
 1
C
 41
0.700000
 7
STANDARD
 0
TEXT
 8
001
 62
3
 10
464.910179
 20
31.911412
 40
2.000000
 1
K
 41
0.700000
 7
STANDARD
 0
TEXT
 8
001
 62
3
 10
470.584146
 20
31.911412
 40
2.000000
 1
DESN
 41
1.216763
 7
STANDARD
 0
TEXT
 8
001
 62
3
 10
385.577787
 20
2.564914
 40
2.000000
 1
NICHIDO IND.CO.LTD
 41
1.274876
 7
STANDARD
 0
LINE
 8
001
 62
3
 10
395.960816
 20
33.346972
 11
395.960816
 21
12.706296
 0
LINE
 8
001
 62
3
 10
442.319461
 20
5.706296
 11
442.319461
 21
-3.959426
 0
LINE
 8
001
 62
3
 10
395.960816
 20
33.706296
 11
395.960816
 21
35.706296
 0
LINE
 8
001
 62
3
 10
442.319461
 20
33.706296
 11
442.319461
 21
35.706296
 0
LINE
 8
001
 62
3
 10
455.319461
 20
33.706296
 11
455.319461
 21
35.706296
 0
LINE
 8
001
 62
3
 10
468.319461
 20
33.706296
 11
468.319461
 21
35.706296
 0
LINE
 8
001
 62
3
 10
455.319461
 20
12.706296
 11
455.319461
 21
5.706296
 0
TEXT
 8
001
 62
3
 10
443.431905
 20
6.570983
 40
3.200000
 1
作成日
 41
1.017226
 7
STANDARD
 0
LINE
 8
001
 62
3
 10
494.018824
 20
35.706296
 11
382.715382
 21
35.706296
 0
LINE
 8
001
 62
3
 10
481.319461
 20
12.706296
 11
481.319461
 21
35.706296
 0
TEXT
 8
001
 62
3
 10
484.643264
 20
31.997231
 40
1.800000
 1
D
 41
0.666667
 7
STANDARD
 0
TEXT
 8
001
 62
3
 10
487.459892
 20
31.997231
 40
1.800000
 1
E
 41
0.666667
 7
STANDARD
 0
TEXT
 8
001
 62
3
 10
490.276520
 20
31.997231
 40
1.800000
 1
F
 41
0.666667
 7
STANDARD
 0
TEXT
 8
001
 62
3
 10
484.643264
 20
28.004677
 40
3.200000
 1
製図
 41
1.076369
 7
STANDARD
 0
LINE
 8
001
 62
3
 10
382.715382
 20
35.706296
 11
382.715382
 21
-3.959426
 0
TEXT
 8
001
 62
3
 10
384.092034
 20
-3.626961
 40
5.000000
 1
日動工業株式会社
 41
0.833333
 7
STANDARD
 0
LINE
 8
001
 62
3
 10
425.597786
 20
5.706296
 11
425.597786
 21
-3.959426
 0
LINE
 8
001
 62
3
 10
425.597786
 20
0.873435
 11
442.319461
 21
0.873435
 0
TEXT
 8
001
 62
3
 10
426.184387
 20
1.689866
 40
3.200000
 1
出図コード
 41
0.835686
 7
STANDARD
 0
LINE
 8
001
 62
3
 10
490.382557
 20
5.706296
 11
458.903010
 21
5.706296
 0
LINE
 8
001
 62
3
 10
490.382557
 20
5.706296
 11
494.018824
 21
5.706296
 0
LINE
 8
001
 62
3
 10
397.861753
 20
26.706296
 11
382.715382
 21
26.706296
 0
LINE
 8
001
 62
3
 10
440.133607
 20
26.706296
 11
494.018824
 21
26.706296
 0
LINE
 8
001
 62
3
 10
401.447276
 20
26.706296
 11
397.861753
 21
26.706296
 0
LINE
 8
001
 62
3
 10
436.552054
 20
26.706296
 11
401.447276
 21
26.706296
 0
LINE
 8
001
 62
3
 10
436.552054
 20
26.706296
 11
440.133607
 21
26.706296
 0
LINE
 8
001
 62
3
 10
401.447276
 20
19.706296
 11
382.715382
 21
19.706296
 0
LINE
 8
001
 62
3
 10
436.464699
 20
19.706296
 11
401.447276
 21
19.706296
 0
LINE
 8
001
 62
3
 10
436.464699
 20
19.706296
 11
442.319461
 21
19.706296
 0
LINE
 8
001
 62
3
 10
428.916438
 20
5.706296
 11
382.715382
 21
5.706296
 0
LINE
 8
001
 62
3
 10
438.684309
 20
5.706296
 11
428.916438
 21
5.706296
 0
LINE
 8
001
 62
3
 10
438.684309
 20
5.706296
 11
458.903010
 21
5.706296
 0
LINE
 8
001
 62
3
 10
398.119847
 20
12.706296
 11
382.715382
 21
12.706296
 0
LINE
 8
001
 62
3
 10
412.577091
 20
12.706296
 11
398.119847
 21
12.706296
 0
LINE
 8
001
 62
3
 10
412.577091
 20
12.706296
 11
494.018824
 21
12.706296
 0
TEXT
 8
001
 62
3
 10
426.051839
 20
-3.357232
 40
3.200000
 1
ZK-A4X
 41
0.811285
 7
STANDARD
 0
LINE
 8
001
 62
3
 10
337.875305
 20
175.977429
 11
217.118860
 21
175.977429
 0
LINE
 8
001
 62
3
 10
494.118860
 20
175.977429
 11
372.680398
 21
175.977429
 0
LINE
 8
001
 62
3
 10
494.118860
 20
-4.022571
 11
494.118860
 21
175.977429
 0
LINE
 8
001
 62
3
 10
447.657857
 20
-4.022571
 11
217.118860
 21
-4.022571
 0
LINE
 8
001
 62
3
 10
492.739965
 20
-4.022571
 11
494.118860
 21
-4.022571
 0
LINE
 8
001
 62
3
 10
488.610855
 20
-4.022571
 11
492.739965
 21
-4.022571
 0
LINE
 8
001
 62
3
 10
451.786967
 20
-4.022571
 11
488.610855
 21
-4.022571
 0
LINE
 8
001
 62
3
 10
451.786967
 20
-4.022571
 11
447.657857
 21
-4.022571
 0
LINE
 8
001
 62
3
 10
217.118860
 20
175.977429
 11
217.118860
 21
-4.022571
 0
TEXT
 8
001
 62
3
 10
384.532779
 20
31.875822
 40
2.000000
 1
CONPONENTS
 41
0.533160
 7
STANDARD
 0
TEXT
 8
001
 62
3
 10
384.183052
 20
12.943645
 40
3.000000
 1
材
 41
0.833333
 7
STANDARD
 0
TEXT
 8
001
 62
3
 10
391.718695
 20
12.943645
 40
3.000000
 1
質
 41
0.833333
 7
STANDARD
 0
TEXT
 8
001
 62
3
 10
384.271123
 20
23.568170
 40
2.000000
 1
MODEL
 41
1.031073
 7
STANDARD
 0
TEXT
 8
001
 62
3
 10
384.183052
 20
16.625953
 40
2.000000
 1
MATERIAL
 41
0.659278
 7
STANDARD
 0
TEXT
 8
001
 62
3
 10
415.490332
 20
12.943645
 40
3.000000
 1
備
 41
0.833333
 7
STANDARD
 0
TEXT
 8
001
 62
3
 10
422.223334
 20
12.943645
 40
3.000000
 1
考
 41
0.833333
 7
STANDARD
 0
TEXT
 8
001
 62
3
 10
415.243323
 20
16.625953
 40
2.000000
 1
REMARKS
 41
0.675794
 7
STANDARD
 0
TEXT
 8
001
 62
3
 10
385.772781
 20
9.705833
 40
2.000000
 1
3AD
 41
1.426140
 7
STANDARD
 0
TEXT
 8
001
 62
3
 10
395.083761
 20
9.871566
 40
2.000000
 1
ANGLE
 41
1.669884
 7
STANDARD
 0
TEXT
 8
001
 62
3
 10
416.017648
 20
9.494725
 40
2.000000
 1
SCALE
 41
0.771963
 7
STANDARD
 0
TEXT
 8
001
 62
3
 10
385.458911
 20
5.706296
 40
3.000000
 1
第
 41
0.833333
 7
STANDARD
 0
TEXT
 8
001
 62
3
 10
393.245761
 20
5.706296
 40
3.000000
 1
三
 41
0.833333
 7
STANDARD
 0
TEXT
 8
001
 62
3
 10
401.032611
 20
5.706296
 40
3.000000
 1
角
 41
0.833333
 7
STANDARD
 0
TEXT
 8
001
 62
3
 10
408.819461
 20
5.706296
 40
3.000000
 1
法
 41
0.833333
 7
STANDARD
 0
TEXT
 8
001
 62
3
 10
415.880853
 20
5.994725
 40
3.000000
 1
尺
 41
0.833333
 7
STANDARD
 0
TEXT
 8
001
 62
3
 10
422.613854
 20
5.994725
 40
3.000000
 1
度
 41
0.833333
 7
STANDARD
 0
TEXT
 8
001
 62
3
 10
445.197125
 20
28.164025
 40
3.000000
 1
承認
 41
1.089473
 7
STANDARD
 0
TEXT
 8
001
 62
3
 10
458.440005
 20
28.106296
 40
3.000000
 1
検図
 41
0.931761
 7
STANDARD
 0
TEXT
 8
001
 62
3
 10
471.440402
 20
28.106296
 40
3.000000
 1
設
 41
0.833333
 7
STANDARD
 0
TEXT
 8
001
 62
3
 10
475.930270
 20
28.106296
 40
3.000000
 1
計
 41
0.833333
 7
STANDARD
 0
TEXT
 8
001
 62
3
 10
384.464250
 20
27.395052
 40
3.000000
 1
品
 41
0.833333
 7
STANDARD
 0
TEXT
 8
001
 62
3
 10
391.999893
 20
27.395052
 40
3.000000
 1
名
 41
0.833333
 7
STANDARD
 0
TEXT
 8
001
 62
3
 10
384.271123
 20
19.935910
 40
3.000000
 1
型
 41
0.833333
 7
STANDARD
 0
TEXT
 8
001
 62
3
 10
391.819213
 20
19.935910
 40
3.000000
 1
式
 41
0.833333
 7
STANDARD
 0
LINE
 8
001
 10
492.443396
 20
161.572040
 11
494.128270
 21
161.572040
 0
LINE
 8
001
 10
420.633703
 20
171.472040
 11
420.633703
 21
156.622040
 0
LINE
 8
001
 10
484.194864
 20
161.572040
 11
410.528270
 21
161.572040
 0
LINE
 8
001
 10
482.530745
 20
171.472040
 11
482.530745
 21
156.622040
 0
LINE
 8
001
 10
438.239029
 20
171.472040
 11
438.239029
 21
156.622040
 0
LINE
 8
001
 10
492.443396
 20
161.572040
 11
484.194864
 21
161.572040
 0
LINE
 8
001
 10
410.528270
 20
166.522040
 11
494.128270
 21
166.522040
 0
LINE
 8
001
 10
415.345974
 20
165.782795
 11
413.445974
 21
162.491899
 0
LINE
 8
001
 10
415.345974
 20
165.782795
 11
417.245974
 21
162.491899
 0
LINE
 8
001
 10
413.445974
 20
162.491899
 11
417.245974
 21
162.491899
 0
LINE
 8
001
 10
415.345974
 20
160.626585
 11
413.445974
 21
157.335688
 0
LINE
 8
001
 10
415.345974
 20
160.626585
 11
417.245974
 21
157.335688
 0
LINE
 8
001
 10
413.445974
 20
157.335688
 11
417.245974
 21
157.335688
 0
TEXT
 8
001
 62
3
 10
218.507090
 20
-3.352623
 40
4.500000
 1
No
 41
1.000000
 7
STANDARD
 0
TEXT
 8
001
 62
3
 10
229.608794
 20
-3.352623
 40
4.500000
 1
部品名
 41
0.833333
 7
STANDARD
 0
TEXT
 8
001
 62
3
 10
255.127243
 20
-3.352623
 40
4.500000
 1
材質
 41
0.833333
 7
STANDARD
 0
TEXT
 8
001
 62
3
 10
276.859084
 20
-3.352623
 40
4.500000
 1
備考
 41
0.833333
 7
STANDARD
 0
TEXT
 8
001
 62
3
 10
314.761737
 20
-3.352623
 40
4.500000
 1
数
 41
0.833333
 7
STANDARD
 0
LINE
 8
001
 62
3
 10
320.288184
 20
21.977429
 11
320.288184
 21
-4.022571
 0
TEXT
 8
001
 10
276.859084
 20
9.647377
 40
4.500000
 1
-
 41
1.000000
 7
STANDARD
 0
TEXT
 8
001
 10
276.859084
 20
16.147377
 40
4.500000
 1
オス
 41
0.833333
 7
STANDARD
 0
TEXT
 8
001
 10
314.761737
 20
3.147377
 40
4.500000
 1
1
 41
1.499999
 7
STANDARD
 0
TEXT
 8
001
 10
314.761737
 20
9.647377
 40
4.500000
 1
1
 41
1.499999
 7
STANDARD
 0
TEXT
 8
001
 10
314.761737
 20
16.147377
 40
4.500000
 1
1
 41
1.499999
 7
STANDARD
 0
LINE
 8
001
 10
275.470854
 20
21.977429
 11
275.470854
 21
-4.022571
 0
LINE
 8
001
 10
313.373507
 20
21.977429
 11
313.373507
 21
-4.022571
 0
TEXT
 8
001
 10
223.007090
 20
3.147377
 40
4.500000
 1
1
 41
1.499999
 7
STANDARD
 0
TEXT
 8
001
 10
223.007090
 20
9.647377
 40
4.500000
 1
2
 41
1.000000
 7
STANDARD
 0
TEXT
 8
001
 10
223.007090
 20
16.147377
 40
4.500000
 1
3
 41
1.000000
 7
STANDARD
 0
TEXT
 8
001
 10
229.608794
 20
3.147377
 40
4.500000
 1
電線
 41
0.833333
 7
STANDARD
 0
TEXT
 8
001
 10
229.608794
 20
9.647377
 40
4.500000
 1
溶接ホルダ
 41
0.833333
 7
STANDARD
 0
TEXT
 8
001
 10
229.608794
 20
16.147377
 40
4.500000
 1
ジョイント
 41
0.833333
 7
STANDARD
 0
TEXT
 8
001
 10
255.127243
 20
9.647377
 40
4.500000
 1
-
 41
1.000000
 7
STANDARD
 0
TEXT
 8
001
 10
255.127243
 20
16.147377
 40
4.500000
 1
-
 41
1.000000
 7
STANDARD
 0
LINE
 8
001
 10
228.220564
 20
21.977429
 11
228.220564
 21
-4.022571
 0
LINE
 8
001
 10
253.739014
 20
21.977429
 11
253.739014
 21
-4.022571
 0
ARC
 8
001
 62
3
 10
251.219188
 20
104.208669
 40
2.700000
 50
90.000000
 51
180.000000
 0
LINE
 8
001
 62
3
 10
268.991565
 20
106.908669
 11
251.219188
 21
106.908669
 0
LINE
 8
001
 62
3
 10
269.540187
 20
114.571251
 11
261.877604
 21
106.908669
 0
ARC
 8
001
 62
3
 10
285.450089
 20
98.661349
 40
22.500000
 50
90.000000
 51
135.000000
 0
LINE
 8
001
 62
3
 10
293.369188
 20
121.161349
 11
285.450089
 21
121.161349
 0
ARC
 8
001
 62
3
 10
293.369188
 20
118.911349
 40
2.250000
 50
270.000000
 51
90.000000
 0
LINE
 8
001
 62
3
 10
293.369188
 20
116.661349
 11
285.450089
 21
116.661349
 0
LINE
 8
001
 62
3
 10
268.241565
 20
106.908669
 11
272.722167
 21
111.389271
 0
ARC
 8
001
 62
3
 10
285.450089
 20
98.661349
 40
18.000000
 50
90.000000
 51
135.000000
  0
POLYLINE
  8
001
 62
3
 66
1
  0
VERTEX
  8
001
 62
3
 10
283.919188
 20
106.908669
  0
VERTEX
  8
001
 62
3
 10
281.963065
 20
106.112339
  0
VERTEX
  8
001
 62
3
 10
279.977801
 20
105.420926
  0
VERTEX
  8
001
 62
3
 10
277.934258
 20
104.939349
  0
VERTEX
  8
001
 62
3
 10
275.943486
 20
104.767490
  0
VERTEX
  8
001
 62
3
 10
273.966490
 20
104.939349
  0
VERTEX
  8
001
 62
3
 10
271.431040
 20
105.739172
  0
VERTEX
  8
001
 62
3
 10
268.991565
 20
106.908669
  0
SEQEND
  8
001
 0
LINE
 8
001
 62
3
 10
286.619188
 20
106.908669
 11
283.919188
 21
106.908669
 0
LINE
 8
001
 62
3
 10
286.619188
 20
98.808669
 11
251.219188
 21
98.808669
 0
ARC
 8
001
 62
3
 10
251.219188
 20
101.508669
 40
2.700000
 50
180.000000
 51
270.000000
 0
LINE
 8
001
 62
3
 10
248.519188
 20
101.508669
 11
249.869188
 21
102.858669
 0
LINE
 8
001
 62
3
 10
248.519188
 20
104.208669
 11
249.869188
 21
102.858669
 0
LINE
 8
001
 62
3
 10
319.019188
 20
98.058669
 11
286.619188
 21
98.058669
 0
LINE
 8
001
 62
3
 10
319.019188
 20
98.058669
 11
319.019188
 21
107.658669
 0
LINE
 8
001
 62
3
 10
319.019188
 20
107.658669
 11
286.619188
 21
107.658669
 0
LINE
 8
001
 62
3
 10
286.619188
 20
98.058669
 11
286.619188
 21
107.658669
 0
LINE
 8
001
 62
3
 10
276.531392
 20
114.296465
 11
283.919188
 21
106.908669
 0
LINE
 8
001
 62
3
 10
274.253940
 20
112.755540
 11
281.187391
 21
105.822089
 0
LINE
 8
001
 62
3
 10
425.043155
 20
106.908669
 11
411.543155
 21
105.408669
 0
LINE
 8
001
 62
3
 10
425.043155
 20
98.808669
 11
411.543155
 21
100.308669
 0
LINE
 8
001
 62
3
 10
425.043155
 20
106.908669
 11
438.543155
 21
106.908669
 0
LINE
 8
001
 62
3
 10
449.243121
 20
104.598485
 11
441.543155
 21
104.883669
 0
ARC
 8
001
 62
3
 10
449.193155
 20
103.249410
 40
1.350000
 50
0.000000
 51
87.878904
 0
LINE
 8
001
 62
3
 10
450.543155
 20
103.249410
 11
450.543155
 21
102.467928
 0
ARC
 8
001
 62
3
 10
449.193155
 20
102.467928
 40
1.350000
 50
272.121096
 51
0.000000
 0
LINE
 8
001
 62
3
 10
449.243121
 20
101.118853
 11
441.543155
 21
100.833669
 0
LINE
 8
001
 62
3
 10
441.543155
 20
106.158669
 11
441.543155
 21
99.558669
 0
ARC
 8
001
 62
3
 10
441.093155
 20
99.558669
 40
0.450000
 50
270.000000
 51
0.000000
 0
LINE
 8
001
 62
3
 10
438.543155
 20
99.108669
 11
441.093155
 21
99.108669
 0
LINE
 8
001
 62
3
 10
438.543155
 20
106.908669
 11
438.543155
 21
98.808669
 0
LINE
 8
001
 62
3
 10
438.543155
 20
106.608669
 11
441.093155
 21
106.608669
 0
ARC
 8
001
 62
3
 10
441.093155
 20
106.158669
 40
0.450000
 50
0.000000
 51
90.000000
 0
LINE
 8
001
 62
3
 10
425.043155
 20
98.808669
 11
438.543155
 21
98.808669
 0
LINE
 8
001
 62
3
 10
411.543155
 20
105.408669
 11
411.543155
 21
100.308669
 0
LINE
 8
001
 62
3
 10
361.413479
 20
101.058669
 11
319.019188
 21
101.058669
 0
LINE
 8
001
 62
3
 10
365.636747
 20
101.058669
 11
411.543155
 21
101.058669
 0
LINE
 8
001
 62
3
 10
360.910609
 20
104.658669
 11
319.019188
 21
104.658669
 0
LINE
 8
001
 62
3
 10
365.080836
 20
104.658669
 11
411.543155
 21
104.658669
  0
POLYLINE
  8
001
 66
1
  0
VERTEX
  8
001
 10
361.959334
 20
106.002158
  0
VERTEX
  8
001
 10
361.025700
 20
104.848491
  0
VERTEX
  8
001
 10
360.600528
 20
103.608071
  0
VERTEX
  8
001
 10
361.152850
 20
101.778824
  0
VERTEX
  8
001
 10
361.441694
 20
100.049293
  0
VERTEX
  8
001
 10
361.056162
 20
99.445220
  0
VERTEX
  8
001
 10
360.471118
 20
98.884601
  0
SEQEND
  8
001
  0
POLYLINE
  8
001
 66
1
  0
VERTEX
  8
001
 10
366.165163
 20
106.066863
  0
VERTEX
  8
001
 10
365.231530
 20
104.913196
  0
VERTEX
  8
001
 10
364.806357
 20
103.672776
  0
VERTEX
  8
001
 10
365.358679
 20
101.843529
  0
VERTEX
  8
001
 10
365.647523
 20
100.113998
  0
VERTEX
  8
001
 10
365.261991
 20
99.509925
  0
VERTEX
  8
001
 10
364.676947
 20
98.949306
  0
SEQEND
  8
001
 0
POLYLINE
 8
001
 66
1
 0
VERTEX
 8
001
 10
432.477438
 20
108.960865
 0
VERTEX
 8
001
 10
432.202342
 20
106.908669
 0
VERTEX
 8
001
 10
433.466680
 20
108.548375
 0
SEQEND
 8
001
 0
LINE
 8
001
 10
432.202342
 20
106.908669
 11
435.134264
 21
113.940062
 0
CIRCLE
 8
001
 10
437.058557
 20
118.554940
 40
5.000000
 0
TEXT
 8
001
 62
4
 10
434.058557
 20
115.064031
 40
6.981818
 1
3
 41
1.000000
 7
STANDARD
 0
POLYLINE
 8
001
 66
1
 0
VERTEX
 8
001
 10
346.986468
 20
106.703041
 0
VERTEX
 8
001
 10
346.658246
 20
104.658669
 0
VERTEX
 8
001
 10
347.964680
 20
106.265036
 0
SEQEND
 8
001
 0
LINE
 8
001
 10
346.658246
 20
104.658669
 11
351.338915
 21
115.112181
 0
CIRCLE
 8
001
 10
353.382236
 20
119.675605
 40
5.000000
 0
TEXT
 8
001
 62
4
 10
350.382236
 20
116.184696
 40
6.981818
 1
1
 41
1.499999
 7
STANDARD
 0
POLYLINE
 8
001
 66
1
 0
VERTEX
 8
001
 10
310.409366
 20
109.697771
 0
VERTEX
 8
001
 10
310.049855
 20
107.658669
 0
VERTEX
 8
001
 10
311.380752
 20
109.244828
 0
SEQEND
 8
001
 0
LINE
 8
001
 10
310.049855
 20
107.658669
 11
313.540171
 21
115.144028
 0
CIRCLE
 8
001
 10
315.653180
 20
119.675605
 40
5.000000
 0
TEXT
 8
001
 62
4
 10
312.653180
 20
116.184696
 40
6.981818
 1
2
 41
1.000000
 7
STANDARD
 0
TEXT
 8
001
 62
3
 10
459.371976
 20
7.106698
 40
3.200000
 1
2008.10.01
 41
1.363637
 7
STANDARD
 0
TEXT
 8
001
 62
3
 10
428.063536
 20
7.249659
 40
3.200000
 1
FREE
 41
1.000000
 7
STANDARD
 0
LINE
 8
001
 62
3
 10
468.419497
 20
35.706296
 11
468.419497
 21
41.706296
 0
LINE
 8
001
 62
3
 10
442.419497
 20
35.706296
 11
442.419497
 21
41.706296
 0
LINE
 8
001
 62
3
 10
494.118860
 20
41.706296
 11
442.419497
 21
41.706296
 0
TEXT
 8
001
 62
3
 10
448.415095
 20
36.502645
 40
4.500000
 1
コード
 41
0.833333
 7
STANDARD
 0
LINE
 8
001
 62
3
 10
320.288184
 20
2.477429
 11
217.118860
 21
2.477429
 0
LINE
 8
001
 62
3
 10
320.288184
 20
21.977429
 11
217.118860
 21
21.977429
 0
LINE
 8
001
 10
320.288184
 20
8.977429
 11
217.118860
 21
8.977429
 0
LINE
 8
001
 10
320.288184
 20
15.477429
 11
217.118860
 21
15.477429
 0
TEXT
 8
001
 10
276.859084
 20
3.147377
 40
4.500000
 1
３８ｓｑ×１０ｍ
 41
0.833333
 7
STANDARD
 0
TEXT
 8
001
 10
255.127243
 20
3.147377
 40
4.500000
 1
WCT
 41
0.900000
 7
STANDARD
 0
TEXT
 8
001
 62
3
 10
401.871238
 20
28.550835
 40
4.500000
 1
ホルダークリップ
 41
0.833333
 7
STANDARD
 0
TEXT
 8
001
 62
3
 10
401.424674
 20
20.687002
 40
4.500000
 1
NA-HJ10K
 41
1.066667
 7
STANDARD
 0
TEXT
 8
001
 62
3
 10
443.027282
 20
-2.615627
 40
6.300000
 1
K-NA-HJ10K
 41
0.835422
 7
STANDARD
 0
TEXT
 8
001
 10
470.406644
 20
36.350433
 40
4.500000
 1
52760
 41
1.034483
 7
STANDARD
 0
ENDSEC
 0
EOF
