  0
SECTION
  2
HEADER
  9
$ACADVER
  1
AC1015
  9
$ACADMAINTVER
 70
    20
  9
$DWGCODEPAGE
  3
ANSI_932
  9
$INSBASE
 10
0.0
 20
0.0
 30
0.0
  9
$EXTMIN
 10
-138.5
 20
-90.0
 30
0.0
  9
$EXTMAX
 10
138.628594
 20
102.472617
 30
0.0
  9
$LIMMIN
 10
-138.501
 20
-90.00100000000001
  9
$LIMMAX
 10
139.24601
 20
102.473618
  9
$ORTHOMODE
 70
     1
  9
$REGENMODE
 70
     1
  9
$FILLMODE
 70
     1
  9
$QTEXTMODE
 70
     0
  9
$MIRRTEXT
 70
     0
  9
$LTSCALE
 40
4.629083999999997
  9
$ATTMODE
 70
     1
  9
$TEXTSIZE
 40
6.299999999999998
  9
$TRACEWID
 40
0.05
  9
$TEXTSTYLE
  7
高4.5
  9
$CLAYER
  8
0
  9
$CELTYPE
  6
CONTINUOUS
  9
$CECOLOR
 62
   256
  9
$CELTSCALE
 40
1.0
  9
$DISPSILH
 70
     0
  9
$DIMSCALE
 40
1.0
  9
$DIMASZ
 40
2.5
  9
$DIMEXO
 40
0.25
  9
$DIMDLI
 40
0.2
  9
$DIMRND
 40
0.0
  9
$DIMDLE
 40
0.0
  9
$DIMEXE
 40
1.25
  9
$DIMTP
 40
0.0
  9
$DIMTM
 40
0.0
  9
$DIMTXT
 40
3.0
  9
$DIMCEN
 40
0.0
  9
$DIMTSZ
 40
0.0
  9
$DIMTOL
 70
     0
  9
$DIMLIM
 70
     0
  9
$DIMTIH
 70
     0
  9
$DIMTOH
 70
     0
  9
$DIMSE1
 70
     0
  9
$DIMSE2
 70
     0
  9
$DIMTAD
 70
     3
  9
$DIMZIN
 70
     8
  9
$DIMBLK
  1
Open30
  9
$DIMASO
 70
     1
  9
$DIMSHO
 70
     1
  9
$DIMPOST
  1

  9
$DIMAPOST
  1

  9
$DIMALT
 70
     0
  9
$DIMALTD
 70
     3
  9
$DIMALTF
 40
0.03937007874016
  9
$DIMLFAC
 40
1.0
  9
$DIMTOFL
 70
     1
  9
$DIMTVP
 40
0.0
  9
$DIMTIX
 70
     0
  9
$DIMSOXD
 70
     0
  9
$DIMSAH
 70
     0
  9
$DIMBLK1
  1

  9
$DIMBLK2
  1

  9
$DIMSTYLE
  2
FREE
  9
$DIMCLRD
 70
     0
  9
$DIMCLRE
 70
     0
  9
$DIMCLRT
 70
     4
  9
$DIMTFAC
 40
1.0
  9
$DIMGAP
 40
0.625
  9
$DIMJUST
 70
     0
  9
$DIMSD1
 70
     0
  9
$DIMSD2
 70
     0
  9
$DIMTOLJ
 70
     0
  9
$DIMTZIN
 70
     8
  9
$DIMALTZ
 70
     0
  9
$DIMALTTZ
 70
     0
  9
$DIMUPT
 70
     1
  9
$DIMDEC
 70
     2
  9
$DIMTDEC
 70
     2
  9
$DIMALTU
 70
     2
  9
$DIMALTTD
 70
     3
  9
$DIMTXSTY
  7
STANDARD
  9
$DIMAUNIT
 70
     0
  9
$DIMADEC
 70
     1
  9
$DIMALTRND
 40
0.0
  9
$DIMAZIN
 70
     2
  9
$DIMDSEP
 70
    46
  9
$DIMATFIT
 70
     0
  9
$DIMFRAC
 70
     0
  9
$DIMLDRBLK
  1
Open30
  9
$DIMLUNIT
 70
     2
  9
$DIMLWD
 70
    -2
  9
$DIMLWE
 70
    -2
  9
$DIMTMOVE
 70
     0
  9
$LUNITS
 70
     2
  9
$LUPREC
 70
     4
  9
$SKETCHINC
 40
0.1
  9
$FILLETRAD
 40
0.0
  9
$AUNITS
 70
     0
  9
$AUPREC
 70
     0
  9
$MENU
  1
.
  9
$ELEVATION
 40
0.0
  9
$PELEVATION
 40
0.0
  9
$THICKNESS
 40
0.0
  9
$LIMCHECK
 70
     0
  9
$CHAMFERA
 40
0.0
  9
$CHAMFERB
 40
0.0
  9
$CHAMFERC
 40
0.0
  9
$CHAMFERD
 40
0.0
  9
$SKPOLY
 70
     0
  9
$TDCREATE
 40
2456332.398627674
  9
$TDUCREATE
 40
2456332.023627674
  9
$TDUPDATE
 40
2457126.695269121
  9
$TDUUPDATE
 40
2457126.320269121
  9
$TDINDWG
 40
0.0977272338
  9
$TDUSRTIMER
 40
0.0977272338
  9
$USRTIMER
 70
     1
  9
$ANGBASE
 50
0.0
  9
$ANGDIR
 70
     0
  9
$PDMODE
 70
     0
  9
$PDSIZE
 40
0.0
  9
$PLINEWID
 40
0.0
  9
$SPLFRAME
 70
     0
  9
$SPLINETYPE
 70
     6
  9
$SPLINESEGS
 70
     8
  9
$HANDSEED
  5
57F
  9
$SURFTAB1
 70
     6
  9
$SURFTAB2
 70
     6
  9
$SURFTYPE
 70
     6
  9
$SURFU
 70
     6
  9
$SURFV
 70
     6
  9
$UCSBASE
  2

  9
$UCSNAME
  2

  9
$UCSORG
 10
0.0
 20
0.0
 30
0.0
  9
$UCSXDIR
 10
1.0
 20
0.0
 30
0.0
  9
$UCSYDIR
 10
0.0
 20
1.0
 30
0.0
  9
$UCSORTHOREF
  2

  9
$UCSORTHOVIEW
 70
     0
  9
$UCSORGTOP
 10
0.0
 20
0.0
 30
0.0
  9
$UCSORGBOTTOM
 10
0.0
 20
0.0
 30
0.0
  9
$UCSORGLEFT
 10
0.0
 20
0.0
 30
0.0
  9
$UCSORGRIGHT
 10
0.0
 20
0.0
 30
0.0
  9
$UCSORGFRONT
 10
0.0
 20
0.0
 30
0.0
  9
$UCSORGBACK
 10
0.0
 20
0.0
 30
0.0
  9
$PUCSBASE
  2

  9
$PUCSNAME
  2

  9
$PUCSORG
 10
0.0
 20
0.0
 30
0.0
  9
$PUCSXDIR
 10
1.0
 20
0.0
 30
0.0
  9
$PUCSYDIR
 10
0.0
 20
1.0
 30
0.0
  9
$PUCSORTHOREF
  2

  9
$PUCSORTHOVIEW
 70
     0
  9
$PUCSORGTOP
 10
0.0
 20
0.0
 30
0.0
  9
$PUCSORGBOTTOM
 10
0.0
 20
0.0
 30
0.0
  9
$PUCSORGLEFT
 10
0.0
 20
0.0
 30
0.0
  9
$PUCSORGRIGHT
 10
0.0
 20
0.0
 30
0.0
  9
$PUCSORGFRONT
 10
0.0
 20
0.0
 30
0.0
  9
$PUCSORGBACK
 10
0.0
 20
0.0
 30
0.0
  9
$USERI1
 70
     0
  9
$USERI2
 70
     0
  9
$USERI3
 70
     0
  9
$USERI4
 70
     0
  9
$USERI5
 70
     0
  9
$USERR1
 40
0.0
  9
$USERR2
 40
0.0
  9
$USERR3
 40
0.0
  9
$USERR4
 40
0.0
  9
$USERR5
 40
0.0
  9
$WORLDVIEW
 70
     1
  9
$SHADEDGE
 70
     3
  9
$SHADEDIF
 70
    70
  9
$TILEMODE
 70
     1
  9
$MAXACTVP
 70
    64
  9
$PINSBASE
 10
0.0
 20
0.0
 30
0.0
  9
$PLIMCHECK
 70
     0
  9
$PEXTMIN
 10
1.000000000000000E+20
 20
1.000000000000000E+20
 30
1.000000000000000E+20
  9
$PEXTMAX
 10
-1.000000000000000E+20
 20
-1.000000000000000E+20
 30
-1.000000000000000E+20
  9
$PLIMMIN
 10
0.0
 20
0.0
  9
$PLIMMAX
 10
12.0
 20
9.0
  9
$UNITMODE
 70
     0
  9
$VISRETAIN
 70
     1
  9
$PLINEGEN
 70
     0
  9
$PSLTSCALE
 70
     1
  9
$TREEDEPTH
 70
  3020
  9
$CMLSTYLE
  2
Standard
  9
$CMLJUST
 70
     0
  9
$CMLSCALE
 40
1.0
  9
$PROXYGRAPHICS
 70
     1
  9
$MEASUREMENT
 70
     0
  9
$CELWEIGHT
370
    -1
  9
$ENDCAPS
280
     0
  9
$JOINSTYLE
280
     0
  9
$LWDISPLAY
290
     0
  9
$INSUNITS
 70
     0
  9
$HYPERLINKBASE
  1

  9
$STYLESHEET
  1

  9
$XEDIT
290
     1
  9
$CEPSNTYPE
380
     0
  9
$PSTYLEMODE
290
     1
  9
$FINGERPRINTGUID
  2
{FA0E8FE1-3533-4401-B6FC-2F49BBAD0204}
  9
$VERSIONGUID
  2
{81447556-1EC2-47CF-BC35-2FB6879B04BB}
  9
$EXTNAMES
290
     1
  9
$PSVPSCALE
 40
0.0
  9
$OLESTARTUP
290
     0
  0
ENDSEC
  0
SECTION
  2
CLASSES
  0
CLASS
  1
ACDBDICTIONARYWDFLT
  2
AcDbDictionaryWithDefault
  3
ObjectDBX Classes
 90
        0
280
     0
281
     0
  0
CLASS
  1
MATERIAL
  2
AcDbMaterial
  3
ObjectDBX Classes
 90
     1153
280
     0
281
     0
  0
CLASS
  1
VISUALSTYLE
  2
AcDbVisualStyle
  3
ObjectDBX Classes
 90
     4095
280
     0
281
     0
  0
CLASS
  1
SCALE
  2
AcDbScale
  3
ObjectDBX Classes
 90
     1153
280
     0
281
     0
  0
CLASS
  1
TABLESTYLE
  2
AcDbTableStyle
  3
ObjectDBX Classes
 90
     4095
280
     0
281
     0
  0
CLASS
  1
MLEADERSTYLE
  2
AcDbMLeaderStyle
  3
ACDB_MLEADERSTYLE_CLASS
 90
     4095
280
     0
281
     0
  0
CLASS
  1
SORTENTSTABLE
  2
AcDbSortentsTable
  3
ObjectDBX Classes
 90
        0
280
     0
281
     0
  0
CLASS
  1
DICTIONARYVAR
  2
AcDbDictionaryVar
  3
ObjectDBX Classes
 90
        0
280
     0
281
     0
  0
CLASS
  1
CELLSTYLEMAP
  2
AcDbCellStyleMap
  3
ObjectDBX Classes
 90
     1152
280
     0
281
     0
  0
CLASS
  1
ACDBPLACEHOLDER
  2
AcDbPlaceHolder
  3
ObjectDBX Classes
 90
        0
280
     0
281
     0
  0
CLASS
  1
LAYOUT
  2
AcDbLayout
  3
ObjectDBX Classes
 90
        0
280
     0
281
     0
  0
ENDSEC
  0
SECTION
  2
TABLES
  0
TABLE
  2
VPORT
  5
8
330
0
100
AcDbSymbolTable
 70
     1
  0
VPORT
  5
8B
330
8
100
AcDbSymbolTableRecord
100
AcDbViewportTableRecord
  2
*Active
 70
     0
 10
0.0
 20
0.0
 11
1.0
 21
1.0
 12
73.18725341517922
 22
-2.830754647170465
 13
0.0
 23
0.0
 14
1.0
 24
1.0
 15
0.0
 25
0.0
 16
0.0
 26
0.0
 36
1.0
 17
0.0
 27
0.0
 37
0.0
 40
341.9071074905876
 41
1.930079155672823
 42
50.0
 43
0.0
 44
0.0
 50
0.0
 51
0.0
 71
     0
 72
   100
 73
     1
 74
     1
 75
     0
 76
     0
 77
     0
 78
     0
281
     0
 65
     1
110
0.0
120
0.0
130
0.0
111
1.0
121
0.0
131
0.0
112
0.0
122
1.0
132
0.0
 79
     0
146
0.0
  0
ENDTAB
  0
TABLE
  2
LTYPE
  5
5
330
0
100
AcDbSymbolTable
 70
     2
  0
LTYPE
  5
5A
330
5
100
AcDbSymbolTableRecord
100
AcDbLinetypeTableRecord
  2
ByBlock
 70
     0
  3

 72
    65
 73
     0
 40
0.0
  0
LTYPE
  5
5B
330
5
100
AcDbSymbolTableRecord
100
AcDbLinetypeTableRecord
  2
ByLayer
 70
     0
  3

 72
    65
 73
     0
 40
0.0
  0
LTYPE
  5
5C
330
5
100
AcDbSymbolTableRecord
100
AcDbLinetypeTableRecord
  2
CONTINUOUS
 70
     0
  3
Solid-line
 72
    65
 73
     0
 40
0.0
  0
ENDTAB
  0
TABLE
  2
LAYER
  5
2
102
{ACAD_XDICTIONARY
360
2A7
102
}
330
0
100
AcDbSymbolTable
 70
     2
  0
LAYER
  5
54
102
{ACAD_XDICTIONARY
360
438
102
}
330
2
100
AcDbSymbolTableRecord
100
AcDbLayerTableRecord
  2
0
 70
     0
 62
     7
  6
CONTINUOUS
370
    -3
390
F
  0
LAYER
  5
290
330
2
100
AcDbSymbolTableRecord
100
AcDbLayerTableRecord
  2
Defpoints
 70
     0
 62
     7
  6
CONTINUOUS
290
     0
370
    -3
390
F
  0
ENDTAB
  0
TABLE
  2
STYLE
  5
3
330
0
100
AcDbSymbolTable
 70
     5
  0
STYLE
  5
55
330
3
100
AcDbSymbolTableRecord
100
AcDbTextStyleTableRecord
  2
STANDARD
 70
     0
 40
0.0
 41
1.0
 50
0.0
 71
     0
 42
0.2
  3
TXT
  4
BIGFONT
  0
STYLE
  5
291
330
3
100
AcDbSymbolTableRecord
100
AcDbTextStyleTableRecord
  2
高3.2
 70
     0
 40
3.2
 41
1.0
 50
0.0
 71
     0
 42
3.2
  3
txt.shx
  4
bigfont.shx
  0
STYLE
  5
292
330
3
100
AcDbSymbolTableRecord
100
AcDbTextStyleTableRecord
  2
高6.3
 70
     0
 40
6.299999999999998
 41
1.0
 50
0.0
 71
     0
 42
6.299999999999998
  3
txt.shx
  4
bigfont.shx
  0
STYLE
  5
294
330
3
100
AcDbSymbolTableRecord
100
AcDbTextStyleTableRecord
  2
高4.5
 70
     0
 40
4.5
 41
1.0
 50
0.0
 71
     0
 42
6.299999999999998
  3
txt.shx
  4
bigfont.shx
  0
STYLE
  5
295
330
3
100
AcDbSymbolTableRecord
100
AcDbTextStyleTableRecord
  2
高2
 70
     0
 40
2.0
 41
1.0
 50
0.0
 71
     0
 42
2.0
  3
txt.shx
  4
bigfont.shx
  0
ENDTAB
  0
TABLE
  2
VIEW
  5
6
330
0
100
AcDbSymbolTable
 70
     0
  0
ENDTAB
  0
TABLE
  2
UCS
  5
7
330
0
100
AcDbSymbolTable
 70
     0
  0
ENDTAB
  0
TABLE
  2
APPID
  5
9
330
0
100
AcDbSymbolTable
 70
    10
  0
APPID
  5
56
330
9
100
AcDbSymbolTableRecord
100
AcDbRegAppTableRecord
  2
ACAD
 70
     0
  0
APPID
  5
5D
330
9
100
AcDbSymbolTableRecord
100
AcDbRegAppTableRecord
  2
AcadAnnotative
 70
     0
  0
APPID
  5
2A0
330
9
100
AcDbSymbolTableRecord
100
AcDbRegAppTableRecord
  2
ACAD_DSTYLE_DIMJOGGED_JOGANGLE_SYMBOL
 70
     0
  0
APPID
  5
2A1
330
9
100
AcDbSymbolTableRecord
100
AcDbRegAppTableRecord
  2
ACAD_DSTYLE_DIMJAG
 70
     0
  0
APPID
  5
2A2
330
9
100
AcDbSymbolTableRecord
100
AcDbRegAppTableRecord
  2
ACAD_DSTYLE_DIMBREAK
 70
     0
  0
APPID
  5
2A3
330
9
100
AcDbSymbolTableRecord
100
AcDbRegAppTableRecord
  2
ACAD_DSTYLE_DIMTALN
 70
     0
  0
APPID
  5
3E7
330
9
100
AcDbSymbolTableRecord
100
AcDbRegAppTableRecord
  2
ACAD_EXEMPT_FROM_CAD_STANDARDS
 70
     0
  0
APPID
  5
47E
330
9
100
AcDbSymbolTableRecord
100
AcDbRegAppTableRecord
  2
ACAD_MLEADERVER
 70
     0
  0
APPID
  5
483
330
9
100
AcDbSymbolTableRecord
100
AcDbRegAppTableRecord
  2
ACAD_DSTYLE_DIMARC_LENGTH_SYMBOL
 70
     0
  0
APPID
  5
484
330
9
100
AcDbSymbolTableRecord
100
AcDbRegAppTableRecord
  2
ACAD_DSTYLE_DIMEXT_LENGTH
 70
     0
  0
ENDTAB
  0
TABLE
  2
DIMSTYLE
  5
A
330
0
100
AcDbSymbolTable
 70
     2
100
AcDbDimStyleTable
 71
     2
340
57
340
29F
  0
DIMSTYLE
105
57
330
A
100
AcDbSymbolTableRecord
100
AcDbDimStyleTableRecord
  2
Standard
 70
     0
340
55
  0
DIMSTYLE
105
29F
330
A
100
AcDbSymbolTableRecord
100
AcDbDimStyleTableRecord
  2
FREE
 70
     0
 41
2.5
 42
0.25
 43
0.2
 44
1.25
 73
     0
 74
     0
 77
     3
 78
     8
 79
     2
140
3.0
141
0.0
143
0.03937007874016
147
0.625
171
     3
172
     1
178
     4
179
     1
271
     2
272
     2
274
     3
283
     0
284
     8
288
     1
289
     0
340
55
341
200
342
200
1001
ACAD_DSTYLE_DIMBREAK
1070
   391
1040
3.75
1001
ACAD_DSTYLE_DIMJAG
1070
   388
1040
1.5
1001
ACAD_DSTYLE_DIMTALN
1070
   392
1070
     0
1001
ACAD_DSTYLE_DIMARC_LENGTH_SYMBOL
1070
   379
1070
     2
1001
ACAD_DSTYLE_DIMEXT_LENGTH
1070
   378
1040
1.25
1001
ACAD_DSTYLE_DIMJOGGED_JOGANGLE_SYMBOL
1070
   384
1040
1.570796326794896
  0
ENDTAB
  0
TABLE
  2
BLOCK_RECORD
  5
1
330
0
100
AcDbSymbolTable
 70
     2
  0
BLOCK_RECORD
  5
6B
102
{ACAD_XDICTIONARY
360
524
102
}
330
1
100
AcDbSymbolTableRecord
100
AcDbBlockTableRecord
  2
*Model_Space
340
6E
  0
BLOCK_RECORD
  5
67
330
1
100
AcDbSymbolTableRecord
100
AcDbBlockTableRecord
  2
*Paper_Space
340
6A
  0
BLOCK_RECORD
  5
200
330
1
100
AcDbSymbolTableRecord
100
AcDbBlockTableRecord
  2
_Open30
340
0
102
{BLKREFS
331
4DB
331
4DC
102
}
  0
BLOCK_RECORD
  5
3E9
330
1
100
AcDbSymbolTableRecord
100
AcDbBlockTableRecord
  2
*D1
340
0
  0
ENDTAB
  0
ENDSEC
  0
SECTION
  2
BLOCKS
  0
BLOCK
  5
6C
330
6B
100
AcDbEntity
  8
0
100
AcDbBlockBegin
  2
*Model_Space
 70
     0
 10
0.0
 20
0.0
 30
0.0
  3
*Model_Space
  1

  0
ENDBLK
  5
6D
330
6B
100
AcDbEntity
  8
0
100
AcDbBlockEnd
  0
BLOCK
  5
68
330
67
100
AcDbEntity
 67
     1
  8
0
100
AcDbBlockBegin
  2
*Paper_Space
 70
     0
 10
0.0
 20
0.0
 30
0.0
  3
*Paper_Space
  1

  0
ENDBLK
  5
69
330
67
100
AcDbEntity
 67
     1
  8
0
100
AcDbBlockEnd
  0
BLOCK
  5
201
330
200
100
AcDbEntity
  8
0
100
AcDbBlockBegin
  2
_Open30
 70
     0
 10
0.0
 20
0.0
 30
0.0
  3
_Open30
  1

  0
LINE
  5
202
330
200
100
AcDbEntity
  8
0
  6
ByBlock
 62
     0
370
    -2
100
AcDbLine
 10
-1.0
 20
0.267949
 30
0.0
 11
0.0
 21
0.0
 31
0.0
  0
LINE
  5
203
330
200
100
AcDbEntity
  8
0
  6
ByBlock
 62
     0
370
    -2
100
AcDbLine
 10
0.0
 20
0.0
 30
0.0
 11
-1.0
 21
-0.267949
 31
0.0
  0
LINE
  5
204
330
200
100
AcDbEntity
  8
0
  6
ByBlock
 62
     0
370
    -2
100
AcDbLine
 10
0.0
 20
0.0
 30
0.0
 11
-1.0
 21
0.0
 31
0.0
  0
ENDBLK
  5
205
330
200
100
AcDbEntity
  8
0
100
AcDbBlockEnd
  0
BLOCK
  5
3EA
330
3E9
100
AcDbEntity
  8
0
100
AcDbBlockBegin
  2
*D1
 70
     1
 10
0.0
 20
0.0
 30
0.0
  3
*D1
  1

  0
LINE
  5
4D8
330
3E9
100
AcDbEntity
  8
0
 62
     0
370
    -2
100
AcDbLine
 10
-81.014625
 20
16.951393
 30
0.0
 11
-81.014625
 21
-8.334222999999997
 31
0.0
  0
LINE
  5
4D9
330
3E9
100
AcDbEntity
  8
0
 62
     0
370
    -2
100
AcDbLine
 10
97.989679
 20
12.483811
 30
0.0
 11
97.989679
 21
-8.334222999999997
 31
0.0
  0
LINE
  5
4DA
330
3E9
100
AcDbEntity
  8
0
 62
     0
370
    -2
100
AcDbLine
 10
-78.514625
 20
-7.084222999999997
 30
0.0
 11
95.489679
 21
-7.084222999999997
 31
0.0
  0
INSERT
  5
4DB
330
3E9
100
AcDbEntity
  8
0
 62
     0
370
    -2
100
AcDbBlockReference
  2
_Open30
 10
-81.014625
 20
-7.084222999999997
 30
0.0
 41
2.5
 42
2.5
 43
2.5
 50
180.0
  0
INSERT
  5
4DC
330
3E9
100
AcDbEntity
  8
0
 62
     0
370
    -2
100
AcDbBlockReference
  2
_Open30
 10
97.989679
 20
-7.084222999999997
 30
0.0
 41
2.5
 42
2.5
 43
2.5
  0
MTEXT
  5
4DD
330
3E9
100
AcDbEntity
  8
0
 62
     4
100
AcDbMText
 10
8.487527000000007
 20
-4.959222999999997
 30
0.0
 40
3.0
 41
0.0
 71
     5
 72
     1
  1
電線長さ
 73
     1
 44
1.0
1001
ACAD
1000
MTEXTBEGIN
1070
    73
1070
     1
1070
    44
1040
1.0
1070
    74
1070
     0
1000
MTEXTEND
  0
POINT
  5
4DE
330
3E9
100
AcDbEntity
  8
Defpoints
 62
     0
100
AcDbPoint
 10
-81.014625
 20
17.201393
 30
0.0
  0
POINT
  5
4DF
330
3E9
100
AcDbEntity
  8
Defpoints
 62
     0
100
AcDbPoint
 10
97.989679
 20
12.733811
 30
0.0
  0
POINT
  5
4E0
330
3E9
100
AcDbEntity
  8
Defpoints
 62
     0
100
AcDbPoint
 10
97.989679
 20
-7.084222999999997
 30
0.0
  0
ENDBLK
  5
3EB
330
3E9
100
AcDbEntity
  8
0
100
AcDbBlockEnd
  0
ENDSEC
  0
SECTION
  2
ENTITIES
  0
LINE
  5
A3
330
6B
100
AcDbEntity
  8
0
 62
     3
100
AcDbLine
 10
112.929231
 20
-73.327652
 30
0.0
 11
112.929231
 21
-50.327652
 31
0.0
  0
LINE
  5
A5
330
6B
100
AcDbEntity
  8
0
 62
     3
100
AcDbLine
 10
59.87562099999998
 20
-80.327652
 30
0.0
 11
59.87562099999998
 21
-66.327652
 31
0.0
  0
TEXT
  5
A7
330
6B
100
AcDbEntity
  8
0
 62
     3
100
AcDbText
 10
88.939549
 20
-54.12253599999999
 30
0.0
 40
2.0
  1
A
 41
0.7
100
AcDbText
  0
TEXT
  5
A8
330
6B
100
AcDbEntity
  8
0
 62
     3
100
AcDbText
 10
91.47483499999999
 20
-54.12253599999999
 30
0.0
 40
2.0
  1
P
 41
0.7
100
AcDbText
  0
TEXT
  5
A9
330
6B
100
AcDbEntity
  8
0
 62
     3
100
AcDbText
 10
94.010121
 20
-54.12253599999999
 30
0.0
 40
2.0
  1
P
 41
0.7
100
AcDbText
  0
TEXT
  5
AA
330
6B
100
AcDbEntity
  8
0
 62
     3
100
AcDbText
 10
96.54540799999999
 20
-54.12253599999999
 30
0.0
 40
2.0
  1
D
 41
0.7
100
AcDbText
  0
TEXT
  5
AB
330
6B
100
AcDbEntity
  8
0
 62
     3
100
AcDbText
 10
101.914091
 20
-54.12253599999999
 30
0.0
 40
2.0
  1
C
 41
0.7
100
AcDbText
  0
TEXT
  5
AC
330
6B
100
AcDbEntity
  8
0
 62
     3
100
AcDbText
 10
104.449377
 20
-54.12253599999999
 30
0.0
 40
2.0
  1
H
 41
0.7
100
AcDbText
  0
TEXT
  5
AD
330
6B
100
AcDbEntity
  8
0
 62
     3
100
AcDbText
 10
106.984663
 20
-54.12253599999999
 30
0.0
 40
2.0
  1
C
 41
0.7
100
AcDbText
  0
TEXT
  5
AE
330
6B
100
AcDbEntity
  8
0
 62
     3
100
AcDbText
 10
109.519949
 20
-54.12253599999999
 30
0.0
 40
2.0
  1
K
 41
0.7
100
AcDbText
  0
TEXT
  5
AF
330
6B
100
AcDbEntity
  8
0
 62
     3
100
AcDbText
 10
115.193916
 20
-54.12253599999999
 30
0.0
 40
2.0
  1
DESN
 41
1.216762999999998
100
AcDbText
  0
TEXT
  5
B0
330
6B
100
AcDbEntity
  8
0
 62
     3
100
AcDbText
 10
30.187557
 20
-83.469034
 30
0.0
 40
2.0
  1
NICHIDO IND.CO.LTD
 41
1.274876
100
AcDbText
  0
LINE
  5
B1
330
6B
100
AcDbEntity
  8
0
 62
     3
100
AcDbLine
 10
40.57058699999998
 20
-50.327652
 30
0.0
 11
40.57058699999998
 21
-73.327652
 31
0.0
  0
LINE
  5
B2
330
6B
100
AcDbEntity
  8
0
 62
     3
100
AcDbLine
 10
86.92923099999999
 20
-50.327652
 30
0.0
 11
86.92923099999999
 21
-89.99337399999998
 31
0.0
  0
LINE
  5
B7
330
6B
100
AcDbEntity
  8
0
 62
     3
100
AcDbLine
 10
99.929231
 20
-50.327652
 30
0.0
 11
99.929231
 21
-80.327652
 31
0.0
  0
TEXT
  5
B8
330
6B
100
AcDbEntity
  8
0
 62
     3
100
AcDbText
 10
88.20771399999998
 20
-78.622395
 30
0.0
 40
3.2
  1
作成日
 41
1.017225999999997
100
AcDbText
  0
LINE
  5
B9
330
6B
100
AcDbEntity
  8
0
 62
     3
100
AcDbLine
 10
138.628594
 20
-50.327652
 30
0.0
 11
27.325152
 21
-50.327652
 31
0.0
  0
LINE
  5
BA
330
6B
100
AcDbEntity
  8
0
 62
     3
100
AcDbLine
 10
138.628594
 20
-59.327652
 30
0.0
 11
27.325152
 21
-59.327652
 31
0.0
  0
LINE
  5
BB
330
6B
100
AcDbEntity
  8
0
 62
     3
100
AcDbLine
 10
138.628594
 20
-73.327652
 30
0.0
 11
27.325152
 21
-73.327652
 31
0.0
  0
LINE
  5
BC
330
6B
100
AcDbEntity
  8
0
 62
     3
100
AcDbLine
 10
138.628594
 20
-80.327652
 30
0.0
 11
27.325152
 21
-80.327652
 31
0.0
  0
LINE
  5
BD
330
6B
100
AcDbEntity
  8
0
 62
     3
100
AcDbLine
 10
125.929231
 20
-73.327652
 30
0.0
 11
125.929231
 21
-50.327652
 31
0.0
  0
TEXT
  5
BE
330
6B
100
AcDbEntity
  8
0
 62
     3
100
AcDbText
 10
129.253034
 20
-54.036717
 30
0.0
 40
1.8
  1
D
 41
0.666667
100
AcDbText
  0
TEXT
  5
BF
330
6B
100
AcDbEntity
  8
0
 62
     3
100
AcDbText
 10
132.069662
 20
-54.036717
 30
0.0
 40
1.8
  1
E
 41
0.666667
100
AcDbText
  0
TEXT
  5
C0
330
6B
100
AcDbEntity
  8
0
 62
     3
100
AcDbText
 10
134.886291
 20
-54.036717
 30
0.0
 40
1.8
  1
F
 41
0.666667
100
AcDbText
  0
TEXT
  5
C1
330
6B
100
AcDbEntity
  8
0
 62
     3
100
AcDbText
 10
129.253034
 20
-58.02927099999998
 30
0.0
 40
3.2
  1
製図
 41
1.076369
100
AcDbText
  0
LINE
  5
C2
330
6B
100
AcDbEntity
  8
0
 62
     3
100
AcDbLine
 10
27.325152
 20
-50.327652
 30
0.0
 11
27.325152
 21
-89.99337399999998
 31
0.0
  0
LINE
  5
C3
330
6B
100
AcDbEntity
  8
0
 62
     3
100
AcDbLine
 10
86.92923099999999
 20
-66.327652
 30
0.0
 11
27.325152
 21
-66.327652
 31
0.0
  0
TEXT
  5
C4
330
6B
100
AcDbEntity
  8
0
 62
     3
100
AcDbText
 10
28.701805
 20
-89.66090900000002
 30
0.0
 40
5.0
  1
日動工業株式会社
 41
0.833333
100
AcDbText
  0
LINE
  5
C5
330
6B
100
AcDbEntity
  8
0
 62
     3
100
AcDbLine
 10
70.20755600000001
 20
-66.32765199999998
 30
0.0
 11
70.20755600000001
 21
-89.99337399999998
 31
0.0
  0
LINE
  5
C6
330
6B
100
AcDbEntity
  8
0
 62
     3
100
AcDbLine
 10
70.20755600000001
 20
-85.16051299999999
 30
0.0
 11
86.92923099999999
 21
-85.16051299999999
 31
0.0
  0
TEXT
  5
C7
330
6B
100
AcDbEntity
  8
0
 62
     3
100
AcDbText
 10
70.79415799999998
 20
-84.344082
 30
0.0
 40
3.2
  1
出図コード
 41
0.8356860000000001
100
AcDbText
  0
TEXT
  5
C8
330
6B
100
AcDbEntity
  8
0
 62
     3
100
AcDbText
 10
70.79415799999998
 20
-89.176944
 30
0.0
 40
3.2
  1
HM-A4
 41
0.999426
100
AcDbText
  0
LINE
  5
E0
330
6B
100
AcDbEntity
  8
0
 62
     3
100
AcDbLine
 10
0.0
 20
102.472617
 30
0.0
 11
0.0
 21
101.224058
 31
0.0
  0
TEXT
  5
E1
330
6B
100
AcDbEntity
  8
0
 62
     3
100
AcDbText
 10
103.81377
 20
-79.14836533712014
 30
0.0
 40
3.2
  1
2002.11.12
  7
高3.2
100
AcDbText
  0
TEXT
  5
E2
330
6B
100
AcDbEntity
  8
0
 62
     3
100
AcDbText
 10
44.91989889507236
 20
-58.15052952677131
 30
0.0
 40
4.5
  1
2芯延長コード　
  7
高4.5
100
AcDbText
  0
LINE
  5
E3
330
6B
100
AcDbEntity
  8
0
 62
     3
100
AcDbLine
 10
-81.014625
 20
35.201393
 30
0.0
 11
-81.014625
 21
17.201393
 31
0.0
  0
LINE
  5
E4
330
6B
100
AcDbEntity
  8
0
 62
     3
100
AcDbLine
 10
-42.014625
 20
-3.798607
 30
0.0
 11
-60.014625
 21
-3.798607
 31
0.0
  0
LINE
  5
E5
330
6B
100
AcDbEntity
  8
0
 62
     3
100
AcDbLine
 10
-42.014625
 20
56.201393
 30
0.0
 11
-60.014625
 21
56.201393
 31
0.0
  0
LINE
  5
E6
330
6B
100
AcDbEntity
  8
0
 62
     3
100
AcDbLine
 10
-28.014625
 20
35.701393
 30
0.0
 11
-28.014625
 21
16.701393
 31
0.0
  0
LINE
  5
E7
330
6B
100
AcDbEntity
  8
0
 62
     3
100
AcDbLine
 10
2.985374999999999
 20
33.470604
 30
0.0
 11
2.985374999999999
 21
19.201393
 31
0.0
  0
LINE
  5
E8
330
6B
100
AcDbEntity
  8
0
 62
     3
100
AcDbLine
 10
-76.514625
 20
18.201393
 30
0.0
 11
-65.01462499999999
 21
18.201393
 31
0.0
  0
LINE
  5
E9
330
6B
100
AcDbEntity
  8
0
 62
     3
100
AcDbLine
 10
-76.514625
 20
34.201393
 30
0.0
 11
-65.01462499999999
 21
34.201393
 31
0.0
  0
LINE
  5
EA
330
6B
100
AcDbEntity
  8
0
 62
     3
100
AcDbLine
 10
-59.014625
 20
51.70139299999998
 30
0.0
 11
-59.014625
 21
40.20139299999999
 31
0.0
  0
LINE
  5
EB
330
6B
100
AcDbEntity
  8
0
 62
     3
100
AcDbLine
 10
-43.014625
 20
0.7013930000000002
 30
0.0
 11
-43.014625
 21
11.230509
 31
0.0
  0
LINE
  5
EC
330
6B
100
AcDbEntity
  8
0
 62
     3
100
AcDbLine
 10
-28.014625
 20
16.701393
 30
0.0
 11
-30.014625
 21
16.701393
 31
0.0
  0
LINE
  5
ED
330
6B
100
AcDbEntity
  8
0
 62
     3
100
AcDbLine
 10
-28.014625
 20
35.701393
 30
0.0
 11
-30.014625
 21
35.701393
 31
0.0
  0
ARC
  5
EE
330
6B
100
AcDbEntity
  8
0
 62
     3
100
AcDbCircle
 10
-65.01462499999999
 20
40.20139299999999
 30
0.0
 40
6.0
100
AcDbArc
 50
270.0
 51
0.0
  0
LINE
  5
EF
330
6B
100
AcDbEntity
  8
0
 62
     3
100
AcDbLine
 10
-59.014625
 20
0.7013930000000002
 30
0.0
 11
-59.014625
 21
12.201393
 31
0.0
  0
ARC
  5
F0
330
6B
100
AcDbEntity
  8
0
 62
     3
100
AcDbCircle
 10
-65.01462499999999
 20
12.201393
 30
0.0
 40
6.0
100
AcDbArc
 50
0.0
 51
90.0
  0
LINE
  5
F1
330
6B
100
AcDbEntity
  8
0
 62
     3
100
AcDbLine
 10
-43.014625
 20
51.70139299999998
 30
0.0
 11
-43.014625
 21
41.17227699999999
 31
0.0
  0
CIRCLE
  5
F2
330
6B
100
AcDbEntity
  8
0
 62
     3
100
AcDbCircle
 10
-8.014625
 20
51.20139299999999
 30
0.0
 40
9.0
  0
CIRCLE
  5
F3
330
6B
100
AcDbEntity
  8
0
 62
     3
100
AcDbCircle
 10
-8.014625
 20
51.20139299999999
 30
0.0
 40
4.0
  0
LINE
  5
F4
330
6B
100
AcDbEntity
  8
0
 62
     3
100
AcDbLine
 10
-10.514625
 20
42.555585
 30
0.0
 11
-10.514625
 21
34.290103
 31
0.0
  0
LINE
  5
F5
330
6B
100
AcDbEntity
  8
0
 62
     3
100
AcDbLine
 10
-77.51462499999998
 20
17.201393
 30
0.0
 11
-81.014625
 21
17.201393
 31
0.0
  0
LINE
  5
F6
330
6B
100
AcDbEntity
  8
0
 62
     3
100
AcDbLine
 10
-77.51462499999998
 20
35.201393
 30
0.0
 11
-81.014625
 21
35.201393
 31
0.0
  0
LINE
  5
F7
330
6B
100
AcDbEntity
  8
0
 62
     3
100
AcDbLine
 10
-60.014625
 20
56.201393
 30
0.0
 11
-60.014625
 21
52.701393
 31
0.0
  0
LINE
  5
F8
330
6B
100
AcDbEntity
  8
0
 62
     3
100
AcDbLine
 10
-42.014625
 20
56.201393
 30
0.0
 11
-42.014625
 21
52.701393
 31
0.0
  0
LINE
  5
F9
330
6B
100
AcDbEntity
  8
0
 62
     3
100
AcDbLine
 10
-60.014625
 20
-0.298607
 30
0.0
 11
-60.014625
 21
-3.798607
 31
0.0
  0
LINE
  5
FA
330
6B
100
AcDbEntity
  8
0
 62
     3
100
AcDbLine
 10
-42.014625
 20
-0.298607
 30
0.0
 11
-42.014625
 21
-3.798607
 31
0.0
  0
ARC
  5
FB
330
6B
100
AcDbEntity
  8
0
 62
     3
100
AcDbCircle
 10
-35.363449
 20
41.17227699999999
 30
0.0
 40
7.651175999999997
100
AcDbArc
 50
180.0
 51
314.353658
  0
ARC
  5
FC
330
6B
100
AcDbEntity
  8
0
 62
     3
100
AcDbCircle
 10
-35.363449
 20
11.230509
 30
0.0
 40
7.651175999999997
100
AcDbArc
 50
45.64634199999999
 51
180.0
  0
LINE
  5
FD
330
6B
100
AcDbEntity
  8
0
 62
     3
100
AcDbLine
 10
-89.755222
 20
31.372826
 30
0.0
 11
-89.755222
 21
19.880768
 31
0.0
  0
LINE
  5
FE
330
6B
100
AcDbEntity
  8
0
 62
     3
100
AcDbLine
 10
-115.755222
 20
19.880768
 30
0.0
 11
-115.755222
 21
31.372826
 31
0.0
  0
ARC
  5
FF
330
6B
100
AcDbEntity
  8
0
 62
     3
100
AcDbCircle
 10
-112.755222
 20
31.372826
 30
0.0
 40
3.0
100
AcDbArc
 50
92.909666
 51
180.0
  0
ARC
  5
100
330
6B
100
AcDbEntity
  8
0
 62
     3
100
AcDbCircle
 10
-102.755222
 20
-165.373203
 30
0.0
 40
200.0
100
AcDbArc
 50
87.090334
 51
92.909666
  0
ARC
  5
101
330
6B
100
AcDbEntity
  8
0
 62
     3
100
AcDbCircle
 10
-112.755222
 20
19.880768
 30
0.0
 40
3.0
100
AcDbArc
 50
180.0
 51
267.090334
  0
ARC
  5
102
330
6B
100
AcDbEntity
  8
0
 62
     3
100
AcDbCircle
 10
-102.755222
 20
216.626797
 30
0.0
 40
200.0
100
AcDbArc
 50
267.090334
 51
272.909666
  0
ARC
  5
103
330
6B
100
AcDbEntity
  8
0
 62
     3
100
AcDbCircle
 10
-92.75522200000001
 20
19.880768
 30
0.0
 40
3.0
100
AcDbArc
 50
272.909666
 51
0.0
  0
ARC
  5
104
330
6B
100
AcDbEntity
  8
0
 62
     3
100
AcDbCircle
 10
-92.75522200000001
 20
31.372826
 30
0.0
 40
3.0
100
AcDbArc
 50
0.0
 51
87.090334
  0
LINE
  5
105
330
6B
100
AcDbEntity
  8
0
 62
     3
100
AcDbLine
 10
-95.305222
 20
29.126797
 30
0.0
 11
-95.305222
 21
22.126797
 31
0.0
  0
LINE
  5
106
330
6B
100
AcDbEntity
  8
0
 62
     3
100
AcDbLine
 10
-97.505222
 20
29.126797
 30
0.0
 11
-97.505222
 21
22.126797
 31
0.0
  0
LINE
  5
107
330
6B
100
AcDbEntity
  8
0
 62
     3
100
AcDbLine
 10
-110.205222
 20
29.126797
 30
0.0
 11
-110.205222
 21
22.126797
 31
0.0
  0
LINE
  5
108
330
6B
100
AcDbEntity
  8
0
 62
     3
100
AcDbLine
 10
-108.005222
 20
29.126797
 30
0.0
 11
-108.005222
 21
22.126797
 31
0.0
  0
LINE
  5
109
330
6B
100
AcDbEntity
  8
0
 62
     3
100
AcDbLine
 10
-95.305222
 20
22.126797
 30
0.0
 11
-97.505222
 21
22.126797
 31
0.0
  0
LINE
  5
10A
330
6B
100
AcDbEntity
  8
0
 62
     3
100
AcDbLine
 10
-108.005222
 20
22.126797
 30
0.0
 11
-110.205222
 21
22.126797
 31
0.0
  0
LINE
  5
10B
330
6B
100
AcDbEntity
  8
0
 62
     3
100
AcDbLine
 10
-95.305222
 20
29.126797
 30
0.0
 11
-97.505222
 21
29.126797
 31
0.0
  0
LINE
  5
10C
330
6B
100
AcDbEntity
  8
0
 62
     3
100
AcDbLine
 10
-108.005222
 20
29.126797
 30
0.0
 11
-110.205222
 21
29.126797
 31
0.0
  0
LINE
  5
10D
330
6B
100
AcDbEntity
  8
0
 62
     3
100
AcDbLine
 10
2.985374999999999
 20
33.470604
 30
0.0
 11
-28.014625
 21
34.201393
 31
0.0
  0
LINE
  5
10E
330
6B
100
AcDbEntity
  8
0
 62
     3
100
AcDbLine
 10
2.985374999999999
 20
19.201393
 30
0.0
 11
-28.014625
 21
18.201393
 31
0.0
  0
LINE
  5
10F
330
6B
100
AcDbEntity
  8
0
 62
     3
100
AcDbLine
 10
-60.014625
 20
-0.298607
 30
0.0
 11
-59.014625
 21
0.7013930000000002
 31
0.0
  0
LINE
  5
110
330
6B
100
AcDbEntity
  8
0
 62
     3
100
AcDbLine
 10
-43.014625
 20
0.7013930000000002
 30
0.0
 11
-42.014625
 21
-0.298607
 31
0.0
  0
LINE
  5
111
330
6B
100
AcDbEntity
  8
0
 62
     3
100
AcDbLine
 10
-76.514625
 20
18.201393
 30
0.0
 11
-77.51462499999998
 21
17.201393
 31
0.0
  0
LINE
  5
112
330
6B
100
AcDbEntity
  8
0
 62
     3
100
AcDbLine
 10
-77.51462499999998
 20
35.201393
 30
0.0
 11
-76.514625
 21
34.201393
 31
0.0
  0
LINE
  5
113
330
6B
100
AcDbEntity
  8
0
 62
     3
100
AcDbLine
 10
-42.014625
 20
52.701393
 30
0.0
 11
-43.014625
 21
51.70139299999998
 31
0.0
  0
LINE
  5
114
330
6B
100
AcDbEntity
  8
0
 62
     3
100
AcDbLine
 10
-60.014625
 20
52.701393
 30
0.0
 11
-59.014625
 21
51.70139299999998
 31
0.0
  0
LINE
  5
115
330
6B
100
AcDbEntity
  8
0
 62
     3
100
AcDbLine
 10
-5.514624999999997
 20
42.555585
 30
0.0
 11
-5.514624999999997
 21
33.886877
 31
0.0
  0
TEXT
  5
116
330
6B
100
AcDbEntity
  8
0
 62
     2
100
AcDbText
 10
-49.02711299999999
 20
16.627223
 30
0.0
 40
4.0
  1
1500
 50
90.00000300000001
 41
0.9
100
AcDbText
  0
TEXT
  5
117
330
6B
100
AcDbEntity
  8
0
 62
     2
100
AcDbText
 10
-49.427113
 20
11.310286
 30
0.0
 40
3.2
  1
合計
 50
90.00000300000001
 41
0.833333
100
AcDbText
  0
TEXT
  5
118
330
6B
100
AcDbEntity
  8
0
 62
     2
100
AcDbText
 10
-49.427113
 20
28.647476
 30
0.0
 40
3.2
  1
ワットまで
 50
90.00000300000001
 41
0.645365
100
AcDbText
  0
ARC
  5
119
330
6B
100
AcDbEntity
  8
0
 62
     2
100
AcDbCircle
 10
-59.07886999999998
 20
26.25584
 30
0.0
 40
5.0
100
AcDbArc
 50
302.049651
 51
118.326247
  0
ARC
  5
11A
330
6B
100
AcDbEntity
  8
0
 62
     2
100
AcDbCircle
 10
-59.07886999999998
 20
26.25584
 30
0.0
 40
4.5
100
AcDbArc
 50
6.379369999999997
 51
113.964579
  0
LINE
  5
11B
330
6B
100
AcDbEntity
  8
0
 62
     2
100
AcDbLine
 10
-60.906643
 20
30.367925
 30
0.0
 11
-54.606734
 21
26.75584000000001
 31
0.0
  0
LINE
  5
11C
330
6B
100
AcDbEntity
  8
0
 62
     2
100
AcDbLine
 10
-61.306883
 20
30.165565
 30
0.0
 11
-57.32886999999998
 21
26.75584000000001
 31
0.0
  0
ARC
  5
11D
330
6B
100
AcDbEntity
  8
0
 62
     2
100
AcDbCircle
 10
-59.07886999999998
 20
26.25584
 30
0.0
 40
4.5
100
AcDbArc
 50
119.677275
 51
173.62063
  0
ARC
  5
11E
330
6B
100
AcDbEntity
  8
0
 62
     2
100
AcDbCircle
 10
-59.07886999999998
 20
26.25584
 30
0.0
 40
5.0
100
AcDbArc
 50
122.049649
 51
298.326247
  0
LINE
  5
11F
330
6B
100
AcDbEntity
  8
0
 62
     2
100
AcDbLine
 10
-61.73214
 20
30.493782
 30
0.0
 11
-62.57887
 21
31.25584
 31
0.0
  0
LINE
  5
120
330
6B
100
AcDbEntity
  8
0
 62
     2
100
AcDbLine
 10
-62.57887
 20
31.25584
 30
0.0
 11
-61.485391
 21
30.638608
 31
0.0
  0
LINE
  5
121
330
6B
100
AcDbEntity
  8
0
 62
     2
100
AcDbLine
 10
-57.32886999999998
 20
26.75584000000001
 30
0.0
 11
-63.551006
 21
26.75584000000001
 31
0.0
  0
LINE
  5
122
330
6B
100
AcDbEntity
  8
0
 62
     2
100
AcDbLine
 10
-54.606734
 20
25.75584
 30
0.0
 11
-60.82886999999999
 21
25.75584
 31
0.0
  0
LINE
  5
123
330
6B
100
AcDbEntity
  8
0
 62
     2
100
AcDbLine
 10
-56.850856
 20
22.346114
 30
0.0
 11
-60.82886999999999
 21
25.75584
 31
0.0
  0
LINE
  5
124
330
6B
100
AcDbEntity
  8
0
 62
     2
100
AcDbLine
 10
-57.25109699999999
 20
22.143754
 30
0.0
 11
-63.54724399999999
 21
25.723269
 31
0.0
  0
ARC
  5
125
330
6B
100
AcDbEntity
  8
0
 62
     2
100
AcDbCircle
 10
-59.07886999999998
 20
26.25584
 30
0.0
 40
4.5
100
AcDbArc
 50
299.677275
 51
353.62063
  0
ARC
  5
126
330
6B
100
AcDbEntity
  8
0
 62
     2
100
AcDbCircle
 10
-59.07886999999998
 20
26.25584
 30
0.0
 40
4.5
100
AcDbArc
 50
186.37937
 51
293.964579
  0
LINE
  5
127
330
6B
100
AcDbEntity
  8
0
 62
     2
100
AcDbLine
 10
-55.57887
 20
21.25584
 30
0.0
 11
-56.676116
 21
21.871005
 31
0.0
  0
LINE
  5
128
330
6B
100
AcDbEntity
  8
0
 62
     2
100
AcDbLine
 10
-56.4256
 20
22.017897
 30
0.0
 11
-55.57887
 21
21.25584
 31
0.0
  0
LINE
  5
129
330
6B
100
AcDbEntity
  8
0
 62
     3
100
AcDbLine
 10
59.989679
 20
35.233811
 30
0.0
 11
59.989679
 21
17.233811
 31
0.0
  0
LINE
  5
12A
330
6B
100
AcDbEntity
  8
0
 62
     3
100
AcDbLine
 10
27.989679
 20
19.718309
 30
0.0
 11
27.989679
 21
32.749314
 31
0.0
  0
LINE
  5
12B
330
6B
100
AcDbEntity
  8
0
 62
     3
100
AcDbLine
 10
28.974056
 20
33.749192
 30
0.0
 11
59.989679
 21
34.233811
 31
0.0
  0
LINE
  5
12C
330
6B
100
AcDbEntity
  8
0
 62
     3
100
AcDbLine
 10
28.974056
 20
18.718431
 30
0.0
 11
59.989679
 21
18.233811
 31
0.0
  0
LINE
  5
12D
330
6B
100
AcDbEntity
  8
0
 62
     3
100
AcDbLine
 10
59.989679
 20
35.233811
 30
0.0
 11
61.989679
 21
35.983811
 31
0.0
  0
LINE
  5
12E
330
6B
100
AcDbEntity
  8
0
 62
     3
100
AcDbLine
 10
59.989679
 20
17.233811
 30
0.0
 11
61.989679
 21
16.483811
 31
0.0
  0
LINE
  5
12F
330
6B
100
AcDbEntity
  8
0
 62
     3
100
AcDbLine
 10
97.989679
 20
39.733811
 30
0.0
 11
97.989679
 21
12.733811
 31
0.0
  0
LINE
  5
130
330
6B
100
AcDbEntity
  8
0
 62
     3
100
AcDbLine
 10
87.83811999999995
 20
39.733811
 30
0.0
 11
97.989679
 21
39.733811
 31
0.0
  0
ARC
  5
131
330
6B
100
AcDbEntity
  8
0
 62
     3
100
AcDbCircle
 10
69.30999200000001
 20
55.665061
 30
0.0
 40
20.998537
100
AcDbArc
 50
249.597644
 51
300.591744
  0
ARC
  5
132
330
6B
100
AcDbEntity
  8
0
 62
     3
100
AcDbCircle
 10
87.83811999999995
 20
24.325401
 30
0.0
 40
15.40841
100
AcDbArc
 50
90.0
 51
120.591744
  0
ARC
  5
133
330
6B
100
AcDbEntity
  8
0
 62
     3
100
AcDbCircle
 10
69.30999200000001
 20
-3.197439
 30
0.0
 40
20.998537
100
AcDbArc
 50
59.40825600000001
 51
110.402356
  0
ARC
  5
134
330
6B
100
AcDbEntity
  8
0
 62
     3
100
AcDbCircle
 10
87.83811999999995
 20
28.142222
 30
0.0
 40
15.40841
100
AcDbArc
 50
239.408256
 51
270.0
  0
LINE
  5
135
330
6B
100
AcDbEntity
  8
0
 62
     3
100
AcDbLine
 10
87.83811999999995
 20
12.733811
 30
0.0
 11
97.989679
 21
12.733811
 31
0.0
  0
CIRCLE
  5
136
330
6B
100
AcDbEntity
  8
0
 62
     3
100
AcDbCircle
 10
82.989679
 20
26.233811
 30
0.0
 40
6.0
  0
ARC
  5
137
330
6B
100
AcDbEntity
  8
0
 62
     3
100
AcDbCircle
 10
28.989679
 20
32.749314
 30
0.0
 40
1.0
100
AcDbArc
 50
90.895174
 51
180.0
  0
ARC
  5
138
330
6B
100
AcDbEntity
  8
0
 62
     3
100
AcDbCircle
 10
28.989679
 20
19.718309
 30
0.0
 40
1.0
100
AcDbArc
 50
180.0
 51
269.104826
  0
LINE
  5
14B
330
6B
100
AcDbEntity
  8
0
 62
     3
100
AcDbLine
 10
16.821969
 20
30.933811
 30
0.0
 11
27.989679
 21
30.933811
 31
0.0
  0
LINE
  5
14C
330
6B
100
AcDbEntity
  8
0
 62
     3
100
AcDbLine
 10
14.248355
 20
30.933811
 30
0.0
 11
2.985374999999999
 21
30.933811
 31
0.0
  0
LINE
  5
14D
330
6B
100
AcDbEntity
  8
0
 62
     3
100
AcDbLine
 10
15.622926
 20
21.533811
 30
0.0
 11
27.989679
 21
21.533811
 31
0.0
  0
LINE
  5
14E
330
6B
100
AcDbEntity
  8
0
 62
     3
100
AcDbLine
 10
12.983294
 20
21.533811
 30
0.0
 11
2.985374999999999
 21
21.533811
 31
0.0
  0
LINE
  5
14F
330
6B
100
AcDbEntity
  8
0
 62
     3
100
AcDbLine
 10
-131.588352
 20
-19.277774
 30
0.0
 11
-131.588352
 21
-54.277774
 31
0.0
  0
LINE
  5
150
330
6B
100
AcDbEntity
  8
0
 62
     3
100
AcDbLine
 10
-28.52283383186534
 20
-19.277774
 30
0.0
 11
-28.52283383186534
 21
-54.277774
 31
0.0
  0
LINE
  5
151
330
6B
100
AcDbEntity
  8
0
100
AcDbLine
 10
-99.82633599999999
 20
-19.277774
 30
0.0
 11
-99.82633599999999
 21
-54.277774
 31
0.0
  0
LINE
  5
157
330
6B
100
AcDbEntity
  8
0
100
AcDbLine
 10
-70.255351
 20
33.545865
 30
0.0
 11
-79.80659200000002
 21
45.464
 31
0.0
  0
LINE
  5
158
330
6B
100
AcDbEntity
  8
0
100
AcDbLine
 10
-79.80659200000002
 20
45.464
 30
0.0
 11
-101.806592
 21
45.464
 31
0.0
  0
TEXT
  5
159
330
6B
100
AcDbEntity
  8
0
 62
     4
100
AcDbText
 10
-99.05659200000002
 20
46.46399999999998
 30
0.0
 40
3.2
  1
定格表示刻印
  7
高3.2
100
AcDbText
  0
TEXT
  5
15A
330
6B
100
AcDbEntity
  8
0
 62
     3
100
AcDbText
 10
-99.345244
 20
-17.46722
 30
0.0
 40
4.5
  1
主　仕　様（屋内型）
  7
高4.5
100
AcDbText
  0
LINE
  5
15B
330
6B
100
AcDbEntity
  8
0
 62
     3
100
AcDbLine
 10
-77.45133299999998
 20
72.06649899999998
 30
0.0
 11
-77.45133299999998
 21
52.066499
 31
0.0
  0
LINE
  5
15C
330
6B
100
AcDbEntity
  8
0
 62
     3
100
AcDbLine
 10
-105.451333
 20
52.066499
 30
0.0
 11
-105.451333
 21
72.06649899999998
 31
0.0
  0
LINE
  5
15D
330
6B
100
AcDbEntity
  8
0
 62
     3
100
AcDbLine
 10
-77.45133299999998
 20
72.06649899999998
 30
0.0
 11
-105.451333
 21
72.06649899999998
 31
0.0
  0
LINE
  5
15E
330
6B
100
AcDbEntity
  8
0
 62
     3
100
AcDbLine
 10
-77.45133299999998
 20
52.066499
 30
0.0
 11
-105.451333
 21
52.066499
 31
0.0
  0
TEXT
  5
15F
330
6B
100
AcDbEntity
  8
0
 62
     3
100
AcDbText
 10
-101.944644
 20
55.83462199999999
 30
0.0
 40
3.2
  1
15A 125V
 41
0.9099199999999999
100
AcDbText
  0
TEXT
  5
160
330
6B
100
AcDbEntity
  8
0
 62
     3
100
AcDbText
 10
-104.809974
 20
63.578756
 30
0.0
 40
3.2
  1
<PS>E JET
 41
0.8529129999999998
100
AcDbText
  0
LINE
  5
161
330
6B
100
AcDbEntity
  8
0
 62
     3
100
AcDbLine
 10
-80.60955600000001
 20
63.758523
 30
0.0
 11
-80.60955600000001
 21
66.80640799999999
 31
0.0
  0
CIRCLE
  5
162
330
6B
100
AcDbEntity
  8
0
 62
     3
100
AcDbCircle
 10
-80.60955600000001
 20
65.282465
 30
0.0
 40
1.523941999999999
  0
LINE
  5
163
330
6B
100
AcDbEntity
  8
0
 62
     3
100
AcDbLine
 10
-80.60955600000001
 20
63.758523
 30
0.0
 11
-79.064352
 21
66.532602
 31
0.0
  0
LINE
  5
164
330
6B
100
AcDbEntity
  8
0
 62
     3
100
AcDbLine
 10
-80.60955600000001
 20
66.80640799999999
 30
0.0
 11
-82.21225399999999
 21
64.054467
 31
0.0
  0
LINE
  5
165
330
6B
100
AcDbEntity
  8
0
 62
     3
100
AcDbLine
 10
132.563599
 20
63.061427
 30
0.0
 11
132.563599
 21
43.061427
 31
0.0
  0
LINE
  5
166
330
6B
100
AcDbEntity
  8
0
 62
     3
100
AcDbLine
 10
104.563599
 20
43.061427
 30
0.0
 11
104.563599
 21
63.061427
 31
0.0
  0
LINE
  5
167
330
6B
100
AcDbEntity
  8
0
 62
     3
100
AcDbLine
 10
132.563599
 20
63.061427
 30
0.0
 11
104.563599
 21
63.061427
 31
0.0
  0
LINE
  5
168
330
6B
100
AcDbEntity
  8
0
 62
     3
100
AcDbLine
 10
132.563599
 20
43.061427
 30
0.0
 11
104.563599
 21
43.061427
 31
0.0
  0
TEXT
  5
169
330
6B
100
AcDbEntity
  8
0
 62
     3
100
AcDbText
 10
108.070288
 20
46.829551
 30
0.0
 40
3.2
  1
15A 125V
 41
0.9099199999999999
100
AcDbText
  0
TEXT
  5
16A
330
6B
100
AcDbEntity
  8
0
 62
     3
100
AcDbText
 10
105.204958
 20
54.573685
 30
0.0
 40
3.2
  1
<PS>E JET
 41
0.8529129999999998
100
AcDbText
  0
LINE
  5
16B
330
6B
100
AcDbEntity
  8
0
 62
     3
100
AcDbLine
 10
129.405376
 20
54.753452
 30
0.0
 11
129.405376
 21
57.801336
 31
0.0
  0
CIRCLE
  5
16C
330
6B
100
AcDbEntity
  8
0
 62
     3
100
AcDbCircle
 10
129.405376
 20
56.27739399999999
 30
0.0
 40
1.523941999999999
  0
LINE
  5
16D
330
6B
100
AcDbEntity
  8
0
 62
     3
100
AcDbLine
 10
129.405376
 20
54.753452
 30
0.0
 11
130.95058
 21
57.527531
 31
0.0
  0
LINE
  5
16E
330
6B
100
AcDbEntity
  8
0
 62
     3
100
AcDbLine
 10
129.405376
 20
57.801336
 30
0.0
 11
127.802678
 21
55.049396
 31
0.0
  0
TEXT
  5
16F
330
6B
100
AcDbEntity
  8
0
 62
     3
100
AcDbText
 10
93.25238134552783
 20
-88.74048181679325
 30
0.0
 40
6.299999999999998
  1
MRS-10
  7
高6.3
100
AcDbText
  0
LINE
  5
170
330
6B
100
AcDbEntity
  8
0
100
AcDbLine
 10
97.989679
 20
20.633811
 30
0.0
 11
114.383586
 21
20.633811
 31
0.0
  0
LINE
  5
171
330
6B
100
AcDbEntity
  8
0
100
AcDbLine
 10
97.989679
 20
19.133811
 30
0.0
 11
114.383586
 21
19.133811
 31
0.0
  0
LINE
  5
172
330
6B
100
AcDbEntity
  8
0
100
AcDbLine
 10
97.989679
 20
31.833811
 30
0.0
 11
114.383586
 21
31.833811
 31
0.0
  0
LINE
  5
173
330
6B
100
AcDbEntity
  8
0
100
AcDbLine
 10
97.989679
 20
33.333811
 30
0.0
 11
114.383586
 21
33.333811
 31
0.0
  0
LINE
  5
174
330
6B
100
AcDbEntity
  8
0
100
AcDbLine
 10
114.383586
 20
33.333811
 30
0.0
 11
114.989679
 21
33.142414
 31
0.0
  0
LINE
  5
175
330
6B
100
AcDbEntity
  8
0
100
AcDbLine
 10
114.383586
 20
31.833811
 30
0.0
 11
114.989679
 21
32.02520900000001
 31
0.0
  0
LINE
  5
176
330
6B
100
AcDbEntity
  8
0
100
AcDbLine
 10
114.383586
 20
20.633811
 30
0.0
 11
114.989679
 21
20.442414
 31
0.0
  0
LINE
  5
177
330
6B
100
AcDbEntity
  8
0
100
AcDbLine
 10
114.383586
 20
19.133811
 30
0.0
 11
114.989679
 21
19.325209
 31
0.0
  0
LINE
  5
178
330
6B
100
AcDbEntity
  8
0
100
AcDbLine
 10
114.989679
 20
33.142414
 30
0.0
 11
114.989679
 21
32.02520900000001
 31
0.0
  0
LINE
  5
179
330
6B
100
AcDbEntity
  8
0
100
AcDbLine
 10
114.989679
 20
20.442414
 30
0.0
 11
114.989679
 21
19.325209
 31
0.0
  0
LINE
  5
17A
330
6B
100
AcDbEntity
  8
0
100
AcDbLine
 10
30.989679
 20
26.233811
 30
0.0
 11
30.989679
 21
33.780686
 31
0.0
  0
LINE
  5
17B
330
6B
100
AcDbEntity
  8
0
100
AcDbLine
 10
32.789679
 20
26.233811
 30
0.0
 11
32.789679
 21
33.808811
 31
0.0
  0
LINE
  5
17C
330
6B
100
AcDbEntity
  8
0
100
AcDbLine
 10
38.189679
 20
33.893186
 30
0.0
 11
38.189679
 21
26.233811
 31
0.0
  0
LINE
  5
17D
330
6B
100
AcDbEntity
  8
0
100
AcDbLine
 10
39.989679
 20
26.233811
 30
0.0
 11
39.989679
 21
33.921311
 31
0.0
  0
LINE
  5
17E
330
6B
100
AcDbEntity
  8
0
100
AcDbLine
 10
45.389679
 20
26.233811
 30
0.0
 11
45.389679
 21
34.005686
 31
0.0
  0
LINE
  5
17F
330
6B
100
AcDbEntity
  8
0
100
AcDbLine
 10
47.18967899999999
 20
26.233811
 30
0.0
 11
47.18967899999999
 21
34.033811
 31
0.0
  0
LINE
  5
180
330
6B
100
AcDbEntity
  8
0
100
AcDbLine
 10
34.589679
 20
18.630686
 30
0.0
 11
34.589679
 21
26.233811
 31
0.0
  0
LINE
  5
181
330
6B
100
AcDbEntity
  8
0
100
AcDbLine
 10
36.389679
 20
18.602561
 30
0.0
 11
36.389679
 21
26.233811
 31
0.0
  0
LINE
  5
182
330
6B
100
AcDbEntity
  8
0
100
AcDbLine
 10
43.58967899999998
 20
26.233811
 30
0.0
 11
43.58967899999998
 21
18.490061
 31
0.0
  0
LINE
  5
183
330
6B
100
AcDbEntity
  8
0
100
AcDbLine
 10
41.78967899999999
 20
26.233811
 30
0.0
 11
41.78967899999999
 21
18.518186
 31
0.0
  0
ARC
  5
184
330
6B
100
AcDbEntity
  8
0
100
AcDbCircle
 10
31.889679
 20
26.248578
 30
0.0
 40
0.900121
100
AcDbArc
 50
180.94
 51
359.06
  0
ARC
  5
185
330
6B
100
AcDbEntity
  8
0
100
AcDbCircle
 10
35.489679
 20
26.155288
 30
0.0
 40
0.903419
100
AcDbArc
 50
4.986328
 51
175.013672
  0
ARC
  5
186
330
6B
100
AcDbEntity
  8
0
100
AcDbCircle
 10
39.089679
 20
26.234393
 30
0.0
 40
0.9
100
AcDbArc
 50
180.036991
 51
359.963009
  0
ARC
  5
187
330
6B
100
AcDbEntity
  8
0
100
AcDbCircle
 10
42.68967899999998
 20
26.109621
 30
0.0
 40
0.908528
100
AcDbArc
 50
7.856592999999997
 51
172.143407
  0
ARC
  5
188
330
6B
100
AcDbEntity
  8
0
100
AcDbCircle
 10
46.289679
 20
26.260584
 30
0.0
 40
0.9003979999999998
100
AcDbArc
 50
181.70388
 51
358.29612
  0
LINE
  5
189
330
6B
100
AcDbEntity
  8
0
100
AcDbLine
 10
45.389679
 20
30.933811
 30
0.0
 11
47.18967899999999
 21
30.933811
 31
0.0
  0
LINE
  5
18A
330
6B
100
AcDbEntity
  8
0
100
AcDbLine
 10
30.989679
 20
30.933811
 30
0.0
 11
32.789679
 21
30.933811
 31
0.0
  0
LINE
  5
18B
330
6B
100
AcDbEntity
  8
0
100
AcDbLine
 10
38.189679
 20
30.933811
 30
0.0
 11
39.989679
 21
30.933811
 31
0.0
  0
LINE
  5
18C
330
6B
100
AcDbEntity
  8
0
100
AcDbLine
 10
34.589679
 20
21.533811
 30
0.0
 11
36.389679
 21
21.533811
 31
0.0
  0
LINE
  5
18D
330
6B
100
AcDbEntity
  8
0
100
AcDbLine
 10
41.78967899999999
 20
21.533811
 30
0.0
 11
43.58967899999998
 21
21.533811
 31
0.0
  0
LINE
  5
18E
330
6B
100
AcDbEntity
  8
0
100
AcDbLine
 10
-2.014625
 20
33.604619
 30
0.0
 11
-2.014625
 21
26.201393
 31
0.0
  0
LINE
  5
18F
330
6B
100
AcDbEntity
  8
0
100
AcDbLine
 10
-4.514624999999997
 20
33.647408
 30
0.0
 11
-4.514624999999997
 21
26.201393
 31
0.0
  0
LINE
  5
190
330
6B
100
AcDbEntity
  8
0
100
AcDbLine
 10
-11.014625
 20
33.800638
 30
0.0
 11
-11.014625
 21
26.201393
 31
0.0
  0
LINE
  5
191
330
6B
100
AcDbEntity
  8
0
100
AcDbLine
 10
-13.514625
 20
33.859573
 30
0.0
 11
-13.514625
 21
26.201393
 31
0.0
  0
LINE
  5
192
330
6B
100
AcDbEntity
  8
0
100
AcDbLine
 10
-20.014625
 20
34.012802
 30
0.0
 11
-20.014625
 21
26.201393
 31
0.0
  0
LINE
  5
193
330
6B
100
AcDbEntity
  8
0
100
AcDbLine
 10
-22.514625
 20
34.071737
 30
0.0
 11
-22.514625
 21
26.201393
 31
0.0
  0
LINE
  5
194
330
6B
100
AcDbEntity
  8
0
100
AcDbLine
 10
-6.514624999999997
 20
26.201393
 30
0.0
 11
-6.514624999999997
 21
18.894942
 31
0.0
  0
LINE
  5
195
330
6B
100
AcDbEntity
  8
0
100
AcDbLine
 10
-9.014625
 20
26.201393
 30
0.0
 11
-9.014625
 21
18.814296
 31
0.0
  0
LINE
  5
196
330
6B
100
AcDbEntity
  8
0
100
AcDbLine
 10
-15.514625
 20
26.201393
 30
0.0
 11
-15.514625
 21
18.604619
 31
0.0
  0
LINE
  5
197
330
6B
100
AcDbEntity
  8
0
100
AcDbLine
 10
-18.014625
 20
26.201393
 30
0.0
 11
-18.014625
 21
18.523974
 31
0.0
  0
ARC
  5
198
330
6B
100
AcDbEntity
  8
0
100
AcDbCircle
 10
-21.264625
 20
26.201393
 30
0.0
 40
1.25
100
AcDbArc
 50
180.0
 51
0.0
  0
ARC
  5
199
330
6B
100
AcDbEntity
  8
0
100
AcDbCircle
 10
-16.764625
 20
26.201393
 30
0.0
 40
1.25
100
AcDbArc
 50
0.0
 51
180.0
  0
ARC
  5
19A
330
6B
100
AcDbEntity
  8
0
100
AcDbCircle
 10
-12.264625
 20
26.201393
 30
0.0
 40
1.25
100
AcDbArc
 50
180.0
 51
0.0
  0
ARC
  5
19B
330
6B
100
AcDbEntity
  8
0
100
AcDbCircle
 10
-7.764624999999997
 20
26.201393
 30
0.0
 40
1.25
100
AcDbArc
 50
0.0
 51
180.0
  0
ARC
  5
19C
330
6B
100
AcDbEntity
  8
0
100
AcDbCircle
 10
-3.264625
 20
26.201393
 30
0.0
 40
1.25
100
AcDbArc
 50
180.0
 51
0.0
  0
LINE
  5
19D
330
6B
100
AcDbEntity
  8
0
100
AcDbLine
 10
-20.014625
 20
31.001393
 30
0.0
 11
-22.514625
 21
31.001393
 31
0.0
  0
LINE
  5
19E
330
6B
100
AcDbEntity
  8
0
100
AcDbLine
 10
-2.014625
 20
31.001393
 30
0.0
 11
-4.514624999999997
 21
31.001393
 31
0.0
  0
LINE
  5
19F
330
6B
100
AcDbEntity
  8
0
100
AcDbLine
 10
-11.014625
 20
31.001393
 30
0.0
 11
-13.514625
 21
31.001393
 31
0.0
  0
LINE
  5
1A0
330
6B
100
AcDbEntity
  8
0
100
AcDbLine
 10
-6.514624999999997
 20
21.401393
 30
0.0
 11
-9.014625
 21
21.401393
 31
0.0
  0
LINE
  5
1A1
330
6B
100
AcDbEntity
  8
0
100
AcDbLine
 10
-15.514625
 20
21.401393
 30
0.0
 11
-18.014625
 21
21.401393
 31
0.0
  0
LINE
  5
1A2
330
6B
100
AcDbEntity
  8
0
100
AcDbLine
 10
61.989679
 20
35.983811
 30
0.0
 11
61.989679
 21
16.483811
 31
0.0
  0
LINE
  5
1A3
330
6B
100
AcDbEntity
  8
0
100
AcDbLine
 10
-30.014625
 20
35.701393
 30
0.0
 11
-30.014625
 21
16.701393
 31
0.0
  0
LINE
  5
1A4
330
6B
100
AcDbEntity
  8
0
100
AcDbLine
 10
-43.014625
 20
51.70139299999998
 30
0.0
 11
-59.014625
 21
51.70139299999998
 31
0.0
  0
LINE
  5
1A5
330
6B
100
AcDbEntity
  8
0
100
AcDbLine
 10
-42.014625
 20
52.701393
 30
0.0
 11
-60.014625
 21
52.701393
 31
0.0
  0
LINE
  5
1A6
330
6B
100
AcDbEntity
  8
0
100
AcDbLine
 10
-76.514625
 20
34.201393
 30
0.0
 11
-76.514625
 21
18.201393
 31
0.0
  0
LINE
  5
1A7
330
6B
100
AcDbEntity
  8
0
100
AcDbLine
 10
-77.51462499999998
 20
35.201393
 30
0.0
 11
-77.51462499999998
 21
17.201393
 31
0.0
  0
LINE
  5
1A8
330
6B
100
AcDbEntity
  8
0
100
AcDbLine
 10
-43.014625
 20
0.7013930000000002
 30
0.0
 11
-59.014625
 21
0.7013930000000002
 31
0.0
  0
LINE
  5
1A9
330
6B
100
AcDbEntity
  8
0
100
AcDbLine
 10
-42.014625
 20
-0.298607
 30
0.0
 11
-60.014625
 21
-0.298607
 31
0.0
  0
LINE
  5
1AA
330
6B
100
AcDbEntity
  8
0
100
AcDbLine
 10
-94.405222
 20
21.126797
 30
0.0
 11
-98.405222
 21
21.126797
 31
0.0
  0
LINE
  5
1AB
330
6B
100
AcDbEntity
  8
0
100
AcDbLine
 10
-94.405222
 20
30.126797
 30
0.0
 11
-94.405222
 21
21.126797
 31
0.0
  0
LINE
  5
1AC
330
6B
100
AcDbEntity
  8
0
100
AcDbLine
 10
-94.405222
 20
30.126797
 30
0.0
 11
-98.405222
 21
30.126797
 31
0.0
  0
LINE
  5
1AD
330
6B
100
AcDbEntity
  8
0
100
AcDbLine
 10
-98.405222
 20
30.126797
 30
0.0
 11
-98.405222
 21
21.126797
 31
0.0
  0
LINE
  5
1AE
330
6B
100
AcDbEntity
  8
0
100
AcDbLine
 10
-107.105222
 20
30.126797
 30
0.0
 11
-107.105222
 21
21.126797
 31
0.0
  0
LINE
  5
1AF
330
6B
100
AcDbEntity
  8
0
100
AcDbLine
 10
-107.105222
 20
30.126797
 30
0.0
 11
-111.105222
 21
30.126797
 31
0.0
  0
LINE
  5
1B0
330
6B
100
AcDbEntity
  8
0
100
AcDbLine
 10
-111.105222
 20
30.126797
 30
0.0
 11
-111.105222
 21
21.126797
 31
0.0
  0
LINE
  5
1B1
330
6B
100
AcDbEntity
  8
0
100
AcDbLine
 10
-107.105222
 20
21.126797
 30
0.0
 11
-111.105222
 21
21.126797
 31
0.0
  0
LINE
  5
1B7
330
6B
100
AcDbEntity
  8
0
 62
     3
100
AcDbLine
 10
-138.5
 20
90.0
 30
0.0
 11
-138.5
 21
-90.0
 31
0.0
  0
LINE
  5
1B8
330
6B
100
AcDbEntity
  8
0
 62
     3
100
AcDbLine
 10
138.5
 20
-90.0
 30
0.0
 11
138.5
 21
90.0
 31
0.0
  0
LINE
  5
1B9
330
6B
100
AcDbEntity
  8
0
 62
     3
100
AcDbLine
 10
-138.5
 20
-90.0
 30
0.0
 11
138.5
 21
-90.0
 31
0.0
  0
LINE
  5
1BA
330
6B
100
AcDbEntity
  8
0
 62
     3
100
AcDbLine
 10
-138.5
 20
90.0
 30
0.0
 11
138.5
 21
90.0
 31
0.0
  0
TEXT
  5
1BB
330
6B
100
AcDbEntity
  8
0
 62
     3
100
AcDbText
 10
29.142549
 20
-54.158126
 30
0.0
 40
2.0
  1
CONPONENTS
 41
0.5331600000000001
100
AcDbText
  0
TEXT
  5
1BC
330
6B
100
AcDbEntity
  8
0
 62
     3
100
AcDbText
 10
28.792822
 20
-73.090303
 30
0.0
 40
3.0
  1
材
 41
0.833333
100
AcDbText
  0
TEXT
  5
1BD
330
6B
100
AcDbEntity
  8
0
 62
     3
100
AcDbText
 10
36.328465
 20
-73.090303
 30
0.0
 40
3.0
  1
質
 41
0.833333
100
AcDbText
  0
TEXT
  5
1BE
330
6B
100
AcDbEntity
  8
0
 62
     3
100
AcDbText
 10
28.880893
 20
-62.465778
 30
0.0
 40
2.0
  1
MODEL
 41
1.031072999999999
100
AcDbText
  0
TEXT
  5
1BF
330
6B
100
AcDbEntity
  8
0
 62
     3
100
AcDbText
 10
28.792822
 20
-69.407995
 30
0.0
 40
2.0
  1
MATERIAL
 41
0.659278
100
AcDbText
  0
TEXT
  5
1C0
330
6B
100
AcDbEntity
  8
0
 62
     3
100
AcDbText
 10
60.10010300000001
 20
-73.090303
 30
0.0
 40
3.0
  1
備
 41
0.833333
100
AcDbText
  0
TEXT
  5
1C1
330
6B
100
AcDbEntity
  8
0
 62
     3
100
AcDbText
 10
66.833104
 20
-73.090303
 30
0.0
 40
3.0
  1
考
 41
0.833333
100
AcDbText
  0
TEXT
  5
1C2
330
6B
100
AcDbEntity
  8
0
 62
     3
100
AcDbText
 10
60.44884572921525
 20
-69.407995
 30
0.0
 40
2.0
  1
REMARKS
 41
0.675794
100
AcDbText
  0
TEXT
  5
1C3
330
6B
100
AcDbEntity
  8
0
 62
     3
100
AcDbText
 10
30.382551
 20
-76.32811499999998
 30
0.0
 40
2.0
  1
3AD
 41
1.42614
100
AcDbText
  0
TEXT
  5
1C4
330
6B
100
AcDbEntity
  8
0
 62
     3
100
AcDbText
 10
39.693531
 20
-76.16238199999997
 30
0.0
 40
2.0
  1
ANGLE
 41
1.669883999999997
100
AcDbText
  0
TEXT
  5
1C5
330
6B
100
AcDbEntity
  8
0
 62
     3
100
AcDbText
 10
60.62741800000001
 20
-76.53922299999997
 30
0.0
 40
2.0
  1
SCALE
 41
0.7719630000000001
100
AcDbText
  0
TEXT
  5
1C6
330
6B
100
AcDbEntity
  8
0
 62
     3
100
AcDbText
 10
30.068681
 20
-80.327652
 30
0.0
 40
3.0
  1
第
 41
0.833333
100
AcDbText
  0
TEXT
  5
1C7
330
6B
100
AcDbEntity
  8
0
 62
     3
100
AcDbText
 10
37.855531
 20
-80.327652
 30
0.0
 40
3.0
  1
三
 41
0.833333
100
AcDbText
  0
TEXT
  5
1C8
330
6B
100
AcDbEntity
  8
0
 62
     3
100
AcDbText
 10
45.64238099999999
 20
-80.327652
 30
0.0
 40
3.0
  1
角
 41
0.833333
100
AcDbText
  0
TEXT
  5
1C9
330
6B
100
AcDbEntity
  8
0
 62
     3
100
AcDbText
 10
53.42923100000001
 20
-80.327652
 30
0.0
 40
3.0
  1
法
 41
0.833333
100
AcDbText
  0
TEXT
  5
1CA
330
6B
100
AcDbEntity
  8
0
 62
     3
100
AcDbText
 10
60.490623
 20
-80.03922299999997
 30
0.0
 40
3.0
  1
尺
 41
0.833333
100
AcDbText
  0
TEXT
  5
1CB
330
6B
100
AcDbEntity
  8
0
 62
     3
100
AcDbText
 10
67.223625
 20
-80.03922299999997
 30
0.0
 40
3.0
  1
度
 41
0.833333
100
AcDbText
  0
TEXT
  5
1CC
330
6B
100
AcDbEntity
  8
0
 62
     3
100
AcDbText
 10
89.806895
 20
-57.869923
 30
0.0
 40
3.0
  1
承認
 41
1.089472999999999
100
AcDbText
  0
TEXT
  5
1CD
330
6B
100
AcDbEntity
  8
0
 62
     3
100
AcDbText
 10
103.049775
 20
-57.927652
 30
0.0
 40
3.0
  1
検図
 41
0.931761
100
AcDbText
  0
TEXT
  5
1CE
330
6B
100
AcDbEntity
  8
0
 62
     3
100
AcDbText
 10
116.050172
 20
-57.927652
 30
0.0
 40
3.0
  1
設
 41
0.833333
100
AcDbText
  0
TEXT
  5
1CF
330
6B
100
AcDbEntity
  8
0
 62
     3
100
AcDbText
 10
120.54004
 20
-57.927652
 30
0.0
 40
3.0
  1
計
 41
0.833333
100
AcDbText
  0
TEXT
  5
1D0
330
6B
100
AcDbEntity
  8
0
 62
     3
100
AcDbText
 10
29.212655
 20
-57.755099
 30
0.0
 40
3.0
  1
品
 41
0.833333
100
AcDbText
  0
TEXT
  5
1D1
330
6B
100
AcDbEntity
  8
0
 62
     3
100
AcDbText
 10
36.748297
 20
-57.755099
 30
0.0
 40
3.0
  1
名
 41
0.833333
100
AcDbText
  0
TEXT
  5
1D2
330
6B
100
AcDbEntity
  8
0
 62
     3
100
AcDbText
 10
28.880893
 20
-65.9903128236557
 30
0.0
 40
3.0
  1
型
 41
0.833333
100
AcDbText
  0
TEXT
  5
1D3
330
6B
100
AcDbEntity
  8
0
 62
     3
100
AcDbText
 10
36.42898300000001
 20
-65.9903128236557
 30
0.0
 40
3.0
  1
式
 41
0.833333
100
AcDbText
  0
TEXT
  5
1D4
330
6B
100
AcDbEntity
  8
0
 62
     3
100
AcDbText
 10
50.965956
 20
-64.888779
 30
0.0
 40
4.5
  1
MRS-10
  7
高4.5
100
AcDbText
  0
TEXT
  5
1D5
330
6B
100
AcDbEntity
  8
0
 62
     3
100
AcDbText
 10
-74.40515600000002
 20
-46.287836
 30
0.0
 40
4.5
  1
16A
 41
0.8
  7
高4.5
100
AcDbText
  0
TEXT
  5
1D6
330
6B
100
AcDbEntity
  8
0
 62
     3
100
AcDbText
 10
-98.51673599999999
 20
-39.390925
 30
0.0
 40
4.5
  1
SVCT 1.25sqx2c
 41
0.8
  7
高4.5
100
AcDbText
  0
TEXT
  5
1D7
330
6B
100
AcDbEntity
  8
0
 62
     3
100
AcDbText
 10
-73.95186200000002
 20
-32.390925
 30
0.0
 40
4.5
  1
10m
 41
0.8
  7
高4.5
100
AcDbText
  0
TEXT
  5
1D8
330
6B
100
AcDbEntity
  8
0
 62
     3
100
AcDbText
 10
-90.302141
 20
-25.390925
 30
0.0
 40
4.5
  1
MRS-10ソフトン
 41
0.8
  7
高4.5
100
AcDbText
  0
TEXT
  5
1DA
330
6B
100
AcDbEntity
  8
0
 62
     3
100
AcDbText
 10
-129.753934
 20
-25.390925
 30
0.0
 40
4.5
  1
型式
 41
0.8
  7
高4.5
100
AcDbText
  0
TEXT
  5
1DB
330
6B
100
AcDbEntity
  8
0
 62
     3
100
AcDbText
 10
-129.753934
 20
-32.390925
 30
0.0
 40
4.5
  1
電線長さ
 41
0.8
  7
高4.5
100
AcDbText
  0
TEXT
  5
1DC
330
6B
100
AcDbEntity
  8
0
 62
     3
100
AcDbText
 10
-129.753934
 20
-39.390925
 30
0.0
 40
4.5
  1
電線仕様
 41
0.8
  7
高4.5
100
AcDbText
  0
TEXT
  5
1DD
330
6B
100
AcDbEntity
  8
0
 62
     3
100
AcDbText
 10
-129.753934
 20
-46.390925
 30
0.0
 40
4.5
  1
電線許容電流
 41
0.8
  7
高4.5
100
AcDbText
  0
TEXT
  5
1DE
330
6B
100
AcDbEntity
  8
0
 62
     3
100
AcDbText
 10
-129.753934
 20
-53.390925
 30
0.0
 40
4.5
  1
電線色
 41
0.8
  7
高4.5
100
AcDbText
  0
TEXT
  5
1DF
330
6B
100
AcDbEntity
  8
0
 62
     3
100
AcDbText
 10
-97.885032
 20
-53.29068499999999
 30
0.0
 40
4.5
  1
若草(G)オレンジ(O)赤(R)黄(Y)
 41
0.8
  7
高4.5
100
AcDbText
  0
LINE
  5
1E0
330
6B
100
AcDbEntity
  8
0
 62
     3
100
AcDbLine
 10
-131.588352
 20
-54.277774
 30
0.0
 11
-28.52283383186534
 21
-54.277774
 31
0.0
  0
LINE
  5
1E1
330
6B
100
AcDbEntity
  8
0
100
AcDbLine
 10
-131.588352
 20
-26.277774
 30
0.0
 11
-28.52283383186534
 21
-26.277774
 31
0.0
  0
LINE
  5
1E2
330
6B
100
AcDbEntity
  8
0
100
AcDbLine
 10
-131.588352
 20
-33.277774
 30
0.0
 11
-28.52283383186534
 21
-33.277774
 31
0.0
  0
LINE
  5
1E3
330
6B
100
AcDbEntity
  8
0
100
AcDbLine
 10
-131.588352
 20
-40.277774
 30
0.0
 11
-28.52283383186534
 21
-40.277774
 31
0.0
  0
LINE
  5
1E4
330
6B
100
AcDbEntity
  8
0
100
AcDbLine
 10
-131.588352
 20
-47.27777399999999
 30
0.0
 11
-28.52283383186534
 21
-47.27777399999999
 31
0.0
  0
LINE
  5
1E5
330
6B
100
AcDbEntity
  8
0
 62
     3
100
AcDbLine
 10
-131.588352
 20
-19.277774
 30
0.0
 11
-28.52283383186534
 21
-19.277774
 31
0.0
  0
TEXT
  5
1E6
330
6B
100
AcDbEntity
  8
0
 62
     3
100
AcDbText
 10
-134.959019
 20
-89.355598
 30
0.0
 40
4.5
  1
型式
  7
高4.5
100
AcDbText
  0
TEXT
  5
1E7
330
6B
100
AcDbEntity
  8
0
 62
     3
100
AcDbText
 10
-134.959019
 20
-83.355598
 30
0.0
 40
4.5
  1
MRS-10-Y
  7
高4.5
100
AcDbText
  0
TEXT
  5
1E8
330
6B
100
AcDbEntity
  8
0
 62
     3
100
AcDbText
 10
-134.959019
 20
-65.355598
 30
0.0
 40
4.5
  1
MRS-10-G
  7
高4.5
100
AcDbText
  0
TEXT
  5
1E9
330
6B
100
AcDbEntity
  8
0
 62
     3
100
AcDbText
 10
-134.959019
 20
-71.355598
 30
0.0
 40
4.5
  1
MRS-10-O
  7
高4.5
100
AcDbText
  0
TEXT
  5
1EA
330
6B
100
AcDbEntity
  8
0
 62
     3
100
AcDbText
 10
-134.959019
 20
-77.355598
 30
0.0
 40
4.5
  1
MRS-10-R
  7
高4.5
100
AcDbText
  0
TEXT
  5
1EB
330
6B
100
AcDbEntity
  8
0
 62
     3
100
AcDbText
 10
-94.20832
 20
-65.228002
 30
0.0
 40
4.5
  1
7617
  7
高4.5
100
AcDbText
  0
LINE
  5
1EC
330
6B
100
AcDbEntity
  8
0
 62
     3
100
AcDbLine
 10
-73.7458031239542
 20
-90.0
 30
0.0
 11
-73.7458031239542
 21
-60.0
 31
0.0
  0
LINE
  5
1ED
330
6B
100
AcDbEntity
  8
0
 62
     3
100
AcDbLine
 10
-138.5
 20
-60.0
 30
0.0
 11
-73.7458031239542
 21
-60.0
 31
0.0
  0
LINE
  5
1EE
330
6B
100
AcDbEntity
  8
0
100
AcDbLine
 10
-138.5
 20
-66.0
 30
0.0
 11
-73.7458031239542
 21
-66.0
 31
0.0
  0
LINE
  5
1EF
330
6B
100
AcDbEntity
  8
0
100
AcDbLine
 10
-138.5
 20
-78.0
 30
0.0
 11
-73.7458031239542
 21
-78.0
 31
0.0
  0
LINE
  5
1F0
330
6B
100
AcDbEntity
  8
0
100
AcDbLine
 10
-138.5
 20
-72.0
 30
0.0
 11
-73.7458031239542
 21
-72.0
 31
0.0
  0
LINE
  5
1F1
330
6B
100
AcDbEntity
  8
0
100
AcDbLine
 10
-97.44571800000001
 20
-60.0
 30
0.0
 11
-97.44571800000001
 21
-90.0
 31
0.0
  0
LINE
  5
1F2
330
6B
100
AcDbEntity
  8
0
 62
     3
100
AcDbLine
 10
-138.5
 20
-84.0
 30
0.0
 11
-73.7458031239542
 21
-84.0
 31
0.0
  0
TEXT
  5
1F3
330
6B
100
AcDbEntity
  8
0
 62
     3
100
AcDbText
 10
-94.20832
 20
-89.22800200000002
 30
0.0
 40
4.5
  1
コード
  7
高4.5
100
AcDbText
  0
TEXT
  5
1F4
330
6B
100
AcDbEntity
  8
0
 62
     3
100
AcDbText
 10
-94.20832
 20
-71.228002
 30
0.0
 40
4.5
  1
7618
  7
高4.5
100
AcDbText
  0
TEXT
  5
1F5
330
6B
100
AcDbEntity
  8
0
 62
     3
100
AcDbText
 10
-94.20832
 20
-77.228002
 30
0.0
 40
4.5
  1
7619
  7
高4.5
100
AcDbText
  0
TEXT
  5
1F6
330
6B
100
AcDbEntity
  8
0
 62
     3
100
AcDbText
 10
-94.20832
 20
-83.22800200000001
 30
0.0
 40
4.5
  1
7616
  7
高4.5
100
AcDbText
  0
LINE
  5
1FC
330
6B
100
AcDbEntity
  8
0
100
AcDbLine
 10
97.654197
 20
35.123046
 30
0.0
 11
108.743567
 21
37.449981
 31
0.0
  0
LINE
  5
1FD
330
6B
100
AcDbEntity
  8
0
100
AcDbLine
 10
108.743567
 20
37.449981
 30
0.0
 11
130.743567
 21
37.449981
 31
0.0
  0
TEXT
  5
1FE
330
6B
100
AcDbEntity
  8
0
 62
     4
100
AcDbText
 10
111.493567
 20
38.449981
 30
0.0
 40
3.2
  1
定格表示刻印
  7
高3.2
100
AcDbText
  0
TEXT
  5
2DC
330
6B
100
AcDbEntity
  8
0
 62
     3
100
AcDbText
 10
126.0
 20
80.5
 30
0.0
 40
3.2
  1
担　当
  7
高3.2
100
AcDbText
  0
TEXT
  5
2DD
330
6B
100
AcDbEntity
  8
0
 62
     3
100
AcDbText
 10
82.0
 20
80.5
 30
0.0
 40
3.2
  1
変更・追記内容
  7
高3.2
100
AcDbText
  0
TEXT
  5
2DE
330
6B
100
AcDbEntity
  8
0
 62
     3
100
AcDbText
 10
57.11351500033924
 20
75.8294614900917
 30
0.0
 40
2.0
  1
1
  7
高2
100
AcDbText
  0
TEXT
  5
2DF
330
6B
100
AcDbEntity
  8
0
 62
     3
100
AcDbText
 10
56.80500352358193
 20
70.65964477781881
 30
0.0
 40
2.0
  1
2
  7
高2
100
AcDbText
  0
TEXT
  5
2E0
330
6B
100
AcDbEntity
  8
0
 62
     3
100
AcDbText
 10
64.0
 20
80.5
 30
0.0
 40
3.2
  1
日　付
  7
高3.2
100
AcDbText
  0
TEXT
  5
2E1
330
6B
100
AcDbEntity
  8
0
 62
     3
100
AcDbText
 10
64.0
 20
85.5
 30
0.0
 40
3.2
  1
図　　　　面　　　　略　　　　歴
  7
高3.2
100
AcDbText
  0
TEXT
  5
2E2
330
6B
100
AcDbEntity
  8
0
 62
     3
100
AcDbText
 10
54.0
 20
80.5
 30
0.0
 40
3.2
  1
記号
  7
高3.2
100
AcDbText
  0
LINE
  5
2E3
330
6B
100
AcDbEntity
  8
0
100
AcDbLine
 10
57.5
 20
73.79089600000009
 30
0.0
 11
55.60000000000002
 21
70.5
 31
0.0
  0
LINE
  5
2E4
330
6B
100
AcDbEntity
  8
0
100
AcDbLine
 10
57.5
 20
73.79089600000009
 30
0.0
 11
59.39999999999997
 21
70.5
 31
0.0
  0
LINE
  5
2E5
330
6B
100
AcDbEntity
  8
0
100
AcDbLine
 10
55.60000000000002
 20
70.5
 30
0.0
 11
59.39999999999997
 21
70.5
 31
0.0
  0
LINE
  5
2E6
330
6B
100
AcDbEntity
  8
0
100
AcDbLine
 10
57.5
 20
78.79089700000007
 30
0.0
 11
55.60000000000002
 21
75.5
 31
0.0
  0
LINE
  5
2E7
330
6B
100
AcDbEntity
  8
0
100
AcDbLine
 10
57.5
 20
78.79089700000007
 30
0.0
 11
59.39999999999997
 21
75.5
 31
0.0
  0
LINE
  5
2E8
330
6B
100
AcDbEntity
  8
0
100
AcDbLine
 10
55.60000000000002
 20
75.5
 30
0.0
 11
59.39999999999997
 21
75.5
 31
0.0
  0
LINE
  5
2E9
330
6B
100
AcDbEntity
  8
0
 62
     3
100
AcDbLine
 10
52.5
 20
85.0
 30
0.0
 11
138.5
 21
85.0
 31
0.0
  0
LINE
  5
2EA
330
6B
100
AcDbEntity
  8
0
 62
     3
100
AcDbLine
 10
52.5
 20
80.0
 30
0.0
 11
138.5
 21
80.0
 31
0.0
  0
LINE
  5
2EB
330
6B
100
AcDbEntity
  8
0
 62
     7
100
AcDbLine
 10
52.5
 20
75.0
 30
0.0
 11
138.5
 21
75.0
 31
0.0
  0
LINE
  5
2EC
330
6B
100
AcDbEntity
  8
0
 62
     3
100
AcDbLine
 10
52.5
 20
70.0
 30
0.0
 11
138.5
 21
70.0
 31
0.0
  0
LINE
  5
2ED
330
6B
100
AcDbEntity
  8
0
 62
     7
100
AcDbLine
 10
124.4999999999999
 20
70.0
 30
0.0
 11
124.5
 21
85.0
 31
0.0
  0
LINE
  5
2EE
330
6B
100
AcDbEntity
  8
0
 62
     7
100
AcDbLine
 10
80.5
 20
70.0
 30
0.0
 11
80.5
 21
85.0
 31
0.0
  0
LINE
  5
2EF
330
6B
100
AcDbEntity
  8
0
 62
     7
100
AcDbLine
 10
62.5
 20
70.0
 30
0.0
 11
62.5
 21
85.0
 31
0.0
  0
LINE
  5
2F0
330
6B
100
AcDbEntity
  8
0
 62
     3
100
AcDbLine
 10
52.5
 20
70.0
 30
0.0
 11
52.5
 21
90.0
 31
0.0
  0
TEXT
  5
42F
330
6B
100
AcDbEntity
  8
0
 62
     3
100
AcDbText
 10
72.61128022276409
 20
-79.14836533712014
 30
0.0
 40
3.2
  1
FREE
  7
高3.2
100
AcDbText
  0
LINE
  5
522
330
6B
100
AcDbEntity
  8
0
100
AcDbLine
 10
99.50151599999999
 20
36.05824699999999
 30
0.0
 11
97.654197
 21
35.123046
 31
0.0
  0
LINE
  5
523
330
6B
100
AcDbEntity
  8
0
100
AcDbLine
 10
97.654197
 20
35.123046
 30
0.0
 11
99.72162199999999
 21
35.009295
 31
0.0
  0
LINE
  5
526
330
6B
100
AcDbEntity
  8
0
100
AcDbLine
 10
-71.924257
 20
34.771402
 30
0.0
 11
-70.255351
 21
33.545865
 31
0.0
  0
LINE
  5
527
330
6B
100
AcDbEntity
  8
0
100
AcDbLine
 10
-70.255351
 20
33.545865
 30
0.0
 11
-71.08789699999999
 21
35.441664
 31
0.0
  0
LINE
  5
528
330
6B
100
AcDbEntity
  8
0
 62
     3
100
AcDbLine
 10
13.058606
 20
33.351236
 30
0.0
 11
14.043602
 21
31.477003
 31
0.0
  0
LINE
  5
529
330
6B
100
AcDbEntity
  8
0
 62
     3
100
AcDbLine
 10
14.043602
 20
31.477003
 30
0.0
 11
14.462894
 21
29.602456
 31
0.0
  0
LINE
  5
52A
330
6B
100
AcDbEntity
  8
0
 62
     3
100
AcDbLine
 10
14.462894
 20
29.602456
 30
0.0
 11
13.642601
 21
27.012314
 31
0.0
  0
LINE
  5
52B
330
6B
100
AcDbEntity
  8
0
 62
     3
100
AcDbLine
 10
13.642601
 20
27.012314
 30
0.0
 11
12.634054
 21
24.394386
 31
0.0
  0
LINE
  5
52C
330
6B
100
AcDbEntity
  8
0
 62
     3
100
AcDbLine
 10
12.634054
 20
24.394386
 30
0.0
 11
12.87782
 21
21.858547
 31
0.0
  0
LINE
  5
52D
330
6B
100
AcDbEntity
  8
0
 62
     3
100
AcDbLine
 10
12.87782
 20
21.858547
 30
0.0
 11
13.926618
 21
19.298039
 31
0.0
  0
LINE
  5
52E
330
6B
100
AcDbEntity
  8
0
 62
     3
100
AcDbLine
 10
15.91446
 20
32.631412
 30
0.0
 11
16.899456
 21
30.757179
 31
0.0
  0
LINE
  5
52F
330
6B
100
AcDbEntity
  8
0
 62
     3
100
AcDbLine
 10
16.899456
 20
30.757179
 30
0.0
 11
17.318748
 21
28.882633
 31
0.0
  0
LINE
  5
530
330
6B
100
AcDbEntity
  8
0
 62
     3
100
AcDbLine
 10
17.318748
 20
28.882633
 30
0.0
 11
16.498455
 21
26.292491
 31
0.0
  0
LINE
  5
531
330
6B
100
AcDbEntity
  8
0
 62
     3
100
AcDbLine
 10
16.498455
 20
26.292491
 30
0.0
 11
15.489908
 21
23.674562
 31
0.0
  0
LINE
  5
532
330
6B
100
AcDbEntity
  8
0
 62
     3
100
AcDbLine
 10
15.489908
 20
23.674562
 30
0.0
 11
15.733674
 21
21.138723
 31
0.0
  0
LINE
  5
533
330
6B
100
AcDbEntity
  8
0
 62
     3
100
AcDbLine
 10
15.733674
 20
21.138723
 30
0.0
 11
16.782472
 21
18.578216
 31
0.0
  0
LINE
  5
534
330
6B
100
AcDbEntity
  8
0
100
AcDbLine
 10
-81.014625
 20
16.951393
 30
0.0
 11
-81.014625
 21
-8.334222999999997
 31
0.0
  0
LINE
  5
535
330
6B
100
AcDbEntity
  8
0
100
AcDbLine
 10
97.989679
 20
12.483811
 30
0.0
 11
97.989679
 21
-8.334222999999997
 31
0.0
  0
LINE
  5
536
330
6B
100
AcDbEntity
  8
0
100
AcDbLine
 10
-78.514625
 20
-7.084222999999997
 30
0.0
 11
95.489679
 21
-7.084222999999997
 31
0.0
  0
TEXT
  5
53A
330
6B
100
AcDbEntity
  8
0
  6
Continuous
 62
     4
100
AcDbText
 10
1.887527000000003
 20
-6.459222999999997
 30
0.0
 40
3.0
  1
電線長さ
100
AcDbText
  0
LINE
  5
53B
330
6B
100
AcDbEntity
  8
0
  6
ByBlock
 62
     0
370
    -2
100
AcDbLine
 10
95.489679
 20
-6.414350499999997
 30
0.0
 11
97.989679
 21
-7.084222999999997
 31
0.0
  0
LINE
  5
53C
330
6B
100
AcDbEntity
  8
0
  6
ByBlock
 62
     0
370
    -2
100
AcDbLine
 10
97.989679
 20
-7.084222999999997
 30
0.0
 11
95.489679
 21
-7.754095499999998
 31
0.0
  0
LINE
  5
53D
330
6B
100
AcDbEntity
  8
0
  6
ByBlock
 62
     0
370
    -2
100
AcDbLine
 10
97.989679
 20
-7.084222999999997
 30
0.0
 11
95.489679
 21
-7.084222999999997
 31
0.0
  0
LINE
  5
53E
330
6B
100
AcDbEntity
  8
0
  6
ByBlock
 62
     0
370
    -2
100
AcDbLine
 10
-78.514625
 20
-7.754095499999998
 30
0.0
 11
-81.014625
 21
-7.084222999999997
 31
0.0
  0
LINE
  5
53F
330
6B
100
AcDbEntity
  8
0
  6
ByBlock
 62
     0
370
    -2
100
AcDbLine
 10
-81.014625
 20
-7.084222999999997
 30
0.0
 11
-78.514625
 21
-6.414350499999998
 31
0.0
  0
LINE
  5
540
330
6B
100
AcDbEntity
  8
0
  6
ByBlock
 62
     0
370
    -2
100
AcDbLine
 10
-81.014625
 20
-7.084222999999997
 30
0.0
 11
-78.514625
 21
-7.084222999999997
 31
0.0
  0
ENDSEC
  0
SECTION
  2
OBJECTS
  0
DICTIONARY
  5
C
330
0
100
AcDbDictionary
281
     1
  3
ACAD_2007HEADERVARS_RT
350
544
  3
ACAD_COLOR
350
62
  3
ACAD_GROUP
350
D
  3
ACAD_LAYOUT
350
61
  3
ACAD_MATERIAL
350
10
  3
ACAD_MLEADERSTYLE
350
65
  3
ACAD_MLINESTYLE
350
5E
  3
ACAD_PLOTSETTINGS
350
60
  3
ACAD_PLOTSTYLENAME
350
E
  3
ACAD_SCALELIST
350
42
  3
ACAD_TABLESTYLE
350
63
  3
ACAD_VISUALSTYLE
350
29
  3
ACDB_RECOMPOSE_DATA
350
542
  3
AcDbVariableDictionary
350
43A
  3
DWGPROPS
350
543
  0
DICTIONARY
  5
2A7
330
2
100
AcDbDictionary
280
     1
281
     1
  3
ACAD_LAYERSTATES
360
2A8
  0
DICTIONARY
  5
438
330
54
100
AcDbDictionary
280
     1
281
     1
  3
ADSK_XREC_LAYER_RECONCILED
360
439
  0
DICTIONARY
  5
524
330
6B
100
AcDbDictionary
280
     1
281
     1
  3
ACAD_SORTENTS
360
525
  0
DICTIONARY
  5
544
102
{ACAD_REACTORS
330
C
102
}
330
C
100
AcDbDictionary
281
     1
  3
DIMARCSYM
350
546
  3
DIMFXL
350
545
  3
DIMJOGANG
350
547
  0
DICTIONARY
  5
62
102
{ACAD_REACTORS
330
C
102
}
330
C
100
AcDbDictionary
281
     1
  0
DICTIONARY
  5
D
102
{ACAD_REACTORS
330
C
102
}
330
C
100
AcDbDictionary
281
     1
  0
DICTIONARY
  5
61
102
{ACAD_REACTORS
330
C
102
}
330
C
100
AcDbDictionary
281
     1
  3
Model
350
6E
  3
レイアウト1
350
6A
  0
DICTIONARY
  5
10
102
{ACAD_REACTORS
330
C
102
}
330
C
100
AcDbDictionary
281
     1
  3
ByBlock
350
19
  3
ByLayer
350
11
  3
Global
350
21
  0
DICTIONARY
  5
65
102
{ACAD_REACTORS
330
C
102
}
330
C
100
AcDbDictionary
281
     1
  3
Standard
350
66
  0
DICTIONARY
  5
5E
102
{ACAD_REACTORS
330
C
102
}
330
C
100
AcDbDictionary
281
     1
  3
Standard
350
5F
  0
DICTIONARY
  5
60
102
{ACAD_REACTORS
330
C
102
}
330
C
100
AcDbDictionary
281
     1
  0
ACDBDICTIONARYWDFLT
  5
E
102
{ACAD_REACTORS
330
C
102
}
330
C
100
AcDbDictionary
281
     1
  3
Normal
350
F
100
AcDbDictionaryWithDefault
340
F
  0
DICTIONARY
  5
42
102
{ACAD_REACTORS
330
C
102
}
330
C
100
AcDbDictionary
281
     1
  3
A0
350
43
  3
A1
350
44
  3
A2
350
45
  3
A3
350
46
  3
A4
350
47
  3
A5
350
48
  3
A6
350
49
  3
A7
350
4A
  3
A8
350
4B
  3
A9
350
4C
  3
B0
350
4D
  3
B1
350
4E
  3
B2
350
4F
  3
B3
350
50
  3
B4
350
51
  3
B5
350
52
  3
B6
350
53
  0
DICTIONARY
  5
63
102
{ACAD_REACTORS
330
C
102
}
330
C
100
AcDbDictionary
281
     1
  3
Standard
350
64
  0
DICTIONARY
  5
29
102
{ACAD_REACTORS
330
C
102
}
330
C
100
AcDbDictionary
281
     1
  3
2dWireframe
350
2F
  3
3dWireframe
350
2A4
  3
Basic
350
2E
  3
Brighten
350
35
  3
ColorChange
350
39
  3
Conceptual
350
32
  3
Dim
350
34
  3
EdgeColorOff
350
41
  3
Facepattern
350
38
  3
Flat
350
2A
  3
FlatWithEdges
350
2B
  3
Gouraud
350
2C
  3
GouraudWithEdges
350
2D
  3
Hidden
350
31
  3
JitterOff
350
3F
  3
Linepattern
350
37
  3
OverhangOff
350
40
  3
Realistic
350
33
  3
Shaded
350
3E
  3
Shaded with edges
350
3D
  3
Shades of Gray
350
3A
  3
Sketchy
350
3B
  3
Thicken
350
36
  3
Wireframe
350
30
  3
X-Ray
350
3C
  0
XRECORD
  5
542
102
{ACAD_REACTORS
330
C
102
}
330
C
100
AcDbXrecord
280
     1
 90
        1
330
64
  0
DICTIONARY
  5
43A
102
{ACAD_REACTORS
330
C
102
}
330
C
100
AcDbDictionary
281
     1
  3
CANNOSCALE
350
43D
  3
CMLEADERSTYLE
350
43C
  3
CTABLESTYLE
350
43B
  3
DIMASSOC
350
440
  3
INDEXCTL
350
43F
  3
SORTENTS
350
43E
  3
XCLIPFRAME
350
4E3
  0
XRECORD
  5
543
102
{ACAD_REACTORS
330
C
102
}
330
C
100
AcDbXrecord
280
     1
  1
DWGPROPS COOKIE
  2

  3

  4

  6

  7

  8
imamura
  9

300
=
301
=
302
=
303
=
304
=
305
=
306
=
307
=
308
=
309
=
 40
0.0977272337962963
 41
2456332.398627674
 42
2457126.695269121
  1

 90
        0
  0
DICTIONARY
  5
2A8
102
{ACAD_REACTORS
330
2A7
102
}
330
2A7
100
AcDbDictionary
281
     1
  0
XRECORD
  5
439
102
{ACAD_REACTORS
330
438
102
}
330
438
100
AcDbXrecord
280
     1
290
     1
  0
SORTENTSTABLE
  5
525
102
{ACAD_REACTORS
330
524
102
}
330
524
100
AcDbSortentsTable
330
6B
331
1E9
  5
2E6
331
1D8
  5
1F4
331
157
  5
172
331
135
  5
159
331
124
  5
131
331
113
  5
120
331
168
  5
183
331
AF
  5
C0
331
179
  5
194
331
C0
  5
E4
331
2E4
  5
533
331
194
  5
1AF
331
103
  5
110
331
F2
  5
FF
331
E1
  5
EE
331
1A5
  5
1C5
331
1C7
  5
1E3
331
526
  5
170
331
1EA
  5
2E7
331
1C8
  5
1E4
331
158
  5
173
331
136
  5
15A
331
125
  5
132
331
114
  5
121
331
169
  5
184
331
B0
  5
C1
331
17A
  5
195
331
C1
  5
E5
331
2E5
  5
534
331
195
  5
1B0
331
104
  5
111
331
F3
  5
100
331
E2
  5
EF
331
1A6
  5
1C6
331
1B7
  5
1D2
331
527
  5
171
331
1FC
  5
528
331
1EB
  5
2E8
331
1DA
  5
1F5
331
1C9
  5
1E5
331
1B8
  5
1D3
331
528
  5
163
331
159
  5
174
331
137
  5
15B
331
126
  5
133
331
115
  5
122
331
16A
  5
185
331
17B
  5
196
331
C2
  5
E6
331
2E6
  5
535
331
196
  5
1B1
331
105
  5
112
331
F4
  5
101
331
E3
  5
F0
331
B1
  5
C2
331
1A7
  5
1C7
331
1A8
  5
1C8
331
1B9
  5
1D4
331
529
  5
164
331
1FD
  5
529
331
1EC
  5
2E9
331
1DB
  5
1F6
331
1CA
  5
1E6
331
53A
  5
B1
331
15A
  5
175
331
138
  5
15C
331
127
  5
134
331
116
  5
123
331
16B
  5
186
331
17C
  5
197
331
C3
  5
E7
331
B2
  5
C3
331
2E7
  5
536
331
197
  5
1B7
331
106
  5
113
331
F5
  5
102
331
E4
  5
F1
331
2E8
  5
537
331
198
  5
1B8
331
1A9
  5
1C9
331
1BA
  5
1D5
331
52A
  5
165
331
1FE
  5
52A
331
1ED
  5
2EA
331
1DC
  5
1FC
331
1CB
  5
1E7
331
53B
  5
AE
331
16C
  5
187
331
15B
  5
176
331
128
  5
135
331
17D
  5
198
331
C4
  5
E8
331
117
  5
124
331
107
  5
114
331
F6
  5
103
331
E5
  5
F2
331
188
  5
1A3
331
2E9
  5
538
331
199
  5
1B9
331
108
  5
115
331
1AA
  5
1CA
331
1BB
  5
1D6
331
52B
  5
166
331
1EE
  5
2EB
331
1DD
  5
1FD
331
1CC
  5
1E8
331
53C
  5
AF
331
16D
  5
188
331
15C
  5
177
331
14B
  5
169
331
129
  5
136
331
17E
  5
199
331
C5
  5
E9
331
F7
  5
104
331
E6
  5
F3
331
118
  5
125
331
189
  5
1A4
331
F8
  5
105
331
2EA
  5
539
331
19A
  5
1BA
331
109
  5
116
331
1AB
  5
1CB
331
1BC
  5
1D7
331
52C
  5
167
331
1EF
  5
2EC
331
1DE
  5
1FE
331
1CD
  5
1E9
331
53D
  5
B0
331
16E
  5
189
331
15D
  5
178
331
14C
  5
16A
331
12A
  5
137
331
17F
  5
19A
331
C6
  5
EA
331
E7
  5
F4
331
119
  5
126
331
180
  5
19B
331
18A
  5
1A5
331
F9
  5
106
331
E8
  5
F5
331
2EB
  5
53A
331
19B
  5
1BB
331
10A
  5
117
331
1AC
  5
1CC
331
1BD
  5
1D8
331
52D
  5
168
331
1F0
  5
2ED
331
1DF
  5
2DC
331
1CE
  5
1EA
331
16F
  5
18A
331
15E
  5
179
331
14D
  5
16B
331
12B
  5
138
331
11A
  5
127
331
C7
  5
EB
331
53E
  5
AB
331
170
  5
18B
331
181
  5
19C
331
C8
  5
EC
331
18B
  5
1A6
331
FA
  5
107
331
E9
  5
F6
331
2EC
  5
53B
331
19C
  5
1BC
331
10B
  5
118
331
1AD
  5
1CD
331
1BE
  5
1DA
331
1F1
  5
2EE
331
1E0
  5
2DD
331
1CF
  5
1EB
331
53F
  5
AC
331
15F
  5
17A
331
14E
  5
16C
331
12C
  5
14B
331
11B
  5
128
331
B7
  5
C4
331
52E
  5
15D
331
160
  5
17B
331
182
  5
19D
331
171
  5
18C
331
B8
  5
C5
331
18C
  5
1A7
331
FB
  5
108
331
EA
  5
F7
331
2DC
  5
52B
331
10C
  5
119
331
2ED
  5
53C
331
19D
  5
1BD
331
1BF
  5
1DB
331
52F
  5
15E
331
1F2
  5
2EF
331
1E1
  5
2DE
331
1D0
  5
1EC
331
14F
  5
16D
331
12D
  5
14C
331
11C
  5
129
331
A3
  5
B2
331
540
  5
AD
331
1AE
  5
1CE
331
150
  5
16E
331
161
  5
17C
331
A8
  5
B9
331
183
  5
19E
331
172
  5
18D
331
B9
  5
C6
331
18D
  5
1A8
331
FC
  5
109
331
EB
  5
F8
331
2DD
  5
52C
331
10D
  5
11A
331
2EE
  5
53D
331
42F
  5
540
331
1AF
  5
1CF
331
1F3
  5
2F0
331
1E2
  5
2DF
331
1D1
  5
1ED
331
1C0
  5
1DC
331
12E
  5
14D
331
11D
  5
12A
331
530
  5
15F
331
19E
  5
1BE
331
151
  5
16F
331
162
  5
17D
331
A9
  5
BA
331
184
  5
19F
331
173
  5
18E
331
BA
  5
C7
331
18E
  5
1A9
331
FD
  5
10A
331
EC
  5
F9
331
2DE
  5
52D
331
10E
  5
11B
331
2EF
  5
53E
331
1B0
  5
1D0
331
1F4
  5
42F
331
1E3
  5
2E0
331
1D2
  5
1EE
331
1C1
  5
1DD
331
12F
  5
14E
331
11E
  5
12B
331
A5
  5
B7
331
531
  5
160
331
19F
  5
1BF
331
130
  5
14F
331
163
  5
17E
331
AA
  5
BB
331
185
  5
1A0
331
174
  5
18F
331
BB
  5
C8
331
18F
  5
1AA
331
FE
  5
10B
331
ED
  5
FA
331
2DF
  5
52E
331
10F
  5
11C
331
2F0
  5
53F
331
1B1
  5
1D1
331
1F5
  5
522
331
1E4
  5
2E1
331
1D3
  5
1EF
331
1C2
  5
1DE
331
11F
  5
12C
331
532
  5
161
331
1A0
  5
1C0
331
131
  5
150
331
120
  5
12D
331
164
  5
17F
331
AB
  5
BC
331
186
  5
1A1
331
175
  5
190
331
BC
  5
E0
331
2E0
  5
52F
331
190
  5
1AB
331
FF
  5
10C
331
EE
  5
FB
331
522
  5
526
331
1A1
  5
1C1
331
1F6
  5
523
331
1E5
  5
2E2
331
1D4
  5
1F0
331
1C3
  5
1DF
331
A7
  5
B8
331
533
  5
162
331
132
  5
151
331
121
  5
12E
331
110
  5
11D
331
165
  5
180
331
AC
  5
BD
331
187
  5
1A2
331
176
  5
191
331
BD
  5
E1
331
2E1
  5
530
331
191
  5
1AC
331
100
  5
10D
331
EF
  5
FC
331
523
  5
527
331
1A2
  5
1C2
331
1E6
  5
2E3
331
1D5
  5
1F1
331
1C4
  5
1E0
331
534
  5
A3
331
133
  5
157
331
122
  5
12F
331
111
  5
11E
331
166
  5
181
331
AD
  5
BE
331
177
  5
192
331
BE
  5
E2
331
2E2
  5
531
331
192
  5
1AD
331
101
  5
10E
331
F0
  5
FD
331
1A3
  5
1C3
331
1E7
  5
2E4
331
1D6
  5
1F2
331
1C5
  5
1E1
331
535
  5
A5
331
1E8
  5
2E5
331
134
  5
158
331
123
  5
130
331
112
  5
11F
331
167
  5
182
331
AE
  5
BF
331
178
  5
193
331
BF
  5
E3
331
2E3
  5
532
331
193
  5
1AE
331
102
  5
10F
331
F1
  5
FE
331
E0
  5
ED
331
1A4
  5
1C4
331
1D7
  5
1F3
331
1C6
  5
1E2
331
536
  5
A7
  0
XRECORD
  5
546
102
{ACAD_REACTORS
330
544
102
}
330
544
100
AcDbXrecord
280
     1
 70
     2
  0
XRECORD
  5
545
102
{ACAD_REACTORS
330
544
102
}
330
544
100
AcDbXrecord
280
     1
 40
1.25
  0
XRECORD
  5
547
102
{ACAD_REACTORS
330
544
102
}
330
544
100
AcDbXrecord
280
     1
 40
1.570796326794896
  0
LAYOUT
  5
6E
102
{ACAD_XDICTIONARY
360
57B
102
}
102
{ACAD_REACTORS
330
61
102
}
330
61
100
AcDbPlotSettings
  1

  2
FX DP 205
  4

  6

 40
0.0
 41
0.0
 42
0.0
 43
0.0
 44
0.0
 45
0.0
 46
0.0
 47
0.0
 48
0.0
 49
0.0
140
0.0
141
0.0
142
1.0
143
1.0
 70
  1712
 72
     0
 73
     0
 74
     0
  7

 75
     0
147
1.0
148
0.0
149
0.0
100
AcDbLayout
  1
Model
 70
     1
 71
     0
 10
0.0
 20
0.0
 11
12.0
 21
9.0
 12
0.0
 22
0.0
 32
0.0
 14
0.0
 24
0.0
 34
0.0
 15
0.0
 25
0.0
 35
0.0
146
0.0
 13
0.0
 23
0.0
 33
0.0
 16
1.0
 26
0.0
 36
0.0
 17
0.0
 27
1.0
 37
0.0
 76
     0
330
6B
331
8B
  0
LAYOUT
  5
6A
102
{ACAD_XDICTIONARY
360
579
102
}
102
{ACAD_REACTORS
330
61
102
}
330
61
100
AcDbPlotSettings
  1

  2
FX DP 205
  4

  6

 40
0.0
 41
0.0
 42
0.0
 43
0.0
 44
0.0
 45
0.0
 46
0.0
 47
0.0
 48
0.0
 49
0.0
140
0.0
141
0.0
142
1.0
143
1.0
 70
   688
 72
     0
 73
     0
 74
     5
  7

 75
    16
147
1.0
148
0.0
149
0.0
100
AcDbLayout
  1
レイアウト1
 70
     1
 71
     1
 10
0.0
 20
0.0
 11
12.0
 21
9.0
 12
0.0
 22
0.0
 32
0.0
 14
1.000000000000000E+20
 24
1.000000000000000E+20
 34
1.000000000000000E+20
 15
-1.000000000000000E+20
 25
-1.000000000000000E+20
 35
-1.000000000000000E+20
146
0.0
 13
0.0
 23
0.0
 33
0.0
 16
1.0
 26
0.0
 36
0.0
 17
0.0
 27
1.0
 37
0.0
 76
     0
330
67
  0
MATERIAL
  5
19
102
{ACAD_XDICTIONARY
360
1A
102
}
102
{ACAD_REACTORS
330
10
102
}
330
10
100
AcDbMaterial
  1
ByBlock
 72
     0
 43
0.0208333333333333
 43
0.0
 43
0.0
 43
0.0
 43
0.0
 43
0.0208333333333333
 43
0.0
 43
0.0
 43
0.0
 43
0.0
 43
1.0
 43
0.0
 43
0.0
 43
0.0
 43
0.0
 43
1.0
 77
     0
 47
0.0208333333333333
 47
0.0
 47
0.0
 47
0.0
 47
0.0
 47
0.0208333333333333
 47
0.0
 47
0.0
 47
0.0
 47
0.0
 47
1.0
 47
0.0
 47
0.0
 47
0.0
 47
0.0
 47
1.0
171
     0
 49
0.0208333333333333
 49
0.0
 49
0.0
 49
0.0
 49
0.0
 49
0.0208333333333333
 49
0.0
 49
0.0
 49
0.0
 49
0.0
 49
1.0
 49
0.0
 49
0.0
 49
0.0
 49
0.0
 49
1.0
175
     0
142
0.0208333333333333
142
0.0
142
0.0
142
0.0
142
0.0
142
0.0208333333333333
142
0.0
142
0.0
142
0.0
142
0.0
142
1.0
142
0.0
142
0.0
142
0.0
142
0.0
142
1.0
179
     0
144
0.0208333333333333
144
0.0
144
0.0
144
0.0
144
0.0
144
0.0208333333333333
144
0.0
144
0.0
144
0.0
144
0.0
144
1.0
144
0.0
144
0.0
144
0.0
144
0.0
144
1.0
147
0.0208333333333333
147
0.0
147
0.0
147
0.0
147
0.0
147
0.0208333333333333
147
0.0
147
0.0
147
0.0
147
0.0
147
1.0
147
0.0
147
0.0
147
0.0
147
0.0
147
1.0
  0
MATERIAL
  5
11
102
{ACAD_XDICTIONARY
360
12
102
}
102
{ACAD_REACTORS
330
10
102
}
330
10
100
AcDbMaterial
  1
ByLayer
 72
     0
 43
0.0208333333333333
 43
0.0
 43
0.0
 43
0.0
 43
0.0
 43
0.0208333333333333
 43
0.0
 43
0.0
 43
0.0
 43
0.0
 43
1.0
 43
0.0
 43
0.0
 43
0.0
 43
0.0
 43
1.0
 77
     0
 47
0.0208333333333333
 47
0.0
 47
0.0
 47
0.0
 47
0.0
 47
0.0208333333333333
 47
0.0
 47
0.0
 47
0.0
 47
0.0
 47
1.0
 47
0.0
 47
0.0
 47
0.0
 47
0.0
 47
1.0
171
     0
 49
0.0208333333333333
 49
0.0
 49
0.0
 49
0.0
 49
0.0
 49
0.0208333333333333
 49
0.0
 49
0.0
 49
0.0
 49
0.0
 49
1.0
 49
0.0
 49
0.0
 49
0.0
 49
0.0
 49
1.0
175
     0
142
0.0208333333333333
142
0.0
142
0.0
142
0.0
142
0.0
142
0.0208333333333333
142
0.0
142
0.0
142
0.0
142
0.0
142
1.0
142
0.0
142
0.0
142
0.0
142
0.0
142
1.0
179
     0
144
0.0208333333333333
144
0.0
144
0.0
144
0.0
144
0.0
144
0.0208333333333333
144
0.0
144
0.0
144
0.0
144
0.0
144
1.0
144
0.0
144
0.0
144
0.0
144
0.0
144
1.0
147
0.0208333333333333
147
0.0
147
0.0
147
0.0
147
0.0
147
0.0208333333333333
147
0.0
147
0.0
147
0.0
147
0.0
147
1.0
147
0.0
147
0.0
147
0.0
147
0.0
147
1.0
  0
MATERIAL
  5
21
102
{ACAD_XDICTIONARY
360
22
102
}
102
{ACAD_REACTORS
330
10
102
}
330
10
100
AcDbMaterial
  1
Global
 72
     0
 43
0.0208333333333333
 43
0.0
 43
0.0
 43
0.0
 43
0.0
 43
0.0208333333333333
 43
0.0
 43
0.0
 43
0.0
 43
0.0
 43
1.0
 43
0.0
 43
0.0
 43
0.0
 43
0.0
 43
1.0
 77
     0
 47
0.0208333333333333
 47
0.0
 47
0.0
 47
0.0
 47
0.0
 47
0.0208333333333333
 47
0.0
 47
0.0
 47
0.0
 47
0.0
 47
1.0
 47
0.0
 47
0.0
 47
0.0
 47
0.0
 47
1.0
171
     0
 49
0.0208333333333333
 49
0.0
 49
0.0
 49
0.0
 49
0.0
 49
0.0208333333333333
 49
0.0
 49
0.0
 49
0.0
 49
0.0
 49
1.0
 49
0.0
 49
0.0
 49
0.0
 49
0.0
 49
1.0
175
     0
142
0.0208333333333333
142
0.0
142
0.0
142
0.0
142
0.0
142
0.0208333333333333
142
0.0
142
0.0
142
0.0
142
0.0
142
1.0
142
0.0
142
0.0
142
0.0
142
0.0
142
1.0
179
     0
144
0.0208333333333333
144
0.0
144
0.0
144
0.0
144
0.0
144
0.0208333333333333
144
0.0
144
0.0
144
0.0
144
0.0
144
1.0
144
0.0
144
0.0
144
0.0
144
0.0
144
1.0
147
0.0208333333333333
147
0.0
147
0.0
147
0.0
147
0.0
147
0.0208333333333333
147
0.0
147
0.0
147
0.0
147
0.0
147
1.0
147
0.0
147
0.0
147
0.0
147
0.0
147
1.0
  0
MLEADERSTYLE
  5
66
102
{ACAD_REACTORS
330
65
102
}
330
65
100
AcDbMLeaderStyle
170
     2
171
     1
172
     0
 90
        2
 40
0.0
 41
0.0
173
     1
 91
-1056964608
340
5A
 92
       -2
290
     1
 42
0.09
291
     1
 43
0.36
  3
Standard
 44
0.18
300

342
55
174
     1
178
     6
175
     1
176
     0
 93
-1056964608
 45
0.18
292
     0
297
     0
 46
0.18
 94
-1056964608
 47
1.0
 49
1.0
140
1.0
293
     1
141
0.0
294
     1
177
     0
142
1.0
295
     0
296
     0
143
0.125
1001
ACAD_MLEADERVER
1070
     2
  0
MLINESTYLE
  5
5F
102
{ACAD_REACTORS
330
5E
102
}
330
5E
100
AcDbMlineStyle
  2
STANDARD
 70
     0
  3

 62
   256
 51
90.0
 52
90.0
 71
     2
 49
0.5
 62
   256
  6
BYLAYER
 49
-0.5
 62
   256
  6
BYLAYER
  0
ACDBPLACEHOLDER
  5
F
102
{ACAD_REACTORS
330
E
102
}
330
E
  0
SCALE
  5
43
102
{ACAD_REACTORS
330
42
102
}
330
42
100
AcDbScale
 70
     0
300
1:1
140
1.0
141
1.0
290
     1
  0
SCALE
  5
44
102
{ACAD_REACTORS
330
42
102
}
330
42
100
AcDbScale
 70
     0
300
1/128" = 1'-0"
140
0.0078125
141
12.0
290
     0
  0
SCALE
  5
45
102
{ACAD_REACTORS
330
42
102
}
330
42
100
AcDbScale
 70
     0
300
1/64" = 1'-0"
140
0.015625
141
12.0
290
     0
  0
SCALE
  5
46
102
{ACAD_REACTORS
330
42
102
}
330
42
100
AcDbScale
 70
     0
300
1/32" = 1'-0"
140
0.03125
141
12.0
290
     0
  0
SCALE
  5
47
102
{ACAD_REACTORS
330
42
102
}
330
42
100
AcDbScale
 70
     0
300
1/16" = 1'-0"
140
0.0625
141
12.0
290
     0
  0
SCALE
  5
48
102
{ACAD_REACTORS
330
42
102
}
330
42
100
AcDbScale
 70
     0
300
3/32" = 1'-0"
140
0.09375
141
12.0
290
     0
  0
SCALE
  5
49
102
{ACAD_REACTORS
330
42
102
}
330
42
100
AcDbScale
 70
     0
300
1/8" = 1'-0"
140
0.125
141
12.0
290
     0
  0
SCALE
  5
4A
102
{ACAD_REACTORS
330
42
102
}
330
42
100
AcDbScale
 70
     0
300
3/16" = 1'-0"
140
0.1875
141
12.0
290
     0
  0
SCALE
  5
4B
102
{ACAD_REACTORS
330
42
102
}
330
42
100
AcDbScale
 70
     0
300
1/4" = 1'-0"
140
0.25
141
12.0
290
     0
  0
SCALE
  5
4C
102
{ACAD_REACTORS
330
42
102
}
330
42
100
AcDbScale
 70
     0
300
3/8" = 1'-0"
140
0.375
141
12.0
290
     0
  0
SCALE
  5
4D
102
{ACAD_REACTORS
330
42
102
}
330
42
100
AcDbScale
 70
     0
300
1/2" = 1'-0"
140
0.5
141
12.0
290
     0
  0
SCALE
  5
4E
102
{ACAD_REACTORS
330
42
102
}
330
42
100
AcDbScale
 70
     0
300
3/4" = 1'-0"
140
0.75
141
12.0
290
     0
  0
SCALE
  5
4F
102
{ACAD_REACTORS
330
42
102
}
330
42
100
AcDbScale
 70
     0
300
1" = 1'-0"
140
1.0
141
12.0
290
     0
  0
SCALE
  5
50
102
{ACAD_REACTORS
330
42
102
}
330
42
100
AcDbScale
 70
     0
300
1-1/2" = 1'-0"
140
1.5
141
12.0
290
     0
  0
SCALE
  5
51
102
{ACAD_REACTORS
330
42
102
}
330
42
100
AcDbScale
 70
     0
300
3" = 1'-0"
140
3.0
141
12.0
290
     0
  0
SCALE
  5
52
102
{ACAD_REACTORS
330
42
102
}
330
42
100
AcDbScale
 70
     0
300
6" = 1'-0"
140
6.0
141
12.0
290
     0
  0
SCALE
  5
53
102
{ACAD_REACTORS
330
42
102
}
330
42
100
AcDbScale
 70
     0
300
1'-0" = 1'-0"
140
12.0
141
12.0
290
     0
  0
TABLESTYLE
  5
64
102
{ACAD_XDICTIONARY
360
442
102
}
102
{ACAD_REACTORS
330
63
102
}
330
63
100
AcDbTableStyle
  3
Standard
 70
     0
 71
     0
 40
0.06
 41
0.06
280
     0
281
     0
  7
STANDARD
140
0.18
170
     2
 62
     0
 63
     7
283
     0
274
    -2
284
     1
 64
     0
275
    -2
285
     1
 65
     0
276
    -2
286
     1
 66
     0
277
    -2
287
     1
 67
     0
278
    -2
288
     1
 68
     0
279
    -2
289
     1
 69
     0
  7
STANDARD
140
0.25
170
     5
 62
     0
 63
     7
283
     0
274
    -2
284
     1
 64
     0
275
    -2
285
     1
 65
     0
276
    -2
286
     1
 66
     0
277
    -2
287
     1
 67
     0
278
    -2
288
     1
 68
     0
279
    -2
289
     1
 69
     0
  7
STANDARD
140
0.18
170
     5
 62
     0
 63
     7
283
     0
274
    -2
284
     1
 64
     0
275
    -2
285
     1
 65
     0
276
    -2
286
     1
 66
     0
277
    -2
287
     1
 67
     0
278
    -2
288
     1
 68
     0
279
    -2
289
     1
 69
     0
  0
VISUALSTYLE
  5
2F
102
{ACAD_XDICTIONARY
360
552
102
}
102
{ACAD_REACTORS
330
29
102
}
330
29
100
AcDbVisualStyle
  2

 70
     4
 71
     0
 72
     2
 73
     0
 90
        0
 40
-0.6
 41
-30.0
 62
     5
 63
     7
 74
     1
 91
        4
 64
     7
 65
   257
 75
     1
175
     1
 42
1.0
 92
        0
 66
   257
 43
1.0
 76
     1
 77
     6
 78
     2
 67
     7
 79
     5
170
     0
171
     0
290
     0
174
     0
 93
        1
 44
0.0
173
     0
291
     0
 45
0.0
1001
ACAD
1000
AcDbSavedByObjectVersion
1070
     0
  0
VISUALSTYLE
  5
2A4
102
{ACAD_XDICTIONARY
360
57D
102
}
102
{ACAD_REACTORS
330
29
102
}
330
29
100
AcDbVisualStyle
  2

 70
     5
 71
     0
 72
     2
 73
     1
 90
        0
 40
-0.6
 41
-30.0
 62
     5
 63
     7
 74
     1
 91
        4
 64
     7
 65
   257
 75
     1
175
     1
 42
1.0
 92
        0
 66
   257
 43
1.0
 76
     1
 77
     6
 78
     2
 67
     7
 79
     5
170
     0
171
     0
290
     0
174
     0
 93
        1
 44
0.0
173
     0
291
     0
 45
0.0
1001
ACAD
1000
AcDbSavedByObjectVersion
1070
     0
  0
VISUALSTYLE
  5
2E
102
{ACAD_XDICTIONARY
360
550
102
}
102
{ACAD_REACTORS
330
29
102
}
330
29
100
AcDbVisualStyle
  2

 70
     7
 71
     1
 72
     0
 73
     1
 90
        0
 40
-0.6
 41
-30.0
 62
     5
 63
     7
 74
     0
 91
        4
 64
     7
 65
   257
 75
     1
175
     1
 42
1.0
 92
        8
 66
     7
 43
1.0
 76
     1
 77
     6
 78
     2
 67
     7
 79
     5
170
     0
171
     0
290
     0
174
     0
 93
        1
 44
0.0
173
     0
291
     1
 45
0.0
1001
ACAD
1000
AcDbSavedByObjectVersion
1070
     0
  0
VISUALSTYLE
  5
35
102
{ACAD_XDICTIONARY
360
55E
102
}
102
{ACAD_REACTORS
330
29
102
}
330
29
100
AcDbVisualStyle
  2

 70
    12
 71
     2
 72
     2
 73
     0
 90
        0
 40
-0.6
 41
-30.0
 62
     5
 63
     7
 74
     1
 91
        4
 64
     7
 65
   257
 75
     1
175
     1
 42
1.0
 92
        8
 66
     7
 43
1.0
 76
     1
 77
     6
 78
     2
 67
     7
 79
     5
170
     0
171
     0
290
     0
174
     0
 93
        1
 44
50.0
173
     0
291
     1
 45
0.0
1001
ACAD
1000
AcDbSavedByObjectVersion
1070
     0
  0
VISUALSTYLE
  5
39
102
{ACAD_XDICTIONARY
360
566
102
}
102
{ACAD_REACTORS
330
29
102
}
330
29
100
AcDbVisualStyle
  2

 70
    16
 71
     2
 72
     2
 73
     3
 90
        0
 40
-0.6
 41
-30.0
 62
     5
 63
     8
 74
     1
 91
        4
 64
     7
 65
   257
 75
     1
175
     1
 42
1.0
 92
        8
 66
     8
 43
1.0
 76
     1
 77
     6
 78
     2
 67
     7
 79
     5
170
     0
171
     0
290
     0
174
     0
 93
        1
 44
0.0
173
     0
291
     1
 45
0.0
1001
ACAD
1000
AcDbSavedByObjectVersion
1070
     0
  0
VISUALSTYLE
  5
32
102
{ACAD_XDICTIONARY
360
558
102
}
102
{ACAD_REACTORS
330
29
102
}
330
29
100
AcDbVisualStyle
  2

 70
     9
 71
     3
 72
     2
 73
     0
 90
        0
 40
-0.6
 41
-30.0
 62
     5
 63
     7
 74
     2
 91
        2
 64
     7
 65
   257
 75
     1
175
     1
 42
179.0
 92
        8
 66
     7
 43
1.0
 76
     1
 77
     6
 78
     2
 67
     7
 79
     3
170
     0
171
     0
290
     0
174
     0
 93
        1
 44
0.0
173
     0
291
     0
 45
0.0
1001
ACAD
1000
AcDbSavedByObjectVersion
1070
     0
  0
VISUALSTYLE
  5
34
102
{ACAD_XDICTIONARY
360
55C
102
}
102
{ACAD_REACTORS
330
29
102
}
330
29
100
AcDbVisualStyle
  2

 70
    11
 71
     2
 72
     2
 73
     0
 90
        0
 40
-0.6
 41
-30.0
 62
     5
 63
     7
 74
     1
 91
        4
 64
     7
 65
   257
 75
     1
175
     1
 42
1.0
 92
        8
 66
     7
 43
1.0
 76
     1
 77
     6
 78
     2
 67
     7
 79
     5
170
     0
171
     0
290
     0
174
     0
 93
        1
 44
-50.0
173
     0
291
     1
 45
0.0
1001
ACAD
1000
AcDbSavedByObjectVersion
1070
     0
  0
VISUALSTYLE
  5
41
102
{ACAD_XDICTIONARY
360
576
102
}
102
{ACAD_REACTORS
330
29
102
}
330
29
100
AcDbVisualStyle
  2

 70
    22
 71
     2
 72
     2
 73
     0
 90
        0
 40
-0.6
 41
-30.0
 62
     5
 63
     7
 74
     1
 91
        4
 64
     7
 65
   257
 75
     1
175
     1
 42
1.0
 92
        8
 66
     7
 43
1.0
 76
     1
 77
     6
 78
     2
 67
     7
 79
     5
170
     0
171
     0
290
     0
174
     0
 93
        1
 44
0.0
173
     0
291
     1
 45
0.0
1001
ACAD
1000
AcDbSavedByObjectVersion
1070
     0
  0
VISUALSTYLE
  5
38
102
{ACAD_XDICTIONARY
360
564
102
}
102
{ACAD_REACTORS
330
29
102
}
330
29
100
AcDbVisualStyle
  2

 70
    15
 71
     2
 72
     2
 73
     0
 90
        0
 40
-0.6
 41
-30.0
 62
     5
 63
     7
 74
     1
 91
        4
 64
     7
 65
   257
 75
     1
175
     1
 42
1.0
 92
        8
 66
     7
 43
1.0
 76
     1
 77
     6
 78
     2
 67
     7
 79
     5
170
     0
171
     0
290
     0
174
     0
 93
        1
 44
0.0
173
     0
291
     1
 45
0.0
1001
ACAD
1000
AcDbSavedByObjectVersion
1070
     0
  0
VISUALSTYLE
  5
2A
102
{ACAD_XDICTIONARY
360
548
102
}
102
{ACAD_REACTORS
330
29
102
}
330
29
100
AcDbVisualStyle
  2

 70
     0
 71
     2
 72
     1
 73
     1
 90
        2
 40
-0.6
 41
30.0
 62
     5
 63
     7
 74
     0
 91
        0
 64
     7
 65
   257
 75
     1
175
     1
 42
1.0
 92
        8
 66
     7
 43
1.0
 76
     1
 77
     6
 78
     2
 67
     7
 79
     5
170
     0
171
     0
290
     0
174
     0
 93
       13
 44
0.0
173
     0
291
     1
 45
0.0
1001
ACAD
1000
AcDbSavedByObjectVersion
1070
     0
  0
VISUALSTYLE
  5
2B
102
{ACAD_XDICTIONARY
360
54A
102
}
102
{ACAD_REACTORS
330
29
102
}
330
29
100
AcDbVisualStyle
  2

 70
     1
 71
     2
 72
     1
 73
     1
 90
        2
 40
-0.6
 41
30.0
 62
     5
 63
     7
 74
     1
 91
        0
 64
     7
 65
   257
 75
     1
175
     1
 42
1.0
 92
        0
 66
   257
 43
1.0
 76
     1
 77
     6
 78
     2
 67
     7
 79
     5
170
     0
171
     0
290
     0
174
     0
 93
       13
 44
0.0
173
     0
291
     1
 45
0.0
1001
ACAD
1000
AcDbSavedByObjectVersion
1070
     0
  0
VISUALSTYLE
  5
2C
102
{ACAD_XDICTIONARY
360
54C
102
}
102
{ACAD_REACTORS
330
29
102
}
330
29
100
AcDbVisualStyle
  2

 70
     2
 71
     2
 72
     2
 73
     1
 90
        2
 40
-0.6
 41
30.0
 62
     5
 63
     7
 74
     0
 91
        0
 64
     7
 65
   257
 75
     1
175
     1
 42
1.0
 92
        0
 66
     7
 43
1.0
 76
     1
 77
     6
 78
     2
 67
     7
 79
     5
170
     0
171
     0
290
     0
174
     0
 93
       13
 44
0.0
173
     0
291
     1
 45
0.0
1001
ACAD
1000
AcDbSavedByObjectVersion
1070
     0
  0
VISUALSTYLE
  5
2D
102
{ACAD_XDICTIONARY
360
54E
102
}
102
{ACAD_REACTORS
330
29
102
}
330
29
100
AcDbVisualStyle
  2

 70
     3
 71
     2
 72
     2
 73
     1
 90
        2
 40
-0.6
 41
30.0
 62
     5
 63
     7
 74
     1
 91
        0
 64
     7
 65
   257
 75
     1
175
     1
 42
1.0
 92
        0
 66
   257
 43
1.0
 76
     1
 77
     6
 78
     2
 67
     7
 79
     5
170
     0
171
     0
290
     0
174
     0
 93
       13
 44
0.0
173
     0
291
     1
 45
0.0
1001
ACAD
1000
AcDbSavedByObjectVersion
1070
     0
  0
VISUALSTYLE
  5
31
102
{ACAD_XDICTIONARY
360
556
102
}
102
{ACAD_REACTORS
330
29
102
}
330
29
100
AcDbVisualStyle
  2

 70
     6
 71
     1
 72
     2
 73
     2
 90
        0
 40
-0.6
 41
-30.0
 62
     5
 63
     7
 74
     2
 91
        2
 64
     7
 65
   257
 75
     2
175
     1
 42
40.0
 92
        0
 66
   257
 43
1.0
 76
     1
 77
     6
 78
     2
 67
     7
 79
     3
170
     0
171
     0
290
     0
174
     0
 93
        1
 44
0.0
173
     0
291
     0
 45
0.0
1001
ACAD
1000
AcDbSavedByObjectVersion
1070
     0
  0
VISUALSTYLE
  5
3F
102
{ACAD_XDICTIONARY
360
572
102
}
102
{ACAD_REACTORS
330
29
102
}
330
29
100
AcDbVisualStyle
  2

 70
    20
 71
     2
 72
     2
 73
     0
 90
        0
 40
-0.6
 41
-30.0
 62
     5
 63
     7
 74
     1
 91
        4
 64
     7
 65
   257
 75
     1
175
     1
 42
1.0
 92
       10
 66
     7
 43
1.0
 76
     1
 77
     6
 78
     2
 67
     7
 79
     5
170
     0
171
     0
290
     0
174
     0
 93
        1
 44
0.0
173
     0
291
     1
 45
0.0
1001
ACAD
1000
AcDbSavedByObjectVersion
1070
     0
  0
VISUALSTYLE
  5
37
102
{ACAD_XDICTIONARY
360
562
102
}
102
{ACAD_REACTORS
330
29
102
}
330
29
100
AcDbVisualStyle
  2

 70
    14
 71
     2
 72
     2
 73
     0
 90
        0
 40
-0.6
 41
-30.0
 62
     5
 63
     7
 74
     1
 91
        4
 64
     7
 65
   257
 75
     7
175
     7
 42
1.0
 92
        8
 66
     7
 43
1.0
 76
     1
 77
     6
 78
     2
 67
     7
 79
     5
170
     0
171
     0
290
     0
174
     0
 93
        1
 44
0.0
173
     0
291
     1
 45
0.0
1001
ACAD
1000
AcDbSavedByObjectVersion
1070
     0
  0
VISUALSTYLE
  5
40
102
{ACAD_XDICTIONARY
360
574
102
}
102
{ACAD_REACTORS
330
29
102
}
330
29
100
AcDbVisualStyle
  2

 70
    21
 71
     2
 72
     2
 73
     0
 90
        0
 40
-0.6
 41
-30.0
 62
     5
 63
     7
 74
     1
 91
        4
 64
     7
 65
   257
 75
     1
175
     1
 42
1.0
 92
        9
 66
     7
 43
1.0
 76
     1
 77
     6
 78
     2
 67
     7
 79
     5
170
     0
171
     0
290
     0
174
     0
 93
        1
 44
0.0
173
     0
291
     1
 45
0.0
1001
ACAD
1000
AcDbSavedByObjectVersion
1070
     0
  0
VISUALSTYLE
  5
33
102
{ACAD_XDICTIONARY
360
55A
102
}
102
{ACAD_REACTORS
330
29
102
}
330
29
100
AcDbVisualStyle
  2

 70
     8
 71
     2
 72
     3
 73
     0
 90
        2
 40
-0.6
 41
30.0
 62
     5
 63
     7
 74
     0
 91
        0
 64
     7
 65
   257
 75
     1
175
     1
 42
1.0
 92
        8
 66
   257
 43
1.0
 76
     1
 77
     6
 78
     2
 67
     7
 79
     3
170
     0
171
     0
290
     0
174
     0
 93
       13
 44
0.0
173
     0
291
     0
 45
0.0
1001
ACAD
1000
AcDbSavedByObjectVersion
1070
     0
  0
VISUALSTYLE
  5
3E
102
{ACAD_XDICTIONARY
360
570
102
}
102
{ACAD_REACTORS
330
29
102
}
330
29
100
AcDbVisualStyle
  2

 70
    27
 71
     2
 72
     2
 73
     1
 90
        2
 40
-0.6
 41
30.0
 62
     5
 63
     7
 74
     0
 91
        4
 64
     7
 65
   257
 75
     1
175
     1
 42
1.0
 92
        8
 66
   257
 43
1.0
 76
     1
 77
     6
 78
     2
 67
     8
 79
     3
170
     0
171
     0
290
     0
174
     0
 93
        5
 44
0.0
173
     0
291
     0
 45
0.0
1001
ACAD
1000
AcDbSavedByObjectVersion
1070
     0
  0
VISUALSTYLE
  5
3D
102
{ACAD_XDICTIONARY
360
56E
102
}
102
{ACAD_REACTORS
330
29
102
}
330
29
100
AcDbVisualStyle
  2

 70
    26
 71
     2
 72
     2
 73
     1
 90
        2
 40
-0.6
 41
30.0
 62
     5
 63
     7
 74
     1
 91
       10
 64
     7
 65
   257
 75
     2
175
     1
 42
1.0
 92
        8
 66
   257
 43
1.0
 76
     1
 77
     6
 78
     2
 67
     7
 79
     3
170
     0
171
     0
290
     0
174
     0
 93
        5
 44
0.0
173
     0
291
     0
 45
0.0
1001
ACAD
1000
AcDbSavedByObjectVersion
1070
     0
  0
VISUALSTYLE
  5
3A
102
{ACAD_XDICTIONARY
360
568
102
}
102
{ACAD_REACTORS
330
29
102
}
330
29
100
AcDbVisualStyle
  2

 70
    23
 71
     2
 72
     2
 73
     3
 90
        0
 40
-0.6
 41
-30.0
 62
     5
 63
     7
 74
     2
 91
        2
 64
     7
 65
     7
 75
     1
175
     1
 42
40.0
 92
        8
 66
     7
 43
1.0
 76
     1
 77
     6
 78
     2
 67
     7
 79
     3
170
     0
171
     0
290
     0
174
     0
 93
        1
 44
0.0
173
     0
291
     0
 45
0.0
1001
ACAD
1000
AcDbSavedByObjectVersion
1070
     0
  0
VISUALSTYLE
  5
3B
102
{ACAD_XDICTIONARY
360
56A
102
}
102
{ACAD_REACTORS
330
29
102
}
330
29
100
AcDbVisualStyle
  2

 70
    24
 71
     1
 72
     2
 73
     2
 90
        0
 40
-0.6
 41
-30.0
 62
     5
 63
     7
 74
     2
 91
        2
 64
     7
 65
     7
 75
     1
175
     1
 42
40.0
 92
       11
 66
     7
 43
1.0
 76
     1
 77
     6
 78
     2
 67
     7
 79
     6
170
     0
171
     0
290
     0
174
     0
 93
        1
 44
0.0
173
     0
291
     0
 45
0.0
1001
ACAD
1000
AcDbSavedByObjectVersion
1070
     0
  0
VISUALSTYLE
  5
36
102
{ACAD_XDICTIONARY
360
560
102
}
102
{ACAD_REACTORS
330
29
102
}
330
29
100
AcDbVisualStyle
  2

 70
    13
 71
     2
 72
     2
 73
     0
 90
        0
 40
-0.6
 41
-30.0
 62
     5
 63
     7
 74
     1
 91
        4
 64
     7
 65
   257
 75
     1
175
     1
 42
1.0
 92
       12
 66
     7
 43
1.0
 76
     1
 77
     6
 78
     2
 67
     7
 79
     5
170
     0
171
     0
290
     0
174
     0
 93
        1
 44
0.0
173
     0
291
     1
 45
0.0
1001
ACAD
1000
AcDbSavedByObjectVersion
1070
     0
  0
VISUALSTYLE
  5
30
102
{ACAD_XDICTIONARY
360
554
102
}
102
{ACAD_REACTORS
330
29
102
}
330
29
100
AcDbVisualStyle
  2

 70
     5
 71
     0
 72
     2
 73
     0
 90
        0
 40
-0.6
 41
-30.0
 62
     5
 63
     7
 74
     1
 91
        4
 64
     7
 65
   257
 75
     1
175
     1
 42
1.0
 92
        0
 66
   257
 43
1.0
 76
     1
 77
     6
 78
     2
 67
     7
 79
     3
170
     0
171
     0
290
     0
174
     0
 93
        1
 44
0.0
173
     0
291
     0
 45
0.0
1001
ACAD
1000
AcDbSavedByObjectVersion
1070
     0
  0
VISUALSTYLE
  5
3C
102
{ACAD_XDICTIONARY
360
56C
102
}
102
{ACAD_REACTORS
330
29
102
}
330
29
100
AcDbVisualStyle
  2

 70
    25
 71
     2
 72
     2
 73
     1
 90
        1
 40
0.5
 41
-30.0
 62
     5
 63
     7
 74
     1
 91
        0
 64
     7
 65
   257
 75
     1
175
     1
 42
1.0
 92
        8
 66
     7
 43
1.0
 76
     1
 77
     6
 78
     2
 67
     7
 79
     3
170
     0
171
     0
290
     0
174
     0
 93
       13
 44
0.0
173
     0
291
     0
 45
0.0
1001
ACAD
1000
AcDbSavedByObjectVersion
1070
     0
  0
DICTIONARYVAR
  5
43D
102
{ACAD_REACTORS
330
43A
102
}
330
43A
100
DictionaryVariables
280
     0
  1
1:1
  0
DICTIONARYVAR
  5
43C
102
{ACAD_REACTORS
330
43A
102
}
330
43A
100
DictionaryVariables
280
     0
  1
STANDARD
  0
DICTIONARYVAR
  5
43B
102
{ACAD_REACTORS
330
43A
102
}
330
43A
100
DictionaryVariables
280
     0
  1
STANDARD
  0
DICTIONARYVAR
  5
440
102
{ACAD_REACTORS
330
43A
102
}
330
43A
100
DictionaryVariables
280
     0
  1
1
  0
DICTIONARYVAR
  5
43F
102
{ACAD_REACTORS
330
43A
102
}
330
43A
100
DictionaryVariables
280
     0
  1
0
  0
DICTIONARYVAR
  5
43E
102
{ACAD_REACTORS
330
43A
102
}
330
43A
100
DictionaryVariables
280
     0
  1
127
  0
DICTIONARYVAR
  5
4E3
102
{ACAD_REACTORS
330
43A
102
}
330
43A
100
DictionaryVariables
280
     0
  1
2
  0
DICTIONARY
  5
57B
330
6E
100
AcDbDictionary
280
     1
281
     1
  3
ACAD_XREC_ROUNDTRIP
360
57C
  0
DICTIONARY
  5
579
330
6A
100
AcDbDictionary
280
     1
281
     1
  3
ACAD_XREC_ROUNDTRIP
360
57A
  0
DICTIONARY
  5
1A
330
19
100
AcDbDictionary
280
     1
281
     1
  3
ACAD_XREC_ROUNDTRIP
360
44B
  3
BUMPTILE
360
1C
  3
DIFFUSETILE
360
1B
  3
OPACITYTILE
360
1F
  3
REFLECTIONTILE
360
1E
  3
REFRACTIONTILE
360
20
  3
SPECULARTILE
360
1D
  0
DICTIONARY
  5
12
330
11
100
AcDbDictionary
280
     1
281
     1
  3
ACAD_XREC_ROUNDTRIP
360
44A
  3
BUMPTILE
360
14
  3
DIFFUSETILE
360
13
  3
OPACITYTILE
360
17
  3
REFLECTIONTILE
360
16
  3
REFRACTIONTILE
360
18
  3
SPECULARTILE
360
15
  0
DICTIONARY
  5
22
330
21
100
AcDbDictionary
280
     1
281
     1
  3
ACAD_XREC_ROUNDTRIP
360
44C
  3
BUMPTILE
360
24
  3
DIFFUSETILE
360
23
  3
OPACITYTILE
360
27
  3
REFLECTIONTILE
360
26
  3
REFRACTIONTILE
360
28
  3
SPECULARTILE
360
25
  0
DICTIONARY
  5
442
330
64
100
AcDbDictionary
280
     1
281
     1
  3
ACAD_ROUNDTRIP_2008_TABLESTYLE_CELLSTYLEMAP
360
541
  3
ACAD_XREC_ROUNDTRIP
360
578
  0
DICTIONARY
  5
552
330
2F
100
AcDbDictionary
280
     1
281
     1
  3
ACAD_XREC_ROUNDTRIP
360
553
  0
DICTIONARY
  5
57D
330
2A4
100
AcDbDictionary
280
     1
281
     1
  3
ACAD_XREC_ROUNDTRIP
360
57E
  0
DICTIONARY
  5
550
330
2E
100
AcDbDictionary
280
     1
281
     1
  3
ACAD_XREC_ROUNDTRIP
360
551
  0
DICTIONARY
  5
55E
330
35
100
AcDbDictionary
280
     1
281
     1
  3
ACAD_XREC_ROUNDTRIP
360
55F
  0
DICTIONARY
  5
566
330
39
100
AcDbDictionary
280
     1
281
     1
  3
ACAD_XREC_ROUNDTRIP
360
567
  0
DICTIONARY
  5
558
330
32
100
AcDbDictionary
280
     1
281
     1
  3
ACAD_XREC_ROUNDTRIP
360
559
  0
DICTIONARY
  5
55C
330
34
100
AcDbDictionary
280
     1
281
     1
  3
ACAD_XREC_ROUNDTRIP
360
55D
  0
DICTIONARY
  5
576
330
41
100
AcDbDictionary
280
     1
281
     1
  3
ACAD_XREC_ROUNDTRIP
360
577
  0
DICTIONARY
  5
564
330
38
100
AcDbDictionary
280
     1
281
     1
  3
ACAD_XREC_ROUNDTRIP
360
565
  0
DICTIONARY
  5
548
330
2A
100
AcDbDictionary
280
     1
281
     1
  3
ACAD_XREC_ROUNDTRIP
360
549
  0
DICTIONARY
  5
54A
330
2B
100
AcDbDictionary
280
     1
281
     1
  3
ACAD_XREC_ROUNDTRIP
360
54B
  0
DICTIONARY
  5
54C
330
2C
100
AcDbDictionary
280
     1
281
     1
  3
ACAD_XREC_ROUNDTRIP
360
54D
  0
DICTIONARY
  5
54E
330
2D
100
AcDbDictionary
280
     1
281
     1
  3
ACAD_XREC_ROUNDTRIP
360
54F
  0
DICTIONARY
  5
556
330
31
100
AcDbDictionary
280
     1
281
     1
  3
ACAD_XREC_ROUNDTRIP
360
557
  0
DICTIONARY
  5
572
330
3F
100
AcDbDictionary
280
     1
281
     1
  3
ACAD_XREC_ROUNDTRIP
360
573
  0
DICTIONARY
  5
562
330
37
100
AcDbDictionary
280
     1
281
     1
  3
ACAD_XREC_ROUNDTRIP
360
563
  0
DICTIONARY
  5
574
330
40
100
AcDbDictionary
280
     1
281
     1
  3
ACAD_XREC_ROUNDTRIP
360
575
  0
DICTIONARY
  5
55A
330
33
100
AcDbDictionary
280
     1
281
     1
  3
ACAD_XREC_ROUNDTRIP
360
55B
  0
DICTIONARY
  5
570
330
3E
100
AcDbDictionary
280
     1
281
     1
  3
ACAD_XREC_ROUNDTRIP
360
571
  0
DICTIONARY
  5
56E
330
3D
100
AcDbDictionary
280
     1
281
     1
  3
ACAD_XREC_ROUNDTRIP
360
56F
  0
DICTIONARY
  5
568
330
3A
100
AcDbDictionary
280
     1
281
     1
  3
ACAD_XREC_ROUNDTRIP
360
569
  0
DICTIONARY
  5
56A
330
3B
100
AcDbDictionary
280
     1
281
     1
  3
ACAD_XREC_ROUNDTRIP
360
56B
  0
DICTIONARY
  5
560
330
36
100
AcDbDictionary
280
     1
281
     1
  3
ACAD_XREC_ROUNDTRIP
360
561
  0
DICTIONARY
  5
554
330
30
100
AcDbDictionary
280
     1
281
     1
  3
ACAD_XREC_ROUNDTRIP
360
555
  0
DICTIONARY
  5
56C
330
3C
100
AcDbDictionary
280
     1
281
     1
  3
ACAD_XREC_ROUNDTRIP
360
56D
  0
XRECORD
  5
57C
102
{ACAD_REACTORS
330
57B
102
}
330
57B
100
AcDbXrecord
280
     1
102
SHADEPLOT
 70
     0
102
SHADEPLOTRESLEVEL
 70
     2
102
SHADEPLOTCUSTOMDPI
 70
   300
  0
XRECORD
  5
57A
102
{ACAD_REACTORS
330
579
102
}
330
579
100
AcDbXrecord
280
     1
102
SHADEPLOT
 70
     0
102
SHADEPLOTRESLEVEL
 70
     2
102
SHADEPLOTCUSTOMDPI
 70
   300
  0
XRECORD
  5
44B
102
{ACAD_REACTORS
330
1A
102
}
330
1A
100
AcDbXrecord
280
     1
102
MATERIAL
148
0.0
149
0.0
149
0.0
 93
        0
 94
      127
282
     0
 72
     0
 77
     0
171
     0
175
     0
179
     0
273
     0
  0
XRECORD
  5
1C
102
{ACAD_REACTORS
330
1A
102
}
330
1A
100
AcDbXrecord
280
     1
270
     1
271
     1
  0
XRECORD
  5
1B
102
{ACAD_REACTORS
330
1A
102
}
330
1A
100
AcDbXrecord
280
     1
270
     1
271
     1
  0
XRECORD
  5
1F
102
{ACAD_REACTORS
330
1A
102
}
330
1A
100
AcDbXrecord
280
     1
270
     1
271
     1
  0
XRECORD
  5
1E
102
{ACAD_REACTORS
330
1A
102
}
330
1A
100
AcDbXrecord
280
     1
270
     1
271
     1
  0
XRECORD
  5
20
102
{ACAD_REACTORS
330
1A
102
}
330
1A
100
AcDbXrecord
280
     1
270
     1
271
     1
  0
XRECORD
  5
1D
102
{ACAD_REACTORS
330
1A
102
}
330
1A
100
AcDbXrecord
280
     1
270
     1
271
     1
  0
XRECORD
  5
44A
102
{ACAD_REACTORS
330
12
102
}
330
12
100
AcDbXrecord
280
     1
102
MATERIAL
148
0.0
149
0.0
149
0.0
 93
        0
 94
      127
282
     0
 72
     0
 77
     0
171
     0
175
     0
179
     0
273
     0
  0
XRECORD
  5
14
102
{ACAD_REACTORS
330
12
102
}
330
12
100
AcDbXrecord
280
     1
270
     1
271
     1
  0
XRECORD
  5
13
102
{ACAD_REACTORS
330
12
102
}
330
12
100
AcDbXrecord
280
     1
270
     1
271
     1
  0
XRECORD
  5
17
102
{ACAD_REACTORS
330
12
102
}
330
12
100
AcDbXrecord
280
     1
270
     1
271
     1
  0
XRECORD
  5
16
102
{ACAD_REACTORS
330
12
102
}
330
12
100
AcDbXrecord
280
     1
270
     1
271
     1
  0
XRECORD
  5
18
102
{ACAD_REACTORS
330
12
102
}
330
12
100
AcDbXrecord
280
     1
270
     1
271
     1
  0
XRECORD
  5
15
102
{ACAD_REACTORS
330
12
102
}
330
12
100
AcDbXrecord
280
     1
270
     1
271
     1
  0
XRECORD
  5
44C
102
{ACAD_REACTORS
330
22
102
}
330
22
100
AcDbXrecord
280
     1
102
MATERIAL
148
0.0
149
0.0
149
0.0
 93
        0
 94
      127
282
     0
 72
     0
 77
     0
171
     0
175
     0
179
     0
273
     0
  0
XRECORD
  5
24
102
{ACAD_REACTORS
330
22
102
}
330
22
100
AcDbXrecord
280
     1
270
     1
271
     1
  0
XRECORD
  5
23
102
{ACAD_REACTORS
330
22
102
}
330
22
100
AcDbXrecord
280
     1
270
     1
271
     1
  0
XRECORD
  5
27
102
{ACAD_REACTORS
330
22
102
}
330
22
100
AcDbXrecord
280
     1
270
     1
271
     1
  0
XRECORD
  5
26
102
{ACAD_REACTORS
330
22
102
}
330
22
100
AcDbXrecord
280
     1
270
     1
271
     1
  0
XRECORD
  5
28
102
{ACAD_REACTORS
330
22
102
}
330
22
100
AcDbXrecord
280
     1
270
     1
271
     1
  0
XRECORD
  5
25
102
{ACAD_REACTORS
330
22
102
}
330
22
100
AcDbXrecord
280
     1
270
     1
271
     1
  0
CELLSTYLEMAP
  5
541
102
{ACAD_REACTORS
330
442
102
}
330
442
100
AcDbCellStyleMap
 90
        3
300
CELLSTYLE
  1
TABLEFORMAT_BEGIN
 90
        5
170
     1
 91
        0
 92
    32768
 62
   257
 93
        1
300
CONTENTFORMAT
  1
CONTENTFORMAT_BEGIN
 90
        0
 91
        0
 92
      512
 93
        0
300

 40
0.0
140
1.0
 94
        5
 62
     0
340
55
144
0.25
309
CONTENTFORMAT_END
171
     1
301
MARGIN
  1
CELLMARGIN_BEGIN
 40
0.06
 40
0.06
 40
0.06
 40
0.06
 40
0.18
 40
0.18
309
CELLMARGIN_END
 94
        6
 95
        1
302
GRIDFORMAT
  1
GRIDFORMAT_BEGIN
 90
        0
 91
        1
 62
     0
 92
       -2
340
0
 93
        0
 40
0.045
309
GRIDFORMAT_END
 95
        2
302
GRIDFORMAT
  1
GRIDFORMAT_BEGIN
 90
        0
 91
        1
 62
     0
 92
       -2
340
0
 93
        0
 40
0.045
309
GRIDFORMAT_END
 95
        4
302
GRIDFORMAT
  1
GRIDFORMAT_BEGIN
 90
        0
 91
        1
 62
     0
 92
       -2
340
0
 93
        0
 40
0.045
309
GRIDFORMAT_END
 95
        8
302
GRIDFORMAT
  1
GRIDFORMAT_BEGIN
 90
        0
 91
        1
 62
     0
 92
       -2
340
0
 93
        0
 40
0.045
309
GRIDFORMAT_END
 95
       16
302
GRIDFORMAT
  1
GRIDFORMAT_BEGIN
 90
        0
 91
        1
 62
     0
 92
       -2
340
0
 93
        0
 40
0.045
309
GRIDFORMAT_END
 95
       32
302
GRIDFORMAT
  1
GRIDFORMAT_BEGIN
 90
        0
 91
        1
 62
     0
 92
       -2
340
0
 93
        0
 40
0.045
309
GRIDFORMAT_END
309
TABLEFORMAT_END
  1
CELLSTYLE_BEGIN
 90
        1
 91
        1
300
_TITLE
309
CELLSTYLE_END
300
CELLSTYLE
  1
TABLEFORMAT_BEGIN
 90
        5
170
     1
 91
        0
 92
        0
 62
   257
 93
        1
300
CONTENTFORMAT
  1
CONTENTFORMAT_BEGIN
 90
        0
 91
        0
 92
      512
 93
        0
300

 40
0.0
140
1.0
 94
        5
 62
     0
340
55
144
0.18
309
CONTENTFORMAT_END
171
     1
301
MARGIN
  1
CELLMARGIN_BEGIN
 40
0.06
 40
0.06
 40
0.06
 40
0.06
 40
0.18
 40
0.18
309
CELLMARGIN_END
 94
        6
 95
        1
302
GRIDFORMAT
  1
GRIDFORMAT_BEGIN
 90
        0
 91
        1
 62
     0
 92
       -2
340
0
 93
        0
 40
0.045
309
GRIDFORMAT_END
 95
        2
302
GRIDFORMAT
  1
GRIDFORMAT_BEGIN
 90
        0
 91
        1
 62
     0
 92
       -2
340
0
 93
        0
 40
0.045
309
GRIDFORMAT_END
 95
        4
302
GRIDFORMAT
  1
GRIDFORMAT_BEGIN
 90
        0
 91
        1
 62
     0
 92
       -2
340
0
 93
        0
 40
0.045
309
GRIDFORMAT_END
 95
        8
302
GRIDFORMAT
  1
GRIDFORMAT_BEGIN
 90
        0
 91
        1
 62
     0
 92
       -2
340
0
 93
        0
 40
0.045
309
GRIDFORMAT_END
 95
       16
302
GRIDFORMAT
  1
GRIDFORMAT_BEGIN
 90
        0
 91
        1
 62
     0
 92
       -2
340
0
 93
        0
 40
0.045
309
GRIDFORMAT_END
 95
       32
302
GRIDFORMAT
  1
GRIDFORMAT_BEGIN
 90
        0
 91
        1
 62
     0
 92
       -2
340
0
 93
        0
 40
0.045
309
GRIDFORMAT_END
309
TABLEFORMAT_END
  1
CELLSTYLE_BEGIN
 90
        2
 91
        1
300
_HEADER
309
CELLSTYLE_END
300
CELLSTYLE
  1
TABLEFORMAT_BEGIN
 90
        5
170
     1
 91
        0
 92
        0
 62
   257
 93
        1
300
CONTENTFORMAT
  1
CONTENTFORMAT_BEGIN
 90
        0
 91
        0
 92
      512
 93
        0
300

 40
0.0
140
1.0
 94
        2
 62
     0
340
55
144
0.18
309
CONTENTFORMAT_END
171
     1
301
MARGIN
  1
CELLMARGIN_BEGIN
 40
0.06
 40
0.06
 40
0.06
 40
0.06
 40
0.18
 40
0.18
309
CELLMARGIN_END
 94
        6
 95
        1
302
GRIDFORMAT
  1
GRIDFORMAT_BEGIN
 90
        0
 91
        1
 62
     0
 92
       -2
340
0
 93
        0
 40
0.045
309
GRIDFORMAT_END
 95
        2
302
GRIDFORMAT
  1
GRIDFORMAT_BEGIN
 90
        0
 91
        1
 62
     0
 92
       -2
340
0
 93
        0
 40
0.045
309
GRIDFORMAT_END
 95
        4
302
GRIDFORMAT
  1
GRIDFORMAT_BEGIN
 90
        0
 91
        1
 62
     0
 92
       -2
340
0
 93
        0
 40
0.045
309
GRIDFORMAT_END
 95
        8
302
GRIDFORMAT
  1
GRIDFORMAT_BEGIN
 90
        0
 91
        1
 62
     0
 92
       -2
340
0
 93
        0
 40
0.045
309
GRIDFORMAT_END
 95
       16
302
GRIDFORMAT
  1
GRIDFORMAT_BEGIN
 90
        0
 91
        1
 62
     0
 92
       -2
340
0
 93
        0
 40
0.045
309
GRIDFORMAT_END
 95
       32
302
GRIDFORMAT
  1
GRIDFORMAT_BEGIN
 90
        0
 91
        1
 62
     0
 92
       -2
340
0
 93
        0
 40
0.045
309
GRIDFORMAT_END
309
TABLEFORMAT_END
  1
CELLSTYLE_BEGIN
 90
        3
 91
        2
300
_DATA
309
CELLSTYLE_END
  0
XRECORD
  5
578
102
{ACAD_REACTORS
330
442
102
}
330
442
100
AcDbXrecord
280
     1
102
ACAD_ROUNDTRIP_PRE2007_TABLESTYLE
 90
      512
 91
        0
  1

 92
      512
 93
        0
  2

 94
      512
 95
        0
  3

  0
XRECORD
  5
553
102
{ACAD_REACTORS
330
552
102
}
330
552
100
AcDbXrecord
280
     1
102
RTVSPropertyOp0
 70
     1
102
RTVSPropertyOp1
 70
     1
102
RTVSPropertyOp2
 70
     1
102
RTVSPropertyOp3
 70
     1
102
RTVSPropertyOp4
 70
     1
102
RTVSPropertyOp5
 70
     1
102
RTVSPropertyOp6
 70
     1
102
RTVSPropertyOp7
 70
     1
102
RTVSPropertyOp8
 70
     1
102
RTVSPropertyOp9
 70
     1
102
RTVSPropertyOp10
 70
     1
102
RTVSPropertyOp11
 70
     1
102
RTVSPropertyOp12
 70
     1
102
RTVSPropertyOp13
 70
     1
102
RTVSPropertyOp14
 70
     1
102
RTVSPropertyOp15
 70
     1
102
RTVSPropertyOp16
 70
     1
102
RTVSPropertyOp17
 70
     1
102
RTVSPropertyOp18
 70
     1
102
RTVSPropertyOp19
 70
     1
102
RTVSPropertyOp20
 70
     1
102
RTVSPropertyOp21
 70
     1
102
RTVSPropertyOp22
 70
     1
102
RTVSPropertyOp23
 70
     1
102
RTVSPropertyOp24
 70
     1
102
RTVSPropertyOp25
 70
     1
102
RTVSPropertyOp26
 70
     1
102
RTVSPropertyOp27
 70
     1
102
RTVSPropertyOp28
 70
     1
102
RTVSPropertyOp29
 70
     1
102
RTVSPropertyOp30
 70
     1
102
RTVSPropertyOp31
 70
     1
102
RTVSPropertyOp32
 70
     1
  0
XRECORD
  5
57E
102
{ACAD_REACTORS
330
57D
102
}
330
57D
100
AcDbXrecord
280
     1
102
RTVSPropertyOp0
 70
     1
102
RTVSPropertyOp1
 70
     1
102
RTVSPropertyOp2
 70
     1
102
RTVSPropertyOp3
 70
     1
102
RTVSPropertyOp4
 70
     1
102
RTVSPropertyOp5
 70
     1
102
RTVSPropertyOp6
 70
     1
102
RTVSPropertyOp7
 70
     1
102
RTVSPropertyOp8
 70
     1
102
RTVSPropertyOp9
 70
     1
102
RTVSPropertyOp10
 70
     1
102
RTVSPropertyOp11
 70
     1
102
RTVSPropertyOp12
 70
     1
102
RTVSPropertyOp13
 70
     1
102
RTVSPropertyOp14
 70
     1
102
RTVSPropertyOp15
 70
     1
102
RTVSPropertyOp16
 70
     1
102
RTVSPropertyOp17
 70
     1
102
RTVSPropertyOp18
 70
     1
102
RTVSPropertyOp19
 70
     1
102
RTVSPropertyOp20
 70
     1
102
RTVSPropertyOp21
 70
     1
102
RTVSPropertyOp22
 70
     1
102
RTVSPropertyOp23
 70
     1
102
RTVSPropertyOp24
 70
     1
102
RTVSPropertyOp25
 70
     1
102
RTVSPropertyOp26
 70
     1
102
RTVSPropertyOp27
 70
     1
102
RTVSPropertyOp28
 70
     1
102
RTVSPropertyOp29
 70
     1
102
RTVSPropertyOp30
 70
     1
102
RTVSPropertyOp31
 70
     1
102
RTVSPropertyOp32
 70
     1
  0
XRECORD
  5
551
102
{ACAD_REACTORS
330
550
102
}
330
550
100
AcDbXrecord
280
     1
102
RTVSPropertyOp0
 70
     1
102
RTVSPropertyOp1
 70
     1
102
RTVSPropertyOp2
 70
     1
102
RTVSPropertyOp3
 70
     1
102
RTVSPropertyOp4
 70
     1
102
RTVSPropertyOp5
 70
     1
102
RTVSPropertyOp6
 70
     1
102
RTVSPropertyOp7
 70
     1
102
RTVSPropertyOp8
 70
     1
102
RTVSPropertyOp9
 70
     1
102
RTVSPropertyOp10
 70
     1
102
RTVSPropertyOp11
 70
     1
102
RTVSPropertyOp12
 70
     1
102
RTVSPropertyOp13
 70
     1
102
RTVSPropertyOp14
 70
     1
102
RTVSPropertyOp15
 70
     1
102
RTVSPropertyOp16
 70
     1
102
RTVSPropertyOp17
 70
     1
102
RTVSPropertyOp18
 70
     1
102
RTVSPropertyOp19
 70
     1
102
RTVSPropertyOp20
 70
     1
102
RTVSPropertyOp21
 70
     1
102
RTVSPropertyOp22
 70
     1
102
RTVSPropertyOp23
 70
     1
102
RTVSPropertyOp24
 70
     1
102
RTVSPropertyOp25
 70
     1
102
RTVSPropertyOp26
 70
     1
102
RTVSPropertyOp27
 70
     1
102
RTVSPropertyOp28
 70
     1
102
RTVSPropertyOp29
 70
     1
102
RTVSPropertyOp30
 70
     1
102
RTVSPropertyOp31
 70
     1
102
RTVSPropertyOp32
 70
     1
  0
XRECORD
  5
55F
102
{ACAD_REACTORS
330
55E
102
}
330
55E
100
AcDbXrecord
280
     1
102
RTVSPropertyOp0
 70
     1
102
RTVSPropertyOp1
 70
     1
102
RTVSPropertyOp2
 70
     1
102
RTVSPropertyOp3
 70
     1
102
RTVSPropertyOp4
 70
     1
102
RTVSPropertyOp5
 70
     1
102
RTVSPropertyOp6
 70
     1
102
RTVSPropertyOp7
 70
     1
102
RTVSPropertyOp8
 70
     1
102
RTVSPropertyOp9
 70
     1
102
RTVSPropertyOp10
 70
     1
102
RTVSPropertyOp11
 70
     1
102
RTVSPropertyOp12
 70
     1
102
RTVSPropertyOp13
 70
     1
102
RTVSPropertyOp14
 70
     1
102
RTVSPropertyOp15
 70
     1
102
RTVSPropertyOp16
 70
     1
102
RTVSPropertyOp17
 70
     1
102
RTVSPropertyOp18
 70
     1
102
RTVSPropertyOp19
 70
     1
102
RTVSPropertyOp20
 70
     1
102
RTVSPropertyOp21
 70
     1
102
RTVSPropertyOp22
 70
     1
102
RTVSPropertyOp23
 70
     1
102
RTVSPropertyOp24
 70
     1
102
RTVSPropertyOp25
 70
     1
102
RTVSPropertyOp26
 70
     1
102
RTVSPropertyOp27
 70
     1
102
RTVSPropertyOp28
 70
     1
102
RTVSPropertyOp29
 70
     1
102
RTVSPropertyOp30
 70
     1
102
RTVSPropertyOp31
 70
     1
102
RTVSPropertyOp32
 70
     1
  0
XRECORD
  5
567
102
{ACAD_REACTORS
330
566
102
}
330
566
100
AcDbXrecord
280
     1
102
RTVSPropertyOp0
 70
     1
102
RTVSPropertyOp1
 70
     1
102
RTVSPropertyOp2
 70
     1
102
RTVSPropertyOp3
 70
     1
102
RTVSPropertyOp4
 70
     1
102
RTVSPropertyOp5
 70
     1
102
RTVSPropertyOp6
 70
     1
102
RTVSPropertyOp7
 70
     1
102
RTVSPropertyOp8
 70
     1
102
RTVSPropertyOp9
 70
     1
102
RTVSPropertyOp10
 70
     1
102
RTVSPropertyOp11
 70
     1
102
RTVSPropertyOp12
 70
     1
102
RTVSPropertyOp13
 70
     1
102
RTVSPropertyOp14
 70
     1
102
RTVSPropertyOp15
 70
     1
102
RTVSPropertyOp16
 70
     1
102
RTVSPropertyOp17
 70
     1
102
RTVSPropertyOp18
 70
     1
102
RTVSPropertyOp19
 70
     1
102
RTVSPropertyOp20
 70
     1
102
RTVSPropertyOp21
 70
     1
102
RTVSPropertyOp22
 70
     1
102
RTVSPropertyOp23
 70
     1
102
RTVSPropertyOp24
 70
     1
102
RTVSPropertyOp25
 70
     1
102
RTVSPropertyOp26
 70
     1
102
RTVSPropertyOp27
 70
     1
102
RTVSPropertyOp28
 70
     1
102
RTVSPropertyOp29
 70
     1
102
RTVSPropertyOp30
 70
     1
102
RTVSPropertyOp31
 70
     1
102
RTVSPropertyOp32
 70
     1
  0
XRECORD
  5
559
102
{ACAD_REACTORS
330
558
102
}
330
558
100
AcDbXrecord
280
     1
102
RTVSPropertyOp0
 70
     1
102
RTVSPropertyOp1
 70
     1
102
RTVSPropertyOp2
 70
     1
102
RTVSPropertyOp3
 70
     1
102
RTVSPropertyOp4
 70
     1
102
RTVSPropertyOp5
 70
     1
102
RTVSPropertyOp6
 70
     1
102
RTVSPropertyOp7
 70
     1
102
RTVSPropertyOp8
 70
     1
102
RTVSPropertyOp9
 70
     1
102
RTVSPropertyOp10
 70
     1
102
RTVSPropertyOp11
 70
     1
102
RTVSPropertyOp12
 70
     1
102
RTVSPropertyOp13
 70
     1
102
RTVSPropertyOp14
 70
     1
102
RTVSPropertyOp15
 70
     1
102
RTVSPropertyOp16
 70
     1
102
RTVSPropertyOp17
 70
     1
102
RTVSPropertyOp18
 70
     1
102
RTVSPropertyOp19
 70
     1
102
RTVSPropertyOp20
 70
     1
102
RTVSPropertyOp21
 70
     1
102
RTVSPropertyOp22
 70
     1
102
RTVSPropertyOp23
 70
     1
102
RTVSPropertyOp24
 70
     1
102
RTVSPropertyOp25
 70
     1
102
RTVSPropertyOp26
 70
     1
102
RTVSPropertyOp27
 70
     1
102
RTVSPropertyOp28
 70
     1
102
RTVSPropertyOp29
 70
     1
102
RTVSPropertyOp30
 70
     1
102
RTVSPropertyOp31
 70
     1
102
RTVSPropertyOp32
 70
     1
  0
XRECORD
  5
55D
102
{ACAD_REACTORS
330
55C
102
}
330
55C
100
AcDbXrecord
280
     1
102
RTVSPropertyOp0
 70
     1
102
RTVSPropertyOp1
 70
     1
102
RTVSPropertyOp2
 70
     1
102
RTVSPropertyOp3
 70
     1
102
RTVSPropertyOp4
 70
     1
102
RTVSPropertyOp5
 70
     1
102
RTVSPropertyOp6
 70
     1
102
RTVSPropertyOp7
 70
     1
102
RTVSPropertyOp8
 70
     1
102
RTVSPropertyOp9
 70
     1
102
RTVSPropertyOp10
 70
     1
102
RTVSPropertyOp11
 70
     1
102
RTVSPropertyOp12
 70
     1
102
RTVSPropertyOp13
 70
     1
102
RTVSPropertyOp14
 70
     1
102
RTVSPropertyOp15
 70
     1
102
RTVSPropertyOp16
 70
     1
102
RTVSPropertyOp17
 70
     1
102
RTVSPropertyOp18
 70
     1
102
RTVSPropertyOp19
 70
     1
102
RTVSPropertyOp20
 70
     1
102
RTVSPropertyOp21
 70
     1
102
RTVSPropertyOp22
 70
     1
102
RTVSPropertyOp23
 70
     1
102
RTVSPropertyOp24
 70
     1
102
RTVSPropertyOp25
 70
     1
102
RTVSPropertyOp26
 70
     1
102
RTVSPropertyOp27
 70
     1
102
RTVSPropertyOp28
 70
     1
102
RTVSPropertyOp29
 70
     1
102
RTVSPropertyOp30
 70
     1
102
RTVSPropertyOp31
 70
     1
102
RTVSPropertyOp32
 70
     1
  0
XRECORD
  5
577
102
{ACAD_REACTORS
330
576
102
}
330
576
100
AcDbXrecord
280
     1
102
RTVSPropertyOp0
 70
     0
102
RTVSPropertyOp1
 70
     0
102
RTVSPropertyOp2
 70
     0
102
RTVSPropertyOp3
 70
     0
102
RTVSPropertyOp4
 70
     0
102
RTVSPropertyOp5
 70
     0
102
RTVSPropertyOp6
 70
     0
102
RTVSPropertyOp7
 70
     0
102
RTVSPropertyOp8
 70
     0
102
RTVSPropertyOp9
 70
     0
102
RTVSPropertyOp10
 70
     0
102
RTVSPropertyOp11
 70
     0
102
RTVSPropertyOp12
 70
     0
102
RTVSPropertyOp13
 70
     0
102
RTVSPropertyOp14
 70
     2
102
RTVSPropertyOp15
 70
     0
102
RTVSPropertyOp16
 70
     0
102
RTVSPropertyOp17
 70
     0
102
RTVSPropertyOp18
 70
     0
102
RTVSPropertyOp19
 70
     0
102
RTVSPropertyOp20
 70
     0
102
RTVSPropertyOp21
 70
     0
102
RTVSPropertyOp22
 70
     0
102
RTVSPropertyOp23
 70
     0
102
RTVSPropertyOp24
 70
     0
102
RTVSPropertyOp25
 70
     0
102
RTVSPropertyOp26
 70
     0
102
RTVSPropertyOp27
 70
     0
102
RTVSPropertyOp28
 70
     0
102
RTVSPropertyOp29
 70
     0
102
RTVSPropertyOp30
 70
     0
102
RTVSPropertyOp31
 70
     0
102
RTVSPropertyOp32
 70
     0
  0
XRECORD
  5
565
102
{ACAD_REACTORS
330
564
102
}
330
564
100
AcDbXrecord
280
     1
102
RTVSPropertyOp0
 70
     1
102
RTVSPropertyOp1
 70
     1
102
RTVSPropertyOp2
 70
     1
102
RTVSPropertyOp3
 70
     1
102
RTVSPropertyOp4
 70
     1
102
RTVSPropertyOp5
 70
     1
102
RTVSPropertyOp6
 70
     1
102
RTVSPropertyOp7
 70
     1
102
RTVSPropertyOp8
 70
     1
102
RTVSPropertyOp9
 70
     1
102
RTVSPropertyOp10
 70
     1
102
RTVSPropertyOp11
 70
     1
102
RTVSPropertyOp12
 70
     1
102
RTVSPropertyOp13
 70
     1
102
RTVSPropertyOp14
 70
     1
102
RTVSPropertyOp15
 70
     1
102
RTVSPropertyOp16
 70
     1
102
RTVSPropertyOp17
 70
     1
102
RTVSPropertyOp18
 70
     1
102
RTVSPropertyOp19
 70
     1
102
RTVSPropertyOp20
 70
     1
102
RTVSPropertyOp21
 70
     1
102
RTVSPropertyOp22
 70
     1
102
RTVSPropertyOp23
 70
     1
102
RTVSPropertyOp24
 70
     1
102
RTVSPropertyOp25
 70
     1
102
RTVSPropertyOp26
 70
     1
102
RTVSPropertyOp27
 70
     1
102
RTVSPropertyOp28
 70
     1
102
RTVSPropertyOp29
 70
     1
102
RTVSPropertyOp30
 70
     1
102
RTVSPropertyOp31
 70
     1
102
RTVSPropertyOp32
 70
     1
  0
XRECORD
  5
549
102
{ACAD_REACTORS
330
548
102
}
330
548
100
AcDbXrecord
280
     1
102
RTVSPropertyOp0
 70
     1
102
RTVSPropertyOp1
 70
     1
102
RTVSPropertyOp2
 70
     1
102
RTVSPropertyOp3
 70
     1
102
RTVSPropertyOp4
 70
     1
102
RTVSPropertyOp5
 70
     1
102
RTVSPropertyOp6
 70
     1
102
RTVSPropertyOp7
 70
     1
102
RTVSPropertyOp8
 70
     1
102
RTVSPropertyOp9
 70
     1
102
RTVSPropertyOp10
 70
     1
102
RTVSPropertyOp11
 70
     1
102
RTVSPropertyOp12
 70
     1
102
RTVSPropertyOp13
 70
     1
102
RTVSPropertyOp14
 70
     1
102
RTVSPropertyOp15
 70
     1
102
RTVSPropertyOp16
 70
     1
102
RTVSPropertyOp17
 70
     1
102
RTVSPropertyOp18
 70
     1
102
RTVSPropertyOp19
 70
     1
102
RTVSPropertyOp20
 70
     1
102
RTVSPropertyOp21
 70
     1
102
RTVSPropertyOp22
 70
     1
102
RTVSPropertyOp23
 70
     1
102
RTVSPropertyOp24
 70
     1
102
RTVSPropertyOp25
 70
     1
102
RTVSPropertyOp26
 70
     1
102
RTVSPropertyOp27
 70
     1
102
RTVSPropertyOp28
 70
     1
102
RTVSPropertyOp29
 70
     1
102
RTVSPropertyOp30
 70
     1
102
RTVSPropertyOp31
 70
     1
102
RTVSPropertyOp32
 70
     1
  0
XRECORD
  5
54B
102
{ACAD_REACTORS
330
54A
102
}
330
54A
100
AcDbXrecord
280
     1
102
RTVSPropertyOp0
 70
     1
102
RTVSPropertyOp1
 70
     1
102
RTVSPropertyOp2
 70
     1
102
RTVSPropertyOp3
 70
     1
102
RTVSPropertyOp4
 70
     1
102
RTVSPropertyOp5
 70
     1
102
RTVSPropertyOp6
 70
     1
102
RTVSPropertyOp7
 70
     1
102
RTVSPropertyOp8
 70
     1
102
RTVSPropertyOp9
 70
     1
102
RTVSPropertyOp10
 70
     1
102
RTVSPropertyOp11
 70
     1
102
RTVSPropertyOp12
 70
     1
102
RTVSPropertyOp13
 70
     1
102
RTVSPropertyOp14
 70
     1
102
RTVSPropertyOp15
 70
     1
102
RTVSPropertyOp16
 70
     1
102
RTVSPropertyOp17
 70
     1
102
RTVSPropertyOp18
 70
     1
102
RTVSPropertyOp19
 70
     1
102
RTVSPropertyOp20
 70
     1
102
RTVSPropertyOp21
 70
     1
102
RTVSPropertyOp22
 70
     1
102
RTVSPropertyOp23
 70
     1
102
RTVSPropertyOp24
 70
     1
102
RTVSPropertyOp25
 70
     1
102
RTVSPropertyOp26
 70
     1
102
RTVSPropertyOp27
 70
     1
102
RTVSPropertyOp28
 70
     1
102
RTVSPropertyOp29
 70
     1
102
RTVSPropertyOp30
 70
     1
102
RTVSPropertyOp31
 70
     1
102
RTVSPropertyOp32
 70
     1
  0
XRECORD
  5
54D
102
{ACAD_REACTORS
330
54C
102
}
330
54C
100
AcDbXrecord
280
     1
102
RTVSPropertyOp0
 70
     1
102
RTVSPropertyOp1
 70
     1
102
RTVSPropertyOp2
 70
     1
102
RTVSPropertyOp3
 70
     1
102
RTVSPropertyOp4
 70
     1
102
RTVSPropertyOp5
 70
     1
102
RTVSPropertyOp6
 70
     1
102
RTVSPropertyOp7
 70
     1
102
RTVSPropertyOp8
 70
     1
102
RTVSPropertyOp9
 70
     1
102
RTVSPropertyOp10
 70
     1
102
RTVSPropertyOp11
 70
     1
102
RTVSPropertyOp12
 70
     1
102
RTVSPropertyOp13
 70
     1
102
RTVSPropertyOp14
 70
     1
102
RTVSPropertyOp15
 70
     1
102
RTVSPropertyOp16
 70
     1
102
RTVSPropertyOp17
 70
     1
102
RTVSPropertyOp18
 70
     1
102
RTVSPropertyOp19
 70
     1
102
RTVSPropertyOp20
 70
     1
102
RTVSPropertyOp21
 70
     1
102
RTVSPropertyOp22
 70
     1
102
RTVSPropertyOp23
 70
     1
102
RTVSPropertyOp24
 70
     1
102
RTVSPropertyOp25
 70
     1
102
RTVSPropertyOp26
 70
     1
102
RTVSPropertyOp27
 70
     1
102
RTVSPropertyOp28
 70
     1
102
RTVSPropertyOp29
 70
     1
102
RTVSPropertyOp30
 70
     1
102
RTVSPropertyOp31
 70
     1
102
RTVSPropertyOp32
 70
     1
  0
XRECORD
  5
54F
102
{ACAD_REACTORS
330
54E
102
}
330
54E
100
AcDbXrecord
280
     1
102
RTVSPropertyOp0
 70
     1
102
RTVSPropertyOp1
 70
     1
102
RTVSPropertyOp2
 70
     1
102
RTVSPropertyOp3
 70
     1
102
RTVSPropertyOp4
 70
     1
102
RTVSPropertyOp5
 70
     1
102
RTVSPropertyOp6
 70
     1
102
RTVSPropertyOp7
 70
     1
102
RTVSPropertyOp8
 70
     1
102
RTVSPropertyOp9
 70
     1
102
RTVSPropertyOp10
 70
     1
102
RTVSPropertyOp11
 70
     1
102
RTVSPropertyOp12
 70
     1
102
RTVSPropertyOp13
 70
     1
102
RTVSPropertyOp14
 70
     1
102
RTVSPropertyOp15
 70
     1
102
RTVSPropertyOp16
 70
     1
102
RTVSPropertyOp17
 70
     1
102
RTVSPropertyOp18
 70
     1
102
RTVSPropertyOp19
 70
     1
102
RTVSPropertyOp20
 70
     1
102
RTVSPropertyOp21
 70
     1
102
RTVSPropertyOp22
 70
     1
102
RTVSPropertyOp23
 70
     1
102
RTVSPropertyOp24
 70
     1
102
RTVSPropertyOp25
 70
     1
102
RTVSPropertyOp26
 70
     1
102
RTVSPropertyOp27
 70
     1
102
RTVSPropertyOp28
 70
     1
102
RTVSPropertyOp29
 70
     1
102
RTVSPropertyOp30
 70
     1
102
RTVSPropertyOp31
 70
     1
102
RTVSPropertyOp32
 70
     1
  0
XRECORD
  5
557
102
{ACAD_REACTORS
330
556
102
}
330
556
100
AcDbXrecord
280
     1
102
RTVSPropertyOp0
 70
     1
102
RTVSPropertyOp1
 70
     1
102
RTVSPropertyOp2
 70
     1
102
RTVSPropertyOp3
 70
     1
102
RTVSPropertyOp4
 70
     1
102
RTVSPropertyOp5
 70
     1
102
RTVSPropertyOp6
 70
     1
102
RTVSPropertyOp7
 70
     1
102
RTVSPropertyOp8
 70
     1
102
RTVSPropertyOp9
 70
     1
102
RTVSPropertyOp10
 70
     1
102
RTVSPropertyOp11
 70
     1
102
RTVSPropertyOp12
 70
     1
102
RTVSPropertyOp13
 70
     1
102
RTVSPropertyOp14
 70
     1
102
RTVSPropertyOp15
 70
     1
102
RTVSPropertyOp16
 70
     1
102
RTVSPropertyOp17
 70
     1
102
RTVSPropertyOp18
 70
     1
102
RTVSPropertyOp19
 70
     1
102
RTVSPropertyOp20
 70
     1
102
RTVSPropertyOp21
 70
     1
102
RTVSPropertyOp22
 70
     1
102
RTVSPropertyOp23
 70
     1
102
RTVSPropertyOp24
 70
     1
102
RTVSPropertyOp25
 70
     1
102
RTVSPropertyOp26
 70
     1
102
RTVSPropertyOp27
 70
     1
102
RTVSPropertyOp28
 70
     1
102
RTVSPropertyOp29
 70
     1
102
RTVSPropertyOp30
 70
     1
102
RTVSPropertyOp31
 70
     1
102
RTVSPropertyOp32
 70
     1
  0
XRECORD
  5
573
102
{ACAD_REACTORS
330
572
102
}
330
572
100
AcDbXrecord
280
     1
102
RTVSPropertyOp0
 70
     0
102
RTVSPropertyOp1
 70
     0
102
RTVSPropertyOp2
 70
     0
102
RTVSPropertyOp3
 70
     0
102
RTVSPropertyOp4
 70
     0
102
RTVSPropertyOp5
 70
     0
102
RTVSPropertyOp6
 70
     0
102
RTVSPropertyOp7
 70
     0
102
RTVSPropertyOp8
 70
     0
102
RTVSPropertyOp9
 70
     0
102
RTVSPropertyOp10
 70
     0
102
RTVSPropertyOp11
 70
     0
102
RTVSPropertyOp12
 70
     0
102
RTVSPropertyOp13
 70
     0
102
RTVSPropertyOp14
 70
     2
102
RTVSPropertyOp15
 70
     0
102
RTVSPropertyOp16
 70
     0
102
RTVSPropertyOp17
 70
     0
102
RTVSPropertyOp18
 70
     0
102
RTVSPropertyOp19
 70
     0
102
RTVSPropertyOp20
 70
     0
102
RTVSPropertyOp21
 70
     0
102
RTVSPropertyOp22
 70
     0
102
RTVSPropertyOp23
 70
     0
102
RTVSPropertyOp24
 70
     0
102
RTVSPropertyOp25
 70
     0
102
RTVSPropertyOp26
 70
     0
102
RTVSPropertyOp27
 70
     0
102
RTVSPropertyOp28
 70
     0
102
RTVSPropertyOp29
 70
     0
102
RTVSPropertyOp30
 70
     0
102
RTVSPropertyOp31
 70
     0
102
RTVSPropertyOp32
 70
     0
  0
XRECORD
  5
563
102
{ACAD_REACTORS
330
562
102
}
330
562
100
AcDbXrecord
280
     1
102
RTVSPropertyOp0
 70
     1
102
RTVSPropertyOp1
 70
     1
102
RTVSPropertyOp2
 70
     1
102
RTVSPropertyOp3
 70
     1
102
RTVSPropertyOp4
 70
     1
102
RTVSPropertyOp5
 70
     1
102
RTVSPropertyOp6
 70
     1
102
RTVSPropertyOp7
 70
     1
102
RTVSPropertyOp8
 70
     1
102
RTVSPropertyOp9
 70
     1
102
RTVSPropertyOp10
 70
     1
102
RTVSPropertyOp11
 70
     1
102
RTVSPropertyOp12
 70
     1
102
RTVSPropertyOp13
 70
     1
102
RTVSPropertyOp14
 70
     1
102
RTVSPropertyOp15
 70
     1
102
RTVSPropertyOp16
 70
     1
102
RTVSPropertyOp17
 70
     1
102
RTVSPropertyOp18
 70
     1
102
RTVSPropertyOp19
 70
     1
102
RTVSPropertyOp20
 70
     1
102
RTVSPropertyOp21
 70
     1
102
RTVSPropertyOp22
 70
     1
102
RTVSPropertyOp23
 70
     1
102
RTVSPropertyOp24
 70
     1
102
RTVSPropertyOp25
 70
     1
102
RTVSPropertyOp26
 70
     1
102
RTVSPropertyOp27
 70
     1
102
RTVSPropertyOp28
 70
     1
102
RTVSPropertyOp29
 70
     1
102
RTVSPropertyOp30
 70
     1
102
RTVSPropertyOp31
 70
     1
102
RTVSPropertyOp32
 70
     1
  0
XRECORD
  5
575
102
{ACAD_REACTORS
330
574
102
}
330
574
100
AcDbXrecord
280
     1
102
RTVSPropertyOp0
 70
     0
102
RTVSPropertyOp1
 70
     0
102
RTVSPropertyOp2
 70
     0
102
RTVSPropertyOp3
 70
     0
102
RTVSPropertyOp4
 70
     0
102
RTVSPropertyOp5
 70
     0
102
RTVSPropertyOp6
 70
     0
102
RTVSPropertyOp7
 70
     0
102
RTVSPropertyOp8
 70
     0
102
RTVSPropertyOp9
 70
     0
102
RTVSPropertyOp10
 70
     0
102
RTVSPropertyOp11
 70
     0
102
RTVSPropertyOp12
 70
     0
102
RTVSPropertyOp13
 70
     0
102
RTVSPropertyOp14
 70
     2
102
RTVSPropertyOp15
 70
     0
102
RTVSPropertyOp16
 70
     0
102
RTVSPropertyOp17
 70
     0
102
RTVSPropertyOp18
 70
     0
102
RTVSPropertyOp19
 70
     0
102
RTVSPropertyOp20
 70
     0
102
RTVSPropertyOp21
 70
     0
102
RTVSPropertyOp22
 70
     0
102
RTVSPropertyOp23
 70
     0
102
RTVSPropertyOp24
 70
     0
102
RTVSPropertyOp25
 70
     0
102
RTVSPropertyOp26
 70
     0
102
RTVSPropertyOp27
 70
     0
102
RTVSPropertyOp28
 70
     0
102
RTVSPropertyOp29
 70
     0
102
RTVSPropertyOp30
 70
     0
102
RTVSPropertyOp31
 70
     0
102
RTVSPropertyOp32
 70
     0
  0
XRECORD
  5
55B
102
{ACAD_REACTORS
330
55A
102
}
330
55A
100
AcDbXrecord
280
     1
102
RTVSPropertyOp0
 70
     1
102
RTVSPropertyOp1
 70
     1
102
RTVSPropertyOp2
 70
     1
102
RTVSPropertyOp3
 70
     1
102
RTVSPropertyOp4
 70
     1
102
RTVSPropertyOp5
 70
     1
102
RTVSPropertyOp6
 70
     1
102
RTVSPropertyOp7
 70
     1
102
RTVSPropertyOp8
 70
     1
102
RTVSPropertyOp9
 70
     1
102
RTVSPropertyOp10
 70
     1
102
RTVSPropertyOp11
 70
     1
102
RTVSPropertyOp12
 70
     1
102
RTVSPropertyOp13
 70
     1
102
RTVSPropertyOp14
 70
     1
102
RTVSPropertyOp15
 70
     1
102
RTVSPropertyOp16
 70
     1
102
RTVSPropertyOp17
 70
     1
102
RTVSPropertyOp18
 70
     1
102
RTVSPropertyOp19
 70
     1
102
RTVSPropertyOp20
 70
     1
102
RTVSPropertyOp21
 70
     1
102
RTVSPropertyOp22
 70
     1
102
RTVSPropertyOp23
 70
     1
102
RTVSPropertyOp24
 70
     1
102
RTVSPropertyOp25
 70
     1
102
RTVSPropertyOp26
 70
     1
102
RTVSPropertyOp27
 70
     1
102
RTVSPropertyOp28
 70
     1
102
RTVSPropertyOp29
 70
     1
102
RTVSPropertyOp30
 70
     1
102
RTVSPropertyOp31
 70
     1
102
RTVSPropertyOp32
 70
     1
  0
XRECORD
  5
571
102
{ACAD_REACTORS
330
570
102
}
330
570
100
AcDbXrecord
280
     1
102
RTVSPropertyOp0
 70
     1
102
RTVSPropertyOp1
 70
     1
102
RTVSPropertyOp2
 70
     1
102
RTVSPropertyOp3
 70
     1
102
RTVSPropertyOp4
 70
     1
102
RTVSPropertyOp5
 70
     1
102
RTVSPropertyOp6
 70
     1
102
RTVSPropertyOp7
 70
     1
102
RTVSPropertyOp8
 70
     1
102
RTVSPropertyOp9
 70
     1
102
RTVSPropertyOp10
 70
     1
102
RTVSPropertyOp11
 70
     1
102
RTVSPropertyOp12
 70
     1
102
RTVSPropertyOp13
 70
     1
102
RTVSPropertyOp14
 70
     1
102
RTVSPropertyOp15
 70
     1
102
RTVSPropertyOp16
 70
     1
102
RTVSPropertyOp17
 70
     1
102
RTVSPropertyOp18
 70
     1
102
RTVSPropertyOp19
 70
     1
102
RTVSPropertyOp20
 70
     1
102
RTVSPropertyOp21
 70
     1
102
RTVSPropertyOp22
 70
     1
102
RTVSPropertyOp23
 70
     1
102
RTVSPropertyOp24
 70
     1
102
RTVSPropertyOp25
 70
     1
102
RTVSPropertyOp26
 70
     1
102
RTVSPropertyOp27
 70
     1
102
RTVSPropertyOp28
 70
     1
102
RTVSPropertyOp29
 70
     1
102
RTVSPropertyOp30
 70
     1
102
RTVSPropertyOp31
 70
     1
102
RTVSPropertyOp32
 70
     1
  0
XRECORD
  5
56F
102
{ACAD_REACTORS
330
56E
102
}
330
56E
100
AcDbXrecord
280
     1
102
RTVSPropertyOp0
 70
     1
102
RTVSPropertyOp1
 70
     1
102
RTVSPropertyOp2
 70
     1
102
RTVSPropertyOp3
 70
     1
102
RTVSPropertyOp4
 70
     1
102
RTVSPropertyOp5
 70
     1
102
RTVSPropertyOp6
 70
     1
102
RTVSPropertyOp7
 70
     1
102
RTVSPropertyOp8
 70
     1
102
RTVSPropertyOp9
 70
     1
102
RTVSPropertyOp10
 70
     1
102
RTVSPropertyOp11
 70
     1
102
RTVSPropertyOp12
 70
     1
102
RTVSPropertyOp13
 70
     1
102
RTVSPropertyOp14
 70
     1
102
RTVSPropertyOp15
 70
     1
102
RTVSPropertyOp16
 70
     1
102
RTVSPropertyOp17
 70
     1
102
RTVSPropertyOp18
 70
     1
102
RTVSPropertyOp19
 70
     1
102
RTVSPropertyOp20
 70
     1
102
RTVSPropertyOp21
 70
     1
102
RTVSPropertyOp22
 70
     1
102
RTVSPropertyOp23
 70
     1
102
RTVSPropertyOp24
 70
     1
102
RTVSPropertyOp25
 70
     1
102
RTVSPropertyOp26
 70
     1
102
RTVSPropertyOp27
 70
     1
102
RTVSPropertyOp28
 70
     1
102
RTVSPropertyOp29
 70
     1
102
RTVSPropertyOp30
 70
     1
102
RTVSPropertyOp31
 70
     1
102
RTVSPropertyOp32
 70
     1
  0
XRECORD
  5
569
102
{ACAD_REACTORS
330
568
102
}
330
568
100
AcDbXrecord
280
     1
102
RTVSPropertyOp0
 70
     1
102
RTVSPropertyOp1
 70
     1
102
RTVSPropertyOp2
 70
     1
102
RTVSPropertyOp3
 70
     1
102
RTVSPropertyOp4
 70
     1
102
RTVSPropertyOp5
 70
     1
102
RTVSPropertyOp6
 70
     1
102
RTVSPropertyOp7
 70
     1
102
RTVSPropertyOp8
 70
     1
102
RTVSPropertyOp9
 70
     1
102
RTVSPropertyOp10
 70
     1
102
RTVSPropertyOp11
 70
     1
102
RTVSPropertyOp12
 70
     1
102
RTVSPropertyOp13
 70
     1
102
RTVSPropertyOp14
 70
     1
102
RTVSPropertyOp15
 70
     1
102
RTVSPropertyOp16
 70
     1
102
RTVSPropertyOp17
 70
     1
102
RTVSPropertyOp18
 70
     1
102
RTVSPropertyOp19
 70
     1
102
RTVSPropertyOp20
 70
     1
102
RTVSPropertyOp21
 70
     1
102
RTVSPropertyOp22
 70
     1
102
RTVSPropertyOp23
 70
     1
102
RTVSPropertyOp24
 70
     1
102
RTVSPropertyOp25
 70
     1
102
RTVSPropertyOp26
 70
     1
102
RTVSPropertyOp27
 70
     1
102
RTVSPropertyOp28
 70
     1
102
RTVSPropertyOp29
 70
     1
102
RTVSPropertyOp30
 70
     1
102
RTVSPropertyOp31
 70
     1
102
RTVSPropertyOp32
 70
     1
  0
XRECORD
  5
56B
102
{ACAD_REACTORS
330
56A
102
}
330
56A
100
AcDbXrecord
280
     1
102
RTVSPropertyOp0
 70
     1
102
RTVSPropertyOp1
 70
     1
102
RTVSPropertyOp2
 70
     1
102
RTVSPropertyOp3
 70
     1
102
RTVSPropertyOp4
 70
     1
102
RTVSPropertyOp5
 70
     1
102
RTVSPropertyOp6
 70
     1
102
RTVSPropertyOp7
 70
     1
102
RTVSPropertyOp8
 70
     1
102
RTVSPropertyOp9
 70
     1
102
RTVSPropertyOp10
 70
     1
102
RTVSPropertyOp11
 70
     1
102
RTVSPropertyOp12
 70
     1
102
RTVSPropertyOp13
 70
     1
102
RTVSPropertyOp14
 70
     1
102
RTVSPropertyOp15
 70
     1
102
RTVSPropertyOp16
 70
     1
102
RTVSPropertyOp17
 70
     1
102
RTVSPropertyOp18
 70
     1
102
RTVSPropertyOp19
 70
     1
102
RTVSPropertyOp20
 70
     1
102
RTVSPropertyOp21
 70
     1
102
RTVSPropertyOp22
 70
     1
102
RTVSPropertyOp23
 70
     1
102
RTVSPropertyOp24
 70
     1
102
RTVSPropertyOp25
 70
     1
102
RTVSPropertyOp26
 70
     1
102
RTVSPropertyOp27
 70
     1
102
RTVSPropertyOp28
 70
     1
102
RTVSPropertyOp29
 70
     1
102
RTVSPropertyOp30
 70
     1
102
RTVSPropertyOp31
 70
     1
102
RTVSPropertyOp32
 70
     1
  0
XRECORD
  5
561
102
{ACAD_REACTORS
330
560
102
}
330
560
100
AcDbXrecord
280
     1
102
RTVSPropertyOp0
 70
     1
102
RTVSPropertyOp1
 70
     1
102
RTVSPropertyOp2
 70
     1
102
RTVSPropertyOp3
 70
     1
102
RTVSPropertyOp4
 70
     1
102
RTVSPropertyOp5
 70
     1
102
RTVSPropertyOp6
 70
     1
102
RTVSPropertyOp7
 70
     1
102
RTVSPropertyOp8
 70
     1
102
RTVSPropertyOp9
 70
     1
102
RTVSPropertyOp10
 70
     1
102
RTVSPropertyOp11
 70
     1
102
RTVSPropertyOp12
 70
     1
102
RTVSPropertyOp13
 70
     1
102
RTVSPropertyOp14
 70
     1
102
RTVSPropertyOp15
 70
     1
102
RTVSPropertyOp16
 70
     1
102
RTVSPropertyOp17
 70
     1
102
RTVSPropertyOp18
 70
     1
102
RTVSPropertyOp19
 70
     1
102
RTVSPropertyOp20
 70
     1
102
RTVSPropertyOp21
 70
     1
102
RTVSPropertyOp22
 70
     1
102
RTVSPropertyOp23
 70
     1
102
RTVSPropertyOp24
 70
     1
102
RTVSPropertyOp25
 70
     1
102
RTVSPropertyOp26
 70
     1
102
RTVSPropertyOp27
 70
     1
102
RTVSPropertyOp28
 70
     1
102
RTVSPropertyOp29
 70
     1
102
RTVSPropertyOp30
 70
     1
102
RTVSPropertyOp31
 70
     1
102
RTVSPropertyOp32
 70
     1
  0
XRECORD
  5
555
102
{ACAD_REACTORS
330
554
102
}
330
554
100
AcDbXrecord
280
     1
102
RTVSPropertyOp0
 70
     1
102
RTVSPropertyOp1
 70
     1
102
RTVSPropertyOp2
 70
     1
102
RTVSPropertyOp3
 70
     1
102
RTVSPropertyOp4
 70
     1
102
RTVSPropertyOp5
 70
     1
102
RTVSPropertyOp6
 70
     1
102
RTVSPropertyOp7
 70
     1
102
RTVSPropertyOp8
 70
     1
102
RTVSPropertyOp9
 70
     1
102
RTVSPropertyOp10
 70
     1
102
RTVSPropertyOp11
 70
     1
102
RTVSPropertyOp12
 70
     1
102
RTVSPropertyOp13
 70
     1
102
RTVSPropertyOp14
 70
     1
102
RTVSPropertyOp15
 70
     1
102
RTVSPropertyOp16
 70
     1
102
RTVSPropertyOp17
 70
     1
102
RTVSPropertyOp18
 70
     1
102
RTVSPropertyOp19
 70
     1
102
RTVSPropertyOp20
 70
     1
102
RTVSPropertyOp21
 70
     1
102
RTVSPropertyOp22
 70
     1
102
RTVSPropertyOp23
 70
     1
102
RTVSPropertyOp24
 70
     1
102
RTVSPropertyOp25
 70
     1
102
RTVSPropertyOp26
 70
     1
102
RTVSPropertyOp27
 70
     1
102
RTVSPropertyOp28
 70
     1
102
RTVSPropertyOp29
 70
     1
102
RTVSPropertyOp30
 70
     1
102
RTVSPropertyOp31
 70
     1
102
RTVSPropertyOp32
 70
     1
  0
XRECORD
  5
56D
102
{ACAD_REACTORS
330
56C
102
}
330
56C
100
AcDbXrecord
280
     1
102
RTVSPropertyOp0
 70
     1
102
RTVSPropertyOp1
 70
     1
102
RTVSPropertyOp2
 70
     1
102
RTVSPropertyOp3
 70
     1
102
RTVSPropertyOp4
 70
     1
102
RTVSPropertyOp5
 70
     1
102
RTVSPropertyOp6
 70
     1
102
RTVSPropertyOp7
 70
     1
102
RTVSPropertyOp8
 70
     1
102
RTVSPropertyOp9
 70
     1
102
RTVSPropertyOp10
 70
     1
102
RTVSPropertyOp11
 70
     1
102
RTVSPropertyOp12
 70
     1
102
RTVSPropertyOp13
 70
     1
102
RTVSPropertyOp14
 70
     1
102
RTVSPropertyOp15
 70
     1
102
RTVSPropertyOp16
 70
     1
102
RTVSPropertyOp17
 70
     1
102
RTVSPropertyOp18
 70
     1
102
RTVSPropertyOp19
 70
     1
102
RTVSPropertyOp20
 70
     1
102
RTVSPropertyOp21
 70
     1
102
RTVSPropertyOp22
 70
     1
102
RTVSPropertyOp23
 70
     1
102
RTVSPropertyOp24
 70
     1
102
RTVSPropertyOp25
 70
     1
102
RTVSPropertyOp26
 70
     1
102
RTVSPropertyOp27
 70
     1
102
RTVSPropertyOp28
 70
     1
102
RTVSPropertyOp29
 70
     1
102
RTVSPropertyOp30
 70
     1
102
RTVSPropertyOp31
 70
     1
102
RTVSPropertyOp32
 70
     1
  0
ENDSEC
  0
EOF
