  0
SECTION
  2
HEADER
  9
$ACADVER
  1
AC1015
  9
$ACADMAINTVER
 70
    20
  9
$DWGCODEPAGE
  3
ANSI_932
  9
$INSBASE
 10
0.0
 20
0.0
 30
0.0
  9
$EXTMIN
 10
331.444967
 20
3.424736999999993
 30
0.0
  9
$EXTMAX
 10
736.4449669999997
 20
277.480098
 30
0.0
  9
$LIMMIN
 10
331.443977
 20
3.423737
  9
$LIMMAX
 10
736.471825
 20
277.4811029999999
  9
$ORTHOMODE
 70
     1
  9
$REGENMODE
 70
     1
  9
$FILLMODE
 70
     1
  9
$QTEXTMODE
 70
     0
  9
$MIRRTEXT
 70
     0
  9
$LTSCALE
 40
6.750430999999997
  9
$ATTMODE
 70
     1
  9
$TEXTSIZE
 40
3.2
  9
$TRACEWID
 40
0.05
  9
$TEXTSTYLE
  7
高3.2
  9
$CLAYER
  8
0
  9
$CELTYPE
  6
ByLayer
  9
$CECOLOR
 62
   256
  9
$CELTSCALE
 40
1.0
  9
$DISPSILH
 70
     0
  9
$DIMSCALE
 40
1.0
  9
$DIMASZ
 40
2.5
  9
$DIMEXO
 40
0.25
  9
$DIMDLI
 40
0.2
  9
$DIMRND
 40
0.0
  9
$DIMDLE
 40
0.0
  9
$DIMEXE
 40
1.25
  9
$DIMTP
 40
0.0
  9
$DIMTM
 40
0.0
  9
$DIMTXT
 40
3.0
  9
$DIMCEN
 40
0.0
  9
$DIMTSZ
 40
0.0
  9
$DIMTOL
 70
     0
  9
$DIMLIM
 70
     0
  9
$DIMTIH
 70
     0
  9
$DIMTOH
 70
     0
  9
$DIMSE1
 70
     0
  9
$DIMSE2
 70
     0
  9
$DIMTAD
 70
     3
  9
$DIMZIN
 70
     8
  9
$DIMBLK
  1
Open30
  9
$DIMASO
 70
     1
  9
$DIMSHO
 70
     1
  9
$DIMPOST
  1

  9
$DIMAPOST
  1

  9
$DIMALT
 70
     0
  9
$DIMALTD
 70
     3
  9
$DIMALTF
 40
0.03937007874016
  9
$DIMLFAC
 40
1.0
  9
$DIMTOFL
 70
     1
  9
$DIMTVP
 40
0.0
  9
$DIMTIX
 70
     0
  9
$DIMSOXD
 70
     0
  9
$DIMSAH
 70
     0
  9
$DIMBLK1
  1

  9
$DIMBLK2
  1

  9
$DIMSTYLE
  2
FREE
  9
$DIMCLRD
 70
     0
  9
$DIMCLRE
 70
     0
  9
$DIMCLRT
 70
     4
  9
$DIMTFAC
 40
1.0
  9
$DIMGAP
 40
0.625
  9
$DIMJUST
 70
     0
  9
$DIMSD1
 70
     0
  9
$DIMSD2
 70
     0
  9
$DIMTOLJ
 70
     0
  9
$DIMTZIN
 70
     8
  9
$DIMALTZ
 70
     0
  9
$DIMALTTZ
 70
     0
  9
$DIMUPT
 70
     1
  9
$DIMDEC
 70
     2
  9
$DIMTDEC
 70
     2
  9
$DIMALTU
 70
     2
  9
$DIMALTTD
 70
     3
  9
$DIMTXSTY
  7
STANDARD
  9
$DIMAUNIT
 70
     0
  9
$DIMADEC
 70
     1
  9
$DIMALTRND
 40
0.0
  9
$DIMAZIN
 70
     2
  9
$DIMDSEP
 70
    46
  9
$DIMATFIT
 70
     0
  9
$DIMFRAC
 70
     0
  9
$DIMLDRBLK
  1
Open30
  9
$DIMLUNIT
 70
     2
  9
$DIMLWD
 70
    -2
  9
$DIMLWE
 70
    -2
  9
$DIMTMOVE
 70
     0
  9
$LUNITS
 70
     2
  9
$LUPREC
 70
     4
  9
$SKETCHINC
 40
0.1
  9
$FILLETRAD
 40
0.0
  9
$AUNITS
 70
     0
  9
$AUPREC
 70
     0
  9
$MENU
  1
.
  9
$ELEVATION
 40
0.0
  9
$PELEVATION
 40
0.0
  9
$THICKNESS
 40
0.0
  9
$LIMCHECK
 70
     0
  9
$CHAMFERA
 40
0.0
  9
$CHAMFERB
 40
0.0
  9
$CHAMFERC
 40
0.0
  9
$CHAMFERD
 40
0.0
  9
$SKPOLY
 70
     0
  9
$TDCREATE
 40
2456214.640362639
  9
$TDUCREATE
 40
2456214.265362639
  9
$TDUPDATE
 40
2459893.496686169
  9
$TDUUPDATE
 40
2459893.121686169
  9
$TDINDWG
 40
0.0508248727
  9
$TDUSRTIMER
 40
0.0508243171
  9
$USRTIMER
 70
     1
  9
$ANGBASE
 50
0.0
  9
$ANGDIR
 70
     0
  9
$PDMODE
 70
     0
  9
$PDSIZE
 40
0.0
  9
$PLINEWID
 40
0.0
  9
$SPLFRAME
 70
     0
  9
$SPLINETYPE
 70
     6
  9
$SPLINESEGS
 70
     8
  9
$HANDSEED
  5
1DE5
  9
$SURFTAB1
 70
     6
  9
$SURFTAB2
 70
     6
  9
$SURFTYPE
 70
     6
  9
$SURFU
 70
     6
  9
$SURFV
 70
     6
  9
$UCSBASE
  2

  9
$UCSNAME
  2

  9
$UCSORG
 10
0.0
 20
0.0
 30
0.0
  9
$UCSXDIR
 10
1.0
 20
0.0
 30
0.0
  9
$UCSYDIR
 10
0.0
 20
1.0
 30
0.0
  9
$UCSORTHOREF
  2

  9
$UCSORTHOVIEW
 70
     0
  9
$UCSORGTOP
 10
0.0
 20
0.0
 30
0.0
  9
$UCSORGBOTTOM
 10
0.0
 20
0.0
 30
0.0
  9
$UCSORGLEFT
 10
0.0
 20
0.0
 30
0.0
  9
$UCSORGRIGHT
 10
0.0
 20
0.0
 30
0.0
  9
$UCSORGFRONT
 10
0.0
 20
0.0
 30
0.0
  9
$UCSORGBACK
 10
0.0
 20
0.0
 30
0.0
  9
$PUCSBASE
  2

  9
$PUCSNAME
  2

  9
$PUCSORG
 10
0.0
 20
0.0
 30
0.0
  9
$PUCSXDIR
 10
1.0
 20
0.0
 30
0.0
  9
$PUCSYDIR
 10
0.0
 20
1.0
 30
0.0
  9
$PUCSORTHOREF
  2

  9
$PUCSORTHOVIEW
 70
     0
  9
$PUCSORGTOP
 10
0.0
 20
0.0
 30
0.0
  9
$PUCSORGBOTTOM
 10
0.0
 20
0.0
 30
0.0
  9
$PUCSORGLEFT
 10
0.0
 20
0.0
 30
0.0
  9
$PUCSORGRIGHT
 10
0.0
 20
0.0
 30
0.0
  9
$PUCSORGFRONT
 10
0.0
 20
0.0
 30
0.0
  9
$PUCSORGBACK
 10
0.0
 20
0.0
 30
0.0
  9
$USERI1
 70
     0
  9
$USERI2
 70
     0
  9
$USERI3
 70
     0
  9
$USERI4
 70
     0
  9
$USERI5
 70
     0
  9
$USERR1
 40
0.0
  9
$USERR2
 40
0.0
  9
$USERR3
 40
0.0
  9
$USERR4
 40
0.0
  9
$USERR5
 40
0.0
  9
$WORLDVIEW
 70
     1
  9
$SHADEDGE
 70
     3
  9
$SHADEDIF
 70
    70
  9
$TILEMODE
 70
     1
  9
$MAXACTVP
 70
    64
  9
$PINSBASE
 10
0.0
 20
0.0
 30
0.0
  9
$PLIMCHECK
 70
     0
  9
$PEXTMIN
 10
1.000000000000000E+20
 20
1.000000000000000E+20
 30
1.000000000000000E+20
  9
$PEXTMAX
 10
-1.000000000000000E+20
 20
-1.000000000000000E+20
 30
-1.000000000000000E+20
  9
$PLIMMIN
 10
0.0
 20
0.0
  9
$PLIMMAX
 10
12.0
 20
9.0
  9
$UNITMODE
 70
     0
  9
$VISRETAIN
 70
     1
  9
$PLINEGEN
 70
     0
  9
$PSLTSCALE
 70
     1
  9
$TREEDEPTH
 70
  3020
  9
$CMLSTYLE
  2
Standard
  9
$CMLJUST
 70
     0
  9
$CMLSCALE
 40
1.0
  9
$PROXYGRAPHICS
 70
     1
  9
$MEASUREMENT
 70
     0
  9
$CELWEIGHT
370
    -1
  9
$ENDCAPS
280
     0
  9
$JOINSTYLE
280
     0
  9
$LWDISPLAY
290
     0
  9
$INSUNITS
 70
     0
  9
$HYPERLINKBASE
  1

  9
$STYLESHEET
  1

  9
$XEDIT
290
     1
  9
$CEPSNTYPE
380
     0
  9
$PSTYLEMODE
290
     1
  9
$FINGERPRINTGUID
  2
{0999FED6-328F-484C-9DC4-05A9303901EC}
  9
$VERSIONGUID
  2
{A359A70D-C5D4-41C4-A0B8-F5C314EDBEF9}
  9
$EXTNAMES
290
     1
  9
$PSVPSCALE
 40
0.0
  9
$OLESTARTUP
290
     0
  0
ENDSEC
  0
SECTION
  2
CLASSES
  0
CLASS
  1
ACDBDICTIONARYWDFLT
  2
AcDbDictionaryWithDefault
  3
ObjectDBX Classes
 90
        0
280
     0
281
     0
  0
CLASS
  1
MATERIAL
  2
AcDbMaterial
  3
ObjectDBX Classes
 90
     1153
280
     0
281
     0
  0
CLASS
  1
VISUALSTYLE
  2
AcDbVisualStyle
  3
ObjectDBX Classes
 90
     4095
280
     0
281
     0
  0
CLASS
  1
SCALE
  2
AcDbScale
  3
ObjectDBX Classes
 90
     1153
280
     0
281
     0
  0
CLASS
  1
TABLESTYLE
  2
AcDbTableStyle
  3
ObjectDBX Classes
 90
     4095
280
     0
281
     0
  0
CLASS
  1
MLEADERSTYLE
  2
AcDbMLeaderStyle
  3
ACDB_MLEADERSTYLE_CLASS
 90
     4095
280
     0
281
     0
  0
CLASS
  1
SORTENTSTABLE
  2
AcDbSortentsTable
  3
ObjectDBX Classes
 90
        0
280
     0
281
     0
  0
CLASS
  1
DICTIONARYVAR
  2
AcDbDictionaryVar
  3
ObjectDBX Classes
 90
        0
280
     0
281
     0
  0
CLASS
  1
CELLSTYLEMAP
  2
AcDbCellStyleMap
  3
ObjectDBX Classes
 90
     1152
280
     0
281
     0
  0
CLASS
  1
ACDBPLACEHOLDER
  2
AcDbPlaceHolder
  3
ObjectDBX Classes
 90
        0
280
     0
281
     0
  0
CLASS
  1
LAYOUT
  2
AcDbLayout
  3
ObjectDBX Classes
 90
        0
280
     0
281
     0
  0
ENDSEC
  0
SECTION
  2
TABLES
  0
TABLE
  2
VPORT
  5
8
330
0
100
AcDbSymbolTable
 70
     1
  0
VPORT
  5
8B
330
8
100
AcDbSymbolTableRecord
100
AcDbViewportTableRecord
  2
*Active
 70
     0
 10
0.0
 20
0.0
 11
1.0
 21
1.0
 12
585.3367057635162
 22
124.6542218022698
 13
0.0
 23
0.0
 14
1.0
 24
1.0
 15
0.0
 25
0.0
 16
0.0
 26
0.0
 36
1.0
 17
0.0
 27
0.0
 37
0.0
 40
677.7230456438071
 41
1.166666666666666
 42
50.0
 43
0.0
 44
0.0
 50
0.0
 51
0.0
 71
     0
 72
   100
 73
     1
 74
     1
 75
     0
 76
     0
 77
     0
 78
     0
281
     0
 65
     1
110
0.0
120
0.0
130
0.0
111
1.0
121
0.0
131
0.0
112
0.0
122
1.0
132
0.0
 79
     0
146
0.0
  0
ENDTAB
  0
TABLE
  2
LTYPE
  5
5
330
0
100
AcDbSymbolTable
 70
     2
  0
LTYPE
  5
5A
330
5
100
AcDbSymbolTableRecord
100
AcDbLinetypeTableRecord
  2
ByBlock
 70
     0
  3

 72
    65
 73
     0
 40
0.0
  0
LTYPE
  5
5B
330
5
100
AcDbSymbolTableRecord
100
AcDbLinetypeTableRecord
  2
ByLayer
 70
     0
  3

 72
    65
 73
     0
 40
0.0
  0
LTYPE
  5
5C
330
5
100
AcDbSymbolTableRecord
100
AcDbLinetypeTableRecord
  2
CONTINUOUS
 70
     0
  3
Solid-line
 72
    65
 73
     0
 40
0.0
  0
ENDTAB
  0
TABLE
  2
LAYER
  5
2
102
{ACAD_XDICTIONARY
360
475
102
}
330
0
100
AcDbSymbolTable
 70
     2
  0
LAYER
  5
54
102
{ACAD_XDICTIONARY
360
60B
102
}
330
2
100
AcDbSymbolTableRecord
100
AcDbLayerTableRecord
  2
0
 70
     0
 62
     7
  6
CONTINUOUS
370
    -3
390
F
  0
LAYER
  5
460
330
2
100
AcDbSymbolTableRecord
100
AcDbLayerTableRecord
  2
Defpoints
 70
     0
 62
     7
  6
CONTINUOUS
290
     0
370
    -3
390
F
  0
ENDTAB
  0
TABLE
  2
STYLE
  5
3
330
0
100
AcDbSymbolTable
 70
     6
  0
STYLE
  5
55
330
3
100
AcDbSymbolTableRecord
100
AcDbTextStyleTableRecord
  2
STANDARD
 70
     0
 40
0.0
 41
1.0
 50
0.0
 71
     0
 42
0.2
  3
TXT
  4
BIGFONT
  0
STYLE
  5
461
330
3
100
AcDbSymbolTableRecord
100
AcDbTextStyleTableRecord
  2
高3.2
 70
     0
 40
3.2
 41
1.0
 50
0.0
 71
     0
 42
3.2
  3
txt.shx
  4
bigfont.shx
  0
STYLE
  5
462
330
3
100
AcDbSymbolTableRecord
100
AcDbTextStyleTableRecord
  2
高6.3
 70
     0
 40
6.299999999999998
 41
1.0
 50
0.0
 71
     0
 42
6.299999999999998
  3
txt.shx
  4
bigfont.shx
  0
STYLE
  5
463
330
3
100
AcDbSymbolTableRecord
100
AcDbTextStyleTableRecord
  2
高2.5
 70
     0
 40
2.5
 41
1.0
 50
0.0
 71
     0
 42
0.2
  3
txt.shx
  4
bigfont.shx
  0
STYLE
  5
464
330
3
100
AcDbSymbolTableRecord
100
AcDbTextStyleTableRecord
  2
高4.5
 70
     0
 40
4.5
 41
1.0
 50
0.0
 71
     0
 42
6.299999999999998
  3
txt.shx
  4
bigfont.shx
  0
STYLE
  5
465
330
3
100
AcDbSymbolTableRecord
100
AcDbTextStyleTableRecord
  2
高2
 70
     0
 40
2.0
 41
1.0
 50
0.0
 71
     0
 42
2.0
  3
txt.shx
  4
bigfont.shx
  0
ENDTAB
  0
TABLE
  2
VIEW
  5
6
330
0
100
AcDbSymbolTable
 70
     0
  0
ENDTAB
  0
TABLE
  2
UCS
  5
7
330
0
100
AcDbSymbolTable
 70
     0
  0
ENDTAB
  0
TABLE
  2
APPID
  5
9
330
0
100
AcDbSymbolTable
 70
    13
  0
APPID
  5
56
330
9
100
AcDbSymbolTableRecord
100
AcDbRegAppTableRecord
  2
ACAD
 70
     0
  0
APPID
  5
5D
330
9
100
AcDbSymbolTableRecord
100
AcDbRegAppTableRecord
  2
AcadAnnotative
 70
     0
  0
APPID
  5
470
330
9
100
AcDbSymbolTableRecord
100
AcDbRegAppTableRecord
  2
ACAD_DSTYLE_DIMJOGGED_JOGANGLE_SYMBOL
 70
     0
  0
APPID
  5
471
330
9
100
AcDbSymbolTableRecord
100
AcDbRegAppTableRecord
  2
ACAD_DSTYLE_DIMJAG
 70
     0
  0
APPID
  5
472
330
9
100
AcDbSymbolTableRecord
100
AcDbRegAppTableRecord
  2
ACAD_DSTYLE_DIMBREAK
 70
     0
  0
APPID
  5
473
330
9
100
AcDbSymbolTableRecord
100
AcDbRegAppTableRecord
  2
ACAD_DSTYLE_DIMTALN
 70
     0
  0
APPID
  5
5B5
330
9
100
AcDbSymbolTableRecord
100
AcDbRegAppTableRecord
  2
ACAD_EXEMPT_FROM_CAD_STANDARDS
 70
     0
  0
APPID
  5
653
330
9
100
AcDbSymbolTableRecord
100
AcDbRegAppTableRecord
  2
ACAD_MLEADERVER
 70
     0
  0
APPID
  5
658
330
9
100
AcDbSymbolTableRecord
100
AcDbRegAppTableRecord
  2
ACAD_DSTYLE_DIMARC_LENGTH_SYMBOL
 70
     0
  0
APPID
  5
659
330
9
100
AcDbSymbolTableRecord
100
AcDbRegAppTableRecord
  2
ACAD_DSTYLE_DIMEXT_LENGTH
 70
     0
  0
APPID
  5
6C6
330
9
100
AcDbSymbolTableRecord
100
AcDbRegAppTableRecord
  2
ACAD_PSEXT
 70
     0
  0
APPID
  5
D91
330
9
100
AcDbSymbolTableRecord
100
AcDbRegAppTableRecord
  2
GradientColor1ACI
 70
     0
  0
APPID
  5
D92
330
9
100
AcDbSymbolTableRecord
100
AcDbRegAppTableRecord
  2
GradientColor2ACI
 70
     0
  0
ENDTAB
  0
TABLE
  2
DIMSTYLE
  5
A
330
0
100
AcDbSymbolTable
 70
     3
100
AcDbDimStyleTable
 71
     3
340
46F
340
46A
340
57
  0
DIMSTYLE
105
57
330
A
100
AcDbSymbolTableRecord
100
AcDbDimStyleTableRecord
  2
Standard
 70
     0
340
55
  0
DIMSTYLE
105
46A
102
{ACAD_REACTORS
330
18C4
330
186A
330
16AD
330
1603
330
1601
330
15FA
330
15F9
330
15F8
330
15F7
102
}
330
A
100
AcDbSymbolTableRecord
100
AcDbDimStyleTableRecord
  2
1／2
 70
     0
 41
2.5
 42
0.25
 43
0.2
 44
1.25
 73
     0
 74
     0
 77
     3
 78
     8
 79
     2
140
3.0
141
0.0
143
0.03937007874016
144
2.0
147
0.625
171
     3
172
     1
178
     4
179
     1
271
     2
272
     2
274
     3
283
     0
284
     8
288
     1
289
     0
340
55
341
3D0
342
3D0
1001
ACAD_DSTYLE_DIMARC_LENGTH_SYMBOL
1070
   379
1070
     2
1001
ACAD_DSTYLE_DIMEXT_LENGTH
1070
   378
1040
1.25
1001
ACAD_DSTYLE_DIMJOGGED_JOGANGLE_SYMBOL
1070
   384
1040
1.570796326794896
  0
DIMSTYLE
105
46F
330
A
100
AcDbSymbolTableRecord
100
AcDbDimStyleTableRecord
  2
FREE
 70
     0
 41
2.5
 42
0.25
 43
0.2
 44
1.25
 73
     0
 74
     0
 77
     3
 78
     8
 79
     2
140
3.0
141
0.0
143
0.03937007874016
147
0.625
171
     3
172
     1
178
     4
179
     1
271
     2
272
     2
274
     3
283
     0
284
     8
288
     1
289
     0
340
55
341
3D0
342
3D0
1001
ACAD_DSTYLE_DIMBREAK
1070
   391
1040
3.75
1001
ACAD_DSTYLE_DIMJAG
1070
   388
1040
1.5
1001
ACAD_DSTYLE_DIMTALN
1070
   392
1070
     0
1001
ACAD_DSTYLE_DIMARC_LENGTH_SYMBOL
1070
   379
1070
     2
1001
ACAD_DSTYLE_DIMEXT_LENGTH
1070
   378
1040
1.25
1001
ACAD_DSTYLE_DIMJOGGED_JOGANGLE_SYMBOL
1070
   384
1040
1.570796326794896
  0
ENDTAB
  0
TABLE
  2
BLOCK_RECORD
  5
1
330
0
100
AcDbSymbolTable
 70
     7
  0
BLOCK_RECORD
  5
6B
102
{ACAD_XDICTIONARY
360
5FA
102
}
330
1
100
AcDbSymbolTableRecord
100
AcDbBlockTableRecord
  2
*Model_Space
340
6E
  0
BLOCK_RECORD
  5
67
330
1
100
AcDbSymbolTableRecord
100
AcDbBlockTableRecord
  2
*Paper_Space
340
6A
  0
BLOCK_RECORD
  5
3D0
330
1
100
AcDbSymbolTableRecord
100
AcDbBlockTableRecord
  2
_Open30
340
0
102
{BLKREFS
331
1C42
331
1C43
331
1C4B
331
1C4C
331
1C56
331
1C57
331
1C5F
331
1C60
331
1C68
331
1C69
331
1C71
331
1C72
102
}
  0
BLOCK_RECORD
  5
16B3
330
1
100
AcDbSymbolTableRecord
100
AcDbBlockTableRecord
  2
*D1
340
0
  0
BLOCK_RECORD
  5
16BF
330
1
100
AcDbSymbolTableRecord
100
AcDbBlockTableRecord
  2
*D2
340
0
  0
BLOCK_RECORD
  5
16CB
330
1
100
AcDbSymbolTableRecord
100
AcDbBlockTableRecord
  2
*D3
340
0
  0
BLOCK_RECORD
  5
16E3
330
1
100
AcDbSymbolTableRecord
100
AcDbBlockTableRecord
  2
*D4
340
0
  0
BLOCK_RECORD
  5
16F1
330
1
100
AcDbSymbolTableRecord
100
AcDbBlockTableRecord
  2
*D5
340
0
  0
BLOCK_RECORD
  5
16FD
330
1
100
AcDbSymbolTableRecord
100
AcDbBlockTableRecord
  2
*D6
340
0
  0
ENDTAB
  0
ENDSEC
  0
SECTION
  2
BLOCKS
  0
BLOCK
  5
6C
330
6B
100
AcDbEntity
  8
0
100
AcDbBlockBegin
  2
*Model_Space
 70
     0
 10
0.0
 20
0.0
 30
0.0
  3
*Model_Space
  1

  0
ENDBLK
  5
6D
330
6B
100
AcDbEntity
  8
0
100
AcDbBlockEnd
  0
BLOCK
  5
68
330
67
100
AcDbEntity
 67
     1
  8
0
100
AcDbBlockBegin
  2
*Paper_Space
 70
     0
 10
0.0
 20
0.0
 30
0.0
  3
*Paper_Space
  1

  0
ENDBLK
  5
69
330
67
100
AcDbEntity
 67
     1
  8
0
100
AcDbBlockEnd
  0
BLOCK
  5
3D1
330
3D0
100
AcDbEntity
  8
0
100
AcDbBlockBegin
  2
_Open30
 70
     0
 10
0.0
 20
0.0
 30
0.0
  3
_Open30
  1

  0
LINE
  5
3D2
330
3D0
100
AcDbEntity
  8
0
  6
ByBlock
 62
     0
370
    -2
100
AcDbLine
 10
-1.0
 20
0.267949
 30
0.0
 11
0.0
 21
0.0
 31
0.0
  0
LINE
  5
3D3
330
3D0
100
AcDbEntity
  8
0
  6
ByBlock
 62
     0
370
    -2
100
AcDbLine
 10
0.0
 20
0.0
 30
0.0
 11
-1.0
 21
-0.267949
 31
0.0
  0
LINE
  5
3D4
330
3D0
100
AcDbEntity
  8
0
  6
ByBlock
 62
     0
370
    -2
100
AcDbLine
 10
0.0
 20
0.0
 30
0.0
 11
-1.0
 21
0.0
 31
0.0
  0
ENDBLK
  5
3D5
330
3D0
100
AcDbEntity
  8
0
100
AcDbBlockEnd
  0
BLOCK
  5
16B4
330
16B3
100
AcDbEntity
  8
0
100
AcDbBlockBegin
  2
*D1
 70
     1
 10
0.0
 20
0.0
 30
0.0
  3
*D1
  1

  0
LINE
  5
1C6E
330
16B3
100
AcDbEntity
  8
0
 62
     0
370
    -2
100
AcDbLine
 10
651.3083463707852
 20
214.325803664785
 30
0.0
 11
651.3083463707852
 21
243.0219944901952
 31
0.0
  0
LINE
  5
1C6F
330
16B3
100
AcDbEntity
  8
0
 62
     0
370
    -2
100
AcDbLine
 10
563.5583463707852
 20
156.825803664785
 30
0.0
 11
563.5583463707852
 21
243.0219944901952
 31
0.0
  0
LINE
  5
1C70
330
16B3
100
AcDbEntity
  8
0
 62
     0
370
    -2
100
AcDbLine
 10
648.8083463707852
 20
241.7719944901952
 30
0.0
 11
566.0583463707852
 21
241.7719944901952
 31
0.0
  0
INSERT
  5
1C71
330
16B3
100
AcDbEntity
  8
0
 62
     0
370
    -2
100
AcDbBlockReference
  2
_Open30
 10
651.3083463707852
 20
241.7719944901952
 30
0.0
 41
2.5
 42
2.5
 43
2.5
  0
INSERT
  5
1C72
330
16B3
100
AcDbEntity
  8
0
 62
     0
370
    -2
100
AcDbBlockReference
  2
_Open30
 10
563.5583463707852
 20
241.7719944901952
 30
0.0
 41
2.5
 42
2.5
 43
2.5
 50
180.0
  0
MTEXT
  5
1C73
330
16B3
100
AcDbEntity
  8
0
 62
     4
100
AcDbMText
 10
610.2299224428557
 20
243.8969944901952
 30
0.0
 40
3.0
 41
0.0
 71
     5
 72
     1
  1
175.5
 73
     1
 44
1.0
1001
ACAD
1000
MTEXTBEGIN
1070
    73
1070
     1
1070
    44
1040
1.0
1070
    74
1070
     0
1000
MTEXTEND
  0
POINT
  5
1C74
330
16B3
100
AcDbEntity
  8
Defpoints
 62
     0
100
AcDbPoint
 10
651.3083463707852
 20
214.075803664785
 30
0.0
  0
POINT
  5
1C75
330
16B3
100
AcDbEntity
  8
Defpoints
 62
     0
100
AcDbPoint
 10
563.5583463707852
 20
156.575803664785
 30
0.0
  0
POINT
  5
1C76
330
16B3
100
AcDbEntity
  8
Defpoints
 62
     0
100
AcDbPoint
 10
563.5583463707852
 20
241.7719944901952
 30
0.0
  0
ENDBLK
  5
16B5
330
16B3
100
AcDbEntity
  8
0
100
AcDbBlockEnd
  0
BLOCK
  5
16C0
330
16BF
100
AcDbEntity
  8
0
100
AcDbBlockBegin
  2
*D2
 70
     1
 10
0.0
 20
0.0
 30
0.0
  3
*D2
  1

  0
LINE
  5
1C3F
330
16BF
100
AcDbEntity
  8
0
 62
     0
370
    -2
100
AcDbLine
 10
520.6317629907547
 20
150.325803664785
 30
0.0
 11
520.6317629907547
 21
129.994681774885
 31
0.0
  0
LINE
  5
1C40
330
16BF
100
AcDbEntity
  8
0
 62
     0
370
    -2
100
AcDbLine
 10
419.6317629907547
 20
150.325803664785
 30
0.0
 11
419.6317629907547
 21
129.994681774885
 31
0.0
  0
LINE
  5
1C41
330
16BF
100
AcDbEntity
  8
0
 62
     0
370
    -2
100
AcDbLine
 10
518.1317629907547
 20
131.244681774885
 30
0.0
 11
422.1317629907546
 21
131.244681774885
 31
0.0
  0
INSERT
  5
1C42
330
16BF
100
AcDbEntity
  8
0
 62
     0
370
    -2
100
AcDbBlockReference
  2
_Open30
 10
520.6317629907547
 20
131.244681774885
 30
0.0
 41
2.5
 42
2.5
 43
2.5
  0
INSERT
  5
1C43
330
16BF
100
AcDbEntity
  8
0
 62
     0
370
    -2
100
AcDbBlockReference
  2
_Open30
 10
419.6317629907547
 20
131.244681774885
 30
0.0
 41
2.5
 42
2.5
 43
2.5
 50
180.0
  0
MTEXT
  5
1C44
330
16BF
100
AcDbEntity
  8
0
 62
     4
100
AcDbMText
 10
468.1190260174956
 20
133.369681774885
 30
0.0
 40
3.0
 41
0.0
 71
     5
 72
     1
  1
202
 73
     1
 44
1.0
1001
ACAD
1000
MTEXTBEGIN
1070
    73
1070
     1
1070
    44
1040
1.0
1070
    74
1070
     0
1000
MTEXTEND
  0
POINT
  5
1C45
330
16BF
100
AcDbEntity
  8
Defpoints
 62
     0
100
AcDbPoint
 10
520.6317629907547
 20
150.575803664785
 30
0.0
  0
POINT
  5
1C46
330
16BF
100
AcDbEntity
  8
Defpoints
 62
     0
100
AcDbPoint
 10
419.6317629907547
 20
150.575803664785
 30
0.0
  0
POINT
  5
1C47
330
16BF
100
AcDbEntity
  8
Defpoints
 62
     0
100
AcDbPoint
 10
419.6317629907547
 20
131.244681774885
 30
0.0
  0
ENDBLK
  5
16C1
330
16BF
100
AcDbEntity
  8
0
100
AcDbBlockEnd
  0
BLOCK
  5
16CC
330
16CB
100
AcDbEntity
  8
0
100
AcDbBlockBegin
  2
*D3
 70
     1
 10
0.0
 20
0.0
 30
0.0
  3
*D3
  1

  0
LINE
  5
1C48
330
16CB
100
AcDbEntity
  8
0
 62
     0
370
    -2
100
AcDbLine
 10
651.3083463707852
 20
150.325803664785
 30
0.0
 11
651.3083463707852
 21
130.737517961268
 31
0.0
  0
LINE
  5
1C49
330
16CB
100
AcDbEntity
  8
0
 62
     0
370
    -2
100
AcDbLine
 10
566.3083463707851
 20
157.825803664785
 30
0.0
 11
566.3083463707851
 21
130.737517961268
 31
0.0
  0
LINE
  5
1C4A
330
16CB
100
AcDbEntity
  8
0
 62
     0
370
    -2
100
AcDbLine
 10
648.8083463707852
 20
131.987517961268
 30
0.0
 11
568.8083463707851
 21
131.987517961268
 31
0.0
  0
INSERT
  5
1C4B
330
16CB
100
AcDbEntity
  8
0
 62
     0
370
    -2
100
AcDbBlockReference
  2
_Open30
 10
651.3083463707852
 20
131.987517961268
 30
0.0
 41
2.5
 42
2.5
 43
2.5
  0
INSERT
  5
1C4C
330
16CB
100
AcDbEntity
  8
0
 62
     0
370
    -2
100
AcDbBlockReference
  2
_Open30
 10
566.3083463707851
 20
131.987517961268
 30
0.0
 41
2.5
 42
2.5
 43
2.5
 50
180.0
  0
MTEXT
  5
1C4D
330
16CB
100
AcDbEntity
  8
0
 62
     4
100
AcDbMText
 10
609.9787475431383
 20
134.112517961268
 30
0.0
 40
3.0
 41
0.0
 71
     5
 72
     1
  1
170
 73
     1
 44
1.0
1001
ACAD
1000
MTEXTBEGIN
1070
    73
1070
     1
1070
    44
1040
1.0
1070
    74
1070
     0
1000
MTEXTEND
  0
POINT
  5
1C4E
330
16CB
100
AcDbEntity
  8
Defpoints
 62
     0
100
AcDbPoint
 10
651.3083463707852
 20
150.575803664785
 30
0.0
  0
POINT
  5
1C4F
330
16CB
100
AcDbEntity
  8
Defpoints
 62
     0
100
AcDbPoint
 10
566.3083463707851
 20
158.075803664785
 30
0.0
  0
POINT
  5
1C50
330
16CB
100
AcDbEntity
  8
Defpoints
 62
     0
100
AcDbPoint
 10
566.3083463707851
 20
131.987517961268
 30
0.0
  0
ENDBLK
  5
16CD
330
16CB
100
AcDbEntity
  8
0
100
AcDbBlockEnd
  0
BLOCK
  5
16E4
330
16E3
100
AcDbEntity
  8
0
100
AcDbBlockBegin
  2
*D4
 70
     1
 10
0.0
 20
0.0
 30
0.0
  3
*D4
  1

  0
LINE
  5
1C51
330
16E3
100
AcDbEntity
  8
0
 62
     0
370
    -2
100
AcDbLine
 10
514.6317629907547
 20
144.575803664785
 30
0.0
 11
540.8812856746813
 21
144.575803664785
 31
0.0
  0
LINE
  5
1C52
330
16E3
100
AcDbEntity
  8
0
 62
     0
370
    -2
100
AcDbLine
 10
520.8817629907547
 20
150.575803664785
 30
0.0
 11
540.8812856746813
 21
150.575803664785
 31
0.0
  0
LINE
  5
1C53
330
16E3
100
AcDbEntity
  8
0
 62
     0
370
    -2
100
AcDbLine
 10
539.6312856746813
 20
153.075803664785
 30
0.0
 11
539.6312856746813
 21
155.575803664785
 31
0.0
  0
LINE
  5
1C54
330
16E3
100
AcDbEntity
  8
0
 62
     0
370
    -2
100
AcDbLine
 10
539.6312856746813
 20
142.075803664785
 30
0.0
 11
539.6312856746813
 21
134.3258036647849
 31
0.0
  0
LINE
  5
1C55
330
16E3
100
AcDbEntity
  8
0
 62
     0
370
    -2
100
AcDbLine
 10
539.6312856746813
 20
150.575803664785
 30
0.0
 11
539.6312856746813
 21
144.575803664785
 31
0.0
  0
INSERT
  5
1C56
330
16E3
100
AcDbEntity
  8
0
 62
     0
370
    -2
100
AcDbBlockReference
  2
_Open30
 10
539.6312856746813
 20
150.575803664785
 30
0.0
 41
2.5
 42
2.5
 43
2.5
 50
270.0
  0
INSERT
  5
1C57
330
16E3
100
AcDbEntity
  8
0
 62
     0
370
    -2
100
AcDbBlockReference
  2
_Open30
 10
539.6312856746813
 20
144.575803664785
 30
0.0
 41
2.5
 42
2.5
 43
2.5
 50
90.0
  0
MTEXT
  5
1C58
330
16E3
100
AcDbEntity
  8
0
 62
     4
100
AcDbMText
 10
537.5062856746812
 20
136.950803664785
 30
0.0
 40
3.0
 41
0.0
 71
     5
 72
     1
  1
12
 11
0.0000000000000001
 21
1.0
 31
0.0
 73
     1
 44
1.0
1001
ACAD
1000
MTEXTBEGIN
1070
    73
1070
     1
1070
    44
1040
1.0
1070
    74
1070
     0
1000
MTEXTEND
  0
POINT
  5
1C59
330
16E3
100
AcDbEntity
  8
Defpoints
 62
     0
100
AcDbPoint
 10
514.3817629907547
 20
144.575803664785
 30
0.0
  0
POINT
  5
1C5A
330
16E3
100
AcDbEntity
  8
Defpoints
 62
     0
100
AcDbPoint
 10
520.6317629907547
 20
150.575803664785
 30
0.0
  0
POINT
  5
1C5B
330
16E3
100
AcDbEntity
  8
Defpoints
 62
     0
100
AcDbPoint
 10
539.6312856746813
 20
150.575803664785
 30
0.0
  0
ENDBLK
  5
16E5
330
16E3
100
AcDbEntity
  8
0
100
AcDbBlockEnd
  0
BLOCK
  5
16F2
330
16F1
100
AcDbEntity
  8
0
100
AcDbBlockBegin
  2
*D5
 70
     1
 10
0.0
 20
0.0
 30
0.0
  3
*D5
  1

  0
LINE
  5
1C5C
330
16F1
100
AcDbEntity
  8
0
 62
     0
370
    -2
100
AcDbLine
 10
520.8817629907547
 20
150.575803664785
 30
0.0
 11
540.8812856746813
 21
150.575803664785
 31
0.0
  0
LINE
  5
1C5D
330
16F1
100
AcDbEntity
  8
0
 62
     0
370
    -2
100
AcDbLine
 10
517.3817629907547
 20
214.075803664785
 30
0.0
 11
540.8812856746813
 21
214.075803664785
 31
0.0
  0
LINE
  5
1C5E
330
16F1
100
AcDbEntity
  8
0
 62
     0
370
    -2
100
AcDbLine
 10
539.6312856746813
 20
153.075803664785
 30
0.0
 11
539.6312856746813
 21
211.575803664785
 31
0.0
  0
INSERT
  5
1C5F
330
16F1
100
AcDbEntity
  8
0
 62
     0
370
    -2
100
AcDbBlockReference
  2
_Open30
 10
539.6312856746813
 20
150.575803664785
 30
0.0
 41
2.5
 42
2.5
 43
2.5
 50
270.0
  0
INSERT
  5
1C60
330
16F1
100
AcDbEntity
  8
0
 62
     0
370
    -2
100
AcDbBlockReference
  2
_Open30
 10
539.6312856746813
 20
214.075803664785
 30
0.0
 41
2.5
 42
2.5
 43
2.5
 50
90.0
  0
MTEXT
  5
1C61
330
16F1
100
AcDbEntity
  8
0
 62
     4
100
AcDbMText
 10
537.5062856746812
 20
182.325803664785
 30
0.0
 40
3.0
 41
0.0
 71
     5
 72
     1
  1
127
 11
0.0000000000000001
 21
1.0
 31
0.0
 73
     1
 44
1.0
1001
ACAD
1000
MTEXTBEGIN
1070
    73
1070
     1
1070
    44
1040
1.0
1070
    74
1070
     0
1000
MTEXTEND
  0
POINT
  5
1C62
330
16F1
100
AcDbEntity
  8
Defpoints
 62
     0
100
AcDbPoint
 10
520.6317629907547
 20
150.575803664785
 30
0.0
  0
POINT
  5
1C63
330
16F1
100
AcDbEntity
  8
Defpoints
 62
     0
100
AcDbPoint
 10
517.1317629907547
 20
214.075803664785
 30
0.0
  0
POINT
  5
1C64
330
16F1
100
AcDbEntity
  8
Defpoints
 62
     0
100
AcDbPoint
 10
539.6312856746813
 20
214.075803664785
 30
0.0
  0
ENDBLK
  5
16F3
330
16F1
100
AcDbEntity
  8
0
100
AcDbBlockEnd
  0
BLOCK
  5
16FE
330
16FD
100
AcDbEntity
  8
0
100
AcDbBlockBegin
  2
*D6
 70
     1
 10
0.0
 20
0.0
 30
0.0
  3
*D6
  1

  0
LINE
  5
1C65
330
16FD
100
AcDbEntity
  8
0
 62
     0
370
    -2
100
AcDbLine
 10
514.6317629907547
 20
144.575803664785
 30
0.0
 11
550.9532729339666
 21
144.575803664785
 31
0.0
  0
LINE
  5
1C66
330
16FD
100
AcDbEntity
  8
0
 62
     0
370
    -2
100
AcDbLine
 10
493.8366780188796
 20
229.075803664785
 30
0.0
 11
550.9532729339666
 21
229.075803664785
 31
0.0
  0
LINE
  5
1C67
330
16FD
100
AcDbEntity
  8
0
 62
     0
370
    -2
100
AcDbLine
 10
549.7032729339665
 20
147.075803664785
 30
0.0
 11
549.7032729339665
 21
226.575803664785
 31
0.0
  0
INSERT
  5
1C68
330
16FD
100
AcDbEntity
  8
0
 62
     0
370
    -2
100
AcDbBlockReference
  2
_Open30
 10
549.7032729339665
 20
144.575803664785
 30
0.0
 41
2.5
 42
2.5
 43
2.5
 50
270.0
  0
INSERT
  5
1C69
330
16FD
100
AcDbEntity
  8
0
 62
     0
370
    -2
100
AcDbBlockReference
  2
_Open30
 10
549.7032729339665
 20
229.075803664785
 30
0.0
 41
2.5
 42
2.5
 43
2.5
 50
90.0
  0
MTEXT
  5
1C6A
330
16FD
100
AcDbEntity
  8
0
 62
     4
100
AcDbMText
 10
547.5782729339665
 20
185.3097595635018
 30
0.0
 40
3.0
 41
0.0
 71
     5
 72
     1
  1
169
 11
0.0000000000000001
 21
1.0
 31
0.0
 73
     1
 44
1.0
1001
ACAD
1000
MTEXTBEGIN
1070
    73
1070
     1
1070
    44
1040
1.0
1070
    74
1070
     0
1000
MTEXTEND
  0
POINT
  5
1C6B
330
16FD
100
AcDbEntity
  8
Defpoints
 62
     0
100
AcDbPoint
 10
514.3817629907547
 20
144.575803664785
 30
0.0
  0
POINT
  5
1C6C
330
16FD
100
AcDbEntity
  8
Defpoints
 62
     0
100
AcDbPoint
 10
493.5866780188796
 20
229.075803664785
 30
0.0
  0
POINT
  5
1C6D
330
16FD
100
AcDbEntity
  8
Defpoints
 62
     0
100
AcDbPoint
 10
549.7032729339665
 20
229.075803664785
 30
0.0
  0
ENDBLK
  5
16FF
330
16FD
100
AcDbEntity
  8
0
100
AcDbBlockEnd
  0
ENDSEC
  0
SECTION
  2
ENTITIES
  0
LINE
  5
BB
330
6B
100
AcDbEntity
  8
0
 62
     3
100
AcDbLine
 10
640.0725568051488
 20
103.9809068288799
 30
0.0
 11
640.0725568051488
 21
73.98090682887993
 31
0.0
  0
LINE
  5
BC
330
6B
100
AcDbEntity
  8
0
 62
     3
100
AcDbLine
 10
574.0834531058176
 20
103.9809068288799
 30
0.0
 11
640.0725568051488
 21
103.9809068288799
 31
0.0
  0
LINE
  5
BD
330
6B
100
AcDbEntity
  8
0
 62
     3
100
AcDbLine
 10
574.0834531058176
 20
73.98090682887993
 30
0.0
 11
640.0725568051488
 21
73.98090682887993
 31
0.0
  0
LINE
  5
BE
330
6B
100
AcDbEntity
  8
0
 62
     7
100
AcDbLine
 10
596.3042145623742
 20
73.98090682887993
 30
0.0
 11
596.3042145623742
 21
103.9809068288799
 31
0.0
  0
LINE
  5
D2
330
6B
100
AcDbEntity
  8
0
 62
     3
100
AcDbLine
 10
346.444967
 20
277.480098
 30
0.0
 11
346.444967
 21
3.424737
 31
0.0
  0
LINE
  5
D3
330
6B
100
AcDbEntity
  8
0
 62
     3
100
AcDbLine
 10
346.444967
 20
277.480098
 30
0.0
 11
736.4449669999997
 21
277.480098
 31
0.0
  0
LINE
  5
D4
330
6B
100
AcDbEntity
  8
0
 62
     3
100
AcDbLine
 10
736.4449669999997
 20
3.424737
 30
0.0
 11
346.444967
 21
3.424737
 31
0.0
  0
LINE
  5
D7
330
6B
100
AcDbEntity
  8
0
 62
     3
100
AcDbLine
 10
736.4449669999997
 20
277.480098
 30
0.0
 11
736.4449669999997
 21
3.424736999999993
 31
0.0
  0
TEXT
  5
D8
330
6B
100
AcDbEntity
  8
0
 62
     3
100
AcDbText
 10
642.783858
 20
21.464071
 30
0.0
 40
3.2
  1
別　掲
  7
高3.2
100
AcDbText
  0
TEXT
  5
1A0
330
6B
100
AcDbEntity
  8
0
 62
     3
100
AcDbText
 10
701.003416
 20
13.995929
 30
0.0
 40
3.2
  1
2006.2.20
  7
高3.2
100
AcDbText
  0
LINE
  5
206
330
6B
100
AcDbEntity
  8
0
 62
     7
100
AcDbLine
 10
588.1450168069726
 20
105.6674818570997
 30
0.0
 11
624.9923757414141
 21
105.6674818570997
 31
0.0
  0
LINE
  5
22E
330
6B
100
AcDbEntity
  8
0
 62
     3
100
AcDbLine
 10
710.745603
 20
20.090459
 30
0.0
 11
710.745603
 21
43.090459
 31
0.0
  0
LINE
  5
230
330
6B
100
AcDbEntity
  8
0
 62
     3
100
AcDbLine
 10
657.691994
 20
13.090459
 30
0.0
 11
657.691994
 21
27.090459
 31
0.0
  0
TEXT
  5
232
330
6B
100
AcDbEntity
  8
0
 62
     3
100
AcDbText
 10
686.7559209999996
 20
39.295575
 30
0.0
 40
2.0
  1
A
 41
0.7
100
AcDbText
  0
TEXT
  5
233
330
6B
100
AcDbEntity
  8
0
 62
     3
100
AcDbText
 10
689.291208
 20
39.295575
 30
0.0
 40
2.0
  1
P
 41
0.7
100
AcDbText
  0
TEXT
  5
234
330
6B
100
AcDbEntity
  8
0
 62
     3
100
AcDbText
 10
691.826494
 20
39.295575
 30
0.0
 40
2.0
  1
P
 41
0.7
100
AcDbText
  0
TEXT
  5
235
330
6B
100
AcDbEntity
  8
0
 62
     3
100
AcDbText
 10
694.3617799999997
 20
39.295575
 30
0.0
 40
2.0
  1
D
 41
0.7
100
AcDbText
  0
TEXT
  5
236
330
6B
100
AcDbEntity
  8
0
 62
     3
100
AcDbText
 10
699.730463
 20
39.295575
 30
0.0
 40
2.0
  1
C
 41
0.7
100
AcDbText
  0
TEXT
  5
237
330
6B
100
AcDbEntity
  8
0
 62
     3
100
AcDbText
 10
702.265749
 20
39.295575
 30
0.0
 40
2.0
  1
H
 41
0.7
100
AcDbText
  0
TEXT
  5
238
330
6B
100
AcDbEntity
  8
0
 62
     3
100
AcDbText
 10
704.8010360000001
 20
39.295575
 30
0.0
 40
2.0
  1
C
 41
0.7
100
AcDbText
  0
TEXT
  5
239
330
6B
100
AcDbEntity
  8
0
 62
     3
100
AcDbText
 10
707.336322
 20
39.295575
 30
0.0
 40
2.0
  1
K
 41
0.7
100
AcDbText
  0
TEXT
  5
23A
330
6B
100
AcDbEntity
  8
0
 62
     3
100
AcDbText
 10
713.0102879999997
 20
39.295575
 30
0.0
 40
2.0
  1
DESN
 41
1.216762999999998
100
AcDbText
  0
TEXT
  5
23B
330
6B
100
AcDbEntity
  8
0
 62
     3
100
AcDbText
 10
628.0039299999997
 20
9.949077
 30
0.0
 40
2.0
  1
NICHIDO IND.CO.LTD
 41
1.274876
100
AcDbText
  0
LINE
  5
23C
330
6B
100
AcDbEntity
  8
0
 62
     3
100
AcDbLine
 10
638.3869589999997
 20
43.090459
 30
0.0
 11
638.3869589999997
 21
20.090459
 31
0.0
  0
LINE
  5
23D
330
6B
100
AcDbEntity
  8
0
 62
     3
100
AcDbLine
 10
684.745603
 20
43.090459
 30
0.0
 11
684.745603
 21
3.424737
 31
0.0
  0
LINE
  5
242
330
6B
100
AcDbEntity
  8
0
 62
     3
100
AcDbLine
 10
697.745603
 20
43.090459
 30
0.0
 11
697.745603
 21
13.090459
 31
0.0
  0
TEXT
  5
243
330
6B
100
AcDbEntity
  8
0
 62
     3
100
AcDbText
 10
685.858048
 20
13.955146
 30
0.0
 40
3.2
  1
作成日
 41
1.017225999999997
100
AcDbText
  0
LINE
  5
244
330
6B
100
AcDbEntity
  8
0
 62
     3
100
AcDbLine
 10
736.4449669999997
 20
43.090459
 30
0.0
 11
625.141524
 21
43.090459
 31
0.0
  0
LINE
  5
245
330
6B
100
AcDbEntity
  8
0
 62
     3
100
AcDbLine
 10
723.745603
 20
20.090459
 30
0.0
 11
723.745603
 21
43.090459
 31
0.0
  0
TEXT
  5
246
330
6B
100
AcDbEntity
  8
0
 62
     3
100
AcDbText
 10
727.0694070000002
 20
39.381394
 30
0.0
 40
1.8
  1
D
 41
0.666667
100
AcDbText
  0
TEXT
  5
247
330
6B
100
AcDbEntity
  8
0
 62
     3
100
AcDbText
 10
729.8860349999999
 20
39.381394
 30
0.0
 40
1.8
  1
E
 41
0.666667
100
AcDbText
  0
TEXT
  5
248
330
6B
100
AcDbEntity
  8
0
 62
     3
100
AcDbText
 10
732.702663
 20
39.381394
 30
0.0
 40
1.8
  1
F
 41
0.666667
100
AcDbText
  0
TEXT
  5
249
330
6B
100
AcDbEntity
  8
0
 62
     3
100
AcDbText
 10
727.0694070000002
 20
35.38884
 30
0.0
 40
3.2
  1
製図
 41
1.076369
100
AcDbText
  0
LINE
  5
24A
330
6B
100
AcDbEntity
  8
0
 62
     3
100
AcDbLine
 10
625.141524
 20
43.090459
 30
0.0
 11
625.141524
 21
3.424737
 31
0.0
  0
TEXT
  5
24B
330
6B
100
AcDbEntity
  8
0
 62
     3
100
AcDbText
 10
626.5181769999998
 20
3.757201999999998
 30
0.0
 40
5.0
  1
日動工業株式会社
 41
0.833333
100
AcDbText
  0
LINE
  5
24C
330
6B
100
AcDbEntity
  8
0
 62
     3
100
AcDbLine
 10
668.0239280000002
 20
27.09045900000001
 30
0.0
 11
668.0239280000002
 21
3.424737
 31
0.0
  0
LINE
  5
24D
330
6B
100
AcDbEntity
  8
0
 62
     3
100
AcDbLine
 10
668.0239280000002
 20
8.257597999999997
 30
0.0
 11
684.745603
 21
8.257597999999997
 31
0.0
  0
TEXT
  5
24E
330
6B
100
AcDbEntity
  8
0
 62
     3
100
AcDbText
 10
668.6105299999998
 20
9.074028999999999
 30
0.0
 40
3.2
  1
出図コード
 41
0.8356860000000001
100
AcDbText
  0
LINE
  5
250
330
6B
100
AcDbEntity
  8
0
 62
     3
100
AcDbLine
 10
625.141524
 20
13.090459
 30
0.0
 11
736.4449669999997
 21
13.090459
 31
0.0
  0
LINE
  5
252
330
6B
100
AcDbEntity
  8
0
 62
     3
100
AcDbLine
 10
625.141524
 20
34.09045900000001
 30
0.0
 11
736.4449669999997
 21
34.09045900000001
 31
0.0
  0
LINE
  5
258
330
6B
100
AcDbEntity
  8
0
 62
     3
100
AcDbLine
 10
625.1415239999999
 20
27.09045900000001
 30
0.0
 11
684.745603
 21
27.090459
 31
0.0
  0
LINE
  5
25E
330
6B
100
AcDbEntity
  8
0
 62
     3
100
AcDbLine
 10
625.1415239999999
 20
20.090459
 30
0.0
 11
736.4449669999997
 21
20.090459
 31
0.0
  0
TEXT
  5
25F
330
6B
100
AcDbEntity
  8
0
 62
     3
100
AcDbText
 10
668.477982
 20
3.836912829261903
 30
0.0
 40
3.2
  1
ZK-A3X
 41
0.8112849999999999
100
AcDbText
  0
TEXT
  5
260
330
6B
100
AcDbEntity
  8
0
 62
     3
100
AcDbText
 10
626.958921
 20
39.259985
 30
0.0
 40
2.0
  1
CONPONENTS
 41
0.5331600000000001
100
AcDbText
  0
TEXT
  5
261
330
6B
100
AcDbEntity
  8
0
 62
     3
100
AcDbText
 10
626.6091949999998
 20
20.327808
 30
0.0
 40
3.0
  1
材
 41
0.833333
100
AcDbText
  0
TEXT
  5
262
330
6B
100
AcDbEntity
  8
0
 62
     3
100
AcDbText
 10
634.1448370000001
 20
20.327808
 30
0.0
 40
3.0
  1
質
 41
0.833333
100
AcDbText
  0
TEXT
  5
263
330
6B
100
AcDbEntity
  8
0
 62
     3
100
AcDbText
 10
626.697265
 20
30.952333
 30
0.0
 40
2.0
  1
MODEL
 41
1.031072999999999
100
AcDbText
  0
TEXT
  5
264
330
6B
100
AcDbEntity
  8
0
 62
     3
100
AcDbText
 10
626.6091949999998
 20
24.010116
 30
0.0
 40
2.0
  1
MATERIAL
 41
0.659278
100
AcDbText
  0
TEXT
  5
265
330
6B
100
AcDbEntity
  8
0
 62
     3
100
AcDbText
 10
657.916475
 20
20.327808
 30
0.0
 40
3.0
  1
備
 41
0.833333
100
AcDbText
  0
TEXT
  5
266
330
6B
100
AcDbEntity
  8
0
 62
     3
100
AcDbText
 10
664.6494769999998
 20
20.327808
 30
0.0
 40
3.0
  1
考
 41
0.833333
100
AcDbText
  0
TEXT
  5
267
330
6B
100
AcDbEntity
  8
0
 62
     3
100
AcDbText
 10
658.3006794623757
 20
24.010116
 30
0.0
 40
2.0
  1
REMARKS
 41
0.675794
100
AcDbText
  0
TEXT
  5
268
330
6B
100
AcDbEntity
  8
0
 62
     3
100
AcDbText
 10
628.198924
 20
17.089996
 30
0.0
 40
2.0
  1
3AD
 41
1.42614
100
AcDbText
  0
TEXT
  5
269
330
6B
100
AcDbEntity
  8
0
 62
     3
100
AcDbText
 10
637.509903
 20
17.255729
 30
0.0
 40
2.0
  1
ANGLE
 41
1.669883999999995
100
AcDbText
  0
TEXT
  5
26A
330
6B
100
AcDbEntity
  8
0
 62
     3
100
AcDbText
 10
658.44379
 20
16.878888
 30
0.0
 40
2.0
  1
SCALE
 41
0.7719630000000001
100
AcDbText
  0
TEXT
  5
26B
330
6B
100
AcDbEntity
  8
0
 62
     3
100
AcDbText
 10
627.8850529999997
 20
13.31086535169333
 30
0.0
 40
3.0
  1
第
 41
0.833333
100
AcDbText
  0
TEXT
  5
26C
330
6B
100
AcDbEntity
  8
0
 62
     3
100
AcDbText
 10
635.671903
 20
13.31086535169333
 30
0.0
 40
3.0
  1
三
 41
0.833333
100
AcDbText
  0
TEXT
  5
26D
330
6B
100
AcDbEntity
  8
0
 62
     3
100
AcDbText
 10
643.4587529999999
 20
13.31086535169333
 30
0.0
 40
3.0
  1
角
 41
0.833333
100
AcDbText
  0
TEXT
  5
26E
330
6B
100
AcDbEntity
  8
0
 62
     3
100
AcDbText
 10
651.245603
 20
13.31086535169333
 30
0.0
 40
3.0
  1
法
 41
0.833333
100
AcDbText
  0
TEXT
  5
26F
330
6B
100
AcDbEntity
  8
0
 62
     3
100
AcDbText
 10
658.306995
 20
13.378888
 30
0.0
 40
3.0
  1
尺
 41
0.833333
100
AcDbText
  0
TEXT
  5
270
330
6B
100
AcDbEntity
  8
0
 62
     3
100
AcDbText
 10
665.0399969999997
 20
13.378888
 30
0.0
 40
3.0
  1
度
 41
0.833333
100
AcDbText
  0
TEXT
  5
271
330
6B
100
AcDbEntity
  8
0
 62
     3
100
AcDbText
 10
687.6232669999997
 20
35.548188
 30
0.0
 40
3.0
  1
承認
 41
1.089472999999999
100
AcDbText
  0
TEXT
  5
272
330
6B
100
AcDbEntity
  8
0
 62
     3
100
AcDbText
 10
700.866148
 20
35.490459
 30
0.0
 40
3.0
  1
検図
 41
0.931761
100
AcDbText
  0
TEXT
  5
273
330
6B
100
AcDbEntity
  8
0
 62
     3
100
AcDbText
 10
713.8665440000003
 20
35.490459
 30
0.0
 40
3.0
  1
設
 41
0.833333
100
AcDbText
  0
TEXT
  5
274
330
6B
100
AcDbEntity
  8
0
 62
     3
100
AcDbText
 10
718.3564129999997
 20
35.490459
 30
0.0
 40
3.0
  1
計
 41
0.833333
100
AcDbText
  0
TEXT
  5
275
330
6B
100
AcDbEntity
  8
0
 62
     3
100
AcDbText
 10
627.029028
 20
35.663012
 30
0.0
 40
3.0
  1
品
 41
0.833333
100
AcDbText
  0
TEXT
  5
276
330
6B
100
AcDbEntity
  8
0
 62
     3
100
AcDbText
 10
634.5646699999997
 20
35.663012
 30
0.0
 40
3.0
  1
名
 41
0.833333
100
AcDbText
  0
TEXT
  5
277
330
6B
100
AcDbEntity
  8
0
 62
     3
100
AcDbText
 10
626.697265
 20
27.4168296044711
 30
0.0
 40
3.0
  1
型
 41
0.833333
100
AcDbText
  0
TEXT
  5
278
330
6B
100
AcDbEntity
  8
0
 62
     3
100
AcDbText
 10
634.245356
 20
27.4168296044711
 30
0.0
 40
3.0
  1
式
 41
0.833333
100
AcDbText
  0
LINE
  5
332
330
6B
100
AcDbEntity
  8
0
 62
     3
100
AcDbLine
 10
574.0834531058176
 20
103.9809068288799
 30
0.0
 11
574.0834531058176
 21
73.98090682887993
 31
0.0
  0
TEXT
  5
333
330
6B
100
AcDbEntity
  8
0
 62
     3
100
AcDbText
 10
644.8395861250352
 20
35.571226
 30
0.0
 40
4.5
  1
昇圧トランス
  7
高4.5
100
AcDbText
  0
TEXT
  5
334
330
6B
100
AcDbEntity
  8
0
 62
     3
100
AcDbText
 10
575.5834531058176
 20
99.48090682887995
 30
0.0
 40
3.2
  1
型　　式
  7
高3.2
100
AcDbText
  0
TEXT
  5
335
330
6B
100
AcDbEntity
  8
0
 62
     3
100
AcDbText
 10
575.5834531058176
 20
94.48090682887992
 30
0.0
 40
3.2
  1
入力電圧
  7
高3.2
100
AcDbText
  0
TEXT
  5
336
330
6B
100
AcDbEntity
  8
0
 62
     3
100
AcDbText
 10
575.5834531058176
 20
89.48090682887992
 30
0.0
 40
3.2
  1
出力電圧
  7
高3.2
100
AcDbText
  0
TEXT
  5
337
330
6B
100
AcDbEntity
  8
0
 62
     3
100
AcDbText
 10
575.5834531058176
 20
84.48090682887993
 30
0.0
 40
3.2
  1
容　　量
  7
高3.2
100
AcDbText
  0
TEXT
  5
338
330
6B
100
AcDbEntity
  8
0
 62
     3
100
AcDbText
 10
575.5834531058176
 20
79.48090682887993
 30
0.0
 40
3.2
  1
質　　量
  7
高3.2
100
AcDbText
  0
TEXT
  5
339
330
6B
100
AcDbEntity
  8
0
 62
     3
100
AcDbText
 10
575.5834531058176
 20
74.48090682887993
 30
0.0
 40
3.2
  1
絶縁種類
  7
高3.2
100
AcDbText
  0
TEXT
  5
33A
330
6B
100
AcDbEntity
  8
0
 62
     3
100
AcDbText
 10
588.2541356963931
 20
106.6448748288799
 30
0.0
 40
4.5
  1
主　　仕　　様
  7
高4.5
100
AcDbText
  0
TEXT
  5
33B
330
6B
100
AcDbEntity
  8
0
 62
     3
100
AcDbText
 10
670.261518
 20
13.98925
 30
0.0
 40
3.2
  1
FREE
  7
高3.2
100
AcDbText
  0
LINE
  5
33C
330
6B
100
AcDbEntity
  8
0
 62
     3
100
AcDbLine
 10
512.7462794355738
 20
3.424737
 30
0.0
 11
512.7462794355733
 21
53.42473629281053
 31
0.0
  0
TEXT
  5
33D
330
6B
100
AcDbEntity
  8
0
 62
     3
100
AcDbText
 10
450.0739548741854
 20
8.924737
 30
0.0
 40
3.2
  1
1
 41
0.8
  7
高3.2
100
AcDbText
  0
TEXT
  5
33E
330
6B
100
AcDbEntity
  8
0
 62
     3
100
AcDbText
 10
450.0739548741854
 20
18.924737
 30
0.0
 40
3.2
  1
1
 41
0.8
  7
高3.2
100
AcDbText
  0
TEXT
  5
340
330
6B
100
AcDbEntity
  8
0
 62
     3
100
AcDbText
 10
450.0739548741854
 20
38.92473629281053
 30
0.0
 40
3.2
  1
1
 41
0.8
  7
高3.2
100
AcDbText
  0
TEXT
  5
341
330
6B
100
AcDbEntity
  8
0
 62
     3
100
AcDbText
 10
450.0739548741854
 20
23.92473629281053
 30
0.0
 40
3.2
  1
4
 41
0.8
  7
高3.2
100
AcDbText
  0
TEXT
  5
342
330
6B
100
AcDbEntity
  8
0
 62
     3
100
AcDbText
 10
450.0739548741854
 20
43.92473629281053
 30
0.0
 40
3.2
  1
1
 41
0.8
  7
高3.2
100
AcDbText
  0
TEXT
  5
343
330
6B
100
AcDbEntity
  8
0
 62
     3
100
AcDbText
 10
450.0739548741854
 20
48.92473629281053
 30
0.0
 40
3.2
  1
2
 41
0.8
  7
高3.2
100
AcDbText
  0
TEXT
  5
344
330
6B
100
AcDbEntity
  8
0
 62
     3
100
AcDbText
 10
450.0739548741854
 20
13.924737
 30
0.0
 40
3.2
  1
1式
 41
0.8
  7
高3.2
100
AcDbText
  0
LINE
  5
345
330
6B
100
AcDbEntity
  8
0
 62
     7
100
AcDbLine
 10
448.5739548741853
 20
3.424737
 30
0.0
 11
448.5739548741853
 21
53.42473629281053
 31
0.0
  0
TEXT
  5
346
330
6B
100
AcDbEntity
  8
0
 62
     3
100
AcDbText
 10
392.6044163737908
 20
13.924737
 30
0.0
 40
3.2
  1
SPCC
 41
0.8
  7
高3.2
100
AcDbText
  0
TEXT
  5
347
330
6B
100
AcDbEntity
  8
0
 62
     3
100
AcDbText
 10
355.070788453611
 20
13.924737
 30
0.0
 40
3.2
  1
ケース
 41
0.8
  7
高3.2
100
AcDbText
  0
TEXT
  5
348
330
6B
100
AcDbEntity
  8
0
 62
     3
100
AcDbText
 10
355.070788453611
 20
23.92473629281053
 30
0.0
 40
3.2
  1
ゴム脚
 41
0.8
  7
高3.2
100
AcDbText
  0
TEXT
  5
349
330
6B
100
AcDbEntity
  8
0
 62
     3
100
AcDbText
 10
412.4891338820058
 20
23.92473629281053
 30
0.0
 40
3.2
  1
-
 41
0.8
  7
高3.2
100
AcDbText
  0
TEXT
  5
34A
330
6B
100
AcDbEntity
  8
0
 62
     3
100
AcDbText
 10
355.070788453611
 20
38.92473629281053
 30
0.0
 40
3.2
  1
電圧計
 41
0.8
  7
高3.2
100
AcDbText
  0
TEXT
  5
34B
330
6B
100
AcDbEntity
  8
0
 62
     3
100
AcDbText
 10
412.4891338820057
 20
38.92473629281053
 30
0.0
 40
3.2
  1
AC150V計（1次側）
 41
0.8
  7
高3.2
100
AcDbText
  0
TEXT
  5
34C
330
6B
100
AcDbEntity
  8
0
 62
     3
100
AcDbText
 10
412.4891338820058
 20
13.924737
 30
0.0
 40
3.2
  1
外カバー、パネルベース
 41
0.8
  7
高3.2
100
AcDbText
  0
TEXT
  5
34D
330
6B
100
AcDbEntity
  8
0
 62
     3
100
AcDbText
 10
392.6044163737908
 20
48.92473629281053
 30
0.0
 40
3.2
  1
SPCC
 41
0.8
  7
高3.2
100
AcDbText
  0
TEXT
  5
34E
330
6B
100
AcDbEntity
  8
0
 62
     3
100
AcDbText
 10
355.070788453611
 20
48.92473629281053
 30
0.0
 40
3.2
  1
アース端子
 41
0.8
  7
高3.2
100
AcDbText
  0
TEXT
  5
34F
330
6B
100
AcDbEntity
  8
0
 62
     3
100
AcDbText
 10
355.070788453611
 20
28.92473629281053
 30
0.0
 40
3.2
  1
2PE付きWコンセント
 41
0.8
  7
高3.2
100
AcDbText
  0
TEXT
  5
350
330
6B
100
AcDbEntity
  8
0
 62
     3
100
AcDbText
 10
412.4891338820058
 20
28.92473629281053
 30
0.0
 40
3.2
  1
2PE 15A 125V(白)
 41
0.8
  7
高3.2
100
AcDbText
  0
TEXT
  5
351
330
6B
100
AcDbEntity
  8
0
 62
     3
100
AcDbText
 10
355.070788453611
 20
18.924737
 30
0.0
 40
3.2
  1
電線　プラグ付き
 41
0.8
  7
高3.2
100
AcDbText
  0
TEXT
  5
352
330
6B
100
AcDbEntity
  8
0
 62
     3
100
AcDbText
 10
355.070788453611
 20
43.92473629281053
 30
0.0
 40
3.2
  1
過負荷漏電遮器
 41
0.8
  7
高3.2
100
AcDbText
  0
TEXT
  5
353
330
6B
100
AcDbEntity
  8
0
 62
     3
100
AcDbText
 10
392.6044163737908
 20
18.924737
 30
0.0
 40
3.2
  1
VCT
 41
0.8
  7
高3.2
100
AcDbText
  0
TEXT
  5
354
330
6B
100
AcDbEntity
  8
0
 62
     3
100
AcDbText
 10
392.6044163737908
 20
23.92473629281053
 30
0.0
 40
3.2
  1
PVC樹脂
 41
0.8
  7
高3.2
100
AcDbText
  0
TEXT
  5
355
330
6B
100
AcDbEntity
  8
0
 62
     3
100
AcDbText
 10
392.6044163737908
 20
28.92473629281053
 30
0.0
 40
3.2
  1
ABS樹脂
 41
0.8
  7
高3.2
100
AcDbText
  0
TEXT
  5
356
330
6B
100
AcDbEntity
  8
0
 62
     3
100
AcDbText
 10
392.6044163737908
 20
8.924737
 30
0.0
 40
3.2
  1
PA樹脂
 41
0.8
  7
高3.2
100
AcDbText
  0
TEXT
  5
357
330
6B
100
AcDbEntity
  8
0
 62
     3
100
AcDbText
 10
347.944967
 20
8.924737
 30
0.0
 40
3.2
  1
1
 41
0.8
  7
高3.2
100
AcDbText
  0
TEXT
  5
358
330
6B
100
AcDbEntity
  8
0
 62
     3
100
AcDbText
 10
347.944967
 20
13.924737
 30
0.0
 40
3.2
  1
2
 41
0.8
  7
高3.2
100
AcDbText
  0
TEXT
  5
359
330
6B
100
AcDbEntity
  8
0
 62
     3
100
AcDbText
 10
347.944967
 20
18.924737
 30
0.0
 40
3.2
  1
3
 41
0.8
  7
高3.2
100
AcDbText
  0
TEXT
  5
35A
330
6B
100
AcDbEntity
  8
0
 62
     3
100
AcDbText
 10
347.944967
 20
23.92473629281053
 30
0.0
 40
3.2
  1
4
 41
0.8
  7
高3.2
100
AcDbText
  0
TEXT
  5
35B
330
6B
100
AcDbEntity
  8
0
 62
     3
100
AcDbText
 10
347.944967
 20
28.92473629281053
 30
0.0
 40
3.2
  1
5
 41
0.8
  7
高3.2
100
AcDbText
  0
TEXT
  5
35C
330
6B
100
AcDbEntity
  8
0
 62
     3
100
AcDbText
 10
347.944967
 20
33.92473629281053
 30
0.0
 40
3.2
  1
6
 41
0.8
  7
高3.2
100
AcDbText
  0
TEXT
  5
35D
330
6B
100
AcDbEntity
  8
0
 62
     3
100
AcDbText
 10
347.944967
 20
38.92473629281053
 30
0.0
 40
3.2
  1
7
 41
0.8
  7
高3.2
100
AcDbText
  0
TEXT
  5
35E
330
6B
100
AcDbEntity
  8
0
 62
     3
100
AcDbText
 10
347.944967
 20
43.92473629281053
 30
0.0
 40
3.2
  1
8
 41
0.8
  7
高3.2
100
AcDbText
  0
LINE
  5
35F
330
6B
100
AcDbEntity
  8
0
 62
     7
100
AcDbLine
 10
391.1044163737908
 20
3.424737
 30
0.0
 11
391.1044163737908
 21
53.42473629281053
 31
0.0
  0
LINE
  5
360
330
6B
100
AcDbEntity
  8
0
 62
     7
100
AcDbLine
 10
353.570788453611
 20
3.424737
 30
0.0
 11
353.570788453611
 21
53.42473629281053
 31
0.0
  0
LINE
  5
361
330
6B
100
AcDbEntity
  8
0
 62
     7
100
AcDbLine
 10
410.9891338820058
 20
3.424737
 30
0.0
 11
410.9891338820057
 21
53.42473629281053
 31
0.0
  0
TEXT
  5
362
330
6B
100
AcDbEntity
  8
0
 62
     3
100
AcDbText
 10
355.070788453611
 20
8.924737
 30
0.0
 40
3.2
  1
グリップ
 41
0.8
  7
高3.2
100
AcDbText
  0
TEXT
  5
363
330
6B
100
AcDbEntity
  8
0
 62
     3
100
AcDbText
 10
450.0739548741854
 20
3.924737
 30
0.0
 40
3.2
  1
個数
 41
0.8
  7
高3.2
100
AcDbText
  0
TEXT
  5
364
330
6B
100
AcDbEntity
  8
0
 62
     3
100
AcDbText
 10
412.4891338820058
 20
3.924737
 30
0.0
 40
3.2
  1
備　　　　　考
 41
0.8
  7
高3.2
100
AcDbText
  0
TEXT
  5
365
330
6B
100
AcDbEntity
  8
0
 62
     3
100
AcDbText
 10
392.6044163737908
 20
3.924737
 30
0.0
 40
3.2
  1
材　　　質
 41
0.8
  7
高3.2
100
AcDbText
  0
TEXT
  5
366
330
6B
100
AcDbEntity
  8
0
 62
     3
100
AcDbText
 10
355.070788453611
 20
3.924737
 30
0.0
 40
3.2
  1
部　　品　　名
 41
0.8
  7
高3.2
100
AcDbText
  0
TEXT
  5
367
330
6B
100
AcDbEntity
  8
0
 62
     3
100
AcDbText
 10
347.944967
 20
3.924737
 30
0.0
 40
3.2
  1
No
 41
0.8
  7
高3.2
100
AcDbText
  0
LINE
  5
368
330
6B
100
AcDbEntity
  8
0
 62
     3
100
AcDbLine
 10
736.344931
 20
49.090459
 30
0.0
 11
684.7455669999998
 21
49.090459
 31
0.0
  0
TEXT
  5
369
330
6B
100
AcDbEntity
  8
0
 62
     3
100
AcDbText
 10
689.6448215402386
 20
43.646544
 30
0.0
 40
4.5
  1
コード
  7
高4.5
100
AcDbText
  0
LINE
  5
36A
330
6B
100
AcDbEntity
  8
0
 62
     3
100
AcDbLine
 10
710.7455669999997
 20
43.090459
 30
0.0
 11
710.7455669999997
 21
49.090459
 31
0.0
  0
LINE
  5
36B
330
6B
100
AcDbEntity
  8
0
 62
     3
100
AcDbLine
 10
684.7455669999998
 20
43.090459
 30
0.0
 11
684.7455669999998
 21
49.090459
 31
0.0
  0
LINE
  5
3B2
330
6B
100
AcDbEntity
  8
0
 62
     3
100
AcDbLine
 10
334.043043
 20
143.924737
 30
0.0
 11
331.444967
 21
142.424737
 31
0.0
  0
LINE
  5
3B3
330
6B
100
AcDbEntity
  8
0
 62
     3
100
AcDbLine
 10
334.043043
 20
143.924737
 30
0.0
 11
331.444967
 21
145.424737
 31
0.0
  0
LINE
  5
3B4
330
6B
100
AcDbEntity
  8
0
 62
     3
100
AcDbLine
 10
331.444967
 20
142.424737
 30
0.0
 11
331.444967
 21
145.424737
 31
0.0
  0
TEXT
  5
3B6
330
6B
100
AcDbEntity
  8
0
 62
     3
100
AcDbText
 10
412.4891338820057
 20
43.92473629281053
 30
0.0
 40
3.2
  1
20A/15mA感度
 41
0.8
  7
高3.2
100
AcDbText
  0
TEXT
  5
3B7
330
6B
100
AcDbEntity
  8
0
 62
     3
100
AcDbText
 10
412.4891338820058
 20
18.924737
 30
0.0
 40
3.2
  1
2.0sqx3芯x1.8m
 41
0.8
  7
高3.2
100
AcDbText
  0
TEXT
  5
3B8
330
6B
100
AcDbEntity
  8
0
 62
     3
100
AcDbText
 10
649.170233
 20
28.034846
 30
0.0
 40
4.5
  1
M-EK20
  7
高4.5
100
AcDbText
  0
TEXT
  5
3B9
330
6B
100
AcDbEntity
  8
0
 62
     3
100
AcDbText
 10
690.020283913502
 20
4.451062999999995
 30
0.0
 40
6.299999999999998
  1
M-EK20
  7
高6.3
100
AcDbText
  0
LINE
  5
3BA
330
6B
100
AcDbEntity
  8
0
 62
     7
100
AcDbLine
 10
346.444967
 20
48.42473629281053
 30
0.0
 11
512.7462794355738
 21
48.42473629281053
 31
0.0
  0
LINE
  5
3BB
330
6B
100
AcDbEntity
  8
0
 62
     7
100
AcDbLine
 10
346.444967
 20
13.424737
 30
0.0
 11
512.7462794355738
 21
13.424737
 31
0.0
  0
LINE
  5
3BC
330
6B
100
AcDbEntity
  8
0
 62
     7
100
AcDbLine
 10
346.444967
 20
18.424737
 30
0.0
 11
512.7462794355738
 21
18.424737
 31
0.0
  0
LINE
  5
3BD
330
6B
100
AcDbEntity
  8
0
 62
     7
100
AcDbLine
 10
346.444967
 20
23.42473629281053
 30
0.0
 11
512.7462794355738
 21
23.42473629281053
 31
0.0
  0
LINE
  5
3BE
330
6B
100
AcDbEntity
  8
0
 62
     7
100
AcDbLine
 10
346.444967
 20
28.42473629281053
 30
0.0
 11
512.7462794355738
 21
28.42473629281053
 31
0.0
  0
LINE
  5
3BF
330
6B
100
AcDbEntity
  8
0
 62
     7
100
AcDbLine
 10
346.444967
 20
33.42473629281053
 30
0.0
 11
512.7462794355738
 21
33.42473629281053
 31
0.0
  0
LINE
  5
3C0
330
6B
100
AcDbEntity
  8
0
 62
     7
100
AcDbLine
 10
346.444967
 20
38.42473629281053
 30
0.0
 11
512.7462794355738
 21
38.42473629281053
 31
0.0
  0
LINE
  5
3C1
330
6B
100
AcDbEntity
  8
0
 62
     7
100
AcDbLine
 10
346.444967
 20
43.42473629281053
 30
0.0
 11
512.7462794355738
 21
43.42473629281053
 31
0.0
  0
LINE
  5
3C2
330
6B
100
AcDbEntity
  8
0
 62
     3
100
AcDbLine
 10
346.444967
 20
8.424737
 30
0.0
 11
512.7462794355738
 21
8.424737
 31
0.0
  0
LINE
  5
3C3
330
6B
100
AcDbEntity
  8
0
 62
     7
100
AcDbLine
 10
574.0834531058176
 20
98.98090682887996
 30
0.0
 11
640.0725568051488
 21
98.98090682887996
 31
0.0
  0
LINE
  5
3C4
330
6B
100
AcDbEntity
  8
0
 62
     7
100
AcDbLine
 10
574.0834531058176
 20
93.98090682887993
 30
0.0
 11
640.0725568051488
 21
93.98090682887993
 31
0.0
  0
LINE
  5
3C5
330
6B
100
AcDbEntity
  8
0
 62
     7
100
AcDbLine
 10
574.0834531058176
 20
88.98090682887993
 30
0.0
 11
640.0725568051488
 21
88.98090682887993
 31
0.0
  0
LINE
  5
3C6
330
6B
100
AcDbEntity
  8
0
 62
     7
100
AcDbLine
 10
574.0834531058176
 20
83.98090682887994
 30
0.0
 11
640.0725568051488
 21
83.98090682887994
 31
0.0
  0
LINE
  5
3C7
330
6B
100
AcDbEntity
  8
0
 62
     7
100
AcDbLine
 10
574.0834531058176
 20
78.98090682887993
 30
0.0
 11
640.0725568051488
 21
78.98090682887993
 31
0.0
  0
TEXT
  5
3C8
330
6B
100
AcDbEntity
  8
0
 62
     3
100
AcDbText
 10
597.8042145623747
 20
94.48090682887992
 30
0.0
 40
3.2
  1
AC100V 50/60Hz
  7
高3.2
100
AcDbText
  0
TEXT
  5
3C9
330
6B
100
AcDbEntity
  8
0
 62
     3
100
AcDbText
 10
597.8042145623747
 20
89.48090682887992
 30
0.0
 40
3.2
  1
AC115V AC125V
  7
高3.2
100
AcDbText
  0
TEXT
  5
3CA
330
6B
100
AcDbEntity
  8
0
 62
     3
100
AcDbText
 10
597.8042145623747
 20
74.48090682887993
 30
0.0
 40
3.2
  1
F種絶縁
  7
高3.2
100
AcDbText
  0
TEXT
  5
3CB
330
6B
100
AcDbEntity
  8
0
 62
     3
100
AcDbText
 10
597.8042145623747
 20
99.48090682887995
 30
0.0
 40
3.2
  1
M-EK20
  7
高3.2
100
AcDbText
  0
TEXT
  5
3CC
330
6B
100
AcDbEntity
  8
0
 62
     3
100
AcDbText
 10
597.8042145623747
 20
84.48090682887993
 30
0.0
 40
3.2
  1
2KVA　連続
  7
高3.2
100
AcDbText
  0
TEXT
  5
3CD
330
6B
100
AcDbEntity
  8
0
 62
     3
100
AcDbText
 10
597.8042145623747
 20
79.48090682887993
 30
0.0
 40
3.2
  1
7.0kg
  7
高3.2
100
AcDbText
  0
TEXT
  5
3CE
330
6B
100
AcDbEntity
  8
0
 62
     3
100
AcDbText
 10
716.0523766592979
 20
43.588815
 30
0.0
 40
4.5
  1
5725
  7
高4.5
100
AcDbText
  0
TEXT
  5
4AA
330
6B
100
AcDbEntity
  8
0
 62
     3
100
AcDbText
 10
723.9449669999997
 20
267.980098
 30
0.0
 40
3.2
  1
担　当
  7
高3.2
100
AcDbText
  0
TEXT
  5
4AB
330
6B
100
AcDbEntity
  8
0
 62
     3
100
AcDbText
 10
679.944967
 20
267.980098
 30
0.0
 40
3.2
  1
変更・追記内容
  7
高3.2
100
AcDbText
  0
TEXT
  5
4AC
330
6B
100
AcDbEntity
  8
0
 62
     3
100
AcDbText
 10
655.0584820003392
 20
263.3095594900917
 30
0.0
 40
2.0
  1
1
  7
高2
100
AcDbText
  0
TEXT
  5
4AD
330
6B
100
AcDbEntity
  8
0
 62
     3
100
AcDbText
 10
654.749970523582
 20
258.1397427778188
 30
0.0
 40
2.0
  1
2
  7
高2
100
AcDbText
  0
TEXT
  5
4AE
330
6B
100
AcDbEntity
  8
0
 62
     3
100
AcDbText
 10
661.944967
 20
267.980098
 30
0.0
 40
3.2
  1
日　付
  7
高3.2
100
AcDbText
  0
TEXT
  5
4AF
330
6B
100
AcDbEntity
  8
0
 62
     3
100
AcDbText
 10
661.944967
 20
272.980098
 30
0.0
 40
3.2
  1
図　　　　面　　　　略　　　　歴
  7
高3.2
100
AcDbText
  0
TEXT
  5
4B0
330
6B
100
AcDbEntity
  8
0
 62
     3
100
AcDbText
 10
651.944967
 20
267.980098
 30
0.0
 40
3.2
  1
記号
  7
高3.2
100
AcDbText
  0
LINE
  5
4B1
330
6B
100
AcDbEntity
  8
0
 62
     7
100
AcDbLine
 10
655.444967
 20
261.2709940000001
 30
0.0
 11
653.544967
 21
257.980098
 31
0.0
  0
LINE
  5
4B2
330
6B
100
AcDbEntity
  8
0
 62
     7
100
AcDbLine
 10
655.444967
 20
261.2709940000001
 30
0.0
 11
657.344967
 21
257.980098
 31
0.0
  0
LINE
  5
4B3
330
6B
100
AcDbEntity
  8
0
 62
     7
100
AcDbLine
 10
653.544967
 20
257.980098
 30
0.0
 11
657.344967
 21
257.980098
 31
0.0
  0
LINE
  5
4B4
330
6B
100
AcDbEntity
  8
0
 62
     7
100
AcDbLine
 10
655.444967
 20
266.2709950000001
 30
0.0
 11
653.544967
 21
262.980098
 31
0.0
  0
LINE
  5
4B5
330
6B
100
AcDbEntity
  8
0
 62
     7
100
AcDbLine
 10
655.444967
 20
266.2709950000001
 30
0.0
 11
657.344967
 21
262.980098
 31
0.0
  0
LINE
  5
4B6
330
6B
100
AcDbEntity
  8
0
 62
     7
100
AcDbLine
 10
653.544967
 20
262.980098
 30
0.0
 11
657.344967
 21
262.980098
 31
0.0
  0
LINE
  5
4B7
330
6B
100
AcDbEntity
  8
0
 62
     3
100
AcDbLine
 10
650.444967
 20
272.480098
 30
0.0
 11
736.4449669999997
 21
272.480098
 31
0.0
  0
LINE
  5
4B8
330
6B
100
AcDbEntity
  8
0
 62
     3
100
AcDbLine
 10
650.444967
 20
267.480098
 30
0.0
 11
736.4449669999997
 21
267.480098
 31
0.0
  0
LINE
  5
4B9
330
6B
100
AcDbEntity
  8
0
 62
     7
100
AcDbLine
 10
650.444967
 20
262.480098
 30
0.0
 11
736.4449669999997
 21
262.480098
 31
0.0
  0
LINE
  5
4BA
330
6B
100
AcDbEntity
  8
0
 62
     3
100
AcDbLine
 10
650.444967
 20
257.480098
 30
0.0
 11
736.4449669999997
 21
257.480098
 31
0.0
  0
LINE
  5
4BB
330
6B
100
AcDbEntity
  8
0
 62
     7
100
AcDbLine
 10
722.4449669999996
 20
257.480098
 30
0.0
 11
722.444967
 21
272.480098
 31
0.0
  0
LINE
  5
4BC
330
6B
100
AcDbEntity
  8
0
 62
     7
100
AcDbLine
 10
678.444967
 20
257.480098
 30
0.0
 11
678.444967
 21
272.480098
 31
0.0
  0
LINE
  5
4BD
330
6B
100
AcDbEntity
  8
0
 62
     7
100
AcDbLine
 10
660.444967
 20
257.480098
 30
0.0
 11
660.444967
 21
272.480098
 31
0.0
  0
LINE
  5
4BE
330
6B
100
AcDbEntity
  8
0
 62
     3
100
AcDbLine
 10
650.444967
 20
257.480098
 30
0.0
 11
650.444967
 21
277.480098
 31
0.0
  0
LINE
  5
14A8
330
6B
100
AcDbEntity
  8
0
100
AcDbLine
 10
419.6317629907547
 20
186.825803664785
 30
0.0
 11
419.1317629907543
 21
186.825803664785
 31
0.0
  0
LINE
  5
14A9
330
6B
100
AcDbEntity
  8
0
100
AcDbLine
 10
520.6317629907547
 20
186.825803664785
 30
0.0
 11
521.1317629907544
 21
186.825803664785
 31
0.0
  0
LINE
  5
14AA
330
6B
100
AcDbEntity
  8
0
100
AcDbLine
 10
419.6317629907547
 20
189.825803664785
 30
0.0
 11
419.1317629907543
 21
189.825803664785
 31
0.0
  0
LINE
  5
14AB
330
6B
100
AcDbEntity
  8
0
100
AcDbLine
 10
520.6317629907547
 20
189.825803664785
 30
0.0
 11
521.1317629907544
 21
189.825803664785
 31
0.0
  0
LINE
  5
14AC
330
6B
100
AcDbEntity
  8
0
100
AcDbLine
 10
419.6317629907547
 20
153.075803664785
 30
0.0
 11
419.1317629907543
 21
153.075803664785
 31
0.0
  0
LINE
  5
14AD
330
6B
100
AcDbEntity
  8
0
100
AcDbLine
 10
520.6317629907547
 20
153.075803664785
 30
0.0
 11
521.1317629907544
 21
153.075803664785
 31
0.0
  0
LINE
  5
14AE
330
6B
100
AcDbEntity
  8
0
100
AcDbLine
 10
419.6317629907547
 20
156.075803664785
 30
0.0
 11
419.1317629907543
 21
156.075803664785
 31
0.0
  0
LINE
  5
14AF
330
6B
100
AcDbEntity
  8
0
100
AcDbLine
 10
520.6317629907547
 20
156.075803664785
 30
0.0
 11
521.1317629907544
 21
156.075803664785
 31
0.0
  0
LINE
  5
14B0
330
6B
100
AcDbEntity
  8
0
 62
     3
100
AcDbLine
 10
487.8817629907543
 20
224.575803664785
 30
0.0
 11
452.3817629907546
 21
224.575803664785
 31
0.0
  0
LINE
  5
14B1
330
6B
100
AcDbEntity
  8
0
 62
     3
100
AcDbLine
 10
571.308346370785
 20
150.575803664785
 30
0.0
 11
651.3083463707852
 21
150.575803664785
 31
0.0
  0
LINE
  5
14B2
330
6B
100
AcDbEntity
  8
0
100
AcDbLine
 10
651.3083463707852
 20
155.575803664785
 30
0.0
 11
652.3083463707852
 21
155.575803664785
 31
0.0
  0
LINE
  5
14B3
330
6B
100
AcDbEntity
  8
0
100
AcDbLine
 10
651.3083463707852
 20
165.0758036647849
 30
0.0
 11
652.3083463707852
 21
165.0758036647849
 31
0.0
  0
LINE
  5
14B4
330
6B
100
AcDbEntity
  8
0
100
AcDbLine
 10
419.6317629907547
 20
158.075803664785
 30
0.0
 11
420.1317629907546
 21
158.075803664785
 31
0.0
  0
LINE
  5
14B5
330
6B
100
AcDbEntity
  8
0
100
AcDbLine
 10
520.1317629907545
 20
158.075803664785
 30
0.0
 11
520.6317629907547
 21
158.075803664785
 31
0.0
  0
LINE
  5
14B6
330
6B
100
AcDbEntity
  8
0
 62
     3
100
AcDbLine
 10
517.1317629907547
 20
214.075803664785
 30
0.0
 11
423.1317629907547
 21
214.075803664785
 31
0.0
  0
LINE
  5
14B7
330
6B
100
AcDbEntity
  8
0
100
AcDbLine
 10
517.1317629907547
 20
213.5758036647849
 30
0.0
 11
423.1317629907547
 21
213.5758036647849
 31
0.0
  0
LINE
  5
14B8
330
6B
100
AcDbEntity
  8
0
 62
     3
100
AcDbLine
 10
419.6317629907547
 20
210.575803664785
 30
0.0
 11
419.6317629907547
 21
150.575803664785
 31
0.0
  0
LINE
  5
14B9
330
6B
100
AcDbEntity
  8
0
100
AcDbLine
 10
419.1317629907543
 20
189.825803664785
 30
0.0
 11
419.1317629907543
 21
186.825803664785
 31
0.0
  0
LINE
  5
14BA
330
6B
100
AcDbEntity
  8
0
100
AcDbLine
 10
419.1317629907543
 20
156.075803664785
 30
0.0
 11
419.1317629907543
 21
153.075803664785
 31
0.0
  0
LINE
  5
14BB
330
6B
100
AcDbEntity
  8
0
100
AcDbLine
 10
420.1317629907546
 20
210.575803664785
 30
0.0
 11
420.1317629907546
 21
150.575803664785
 31
0.0
  0
LINE
  5
14BC
330
6B
100
AcDbEntity
  8
0
 62
     3
100
AcDbLine
 10
520.6317629907547
 20
210.575803664785
 30
0.0
 11
520.6317629907547
 21
150.575803664785
 31
0.0
  0
LINE
  5
14BD
330
6B
100
AcDbEntity
  8
0
100
AcDbLine
 10
521.1317629907544
 20
189.825803664785
 30
0.0
 11
521.1317629907544
 21
186.825803664785
 31
0.0
  0
LINE
  5
14BE
330
6B
100
AcDbEntity
  8
0
100
AcDbLine
 10
521.1317629907544
 20
156.075803664785
 30
0.0
 11
521.1317629907544
 21
153.075803664785
 31
0.0
  0
LINE
  5
14BF
330
6B
100
AcDbEntity
  8
0
100
AcDbLine
 10
520.1317629907545
 20
210.575803664785
 30
0.0
 11
520.1317629907545
 21
150.575803664785
 31
0.0
  0
LINE
  5
14C0
330
6B
100
AcDbEntity
  8
0
 62
     3
100
AcDbLine
 10
566.3083463707851
 20
214.075803664785
 30
0.0
 11
566.3083463707851
 21
158.075803664785
 31
0.0
  0
LINE
  5
14C1
330
6B
100
AcDbEntity
  8
0
 62
     3
100
AcDbLine
 10
563.5583463707852
 20
156.575803664785
 30
0.0
 11
563.5583463707852
 21
155.575803664785
 31
0.0
  0
LINE
  5
14C2
330
6B
100
AcDbEntity
  8
0
 62
     3
100
AcDbLine
 10
651.3083463707852
 20
214.075803664785
 30
0.0
 11
651.3083463707852
 21
150.575803664785
 31
0.0
  0
LINE
  5
14C3
330
6B
100
AcDbEntity
  8
0
100
AcDbLine
 10
652.3083463707852
 20
165.0758036647849
 30
0.0
 11
652.3083463707852
 21
155.575803664785
 31
0.0
  0
LINE
  5
14C7
330
6B
100
AcDbEntity
  8
0
100
AcDbLine
 10
640.8083463707852
 20
202.8258036647851
 30
0.0
 11
640.8083463707852
 21
189.325803664785
 31
0.0
  0
LINE
  5
14C8
330
6B
100
AcDbEntity
  8
0
100
AcDbLine
 10
639.3083463707852
 20
202.8258036647851
 30
0.0
 11
639.3083463707852
 21
189.325803664785
 31
0.0
  0
ARC
  5
14C9
330
6B
100
AcDbEntity
  8
0
 62
     3
100
AcDbCircle
 10
517.1317629907547
 20
210.575803664785
 30
0.0
 40
3.5
100
AcDbArc
 50
0.0
 51
90.0
  0
ARC
  5
14CA
330
6B
100
AcDbEntity
  8
0
100
AcDbCircle
 10
517.1317629907547
 20
210.575803664785
 30
0.0
 40
3.0
100
AcDbArc
 50
0.0
 51
90.0
  0
ARC
  5
14CB
330
6B
100
AcDbEntity
  8
0
 62
     3
100
AcDbCircle
 10
423.1317629907547
 20
210.575803664785
 30
0.0
 40
3.5
100
AcDbArc
 50
90.0
 51
180.0
  0
ARC
  5
14CC
330
6B
100
AcDbEntity
  8
0
100
AcDbCircle
 10
423.1317629907547
 20
210.575803664785
 30
0.0
 40
3.0
100
AcDbArc
 50
90.0
 51
180.0
  0
LINE
  5
14CD
330
6B
100
AcDbEntity
  8
0
 62
     3
100
AcDbLine
 10
651.3083463707852
 20
214.075803664785
 30
0.0
 11
566.3083463707851
 21
214.075803664785
 31
0.0
  0
LINE
  5
14D0
330
6B
100
AcDbEntity
  8
0
 62
     3
100
AcDbLine
 10
566.3083463707851
 20
158.075803664785
 30
0.0
 11
571.308346370785
 21
150.575803664785
 31
0.0
  0
LINE
  5
14D1
330
6B
100
AcDbEntity
  8
0
 62
     3
100
AcDbLine
 10
520.6317629907547
 20
150.575803664785
 30
0.0
 11
419.6317629907547
 21
150.575803664785
 31
0.0
  0
LINE
  5
14D2
330
6B
100
AcDbEntity
  8
0
 62
     3
100
AcDbLine
 10
441.1317629907546
 20
155.575803664785
 30
0.0
 11
435.1317629907547
 21
155.575803664785
 31
0.0
  0
LINE
  5
14D3
330
6B
100
AcDbEntity
  8
0
 62
     3
100
AcDbLine
 10
441.1317629907546
 20
156.575803664785
 30
0.0
 11
435.1317629907547
 21
156.575803664785
 31
0.0
  0
LINE
  5
14D4
330
6B
100
AcDbEntity
  8
0
 62
     3
100
AcDbLine
 10
505.1317629907548
 20
150.575803664785
 30
0.0
 11
505.8817629907546
 21
144.575803664785
 31
0.0
  0
LINE
  5
14D5
330
6B
100
AcDbEntity
  8
0
 62
     3
100
AcDbLine
 10
505.8817629907546
 20
144.575803664785
 30
0.0
 11
514.3817629907547
 21
144.575803664785
 31
0.0
  0
LINE
  5
14D6
330
6B
100
AcDbEntity
  8
0
 62
     3
100
AcDbLine
 10
515.1317629907545
 20
150.575803664785
 30
0.0
 11
514.3817629907547
 21
144.575803664785
 31
0.0
  0
LINE
  5
14D7
330
6B
100
AcDbEntity
  8
0
 62
     3
100
AcDbLine
 10
425.1317629907545
 20
150.575803664785
 30
0.0
 11
425.8817629907547
 21
144.575803664785
 31
0.0
  0
LINE
  5
14D8
330
6B
100
AcDbEntity
  8
0
 62
     3
100
AcDbLine
 10
425.8817629907547
 20
144.575803664785
 30
0.0
 11
434.3817629907547
 21
144.575803664785
 31
0.0
  0
LINE
  5
14D9
330
6B
100
AcDbEntity
  8
0
 62
     3
100
AcDbLine
 10
435.1317629907547
 20
150.575803664785
 30
0.0
 11
434.3817629907547
 21
144.575803664785
 31
0.0
  0
LINE
  5
14DA
330
6B
100
AcDbEntity
  8
0
 62
     3
100
AcDbLine
 10
581.3083463707852
 20
150.575803664785
 30
0.0
 11
582.0583463707849
 21
144.575803664785
 31
0.0
  0
LINE
  5
14DB
330
6B
100
AcDbEntity
  8
0
 62
     3
100
AcDbLine
 10
582.0583463707849
 20
144.575803664785
 30
0.0
 11
590.5583463707852
 21
144.575803664785
 31
0.0
  0
LINE
  5
14DC
330
6B
100
AcDbEntity
  8
0
 62
     3
100
AcDbLine
 10
591.3083463707851
 20
150.575803664785
 30
0.0
 11
590.5583463707852
 21
144.575803664785
 31
0.0
  0
LINE
  5
14DD
330
6B
100
AcDbEntity
  8
0
 62
     3
100
AcDbLine
 10
636.3083463707852
 20
150.575803664785
 30
0.0
 11
637.0583463707852
 21
144.575803664785
 31
0.0
  0
LINE
  5
14DE
330
6B
100
AcDbEntity
  8
0
 62
     3
100
AcDbLine
 10
637.0583463707852
 20
144.575803664785
 30
0.0
 11
645.5583463707852
 21
144.575803664785
 31
0.0
  0
LINE
  5
14DF
330
6B
100
AcDbEntity
  8
0
 62
     3
100
AcDbLine
 10
646.3083463707852
 20
150.575803664785
 30
0.0
 11
645.5583463707852
 21
144.575803664785
 31
0.0
  0
LINE
  5
14E0
330
6B
100
AcDbEntity
  8
0
 62
     3
100
AcDbLine
 10
433.388346500502
 20
197.075803664785
 30
0.0
 11
442.8751794810071
 21
197.075803664785
 31
0.0
  0
LINE
  5
14E1
330
6B
100
AcDbEntity
  8
0
 62
     3
100
AcDbLine
 10
433.388346500502
 20
183.5758036647849
 30
0.0
 11
442.8751794810071
 21
183.5758036647849
 31
0.0
  0
ARC
  5
14E2
330
6B
100
AcDbEntity
  8
0
 62
     3
100
AcDbCircle
 10
438.1317629907546
 20
190.325803664785
 30
0.0
 40
8.25
100
AcDbArc
 50
305.0968012275825
 51
54.90319877241724
  0
ARC
  5
14E3
330
6B
100
AcDbEntity
  8
0
 62
     3
100
AcDbCircle
 10
438.1317629907546
 20
190.325803664785
 30
0.0
 40
8.25
100
AcDbArc
 50
125.0968012275828
 51
234.9031987724172
  0
LINE
  5
14E4
330
6B
100
AcDbEntity
  8
0
 62
     3
100
AcDbLine
 10
433.388346500502
 20
177.5758036647849
 30
0.0
 11
442.8751794810071
 21
177.5758036647849
 31
0.0
  0
LINE
  5
14E5
330
6B
100
AcDbEntity
  8
0
 62
     3
100
AcDbLine
 10
434.4567629907545
 20
174.825803664785
 30
0.0
 11
434.4567629907545
 21
170.325803664785
 31
0.0
  0
LINE
  5
14E6
330
6B
100
AcDbEntity
  8
0
 62
     3
100
AcDbLine
 10
435.4567629907545
 20
174.825803664785
 30
0.0
 11
435.4567629907545
 21
170.325803664785
 31
0.0
  0
LINE
  5
14E7
330
6B
100
AcDbEntity
  8
0
 62
     3
100
AcDbLine
 10
440.8067629907547
 20
174.325803664785
 30
0.0
 11
440.8067629907547
 21
170.825803664785
 31
0.0
  0
LINE
  5
14E8
330
6B
100
AcDbEntity
  8
0
 62
     3
100
AcDbLine
 10
441.8067629907547
 20
174.325803664785
 30
0.0
 11
441.8067629907547
 21
170.825803664785
 31
0.0
  0
LINE
  5
14E9
330
6B
100
AcDbEntity
  8
0
 62
     3
100
AcDbLine
 10
433.388346500502
 20
164.075803664785
 30
0.0
 11
442.8751794810071
 21
164.075803664785
 31
0.0
  0
LINE
  5
14EA
330
6B
100
AcDbEntity
  8
0
 62
     3
100
AcDbLine
 10
440.8067629907547
 20
170.825803664785
 30
0.0
 11
441.8067629907547
 21
170.825803664785
 31
0.0
  0
LINE
  5
14EB
330
6B
100
AcDbEntity
  8
0
 62
     3
100
AcDbLine
 10
434.4567629907545
 20
170.325803664785
 30
0.0
 11
435.4567629907545
 21
170.325803664785
 31
0.0
  0
LINE
  5
14EC
330
6B
100
AcDbEntity
  8
0
 62
     3
100
AcDbLine
 10
440.8067629907547
 20
174.325803664785
 30
0.0
 11
441.8067629907547
 21
174.325803664785
 31
0.0
  0
LINE
  5
14ED
330
6B
100
AcDbEntity
  8
0
 62
     3
100
AcDbLine
 10
434.4567629907545
 20
174.825803664785
 30
0.0
 11
435.4567629907545
 21
174.825803664785
 31
0.0
  0
ARC
  5
14EE
330
6B
100
AcDbEntity
  8
0
 62
     3
100
AcDbCircle
 10
438.1317629907546
 20
170.825803664785
 30
0.0
 40
8.25
100
AcDbArc
 50
305.0968012275825
 51
54.90319877241724
  0
ARC
  5
14EF
330
6B
100
AcDbEntity
  8
0
 62
     3
100
AcDbCircle
 10
438.1317629907546
 20
170.825803664785
 30
0.0
 40
8.25
100
AcDbArc
 50
125.0968012275828
 51
234.9031987724172
  0
LINE
  5
14F0
330
6B
100
AcDbEntity
  8
0
100
AcDbLine
 10
437.8817629907543
 20
160.7137970275765
 30
0.0
 11
437.8817629907543
 21
160.075803664785
 31
0.0
  0
LINE
  5
14F1
330
6B
100
AcDbEntity
  8
0
100
AcDbLine
 10
437.8817629907543
 20
159.575803664785
 30
0.0
 11
437.8817629907543
 21
158.9378103019935
 31
0.0
  0
LINE
  5
14F2
330
6B
100
AcDbEntity
  8
0
100
AcDbLine
 10
438.3817629907547
 20
160.7137970275765
 30
0.0
 11
438.3817629907547
 21
160.075803664785
 31
0.0
  0
LINE
  5
14F3
330
6B
100
AcDbEntity
  8
0
100
AcDbLine
 10
438.3817629907547
 20
159.575803664785
 30
0.0
 11
438.3817629907547
 21
158.9378103019935
 31
0.0
  0
LINE
  5
14F4
330
6B
100
AcDbEntity
  8
0
100
AcDbLine
 10
437.243769627963
 20
159.575803664785
 30
0.0
 11
437.8817629907543
 21
159.575803664785
 31
0.0
  0
LINE
  5
14F5
330
6B
100
AcDbEntity
  8
0
100
AcDbLine
 10
438.3817629907547
 20
159.575803664785
 30
0.0
 11
439.0197563535456
 21
159.575803664785
 31
0.0
  0
LINE
  5
14F6
330
6B
100
AcDbEntity
  8
0
100
AcDbLine
 10
437.243769627963
 20
160.075803664785
 30
0.0
 11
437.8817629907543
 21
160.075803664785
 31
0.0
  0
LINE
  5
14F7
330
6B
100
AcDbEntity
  8
0
100
AcDbLine
 10
438.3817629907547
 20
160.075803664785
 30
0.0
 11
439.0197563535456
 21
160.075803664785
 31
0.0
  0
CIRCLE
  5
14F8
330
6B
100
AcDbEntity
  8
0
100
AcDbCircle
 10
438.1317629907546
 20
159.825803664785
 30
0.0
 40
1.625
  0
ARC
  5
14F9
330
6B
100
AcDbEntity
  8
0
100
AcDbCircle
 10
438.1317629907546
 20
159.825803664785
 30
0.0
 40
0.9225140716334864
100
AcDbArc
 50
74.276303409489
 51
105.723696590511
  0
ARC
  5
14FA
330
6B
100
AcDbEntity
  8
0
100
AcDbCircle
 10
438.1317629907546
 20
159.825803664785
 30
0.0
 40
0.9225140716334864
100
AcDbArc
 50
164.276303409484
 51
195.7236965905152
  0
ARC
  5
14FB
330
6B
100
AcDbEntity
  8
0
100
AcDbCircle
 10
438.1317629907546
 20
159.825803664785
 30
0.0
 40
0.9225140716334864
100
AcDbArc
 50
254.2763034094823
 51
285.723696590511
  0
ARC
  5
14FC
330
6B
100
AcDbEntity
  8
0
100
AcDbCircle
 10
438.1317629907546
 20
159.825803664785
 30
0.0
 40
0.9225140716334864
100
AcDbArc
 50
344.276303409484
 51
15.72369659051517
  0
LINE
  5
14FD
330
6B
100
AcDbEntity
  8
0
 62
     3
100
AcDbLine
 10
497.3883465005017
 20
197.075803664785
 30
0.0
 11
506.8751794810073
 21
197.075803664785
 31
0.0
  0
LINE
  5
14FE
330
6B
100
AcDbEntity
  8
0
 62
     3
100
AcDbLine
 10
497.3883465005017
 20
183.5758036647849
 30
0.0
 11
506.8751794810073
 21
183.5758036647849
 31
0.0
  0
ARC
  5
14FF
330
6B
100
AcDbEntity
  8
0
 62
     3
100
AcDbCircle
 10
502.1317629907549
 20
190.325803664785
 30
0.0
 40
8.25
100
AcDbArc
 50
305.0968012275825
 51
54.90319877241724
  0
ARC
  5
1500
330
6B
100
AcDbEntity
  8
0
 62
     3
100
AcDbCircle
 10
502.1317629907549
 20
190.325803664785
 30
0.0
 40
8.25
100
AcDbArc
 50
125.0968012275828
 51
234.9031987724172
  0
LINE
  5
1501
330
6B
100
AcDbEntity
  8
0
 62
     3
100
AcDbLine
 10
497.3883465005017
 20
177.5758036647849
 30
0.0
 11
506.8751794810073
 21
177.5758036647849
 31
0.0
  0
LINE
  5
1502
330
6B
100
AcDbEntity
  8
0
 62
     3
100
AcDbLine
 10
497.3883465005017
 20
164.075803664785
 30
0.0
 11
506.8751794810073
 21
164.075803664785
 31
0.0
  0
ARC
  5
1503
330
6B
100
AcDbEntity
  8
0
 62
     3
100
AcDbCircle
 10
502.1317629907549
 20
170.825803664785
 30
0.0
 40
8.25
100
AcDbArc
 50
305.0968012275825
 51
54.90319877241724
  0
ARC
  5
1504
330
6B
100
AcDbEntity
  8
0
 62
     3
100
AcDbCircle
 10
502.1317629907549
 20
170.825803664785
 30
0.0
 40
8.25
100
AcDbArc
 50
125.0968012275828
 51
234.9031987724172
  0
LINE
  5
1505
330
6B
100
AcDbEntity
  8
0
100
AcDbLine
 10
501.8817629907544
 20
160.7137970275765
 30
0.0
 11
501.8817629907544
 21
160.075803664785
 31
0.0
  0
LINE
  5
1506
330
6B
100
AcDbEntity
  8
0
100
AcDbLine
 10
501.8817629907544
 20
159.575803664785
 30
0.0
 11
501.8817629907544
 21
158.9378103019935
 31
0.0
  0
LINE
  5
1507
330
6B
100
AcDbEntity
  8
0
100
AcDbLine
 10
502.3817629907546
 20
160.7137970275765
 30
0.0
 11
502.3817629907546
 21
160.075803664785
 31
0.0
  0
LINE
  5
1508
330
6B
100
AcDbEntity
  8
0
100
AcDbLine
 10
502.3817629907546
 20
159.575803664785
 30
0.0
 11
502.3817629907546
 21
158.9378103019935
 31
0.0
  0
LINE
  5
1509
330
6B
100
AcDbEntity
  8
0
100
AcDbLine
 10
501.2437696279631
 20
159.575803664785
 30
0.0
 11
501.8817629907544
 21
159.575803664785
 31
0.0
  0
LINE
  5
150A
330
6B
100
AcDbEntity
  8
0
100
AcDbLine
 10
502.3817629907546
 20
159.575803664785
 30
0.0
 11
503.0197563535458
 21
159.575803664785
 31
0.0
  0
LINE
  5
150B
330
6B
100
AcDbEntity
  8
0
100
AcDbLine
 10
501.2437696279631
 20
160.075803664785
 30
0.0
 11
501.8817629907544
 21
160.075803664785
 31
0.0
  0
LINE
  5
150C
330
6B
100
AcDbEntity
  8
0
100
AcDbLine
 10
502.3817629907546
 20
160.075803664785
 30
0.0
 11
503.0197563535458
 21
160.075803664785
 31
0.0
  0
CIRCLE
  5
150D
330
6B
100
AcDbEntity
  8
0
100
AcDbCircle
 10
502.1317629907549
 20
159.825803664785
 30
0.0
 40
1.625
  0
ARC
  5
150E
330
6B
100
AcDbEntity
  8
0
100
AcDbCircle
 10
502.1317629907549
 20
159.825803664785
 30
0.0
 40
0.9225140716334864
100
AcDbArc
 50
74.276303409489
 51
105.723696590511
  0
ARC
  5
150F
330
6B
100
AcDbEntity
  8
0
100
AcDbCircle
 10
502.1317629907549
 20
159.825803664785
 30
0.0
 40
0.9225140716334864
100
AcDbArc
 50
164.276303409484
 51
195.7236965905152
  0
ARC
  5
1510
330
6B
100
AcDbEntity
  8
0
100
AcDbCircle
 10
502.1317629907549
 20
159.825803664785
 30
0.0
 40
0.9225140716334864
100
AcDbArc
 50
254.2763034094823
 51
285.723696590511
  0
ARC
  5
1511
330
6B
100
AcDbEntity
  8
0
100
AcDbCircle
 10
502.1317629907549
 20
159.825803664785
 30
0.0
 40
0.9225140716334864
100
AcDbArc
 50
344.276303409484
 51
15.72369659051517
  0
LINE
  5
1512
330
6B
100
AcDbEntity
  8
0
100
AcDbLine
 10
437.8817629907543
 20
202.2137970275764
 30
0.0
 11
437.8817629907543
 21
201.575803664785
 31
0.0
  0
LINE
  5
1513
330
6B
100
AcDbEntity
  8
0
100
AcDbLine
 10
437.8817629907543
 20
201.075803664785
 30
0.0
 11
437.8817629907543
 21
200.4378103019934
 31
0.0
  0
LINE
  5
1514
330
6B
100
AcDbEntity
  8
0
100
AcDbLine
 10
438.3817629907547
 20
202.2137970275764
 30
0.0
 11
438.3817629907547
 21
201.575803664785
 31
0.0
  0
LINE
  5
1515
330
6B
100
AcDbEntity
  8
0
100
AcDbLine
 10
438.3817629907547
 20
201.075803664785
 30
0.0
 11
438.3817629907547
 21
200.4378103019934
 31
0.0
  0
LINE
  5
1516
330
6B
100
AcDbEntity
  8
0
100
AcDbLine
 10
437.243769627963
 20
201.075803664785
 30
0.0
 11
437.8817629907543
 21
201.075803664785
 31
0.0
  0
LINE
  5
1517
330
6B
100
AcDbEntity
  8
0
100
AcDbLine
 10
438.3817629907547
 20
201.075803664785
 30
0.0
 11
439.0197563535456
 21
201.075803664785
 31
0.0
  0
LINE
  5
1518
330
6B
100
AcDbEntity
  8
0
100
AcDbLine
 10
437.243769627963
 20
201.575803664785
 30
0.0
 11
437.8817629907543
 21
201.575803664785
 31
0.0
  0
LINE
  5
1519
330
6B
100
AcDbEntity
  8
0
100
AcDbLine
 10
438.3817629907547
 20
201.575803664785
 30
0.0
 11
439.0197563535456
 21
201.575803664785
 31
0.0
  0
CIRCLE
  5
151A
330
6B
100
AcDbEntity
  8
0
100
AcDbCircle
 10
438.1317629907546
 20
201.325803664785
 30
0.0
 40
1.625
  0
ARC
  5
151B
330
6B
100
AcDbEntity
  8
0
100
AcDbCircle
 10
438.1317629907546
 20
201.325803664785
 30
0.0
 40
0.9225140716334864
100
AcDbArc
 50
74.276303409489
 51
105.723696590511
  0
ARC
  5
151C
330
6B
100
AcDbEntity
  8
0
100
AcDbCircle
 10
438.1317629907546
 20
201.325803664785
 30
0.0
 40
0.9225140716334864
100
AcDbArc
 50
164.276303409484
 51
195.7236965905152
  0
ARC
  5
151D
330
6B
100
AcDbEntity
  8
0
100
AcDbCircle
 10
438.1317629907546
 20
201.325803664785
 30
0.0
 40
0.9225140716334864
100
AcDbArc
 50
254.2763034094823
 51
285.723696590511
  0
ARC
  5
151E
330
6B
100
AcDbEntity
  8
0
100
AcDbCircle
 10
438.1317629907546
 20
201.325803664785
 30
0.0
 40
0.9225140716334864
100
AcDbArc
 50
344.276303409484
 51
15.72369659051517
  0
LINE
  5
151F
330
6B
100
AcDbEntity
  8
0
100
AcDbLine
 10
501.8817629907544
 20
202.2137970275764
 30
0.0
 11
501.8817629907544
 21
201.575803664785
 31
0.0
  0
LINE
  5
1520
330
6B
100
AcDbEntity
  8
0
100
AcDbLine
 10
501.8817629907544
 20
201.075803664785
 30
0.0
 11
501.8817629907544
 21
200.4378103019934
 31
0.0
  0
LINE
  5
1521
330
6B
100
AcDbEntity
  8
0
100
AcDbLine
 10
502.3817629907546
 20
202.2137970275764
 30
0.0
 11
502.3817629907546
 21
201.575803664785
 31
0.0
  0
LINE
  5
1522
330
6B
100
AcDbEntity
  8
0
100
AcDbLine
 10
502.3817629907546
 20
201.075803664785
 30
0.0
 11
502.3817629907546
 21
200.4378103019934
 31
0.0
  0
LINE
  5
1523
330
6B
100
AcDbEntity
  8
0
100
AcDbLine
 10
501.2437696279631
 20
201.075803664785
 30
0.0
 11
501.8817629907544
 21
201.075803664785
 31
0.0
  0
LINE
  5
1524
330
6B
100
AcDbEntity
  8
0
100
AcDbLine
 10
502.3817629907546
 20
201.075803664785
 30
0.0
 11
503.0197563535458
 21
201.075803664785
 31
0.0
  0
LINE
  5
1525
330
6B
100
AcDbEntity
  8
0
100
AcDbLine
 10
501.2437696279631
 20
201.575803664785
 30
0.0
 11
501.8817629907544
 21
201.575803664785
 31
0.0
  0
LINE
  5
1526
330
6B
100
AcDbEntity
  8
0
100
AcDbLine
 10
502.3817629907546
 20
201.575803664785
 30
0.0
 11
503.0197563535458
 21
201.575803664785
 31
0.0
  0
CIRCLE
  5
1527
330
6B
100
AcDbEntity
  8
0
100
AcDbCircle
 10
502.1317629907549
 20
201.325803664785
 30
0.0
 40
1.625
  0
ARC
  5
1528
330
6B
100
AcDbEntity
  8
0
100
AcDbCircle
 10
502.1317629907549
 20
201.325803664785
 30
0.0
 40
0.9225140716334864
100
AcDbArc
 50
74.276303409489
 51
105.723696590511
  0
ARC
  5
1529
330
6B
100
AcDbEntity
  8
0
100
AcDbCircle
 10
502.1317629907549
 20
201.325803664785
 30
0.0
 40
0.9225140716334864
100
AcDbArc
 50
164.276303409484
 51
195.7236965905152
  0
ARC
  5
152A
330
6B
100
AcDbEntity
  8
0
100
AcDbCircle
 10
502.1317629907549
 20
201.325803664785
 30
0.0
 40
0.9225140716334864
100
AcDbArc
 50
254.2763034094823
 51
285.723696590511
  0
ARC
  5
152B
330
6B
100
AcDbEntity
  8
0
100
AcDbCircle
 10
502.1317629907549
 20
201.325803664785
 30
0.0
 40
0.9225140716334864
100
AcDbArc
 50
344.276303409484
 51
15.72369659051517
  0
LINE
  5
152C
330
6B
100
AcDbEntity
  8
0
 62
     3
100
AcDbLine
 10
459.1317629907546
 20
204.575803664785
 30
0.0
 11
459.1317629907546
 21
182.075803664785
 31
0.0
  0
LINE
  5
152D
330
6B
100
AcDbEntity
  8
0
 62
     3
100
AcDbLine
 10
459.1317629907546
 20
182.075803664785
 30
0.0
 11
481.1317629907547
 21
182.075803664785
 31
0.0
  0
LINE
  5
152E
330
6B
100
AcDbEntity
  8
0
 62
     3
100
AcDbLine
 10
481.1317629907547
 20
182.075803664785
 30
0.0
 11
481.1317629907547
 21
204.575803664785
 31
0.0
  0
LINE
  5
152F
330
6B
100
AcDbEntity
  8
0
 62
     3
100
AcDbLine
 10
481.1317629907547
 20
204.575803664785
 30
0.0
 11
459.1317629907546
 21
204.575803664785
 31
0.0
  0
LINE
  5
1530
330
6B
100
AcDbEntity
  8
0
 62
     3
100
AcDbLine
 10
459.1317629907546
 20
191.2851059903663
 30
0.0
 11
481.1317629907547
 21
191.2851059903663
 31
0.0
  0
ARC
  5
1531
330
6B
100
AcDbEntity
  8
0
 62
     3
100
AcDbCircle
 10
470.1317629907546
 20
191.2851059903663
 30
0.0
 40
3.069767441860463
100
AcDbArc
 50
0.0
 51
180.0
  0
LINE
  5
1532
330
6B
100
AcDbEntity
  8
0
 62
     3
100
AcDbLine
 10
461.1782746186613
 20
197.1688269205989
 30
0.0
 11
461.4340885721498
 21
197.1688269205989
 31
0.0
  0
LINE
  5
1533
330
6B
100
AcDbEntity
  8
0
100
AcDbLine
 10
470.1317629907546
 20
187.9595245950175
 30
0.0
 11
470.1317629907546
 21
184.3781292461804
 31
0.0
  0
CIRCLE
  5
1534
330
6B
100
AcDbEntity
  8
0
100
AcDbCircle
 10
470.1317629907546
 20
186.1688269205989
 30
0.0
 40
1.790697674418604
  0
LINE
  5
1535
330
6B
100
AcDbEntity
  8
0
100
AcDbLine
 10
461.4340885721498
 20
197.1688269205989
 30
0.0
 11
470.3875769442426
 21
191.2851059903663
 31
0.0
  0
LINE
  5
1536
330
6B
100
AcDbEntity
  8
0
100
AcDbLine
 10
470.1317629907546
 20
191.2851059903663
 30
0.0
 11
461.1782746186613
 21
197.1688269205989
 31
0.0
  0
TEXT
  5
1537
330
6B
100
AcDbEntity
  8
0
100
AcDbText
 10
478.3178095023826
 20
199.2153385485059
 30
0.0
 40
1.023255813953487
  1
150
 50
319.9999910000028
 41
1.1808
100
AcDbText
  0
LINE
  5
1538
330
6B
100
AcDbEntity
  8
0
100
AcDbLine
 10
479.1752978744754
 20
197.2793385485059
 30
0.0
 11
479.9427397349408
 21
198.0467804089709
 31
0.0
  0
ARC
  5
1539
330
6B
100
AcDbEntity
  8
0
100
AcDbCircle
 10
470.8992048512198
 20
185.6571990136223
 30
0.0
 40
14.32558139534884
100
AcDbArc
 50
50.85599999999605
 51
129.1440000000039
  0
TEXT
  5
153A
330
6B
100
AcDbEntity
  8
0
100
AcDbText
 10
460.3603862465686
 20
197.9538165950176
 30
0.0
 40
0.8390697674418603
  1
0
 50
39.99999900000302
 41
1.440001
100
AcDbText
  0
LINE
  5
153B
330
6B
100
AcDbEntity
  8
0
100
AcDbLine
 10
461.1782746186613
 20
197.1688269205989
 30
0.0
 11
460.6666467116848
 21
197.9362687810641
 31
0.0
  0
TEXT
  5
153C
330
6B
100
AcDbEntity
  8
0
 62
     4
100
AcDbText
 10
435.6941288428846
 20
179.1621317202375
 30
0.0
 40
2.25
  1
115V
  7
高4.5
100
AcDbText
  0
TEXT
  5
153D
330
6B
100
AcDbEntity
  8
0
 62
     4
100
AcDbText
 10
498.9367806879932
 20
179.1621317202375
 30
0.0
 40
2.25
  1
125V
  7
高4.5
100
AcDbText
  0
TEXT
  5
153E
330
6B
100
AcDbEntity
  8
0
 62
     3
100
AcDbText
 10
447.381579520714
 20
208.7505297861413
 30
0.0
 40
3.149999999999999
  1
TORA PACK ハイパワー
  7
高6.3
100
AcDbText
  0
TEXT
  5
153F
330
6B
100
AcDbEntity
  8
0
 62
     3
100
AcDbText
 10
453.8135040341658
 20
176.9050937307139
 30
0.0
 40
3.149999999999999
  1
M-EK20 容量2KVA
 41
0.8
  7
高6.3
100
AcDbText
  0
TEXT
  5
1540
330
6B
100
AcDbEntity
  8
0
 62
     4
100
AcDbText
 10
432.8900171011013
 20
205.9162202764711
 30
0.0
 40
2.25
  1
昇圧15%%%
  7
高4.5
100
AcDbText
  0
TEXT
  5
1541
330
6B
100
AcDbEntity
  8
0
 62
     4
100
AcDbText
 10
497.0449802391557
 20
205.9162202764711
 30
0.0
 40
2.25
  1
昇圧25%%%
  7
高4.5
100
AcDbText
  0
LINE
  5
1544
330
6B
100
AcDbEntity
  8
0
 62
     3
100
AcDbLine
 10
437.6317629907545
 20
214.075803664785
 30
0.0
 11
444.4407799851295
 21
227.6938376535349
 31
0.0
  0
ARC
  5
1545
330
6B
100
AcDbEntity
  8
0
 62
     3
100
AcDbCircle
 10
446.676847962629
 20
226.575803664785
 30
0.0
 40
2.5
100
AcDbArc
 50
90.0
 51
153.4349488229245
  0
LINE
  5
1546
330
6B
100
AcDbEntity
  8
0
 62
     3
100
AcDbLine
 10
502.6317629907546
 20
214.075803664785
 30
0.0
 11
495.8227459963796
 21
227.6938376535349
 31
0.0
  0
ARC
  5
1547
330
6B
100
AcDbEntity
  8
0
 62
     3
100
AcDbCircle
 10
493.5866780188796
 20
226.575803664785
 30
0.0
 40
2.5
100
AcDbArc
 50
26.56505117707544
 51
90.0
  0
LINE
  5
1548
330
6B
100
AcDbEntity
  8
0
 62
     3
100
AcDbLine
 10
493.5866780188796
 20
229.075803664785
 30
0.0
 11
446.676847962629
 21
229.075803664785
 31
0.0
  0
ARC
  5
1549
330
6B
100
AcDbEntity
  8
0
 62
     3
100
AcDbCircle
 10
487.8817629907543
 20
223.0758036647848
 30
0.0
 40
1.5
100
AcDbArc
 50
0.0
 51
89.99999999999348
  0
ARC
  5
154A
330
6B
100
AcDbEntity
  8
0
 62
     3
100
AcDbCircle
 10
452.3817629907546
 20
223.075803664785
 30
0.0
 40
1.5
100
AcDbArc
 50
90.0
 51
180.0
  0
LINE
  5
154B
330
6B
100
AcDbEntity
  8
0
 62
     3
100
AcDbLine
 10
604.8083463707852
 20
214.075803664785
 30
0.0
 11
605.8083463707852
 21
229.075803664785
 31
0.0
  0
LINE
  5
154C
330
6B
100
AcDbEntity
  8
0
 62
     3
100
AcDbLine
 10
605.8083463707852
 20
229.075803664785
 30
0.0
 11
610.8083463707852
 21
229.075803664785
 31
0.0
  0
LINE
  5
154D
330
6B
100
AcDbEntity
  8
0
 62
     3
100
AcDbLine
 10
610.8083463707852
 20
229.075803664785
 30
0.0
 11
611.8083463707852
 21
214.075803664785
 31
0.0
  0
LINE
  5
1575
330
6B
100
AcDbEntity
  8
0
100
AcDbLine
 10
637.944443743134
 20
154.4091369981183
 30
0.0
 11
638.6416797041187
 21
154.4091369981183
 31
0.0
  0
LINE
  5
1576
330
6B
100
AcDbEntity
  8
0
100
AcDbLine
 10
638.9750130374517
 20
154.4091369981183
 30
0.0
 11
639.6722489984369
 21
154.4091369981183
 31
0.0
  0
LINE
  5
1577
330
6B
100
AcDbEntity
  8
0
100
AcDbLine
 10
637.944443743134
 20
154.7424703314517
 30
0.0
 11
638.6416797041187
 21
154.7424703314517
 31
0.0
  0
LINE
  5
1578
330
6B
100
AcDbEntity
  8
0
100
AcDbLine
 10
638.9750130374517
 20
154.7424703314517
 30
0.0
 11
639.6722489984369
 21
154.7424703314517
 31
0.0
  0
LINE
  5
1579
330
6B
100
AcDbEntity
  8
0
100
AcDbLine
 10
638.6416797041187
 20
155.4397062924364
 30
0.0
 11
638.6416797041187
 21
154.7424703314517
 31
0.0
  0
LINE
  5
157A
330
6B
100
AcDbEntity
  8
0
100
AcDbLine
 10
638.6416797041187
 20
154.4091369981183
 30
0.0
 11
638.6416797041187
 21
153.7119010371336
 31
0.0
  0
LINE
  5
157B
330
6B
100
AcDbEntity
  8
0
100
AcDbLine
 10
638.9750130374517
 20
155.4397062924364
 30
0.0
 11
638.9750130374517
 21
154.7424703314517
 31
0.0
  0
LINE
  5
157C
330
6B
100
AcDbEntity
  8
0
100
AcDbLine
 10
638.9750130374517
 20
154.4091369981183
 30
0.0
 11
638.9750130374517
 21
153.7119010371336
 31
0.0
  0
CIRCLE
  5
157D
330
6B
100
AcDbEntity
  8
0
100
AcDbCircle
 10
638.8083463707852
 20
154.575803664785
 30
0.0
 40
1.5
  0
ARC
  5
157E
330
6B
100
AcDbEntity
  8
0
100
AcDbCircle
 10
638.8083463707852
 20
154.575803664785
 30
0.0
 40
0.8798326703645194
100
AcDbArc
 50
79.08048086552447
 51
100.9195191344755
  0
ARC
  5
157F
330
6B
100
AcDbEntity
  8
0
100
AcDbCircle
 10
638.8083463707852
 20
154.575803664785
 30
0.0
 40
0.8798326703645194
100
AcDbArc
 50
169.0804808655313
 51
190.9195191344687
  0
ARC
  5
1580
330
6B
100
AcDbEntity
  8
0
100
AcDbCircle
 10
638.8083463707852
 20
154.575803664785
 30
0.0
 40
0.8798326703645194
100
AcDbArc
 50
259.0804808655245
 51
280.9195191344755
  0
ARC
  5
1581
330
6B
100
AcDbEntity
  8
0
100
AcDbCircle
 10
638.8083463707852
 20
154.575803664785
 30
0.0
 40
0.8798326703645194
100
AcDbArc
 50
349.0804808655312
 51
10.91951913446873
  0
ARC
  5
1582
330
6B
100
AcDbEntity
  8
0
100
AcDbCircle
 10
519.1317629907545
 20
188.325803664785
 30
0.0
 40
2.49999999999999
100
AcDbArc
 50
323.1301023541557
 51
36.86989764584435
  0
ARC
  5
1583
330
6B
100
AcDbEntity
  8
0
100
AcDbCircle
 10
519.131762990754
 20
154.575803664785
 30
0.0
 40
2.500000000000083
100
AcDbArc
 50
323.1301023541586
 51
36.86989764584142
  0
ARC
  5
1584
330
6B
100
AcDbEntity
  8
0
100
AcDbCircle
 10
421.1317629907544
 20
154.575803664785
 30
0.0
 40
2.5
100
AcDbArc
 50
143.1301023541556
 51
216.869897645847
  0
ARC
  5
1585
330
6B
100
AcDbEntity
  8
0
100
AcDbCircle
 10
421.1317629907543
 20
188.325803664785
 30
0.0
 40
2.499999999999725
100
AcDbArc
 50
143.1301023541514
 51
216.8698976458486
  0
LINE
  5
1586
330
6B
100
AcDbEntity
  8
0
 62
     3
100
AcDbLine
 10
489.3817629907543
 20
214.075803664785
 30
0.0
 11
489.3817629907543
 21
223.0758036647848
 31
0.0
  0
LINE
  5
1587
330
6B
100
AcDbEntity
  8
0
 62
     3
100
AcDbLine
 10
450.8817629907547
 20
214.075803664785
 30
0.0
 11
450.8817629907547
 21
223.075803664785
 31
0.0
  0
ARC
  5
1588
330
6B
100
AcDbEntity
  8
0
100
AcDbCircle
 10
640.0583463707852
 20
202.8258036647851
 30
0.0
 40
0.7499999999998856
100
AcDbArc
 50
0.0
 51
180.0
  0
ARC
  5
1589
330
6B
100
AcDbEntity
  8
0
100
AcDbCircle
 10
640.0583463707852
 20
189.325803664785
 30
0.0
 40
0.75
100
AcDbArc
 50
180.0
 51
0.0
  0
LINE
  5
158A
330
6B
100
AcDbEntity
  8
0
100
AcDbLine
 10
637.8083463707852
 20
202.8258036647851
 30
0.0
 11
637.8083463707852
 21
189.325803664785
 31
0.0
  0
LINE
  5
158B
330
6B
100
AcDbEntity
  8
0
100
AcDbLine
 10
636.3083463707852
 20
202.8258036647851
 30
0.0
 11
636.3083463707852
 21
189.325803664785
 31
0.0
  0
ARC
  5
158C
330
6B
100
AcDbEntity
  8
0
100
AcDbCircle
 10
637.0583463707859
 20
202.8258036647851
 30
0.0
 40
0.7499999999998856
100
AcDbArc
 50
0.0
 51
180.0
  0
ARC
  5
158D
330
6B
100
AcDbEntity
  8
0
100
AcDbCircle
 10
637.0583463707852
 20
189.325803664785
 30
0.0
 40
0.75
100
AcDbArc
 50
180.0
 51
0.0
  0
LINE
  5
158E
330
6B
100
AcDbEntity
  8
0
100
AcDbLine
 10
634.8083463707852
 20
202.8258036647851
 30
0.0
 11
634.8083463707852
 21
189.325803664785
 31
0.0
  0
LINE
  5
158F
330
6B
100
AcDbEntity
  8
0
100
AcDbLine
 10
633.308346370785
 20
202.8258036647851
 30
0.0
 11
633.308346370785
 21
189.325803664785
 31
0.0
  0
ARC
  5
1590
330
6B
100
AcDbEntity
  8
0
100
AcDbCircle
 10
634.0583463707852
 20
202.8258036647851
 30
0.0
 40
0.7499999999998856
100
AcDbArc
 50
0.0
 51
180.0
  0
ARC
  5
1591
330
6B
100
AcDbEntity
  8
0
100
AcDbCircle
 10
634.058346370785
 20
189.325803664785
 30
0.0
 40
0.75
100
AcDbArc
 50
180.0
 51
0.0
  0
LINE
  5
1592
330
6B
100
AcDbEntity
  8
0
100
AcDbLine
 10
631.8083463707852
 20
202.8258036647851
 30
0.0
 11
631.8083463707852
 21
189.325803664785
 31
0.0
  0
LINE
  5
1593
330
6B
100
AcDbEntity
  8
0
100
AcDbLine
 10
630.3083463707852
 20
202.8258036647851
 30
0.0
 11
630.3083463707852
 21
189.325803664785
 31
0.0
  0
ARC
  5
1594
330
6B
100
AcDbEntity
  8
0
100
AcDbCircle
 10
631.0583463707851
 20
202.8258036647851
 30
0.0
 40
0.7499999999998856
100
AcDbArc
 50
0.0
 51
180.0
  0
ARC
  5
1595
330
6B
100
AcDbEntity
  8
0
100
AcDbCircle
 10
631.0583463707851
 20
189.325803664785
 30
0.0
 40
0.75
100
AcDbArc
 50
180.0
 51
0.0
  0
LINE
  5
1596
330
6B
100
AcDbEntity
  8
0
100
AcDbLine
 10
628.808346370785
 20
202.8258036647851
 30
0.0
 11
628.808346370785
 21
189.325803664785
 31
0.0
  0
LINE
  5
1597
330
6B
100
AcDbEntity
  8
0
100
AcDbLine
 10
627.3083463707852
 20
202.8258036647851
 30
0.0
 11
627.3083463707852
 21
189.325803664785
 31
0.0
  0
ARC
  5
1598
330
6B
100
AcDbEntity
  8
0
100
AcDbCircle
 10
628.0583463707857
 20
202.8258036647851
 30
0.0
 40
0.7499999999998856
100
AcDbArc
 50
0.0
 51
180.0
  0
ARC
  5
1599
330
6B
100
AcDbEntity
  8
0
100
AcDbCircle
 10
628.0583463707852
 20
189.325803664785
 30
0.0
 40
0.75
100
AcDbArc
 50
180.0
 51
0.0
  0
LINE
  5
159A
330
6B
100
AcDbEntity
  8
0
100
AcDbLine
 10
625.8083463707852
 20
202.8258036647851
 30
0.0
 11
625.8083463707852
 21
189.325803664785
 31
0.0
  0
LINE
  5
159B
330
6B
100
AcDbEntity
  8
0
100
AcDbLine
 10
624.308346370785
 20
202.8258036647851
 30
0.0
 11
624.308346370785
 21
189.325803664785
 31
0.0
  0
ARC
  5
159C
330
6B
100
AcDbEntity
  8
0
100
AcDbCircle
 10
625.0583463707855
 20
202.8258036647851
 30
0.0
 40
0.7499999999998856
100
AcDbArc
 50
0.0
 51
180.0
  0
ARC
  5
159D
330
6B
100
AcDbEntity
  8
0
100
AcDbCircle
 10
625.0583463707847
 20
189.325803664785
 30
0.0
 40
0.75
100
AcDbArc
 50
180.0
 51
0.0
  0
LINE
  5
159E
330
6B
100
AcDbEntity
  8
0
100
AcDbLine
 10
622.8083463707852
 20
202.8258036647851
 30
0.0
 11
622.8083463707852
 21
189.325803664785
 31
0.0
  0
LINE
  5
159F
330
6B
100
AcDbEntity
  8
0
100
AcDbLine
 10
621.3083463707852
 20
202.8258036647851
 30
0.0
 11
621.3083463707852
 21
189.325803664785
 31
0.0
  0
ARC
  5
15A0
330
6B
100
AcDbEntity
  8
0
100
AcDbCircle
 10
622.0583463707859
 20
202.8258036647851
 30
0.0
 40
0.7499999999998856
100
AcDbArc
 50
0.0
 51
180.0
  0
ARC
  5
15A1
330
6B
100
AcDbEntity
  8
0
100
AcDbCircle
 10
622.0583463707852
 20
189.325803664785
 30
0.0
 40
0.75
100
AcDbArc
 50
180.0
 51
0.0
  0
LINE
  5
15A2
330
6B
100
AcDbEntity
  8
0
100
AcDbLine
 10
619.808346370785
 20
202.8258036647851
 30
0.0
 11
619.808346370785
 21
189.325803664785
 31
0.0
  0
LINE
  5
15A3
330
6B
100
AcDbEntity
  8
0
100
AcDbLine
 10
618.3083463707852
 20
202.8258036647851
 30
0.0
 11
618.3083463707852
 21
189.325803664785
 31
0.0
  0
ARC
  5
15A4
330
6B
100
AcDbEntity
  8
0
100
AcDbCircle
 10
619.0583463707852
 20
202.8258036647851
 30
0.0
 40
0.7499999999998856
100
AcDbArc
 50
0.0
 51
180.0
  0
ARC
  5
15A5
330
6B
100
AcDbEntity
  8
0
100
AcDbCircle
 10
619.0583463707852
 20
189.325803664785
 30
0.0
 40
0.75
100
AcDbArc
 50
180.0
 51
0.0
  0
LINE
  5
15A6
330
6B
100
AcDbEntity
  8
0
100
AcDbLine
 10
616.808346370785
 20
202.8258036647851
 30
0.0
 11
616.808346370785
 21
189.325803664785
 31
0.0
  0
LINE
  5
15A7
330
6B
100
AcDbEntity
  8
0
100
AcDbLine
 10
615.308346370785
 20
202.8258036647851
 30
0.0
 11
615.308346370785
 21
189.325803664785
 31
0.0
  0
ARC
  5
15A8
330
6B
100
AcDbEntity
  8
0
100
AcDbCircle
 10
616.0583463707852
 20
202.8258036647851
 30
0.0
 40
0.7499999999998856
100
AcDbArc
 50
0.0
 51
180.0
  0
ARC
  5
15A9
330
6B
100
AcDbEntity
  8
0
100
AcDbCircle
 10
616.0583463707852
 20
189.325803664785
 30
0.0
 40
0.75
100
AcDbArc
 50
180.0
 51
0.0
  0
LINE
  5
15AA
330
6B
100
AcDbEntity
  8
0
100
AcDbLine
 10
613.8083463707852
 20
202.8258036647851
 30
0.0
 11
613.8083463707852
 21
189.325803664785
 31
0.0
  0
LINE
  5
15AB
330
6B
100
AcDbEntity
  8
0
100
AcDbLine
 10
612.3083463707851
 20
202.8258036647851
 30
0.0
 11
612.3083463707851
 21
189.325803664785
 31
0.0
  0
ARC
  5
15AC
330
6B
100
AcDbEntity
  8
0
100
AcDbCircle
 10
613.0583463707852
 20
202.8258036647851
 30
0.0
 40
0.7499999999998856
100
AcDbArc
 50
0.0
 51
180.0
  0
ARC
  5
15AD
330
6B
100
AcDbEntity
  8
0
100
AcDbCircle
 10
613.0583463707852
 20
189.325803664785
 30
0.0
 40
0.75
100
AcDbArc
 50
180.0
 51
0.0
  0
LINE
  5
15AE
330
6B
100
AcDbEntity
  8
0
100
AcDbLine
 10
610.8083463707847
 20
202.8258036647851
 30
0.0
 11
610.8083463707847
 21
189.325803664785
 31
0.0
  0
LINE
  5
15AF
330
6B
100
AcDbEntity
  8
0
100
AcDbLine
 10
609.3083463707852
 20
202.8258036647851
 30
0.0
 11
609.3083463707852
 21
189.325803664785
 31
0.0
  0
ARC
  5
15B0
330
6B
100
AcDbEntity
  8
0
100
AcDbCircle
 10
610.0583463707851
 20
202.8258036647851
 30
0.0
 40
0.7499999999998856
100
AcDbArc
 50
0.0
 51
180.0
  0
ARC
  5
15B1
330
6B
100
AcDbEntity
  8
0
100
AcDbCircle
 10
610.058346370785
 20
189.325803664785
 30
0.0
 40
0.75
100
AcDbArc
 50
180.0
 51
0.0
  0
LINE
  5
15B2
330
6B
100
AcDbEntity
  8
0
100
AcDbLine
 10
607.8083463707852
 20
202.8258036647851
 30
0.0
 11
607.8083463707852
 21
189.325803664785
 31
0.0
  0
LINE
  5
15B3
330
6B
100
AcDbEntity
  8
0
100
AcDbLine
 10
606.3083463707847
 20
202.8258036647851
 30
0.0
 11
606.3083463707847
 21
189.325803664785
 31
0.0
  0
ARC
  5
15B4
330
6B
100
AcDbEntity
  8
0
100
AcDbCircle
 10
607.0583463707852
 20
202.8258036647851
 30
0.0
 40
0.7499999999998856
100
AcDbArc
 50
0.0
 51
180.0
  0
ARC
  5
15B5
330
6B
100
AcDbEntity
  8
0
100
AcDbCircle
 10
607.0583463707852
 20
189.325803664785
 30
0.0
 40
0.75
100
AcDbArc
 50
180.0
 51
0.0
  0
LINE
  5
15B6
330
6B
100
AcDbEntity
  8
0
100
AcDbLine
 10
604.8083463707852
 20
202.8258036647851
 30
0.0
 11
604.8083463707852
 21
189.325803664785
 31
0.0
  0
LINE
  5
15B7
330
6B
100
AcDbEntity
  8
0
100
AcDbLine
 10
603.3083463707852
 20
202.8258036647851
 30
0.0
 11
603.3083463707852
 21
189.325803664785
 31
0.0
  0
ARC
  5
15B8
330
6B
100
AcDbEntity
  8
0
100
AcDbCircle
 10
604.0583463707852
 20
202.8258036647851
 30
0.0
 40
0.7499999999998856
100
AcDbArc
 50
0.0
 51
180.0
  0
ARC
  5
15B9
330
6B
100
AcDbEntity
  8
0
100
AcDbCircle
 10
604.0583463707852
 20
189.325803664785
 30
0.0
 40
0.75
100
AcDbArc
 50
180.0
 51
0.0
  0
LINE
  5
15BA
330
6B
100
AcDbEntity
  8
0
100
AcDbLine
 10
601.8083463707847
 20
202.8258036647851
 30
0.0
 11
601.8083463707847
 21
189.325803664785
 31
0.0
  0
LINE
  5
15BB
330
6B
100
AcDbEntity
  8
0
100
AcDbLine
 10
600.3083463707852
 20
202.8258036647851
 30
0.0
 11
600.3083463707852
 21
189.325803664785
 31
0.0
  0
ARC
  5
15BC
330
6B
100
AcDbEntity
  8
0
100
AcDbCircle
 10
601.0583463707852
 20
202.8258036647851
 30
0.0
 40
0.7499999999998856
100
AcDbArc
 50
0.0
 51
180.0
  0
ARC
  5
15BD
330
6B
100
AcDbEntity
  8
0
100
AcDbCircle
 10
601.058346370785
 20
189.325803664785
 30
0.0
 40
0.75
100
AcDbArc
 50
180.0
 51
0.0
  0
LINE
  5
15BE
330
6B
100
AcDbEntity
  8
0
100
AcDbLine
 10
598.8083463707852
 20
202.8258036647851
 30
0.0
 11
598.8083463707852
 21
189.325803664785
 31
0.0
  0
LINE
  5
15BF
330
6B
100
AcDbEntity
  8
0
100
AcDbLine
 10
597.3083463707852
 20
202.8258036647851
 30
0.0
 11
597.3083463707852
 21
189.325803664785
 31
0.0
  0
ARC
  5
15C0
330
6B
100
AcDbEntity
  8
0
100
AcDbCircle
 10
598.058346370785
 20
202.8258036647851
 30
0.0
 40
0.7499999999998856
100
AcDbArc
 50
0.0
 51
180.0
  0
ARC
  5
15C1
330
6B
100
AcDbEntity
  8
0
100
AcDbCircle
 10
598.058346370785
 20
189.325803664785
 30
0.0
 40
0.75
100
AcDbArc
 50
180.0
 51
0.0
  0
LINE
  5
15C2
330
6B
100
AcDbEntity
  8
0
100
AcDbLine
 10
595.808346370785
 20
202.8258036647851
 30
0.0
 11
595.808346370785
 21
189.325803664785
 31
0.0
  0
LINE
  5
15C3
330
6B
100
AcDbEntity
  8
0
100
AcDbLine
 10
594.3083463707852
 20
202.8258036647851
 30
0.0
 11
594.3083463707852
 21
189.325803664785
 31
0.0
  0
ARC
  5
15C4
330
6B
100
AcDbEntity
  8
0
100
AcDbCircle
 10
595.0583463707852
 20
202.8258036647851
 30
0.0
 40
0.7499999999998856
100
AcDbArc
 50
0.0
 51
180.0
  0
ARC
  5
15C5
330
6B
100
AcDbEntity
  8
0
100
AcDbCircle
 10
595.0583463707852
 20
189.325803664785
 30
0.0
 40
0.75
100
AcDbArc
 50
180.0
 51
0.0
  0
LINE
  5
15C6
330
6B
100
AcDbEntity
  8
0
100
AcDbLine
 10
592.8083463707852
 20
202.8258036647851
 30
0.0
 11
592.8083463707852
 21
189.325803664785
 31
0.0
  0
LINE
  5
15C7
330
6B
100
AcDbEntity
  8
0
100
AcDbLine
 10
591.308346370785
 20
202.8258036647851
 30
0.0
 11
591.308346370785
 21
189.325803664785
 31
0.0
  0
ARC
  5
15C8
330
6B
100
AcDbEntity
  8
0
100
AcDbCircle
 10
592.0583463707847
 20
202.8258036647851
 30
0.0
 40
0.7499999999998856
100
AcDbArc
 50
0.0
 51
180.0
  0
ARC
  5
15C9
330
6B
100
AcDbEntity
  8
0
100
AcDbCircle
 10
592.0583463707847
 20
189.325803664785
 30
0.0
 40
0.75
100
AcDbArc
 50
180.0
 51
0.0
  0
LINE
  5
15DD
330
6B
100
AcDbEntity
  8
0
 62
     3
100
AcDbLine
 10
668.7142388851976
 20
157.625803664785
 30
0.0
 11
664.2228210164972
 21
157.625803664785
 31
0.0
  0
LINE
  5
15DE
330
6B
100
AcDbEntity
  8
0
 62
     3
100
AcDbLine
 10
661.0497571212369
 20
157.625803664785
 30
0.0
 11
652.3083463707852
 21
157.625803664785
 31
0.0
  0
LINE
  5
15DF
330
6B
100
AcDbEntity
  8
0
 62
     3
100
AcDbLine
 10
668.7142388851976
 20
163.025803664785
 30
0.0
 11
663.1704512622192
 21
163.025803664785
 31
0.0
  0
LINE
  5
15E0
330
6B
100
AcDbEntity
  8
0
 62
     3
100
AcDbLine
 10
659.9973873669592
 20
163.025803664785
 30
0.0
 11
652.3083463707852
 21
163.025803664785
 31
0.0
  0
LINE
  5
15E1
330
6B
100
AcDbEntity
  8
0
 62
     3
100
AcDbLine
 10
676.0142388851974
 20
150.325803664785
 30
0.0
 11
676.0142388851974
 21
144.575803664785
 31
0.0
  0
LINE
  5
15E2
330
6B
100
AcDbEntity
  8
0
 62
     3
100
AcDbLine
 10
681.4142388851966
 20
150.325803664785
 30
0.0
 11
681.4142388851966
 21
144.575803664785
 31
0.0
  0
ARC
  5
15E3
330
6B
100
AcDbEntity
  8
0
 62
     3
100
AcDbCircle
 10
668.7142388851976
 20
150.325803664785
 30
0.0
 40
7.299999999999998
100
AcDbArc
 50
0.0
 51
90.0
  0
ARC
  5
15E4
330
6B
100
AcDbEntity
  8
0
 62
     3
100
AcDbCircle
 10
668.7142388851976
 20
150.325803664785
 30
0.0
 40
12.7
100
AcDbArc
 50
0.0
 51
90.0
  0
ARC
  5
15E5
330
6B
100
AcDbEntity
  8
0
100
AcDbCircle
 10
664.3388303837999
 20
162.2430430732658
 30
0.0
 40
4.398755792651773
100
AcDbArc
 50
150.0857611883286
 51
210.1930884079029
  0
ARC
  5
15E6
330
6B
100
AcDbEntity
  8
0
100
AcDbCircle
 10
656.52553110468
 20
157.9263288725431
 30
0.0
 40
4.529843558913587
100
AcDbArc
 50
332.3164392411748
 51
27.68356075882156
  0
ARC
  5
15E7
330
6B
100
AcDbEntity
  8
0
100
AcDbCircle
 10
667.5118942790601
 20
162.2430430732658
 30
0.0
 40
4.398755792651773
100
AcDbArc
 50
150.0857611883286
 51
210.1930884079029
  0
ARC
  5
15E8
330
6B
100
AcDbEntity
  8
0
100
AcDbCircle
 10
659.6985949999393
 20
157.9263288725431
 30
0.0
 40
4.529843558913587
100
AcDbArc
 50
332.3164392411748
 51
27.68356075882156
  0
CIRCLE
  5
15EF
330
6B
100
AcDbEntity
  8
0
 62
     7
100
AcDbCircle
 10
402.4696513057951
 20
143.6403604823562
 30
0.0
 40
5.0
  0
TEXT
  5
15F0
330
6B
100
AcDbEntity
  8
0
 62
     4
100
AcDbText
 10
400.3786727467693
 20
140.3765633552167
 30
0.0
 40
6.299999999999998
  1
4
  7
高6.3
100
AcDbText
  0
CIRCLE
  5
15F1
330
6B
100
AcDbEntity
  8
0
 62
     7
100
AcDbCircle
 10
402.9487883057952
 20
199.8113458621391
 30
0.0
 40
5.0
  0
TEXT
  5
15F2
330
6B
100
AcDbEntity
  8
0
 62
     4
100
AcDbText
 10
400.8578097467689
 20
196.5475487349994
 30
0.0
 40
6.299999999999998
  1
5
  7
高6.3
100
AcDbText
  0
CIRCLE
  5
15F3
330
6B
100
AcDbEntity
  8
0
 62
     7
100
AcDbCircle
 10
402.9487883057952
 20
222.523600862139
 30
0.0
 40
5.0
  0
TEXT
  5
15F4
330
6B
100
AcDbEntity
  8
0
 62
     4
100
AcDbText
 10
400.8578097467689
 20
219.2598037349994
 30
0.0
 40
6.299999999999998
  1
7
  7
高6.3
100
AcDbText
  0
CIRCLE
  5
15F5
330
6B
100
AcDbEntity
  8
0
 62
     7
100
AcDbCircle
 10
402.9487883057952
 20
235.9421088621391
 30
0.0
 40
5.0
  0
TEXT
  5
15F6
330
6B
100
AcDbEntity
  8
0
 62
     4
100
AcDbText
 10
401.9587181611504
 20
232.69297655846
 30
0.0
 40
6.299999999999998
  1
1
  7
高6.3
100
AcDbText
  0
CIRCLE
  5
15FB
330
6B
100
AcDbEntity
  8
0
 62
     7
100
AcDbCircle
 10
672.2925481488937
 20
176.4429980624715
 30
0.0
 40
5.0
  0
TEXT
  5
15FC
330
6B
100
AcDbEntity
  8
0
 62
     4
100
AcDbText
 10
670.2015695898682
 20
173.1792009353318
 30
0.0
 40
6.299999999999998
  1
3
  7
高6.3
100
AcDbText
  0
CIRCLE
  5
15FD
330
6B
100
AcDbEntity
  8
0
 62
     7
100
AcDbCircle
 10
453.7008515050165
 20
142.6339306240977
 30
0.0
 40
5.0
  0
TEXT
  5
15FE
330
6B
100
AcDbEntity
  8
0
 62
     4
100
AcDbText
 10
451.6098729459911
 20
139.3701324969581
 30
0.0
 40
6.299999999999998
  1
8
  7
高6.3
100
AcDbText
  0
CIRCLE
  5
15FF
330
6B
100
AcDbEntity
  8
0
 62
     7
100
AcDbCircle
 10
672.2902101488934
 20
228.2063190624714
 30
0.0
 40
5.0
  0
TEXT
  5
1600
330
6B
100
AcDbEntity
  8
0
 62
     4
100
AcDbText
 10
670.1992315898684
 20
224.9425219353318
 30
0.0
 40
6.299999999999998
  1
2
  7
高6.3
100
AcDbText
  0
LINE
  5
1604
330
6B
100
AcDbEntity
  8
0
 62
     3
100
AcDbLine
 10
439.4817629907546
 20
165.1008036647851
 30
0.0
 11
436.7817629907546
 21
165.1008036647851
 31
0.0
  0
LINE
  5
1605
330
6B
100
AcDbEntity
  8
0
 62
     3
100
AcDbLine
 10
436.7817629907546
 20
165.1008036647851
 30
0.0
 11
436.7817629907546
 21
166.450803664785
 31
0.0
  0
LINE
  5
1606
330
6B
100
AcDbEntity
  8
0
 62
     3
100
AcDbLine
 10
439.4817629907546
 20
165.1008036647851
 30
0.0
 11
439.4817629907546
 21
166.450803664785
 31
0.0
  0
ARC
  5
1607
330
6B
100
AcDbEntity
  8
0
 62
     3
100
AcDbCircle
 10
438.1317629907546
 20
166.450803664785
 30
0.0
 40
1.349999999999994
100
AcDbArc
 50
0.0
 51
180.0
  0
LINE
  5
1608
330
6B
100
AcDbEntity
  8
0
 62
     3
100
AcDbLine
 10
434.4567629907545
 20
194.325803664785
 30
0.0
 11
434.4567629907545
 21
189.8258036647849
 31
0.0
  0
LINE
  5
1609
330
6B
100
AcDbEntity
  8
0
 62
     3
100
AcDbLine
 10
435.4567629907545
 20
194.325803664785
 30
0.0
 11
435.4567629907545
 21
189.8258036647849
 31
0.0
  0
LINE
  5
160A
330
6B
100
AcDbEntity
  8
0
 62
     3
100
AcDbLine
 10
440.8067629907547
 20
193.8258036647848
 30
0.0
 11
440.8067629907547
 21
190.325803664785
 31
0.0
  0
LINE
  5
160B
330
6B
100
AcDbEntity
  8
0
 62
     3
100
AcDbLine
 10
441.8067629907547
 20
193.8258036647848
 30
0.0
 11
441.8067629907547
 21
190.325803664785
 31
0.0
  0
LINE
  5
160C
330
6B
100
AcDbEntity
  8
0
 62
     3
100
AcDbLine
 10
440.8067629907547
 20
190.325803664785
 30
0.0
 11
441.8067629907547
 21
190.325803664785
 31
0.0
  0
LINE
  5
160D
330
6B
100
AcDbEntity
  8
0
 62
     3
100
AcDbLine
 10
434.4567629907545
 20
189.8258036647849
 30
0.0
 11
435.4567629907545
 21
189.8258036647849
 31
0.0
  0
LINE
  5
160E
330
6B
100
AcDbEntity
  8
0
 62
     3
100
AcDbLine
 10
440.8067629907547
 20
193.8258036647848
 30
0.0
 11
441.8067629907547
 21
193.8258036647848
 31
0.0
  0
LINE
  5
160F
330
6B
100
AcDbEntity
  8
0
 62
     3
100
AcDbLine
 10
434.4567629907545
 20
194.325803664785
 30
0.0
 11
435.4567629907545
 21
194.325803664785
 31
0.0
  0
LINE
  5
1610
330
6B
100
AcDbEntity
  8
0
 62
     3
100
AcDbLine
 10
439.4817629907546
 20
184.600803664785
 30
0.0
 11
436.7817629907546
 21
184.600803664785
 31
0.0
  0
LINE
  5
1611
330
6B
100
AcDbEntity
  8
0
 62
     3
100
AcDbLine
 10
436.7817629907546
 20
184.600803664785
 30
0.0
 11
436.7817629907546
 21
185.950803664785
 31
0.0
  0
LINE
  5
1612
330
6B
100
AcDbEntity
  8
0
 62
     3
100
AcDbLine
 10
439.4817629907546
 20
184.600803664785
 30
0.0
 11
439.4817629907546
 21
185.950803664785
 31
0.0
  0
ARC
  5
1613
330
6B
100
AcDbEntity
  8
0
 62
     3
100
AcDbCircle
 10
438.1317629907546
 20
185.950803664785
 30
0.0
 40
1.349999999999994
100
AcDbArc
 50
0.0
 51
180.0
  0
LINE
  5
1614
330
6B
100
AcDbEntity
  8
0
 62
     3
100
AcDbLine
 10
498.4567629907544
 20
194.325803664785
 30
0.0
 11
498.4567629907544
 21
189.8258036647849
 31
0.0
  0
LINE
  5
1615
330
6B
100
AcDbEntity
  8
0
 62
     3
100
AcDbLine
 10
499.4567629907542
 20
194.325803664785
 30
0.0
 11
499.4567629907542
 21
189.8258036647849
 31
0.0
  0
LINE
  5
1616
330
6B
100
AcDbEntity
  8
0
 62
     3
100
AcDbLine
 10
504.8067629907539
 20
193.8258036647848
 30
0.0
 11
504.8067629907539
 21
190.325803664785
 31
0.0
  0
LINE
  5
1617
330
6B
100
AcDbEntity
  8
0
 62
     3
100
AcDbLine
 10
505.8067629907543
 20
193.8258036647848
 30
0.0
 11
505.8067629907543
 21
190.325803664785
 31
0.0
  0
LINE
  5
1618
330
6B
100
AcDbEntity
  8
0
 62
     3
100
AcDbLine
 10
504.8067629907539
 20
190.325803664785
 30
0.0
 11
505.8067629907543
 21
190.325803664785
 31
0.0
  0
LINE
  5
1619
330
6B
100
AcDbEntity
  8
0
 62
     3
100
AcDbLine
 10
498.4567629907544
 20
189.8258036647849
 30
0.0
 11
499.4567629907542
 21
189.8258036647849
 31
0.0
  0
LINE
  5
161A
330
6B
100
AcDbEntity
  8
0
 62
     3
100
AcDbLine
 10
504.8067629907539
 20
193.8258036647848
 30
0.0
 11
505.8067629907543
 21
193.8258036647848
 31
0.0
  0
LINE
  5
161B
330
6B
100
AcDbEntity
  8
0
 62
     3
100
AcDbLine
 10
498.4567629907544
 20
194.325803664785
 30
0.0
 11
499.4567629907542
 21
194.325803664785
 31
0.0
  0
LINE
  5
161C
330
6B
100
AcDbEntity
  8
0
 62
     3
100
AcDbLine
 10
503.4817629907545
 20
184.600803664785
 30
0.0
 11
500.7817629907541
 21
184.600803664785
 31
0.0
  0
LINE
  5
161D
330
6B
100
AcDbEntity
  8
0
 62
     3
100
AcDbLine
 10
500.7817629907541
 20
184.600803664785
 30
0.0
 11
500.7817629907541
 21
185.950803664785
 31
0.0
  0
LINE
  5
161E
330
6B
100
AcDbEntity
  8
0
 62
     3
100
AcDbLine
 10
503.4817629907545
 20
184.600803664785
 30
0.0
 11
503.4817629907545
 21
185.950803664785
 31
0.0
  0
ARC
  5
161F
330
6B
100
AcDbEntity
  8
0
 62
     3
100
AcDbCircle
 10
502.1317629907546
 20
185.950803664785
 30
0.0
 40
1.349999999999994
100
AcDbArc
 50
0.0
 51
180.0
  0
LINE
  5
1620
330
6B
100
AcDbEntity
  8
0
 62
     3
100
AcDbLine
 10
498.4567629907544
 20
174.825803664785
 30
0.0
 11
498.4567629907544
 21
170.325803664785
 31
0.0
  0
LINE
  5
1621
330
6B
100
AcDbEntity
  8
0
 62
     3
100
AcDbLine
 10
499.4567629907542
 20
174.825803664785
 30
0.0
 11
499.4567629907542
 21
170.325803664785
 31
0.0
  0
LINE
  5
1622
330
6B
100
AcDbEntity
  8
0
 62
     3
100
AcDbLine
 10
504.8067629907539
 20
174.325803664785
 30
0.0
 11
504.8067629907539
 21
170.825803664785
 31
0.0
  0
LINE
  5
1623
330
6B
100
AcDbEntity
  8
0
 62
     3
100
AcDbLine
 10
505.8067629907543
 20
174.325803664785
 30
0.0
 11
505.8067629907543
 21
170.825803664785
 31
0.0
  0
LINE
  5
1624
330
6B
100
AcDbEntity
  8
0
 62
     3
100
AcDbLine
 10
504.8067629907539
 20
170.825803664785
 30
0.0
 11
505.8067629907543
 21
170.825803664785
 31
0.0
  0
LINE
  5
1625
330
6B
100
AcDbEntity
  8
0
 62
     3
100
AcDbLine
 10
498.4567629907544
 20
170.325803664785
 30
0.0
 11
499.4567629907542
 21
170.325803664785
 31
0.0
  0
LINE
  5
1626
330
6B
100
AcDbEntity
  8
0
 62
     3
100
AcDbLine
 10
504.8067629907539
 20
174.325803664785
 30
0.0
 11
505.8067629907543
 21
174.325803664785
 31
0.0
  0
LINE
  5
1627
330
6B
100
AcDbEntity
  8
0
 62
     3
100
AcDbLine
 10
498.4567629907544
 20
174.825803664785
 30
0.0
 11
499.4567629907542
 21
174.825803664785
 31
0.0
  0
LINE
  5
1628
330
6B
100
AcDbEntity
  8
0
 62
     3
100
AcDbLine
 10
503.4817629907545
 20
165.1008036647851
 30
0.0
 11
500.7817629907541
 21
165.1008036647851
 31
0.0
  0
LINE
  5
1629
330
6B
100
AcDbEntity
  8
0
 62
     3
100
AcDbLine
 10
500.7817629907541
 20
165.1008036647851
 30
0.0
 11
500.7817629907541
 21
166.450803664785
 31
0.0
  0
LINE
  5
162A
330
6B
100
AcDbEntity
  8
0
 62
     3
100
AcDbLine
 10
503.4817629907545
 20
165.1008036647851
 30
0.0
 11
503.4817629907545
 21
166.450803664785
 31
0.0
  0
ARC
  5
162B
330
6B
100
AcDbEntity
  8
0
 62
     3
100
AcDbCircle
 10
502.1317629907546
 20
166.450803664785
 30
0.0
 40
1.349999999999994
100
AcDbArc
 50
0.0
 51
180.0
  0
LINE
  5
162C
330
6B
100
AcDbEntity
  8
0
 62
     3
100
AcDbLine
 10
435.1317629907547
 20
164.075803664785
 30
0.0
 11
435.1317629907547
 21
155.575803664785
 31
0.0
  0
LINE
  5
162D
330
6B
100
AcDbEntity
  8
0
 62
     3
100
AcDbLine
 10
441.1317629907546
 20
164.075803664785
 30
0.0
 11
441.1317629907546
 21
155.575803664785
 31
0.0
  0
LINE
  5
162E
330
6B
100
AcDbEntity
  8
0
 62
     3
100
AcDbLine
 10
505.1317629907548
 20
155.575803664785
 30
0.0
 11
499.1317629907547
 21
155.575803664785
 31
0.0
  0
LINE
  5
162F
330
6B
100
AcDbEntity
  8
0
 62
     3
100
AcDbLine
 10
505.1317629907548
 20
156.575803664785
 30
0.0
 11
499.1317629907547
 21
156.575803664785
 31
0.0
  0
LINE
  5
1630
330
6B
100
AcDbEntity
  8
0
 62
     3
100
AcDbLine
 10
499.1317629907547
 20
164.075803664785
 30
0.0
 11
499.1317629907547
 21
155.575803664785
 31
0.0
  0
LINE
  5
1631
330
6B
100
AcDbEntity
  8
0
 62
     3
100
AcDbLine
 10
505.1317629907548
 20
164.075803664785
 30
0.0
 11
505.1317629907548
 21
155.575803664785
 31
0.0
  0
LINE
  5
1632
330
6B
100
AcDbEntity
  8
0
 62
     3
100
AcDbLine
 10
563.5583463707852
 20
156.575803664785
 30
0.0
 11
567.3083463707852
 21
156.575803664785
 31
0.0
  0
LINE
  5
1633
330
6B
100
AcDbEntity
  8
0
 62
     3
100
AcDbLine
 10
563.5583463707852
 20
155.575803664785
 30
0.0
 11
567.9750130374517
 21
155.575803664785
 31
0.0
  0
TEXT
  5
1634
330
6B
100
AcDbEntity
  8
0
 62
     4
100
AcDbText
 10
465.4081710547377
 20
205.642472372003
 30
0.0
 40
2.25
  1
入力電圧
  7
高4.5
100
AcDbText
  0
LINE
  5
1635
330
6B
100
AcDbEntity
  8
0
 62
     3
100
AcDbLine
 10
674.4642388851972
 20
144.575803664785
 30
0.0
 11
682.9642388851972
 21
144.575803664785
 31
0.0
  0
LINE
  5
1636
330
6B
100
AcDbEntity
  8
0
 62
     3
100
AcDbLine
 10
670.2095848851968
 20
113.075803664785
 30
0.0
 11
670.2095848851968
 21
112.575803664785
 31
0.0
  0
ARC
  5
1637
330
6B
100
AcDbEntity
  8
0
 62
     3
100
AcDbCircle
 10
670.4941968851971
 20
114.325803664785
 30
0.0
 40
1.279957999999999
100
AcDbArc
 50
102.4206920000021
 51
257.5793079999979
  0
ARC
  5
1638
330
6B
100
AcDbEntity
  8
0
 62
     3
100
AcDbCircle
 10
683.0845848851968
 20
134.200803664785
 30
0.0
 40
0.375
100
AcDbArc
 50
0.0
 51
90.0
  0
LINE
  5
1639
330
6B
100
AcDbEntity
  8
0
 62
     3
100
AcDbLine
 10
683.4595848851968
 20
134.200803664785
 30
0.0
 11
683.4595848851968
 21
130.6154616647849
 31
0.0
  0
ARC
  5
163A
330
6B
100
AcDbEntity
  8
0
 62
     3
100
AcDbCircle
 10
683.0845848851968
 20
123.700803664785
 30
0.0
 40
4.125
100
AcDbArc
 50
0.0
 51
56.94426899999754
  0
LINE
  5
163B
330
6B
100
AcDbEntity
  8
0
 62
     3
100
AcDbLine
 10
687.2095848851967
 20
123.700803664785
 30
0.0
 11
687.2095848851967
 21
115.575803664785
 31
0.0
  0
ARC
  5
163C
330
6B
100
AcDbEntity
  8
0
 62
     3
100
AcDbCircle
 10
686.9342808851971
 20
114.325803664785
 30
0.0
 40
1.279957999999999
100
AcDbArc
 50
282.4206920000021
 51
77.5793079999979
  0
ARC
  5
163D
330
6B
100
AcDbEntity
  8
0
 62
     3
100
AcDbCircle
 10
674.3345848851967
 20
134.200803664785
 30
0.0
 40
0.375
100
AcDbArc
 50
90.0
 51
180.0
  0
LINE
  5
163E
330
6B
100
AcDbEntity
  8
0
 62
     3
100
AcDbLine
 10
673.9595848851968
 20
134.200803664785
 30
0.0
 11
673.9595848851968
 21
130.338499664785
 31
0.0
  0
LINE
  5
163F
330
6B
100
AcDbEntity
  8
0
 62
     3
100
AcDbLine
 10
682.4642388851972
 20
143.075803664785
 30
0.0
 11
682.7142388851972
 21
134.575803664785
 31
0.0
  0
LINE
  5
1640
330
6B
100
AcDbEntity
  8
0
 62
     3
100
AcDbLine
 10
674.9642388851976
 20
143.075803664785
 30
0.0
 11
674.7142388851972
 21
134.575803664785
 31
0.0
  0
ARC
  5
1641
330
6B
100
AcDbEntity
  8
0
 62
     3
100
AcDbCircle
 10
682.9642388851972
 20
143.825803664785
 30
0.0
 40
0.75
100
AcDbArc
 50
270.0
 51
90.0
  0
ARC
  5
1642
330
6B
100
AcDbEntity
  8
0
 62
     3
100
AcDbCircle
 10
674.4642388851972
 20
143.825803664785
 30
0.0
 40
0.75
100
AcDbArc
 50
90.0
 51
270.0
  0
LINE
  5
1643
330
6B
100
AcDbEntity
  8
0
 62
     3
100
AcDbLine
 10
670.2142388851972
 20
123.896700664785
 30
0.0
 11
670.2142388851972
 21
115.575803664785
 31
0.0
  0
LINE
  5
1644
330
6B
100
AcDbEntity
  8
0
 62
     3
100
AcDbLine
 10
670.2392388851972
 20
113.075803664785
 30
0.0
 11
670.2392388851972
 21
112.575803664785
 31
0.0
  0
LINE
  5
1645
330
6B
100
AcDbEntity
  8
0
 62
     3
100
AcDbLine
 10
687.2392388851973
 20
113.096220664785
 30
0.0
 11
687.2392388851973
 21
112.575803664785
 31
0.0
  0
ARC
  5
1646
330
6B
100
AcDbEntity
  8
0
 62
     3
100
AcDbCircle
 10
674.3345848851967
 20
123.700803664785
 30
0.0
 40
4.125
100
AcDbArc
 50
125.0110389999984
 51
180.0
  0
ARC
  5
1647
330
6B
100
AcDbEntity
  8
0
 62
     3
100
AcDbCircle
 10
669.8438928851975
 20
130.6154616647849
 30
0.0
 40
4.125
100
AcDbArc
 50
300.9919899999975
 51
0.0
  0
LINE
  5
1648
330
6B
100
AcDbEntity
  8
0
 62
     3
100
AcDbLine
 10
703.206864885197
 20
136.605341664785
 30
0.0
 11
700.7068648851966
 21
136.605341664785
 31
0.0
  0
LINE
  5
1649
330
6B
100
AcDbEntity
  8
0
 62
     3
100
AcDbLine
 10
703.206864885197
 20
129.0494466647849
 30
0.0
 11
703.206864885197
 21
136.605341664785
 31
0.0
  0
LINE
  5
164A
330
6B
100
AcDbEntity
  8
0
 62
     3
100
AcDbLine
 10
700.7068648851966
 20
129.0494466647849
 30
0.0
 11
700.7068648851966
 21
136.605341664785
 31
0.0
  0
LINE
  5
164B
330
6B
100
AcDbEntity
  8
0
 62
     3
100
AcDbLine
 10
705.7068648851966
 20
117.830403664785
 30
0.0
 11
705.7068648851966
 21
113.855341664785
 31
0.0
  0
LINE
  5
164C
330
6B
100
AcDbEntity
  8
0
 62
     3
100
AcDbLine
 10
698.206864885197
 20
117.830403664785
 30
0.0
 11
698.206864885197
 21
113.855341664785
 31
0.0
  0
ARC
  5
164D
330
6B
100
AcDbEntity
  8
0
 62
     3
100
AcDbCircle
 10
705.2068648851966
 20
117.830403664785
 30
0.0
 40
0.5
100
AcDbArc
 50
0.0
 51
5.710592999999581
  0
ARC
  5
164E
330
6B
100
AcDbEntity
  8
0
 62
     3
100
AcDbCircle
 10
698.706864885197
 20
117.830403664785
 30
0.0
 40
0.5
100
AcDbArc
 50
174.2894070000004
 51
180.0
  0
LINE
  5
164F
330
6B
100
AcDbEntity
  8
0
 62
     3
100
AcDbLine
 10
705.7068648851966
 20
118.7545766647851
 30
0.0
 11
705.7068648851966
 21
117.855341664785
 31
0.0
  0
LINE
  5
1650
330
6B
100
AcDbEntity
  8
0
 62
     3
100
AcDbLine
 10
698.206864885197
 20
118.7545766647851
 30
0.0
 11
698.206864885197
 21
117.830403664785
 31
0.0
  0
LINE
  5
1651
330
6B
100
AcDbEntity
  8
0
 62
     3
100
AcDbLine
 10
703.843039885197
 20
125.5396336647848
 30
0.0
 11
705.0706898851973
 21
122.264388664785
 31
0.0
  0
LINE
  5
1652
330
6B
100
AcDbEntity
  8
0
 62
     3
100
AcDbLine
 10
700.0706898851966
 20
125.5396336647848
 30
0.0
 11
698.8430398851974
 21
122.264388664785
 31
0.0
  0
ARC
  5
1653
330
6B
100
AcDbEntity
  8
0
 62
     3
100
AcDbCircle
 10
695.7068648851969
 20
118.7545766647851
 30
0.0
 40
10.0
100
AcDbArc
 50
0.0
 51
20.54734700000128
  0
ARC
  5
1654
330
6B
100
AcDbEntity
  8
0
 62
     3
100
AcDbCircle
 10
708.2068648851969
 20
118.7545766647851
 30
0.0
 40
10.0
100
AcDbArc
 50
159.4526529999987
 51
180.0
  0
ARC
  5
1657
330
6B
100
AcDbEntity
  8
0
 62
     3
100
AcDbCircle
 10
713.2068648851966
 20
129.0494466647849
 30
0.0
 40
10.0
100
AcDbArc
 50
180.0
 51
200.5473470000013
  0
ARC
  5
1658
330
6B
100
AcDbEntity
  8
0
 62
     3
100
AcDbCircle
 10
690.706864885197
 20
129.0494466647849
 30
0.0
 40
10.0
100
AcDbArc
 50
339.4526529999987
 51
0.0
  0
LINE
  5
1659
330
6B
100
AcDbEntity
  8
0
 62
     3
100
AcDbLine
 10
705.2068648851966
 20
112.855341664785
 30
0.0
 11
698.706864885197
 21
112.855341664785
 31
0.0
  0
LINE
  5
165A
330
6B
100
AcDbEntity
  8
0
100
AcDbLine
 10
702.9068648851972
 20
112.855341664785
 30
0.0
 11
702.9068648851972
 21
111.855341664785
 31
0.0
  0
LINE
  5
165B
330
6B
100
AcDbEntity
  8
0
100
AcDbLine
 10
701.0068648851971
 20
112.855341664785
 30
0.0
 11
701.0068648851971
 21
111.855341664785
 31
0.0
  0
LINE
  5
165C
330
6B
100
AcDbEntity
  8
0
100
AcDbLine
 10
700.7068648851966
 20
111.855341664785
 30
0.0
 11
700.7068648851966
 21
112.855341664785
 31
0.0
  0
LINE
  5
165D
330
6B
100
AcDbEntity
  8
0
100
AcDbLine
 10
703.206864885197
 20
111.855341664785
 30
0.0
 11
703.206864885197
 21
112.855341664785
 31
0.0
  0
LINE
  5
165E
330
6B
100
AcDbEntity
  8
0
100
AcDbLine
 10
701.456864885197
 20
111.105341664785
 30
0.0
 11
702.4568648851966
 21
111.105341664785
 31
0.0
  0
LINE
  5
165F
330
6B
100
AcDbEntity
  8
0
100
AcDbLine
 10
701.456864885197
 20
111.405341664785
 30
0.0
 11
702.4568648851966
 21
111.405341664785
 31
0.0
  0
ARC
  5
1660
330
6B
100
AcDbEntity
  8
0
100
AcDbCircle
 10
702.4568648851966
 20
111.855341664785
 30
0.0
 40
0.75
100
AcDbArc
 50
270.0
 51
0.0
  0
ARC
  5
1661
330
6B
100
AcDbEntity
  8
0
100
AcDbCircle
 10
701.456864885197
 20
111.855341664785
 30
0.0
 40
0.75
100
AcDbArc
 50
180.0
 51
270.0
  0
ARC
  5
1662
330
6B
100
AcDbEntity
  8
0
100
AcDbCircle
 10
702.4568648851966
 20
111.855341664785
 30
0.0
 40
0.45
100
AcDbArc
 50
270.0
 51
0.0
  0
ARC
  5
1663
330
6B
100
AcDbEntity
  8
0
100
AcDbCircle
 10
701.456864885197
 20
111.855341664785
 30
0.0
 40
0.45
100
AcDbArc
 50
180.0
 51
270.0
  0
LINE
  5
1668
330
6B
100
AcDbEntity
  8
0
100
AcDbLine
 10
679.2095848851968
 20
141.3258036647849
 30
0.0
 11
679.2095848851968
 21
142.3258036647849
 31
0.0
  0
LINE
  5
1669
330
6B
100
AcDbEntity
  8
0
100
AcDbLine
 10
679.2095848851968
 20
136.075803664785
 30
0.0
 11
679.2095848851968
 21
137.075803664785
 31
0.0
  0
LINE
  5
166A
330
6B
100
AcDbEntity
  8
0
100
AcDbLine
 10
679.2095848851968
 20
137.825803664785
 30
0.0
 11
679.2095848851968
 21
138.825803664785
 31
0.0
  0
LINE
  5
166B
330
6B
100
AcDbEntity
  8
0
100
AcDbLine
 10
679.2095848851968
 20
139.575803664785
 30
0.0
 11
679.2095848851968
 21
140.575803664785
 31
0.0
  0
LINE
  5
166C
330
6B
100
AcDbEntity
  8
0
100
AcDbLine
 10
678.7142388851972
 20
143.075803664785
 30
0.0
 11
682.9642388851972
 21
143.075803664785
 31
0.0
  0
LINE
  5
166D
330
6B
100
AcDbEntity
  8
0
100
AcDbLine
 10
679.2095848851968
 20
136.075803664785
 30
0.0
 11
682.670120885197
 21
136.075803664785
 31
0.0
  0
LINE
  5
166E
330
6B
100
AcDbEntity
  8
0
100
AcDbLine
 10
679.2095848851968
 20
137.825803664785
 30
0.0
 11
682.6186508851971
 21
137.825803664785
 31
0.0
  0
LINE
  5
166F
330
6B
100
AcDbEntity
  8
0
100
AcDbLine
 10
679.2095848851968
 20
139.575803664785
 30
0.0
 11
682.5671798851971
 21
139.575803664785
 31
0.0
  0
LINE
  5
1670
330
6B
100
AcDbEntity
  8
0
100
AcDbLine
 10
679.2095848851968
 20
137.075803664785
 30
0.0
 11
682.6407098851968
 21
137.075803664785
 31
0.0
  0
LINE
  5
1671
330
6B
100
AcDbEntity
  8
0
100
AcDbLine
 10
679.2095848851968
 20
138.825803664785
 30
0.0
 11
682.5892388851976
 21
138.825803664785
 31
0.0
  0
LINE
  5
1672
330
6B
100
AcDbEntity
  8
0
100
AcDbLine
 10
679.2095848851968
 20
140.575803664785
 30
0.0
 11
682.5377688851972
 21
140.575803664785
 31
0.0
  0
LINE
  5
1673
330
6B
100
AcDbEntity
  8
0
100
AcDbLine
 10
679.2095848851968
 20
141.3258036647849
 30
0.0
 11
682.515709885197
 21
141.3258036647849
 31
0.0
  0
LINE
  5
1674
330
6B
100
AcDbEntity
  8
0
100
AcDbLine
 10
679.2095848851968
 20
142.3258036647849
 30
0.0
 11
682.4862978851971
 21
142.3258036647849
 31
0.0
  0
LINE
  5
1675
330
6B
100
AcDbEntity
  8
0
100
AcDbLine
 10
678.2095848851968
 20
136.075803664785
 30
0.0
 11
678.2095848851968
 21
137.075803664785
 31
0.0
  0
LINE
  5
1676
330
6B
100
AcDbEntity
  8
0
100
AcDbLine
 10
678.2095848851968
 20
137.825803664785
 30
0.0
 11
678.2095848851968
 21
138.825803664785
 31
0.0
  0
LINE
  5
1677
330
6B
100
AcDbEntity
  8
0
100
AcDbLine
 10
678.2095848851968
 20
139.575803664785
 30
0.0
 11
678.2095848851968
 21
140.575803664785
 31
0.0
  0
LINE
  5
1678
330
6B
100
AcDbEntity
  8
0
100
AcDbLine
 10
678.2095848851968
 20
141.3258036647849
 30
0.0
 11
678.2095848851968
 21
142.3258036647849
 31
0.0
  0
LINE
  5
1679
330
6B
100
AcDbEntity
  8
0
100
AcDbLine
 10
678.7142388851972
 20
143.075803664785
 30
0.0
 11
674.4642388851972
 21
143.075803664785
 31
0.0
  0
LINE
  5
167A
330
6B
100
AcDbEntity
  8
0
100
AcDbLine
 10
674.758356885197
 20
136.075803664785
 30
0.0
 11
678.2095848851968
 21
136.075803664785
 31
0.0
  0
LINE
  5
167B
330
6B
100
AcDbEntity
  8
0
100
AcDbLine
 10
674.8098268851974
 20
137.825803664785
 30
0.0
 11
678.2095848851968
 21
137.825803664785
 31
0.0
  0
LINE
  5
167C
330
6B
100
AcDbEntity
  8
0
100
AcDbLine
 10
674.8612978851971
 20
139.575803664785
 30
0.0
 11
678.2095848851968
 21
139.575803664785
 31
0.0
  0
LINE
  5
167D
330
6B
100
AcDbEntity
  8
0
100
AcDbLine
 10
674.7877688851968
 20
137.075803664785
 30
0.0
 11
678.2095848851968
 21
137.075803664785
 31
0.0
  0
LINE
  5
167E
330
6B
100
AcDbEntity
  8
0
100
AcDbLine
 10
674.8392388851972
 20
138.825803664785
 30
0.0
 11
678.2095848851968
 21
138.825803664785
 31
0.0
  0
LINE
  5
167F
330
6B
100
AcDbEntity
  8
0
100
AcDbLine
 10
674.890709885197
 20
140.575803664785
 30
0.0
 11
678.2095848851968
 21
140.575803664785
 31
0.0
  0
LINE
  5
1680
330
6B
100
AcDbEntity
  8
0
100
AcDbLine
 10
678.2095848851968
 20
141.3258036647849
 30
0.0
 11
674.9127688851972
 21
141.3258036647849
 31
0.0
  0
LINE
  5
1681
330
6B
100
AcDbEntity
  8
0
100
AcDbLine
 10
678.2095848851968
 20
142.3258036647849
 30
0.0
 11
674.9421798851972
 21
142.3258036647849
 31
0.0
  0
LINE
  5
1682
330
6B
100
AcDbEntity
  8
0
100
AcDbLine
 10
681.6845848851971
 20
136.075803664785
 30
0.0
 11
681.6845848851971
 21
137.075803664785
 31
0.0
  0
LINE
  5
1683
330
6B
100
AcDbEntity
  8
0
100
AcDbLine
 10
681.6845848851971
 20
137.825803664785
 30
0.0
 11
681.6845848851971
 21
138.825803664785
 31
0.0
  0
LINE
  5
1684
330
6B
100
AcDbEntity
  8
0
100
AcDbLine
 10
681.6845848851971
 20
139.575803664785
 30
0.0
 11
681.6845848851971
 21
140.575803664785
 31
0.0
  0
LINE
  5
1685
330
6B
100
AcDbEntity
  8
0
100
AcDbLine
 10
681.6845848851971
 20
141.3258036647849
 30
0.0
 11
681.6845848851971
 21
142.3258036647849
 31
0.0
  0
LINE
  5
1686
330
6B
100
AcDbEntity
  8
0
100
AcDbLine
 10
675.7345848851975
 20
141.3258036647849
 30
0.0
 11
675.7345848851975
 21
142.3258036647849
 31
0.0
  0
LINE
  5
1687
330
6B
100
AcDbEntity
  8
0
100
AcDbLine
 10
675.7345848851975
 20
139.575803664785
 30
0.0
 11
675.7345848851975
 21
140.575803664785
 31
0.0
  0
LINE
  5
1688
330
6B
100
AcDbEntity
  8
0
100
AcDbLine
 10
675.7345848851975
 20
137.825803664785
 30
0.0
 11
675.7345848851975
 21
138.825803664785
 31
0.0
  0
LINE
  5
1689
330
6B
100
AcDbEntity
  8
0
100
AcDbLine
 10
675.7345848851975
 20
136.075803664785
 30
0.0
 11
675.7345848851975
 21
137.075803664785
 31
0.0
  0
LINE
  5
168A
330
6B
100
AcDbEntity
  8
0
100
AcDbLine
 10
687.2392388851973
 20
113.082705664785
 30
0.0
 11
670.2392388851972
 21
113.082705664785
 31
0.0
  0
LINE
  5
168B
330
6B
100
AcDbEntity
  8
0
100
AcDbLine
 10
687.3234048851967
 20
115.545178664785
 30
0.0
 11
670.1050738851968
 21
115.545178664785
 31
0.0
  0
LINE
  5
168C
330
6B
100
AcDbEntity
  8
0
100
AcDbLine
 10
702.7056618851973
 20
139.093640664785
 30
0.0
 11
702.7056618851973
 21
145.157170664785
 31
0.0
  0
LINE
  5
168D
330
6B
100
AcDbEntity
  8
0
100
AcDbLine
 10
702.7056618851973
 20
138.050719664785
 30
0.0
 11
702.7056618851973
 21
136.605341664785
 31
0.0
  0
LINE
  5
168E
330
6B
100
AcDbEntity
  8
0
100
AcDbLine
 10
701.205514885197
 20
139.166085664785
 30
0.0
 11
701.205514885197
 21
145.093605664785
 31
0.0
  0
LINE
  5
168F
330
6B
100
AcDbEntity
  8
0
100
AcDbLine
 10
701.2055878851971
 20
139.166076664785
 30
0.0
 11
701.2055878851971
 21
151.1547165190473
 31
0.0
  0
LINE
  5
1690
330
6B
100
AcDbEntity
  8
0
100
AcDbLine
 10
702.7055878851971
 20
139.093635664785
 30
0.0
 11
702.7055878851971
 21
151.1547165190473
 31
0.0
  0
LINE
  5
1691
330
6B
100
AcDbEntity
  8
0
100
AcDbLine
 10
702.7055878851971
 20
138.052598664785
 30
0.0
 11
702.7055878851971
 21
136.605341664785
 31
0.0
  0
LINE
  5
1692
330
6B
100
AcDbEntity
  8
0
100
AcDbLine
 10
701.2055878851971
 20
138.123167664785
 30
0.0
 11
701.2055878851971
 21
136.605341664785
 31
0.0
  0
LINE
  5
1693
330
6B
100
AcDbEntity
  8
0
100
AcDbLine
 10
693.5808555937216
 20
127.2289158957777
 30
0.0
 11
693.5808555937216
 21
151.1547165190473
 31
0.0
  0
LINE
  5
1694
330
6B
100
AcDbEntity
  8
0
100
AcDbLine
 10
695.0808555937213
 20
127.2289158957777
 30
0.0
 11
695.0808555937213
 21
151.1547165190473
 31
0.0
  0
ARC
  5
1695
330
6B
100
AcDbEntity
  8
0
100
AcDbCircle
 10
687.5845848851967
 20
130.6154616647849
 30
0.0
 40
4.125
100
AcDbArc
 50
180.0
 51
236.9442689999976
  0
LINE
  5
1696
330
6B
100
AcDbEntity
  8
0
 62
     3
100
AcDbLine
 10
687.2392388851973
 20
112.575803664785
 30
0.0
 11
670.2392388851972
 21
112.575803664785
 31
0.0
  0
LINE
  5
1697
330
6B
100
AcDbEntity
  8
0
 62
     3
100
AcDbLine
 10
674.3345848851967
 20
134.575803664785
 30
0.0
 11
683.0845848851968
 21
134.575803664785
 31
0.0
  0
LINE
  5
1698
330
6B
100
AcDbEntity
  8
0
 62
     7
100
AcDbLine
 10
675.7069328851972
 20
103.038303664785
 30
0.0
 11
675.7069328851972
 21
112.575803664785
 31
0.0
  0
LINE
  5
1699
330
6B
100
AcDbEntity
  8
0
 62
     7
100
AcDbLine
 10
673.381932885197
 20
103.038303664785
 30
0.0
 11
673.381932885197
 21
112.575803664785
 31
0.0
  0
ARC
  5
169A
330
6B
100
AcDbEntity
  8
0
 62
     7
100
AcDbCircle
 10
674.5444328851974
 20
103.038303664785
 30
0.0
 40
1.1625
100
AcDbArc
 50
180.0
 51
0.0
  0
LINE
  5
169B
330
6B
100
AcDbEntity
  8
0
 62
     7
100
AcDbLine
 10
681.8642388851968
 20
112.575803664785
 30
0.0
 11
681.8642388851968
 21
104.825803664785
 31
0.0
  0
ARC
  5
169C
330
6B
100
AcDbEntity
  8
0
 62
     7
100
AcDbCircle
 10
680.2892388851975
 20
106.104553664785
 30
0.0
 40
2.02875
100
AcDbArc
 50
270.0
 51
320.9266900000012
  0
CIRCLE
  5
169D
330
6B
100
AcDbEntity
  8
0
 62
     7
100
AcDbCircle
 10
680.2892388851975
 20
106.725803664785
 30
0.0
 40
0.75
  0
LINE
  5
169E
330
6B
100
AcDbEntity
  8
0
 62
     7
100
AcDbLine
 10
678.7142388851972
 20
112.575803664785
 30
0.0
 11
678.7142388851972
 21
104.825803664785
 31
0.0
  0
ARC
  5
169F
330
6B
100
AcDbEntity
  8
0
 62
     7
100
AcDbCircle
 10
680.2892388851975
 20
106.104553664785
 30
0.0
 40
2.02875
100
AcDbArc
 50
219.0733099999988
 51
270.0
  0
LINE
  5
16A0
330
6B
100
AcDbEntity
  8
0
 62
     7
100
AcDbLine
 10
680.2892388851975
 20
104.825803664785
 30
0.0
 11
678.7142388851972
 21
104.825803664785
 31
0.0
  0
LINE
  5
16A1
330
6B
100
AcDbEntity
  8
0
 62
     7
100
AcDbLine
 10
680.2892388851975
 20
104.825803664785
 30
0.0
 11
681.8642388851968
 21
104.825803664785
 31
0.0
  0
LINE
  5
16A2
330
6B
100
AcDbEntity
  8
0
 62
     3
100
AcDbLine
 10
683.4595848851968
 20
132.408132664785
 30
0.0
 11
687.9062051245536
 21
127.7804374580055
 31
0.0
  0
LINE
  5
16A3
330
6B
100
AcDbEntity
  8
0
 62
     3
100
AcDbLine
 10
687.9062051245536
 20
127.7804374580055
 30
0.0
 11
686.3215074199735
 21
126.2577466645132
 31
0.0
  0
LINE
  5
16A4
330
6B
100
AcDbEntity
  8
0
100
AcDbLine
 10
689.4381925245121
 20
125.5882355344519
 30
0.0
 11
687.628985782335
 21
127.5140653045312
 31
0.0
  0
LINE
  5
16A5
330
6B
100
AcDbEntity
  8
0
100
AcDbLine
 10
688.3449470249687
 20
124.5611940174095
 30
0.0
 11
686.5473072140757
 21
126.4747112418322
 31
0.0
  0
ARC
  5
16A6
330
6B
100
AcDbEntity
  8
0
100
AcDbCircle
 10
698.143221739459
 20
151.1547165190473
 30
0.0
 40
4.562366145737731
100
AcDbArc
 50
0.0
 51
180.0
  0
ARC
  5
16A7
330
6B
100
AcDbEntity
  8
0
100
AcDbCircle
 10
698.143221739459
 20
151.1547165190473
 30
0.0
 40
3.062366145737732
100
AcDbArc
 50
0.0
 51
180.0
  0
ARC
  5
16A8
330
6B
100
AcDbEntity
  8
0
100
AcDbCircle
 10
691.1846325577963
 20
127.2289158957777
 30
0.0
 40
2.396223035925203
100
AcDbArc
 50
223.2115738316335
 51
0.0
  0
ARC
  5
16A9
330
6B
100
AcDbEntity
  8
0
100
AcDbCircle
 10
691.1846325577963
 20
127.2289158957777
 30
0.0
 40
3.896223035925201
100
AcDbArc
 50
223.2115738316335
 51
0.0
  0
CIRCLE
  5
16AB
330
6B
100
AcDbEntity
  8
0
 62
     7
100
AcDbCircle
 10
403.2715977422391
 20
167.0670424277594
 30
0.0
 40
5.0
  0
TEXT
  5
16AC
330
6B
100
AcDbEntity
  8
0
 62
     4
100
AcDbText
 10
401.0165696858278
 20
163.9275506530292
 30
0.0
 40
6.299999999999998
  1
9
  7
高6.3
100
AcDbText
  0
LINE
  5
16AE
330
6B
100
AcDbEntity
  8
0
100
AcDbLine
 10
452.3817629907546
 20
182.075803664785
 30
0.0
 11
459.1317629907546
 21
182.075803664785
 31
0.0
  0
LINE
  5
17D5
330
6B
100
AcDbEntity
  8
0
100
AcDbLine
 10
577.9444437431338
 20
154.4091369981183
 30
0.0
 11
578.6416797041186
 21
154.4091369981183
 31
0.0
  0
LINE
  5
17D6
330
6B
100
AcDbEntity
  8
0
100
AcDbLine
 10
578.9750130374517
 20
154.4091369981183
 30
0.0
 11
579.6722489984367
 21
154.4091369981183
 31
0.0
  0
LINE
  5
17D7
330
6B
100
AcDbEntity
  8
0
100
AcDbLine
 10
577.9444437431338
 20
154.7424703314517
 30
0.0
 11
578.6416797041186
 21
154.7424703314517
 31
0.0
  0
LINE
  5
17D8
330
6B
100
AcDbEntity
  8
0
100
AcDbLine
 10
578.9750130374517
 20
154.7424703314517
 30
0.0
 11
579.6722489984367
 21
154.7424703314517
 31
0.0
  0
LINE
  5
17D9
330
6B
100
AcDbEntity
  8
0
100
AcDbLine
 10
578.6416797041186
 20
155.4397062924364
 30
0.0
 11
578.6416797041186
 21
154.7424703314517
 31
0.0
  0
LINE
  5
17DA
330
6B
100
AcDbEntity
  8
0
100
AcDbLine
 10
578.6416797041186
 20
154.4091369981183
 30
0.0
 11
578.6416797041186
 21
153.7119010371336
 31
0.0
  0
LINE
  5
17DB
330
6B
100
AcDbEntity
  8
0
100
AcDbLine
 10
578.9750130374517
 20
155.4397062924364
 30
0.0
 11
578.9750130374517
 21
154.7424703314517
 31
0.0
  0
LINE
  5
17DC
330
6B
100
AcDbEntity
  8
0
100
AcDbLine
 10
578.9750130374517
 20
154.4091369981183
 30
0.0
 11
578.9750130374517
 21
153.7119010371336
 31
0.0
  0
CIRCLE
  5
17DD
330
6B
100
AcDbEntity
  8
0
100
AcDbCircle
 10
578.8083463707851
 20
154.575803664785
 30
0.0
 40
1.5
  0
ARC
  5
17DE
330
6B
100
AcDbEntity
  8
0
100
AcDbCircle
 10
578.8083463707851
 20
154.575803664785
 30
0.0
 40
0.8798326703645194
100
AcDbArc
 50
79.08048086552447
 51
100.9195191344755
  0
ARC
  5
17DF
330
6B
100
AcDbEntity
  8
0
100
AcDbCircle
 10
578.8083463707851
 20
154.575803664785
 30
0.0
 40
0.8798326703645194
100
AcDbArc
 50
169.0804808655313
 51
190.9195191344687
  0
ARC
  5
17E0
330
6B
100
AcDbEntity
  8
0
100
AcDbCircle
 10
578.8083463707851
 20
154.575803664785
 30
0.0
 40
0.8798326703645194
100
AcDbArc
 50
259.0804808655245
 51
280.9195191344755
  0
ARC
  5
17E1
330
6B
100
AcDbEntity
  8
0
100
AcDbCircle
 10
578.8083463707851
 20
154.575803664785
 30
0.0
 40
0.8798326703645194
100
AcDbArc
 50
349.0804808655312
 51
10.91951913446873
  0
LINE
  5
17E5
330
6B
100
AcDbEntity
  8
0
100
AcDbLine
 10
646.944443743134
 20
188.1591369981183
 30
0.0
 11
647.6416797041187
 21
188.1591369981183
 31
0.0
  0
LINE
  5
17E6
330
6B
100
AcDbEntity
  8
0
100
AcDbLine
 10
647.9750130374517
 20
188.1591369981183
 30
0.0
 11
648.6722489984368
 21
188.1591369981183
 31
0.0
  0
LINE
  5
17E7
330
6B
100
AcDbEntity
  8
0
100
AcDbLine
 10
646.944443743134
 20
188.4924703314516
 30
0.0
 11
647.6416797041187
 21
188.4924703314516
 31
0.0
  0
LINE
  5
17E8
330
6B
100
AcDbEntity
  8
0
100
AcDbLine
 10
647.9750130374517
 20
188.4924703314516
 30
0.0
 11
648.6722489984368
 21
188.4924703314516
 31
0.0
  0
LINE
  5
17E9
330
6B
100
AcDbEntity
  8
0
100
AcDbLine
 10
647.6416797041187
 20
189.1897062924364
 30
0.0
 11
647.6416797041187
 21
188.4924703314516
 31
0.0
  0
LINE
  5
17EA
330
6B
100
AcDbEntity
  8
0
100
AcDbLine
 10
647.6416797041187
 20
188.1591369981183
 30
0.0
 11
647.6416797041187
 21
187.4619010371336
 31
0.0
  0
LINE
  5
17EB
330
6B
100
AcDbEntity
  8
0
100
AcDbLine
 10
647.9750130374517
 20
189.1897062924364
 30
0.0
 11
647.9750130374517
 21
188.4924703314516
 31
0.0
  0
LINE
  5
17EC
330
6B
100
AcDbEntity
  8
0
100
AcDbLine
 10
647.9750130374517
 20
188.1591369981183
 30
0.0
 11
647.9750130374517
 21
187.4619010371336
 31
0.0
  0
CIRCLE
  5
17ED
330
6B
100
AcDbEntity
  8
0
100
AcDbCircle
 10
647.8083463707852
 20
188.325803664785
 30
0.0
 40
1.5
  0
ARC
  5
17EE
330
6B
100
AcDbEntity
  8
0
100
AcDbCircle
 10
647.8083463707852
 20
188.325803664785
 30
0.0
 40
0.8798326703645194
100
AcDbArc
 50
79.08048086552447
 51
100.9195191344755
  0
ARC
  5
17EF
330
6B
100
AcDbEntity
  8
0
100
AcDbCircle
 10
647.8083463707852
 20
188.325803664785
 30
0.0
 40
0.8798326703645194
100
AcDbArc
 50
169.0804808655313
 51
190.9195191344687
  0
ARC
  5
17F0
330
6B
100
AcDbEntity
  8
0
100
AcDbCircle
 10
647.8083463707852
 20
188.325803664785
 30
0.0
 40
0.8798326703645194
100
AcDbArc
 50
259.0804808655245
 51
280.9195191344755
  0
ARC
  5
17F1
330
6B
100
AcDbEntity
  8
0
100
AcDbCircle
 10
647.8083463707852
 20
188.325803664785
 30
0.0
 40
0.8798326703645194
100
AcDbArc
 50
349.0804808655312
 51
10.91951913446873
  0
LINE
  5
17F2
330
6B
100
AcDbEntity
  8
0
100
AcDbLine
 10
573.9444437431338
 20
188.1591369981183
 30
0.0
 11
574.6416797041186
 21
188.1591369981183
 31
0.0
  0
LINE
  5
17F3
330
6B
100
AcDbEntity
  8
0
100
AcDbLine
 10
574.9750130374517
 20
188.1591369981183
 30
0.0
 11
575.6722489984367
 21
188.1591369981183
 31
0.0
  0
LINE
  5
17F4
330
6B
100
AcDbEntity
  8
0
100
AcDbLine
 10
573.9444437431338
 20
188.4924703314516
 30
0.0
 11
574.6416797041186
 21
188.4924703314516
 31
0.0
  0
LINE
  5
17F5
330
6B
100
AcDbEntity
  8
0
100
AcDbLine
 10
574.9750130374517
 20
188.4924703314516
 30
0.0
 11
575.6722489984367
 21
188.4924703314516
 31
0.0
  0
LINE
  5
17F6
330
6B
100
AcDbEntity
  8
0
100
AcDbLine
 10
574.6416797041186
 20
189.1897062924364
 30
0.0
 11
574.6416797041186
 21
188.4924703314516
 31
0.0
  0
LINE
  5
17F7
330
6B
100
AcDbEntity
  8
0
100
AcDbLine
 10
574.6416797041186
 20
188.1591369981183
 30
0.0
 11
574.6416797041186
 21
187.4619010371336
 31
0.0
  0
LINE
  5
17F8
330
6B
100
AcDbEntity
  8
0
100
AcDbLine
 10
574.9750130374517
 20
189.1897062924364
 30
0.0
 11
574.9750130374517
 21
188.4924703314516
 31
0.0
  0
LINE
  5
17F9
330
6B
100
AcDbEntity
  8
0
100
AcDbLine
 10
574.9750130374517
 20
188.1591369981183
 30
0.0
 11
574.9750130374517
 21
187.4619010371336
 31
0.0
  0
CIRCLE
  5
17FA
330
6B
100
AcDbEntity
  8
0
100
AcDbCircle
 10
574.8083463707851
 20
188.325803664785
 30
0.0
 40
1.5
  0
ARC
  5
17FB
330
6B
100
AcDbEntity
  8
0
100
AcDbCircle
 10
574.8083463707851
 20
188.325803664785
 30
0.0
 40
0.8798326703645194
100
AcDbArc
 50
79.08048086552447
 51
100.9195191344755
  0
ARC
  5
17FC
330
6B
100
AcDbEntity
  8
0
100
AcDbCircle
 10
574.8083463707851
 20
188.325803664785
 30
0.0
 40
0.8798326703645194
100
AcDbArc
 50
169.0804808655313
 51
190.9195191344687
  0
ARC
  5
17FD
330
6B
100
AcDbEntity
  8
0
100
AcDbCircle
 10
574.8083463707851
 20
188.325803664785
 30
0.0
 40
0.8798326703645194
100
AcDbArc
 50
259.0804808655245
 51
280.9195191344755
  0
ARC
  5
17FE
330
6B
100
AcDbEntity
  8
0
100
AcDbCircle
 10
574.8083463707851
 20
188.325803664785
 30
0.0
 40
0.8798326703645194
100
AcDbArc
 50
349.0804808655312
 51
10.91951913446873
  0
LINE
  5
180B
330
6B
100
AcDbEntity
  8
0
100
AcDbLine
 10
649.3083463707852
 20
214.575803664785
 30
0.0
 11
646.3083463707852
 21
214.575803664785
 31
0.0
  0
LINE
  5
180E
330
6B
100
AcDbEntity
  8
0
100
AcDbLine
 10
649.3083463707852
 20
214.575803664785
 30
0.0
 11
649.3083463707852
 21
214.075803664785
 31
0.0
  0
LINE
  5
180F
330
6B
100
AcDbEntity
  8
0
100
AcDbLine
 10
646.3083463707852
 20
214.575803664785
 30
0.0
 11
646.3083463707852
 21
214.075803664785
 31
0.0
  0
LINE
  5
1811
330
6B
100
AcDbEntity
  8
0
100
AcDbLine
 10
576.3083463707852
 20
214.575803664785
 30
0.0
 11
576.3083463707852
 21
214.075803664785
 31
0.0
  0
LINE
  5
1812
330
6B
100
AcDbEntity
  8
0
100
AcDbLine
 10
573.3083463707852
 20
214.575803664785
 30
0.0
 11
573.3083463707852
 21
214.075803664785
 31
0.0
  0
ARC
  5
1813
330
6B
100
AcDbEntity
  8
0
100
AcDbCircle
 10
574.8083463707851
 20
212.575803664785
 30
0.0
 40
2.500000000000009
100
AcDbArc
 50
53.13010235415459
 51
126.8698976458454
  0
ARC
  5
1814
330
6B
100
AcDbEntity
  8
0
100
AcDbCircle
 10
647.8083463707852
 20
212.575803664785
 30
0.0
 40
2.500000000000009
100
AcDbArc
 50
53.13010235415459
 51
126.8698976458454
  0
LINE
  5
1815
330
6B
100
AcDbEntity
  8
0
100
AcDbLine
 10
576.3083463707852
 20
214.575803664785
 30
0.0
 11
573.3083463707852
 21
214.575803664785
 31
0.0
  0
LINE
  5
1818
330
6B
100
AcDbEntity
  8
0
100
AcDbLine
 10
487.8817629907547
 20
182.075803664785
 30
0.0
 11
487.8817629907548
 21
173.075803664785
 31
0.0
  0
LINE
  5
1819
330
6B
100
AcDbEntity
  8
0
100
AcDbLine
 10
452.3817629907546
 20
182.075803664785
 30
0.0
 11
452.3817629907546
 21
173.075803664785
 31
0.0
  0
LINE
  5
181A
330
6B
100
AcDbEntity
  8
0
100
AcDbLine
 10
481.1317629907547
 20
182.075803664785
 30
0.0
 11
487.8817629907547
 21
182.075803664785
 31
0.0
  0
LINE
  5
181F
330
6B
100
AcDbEntity
  8
0
100
AcDbLine
 10
464.3817629907544
 20
167.575803664785
 30
0.0
 11
464.3817629907544
 21
163.0758036647848
 31
0.0
  0
LINE
  5
1820
330
6B
100
AcDbEntity
  8
0
100
AcDbLine
 10
475.8817629907547
 20
163.0758036647848
 30
0.0
 11
475.8817629907547
 21
167.575803664785
 31
0.0
  0
LINE
  5
1821
330
6B
100
AcDbEntity
  8
0
100
AcDbLine
 10
474.8817629907547
 20
163.575803664785
 30
0.0
 11
474.8817629907547
 21
167.0758036647848
 31
0.0
  0
LINE
  5
1822
330
6B
100
AcDbEntity
  8
0
100
AcDbLine
 10
471.3817629907547
 20
163.825803664785
 30
0.0
 11
471.3817629907547
 21
166.825803664785
 31
0.0
  0
ARC
  5
1823
330
6B
100
AcDbEntity
  8
0
100
AcDbCircle
 10
471.1317629907546
 20
166.825803664785
 30
0.0
 40
0.25
100
AcDbArc
 50
0.0
 51
90.0
  0
LINE
  5
1824
330
6B
100
AcDbEntity
  8
0
100
AcDbLine
 10
468.8817629907545
 20
163.825803664785
 30
0.0
 11
468.8817629907545
 21
166.825803664785
 31
0.0
  0
LINE
  5
1825
330
6B
100
AcDbEntity
  8
0
100
AcDbLine
 10
466.8817629907547
 20
163.825803664785
 30
0.0
 11
466.8817629907547
 21
166.825803664785
 31
0.0
  0
LINE
  5
1826
330
6B
100
AcDbEntity
  8
0
 62
     3
100
AcDbLine
 10
461.1317629907547
 20
173.075803664785
 30
0.0
 11
461.1317629907547
 21
157.575803664785
 31
0.0
  0
LINE
  5
1827
330
6B
100
AcDbEntity
  8
0
 62
     3
100
AcDbLine
 10
479.1317629907545
 20
157.575803664785
 30
0.0
 11
479.1317629907545
 21
173.075803664785
 31
0.0
  0
LINE
  5
1828
330
6B
100
AcDbEntity
  8
0
 62
     3
100
AcDbLine
 10
461.1317629907547
 20
157.575803664785
 30
0.0
 11
479.1317629907545
 21
157.575803664785
 31
0.0
  0
LINE
  5
1829
330
6B
100
AcDbEntity
  8
0
100
AcDbLine
 10
452.3817629907546
 20
173.075803664785
 30
0.0
 11
461.1317629907547
 21
173.075803664785
 31
0.0
  0
LINE
  5
182A
330
6B
100
AcDbEntity
  8
0
 62
     3
100
AcDbLine
 10
461.1317629907547
 20
173.075803664785
 30
0.0
 11
479.1317629907545
 21
173.075803664785
 31
0.0
  0
LINE
  5
182B
330
6B
100
AcDbEntity
  8
0
100
AcDbLine
 10
467.1317629907546
 20
163.575803664785
 30
0.0
 11
474.8817629907547
 21
163.575803664785
 31
0.0
  0
ARC
  5
182C
330
6B
100
AcDbEntity
  8
0
100
AcDbCircle
 10
471.1317629907546
 20
163.825803664785
 30
0.0
 40
0.25
100
AcDbArc
 50
270.0
 51
0.0
  0
LINE
  5
182D
330
6B
100
AcDbEntity
  8
0
100
AcDbLine
 10
474.8817629907547
 20
167.0758036647848
 30
0.0
 11
467.1317629907546
 21
167.0758036647848
 31
0.0
  0
LINE
  5
182E
330
6B
100
AcDbEntity
  8
0
100
AcDbLine
 10
464.3817629907544
 20
163.0758036647848
 30
0.0
 11
475.8817629907547
 21
163.0758036647848
 31
0.0
  0
LINE
  5
182F
330
6B
100
AcDbEntity
  8
0
100
AcDbLine
 10
464.3817629907544
 20
167.575803664785
 30
0.0
 11
475.8817629907547
 21
167.575803664785
 31
0.0
  0
LINE
  5
1830
330
6B
100
AcDbEntity
  8
0
100
AcDbLine
 10
484.8817629907546
 20
166.2137970275765
 30
0.0
 11
484.8817629907546
 21
165.575803664785
 31
0.0
  0
LINE
  5
1831
330
6B
100
AcDbEntity
  8
0
100
AcDbLine
 10
484.8817629907546
 20
165.0758036647848
 30
0.0
 11
484.8817629907546
 21
164.4378103019934
 31
0.0
  0
LINE
  5
1832
330
6B
100
AcDbEntity
  8
0
100
AcDbLine
 10
485.3817629907545
 20
166.2137970275765
 30
0.0
 11
485.3817629907545
 21
165.575803664785
 31
0.0
  0
LINE
  5
1833
330
6B
100
AcDbEntity
  8
0
100
AcDbLine
 10
485.3817629907545
 20
165.0758036647848
 30
0.0
 11
485.3817629907545
 21
164.4378103019934
 31
0.0
  0
LINE
  5
1834
330
6B
100
AcDbEntity
  8
0
100
AcDbLine
 10
484.243769627963
 20
165.0758036647848
 30
0.0
 11
484.8817629907546
 21
165.0758036647848
 31
0.0
  0
LINE
  5
1835
330
6B
100
AcDbEntity
  8
0
100
AcDbLine
 10
485.3817629907545
 20
165.0758036647848
 30
0.0
 11
486.0197563535458
 21
165.0758036647848
 31
0.0
  0
LINE
  5
1836
330
6B
100
AcDbEntity
  8
0
100
AcDbLine
 10
484.243769627963
 20
165.575803664785
 30
0.0
 11
484.8817629907546
 21
165.575803664785
 31
0.0
  0
LINE
  5
1837
330
6B
100
AcDbEntity
  8
0
100
AcDbLine
 10
485.3817629907545
 20
165.575803664785
 30
0.0
 11
486.0197563535458
 21
165.575803664785
 31
0.0
  0
CIRCLE
  5
1838
330
6B
100
AcDbEntity
  8
0
100
AcDbCircle
 10
485.1317629907547
 20
165.3258036647848
 30
0.0
 40
1.625
  0
ARC
  5
1839
330
6B
100
AcDbEntity
  8
0
100
AcDbCircle
 10
485.1317629907547
 20
165.3258036647848
 30
0.0
 40
0.9225140716334864
100
AcDbArc
 50
74.276303409489
 51
105.723696590511
  0
ARC
  5
183A
330
6B
100
AcDbEntity
  8
0
100
AcDbCircle
 10
485.1317629907547
 20
165.3258036647848
 30
0.0
 40
0.9225140716334864
100
AcDbArc
 50
164.2763034094821
 51
195.7236965905159
  0
ARC
  5
183B
330
6B
100
AcDbEntity
  8
0
100
AcDbCircle
 10
485.1317629907547
 20
165.3258036647848
 30
0.0
 40
0.9225140716334864
100
AcDbArc
 50
254.2763034094823
 51
285.723696590511
  0
ARC
  5
183C
330
6B
100
AcDbEntity
  8
0
100
AcDbCircle
 10
485.1317629907547
 20
165.3258036647848
 30
0.0
 40
0.9225140716334864
100
AcDbArc
 50
344.276303409482
 51
15.72369659051596
  0
LINE
  5
183D
330
6B
100
AcDbEntity
  8
0
100
AcDbLine
 10
454.8817629907547
 20
166.2137970275765
 30
0.0
 11
454.8817629907547
 21
165.575803664785
 31
0.0
  0
LINE
  5
183E
330
6B
100
AcDbEntity
  8
0
100
AcDbLine
 10
454.8817629907547
 20
165.0758036647848
 30
0.0
 11
454.8817629907547
 21
164.4378103019934
 31
0.0
  0
LINE
  5
183F
330
6B
100
AcDbEntity
  8
0
100
AcDbLine
 10
455.3817629907544
 20
166.2137970275765
 30
0.0
 11
455.3817629907544
 21
165.575803664785
 31
0.0
  0
LINE
  5
1840
330
6B
100
AcDbEntity
  8
0
100
AcDbLine
 10
455.3817629907544
 20
165.0758036647848
 30
0.0
 11
455.3817629907544
 21
164.4378103019934
 31
0.0
  0
LINE
  5
1841
330
6B
100
AcDbEntity
  8
0
100
AcDbLine
 10
454.243769627963
 20
165.0758036647848
 30
0.0
 11
454.8817629907547
 21
165.0758036647848
 31
0.0
  0
LINE
  5
1842
330
6B
100
AcDbEntity
  8
0
100
AcDbLine
 10
455.3817629907544
 20
165.0758036647848
 30
0.0
 11
456.0197563535458
 21
165.0758036647848
 31
0.0
  0
LINE
  5
1843
330
6B
100
AcDbEntity
  8
0
100
AcDbLine
 10
454.243769627963
 20
165.575803664785
 30
0.0
 11
454.8817629907547
 21
165.575803664785
 31
0.0
  0
LINE
  5
1844
330
6B
100
AcDbEntity
  8
0
100
AcDbLine
 10
455.3817629907544
 20
165.575803664785
 30
0.0
 11
456.0197563535458
 21
165.575803664785
 31
0.0
  0
CIRCLE
  5
1845
330
6B
100
AcDbEntity
  8
0
100
AcDbCircle
 10
455.1317629907546
 20
165.3258036647848
 30
0.0
 40
1.625
  0
ARC
  5
1846
330
6B
100
AcDbEntity
  8
0
100
AcDbCircle
 10
455.1317629907546
 20
165.3258036647848
 30
0.0
 40
0.9225140716334864
100
AcDbArc
 50
74.276303409489
 51
105.723696590511
  0
ARC
  5
1847
330
6B
100
AcDbEntity
  8
0
100
AcDbCircle
 10
455.1317629907546
 20
165.3258036647848
 30
0.0
 40
0.9225140716334864
100
AcDbArc
 50
164.2763034094821
 51
195.7236965905159
  0
ARC
  5
1848
330
6B
100
AcDbEntity
  8
0
100
AcDbCircle
 10
455.1317629907546
 20
165.3258036647848
 30
0.0
 40
0.9225140716334864
100
AcDbArc
 50
254.2763034094823
 51
285.723696590511
  0
ARC
  5
1849
330
6B
100
AcDbEntity
  8
0
100
AcDbCircle
 10
455.1317629907546
 20
165.3258036647848
 30
0.0
 40
0.9225140716334864
100
AcDbArc
 50
344.276303409482
 51
15.72369659051596
  0
ARC
  5
184A
330
6B
100
AcDbEntity
  8
0
100
AcDbCircle
 10
468.6317629907547
 20
166.825803664785
 30
0.0
 40
0.25
100
AcDbArc
 50
0.0000000000065138
 51
89.99999999998697
  0
ARC
  5
184B
330
6B
100
AcDbEntity
  8
0
100
AcDbCircle
 10
467.1317629907546
 20
166.825803664785
 30
0.0
 40
0.25
100
AcDbArc
 50
90.00000000001303
 51
179.9999999999935
  0
ARC
  5
184C
330
6B
100
AcDbEntity
  8
0
100
AcDbCircle
 10
467.1317629907546
 20
163.825803664785
 30
0.0
 40
0.25
100
AcDbArc
 50
179.9999999999935
 51
270.000000000013
  0
ARC
  5
184D
330
6B
100
AcDbEntity
  8
0
100
AcDbCircle
 10
468.6317629907547
 20
163.825803664785
 30
0.0
 40
0.25
100
AcDbArc
 50
270.0
 51
359.9999999999935
  0
TEXT
  5
184E
330
6B
100
AcDbEntity
  8
0
100
AcDbText
 10
455.1317629907546
 20
174.0444121914721
 30
0.0
 40
1.25
  1
入力：AC100V　50/60Hz　出力：AC115V・AC125V
 41
0.7
  7
高2.5
100
AcDbText
  0
TEXT
  5
184F
330
6B
100
AcDbEntity
  8
0
100
AcDbText
 10
457.8266354931932
 20
164.1971986753647
 30
0.0
 40
2.25
  1
切
  7
高4.5
100
AcDbText
  0
TEXT
  5
1850
330
6B
100
AcDbEntity
  8
0
100
AcDbText
 10
479.9581529378512
 20
164.1971986753647
 30
0.0
 40
2.25
  1
入
  7
高4.5
100
AcDbText
  0
LINE
  5
1851
330
6B
100
AcDbEntity
  8
0
100
AcDbLine
 10
479.1317629907545
 20
173.075803664785
 30
0.0
 11
487.8817629907548
 21
173.075803664785
 31
0.0
  0
LINE
  5
1866
330
6B
100
AcDbEntity
  8
0
100
AcDbLine
 10
468.6317629907548
 20
214.575803664785
 30
0.0
 11
468.6317629907548
 21
214.075803664785
 31
0.0
  0
LINE
  5
1867
330
6B
100
AcDbEntity
  8
0
100
AcDbLine
 10
471.6317629907548
 20
214.575803664785
 30
0.0
 11
471.6317629907548
 21
214.075803664785
 31
0.0
  0
LINE
  5
1868
330
6B
100
AcDbEntity
  8
0
100
AcDbLine
 10
471.6317629907548
 20
214.575803664785
 30
0.0
 11
468.6317629907548
 21
214.575803664785
 31
0.0
  0
ARC
  5
1869
330
6B
100
AcDbEntity
  8
0
100
AcDbCircle
 10
470.1317629907546
 20
212.575803664785
 30
0.0
 40
2.500000000000009
100
AcDbArc
 50
53.13010235415459
 51
126.8698976458454
  0
CIRCLE
  5
186D
330
6B
100
AcDbEntity
  8
0
 62
     7
100
AcDbCircle
 10
529.249568579569
 20
199.8113458621391
 30
0.0
 40
5.0
  0
TEXT
  5
186E
330
6B
100
AcDbEntity
  8
0
 62
     4
100
AcDbText
 10
527.1585900205429
 20
196.5475487349994
 30
0.0
 40
6.299999999999998
  1
6
  7
高6.3
100
AcDbText
  0
TEXT
  5
18C5
330
6B
100
AcDbEntity
  8
0
 62
     3
100
AcDbText
 10
355.070788453611
 20
33.92473629281053
 30
0.0
 40
3.2
  1
2PE付きWコンセント
 41
0.8
  7
高3.2
100
AcDbText
  0
TEXT
  5
18C6
330
6B
100
AcDbEntity
  8
0
 62
     3
100
AcDbText
 10
412.4891338820058
 20
33.92473629281053
 30
0.0
 40
3.2
  1
2PE 15A 125V(赤)
 41
0.8
  7
高3.2
100
AcDbText
  0
TEXT
  5
18C7
330
6B
100
AcDbEntity
  8
0
 62
     3
100
AcDbText
 10
392.6044163737908
 20
33.92473629281053
 30
0.0
 40
3.2
  1
ABS樹脂
 41
0.8
  7
高3.2
100
AcDbText
  0
TEXT
  5
18C8
330
6B
100
AcDbEntity
  8
0
 62
     3
100
AcDbText
 10
450.0739548741854
 20
33.92473629281053
 30
0.0
 40
3.2
  1
1
 41
0.8
  7
高3.2
100
AcDbText
  0
TEXT
  5
18C9
330
6B
100
AcDbEntity
  8
0
 62
     3
100
AcDbText
 10
450.0739548741854
 20
28.92473629281053
 30
0.0
 40
3.2
  1
1
 41
0.8
  7
高3.2
100
AcDbText
  0
TEXT
  5
18CA
330
6B
100
AcDbEntity
  8
0
 62
     3
100
AcDbText
 10
347.944967
 20
48.92473629281053
 30
0.0
 40
3.2
  1
9
 41
0.8
  7
高3.2
100
AcDbText
  0
LINE
  5
18CB
330
6B
100
AcDbEntity
  8
0
 62
     3
100
AcDbLine
 10
346.444967
 20
53.42473629281053
 30
0.0
 11
512.7462794355738
 21
53.42473629281053
 31
0.0
  0
TEXT
  5
1A0B
330
6B
100
AcDbEntity
  8
0
 62
     3
100
AcDbText
 10
458.7817347335508
 20
8.924737
 30
0.0
 40
3.2
  1
54945
 41
0.8
  7
高3.2
100
AcDbText
  0
TEXT
  5
1A0C
330
6B
100
AcDbEntity
  8
0
 62
     3
100
AcDbText
 10
458.7817347335508
 20
18.924737
 30
0.0
 40
3.2
  1
51115
 41
0.8
  7
高3.2
100
AcDbText
  0
TEXT
  5
1A0D
330
6B
100
AcDbEntity
  8
0
 62
     3
100
AcDbText
 10
458.7817347335508
 20
38.92473629281053
 30
0.0
 40
3.2
  1
53584
 41
0.8
  7
高3.2
100
AcDbText
  0
TEXT
  5
1A0E
330
6B
100
AcDbEntity
  8
0
 62
     3
100
AcDbText
 10
458.7817347335508
 20
23.92473629281053
 30
0.0
 40
3.2
  1
53813
 41
0.8
  7
高3.2
100
AcDbText
  0
TEXT
  5
1A0F
330
6B
100
AcDbEntity
  8
0
 62
     3
100
AcDbText
 10
458.7817347335508
 20
43.92473629281053
 30
0.0
 40
3.2
  1
51765
 41
0.8
  7
高3.2
100
AcDbText
  0
TEXT
  5
1A10
330
6B
100
AcDbEntity
  8
0
 62
     3
100
AcDbText
 10
458.7817347335508
 20
48.92473629281053
 30
0.0
 40
3.2
  1
50091
 41
0.8
  7
高3.2
100
AcDbText
  0
TEXT
  5
1A11
330
6B
100
AcDbEntity
  8
0
 62
     3
100
AcDbText
 10
458.7817347335508
 20
13.924737
 30
0.0
 40
3.2
  1
-
 41
0.8
  7
高3.2
100
AcDbText
  0
LINE
  5
1A12
330
6B
100
AcDbEntity
  8
0
 62
     7
100
AcDbLine
 10
457.2817347335508
 20
3.424737
 30
0.0
 11
457.2817347335508
 21
53.42473629281053
 31
0.0
  0
TEXT
  5
1A13
330
6B
100
AcDbEntity
  8
0
 62
     3
100
AcDbText
 10
458.7817347335508
 20
3.924737
 30
0.0
 40
3.2
  1
コード
 41
0.8
  7
高3.2
100
AcDbText
  0
TEXT
  5
1A14
330
6B
100
AcDbEntity
  8
0
 62
     3
100
AcDbText
 10
458.7817347335508
 20
33.92473629281053
 30
0.0
 40
3.2
  1
51357
 41
0.8
  7
高3.2
100
AcDbText
  0
TEXT
  5
1A15
330
6B
100
AcDbEntity
  8
0
 62
     3
100
AcDbText
 10
458.7817347335508
 20
28.92473629281053
 30
0.0
 40
3.2
  1
51356
 41
0.8
  7
高3.2
100
AcDbText
  0
TEXT
  5
1A17
330
6B
100
AcDbEntity
  8
0
 62
     3
100
AcDbText
 10
474.7151208995246
 20
8.924737
 30
0.0
 40
3.2
  1
M-E20用　取手
 41
0.6
  7
高3.2
100
AcDbText
  0
TEXT
  5
1A18
330
6B
100
AcDbEntity
  8
0
 62
     3
100
AcDbText
 10
474.7151208995246
 20
18.924737
 30
0.0
 40
3.2
  1
VCT2x3x1.8M ポッキン付
 41
0.6
  7
高3.2
100
AcDbText
  0
TEXT
  5
1A19
330
6B
100
AcDbEntity
  8
0
 62
     3
100
AcDbText
 10
474.7151208995246
 20
38.92473629281053
 30
0.0
 40
3.2
  1
新150V電圧メーター
 41
0.6
  7
高3.2
100
AcDbText
  0
TEXT
  5
1A1A
330
6B
100
AcDbEntity
  8
0
 62
     3
100
AcDbText
 10
474.7151208995246
 20
23.92473629281053
 30
0.0
 40
3.2
  1
M-E20用　脚ゴム(1/4)
 41
0.6
  7
高3.2
100
AcDbText
  0
TEXT
  5
1A1B
330
6B
100
AcDbEntity
  8
0
 62
     3
100
AcDbText
 10
474.7151208995246
 20
43.92473629281053
 30
0.0
 40
3.2
  1
NV-L21K　20/15
 41
0.6
  7
高3.2
100
AcDbText
  0
TEXT
  5
1A1C
330
6B
100
AcDbEntity
  8
0
 62
     3
100
AcDbText
 10
474.7151208995246
 20
48.92473629281053
 30
0.0
 40
3.2
  1
アース金具黒メッキ
 41
0.6
  7
高3.2
100
AcDbText
  0
TEXT
  5
1A1D
330
6B
100
AcDbEntity
  8
0
 62
     3
100
AcDbText
 10
474.7151208995246
 20
13.924737
 30
0.0
 40
3.2
  1
-
 41
0.6
  7
高3.2
100
AcDbText
  0
LINE
  5
1A1E
330
6B
100
AcDbEntity
  8
0
 62
     7
100
AcDbLine
 10
473.2151208995245
 20
3.424737
 30
0.0
 11
473.2151208995245
 21
53.42473629281053
 31
0.0
  0
TEXT
  5
1A1F
330
6B
100
AcDbEntity
  8
0
 62
     3
100
AcDbText
 10
474.7151208995246
 20
3.924737
 30
0.0
 40
3.2
  1
コード番号名称
 41
0.6
  7
高3.2
100
AcDbText
  0
TEXT
  5
1A20
330
6B
100
AcDbEntity
  8
0
 62
     3
100
AcDbText
 10
474.7151208995246
 20
33.92473629281053
 30
0.0
 40
3.2
  1
2PE-R(アース付コンセント赤)
 41
0.6
  7
高3.2
100
AcDbText
  0
TEXT
  5
1A21
330
6B
100
AcDbEntity
  8
0
 62
     3
100
AcDbText
 10
474.7151208995246
 20
28.92473629281053
 30
0.0
 40
3.2
  1
2PE-W(アース付コンセント白)
 41
0.6
  7
高3.2
100
AcDbText
  0
LINE
  5
1CFB
330
6B
100
AcDbEntity
  8
0
100
AcDbLine
 10
651.3083463707852
 20
214.325803664785
 30
0.0
 11
651.3083463707852
 21
243.0219944901952
 31
0.0
  0
LINE
  5
1CFC
330
6B
100
AcDbEntity
  8
0
100
AcDbLine
 10
563.5583463707852
 20
156.825803664785
 30
0.0
 11
563.5583463707852
 21
243.0219944901952
 31
0.0
  0
LINE
  5
1CFD
330
6B
100
AcDbEntity
  8
0
100
AcDbLine
 10
648.8083463707852
 20
241.7719944901952
 30
0.0
 11
566.0583463707852
 21
241.7719944901952
 31
0.0
  0
LINE
  5
1D01
330
6B
100
AcDbEntity
  8
0
100
AcDbLine
 10
702.7056618851973
 20
138.050718664785
 30
0.0
 11
702.6956438851973
 21
138.181669664785
 31
0.0
  0
LINE
  5
1D02
330
6B
100
AcDbEntity
  8
0
100
AcDbLine
 10
702.6956438851973
 20
138.181669664785
 30
0.0
 11
702.6574518851973
 21
138.295134664785
 31
0.0
  0
LINE
  5
1D03
330
6B
100
AcDbEntity
  8
0
100
AcDbLine
 10
702.6574518851973
 20
138.295134664785
 30
0.0
 11
702.5115758851971
 21
138.4072206647849
 31
0.0
  0
LINE
  5
1D04
330
6B
100
AcDbEntity
  8
0
100
AcDbLine
 10
702.5115758851971
 20
138.4072206647849
 30
0.0
 11
702.3128568851973
 21
138.451768664785
 31
0.0
  0
LINE
  5
1D05
330
6B
100
AcDbEntity
  8
0
100
AcDbLine
 10
702.3128568851973
 20
138.451768664785
 30
0.0
 11
702.2006498851971
 21
138.451839664785
 31
0.0
  0
LINE
  5
1D06
330
6B
100
AcDbEntity
  8
0
100
AcDbLine
 10
702.2006498851971
 20
138.451839664785
 30
0.0
 11
702.0935698851966
 21
138.436104664785
 31
0.0
  0
LINE
  5
1D07
330
6B
100
AcDbEntity
  8
0
100
AcDbLine
 10
702.0935698851966
 20
138.436104664785
 30
0.0
 11
701.9198668851974
 21
138.382688664785
 31
0.0
  0
LINE
  5
1D08
330
6B
100
AcDbEntity
  8
0
100
AcDbLine
 10
701.9198668851974
 20
138.382688664785
 30
0.0
 11
701.7489758851971
 21
138.3107976647849
 31
0.0
  0
LINE
  5
1D09
330
6B
100
AcDbEntity
  8
0
100
AcDbLine
 10
701.205514885197
 20
139.166085664785
 30
0.0
 11
701.2155328851966
 21
139.035133664785
 31
0.0
  0
LINE
  5
1D0A
330
6B
100
AcDbEntity
  8
0
100
AcDbLine
 10
701.2155328851966
 20
139.035133664785
 30
0.0
 11
701.2537248851966
 21
138.921669664785
 31
0.0
  0
LINE
  5
1D0B
330
6B
100
AcDbEntity
  8
0
100
AcDbLine
 10
701.2537248851966
 20
138.921669664785
 30
0.0
 11
701.3996008851973
 21
138.8095826647849
 31
0.0
  0
LINE
  5
1D0C
330
6B
100
AcDbEntity
  8
0
100
AcDbLine
 10
701.3996008851973
 20
138.8095826647849
 30
0.0
 11
701.5983198851967
 21
138.765035664785
 31
0.0
  0
LINE
  5
1D0D
330
6B
100
AcDbEntity
  8
0
100
AcDbLine
 10
701.5983198851967
 20
138.765035664785
 30
0.0
 11
701.7105268851974
 21
138.764964664785
 31
0.0
  0
LINE
  5
1D0E
330
6B
100
AcDbEntity
  8
0
100
AcDbLine
 10
701.7105268851974
 20
138.764964664785
 30
0.0
 11
701.8176068851967
 21
138.780698664785
 31
0.0
  0
LINE
  5
1D0F
330
6B
100
AcDbEntity
  8
0
100
AcDbLine
 10
701.8176068851967
 20
138.780698664785
 30
0.0
 11
701.9913098851973
 21
138.834115664785
 31
0.0
  0
LINE
  5
1D10
330
6B
100
AcDbEntity
  8
0
100
AcDbLine
 10
701.9913098851973
 20
138.834115664785
 30
0.0
 11
702.1622008851967
 21
138.9060056647851
 31
0.0
  0
LINE
  5
1D11
330
6B
100
AcDbEntity
  8
0
100
AcDbLine
 10
701.2055878851971
 20
138.123167664785
 30
0.0
 11
701.4742758851972
 21
138.2627296647851
 31
0.0
  0
LINE
  5
1D12
330
6B
100
AcDbEntity
  8
0
100
AcDbLine
 10
701.4742758851972
 20
138.2627296647851
 30
0.0
 11
701.7489758851971
 21
138.3107976647849
 31
0.0
  0
LINE
  5
1D13
330
6B
100
AcDbEntity
  8
0
100
AcDbLine
 10
701.7489758851971
 20
138.3107976647849
 30
0.0
 11
701.8692788851969
 21
138.2834136647851
 31
0.0
  0
LINE
  5
1D14
330
6B
100
AcDbEntity
  8
0
100
AcDbLine
 10
701.8692788851969
 20
138.2834136647851
 30
0.0
 11
701.9839258851973
 21
138.232480664785
 31
0.0
  0
LINE
  5
1D15
330
6B
100
AcDbEntity
  8
0
100
AcDbLine
 10
701.9839258851973
 20
138.232480664785
 30
0.0
 11
702.1191218851972
 21
138.144829664785
 31
0.0
  0
LINE
  5
1D16
330
6B
100
AcDbEntity
  8
0
100
AcDbLine
 10
702.1191218851972
 20
138.144829664785
 30
0.0
 11
702.2502038851972
 21
138.0445206647849
 31
0.0
  0
LINE
  5
1D17
330
6B
100
AcDbEntity
  8
0
100
AcDbLine
 10
702.2502038851972
 20
138.0445206647849
 30
0.0
 11
702.3343018851974
 21
137.985899664785
 31
0.0
  0
LINE
  5
1D18
330
6B
100
AcDbEntity
  8
0
100
AcDbLine
 10
702.3343018851974
 20
137.985899664785
 30
0.0
 11
702.4225008851973
 21
137.9505406647849
 31
0.0
  0
LINE
  5
1D19
330
6B
100
AcDbEntity
  8
0
100
AcDbLine
 10
702.4225008851973
 20
137.9505406647849
 30
0.0
 11
702.5624768851972
 21
137.972860664785
 31
0.0
  0
LINE
  5
1D1A
330
6B
100
AcDbEntity
  8
0
100
AcDbLine
 10
702.5624768851972
 20
137.972860664785
 30
0.0
 11
702.7055878851971
 21
138.0507266647849
 31
0.0
  0
LINE
  5
1D1B
330
6B
100
AcDbEntity
  8
0
100
AcDbLine
 10
702.7055878851971
 20
139.093635664785
 30
0.0
 11
702.4369008851967
 21
138.9540746647849
 31
0.0
  0
LINE
  5
1D1C
330
6B
100
AcDbEntity
  8
0
100
AcDbLine
 10
702.4369008851967
 20
138.9540746647849
 30
0.0
 11
702.1622008851967
 21
138.9060056647851
 31
0.0
  0
LINE
  5
1D1D
330
6B
100
AcDbEntity
  8
0
100
AcDbLine
 10
702.1622008851967
 20
138.9060056647851
 30
0.0
 11
702.0418978851973
 21
138.933390664785
 31
0.0
  0
LINE
  5
1D1E
330
6B
100
AcDbEntity
  8
0
100
AcDbLine
 10
702.0418978851973
 20
138.933390664785
 30
0.0
 11
701.9272508851972
 21
138.984322664785
 31
0.0
  0
LINE
  5
1D1F
330
6B
100
AcDbEntity
  8
0
100
AcDbLine
 10
701.9272508851972
 20
138.984322664785
 30
0.0
 11
701.7920548851973
 21
139.071973664785
 31
0.0
  0
LINE
  5
1D20
330
6B
100
AcDbEntity
  8
0
100
AcDbLine
 10
701.7920548851973
 20
139.071973664785
 30
0.0
 11
701.6609728851967
 21
139.1722836647848
 31
0.0
  0
LINE
  5
1D21
330
6B
100
AcDbEntity
  8
0
100
AcDbLine
 10
701.6609728851967
 20
139.1722836647848
 30
0.0
 11
701.5768748851971
 21
139.230904664785
 31
0.0
  0
LINE
  5
1D22
330
6B
100
AcDbEntity
  8
0
100
AcDbLine
 10
701.5768748851971
 20
139.230904664785
 30
0.0
 11
701.4886758851972
 21
139.266263664785
 31
0.0
  0
LINE
  5
1D23
330
6B
100
AcDbEntity
  8
0
100
AcDbLine
 10
701.4886758851972
 20
139.266263664785
 30
0.0
 11
701.3486998851973
 21
139.243943664785
 31
0.0
  0
LINE
  5
1D24
330
6B
100
AcDbEntity
  8
0
100
AcDbLine
 10
701.3486998851973
 20
139.243943664785
 30
0.0
 11
701.2055878851971
 21
139.166076664785
 31
0.0
  0
LINE
  5
1D25
330
6B
100
AcDbEntity
  8
0
 62
     3
100
AcDbLine
 10
698.706864885197
 20
112.855341664785
 30
0.0
 11
698.4964068851974
 21
113.094413664785
 31
0.0
  0
LINE
  5
1D26
330
6B
100
AcDbEntity
  8
0
 62
     3
100
AcDbLine
 10
698.4964068851974
 20
113.094413664785
 30
0.0
 11
698.331864885197
 21
113.355341664785
 31
0.0
  0
LINE
  5
1D27
330
6B
100
AcDbEntity
  8
0
 62
     3
100
AcDbLine
 10
698.331864885197
 20
113.355341664785
 30
0.0
 11
698.2537528851972
 21
113.597910664785
 31
0.0
  0
LINE
  5
1D28
330
6B
100
AcDbEntity
  8
0
 62
     3
100
AcDbLine
 10
698.2537528851972
 20
113.597910664785
 30
0.0
 11
698.206864885197
 21
113.855341664785
 31
0.0
  0
LINE
  5
1D29
330
6B
100
AcDbEntity
  8
0
 62
     3
100
AcDbLine
 10
705.7068648851966
 20
113.855341664785
 30
0.0
 11
705.6599768851976
 21
113.597910664785
 31
0.0
  0
LINE
  5
1D2A
330
6B
100
AcDbEntity
  8
0
 62
     3
100
AcDbLine
 10
705.6599768851976
 20
113.597910664785
 30
0.0
 11
705.5818648851966
 21
113.355341664785
 31
0.0
  0
LINE
  5
1D2B
330
6B
100
AcDbEntity
  8
0
 62
     3
100
AcDbLine
 10
705.5818648851966
 20
113.355341664785
 30
0.0
 11
705.4173238851966
 21
113.094413664785
 31
0.0
  0
LINE
  5
1D2C
330
6B
100
AcDbEntity
  8
0
 62
     3
100
AcDbLine
 10
705.4173238851966
 20
113.094413664785
 30
0.0
 11
705.2068648851966
 21
112.855341664785
 31
0.0
  0
LINE
  5
1D39
330
6B
100
AcDbEntity
  8
0
100
AcDbLine
 10
514.6317629907547
 20
144.575803664785
 30
0.0
 11
550.9532729339666
 21
144.575803664785
 31
0.0
  0
LINE
  5
1D3A
330
6B
100
AcDbEntity
  8
0
100
AcDbLine
 10
493.8366780188796
 20
229.075803664785
 30
0.0
 11
550.9532729339666
 21
229.075803664785
 31
0.0
  0
LINE
  5
1D3B
330
6B
100
AcDbEntity
  8
0
100
AcDbLine
 10
549.7032729339665
 20
147.075803664785
 30
0.0
 11
549.7032729339665
 21
226.575803664785
 31
0.0
  0
LINE
  5
1D3F
330
6B
100
AcDbEntity
  8
0
100
AcDbLine
 10
520.8817629907547
 20
150.575803664785
 30
0.0
 11
540.8812856746813
 21
150.575803664785
 31
0.0
  0
LINE
  5
1D40
330
6B
100
AcDbEntity
  8
0
100
AcDbLine
 10
517.3817629907547
 20
214.075803664785
 30
0.0
 11
540.8812856746813
 21
214.075803664785
 31
0.0
  0
LINE
  5
1D41
330
6B
100
AcDbEntity
  8
0
100
AcDbLine
 10
539.6312856746813
 20
153.075803664785
 30
0.0
 11
539.6312856746813
 21
211.575803664785
 31
0.0
  0
LINE
  5
1D45
330
6B
100
AcDbEntity
  8
0
100
AcDbLine
 10
514.6317629907547
 20
144.575803664785
 30
0.0
 11
540.8812856746813
 21
144.575803664785
 31
0.0
  0
LINE
  5
1D46
330
6B
100
AcDbEntity
  8
0
100
AcDbLine
 10
520.8817629907547
 20
150.575803664785
 30
0.0
 11
540.8812856746813
 21
150.575803664785
 31
0.0
  0
LINE
  5
1D47
330
6B
100
AcDbEntity
  8
0
100
AcDbLine
 10
539.6312856746813
 20
153.075803664785
 30
0.0
 11
539.6312856746813
 21
155.575803664785
 31
0.0
  0
LINE
  5
1D48
330
6B
100
AcDbEntity
  8
0
100
AcDbLine
 10
539.6312856746813
 20
142.075803664785
 30
0.0
 11
539.6312856746813
 21
134.3258036647849
 31
0.0
  0
LINE
  5
1D49
330
6B
100
AcDbEntity
  8
0
100
AcDbLine
 10
539.6312856746813
 20
150.575803664785
 30
0.0
 11
539.6312856746813
 21
144.575803664785
 31
0.0
  0
LINE
  5
1D4D
330
6B
100
AcDbEntity
  8
0
100
AcDbLine
 10
651.3083463707852
 20
150.325803664785
 30
0.0
 11
651.3083463707852
 21
130.737517961268
 31
0.0
  0
LINE
  5
1D4E
330
6B
100
AcDbEntity
  8
0
100
AcDbLine
 10
566.3083463707851
 20
157.825803664785
 30
0.0
 11
566.3083463707851
 21
130.737517961268
 31
0.0
  0
LINE
  5
1D4F
330
6B
100
AcDbEntity
  8
0
100
AcDbLine
 10
648.8083463707852
 20
131.987517961268
 30
0.0
 11
568.8083463707851
 21
131.987517961268
 31
0.0
  0
LINE
  5
1D53
330
6B
100
AcDbEntity
  8
0
100
AcDbLine
 10
520.6317629907547
 20
150.325803664785
 30
0.0
 11
520.6317629907547
 21
129.994681774885
 31
0.0
  0
LINE
  5
1D54
330
6B
100
AcDbEntity
  8
0
100
AcDbLine
 10
419.6317629907547
 20
150.325803664785
 30
0.0
 11
419.6317629907547
 21
129.994681774885
 31
0.0
  0
LINE
  5
1D55
330
6B
100
AcDbEntity
  8
0
100
AcDbLine
 10
518.1317629907547
 20
131.244681774885
 30
0.0
 11
422.1317629907546
 21
131.244681774885
 31
0.0
  0
LINE
  5
1D59
330
6B
100
AcDbEntity
  8
0
100
AcDbLine
 10
512.2789039863708
 20
193.8751739772605
 30
0.0
 11
524.5299681164916
 21
198.1604759493598
 31
0.0
  0
LINE
  5
1D5A
330
6B
100
AcDbEntity
  8
0
  6
ByBlock
 62
     0
370
    -2
100
AcDbLine
 10
512.5000784575005
 20
193.2428678650199
 30
0.0
 11
509.9191037548322
 21
193.0497390208708
 31
0.0
  0
LINE
  5
1D5B
330
6B
100
AcDbEntity
  8
0
  6
ByBlock
 62
     0
370
    -2
100
AcDbLine
 10
509.9191037548322
 20
193.0497390208708
 30
0.0
 11
512.0577295152412
 21
194.507480089501
 31
0.0
  0
LINE
  5
1D5C
330
6B
100
AcDbEntity
  8
0
  6
ByBlock
 62
     0
370
    -2
100
AcDbLine
 10
509.9191037548322
 20
193.0497390208708
 30
0.0
 11
512.2789039863708
 21
193.8751739772605
 31
0.0
  0
LINE
  5
1D5D
330
6B
100
AcDbEntity
  8
0
100
AcDbLine
 10
468.2821750897534
 20
155.893833214251
 30
0.0
 11
457.4000273070189
 21
145.9978715251658
 31
0.0
  0
LINE
  5
1D5E
330
6B
100
AcDbEntity
  8
0
  6
ByBlock
 62
     0
370
    -2
100
AcDbLine
 10
467.8314927895032
 20
156.3894284427363
 30
0.0
 11
470.1317629907546
 21
157.575803664785
 31
0.0
  0
LINE
  5
1D5F
330
6B
100
AcDbEntity
  8
0
  6
ByBlock
 62
     0
370
    -2
100
AcDbLine
 10
470.1317629907546
 20
157.575803664785
 30
0.0
 11
468.7328573900034
 21
155.3982379857655
 31
0.0
  0
LINE
  5
1D60
330
6B
100
AcDbEntity
  8
0
  6
ByBlock
 62
     0
370
    -2
100
AcDbLine
 10
470.1317629907546
 20
157.575803664785
 30
0.0
 11
468.2821750897534
 21
155.893833214251
 31
0.0
  0
LINE
  5
1D61
330
6B
100
AcDbEntity
  8
0
100
AcDbLine
 10
432.6939356817848
 20
160.3798776775672
 30
0.0
 11
408.1472523601788
 21
165.9588944021949
 31
0.0
  0
LINE
  5
1D62
330
6B
100
AcDbEntity
  8
0
  6
ByBlock
 62
     0
370
    -2
100
AcDbLine
 10
432.8423992594357
 20
161.0330910671784
 30
0.0
 11
435.1317629907547
 21
159.825803664785
 31
0.0
  0
LINE
  5
1D63
330
6B
100
AcDbEntity
  8
0
  6
ByBlock
 62
     0
370
    -2
100
AcDbLine
 10
435.1317629907547
 20
159.825803664785
 30
0.0
 11
432.5454721041338
 21
159.726664287956
 31
0.0
  0
LINE
  5
1D64
330
6B
100
AcDbEntity
  8
0
  6
ByBlock
 62
     0
370
    -2
100
AcDbLine
 10
435.1317629907547
 20
159.825803664785
 30
0.0
 11
432.6939356817848
 21
160.3798776775672
 31
0.0
  0
TEXT
  5
1D65
330
6B
100
AcDbEntity
  8
0
 62
     4
100
AcDbText
 10
604.7299224428558
 20
242.3969944901952
 30
0.0
 40
3.0
  1
175.5
100
AcDbText
  0
LINE
  5
1D66
330
6B
100
AcDbEntity
  8
0
  6
ByBlock
 62
     0
370
    -2
100
AcDbLine
 10
566.0583463707852
 20
241.1021219901952
 30
0.0
 11
563.5583463707852
 21
241.7719944901952
 31
0.0
  0
LINE
  5
1D67
330
6B
100
AcDbEntity
  8
0
  6
ByBlock
 62
     0
370
    -2
100
AcDbLine
 10
563.5583463707852
 20
241.7719944901952
 30
0.0
 11
566.0583463707852
 21
242.4418669901952
 31
0.0
  0
LINE
  5
1D68
330
6B
100
AcDbEntity
  8
0
  6
ByBlock
 62
     0
370
    -2
100
AcDbLine
 10
563.5583463707852
 20
241.7719944901952
 30
0.0
 11
566.0583463707852
 21
241.7719944901952
 31
0.0
  0
LINE
  5
1D69
330
6B
100
AcDbEntity
  8
0
  6
ByBlock
 62
     0
370
    -2
100
AcDbLine
 10
648.8083463707852
 20
242.4418669901952
 30
0.0
 11
651.3083463707852
 21
241.7719944901952
 31
0.0
  0
LINE
  5
1D6A
330
6B
100
AcDbEntity
  8
0
  6
ByBlock
 62
     0
370
    -2
100
AcDbLine
 10
651.3083463707852
 20
241.7719944901952
 30
0.0
 11
648.8083463707852
 21
241.1021219901952
 31
0.0
  0
LINE
  5
1D6B
330
6B
100
AcDbEntity
  8
0
  6
ByBlock
 62
     0
370
    -2
100
AcDbLine
 10
651.3083463707852
 20
241.7719944901952
 30
0.0
 11
648.8083463707852
 21
241.7719944901952
 31
0.0
  0
LINE
  5
1D6C
330
6B
100
AcDbEntity
  8
0
100
AcDbLine
 10
669.3551160555776
 20
165.3672631518209
 30
0.0
 11
671.0107938081334
 21
171.6100790883996
 31
0.0
  0
LINE
  5
1D6D
330
6B
100
AcDbEntity
  8
0
  6
ByBlock
 62
     0
370
    -2
100
AcDbLine
 10
670.0026039586694
 20
165.1955407548947
 30
0.0
 11
668.7142388851976
 21
162.950803664785
 31
0.0
  0
LINE
  5
1D6E
330
6B
100
AcDbEntity
  8
0
  6
ByBlock
 62
     0
370
    -2
100
AcDbLine
 10
668.7142388851976
 20
162.950803664785
 30
0.0
 11
668.7076281524857
 21
165.538985548747
 31
0.0
  0
LINE
  5
1D6F
330
6B
100
AcDbEntity
  8
0
  6
ByBlock
 62
     0
370
    -2
100
AcDbLine
 10
668.7142388851976
 20
162.950803664785
 30
0.0
 11
669.3551160555776
 21
165.3672631518209
 31
0.0
  0
LINE
  5
1D70
330
6B
100
AcDbEntity
  8
0
100
AcDbLine
 10
649.734183858946
 20
215.3162193342721
 30
0.0
 11
667.9490725252327
 21
225.7254877234973
 31
0.0
  0
LINE
  5
1D71
330
6B
100
AcDbEntity
  8
0
  6
ByBlock
 62
     0
370
    -2
100
AcDbLine
 10
650.0665519971694
 20
214.7346175917109
 30
0.0
 11
647.5636150471156
 21
214.075803664785
 31
0.0
  0
LINE
  5
1D72
330
6B
100
AcDbEntity
  8
0
  6
ByBlock
 62
     0
370
    -2
100
AcDbLine
 10
647.5636150471156
 20
214.075803664785
 30
0.0
 11
649.4018157207226
 21
215.8978210768332
 31
0.0
  0
LINE
  5
1D73
330
6B
100
AcDbEntity
  8
0
  6
ByBlock
 62
     0
370
    -2
100
AcDbLine
 10
647.5636150471156
 20
214.075803664785
 30
0.0
 11
649.734183858946
 21
215.3162193342721
 31
0.0
  0
LINE
  5
1D74
330
6B
100
AcDbEntity
  8
0
100
AcDbLine
 10
423.0424623597984
 20
147.1548257553066
 30
0.0
 11
407.3982525677076
 21
144.4823163013129
 31
0.0
  0
LINE
  5
1D75
330
6B
100
AcDbEntity
  8
0
  6
ByBlock
 62
     0
370
    -2
100
AcDbLine
 10
422.9296617499316
 20
147.8151326450707
 30
0.0
 11
425.5067629907546
 21
147.5758036647849
 31
0.0
  0
LINE
  5
1D76
330
6B
100
AcDbEntity
  8
0
  6
ByBlock
 62
     0
370
    -2
100
AcDbLine
 10
425.5067629907546
 20
147.5758036647849
 30
0.0
 11
423.1552629696651
 21
146.4945188655425
 31
0.0
  0
LINE
  5
1D77
330
6B
100
AcDbEntity
  8
0
  6
ByBlock
 62
     0
370
    -2
100
AcDbLine
 10
425.5067629907546
 20
147.5758036647849
 30
0.0
 11
423.0424623597984
 21
147.1548257553066
 31
0.0
  0
LINE
  5
1D78
330
6B
100
AcDbEntity
  8
0
100
AcDbLine
 10
427.5237322575231
 20
191.1562800709138
 30
0.0
 11
407.6648497722577
 21
198.1503930498814
 31
0.0
  0
LINE
  5
1D79
330
6B
100
AcDbEntity
  8
0
  6
ByBlock
 62
     0
370
    -2
100
AcDbLine
 10
427.7462575800689
 20
191.7881120478524
 30
0.0
 11
429.8817629907544
 21
190.325803664785
 31
0.0
  0
LINE
  5
1D7A
330
6B
100
AcDbEntity
  8
0
  6
ByBlock
 62
     0
370
    -2
100
AcDbLine
 10
429.8817629907544
 20
190.325803664785
 30
0.0
 11
427.3012069349773
 21
190.5244480939752
 31
0.0
  0
LINE
  5
1D7B
330
6B
100
AcDbEntity
  8
0
  6
ByBlock
 62
     0
370
    -2
100
AcDbLine
 10
429.8817629907544
 20
190.325803664785
 30
0.0
 11
427.5237322575231
 21
191.1562800709138
 31
0.0
  0
LINE
  5
1D7C
330
6B
100
AcDbEntity
  8
0
100
AcDbLine
 10
456.7503245113383
 20
205.3365603727772
 30
0.0
 11
407.7116652646278
 21
221.0020874461548
 31
0.0
  0
LINE
  5
1D7D
330
6B
100
AcDbEntity
  8
0
  6
ByBlock
 62
     0
370
    -2
100
AcDbLine
 10
456.9541685104881
 20
205.9746644318984
 30
0.0
 11
459.1317629907546
 21
204.575803664785
 31
0.0
  0
LINE
  5
1D7E
330
6B
100
AcDbEntity
  8
0
  6
ByBlock
 62
     0
370
    -2
100
AcDbLine
 10
459.1317629907546
 20
204.575803664785
 30
0.0
 11
456.5464805121884
 21
204.6984563136561
 31
0.0
  0
LINE
  5
1D7F
330
6B
100
AcDbEntity
  8
0
  6
ByBlock
 62
     0
370
    -2
100
AcDbLine
 10
459.1317629907546
 20
204.575803664785
 30
0.0
 11
456.7503245113383
 21
205.3365603727772
 31
0.0
  0
LINE
  5
1D80
330
6B
100
AcDbEntity
  8
0
100
AcDbLine
 10
441.9887602730946
 20
228.1812792723902
 30
0.0
 11
407.8528277298651
 21
234.9672256244283
 31
0.0
  0
LINE
  5
1D81
330
6B
100
AcDbEntity
  8
0
  6
ByBlock
 62
     0
370
    -2
100
AcDbLine
 10
442.1193697674253
 20
228.8382955022103
 30
0.0
 11
444.4407799851295
 21
227.6938376535349
 31
0.0
  0
LINE
  5
1D82
330
6B
100
AcDbEntity
  8
0
  6
ByBlock
 62
     0
370
    -2
100
AcDbLine
 10
444.4407799851295
 20
227.6938376535349
 30
0.0
 11
441.858150778764
 21
227.5242630425702
 31
0.0
  0
LINE
  5
1D83
330
6B
100
AcDbEntity
  8
0
  6
ByBlock
 62
     0
370
    -2
100
AcDbLine
 10
444.4407799851295
 20
227.6938376535349
 30
0.0
 11
441.9887602730946
 21
228.1812792723902
 31
0.0
  0
TEXT
  5
1D84
330
6B
100
AcDbEntity
  8
0
 62
     4
100
AcDbText
 10
549.0782729339665
 20
181.8097595635018
 30
0.0
 40
3.0
  1
169
 50
90.0
100
AcDbText
  0
LINE
  5
1D85
330
6B
100
AcDbEntity
  8
0
  6
ByBlock
 62
     0
370
    -2
100
AcDbLine
 10
549.0334004339665
 20
226.575803664785
 30
0.0
 11
549.7032729339665
 21
229.075803664785
 31
0.0
  0
LINE
  5
1D86
330
6B
100
AcDbEntity
  8
0
  6
ByBlock
 62
     0
370
    -2
100
AcDbLine
 10
549.7032729339665
 20
229.075803664785
 30
0.0
 11
550.3731454339665
 21
226.575803664785
 31
0.0
  0
LINE
  5
1D87
330
6B
100
AcDbEntity
  8
0
  6
ByBlock
 62
     0
370
    -2
100
AcDbLine
 10
549.7032729339665
 20
229.075803664785
 30
0.0
 11
549.7032729339665
 21
226.575803664785
 31
0.0
  0
LINE
  5
1D88
330
6B
100
AcDbEntity
  8
0
  6
ByBlock
 62
     0
370
    -2
100
AcDbLine
 10
550.3731454339665
 20
147.075803664785
 30
0.0
 11
549.7032729339665
 21
144.575803664785
 31
0.0
  0
LINE
  5
1D89
330
6B
100
AcDbEntity
  8
0
  6
ByBlock
 62
     0
370
    -2
100
AcDbLine
 10
549.7032729339665
 20
144.575803664785
 30
0.0
 11
549.0334004339665
 21
147.075803664785
 31
0.0
  0
LINE
  5
1D8A
330
6B
100
AcDbEntity
  8
0
  6
ByBlock
 62
     0
370
    -2
100
AcDbLine
 10
549.7032729339665
 20
144.575803664785
 30
0.0
 11
549.7032729339665
 21
147.075803664785
 31
0.0
  0
TEXT
  5
1D8B
330
6B
100
AcDbEntity
  8
0
 62
     4
100
AcDbText
 10
539.0062856746813
 20
178.825803664785
 30
0.0
 40
3.0
  1
127
 50
90.0
100
AcDbText
  0
LINE
  5
1D8C
330
6B
100
AcDbEntity
  8
0
  6
ByBlock
 62
     0
370
    -2
100
AcDbLine
 10
538.9614131746813
 20
211.575803664785
 30
0.0
 11
539.6312856746813
 21
214.075803664785
 31
0.0
  0
LINE
  5
1D8D
330
6B
100
AcDbEntity
  8
0
  6
ByBlock
 62
     0
370
    -2
100
AcDbLine
 10
539.6312856746813
 20
214.075803664785
 30
0.0
 11
540.3011581746812
 21
211.575803664785
 31
0.0
  0
LINE
  5
1D8E
330
6B
100
AcDbEntity
  8
0
  6
ByBlock
 62
     0
370
    -2
100
AcDbLine
 10
539.6312856746813
 20
214.075803664785
 30
0.0
 11
539.6312856746813
 21
211.575803664785
 31
0.0
  0
LINE
  5
1D8F
330
6B
100
AcDbEntity
  8
0
  6
ByBlock
 62
     0
370
    -2
100
AcDbLine
 10
540.3011581746812
 20
153.075803664785
 30
0.0
 11
539.6312856746813
 21
150.575803664785
 31
0.0
  0
LINE
  5
1D90
330
6B
100
AcDbEntity
  8
0
  6
ByBlock
 62
     0
370
    -2
100
AcDbLine
 10
539.6312856746813
 20
150.575803664785
 30
0.0
 11
538.9614131746813
 21
153.075803664785
 31
0.0
  0
LINE
  5
1D91
330
6B
100
AcDbEntity
  8
0
  6
ByBlock
 62
     0
370
    -2
100
AcDbLine
 10
539.6312856746813
 20
150.575803664785
 30
0.0
 11
539.6312856746813
 21
153.075803664785
 31
0.0
  0
TEXT
  5
1D92
330
6B
100
AcDbEntity
  8
0
 62
     4
100
AcDbText
 10
539.0062856746813
 20
134.950803664785
 30
0.0
 40
3.0
  1
12
 50
90.0
100
AcDbText
  0
LINE
  5
1D93
330
6B
100
AcDbEntity
  8
0
  6
ByBlock
 62
     0
370
    -2
100
AcDbLine
 10
538.9614131746813
 20
142.075803664785
 30
0.0
 11
539.6312856746813
 21
144.575803664785
 31
0.0
  0
LINE
  5
1D94
330
6B
100
AcDbEntity
  8
0
  6
ByBlock
 62
     0
370
    -2
100
AcDbLine
 10
539.6312856746813
 20
144.575803664785
 30
0.0
 11
540.3011581746812
 21
142.075803664785
 31
0.0
  0
LINE
  5
1D95
330
6B
100
AcDbEntity
  8
0
  6
ByBlock
 62
     0
370
    -2
100
AcDbLine
 10
539.6312856746813
 20
144.575803664785
 30
0.0
 11
539.6312856746813
 21
142.075803664785
 31
0.0
  0
LINE
  5
1D96
330
6B
100
AcDbEntity
  8
0
  6
ByBlock
 62
     0
370
    -2
100
AcDbLine
 10
540.3011581746812
 20
153.075803664785
 30
0.0
 11
539.6312856746813
 21
150.575803664785
 31
0.0
  0
LINE
  5
1D97
330
6B
100
AcDbEntity
  8
0
  6
ByBlock
 62
     0
370
    -2
100
AcDbLine
 10
539.6312856746813
 20
150.575803664785
 30
0.0
 11
538.9614131746813
 21
153.075803664785
 31
0.0
  0
LINE
  5
1D98
330
6B
100
AcDbEntity
  8
0
  6
ByBlock
 62
     0
370
    -2
100
AcDbLine
 10
539.6312856746813
 20
150.575803664785
 30
0.0
 11
539.6312856746813
 21
153.075803664785
 31
0.0
  0
TEXT
  5
1D99
330
6B
100
AcDbEntity
  8
0
 62
     4
100
AcDbText
 10
606.7287475431383
 20
132.612517961268
 30
0.0
 40
3.0
  1
170
100
AcDbText
  0
LINE
  5
1D9A
330
6B
100
AcDbEntity
  8
0
  6
ByBlock
 62
     0
370
    -2
100
AcDbLine
 10
568.8083463707851
 20
131.317645461268
 30
0.0
 11
566.3083463707851
 21
131.987517961268
 31
0.0
  0
LINE
  5
1D9B
330
6B
100
AcDbEntity
  8
0
  6
ByBlock
 62
     0
370
    -2
100
AcDbLine
 10
566.3083463707851
 20
131.987517961268
 30
0.0
 11
568.8083463707851
 21
132.657390461268
 31
0.0
  0
LINE
  5
1D9C
330
6B
100
AcDbEntity
  8
0
  6
ByBlock
 62
     0
370
    -2
100
AcDbLine
 10
566.3083463707851
 20
131.987517961268
 30
0.0
 11
568.8083463707851
 21
131.987517961268
 31
0.0
  0
LINE
  5
1D9D
330
6B
100
AcDbEntity
  8
0
  6
ByBlock
 62
     0
370
    -2
100
AcDbLine
 10
648.8083463707852
 20
132.657390461268
 30
0.0
 11
651.3083463707852
 21
131.987517961268
 31
0.0
  0
LINE
  5
1D9E
330
6B
100
AcDbEntity
  8
0
  6
ByBlock
 62
     0
370
    -2
100
AcDbLine
 10
651.3083463707852
 20
131.987517961268
 30
0.0
 11
648.8083463707852
 21
131.317645461268
 31
0.0
  0
LINE
  5
1D9F
330
6B
100
AcDbEntity
  8
0
  6
ByBlock
 62
     0
370
    -2
100
AcDbLine
 10
651.3083463707852
 20
131.987517961268
 30
0.0
 11
648.8083463707852
 21
131.987517961268
 31
0.0
  0
TEXT
  5
1DA0
330
6B
100
AcDbEntity
  8
0
 62
     4
100
AcDbText
 10
464.3690260174956
 20
131.869681774885
 30
0.0
 40
3.0
  1
202
100
AcDbText
  0
LINE
  5
1DA1
330
6B
100
AcDbEntity
  8
0
  6
ByBlock
 62
     0
370
    -2
100
AcDbLine
 10
422.1317629907546
 20
130.574809274885
 30
0.0
 11
419.6317629907547
 21
131.244681774885
 31
0.0
  0
LINE
  5
1DA2
330
6B
100
AcDbEntity
  8
0
  6
ByBlock
 62
     0
370
    -2
100
AcDbLine
 10
419.6317629907547
 20
131.244681774885
 30
0.0
 11
422.1317629907546
 21
131.914554274885
 31
0.0
  0
LINE
  5
1DA3
330
6B
100
AcDbEntity
  8
0
  6
ByBlock
 62
     0
370
    -2
100
AcDbLine
 10
419.6317629907547
 20
131.244681774885
 30
0.0
 11
422.1317629907546
 21
131.244681774885
 31
0.0
  0
LINE
  5
1DA4
330
6B
100
AcDbEntity
  8
0
  6
ByBlock
 62
     0
370
    -2
100
AcDbLine
 10
518.1317629907547
 20
131.914554274885
 30
0.0
 11
520.6317629907547
 21
131.244681774885
 31
0.0
  0
LINE
  5
1DA5
330
6B
100
AcDbEntity
  8
0
  6
ByBlock
 62
     0
370
    -2
100
AcDbLine
 10
520.6317629907547
 20
131.244681774885
 30
0.0
 11
518.1317629907547
 21
130.574809274885
 31
0.0
  0
LINE
  5
1DA6
330
6B
100
AcDbEntity
  8
0
  6
ByBlock
 62
     0
370
    -2
100
AcDbLine
 10
520.6317629907547
 20
131.244681774885
 30
0.0
 11
518.1317629907547
 21
131.244681774885
 31
0.0
  0
ENDSEC
  0
SECTION
  2
OBJECTS
  0
DICTIONARY
  5
C
330
0
100
AcDbDictionary
281
     1
  3
ACAD_2007HEADERVARS_RT
350
1DAA
  3
ACAD_COLOR
350
62
  3
ACAD_GROUP
350
D
  3
ACAD_LAYOUT
350
61
  3
ACAD_MATERIAL
350
10
  3
ACAD_MLEADERSTYLE
350
65
  3
ACAD_MLINESTYLE
350
5E
  3
ACAD_PLOTSETTINGS
350
60
  3
ACAD_PLOTSTYLENAME
350
E
  3
ACAD_SCALELIST
350
42
  3
ACAD_TABLESTYLE
350
63
  3
ACAD_VISUALSTYLE
350
29
  3
ACDB_RECOMPOSE_DATA
350
1DA8
  3
AcDbVariableDictionary
350
60F
  3
DWGPROPS
350
1DA9
  0
DICTIONARY
  5
475
330
2
100
AcDbDictionary
280
     1
281
     1
  3
ACAD_LAYERSTATES
360
476
  0
DICTIONARY
  5
60B
330
54
100
AcDbDictionary
280
     1
281
     1
  3
ADSK_XREC_LAYER_RECONCILED
360
60C
  0
DICTIONARY
  5
5FA
330
6B
100
AcDbDictionary
280
     1
281
     1
  3
ACAD_SORTENTS
360
5FB
  0
DICTIONARY
  5
1DAA
102
{ACAD_REACTORS
330
C
102
}
330
C
100
AcDbDictionary
281
     1
  3
DIMARCSYM
350
1DAC
  3
DIMFXL
350
1DAB
  3
DIMJOGANG
350
1DAD
  0
DICTIONARY
  5
62
102
{ACAD_REACTORS
330
C
102
}
330
C
100
AcDbDictionary
281
     1
  0
DICTIONARY
  5
D
102
{ACAD_REACTORS
330
C
102
}
330
C
100
AcDbDictionary
281
     1
  0
DICTIONARY
  5
61
102
{ACAD_REACTORS
330
C
102
}
330
C
100
AcDbDictionary
281
     1
  3
Model
350
6E
  3
レイアウト1
350
6A
  0
DICTIONARY
  5
10
102
{ACAD_REACTORS
330
C
102
}
330
C
100
AcDbDictionary
281
     1
  3
ByBlock
350
19
  3
ByLayer
350
11
  3
Global
350
21
  0
DICTIONARY
  5
65
102
{ACAD_REACTORS
330
C
102
}
330
C
100
AcDbDictionary
281
     1
  3
Standard
350
66
  0
DICTIONARY
  5
5E
102
{ACAD_REACTORS
330
C
102
}
330
C
100
AcDbDictionary
281
     1
  3
Standard
350
5F
  0
DICTIONARY
  5
60
102
{ACAD_REACTORS
330
C
102
}
330
C
100
AcDbDictionary
281
     1
  0
ACDBDICTIONARYWDFLT
  5
E
102
{ACAD_REACTORS
330
C
102
}
330
C
100
AcDbDictionary
281
     1
  3
Normal
350
F
100
AcDbDictionaryWithDefault
340
F
  0
DICTIONARY
  5
42
102
{ACAD_REACTORS
330
C
102
}
330
C
100
AcDbDictionary
281
     1
  3
A0
350
43
  3
A1
350
44
  3
A2
350
45
  3
A3
350
46
  3
A4
350
47
  3
A5
350
48
  3
A6
350
49
  3
A7
350
4A
  3
A8
350
4B
  3
A9
350
4C
  3
B0
350
4D
  3
B1
350
4E
  3
B2
350
4F
  3
B3
350
50
  3
B4
350
51
  3
B5
350
52
  3
B6
350
53
  0
DICTIONARY
  5
63
102
{ACAD_REACTORS
330
C
102
}
330
C
100
AcDbDictionary
281
     1
  3
Standard
350
64
  0
DICTIONARY
  5
29
102
{ACAD_REACTORS
330
C
102
}
330
C
100
AcDbDictionary
281
     1
  3
2dWireframe
350
2F
  3
3dWireframe
350
474
  3
Basic
350
2E
  3
Brighten
350
35
  3
ColorChange
350
39
  3
Conceptual
350
32
  3
Dim
350
34
  3
EdgeColorOff
350
41
  3
Facepattern
350
38
  3
Flat
350
2A
  3
FlatWithEdges
350
2B
  3
Gouraud
350
2C
  3
GouraudWithEdges
350
2D
  3
Hidden
350
31
  3
JitterOff
350
3F
  3
Linepattern
350
37
  3
OverhangOff
350
40
  3
Realistic
350
33
  3
Shaded
350
3E
  3
Shaded with edges
350
3D
  3
Shades of Gray
350
3A
  3
Sketchy
350
3B
  3
Thicken
350
36
  3
Wireframe
350
30
  3
X-Ray
350
3C
  0
XRECORD
  5
1DA8
102
{ACAD_REACTORS
330
C
102
}
330
C
100
AcDbXrecord
280
     1
 90
        1
330
64
  0
DICTIONARY
  5
60F
102
{ACAD_REACTORS
330
C
102
}
330
C
100
AcDbDictionary
281
     1
  3
CANNOSCALE
350
612
  3
CMLEADERSTYLE
350
611
  3
CTABLESTYLE
350
610
  3
DIMASSOC
350
615
  3
INDEXCTL
350
614
  3
SORTENTS
350
613
  3
XCLIPFRAME
350
1C78
  0
XRECORD
  5
1DA9
102
{ACAD_REACTORS
330
C
102
}
330
C
100
AcDbXrecord
280
     1
  1
DWGPROPS COOKIE
  2

  3

  4

  6

  7

  8
imamura
  9

300
=
301
=
302
=
303
=
304
=
305
=
306
=
307
=
308
=
309
=
 40
0.0508248726851852
 41
2456214.640362639
 42
2459893.496686169
  1

 90
        0
  0
DICTIONARY
  5
476
102
{ACAD_REACTORS
330
475
102
}
330
475
100
AcDbDictionary
281
     1
  0
XRECORD
  5
60C
102
{ACAD_REACTORS
330
60B
102
}
330
60B
100
AcDbXrecord
280
     1
290
     1
  0
SORTENTSTABLE
  5
5FB
102
{ACAD_REACTORS
330
5FA
102
}
330
5FA
100
AcDbSortentsTable
330
6B
331
17F7
  5
1D3D
331
17F3
  5
1D35
331
1D05
  5
1842
331
3B7
  5
3B9
331
1D01
  5
183E
331
24D
  5
24F
331
334
  5
336
331
3B3
  5
3B5
331
1CFD
  5
1D0A
331
16AE
  5
1D18
331
D2
  5
D3
331
249
  5
24B
331
36B
  5
377
331
1D77
  5
1674
331
BE
  5
D2
331
245
  5
247
331
1D73
  5
1682
331
278
  5
27A
331
1D6F
  5
1686
331
1D6B
  5
1D0D
331
1DA3
  5
161B
331
1A15
  5
1D9B
331
1836
  5
1D60
331
169F
  5
1CFD
331
1A11
  5
1D97
331
1832
  5
1D5C
331
169B
  5
1CF9
331
165C
  5
1814
331
1625
  5
16A9
331
15BE
  5
15E8
331
1A0D
  5
1D93
331
182E
  5
1D58
331
1697
  5
1CF5
331
1658
  5
1810
331
1621
  5
16A5
331
1587
  5
159E
331
15BA
  5
15D1
331
182A
  5
1D54
331
1693
  5
1A1E
331
1654
  5
17FD
331
161D
  5
16A1
331
1524
  5
153B
331
1583
  5
159A
331
14AE
  5
14AE
331
14ED
  5
1504
331
15B6
  5
15CD
331
1650
  5
17F9
331
1619
  5
169D
331
15B2
  5
15C9
331
14E9
  5
1500
331
1520
  5
1537
331
157F
  5
1596
331
14AA
  5
14AA
331
14E5
  5
14FC
331
151C
  5
1533
331
157B
  5
1592
331
4BE
  5
602
331
4BA
  5
4BC
331
14E1
  5
14F8
331
1518
  5
152F
331
367
  5
369
331
1826
  5
1D50
331
23D
  5
240
331
363
  5
365
331
1822
  5
1D4C
331
1D2C
  5
180A
331
4B6
  5
4B8
331
239
  5
23B
331
35F
  5
361
331
1D28
  5
180E
331
35B
  5
35D
331
4B2
  5
4B4
331
186E
  5
1D85
331
1D67
  5
1D0F
331
235
  5
237
331
274
  5
276
331
1D63
  5
1D15
331
270
  5
272
331
1D5F
  5
1D81
331
1D9E
  5
1627
331
1D5B
  5
1D87
331
1D9A
  5
1629
331
168F
  5
1A1A
331
18C9
  5
1D8E
331
168B
  5
1A15
331
1615
  5
1699
331
17EE
  5
1D30
331
1687
  5
1A11
331
1611
  5
1695
331
1577
  5
158E
331
17EA
  5
1D2C
331
1683
  5
1A0D
331
164C
  5
17F5
331
160D
  5
1691
331
14DD
  5
14F4
331
1648
  5
17F1
331
1609
  5
168D
331
15AE
  5
15C5
331
14D9
  5
14EF
331
15AA
  5
15C1
331
14D5
  5
14E9
331
1514
  5
152B
331
154B
  5
1589
331
14D1
  5
14E5
331
1510
  5
1527
331
181A
  5
1D19
331
1D24
  5
182B
331
357
  5
359
331
4AE
  5
4B0
331
1D20
  5
1827
331
18C6
  5
1D8B
331
26C
  5
26E
331
353
  5
355
331
4AA
  5
4AC
331
1D1C
  5
1823
331
3CE
  5
49F
331
1812
  5
14D3
331
268
  5
26A
331
34F
  5
351
331
1D18
  5
1833
331
34B
  5
34D
331
3CA
  5
3CC
331
1D96
  5
163D
331
264
  5
266
331
15F5
  5
1662
331
1D92
  5
1647
331
1D53
  5
1606
331
260
  5
262
331
15F1
  5
165E
331
1D8E
  5
1650
331
1D4F
  5
1622
331
1D8A
  5
1657
331
17E6
  5
1D28
331
167F
  5
18CA
331
1851
  5
1D7B
331
167B
  5
18C6
331
1644
  5
17ED
331
15E5
  5
15FD
331
184D
  5
1D77
331
17DE
  5
1D23
331
1677
  5
1869
331
1640
  5
17E9
331
1547
  5
1585
331
15A6
  5
15BD
331
15E1
  5
15F9
331
1849
  5
1D73
331
17DA
  5
1D1F
331
1673
  5
1856
331
163C
  5
17DF
331
15A2
  5
15B9
331
15DD
  5
15F5
331
14CD
  5
14E1
331
150C
  5
1523
331
1638
  5
17DB
331
1508
  5
151F
331
153F
  5
157F
331
159E
  5
15B5
331
14C9
  5
14DC
331
159A
  5
15B1
331
1504
  5
151B
331
153B
  5
1552
331
14C1
  5
14CF
331
1500
  5
1517
331
180E
  5
14D8
331
1D14
  5
182F
331
347
  5
349
331
3C6
  5
3C8
331
17FE
  5
1D44
331
1D10
  5
183D
331
343
  5
345
331
3C2
  5
3C4
331
17FA
  5
1D40
331
1D0C
  5
1839
331
3BE
  5
3C0
331
15FD
  5
1678
331
258
  5
25A
331
1D08
  5
1845
331
1D86
  5
1659
331
1D47
  5
1632
331
33B
  5
33D
331
3BA
  5
3BC
331
1605
  5
1689
331
1D82
  5
1665
331
250
  5
252
331
1D7E
  5
1669
331
1D3F
  5
1648
331
1D7A
  5
166F
331
1D3B
  5
1654
331
1845
  5
1D6F
331
17D6
  5
1D1B
331
166F
  5
184D
331
1A20
  5
1DA5
331
1841
  5
1D6B
331
166B
  5
1849
331
1634
  5
17D7
331
1A1C
  5
1DA1
331
183D
  5
1D67
331
16A6
  5
1D04
331
1630
  5
17CD
331
1596
  5
15AD
331
15C9
  5
15F4
331
1537
  5
154E
331
1A18
  5
1D9D
331
1839
  5
1D63
331
16A2
  5
1D00
331
1663
  5
1820
331
162C
  5
16B0
331
1533
  5
154A
331
1592
  5
15A9
331
14BD
  5
14C0
331
14FC
  5
1513
331
15C5
  5
15EF
331
1628
  5
16AC
331
15C1
  5
15EB
331
14F8
  5
150F
331
152F
  5
1546
331
158E
  5
15A5
331
14B9
  5
14BA
331
14B5
  5
14B6
331
14F4
  5
150B
331
152B
  5
1542
331
158A
  5
15A1
331
14B1
  5
14B1
331
14F0
  5
1507
331
17F6
  5
1D3C
331
17F2
  5
1D34
331
1D04
  5
1841
331
337
  5
339
331
3B6
  5
3B8
331
24C
  5
24E
331
333
  5
335
331
3B2
  5
3B4
331
1CFC
  5
1D09
331
248
  5
24A
331
36A
  5
372
331
16A9
  5
1D07
331
1D76
  5
1673
331
BD
  5
BE
331
244
  5
246
331
1D72
  5
1681
331
1D6E
  5
1685
331
1D6A
  5
1D0C
331
1DA6
  5
1612
331
1DA2
  5
1617
331
1A14
  5
1D9A
331
1835
  5
1D5F
331
169E
  5
1CFC
331
165F
  5
1818
331
1A10
  5
1D96
331
1831
  5
1D5B
331
169A
  5
1CF8
331
165B
  5
1813
331
1624
  5
16A8
331
15BD
  5
15E7
331
1A0C
  5
1D92
331
182D
  5
1D57
331
1696
  5
1A21
331
1657
  5
180F
331
1620
  5
16A4
331
1586
  5
159D
331
1527
  5
153E
331
15B9
  5
15D0
331
1829
  5
1D53
331
1692
  5
1A1D
331
1653
  5
17FC
331
161C
  5
16A0
331
1523
  5
153A
331
1582
  5
1599
331
14AD
  5
14AD
331
14EC
  5
1503
331
15B5
  5
15CC
331
1618
  5
169C
331
15B1
  5
15C8
331
14E8
  5
14FF
331
151F
  5
1536
331
157E
  5
1595
331
14A9
  5
14A9
331
4BD
  5
5F9
331
14E4
  5
14FB
331
151B
  5
1532
331
157A
  5
1591
331
4B9
  5
4BB
331
14E0
  5
14F7
331
366
  5
368
331
1825
  5
1D4F
331
23C
  5
23E
331
362
  5
364
331
1821
  5
1D4B
331
1D2B
  5
1800
331
35E
  5
360
331
4B5
  5
4B7
331
238
  5
23A
331
277
  5
279
331
35A
  5
35C
331
4B1
  5
4B3
331
186D
  5
1D84
331
1D66
  5
1D0E
331
234
  5
236
331
273
  5
275
331
1869
  5
1D7F
331
1D62
  5
1D14
331
230
  5
232
331
1D5E
  5
1D80
331
1D9D
  5
1623
331
1D5A
  5
1D86
331
1D99
  5
162F
331
168E
  5
1A19
331
18C8
  5
1D8D
331
168A
  5
1A14
331
1614
  5
1698
331
17ED
  5
1D2F
331
1686
  5
1A10
331
164F
  5
17F8
331
1610
  5
1694
331
1576
  5
158D
331
17E9
  5
1D2B
331
1682
  5
1A0C
331
164B
  5
17F4
331
160C
  5
1690
331
14DC
  5
14F3
331
1608
  5
168C
331
14D8
  5
14EE
331
1517
  5
152E
331
15AD
  5
15C4
331
15A9
  5
15C0
331
14D4
  5
14E8
331
1513
  5
152A
331
154A
  5
1588
331
14D0
  5
14E4
331
1D27
  5
180D
331
1819
  5
1D47
331
1D23
  5
182A
331
26F
  5
271
331
356
  5
358
331
4AD
  5
4AF
331
1D1F
  5
1826
331
1815
  5
14E3
331
18C5
  5
1D8A
331
26B
  5
26D
331
352
  5
354
331
1D1B
  5
1822
331
3CD
  5
49E
331
1811
  5
14D6
331
267
  5
269
331
34E
  5
350
331
34A
  5
34C
331
3C9
  5
3CB
331
1D95
  5
1642
331
15E8
  5
1600
331
263
  5
265
331
15F4
  5
1661
331
1D91
  5
164D
331
15F0
  5
165D
331
1D8D
  5
164F
331
1D4E
  5
1621
331
1D89
  5
1656
331
17E5
  5
1D27
331
167E
  5
18C9
331
1647
  5
17F0
331
1850
  5
1D7A
331
17E1
  5
1D26
331
167A
  5
18C5
331
1643
  5
17EC
331
15E4
  5
15FC
331
184C
  5
1D76
331
17DD
  5
1D22
331
1676
  5
1868
331
163F
  5
17E8
331
1546
  5
1584
331
15A5
  5
15BC
331
150F
  5
1526
331
15E0
  5
15F8
331
1848
  5
1D72
331
17D9
  5
1D1E
331
1672
  5
1855
331
163B
  5
17DE
331
150B
  5
1522
331
14CC
  5
14E0
331
15A1
  5
15B8
331
1507
  5
151E
331
153E
  5
157E
331
159D
  5
15B4
331
14C8
  5
14DB
331
1599
  5
15B0
331
1503
  5
151A
331
153A
  5
1551
331
14C0
  5
14CD
331
1D17
  5
1832
331
1D13
  5
182E
331
25F
  5
261
331
346
  5
348
331
3C5
  5
3C7
331
17FD
  5
1D43
331
1D0F
  5
183C
331
342
  5
344
331
3C1
  5
3C3
331
17F9
  5
1D3F
331
1D0B
  5
1838
331
3BD
  5
3BF
331
15FC
  5
1677
331
1A0
  5
1A2
331
33E
  5
340
331
1D85
  5
1658
331
1D46
  5
1631
331
33A
  5
33C
331
3B9
  5
3BB
331
1604
  5
1688
331
1D81
  5
1664
331
D8
  5
DA
331
1600
  5
167F
331
1D7D
  5
1668
331
1D79
  5
166E
331
1D3A
  5
1653
331
1844
  5
1D6E
331
17D5
  5
1D1A
331
166E
  5
184C
331
1637
  5
17DA
331
1A1F
  5
1DA4
331
1840
  5
1D6A
331
166A
  5
1848
331
1633
  5
17D6
331
1A1B
  5
1DA0
331
183C
  5
1D66
331
16A5
  5
1D03
331
162F
  5
17CC
331
1536
  5
154D
331
1595
  5
15AC
331
14FF
  5
1516
331
15C8
  5
15F2
331
1838
  5
1D62
331
16A1
  5
1CFF
331
1662
  5
181F
331
162B
  5
16AF
331
1532
  5
1549
331
1591
  5
15A8
331
15C4
  5
15EE
331
14BC
  5
14BF
331
14FB
  5
1512
331
15C0
  5
15EA
331
14F7
  5
150E
331
152E
  5
1545
331
158D
  5
15A4
331
14B8
  5
14B9
331
1589
  5
15A0
331
14B4
  5
14B5
331
14F3
  5
150A
331
152A
  5
1541
331
14B0
  5
14B0
331
17F5
  5
1D39
331
1D07
  5
1844
331
17F1
  5
1D33
331
1D03
  5
1840
331
336
  5
338
331
D4
  5
D5
331
24B
  5
24D
331
332
  5
334
331
1CFB
  5
1D08
331
16AC
  5
1D13
331
247
  5
249
331
369
  5
36B
331
16A8
  5
1D06
331
1D75
  5
1672
331
BC
  5
BC
331
243
  5
245
331
1D71
  5
1680
331
1D6D
  5
1684
331
1D69
  5
1D0B
331
1DA5
  5
160D
331
1A17
  5
1D9C
331
1DA1
  5
1616
331
1A13
  5
1D99
331
1834
  5
1D5E
331
169D
  5
1CFB
331
165E
  5
1817
331
1627
  5
16AB
331
1A0F
  5
1D95
331
1830
  5
1D5A
331
1699
  5
1CF7
331
165A
  5
1812
331
1623
  5
16A7
331
15BC
  5
15E6
331
1A0B
  5
1D91
331
182C
  5
1D56
331
1695
  5
1A20
331
161F
  5
16A3
331
1585
  5
159C
331
15B8
  5
15CF
331
14EF
  5
1506
331
1526
  5
153D
331
1828
  5
1D52
331
1691
  5
1A1C
331
1652
  5
17FB
331
161B
  5
169F
331
1522
  5
1539
331
1581
  5
1598
331
14AC
  5
14AC
331
14EB
  5
1502
331
15B4
  5
15CB
331
15B0
  5
15C7
331
14E7
  5
14FE
331
151E
  5
1535
331
157D
  5
1594
331
14A8
  5
14A8
331
4BC
  5
4BE
331
14E3
  5
14FA
331
151A
  5
1531
331
1579
  5
1590
331
4B8
  5
4BA
331
365
  5
367
331
1824
  5
1D4E
331
23B
  5
23D
331
361
  5
363
331
1820
  5
1D4A
331
1D2A
  5
17FF
331
35D
  5
35F
331
4B4
  5
4B6
331
237
  5
239
331
276
  5
278
331
272
  5
274
331
359
  5
35B
331
4B0
  5
4B2
331
1D65
  5
1D11
331
233
  5
235
331
1868
  5
1D7E
331
1D61
  5
1D17
331
1D5D
  5
1D83
331
1D9C
  5
162E
331
1D59
  5
1D89
331
1D98
  5
163F
331
18CB
  5
1D90
331
168D
  5
1A18
331
1617
  5
169B
331
1867
  5
1D7D
331
1689
  5
1A13
331
1613
  5
1697
331
17EC
  5
1D2E
331
1685
  5
1A0F
331
164E
  5
17F7
331
160F
  5
1693
331
14DF
  5
14F6
331
1575
  5
158C
331
17E8
  5
1D2A
331
1681
  5
1A0B
331
164A
  5
17F3
331
160B
  5
168F
331
14DB
  5
14F2
331
14D7
  5
14EB
331
1516
  5
152D
331
154D
  5
158B
331
15AC
  5
15C3
331
15A8
  5
15BF
331
14D3
  5
14E7
331
1512
  5
1529
331
1549
  5
1587
331
1D26
  5
180C
331
1818
  5
1D48
331
1D22
  5
1829
331
26E
  5
270
331
355
  5
357
331
4AC
  5
4AE
331
1814
  5
1D46
331
1D1E
  5
1825
331
15EF
  5
165C
331
26A
  5
26C
331
351
  5
353
331
1D1A
  5
1835
331
34D
  5
34F
331
3CC
  5
3CE
331
266
  5
268
331
349
  5
34B
331
3C8
  5
3CA
331
1D94
  5
1641
331
1D55
  5
1608
331
262
  5
264
331
15F3
  5
1660
331
1D90
  5
164C
331
1D8C
  5
164E
331
1D4D
  5
161D
331
1D88
  5
1655
331
1D49
  5
1634
331
167D
  5
18C8
331
1646
  5
17EF
331
15E7
  5
15FF
331
184F
  5
1D79
331
17E0
  5
1D25
331
1679
  5
186E
331
1642
  5
17EB
331
15E3
  5
15FB
331
184B
  5
1D75
331
17DC
  5
1D21
331
1675
  5
1867
331
163E
  5
17E6
331
1545
  5
1583
331
15A4
  5
15BB
331
150E
  5
1525
331
15DF
  5
15F7
331
17D8
  5
1D1D
331
1671
  5
184F
331
163A
  5
17DD
331
150A
  5
1521
331
1541
  5
1581
331
15A0
  5
15B7
331
14CB
  5
14DE
331
14C7
  5
14DA
331
1506
  5
151D
331
153D
  5
157D
331
159C
  5
15B3
331
1598
  5
15AF
331
14C3
  5
14D9
331
1502
  5
1519
331
1539
  5
1550
331
1D16
  5
1831
331
1D12
  5
182D
331
25E
  5
260
331
345
  5
347
331
3C4
  5
3C6
331
17FC
  5
1D42
331
1D0E
  5
183B
331
3C0
  5
3C2
331
15FF
  5
167A
331
341
  5
343
331
17F8
  5
1D3E
331
1D0A
  5
1837
331
3BC
  5
3BE
331
15FB
  5
1676
331
33D
  5
33F
331
339
  5
33B
331
3B8
  5
3BA
331
1607
  5
168B
331
1D84
  5
165B
331
1D45
  5
1630
331
252
  5
254
331
1D80
  5
1667
331
1D41
  5
164A
331
1D7C
  5
166B
331
1D78
  5
1671
331
1D39
  5
1652
331
1847
  5
1D71
331
1843
  5
1D6D
331
166D
  5
184B
331
1636
  5
17D9
331
1A1E
  5
1DA3
331
183F
  5
1D69
331
1669
  5
1847
331
1632
  5
17D5
331
1A1A
  5
1D9F
331
183B
  5
1D65
331
16A4
  5
1D02
331
162E
  5
16B2
331
1535
  5
154C
331
1594
  5
15AB
331
14BF
  5
14C9
331
14FE
  5
1515
331
15C7
  5
15F1
331
16A0
  5
1CFE
331
1661
  5
181A
331
162A
  5
16AE
331
14FA
  5
1511
331
1531
  5
1548
331
1590
  5
15A7
331
15C3
  5
15ED
331
14BB
  5
14BE
331
14F6
  5
150D
331
152D
  5
1544
331
158C
  5
15A3
331
14B7
  5
14B8
331
1588
  5
159F
331
14B3
  5
14B4
331
14F2
  5
1509
331
1529
  5
1540
331
17F4
  5
1D38
331
1D06
  5
1843
331
17F0
  5
1D32
331
1D02
  5
183F
331
24E
  5
250
331
335
  5
337
331
3B4
  5
3B6
331
D7
  5
D9
331
D3
  5
D4
331
24A
  5
24C
331
16AB
  5
1D12
331
246
  5
248
331
368
  5
36A
331
1D74
  5
1675
331
BB
  5
BB
331
242
  5
244
331
1D70
  5
1683
331
1D6C
  5
1687
331
1D68
  5
1D10
331
1DA4
  5
160C
331
1837
  5
1D61
331
1DA0
  5
161C
331
1A12
  5
1D98
331
1833
  5
1D5D
331
169C
  5
1CFA
331
165D
  5
1815
331
1626
  5
16AA
331
15BF
  5
15E9
331
1A0E
  5
1D94
331
182F
  5
1D59
331
1698
  5
1CF6
331
1659
  5
1811
331
1622
  5
16A6
331
15BB
  5
15E5
331
182B
  5
1D55
331
1694
  5
1A1F
331
161E
  5
16A2
331
1525
  5
153C
331
1584
  5
159B
331
14AF
  5
14AF
331
14EE
  5
1505
331
15B7
  5
15CE
331
1690
  5
1A1B
331
1651
  5
17FA
331
161A
  5
169E
331
1521
  5
1538
331
1580
  5
1597
331
15B3
  5
15CA
331
14AB
  5
14AB
331
14EA
  5
1501
331
14E6
  5
14FD
331
151D
  5
1534
331
157C
  5
1593
331
1578
  5
158F
331
4BB
  5
4BD
331
14E2
  5
14F9
331
1519
  5
1530
331
1827
  5
1D51
331
364
  5
366
331
1823
  5
1D4D
331
4B7
  5
4B9
331
23A
  5
23C
331
360
  5
362
331
1D29
  5
17FE
331
35C
  5
35E
331
4B3
  5
4B5
331
236
  5
238
331
275
  5
277
331
271
  5
273
331
358
  5
35A
331
1D64
  5
1D16
331
232
  5
234
331
1D60
  5
1D82
331
1D9F
  5
1628
331
1D5C
  5
1D88
331
1D9B
  5
162D
331
18CA
  5
1D8F
331
168C
  5
1A17
331
1616
  5
169A
331
1866
  5
1D7C
331
17EF
  5
1D31
331
1688
  5
1A12
331
1612
  5
1696
331
17EB
  5
1D2D
331
1684
  5
1A0E
331
164D
  5
17F6
331
160E
  5
1692
331
14DE
  5
14F5
331
1680
  5
18CB
331
1649
  5
17F2
331
160A
  5
168E
331
15AF
  5
15C6
331
14DA
  5
14F1
331
15AB
  5
15C2
331
14D6
  5
14EA
331
1515
  5
152C
331
154C
  5
158A
331
14D2
  5
14E6
331
1511
  5
1528
331
1548
  5
1586
331
181F
  5
1D49
331
1D25
  5
180B
331
4AF
  5
4B1
331
1D21
  5
1828
331
18C7
  5
1D8C
331
22E
  5
230
331
26D
  5
26F
331
354
  5
356
331
4AB
  5
4AD
331
1813
  5
1D45
331
1D1D
  5
1824
331
269
  5
26B
331
350
  5
352
331
1D19
  5
1834
331
34C
  5
34E
331
3CB
  5
3CD
331
1D97
  5
163E
331
206
  5
20F
331
265
  5
267
331
15F6
  5
1663
331
1D93
  5
1640
331
1D54
  5
1607
331
261
  5
263
331
348
  5
34A
331
15F2
  5
165F
331
1D8F
  5
164B
331
1D8B
  5
1651
331
1D48
  5
1633
331
17E7
  5
1D29
331
167C
  5
18C7
331
1645
  5
17EE
331
15E6
  5
15FE
331
184E
  5
1D78
331
17DF
  5
1D24
331
1678
  5
186D
331
1641
  5
17EA
331
15A7
  5
15BE
331
15E2
  5
15FA
331
184A
  5
1D74
331
17DB
  5
1D20
331
1674
  5
1866
331
163D
  5
17E5
331
1544
  5
1582
331
15A3
  5
15BA
331
150D
  5
1524
331
15DE
  5
15F6
331
1670
  5
184E
331
1639
  5
17DC
331
1509
  5
1520
331
1540
  5
1580
331
159F
  5
15B6
331
14CA
  5
14DD
331
1505
  5
151C
331
153C
  5
1553
331
159B
  5
15B2
331
14C2
  5
14D0
331
1501
  5
1518
331
1538
  5
154F
331
180F
  5
14D7
331
1D15
  5
1830
331
3C7
  5
3C9
331
180B
  5
14E2
331
1D11
  5
182C
331
344
  5
346
331
3C3
  5
3C5
331
17FB
  5
1D41
331
1D0D
  5
183A
331
3BF
  5
3C1
331
15FE
  5
1679
331
340
  5
342
331
1D09
  5
1836
331
1D87
  5
165A
331
33C
  5
33E
331
3BB
  5
3BD
331
1606
  5
168A
331
1D83
  5
1666
331
338
  5
33A
331
1D7F
  5
166A
331
1D40
  5
1649
331
1D7B
  5
1670
331
1846
  5
1D70
331
17D7
  5
1D1C
331
1A21
  5
1DA6
331
1842
  5
1D6C
331
166C
  5
184A
331
1635
  5
17D8
331
1A1D
  5
1DA2
331
183E
  5
1D68
331
16A7
  5
1D05
331
1668
  5
1846
331
1631
  5
17CE
331
1597
  5
15AE
331
1A19
  5
1D9E
331
183A
  5
1D64
331
16A3
  5
1D01
331
162D
  5
16B1
331
1534
  5
154B
331
1593
  5
15AA
331
14BE
  5
14C5
331
14FD
  5
1514
331
15C6
  5
15F0
331
1660
  5
1819
331
1629
  5
16AD
331
15C2
  5
15EC
331
14F9
  5
1510
331
1530
  5
1547
331
158F
  5
15A6
331
14BA
  5
14BC
331
14B6
  5
14B7
331
14F5
  5
150C
331
152C
  5
1543
331
158B
  5
15A2
331
14B2
  5
14B3
331
14F1
  5
1508
331
1528
  5
153F
  0
XRECORD
  5
1DAC
102
{ACAD_REACTORS
330
1DAA
102
}
330
1DAA
100
AcDbXrecord
280
     1
 70
     2
  0
XRECORD
  5
1DAB
102
{ACAD_REACTORS
330
1DAA
102
}
330
1DAA
100
AcDbXrecord
280
     1
 40
1.25
  0
XRECORD
  5
1DAD
102
{ACAD_REACTORS
330
1DAA
102
}
330
1DAA
100
AcDbXrecord
280
     1
 40
1.570796326794896
  0
LAYOUT
  5
6E
102
{ACAD_XDICTIONARY
360
1DE1
102
}
102
{ACAD_REACTORS
330
61
102
}
330
61
100
AcDbPlotSettings
  1

  2
FX DP 205
  4

  6

 40
0.0
 41
0.0
 42
0.0
 43
0.0
 44
0.0
 45
0.0
 46
0.0
 47
0.0
 48
0.0
 49
0.0
140
0.0
141
0.0
142
1.0
143
1.0
 70
  1712
 72
     0
 73
     0
 74
     0
  7

 75
     0
147
1.0
148
0.0
149
0.0
100
AcDbLayout
  1
Model
 70
     1
 71
     0
 10
0.0
 20
0.0
 11
12.0
 21
9.0
 12
0.0
 22
0.0
 32
0.0
 14
0.0
 24
0.0
 34
0.0
 15
0.0
 25
0.0
 35
0.0
146
0.0
 13
0.0
 23
0.0
 33
0.0
 16
1.0
 26
0.0
 36
0.0
 17
0.0
 27
1.0
 37
0.0
 76
     0
330
6B
331
8B
  0
LAYOUT
  5
6A
102
{ACAD_XDICTIONARY
360
1DDF
102
}
102
{ACAD_REACTORS
330
61
102
}
330
61
100
AcDbPlotSettings
  1

  2
FX DP 205
  4

  6

 40
0.0
 41
0.0
 42
0.0
 43
0.0
 44
0.0
 45
0.0
 46
0.0
 47
0.0
 48
0.0
 49
0.0
140
0.0
141
0.0
142
1.0
143
1.0
 70
   688
 72
     0
 73
     0
 74
     5
  7

 75
    16
147
1.0
148
0.0
149
0.0
100
AcDbLayout
  1
レイアウト1
 70
     1
 71
     1
 10
0.0
 20
0.0
 11
12.0
 21
9.0
 12
0.0
 22
0.0
 32
0.0
 14
1.000000000000000E+20
 24
1.000000000000000E+20
 34
1.000000000000000E+20
 15
-1.000000000000000E+20
 25
-1.000000000000000E+20
 35
-1.000000000000000E+20
146
0.0
 13
0.0
 23
0.0
 33
0.0
 16
1.0
 26
0.0
 36
0.0
 17
0.0
 27
1.0
 37
0.0
 76
     0
330
67
  0
MATERIAL
  5
19
102
{ACAD_XDICTIONARY
360
1A
102
}
102
{ACAD_REACTORS
330
10
102
}
330
10
100
AcDbMaterial
  1
ByBlock
 72
     0
 43
0.0208333333333333
 43
0.0
 43
0.0
 43
0.0
 43
0.0
 43
0.0208333333333333
 43
0.0
 43
0.0
 43
0.0
 43
0.0
 43
1.0
 43
0.0
 43
0.0
 43
0.0
 43
0.0
 43
1.0
 77
     0
 47
0.0208333333333333
 47
0.0
 47
0.0
 47
0.0
 47
0.0
 47
0.0208333333333333
 47
0.0
 47
0.0
 47
0.0
 47
0.0
 47
1.0
 47
0.0
 47
0.0
 47
0.0
 47
0.0
 47
1.0
171
     0
 49
0.0208333333333333
 49
0.0
 49
0.0
 49
0.0
 49
0.0
 49
0.0208333333333333
 49
0.0
 49
0.0
 49
0.0
 49
0.0
 49
1.0
 49
0.0
 49
0.0
 49
0.0
 49
0.0
 49
1.0
175
     0
142
0.0208333333333333
142
0.0
142
0.0
142
0.0
142
0.0
142
0.0208333333333333
142
0.0
142
0.0
142
0.0
142
0.0
142
1.0
142
0.0
142
0.0
142
0.0
142
0.0
142
1.0
179
     0
144
0.0208333333333333
144
0.0
144
0.0
144
0.0
144
0.0
144
0.0208333333333333
144
0.0
144
0.0
144
0.0
144
0.0
144
1.0
144
0.0
144
0.0
144
0.0
144
0.0
144
1.0
147
0.0208333333333333
147
0.0
147
0.0
147
0.0
147
0.0
147
0.0208333333333333
147
0.0
147
0.0
147
0.0
147
0.0
147
1.0
147
0.0
147
0.0
147
0.0
147
0.0
147
1.0
  0
MATERIAL
  5
11
102
{ACAD_XDICTIONARY
360
12
102
}
102
{ACAD_REACTORS
330
10
102
}
330
10
100
AcDbMaterial
  1
ByLayer
 72
     0
 43
0.0208333333333333
 43
0.0
 43
0.0
 43
0.0
 43
0.0
 43
0.0208333333333333
 43
0.0
 43
0.0
 43
0.0
 43
0.0
 43
1.0
 43
0.0
 43
0.0
 43
0.0
 43
0.0
 43
1.0
 77
     0
 47
0.0208333333333333
 47
0.0
 47
0.0
 47
0.0
 47
0.0
 47
0.0208333333333333
 47
0.0
 47
0.0
 47
0.0
 47
0.0
 47
1.0
 47
0.0
 47
0.0
 47
0.0
 47
0.0
 47
1.0
171
     0
 49
0.0208333333333333
 49
0.0
 49
0.0
 49
0.0
 49
0.0
 49
0.0208333333333333
 49
0.0
 49
0.0
 49
0.0
 49
0.0
 49
1.0
 49
0.0
 49
0.0
 49
0.0
 49
0.0
 49
1.0
175
     0
142
0.0208333333333333
142
0.0
142
0.0
142
0.0
142
0.0
142
0.0208333333333333
142
0.0
142
0.0
142
0.0
142
0.0
142
1.0
142
0.0
142
0.0
142
0.0
142
0.0
142
1.0
179
     0
144
0.0208333333333333
144
0.0
144
0.0
144
0.0
144
0.0
144
0.0208333333333333
144
0.0
144
0.0
144
0.0
144
0.0
144
1.0
144
0.0
144
0.0
144
0.0
144
0.0
144
1.0
147
0.0208333333333333
147
0.0
147
0.0
147
0.0
147
0.0
147
0.0208333333333333
147
0.0
147
0.0
147
0.0
147
0.0
147
1.0
147
0.0
147
0.0
147
0.0
147
0.0
147
1.0
  0
MATERIAL
  5
21
102
{ACAD_XDICTIONARY
360
22
102
}
102
{ACAD_REACTORS
330
10
102
}
330
10
100
AcDbMaterial
  1
Global
 72
     0
 43
0.0208333333333333
 43
0.0
 43
0.0
 43
0.0
 43
0.0
 43
0.0208333333333333
 43
0.0
 43
0.0
 43
0.0
 43
0.0
 43
1.0
 43
0.0
 43
0.0
 43
0.0
 43
0.0
 43
1.0
 77
     0
 47
0.0208333333333333
 47
0.0
 47
0.0
 47
0.0
 47
0.0
 47
0.0208333333333333
 47
0.0
 47
0.0
 47
0.0
 47
0.0
 47
1.0
 47
0.0
 47
0.0
 47
0.0
 47
0.0
 47
1.0
171
     0
 49
0.0208333333333333
 49
0.0
 49
0.0
 49
0.0
 49
0.0
 49
0.0208333333333333
 49
0.0
 49
0.0
 49
0.0
 49
0.0
 49
1.0
 49
0.0
 49
0.0
 49
0.0
 49
0.0
 49
1.0
175
     0
142
0.0208333333333333
142
0.0
142
0.0
142
0.0
142
0.0
142
0.0208333333333333
142
0.0
142
0.0
142
0.0
142
0.0
142
1.0
142
0.0
142
0.0
142
0.0
142
0.0
142
1.0
179
     0
144
0.0208333333333333
144
0.0
144
0.0
144
0.0
144
0.0
144
0.0208333333333333
144
0.0
144
0.0
144
0.0
144
0.0
144
1.0
144
0.0
144
0.0
144
0.0
144
0.0
144
1.0
147
0.0208333333333333
147
0.0
147
0.0
147
0.0
147
0.0
147
0.0208333333333333
147
0.0
147
0.0
147
0.0
147
0.0
147
1.0
147
0.0
147
0.0
147
0.0
147
0.0
147
1.0
  0
MLEADERSTYLE
  5
66
102
{ACAD_REACTORS
330
65
102
}
330
65
100
AcDbMLeaderStyle
170
     2
171
     1
172
     0
 90
        2
 40
0.0
 41
0.0
173
     1
 91
-1056964608
340
5A
 92
       -2
290
     1
 42
0.09
291
     1
 43
0.36
  3
Standard
 44
0.18
300

342
55
174
     1
178
     6
175
     1
176
     0
 93
-1056964608
 45
0.18
292
     0
297
     0
 46
0.18
 94
-1056964608
 47
1.0
 49
1.0
140
1.0
293
     1
141
0.0
294
     1
177
     0
142
1.0
295
     0
296
     0
143
0.125
1001
ACAD_MLEADERVER
1070
     2
  0
MLINESTYLE
  5
5F
102
{ACAD_REACTORS
330
5E
102
}
330
5E
100
AcDbMlineStyle
  2
STANDARD
 70
     0
  3

 62
   256
 51
90.0
 52
90.0
 71
     2
 49
0.5
 62
   256
  6
BYLAYER
 49
-0.5
 62
   256
  6
BYLAYER
  0
ACDBPLACEHOLDER
  5
F
102
{ACAD_REACTORS
330
E
102
}
330
E
  0
SCALE
  5
43
102
{ACAD_REACTORS
330
42
102
}
330
42
100
AcDbScale
 70
     0
300
1:1
140
1.0
141
1.0
290
     1
  0
SCALE
  5
44
102
{ACAD_REACTORS
330
42
102
}
330
42
100
AcDbScale
 70
     0
300
1/128" = 1'-0"
140
0.0078125
141
12.0
290
     0
  0
SCALE
  5
45
102
{ACAD_REACTORS
330
42
102
}
330
42
100
AcDbScale
 70
     0
300
1/64" = 1'-0"
140
0.015625
141
12.0
290
     0
  0
SCALE
  5
46
102
{ACAD_REACTORS
330
42
102
}
330
42
100
AcDbScale
 70
     0
300
1/32" = 1'-0"
140
0.03125
141
12.0
290
     0
  0
SCALE
  5
47
102
{ACAD_REACTORS
330
42
102
}
330
42
100
AcDbScale
 70
     0
300
1/16" = 1'-0"
140
0.0625
141
12.0
290
     0
  0
SCALE
  5
48
102
{ACAD_REACTORS
330
42
102
}
330
42
100
AcDbScale
 70
     0
300
3/32" = 1'-0"
140
0.09375
141
12.0
290
     0
  0
SCALE
  5
49
102
{ACAD_REACTORS
330
42
102
}
330
42
100
AcDbScale
 70
     0
300
1/8" = 1'-0"
140
0.125
141
12.0
290
     0
  0
SCALE
  5
4A
102
{ACAD_REACTORS
330
42
102
}
330
42
100
AcDbScale
 70
     0
300
3/16" = 1'-0"
140
0.1875
141
12.0
290
     0
  0
SCALE
  5
4B
102
{ACAD_REACTORS
330
42
102
}
330
42
100
AcDbScale
 70
     0
300
1/4" = 1'-0"
140
0.25
141
12.0
290
     0
  0
SCALE
  5
4C
102
{ACAD_REACTORS
330
42
102
}
330
42
100
AcDbScale
 70
     0
300
3/8" = 1'-0"
140
0.375
141
12.0
290
     0
  0
SCALE
  5
4D
102
{ACAD_REACTORS
330
42
102
}
330
42
100
AcDbScale
 70
     0
300
1/2" = 1'-0"
140
0.5
141
12.0
290
     0
  0
SCALE
  5
4E
102
{ACAD_REACTORS
330
42
102
}
330
42
100
AcDbScale
 70
     0
300
3/4" = 1'-0"
140
0.75
141
12.0
290
     0
  0
SCALE
  5
4F
102
{ACAD_REACTORS
330
42
102
}
330
42
100
AcDbScale
 70
     0
300
1" = 1'-0"
140
1.0
141
12.0
290
     0
  0
SCALE
  5
50
102
{ACAD_REACTORS
330
42
102
}
330
42
100
AcDbScale
 70
     0
300
1-1/2" = 1'-0"
140
1.5
141
12.0
290
     0
  0
SCALE
  5
51
102
{ACAD_REACTORS
330
42
102
}
330
42
100
AcDbScale
 70
     0
300
3" = 1'-0"
140
3.0
141
12.0
290
     0
  0
SCALE
  5
52
102
{ACAD_REACTORS
330
42
102
}
330
42
100
AcDbScale
 70
     0
300
6" = 1'-0"
140
6.0
141
12.0
290
     0
  0
SCALE
  5
53
102
{ACAD_REACTORS
330
42
102
}
330
42
100
AcDbScale
 70
     0
300
1'-0" = 1'-0"
140
12.0
141
12.0
290
     0
  0
TABLESTYLE
  5
64
102
{ACAD_XDICTIONARY
360
617
102
}
102
{ACAD_REACTORS
330
63
102
}
330
63
100
AcDbTableStyle
  3
Standard
 70
     0
 71
     0
 40
0.06
 41
0.06
280
     0
281
     0
  7
STANDARD
140
0.18
170
     2
 62
     0
 63
     7
283
     0
274
    -2
284
     1
 64
     0
275
    -2
285
     1
 65
     0
276
    -2
286
     1
 66
     0
277
    -2
287
     1
 67
     0
278
    -2
288
     1
 68
     0
279
    -2
289
     1
 69
     0
  7
STANDARD
140
0.25
170
     5
 62
     0
 63
     7
283
     0
274
    -2
284
     1
 64
     0
275
    -2
285
     1
 65
     0
276
    -2
286
     1
 66
     0
277
    -2
287
     1
 67
     0
278
    -2
288
     1
 68
     0
279
    -2
289
     1
 69
     0
  7
STANDARD
140
0.18
170
     5
 62
     0
 63
     7
283
     0
274
    -2
284
     1
 64
     0
275
    -2
285
     1
 65
     0
276
    -2
286
     1
 66
     0
277
    -2
287
     1
 67
     0
278
    -2
288
     1
 68
     0
279
    -2
289
     1
 69
     0
  0
VISUALSTYLE
  5
2F
102
{ACAD_XDICTIONARY
360
1DB8
102
}
102
{ACAD_REACTORS
330
29
102
}
330
29
100
AcDbVisualStyle
  2

 70
     4
 71
     0
 72
     2
 73
     0
 90
        0
 40
-0.6
 41
-30.0
 62
     5
 63
     7
 74
     1
 91
        4
 64
     7
 65
   257
 75
     1
175
     1
 42
1.0
 92
        0
 66
   257
 43
1.0
 76
     1
 77
     6
 78
     2
 67
     7
 79
     5
170
     0
171
     0
290
     0
174
     0
 93
        1
 44
0.0
173
     0
291
     0
 45
0.0
1001
ACAD
1000
AcDbSavedByObjectVersion
1070
     0
  0
VISUALSTYLE
  5
474
102
{ACAD_XDICTIONARY
360
1DE3
102
}
102
{ACAD_REACTORS
330
29
102
}
330
29
100
AcDbVisualStyle
  2

 70
     5
 71
     0
 72
     2
 73
     1
 90
        0
 40
-0.6
 41
-30.0
 62
     5
 63
     7
 74
     1
 91
        4
 64
     7
 65
   257
 75
     1
175
     1
 42
1.0
 92
        0
 66
   257
 43
1.0
 76
     1
 77
     6
 78
     2
 67
     7
 79
     5
170
     0
171
     0
290
     0
174
     0
 93
        1
 44
0.0
173
     0
291
     0
 45
0.0
1001
ACAD
1000
AcDbSavedByObjectVersion
1070
     0
  0
VISUALSTYLE
  5
2E
102
{ACAD_XDICTIONARY
360
1DB6
102
}
102
{ACAD_REACTORS
330
29
102
}
330
29
100
AcDbVisualStyle
  2

 70
     7
 71
     1
 72
     0
 73
     1
 90
        0
 40
-0.6
 41
-30.0
 62
     5
 63
     7
 74
     0
 91
        4
 64
     7
 65
   257
 75
     1
175
     1
 42
1.0
 92
        8
 66
     7
 43
1.0
 76
     1
 77
     6
 78
     2
 67
     7
 79
     5
170
     0
171
     0
290
     0
174
     0
 93
        1
 44
0.0
173
     0
291
     1
 45
0.0
1001
ACAD
1000
AcDbSavedByObjectVersion
1070
     0
  0
VISUALSTYLE
  5
35
102
{ACAD_XDICTIONARY
360
1DC4
102
}
102
{ACAD_REACTORS
330
29
102
}
330
29
100
AcDbVisualStyle
  2

 70
    12
 71
     2
 72
     2
 73
     0
 90
        0
 40
-0.6
 41
-30.0
 62
     5
 63
     7
 74
     1
 91
        4
 64
     7
 65
   257
 75
     1
175
     1
 42
1.0
 92
        8
 66
     7
 43
1.0
 76
     1
 77
     6
 78
     2
 67
     7
 79
     5
170
     0
171
     0
290
     0
174
     0
 93
        1
 44
50.0
173
     0
291
     1
 45
0.0
1001
ACAD
1000
AcDbSavedByObjectVersion
1070
     0
  0
VISUALSTYLE
  5
39
102
{ACAD_XDICTIONARY
360
1DCC
102
}
102
{ACAD_REACTORS
330
29
102
}
330
29
100
AcDbVisualStyle
  2

 70
    16
 71
     2
 72
     2
 73
     3
 90
        0
 40
-0.6
 41
-30.0
 62
     5
 63
     8
 74
     1
 91
        4
 64
     7
 65
   257
 75
     1
175
     1
 42
1.0
 92
        8
 66
     8
 43
1.0
 76
     1
 77
     6
 78
     2
 67
     7
 79
     5
170
     0
171
     0
290
     0
174
     0
 93
        1
 44
0.0
173
     0
291
     1
 45
0.0
1001
ACAD
1000
AcDbSavedByObjectVersion
1070
     0
  0
VISUALSTYLE
  5
32
102
{ACAD_XDICTIONARY
360
1DBE
102
}
102
{ACAD_REACTORS
330
29
102
}
330
29
100
AcDbVisualStyle
  2

 70
     9
 71
     3
 72
     2
 73
     0
 90
        0
 40
-0.6
 41
-30.0
 62
     5
 63
     7
 74
     2
 91
        2
 64
     7
 65
   257
 75
     1
175
     1
 42
179.0
 92
        8
 66
     7
 43
1.0
 76
     1
 77
     6
 78
     2
 67
     7
 79
     3
170
     0
171
     0
290
     0
174
     0
 93
        1
 44
0.0
173
     0
291
     0
 45
0.0
1001
ACAD
1000
AcDbSavedByObjectVersion
1070
     0
  0
VISUALSTYLE
  5
34
102
{ACAD_XDICTIONARY
360
1DC2
102
}
102
{ACAD_REACTORS
330
29
102
}
330
29
100
AcDbVisualStyle
  2

 70
    11
 71
     2
 72
     2
 73
     0
 90
        0
 40
-0.6
 41
-30.0
 62
     5
 63
     7
 74
     1
 91
        4
 64
     7
 65
   257
 75
     1
175
     1
 42
1.0
 92
        8
 66
     7
 43
1.0
 76
     1
 77
     6
 78
     2
 67
     7
 79
     5
170
     0
171
     0
290
     0
174
     0
 93
        1
 44
-50.0
173
     0
291
     1
 45
0.0
1001
ACAD
1000
AcDbSavedByObjectVersion
1070
     0
  0
VISUALSTYLE
  5
41
102
{ACAD_XDICTIONARY
360
1DDC
102
}
102
{ACAD_REACTORS
330
29
102
}
330
29
100
AcDbVisualStyle
  2

 70
    22
 71
     2
 72
     2
 73
     0
 90
        0
 40
-0.6
 41
-30.0
 62
     5
 63
     7
 74
     1
 91
        4
 64
     7
 65
   257
 75
     1
175
     1
 42
1.0
 92
        8
 66
     7
 43
1.0
 76
     1
 77
     6
 78
     2
 67
     7
 79
     5
170
     0
171
     0
290
     0
174
     0
 93
        1
 44
0.0
173
     0
291
     1
 45
0.0
1001
ACAD
1000
AcDbSavedByObjectVersion
1070
     0
  0
VISUALSTYLE
  5
38
102
{ACAD_XDICTIONARY
360
1DCA
102
}
102
{ACAD_REACTORS
330
29
102
}
330
29
100
AcDbVisualStyle
  2

 70
    15
 71
     2
 72
     2
 73
     0
 90
        0
 40
-0.6
 41
-30.0
 62
     5
 63
     7
 74
     1
 91
        4
 64
     7
 65
   257
 75
     1
175
     1
 42
1.0
 92
        8
 66
     7
 43
1.0
 76
     1
 77
     6
 78
     2
 67
     7
 79
     5
170
     0
171
     0
290
     0
174
     0
 93
        1
 44
0.0
173
     0
291
     1
 45
0.0
1001
ACAD
1000
AcDbSavedByObjectVersion
1070
     0
  0
VISUALSTYLE
  5
2A
102
{ACAD_XDICTIONARY
360
1DAE
102
}
102
{ACAD_REACTORS
330
29
102
}
330
29
100
AcDbVisualStyle
  2

 70
     0
 71
     2
 72
     1
 73
     1
 90
        2
 40
-0.6
 41
30.0
 62
     5
 63
     7
 74
     0
 91
        0
 64
     7
 65
   257
 75
     1
175
     1
 42
1.0
 92
        8
 66
     7
 43
1.0
 76
     1
 77
     6
 78
     2
 67
     7
 79
     5
170
     0
171
     0
290
     0
174
     0
 93
       13
 44
0.0
173
     0
291
     1
 45
0.0
1001
ACAD
1000
AcDbSavedByObjectVersion
1070
     0
  0
VISUALSTYLE
  5
2B
102
{ACAD_XDICTIONARY
360
1DB0
102
}
102
{ACAD_REACTORS
330
29
102
}
330
29
100
AcDbVisualStyle
  2

 70
     1
 71
     2
 72
     1
 73
     1
 90
        2
 40
-0.6
 41
30.0
 62
     5
 63
     7
 74
     1
 91
        0
 64
     7
 65
   257
 75
     1
175
     1
 42
1.0
 92
        0
 66
   257
 43
1.0
 76
     1
 77
     6
 78
     2
 67
     7
 79
     5
170
     0
171
     0
290
     0
174
     0
 93
       13
 44
0.0
173
     0
291
     1
 45
0.0
1001
ACAD
1000
AcDbSavedByObjectVersion
1070
     0
  0
VISUALSTYLE
  5
2C
102
{ACAD_XDICTIONARY
360
1DB2
102
}
102
{ACAD_REACTORS
330
29
102
}
330
29
100
AcDbVisualStyle
  2

 70
     2
 71
     2
 72
     2
 73
     1
 90
        2
 40
-0.6
 41
30.0
 62
     5
 63
     7
 74
     0
 91
        0
 64
     7
 65
   257
 75
     1
175
     1
 42
1.0
 92
        0
 66
     7
 43
1.0
 76
     1
 77
     6
 78
     2
 67
     7
 79
     5
170
     0
171
     0
290
     0
174
     0
 93
       13
 44
0.0
173
     0
291
     1
 45
0.0
1001
ACAD
1000
AcDbSavedByObjectVersion
1070
     0
  0
VISUALSTYLE
  5
2D
102
{ACAD_XDICTIONARY
360
1DB4
102
}
102
{ACAD_REACTORS
330
29
102
}
330
29
100
AcDbVisualStyle
  2

 70
     3
 71
     2
 72
     2
 73
     1
 90
        2
 40
-0.6
 41
30.0
 62
     5
 63
     7
 74
     1
 91
        0
 64
     7
 65
   257
 75
     1
175
     1
 42
1.0
 92
        0
 66
   257
 43
1.0
 76
     1
 77
     6
 78
     2
 67
     7
 79
     5
170
     0
171
     0
290
     0
174
     0
 93
       13
 44
0.0
173
     0
291
     1
 45
0.0
1001
ACAD
1000
AcDbSavedByObjectVersion
1070
     0
  0
VISUALSTYLE
  5
31
102
{ACAD_XDICTIONARY
360
1DBC
102
}
102
{ACAD_REACTORS
330
29
102
}
330
29
100
AcDbVisualStyle
  2

 70
     6
 71
     1
 72
     2
 73
     2
 90
        0
 40
-0.6
 41
-30.0
 62
     5
 63
     7
 74
     2
 91
        2
 64
     7
 65
   257
 75
     2
175
     1
 42
40.0
 92
        0
 66
   257
 43
1.0
 76
     1
 77
     6
 78
     2
 67
     7
 79
     3
170
     0
171
     0
290
     0
174
     0
 93
        1
 44
0.0
173
     0
291
     0
 45
0.0
1001
ACAD
1000
AcDbSavedByObjectVersion
1070
     0
  0
VISUALSTYLE
  5
3F
102
{ACAD_XDICTIONARY
360
1DD8
102
}
102
{ACAD_REACTORS
330
29
102
}
330
29
100
AcDbVisualStyle
  2

 70
    20
 71
     2
 72
     2
 73
     0
 90
        0
 40
-0.6
 41
-30.0
 62
     5
 63
     7
 74
     1
 91
        4
 64
     7
 65
   257
 75
     1
175
     1
 42
1.0
 92
       10
 66
     7
 43
1.0
 76
     1
 77
     6
 78
     2
 67
     7
 79
     5
170
     0
171
     0
290
     0
174
     0
 93
        1
 44
0.0
173
     0
291
     1
 45
0.0
1001
ACAD
1000
AcDbSavedByObjectVersion
1070
     0
  0
VISUALSTYLE
  5
37
102
{ACAD_XDICTIONARY
360
1DC8
102
}
102
{ACAD_REACTORS
330
29
102
}
330
29
100
AcDbVisualStyle
  2

 70
    14
 71
     2
 72
     2
 73
     0
 90
        0
 40
-0.6
 41
-30.0
 62
     5
 63
     7
 74
     1
 91
        4
 64
     7
 65
   257
 75
     7
175
     7
 42
1.0
 92
        8
 66
     7
 43
1.0
 76
     1
 77
     6
 78
     2
 67
     7
 79
     5
170
     0
171
     0
290
     0
174
     0
 93
        1
 44
0.0
173
     0
291
     1
 45
0.0
1001
ACAD
1000
AcDbSavedByObjectVersion
1070
     0
  0
VISUALSTYLE
  5
40
102
{ACAD_XDICTIONARY
360
1DDA
102
}
102
{ACAD_REACTORS
330
29
102
}
330
29
100
AcDbVisualStyle
  2

 70
    21
 71
     2
 72
     2
 73
     0
 90
        0
 40
-0.6
 41
-30.0
 62
     5
 63
     7
 74
     1
 91
        4
 64
     7
 65
   257
 75
     1
175
     1
 42
1.0
 92
        9
 66
     7
 43
1.0
 76
     1
 77
     6
 78
     2
 67
     7
 79
     5
170
     0
171
     0
290
     0
174
     0
 93
        1
 44
0.0
173
     0
291
     1
 45
0.0
1001
ACAD
1000
AcDbSavedByObjectVersion
1070
     0
  0
VISUALSTYLE
  5
33
102
{ACAD_XDICTIONARY
360
1DC0
102
}
102
{ACAD_REACTORS
330
29
102
}
330
29
100
AcDbVisualStyle
  2

 70
     8
 71
     2
 72
     3
 73
     0
 90
        2
 40
-0.6
 41
30.0
 62
     5
 63
     7
 74
     0
 91
        0
 64
     7
 65
   257
 75
     1
175
     1
 42
1.0
 92
        8
 66
   257
 43
1.0
 76
     1
 77
     6
 78
     2
 67
     7
 79
     3
170
     0
171
     0
290
     0
174
     0
 93
       13
 44
0.0
173
     0
291
     0
 45
0.0
1001
ACAD
1000
AcDbSavedByObjectVersion
1070
     0
  0
VISUALSTYLE
  5
3E
102
{ACAD_XDICTIONARY
360
1DD6
102
}
102
{ACAD_REACTORS
330
29
102
}
330
29
100
AcDbVisualStyle
  2

 70
    27
 71
     2
 72
     2
 73
     1
 90
        2
 40
-0.6
 41
30.0
 62
     5
 63
     7
 74
     0
 91
        4
 64
     7
 65
   257
 75
     1
175
     1
 42
1.0
 92
        8
 66
   257
 43
1.0
 76
     1
 77
     6
 78
     2
 67
     8
 79
     3
170
     0
171
     0
290
     0
174
     0
 93
        5
 44
0.0
173
     0
291
     0
 45
0.0
1001
ACAD
1000
AcDbSavedByObjectVersion
1070
     0
  0
VISUALSTYLE
  5
3D
102
{ACAD_XDICTIONARY
360
1DD4
102
}
102
{ACAD_REACTORS
330
29
102
}
330
29
100
AcDbVisualStyle
  2

 70
    26
 71
     2
 72
     2
 73
     1
 90
        2
 40
-0.6
 41
30.0
 62
     5
 63
     7
 74
     1
 91
       10
 64
     7
 65
   257
 75
     2
175
     1
 42
1.0
 92
        8
 66
   257
 43
1.0
 76
     1
 77
     6
 78
     2
 67
     7
 79
     3
170
     0
171
     0
290
     0
174
     0
 93
        5
 44
0.0
173
     0
291
     0
 45
0.0
1001
ACAD
1000
AcDbSavedByObjectVersion
1070
     0
  0
VISUALSTYLE
  5
3A
102
{ACAD_XDICTIONARY
360
1DCE
102
}
102
{ACAD_REACTORS
330
29
102
}
330
29
100
AcDbVisualStyle
  2

 70
    23
 71
     2
 72
     2
 73
     3
 90
        0
 40
-0.6
 41
-30.0
 62
     5
 63
     7
 74
     2
 91
        2
 64
     7
 65
     7
 75
     1
175
     1
 42
40.0
 92
        8
 66
     7
 43
1.0
 76
     1
 77
     6
 78
     2
 67
     7
 79
     3
170
     0
171
     0
290
     0
174
     0
 93
        1
 44
0.0
173
     0
291
     0
 45
0.0
1001
ACAD
1000
AcDbSavedByObjectVersion
1070
     0
  0
VISUALSTYLE
  5
3B
102
{ACAD_XDICTIONARY
360
1DD0
102
}
102
{ACAD_REACTORS
330
29
102
}
330
29
100
AcDbVisualStyle
  2

 70
    24
 71
     1
 72
     2
 73
     2
 90
        0
 40
-0.6
 41
-30.0
 62
     5
 63
     7
 74
     2
 91
        2
 64
     7
 65
     7
 75
     1
175
     1
 42
40.0
 92
       11
 66
     7
 43
1.0
 76
     1
 77
     6
 78
     2
 67
     7
 79
     6
170
     0
171
     0
290
     0
174
     0
 93
        1
 44
0.0
173
     0
291
     0
 45
0.0
1001
ACAD
1000
AcDbSavedByObjectVersion
1070
     0
  0
VISUALSTYLE
  5
36
102
{ACAD_XDICTIONARY
360
1DC6
102
}
102
{ACAD_REACTORS
330
29
102
}
330
29
100
AcDbVisualStyle
  2

 70
    13
 71
     2
 72
     2
 73
     0
 90
        0
 40
-0.6
 41
-30.0
 62
     5
 63
     7
 74
     1
 91
        4
 64
     7
 65
   257
 75
     1
175
     1
 42
1.0
 92
       12
 66
     7
 43
1.0
 76
     1
 77
     6
 78
     2
 67
     7
 79
     5
170
     0
171
     0
290
     0
174
     0
 93
        1
 44
0.0
173
     0
291
     1
 45
0.0
1001
ACAD
1000
AcDbSavedByObjectVersion
1070
     0
  0
VISUALSTYLE
  5
30
102
{ACAD_XDICTIONARY
360
1DBA
102
}
102
{ACAD_REACTORS
330
29
102
}
330
29
100
AcDbVisualStyle
  2

 70
     5
 71
     0
 72
     2
 73
     0
 90
        0
 40
-0.6
 41
-30.0
 62
     5
 63
     7
 74
     1
 91
        4
 64
     7
 65
   257
 75
     1
175
     1
 42
1.0
 92
        0
 66
   257
 43
1.0
 76
     1
 77
     6
 78
     2
 67
     7
 79
     3
170
     0
171
     0
290
     0
174
     0
 93
        1
 44
0.0
173
     0
291
     0
 45
0.0
1001
ACAD
1000
AcDbSavedByObjectVersion
1070
     0
  0
VISUALSTYLE
  5
3C
102
{ACAD_XDICTIONARY
360
1DD2
102
}
102
{ACAD_REACTORS
330
29
102
}
330
29
100
AcDbVisualStyle
  2

 70
    25
 71
     2
 72
     2
 73
     1
 90
        1
 40
0.5
 41
-30.0
 62
     5
 63
     7
 74
     1
 91
        0
 64
     7
 65
   257
 75
     1
175
     1
 42
1.0
 92
        8
 66
     7
 43
1.0
 76
     1
 77
     6
 78
     2
 67
     7
 79
     3
170
     0
171
     0
290
     0
174
     0
 93
       13
 44
0.0
173
     0
291
     0
 45
0.0
1001
ACAD
1000
AcDbSavedByObjectVersion
1070
     0
  0
DICTIONARYVAR
  5
612
102
{ACAD_REACTORS
330
60F
102
}
330
60F
100
DictionaryVariables
280
     0
  1
1:1
  0
DICTIONARYVAR
  5
611
102
{ACAD_REACTORS
330
60F
102
}
330
60F
100
DictionaryVariables
280
     0
  1
STANDARD
  0
DICTIONARYVAR
  5
610
102
{ACAD_REACTORS
330
60F
102
}
330
60F
100
DictionaryVariables
280
     0
  1
STANDARD
  0
DICTIONARYVAR
  5
615
102
{ACAD_REACTORS
330
60F
102
}
330
60F
100
DictionaryVariables
280
     0
  1
1
  0
DICTIONARYVAR
  5
614
102
{ACAD_REACTORS
330
60F
102
}
330
60F
100
DictionaryVariables
280
     0
  1
0
  0
DICTIONARYVAR
  5
613
102
{ACAD_REACTORS
330
60F
102
}
330
60F
100
DictionaryVariables
280
     0
  1
127
  0
DICTIONARYVAR
  5
1C78
102
{ACAD_REACTORS
330
60F
102
}
330
60F
100
DictionaryVariables
280
     0
  1
2
  0
DICTIONARY
  5
1DE1
330
6E
100
AcDbDictionary
280
     1
281
     1
  3
ACAD_XREC_ROUNDTRIP
360
1DE2
  0
DICTIONARY
  5
1DDF
330
6A
100
AcDbDictionary
280
     1
281
     1
  3
ACAD_XREC_ROUNDTRIP
360
1DE0
  0
DICTIONARY
  5
1A
330
19
100
AcDbDictionary
280
     1
281
     1
  3
ACAD_XREC_ROUNDTRIP
360
620
  3
BUMPTILE
360
1C
  3
DIFFUSETILE
360
1B
  3
OPACITYTILE
360
1F
  3
REFLECTIONTILE
360
1E
  3
REFRACTIONTILE
360
20
  3
SPECULARTILE
360
1D
  0
DICTIONARY
  5
12
330
11
100
AcDbDictionary
280
     1
281
     1
  3
ACAD_XREC_ROUNDTRIP
360
61F
  3
BUMPTILE
360
14
  3
DIFFUSETILE
360
13
  3
OPACITYTILE
360
17
  3
REFLECTIONTILE
360
16
  3
REFRACTIONTILE
360
18
  3
SPECULARTILE
360
15
  0
DICTIONARY
  5
22
330
21
100
AcDbDictionary
280
     1
281
     1
  3
ACAD_XREC_ROUNDTRIP
360
621
  3
BUMPTILE
360
24
  3
DIFFUSETILE
360
23
  3
OPACITYTILE
360
27
  3
REFLECTIONTILE
360
26
  3
REFRACTIONTILE
360
28
  3
SPECULARTILE
360
25
  0
DICTIONARY
  5
617
330
64
100
AcDbDictionary
280
     1
281
     1
  3
ACAD_ROUNDTRIP_2008_TABLESTYLE_CELLSTYLEMAP
360
1DA7
  3
ACAD_XREC_ROUNDTRIP
360
1DDE
  0
DICTIONARY
  5
1DB8
330
2F
100
AcDbDictionary
280
     1
281
     1
  3
ACAD_XREC_ROUNDTRIP
360
1DB9
  0
DICTIONARY
  5
1DE3
330
474
100
AcDbDictionary
280
     1
281
     1
  3
ACAD_XREC_ROUNDTRIP
360
1DE4
  0
DICTIONARY
  5
1DB6
330
2E
100
AcDbDictionary
280
     1
281
     1
  3
ACAD_XREC_ROUNDTRIP
360
1DB7
  0
DICTIONARY
  5
1DC4
330
35
100
AcDbDictionary
280
     1
281
     1
  3
ACAD_XREC_ROUNDTRIP
360
1DC5
  0
DICTIONARY
  5
1DCC
330
39
100
AcDbDictionary
280
     1
281
     1
  3
ACAD_XREC_ROUNDTRIP
360
1DCD
  0
DICTIONARY
  5
1DBE
330
32
100
AcDbDictionary
280
     1
281
     1
  3
ACAD_XREC_ROUNDTRIP
360
1DBF
  0
DICTIONARY
  5
1DC2
330
34
100
AcDbDictionary
280
     1
281
     1
  3
ACAD_XREC_ROUNDTRIP
360
1DC3
  0
DICTIONARY
  5
1DDC
330
41
100
AcDbDictionary
280
     1
281
     1
  3
ACAD_XREC_ROUNDTRIP
360
1DDD
  0
DICTIONARY
  5
1DCA
330
38
100
AcDbDictionary
280
     1
281
     1
  3
ACAD_XREC_ROUNDTRIP
360
1DCB
  0
DICTIONARY
  5
1DAE
330
2A
100
AcDbDictionary
280
     1
281
     1
  3
ACAD_XREC_ROUNDTRIP
360
1DAF
  0
DICTIONARY
  5
1DB0
330
2B
100
AcDbDictionary
280
     1
281
     1
  3
ACAD_XREC_ROUNDTRIP
360
1DB1
  0
DICTIONARY
  5
1DB2
330
2C
100
AcDbDictionary
280
     1
281
     1
  3
ACAD_XREC_ROUNDTRIP
360
1DB3
  0
DICTIONARY
  5
1DB4
330
2D
100
AcDbDictionary
280
     1
281
     1
  3
ACAD_XREC_ROUNDTRIP
360
1DB5
  0
DICTIONARY
  5
1DBC
330
31
100
AcDbDictionary
280
     1
281
     1
  3
ACAD_XREC_ROUNDTRIP
360
1DBD
  0
DICTIONARY
  5
1DD8
330
3F
100
AcDbDictionary
280
     1
281
     1
  3
ACAD_XREC_ROUNDTRIP
360
1DD9
  0
DICTIONARY
  5
1DC8
330
37
100
AcDbDictionary
280
     1
281
     1
  3
ACAD_XREC_ROUNDTRIP
360
1DC9
  0
DICTIONARY
  5
1DDA
330
40
100
AcDbDictionary
280
     1
281
     1
  3
ACAD_XREC_ROUNDTRIP
360
1DDB
  0
DICTIONARY
  5
1DC0
330
33
100
AcDbDictionary
280
     1
281
     1
  3
ACAD_XREC_ROUNDTRIP
360
1DC1
  0
DICTIONARY
  5
1DD6
330
3E
100
AcDbDictionary
280
     1
281
     1
  3
ACAD_XREC_ROUNDTRIP
360
1DD7
  0
DICTIONARY
  5
1DD4
330
3D
100
AcDbDictionary
280
     1
281
     1
  3
ACAD_XREC_ROUNDTRIP
360
1DD5
  0
DICTIONARY
  5
1DCE
330
3A
100
AcDbDictionary
280
     1
281
     1
  3
ACAD_XREC_ROUNDTRIP
360
1DCF
  0
DICTIONARY
  5
1DD0
330
3B
100
AcDbDictionary
280
     1
281
     1
  3
ACAD_XREC_ROUNDTRIP
360
1DD1
  0
DICTIONARY
  5
1DC6
330
36
100
AcDbDictionary
280
     1
281
     1
  3
ACAD_XREC_ROUNDTRIP
360
1DC7
  0
DICTIONARY
  5
1DBA
330
30
100
AcDbDictionary
280
     1
281
     1
  3
ACAD_XREC_ROUNDTRIP
360
1DBB
  0
DICTIONARY
  5
1DD2
330
3C
100
AcDbDictionary
280
     1
281
     1
  3
ACAD_XREC_ROUNDTRIP
360
1DD3
  0
XRECORD
  5
1DE2
102
{ACAD_REACTORS
330
1DE1
102
}
330
1DE1
100
AcDbXrecord
280
     1
102
SHADEPLOT
 70
     0
102
SHADEPLOTRESLEVEL
 70
     2
102
SHADEPLOTCUSTOMDPI
 70
   300
  0
XRECORD
  5
1DE0
102
{ACAD_REACTORS
330
1DDF
102
}
330
1DDF
100
AcDbXrecord
280
     1
102
SHADEPLOT
 70
     0
102
SHADEPLOTRESLEVEL
 70
     2
102
SHADEPLOTCUSTOMDPI
 70
   300
  0
XRECORD
  5
620
102
{ACAD_REACTORS
330
1A
102
}
330
1A
100
AcDbXrecord
280
     1
102
MATERIAL
148
0.0
149
0.0
149
0.0
 93
        0
 94
      127
282
     0
 72
     0
 77
     0
171
     0
175
     0
179
     0
273
     0
  0
XRECORD
  5
1C
102
{ACAD_REACTORS
330
1A
102
}
330
1A
100
AcDbXrecord
280
     1
270
     1
271
     1
  0
XRECORD
  5
1B
102
{ACAD_REACTORS
330
1A
102
}
330
1A
100
AcDbXrecord
280
     1
270
     1
271
     1
  0
XRECORD
  5
1F
102
{ACAD_REACTORS
330
1A
102
}
330
1A
100
AcDbXrecord
280
     1
270
     1
271
     1
  0
XRECORD
  5
1E
102
{ACAD_REACTORS
330
1A
102
}
330
1A
100
AcDbXrecord
280
     1
270
     1
271
     1
  0
XRECORD
  5
20
102
{ACAD_REACTORS
330
1A
102
}
330
1A
100
AcDbXrecord
280
     1
270
     1
271
     1
  0
XRECORD
  5
1D
102
{ACAD_REACTORS
330
1A
102
}
330
1A
100
AcDbXrecord
280
     1
270
     1
271
     1
  0
XRECORD
  5
61F
102
{ACAD_REACTORS
330
12
102
}
330
12
100
AcDbXrecord
280
     1
102
MATERIAL
148
0.0
149
0.0
149
0.0
 93
        0
 94
      127
282
     0
 72
     0
 77
     0
171
     0
175
     0
179
     0
273
     0
  0
XRECORD
  5
14
102
{ACAD_REACTORS
330
12
102
}
330
12
100
AcDbXrecord
280
     1
270
     1
271
     1
  0
XRECORD
  5
13
102
{ACAD_REACTORS
330
12
102
}
330
12
100
AcDbXrecord
280
     1
270
     1
271
     1
  0
XRECORD
  5
17
102
{ACAD_REACTORS
330
12
102
}
330
12
100
AcDbXrecord
280
     1
270
     1
271
     1
  0
XRECORD
  5
16
102
{ACAD_REACTORS
330
12
102
}
330
12
100
AcDbXrecord
280
     1
270
     1
271
     1
  0
XRECORD
  5
18
102
{ACAD_REACTORS
330
12
102
}
330
12
100
AcDbXrecord
280
     1
270
     1
271
     1
  0
XRECORD
  5
15
102
{ACAD_REACTORS
330
12
102
}
330
12
100
AcDbXrecord
280
     1
270
     1
271
     1
  0
XRECORD
  5
621
102
{ACAD_REACTORS
330
22
102
}
330
22
100
AcDbXrecord
280
     1
102
MATERIAL
148
0.0
149
0.0
149
0.0
 93
        0
 94
      127
282
     0
 72
     0
 77
     0
171
     0
175
     0
179
     0
273
     0
  0
XRECORD
  5
24
102
{ACAD_REACTORS
330
22
102
}
330
22
100
AcDbXrecord
280
     1
270
     1
271
     1
  0
XRECORD
  5
23
102
{ACAD_REACTORS
330
22
102
}
330
22
100
AcDbXrecord
280
     1
270
     1
271
     1
  0
XRECORD
  5
27
102
{ACAD_REACTORS
330
22
102
}
330
22
100
AcDbXrecord
280
     1
270
     1
271
     1
  0
XRECORD
  5
26
102
{ACAD_REACTORS
330
22
102
}
330
22
100
AcDbXrecord
280
     1
270
     1
271
     1
  0
XRECORD
  5
28
102
{ACAD_REACTORS
330
22
102
}
330
22
100
AcDbXrecord
280
     1
270
     1
271
     1
  0
XRECORD
  5
25
102
{ACAD_REACTORS
330
22
102
}
330
22
100
AcDbXrecord
280
     1
270
     1
271
     1
  0
CELLSTYLEMAP
  5
1DA7
102
{ACAD_REACTORS
330
617
102
}
330
617
100
AcDbCellStyleMap
 90
        3
300
CELLSTYLE
  1
TABLEFORMAT_BEGIN
 90
        5
170
     1
 91
        0
 92
    32768
 62
   257
 93
        1
300
CONTENTFORMAT
  1
CONTENTFORMAT_BEGIN
 90
        0
 91
        0
 92
      512
 93
        0
300

 40
0.0
140
1.0
 94
        5
 62
     0
340
55
144
0.25
309
CONTENTFORMAT_END
171
     1
301
MARGIN
  1
CELLMARGIN_BEGIN
 40
0.06
 40
0.06
 40
0.06
 40
0.06
 40
0.18
 40
0.18
309
CELLMARGIN_END
 94
        6
 95
        1
302
GRIDFORMAT
  1
GRIDFORMAT_BEGIN
 90
        0
 91
        1
 62
     0
 92
       -2
340
0
 93
        0
 40
0.045
309
GRIDFORMAT_END
 95
        2
302
GRIDFORMAT
  1
GRIDFORMAT_BEGIN
 90
        0
 91
        1
 62
     0
 92
       -2
340
0
 93
        0
 40
0.045
309
GRIDFORMAT_END
 95
        4
302
GRIDFORMAT
  1
GRIDFORMAT_BEGIN
 90
        0
 91
        1
 62
     0
 92
       -2
340
0
 93
        0
 40
0.045
309
GRIDFORMAT_END
 95
        8
302
GRIDFORMAT
  1
GRIDFORMAT_BEGIN
 90
        0
 91
        1
 62
     0
 92
       -2
340
0
 93
        0
 40
0.045
309
GRIDFORMAT_END
 95
       16
302
GRIDFORMAT
  1
GRIDFORMAT_BEGIN
 90
        0
 91
        1
 62
     0
 92
       -2
340
0
 93
        0
 40
0.045
309
GRIDFORMAT_END
 95
       32
302
GRIDFORMAT
  1
GRIDFORMAT_BEGIN
 90
        0
 91
        1
 62
     0
 92
       -2
340
0
 93
        0
 40
0.045
309
GRIDFORMAT_END
309
TABLEFORMAT_END
  1
CELLSTYLE_BEGIN
 90
        1
 91
        1
300
_TITLE
309
CELLSTYLE_END
300
CELLSTYLE
  1
TABLEFORMAT_BEGIN
 90
        5
170
     1
 91
        0
 92
        0
 62
   257
 93
        1
300
CONTENTFORMAT
  1
CONTENTFORMAT_BEGIN
 90
        0
 91
        0
 92
      512
 93
        0
300

 40
0.0
140
1.0
 94
        5
 62
     0
340
55
144
0.18
309
CONTENTFORMAT_END
171
     1
301
MARGIN
  1
CELLMARGIN_BEGIN
 40
0.06
 40
0.06
 40
0.06
 40
0.06
 40
0.18
 40
0.18
309
CELLMARGIN_END
 94
        6
 95
        1
302
GRIDFORMAT
  1
GRIDFORMAT_BEGIN
 90
        0
 91
        1
 62
     0
 92
       -2
340
0
 93
        0
 40
0.045
309
GRIDFORMAT_END
 95
        2
302
GRIDFORMAT
  1
GRIDFORMAT_BEGIN
 90
        0
 91
        1
 62
     0
 92
       -2
340
0
 93
        0
 40
0.045
309
GRIDFORMAT_END
 95
        4
302
GRIDFORMAT
  1
GRIDFORMAT_BEGIN
 90
        0
 91
        1
 62
     0
 92
       -2
340
0
 93
        0
 40
0.045
309
GRIDFORMAT_END
 95
        8
302
GRIDFORMAT
  1
GRIDFORMAT_BEGIN
 90
        0
 91
        1
 62
     0
 92
       -2
340
0
 93
        0
 40
0.045
309
GRIDFORMAT_END
 95
       16
302
GRIDFORMAT
  1
GRIDFORMAT_BEGIN
 90
        0
 91
        1
 62
     0
 92
       -2
340
0
 93
        0
 40
0.045
309
GRIDFORMAT_END
 95
       32
302
GRIDFORMAT
  1
GRIDFORMAT_BEGIN
 90
        0
 91
        1
 62
     0
 92
       -2
340
0
 93
        0
 40
0.045
309
GRIDFORMAT_END
309
TABLEFORMAT_END
  1
CELLSTYLE_BEGIN
 90
        2
 91
        1
300
_HEADER
309
CELLSTYLE_END
300
CELLSTYLE
  1
TABLEFORMAT_BEGIN
 90
        5
170
     1
 91
        0
 92
        0
 62
   257
 93
        1
300
CONTENTFORMAT
  1
CONTENTFORMAT_BEGIN
 90
        0
 91
        0
 92
      512
 93
        0
300

 40
0.0
140
1.0
 94
        2
 62
     0
340
55
144
0.18
309
CONTENTFORMAT_END
171
     1
301
MARGIN
  1
CELLMARGIN_BEGIN
 40
0.06
 40
0.06
 40
0.06
 40
0.06
 40
0.18
 40
0.18
309
CELLMARGIN_END
 94
        6
 95
        1
302
GRIDFORMAT
  1
GRIDFORMAT_BEGIN
 90
        0
 91
        1
 62
     0
 92
       -2
340
0
 93
        0
 40
0.045
309
GRIDFORMAT_END
 95
        2
302
GRIDFORMAT
  1
GRIDFORMAT_BEGIN
 90
        0
 91
        1
 62
     0
 92
       -2
340
0
 93
        0
 40
0.045
309
GRIDFORMAT_END
 95
        4
302
GRIDFORMAT
  1
GRIDFORMAT_BEGIN
 90
        0
 91
        1
 62
     0
 92
       -2
340
0
 93
        0
 40
0.045
309
GRIDFORMAT_END
 95
        8
302
GRIDFORMAT
  1
GRIDFORMAT_BEGIN
 90
        0
 91
        1
 62
     0
 92
       -2
340
0
 93
        0
 40
0.045
309
GRIDFORMAT_END
 95
       16
302
GRIDFORMAT
  1
GRIDFORMAT_BEGIN
 90
        0
 91
        1
 62
     0
 92
       -2
340
0
 93
        0
 40
0.045
309
GRIDFORMAT_END
 95
       32
302
GRIDFORMAT
  1
GRIDFORMAT_BEGIN
 90
        0
 91
        1
 62
     0
 92
       -2
340
0
 93
        0
 40
0.045
309
GRIDFORMAT_END
309
TABLEFORMAT_END
  1
CELLSTYLE_BEGIN
 90
        3
 91
        2
300
_DATA
309
CELLSTYLE_END
  0
XRECORD
  5
1DDE
102
{ACAD_REACTORS
330
617
102
}
330
617
100
AcDbXrecord
280
     1
102
ACAD_ROUNDTRIP_PRE2007_TABLESTYLE
 90
      512
 91
        0
  1

 92
      512
 93
        0
  2

 94
      512
 95
        0
  3

  0
XRECORD
  5
1DB9
102
{ACAD_REACTORS
330
1DB8
102
}
330
1DB8
100
AcDbXrecord
280
     1
102
RTVSPropertyOp0
 70
     1
102
RTVSPropertyOp1
 70
     1
102
RTVSPropertyOp2
 70
     1
102
RTVSPropertyOp3
 70
     1
102
RTVSPropertyOp4
 70
     1
102
RTVSPropertyOp5
 70
     1
102
RTVSPropertyOp6
 70
     1
102
RTVSPropertyOp7
 70
     1
102
RTVSPropertyOp8
 70
     1
102
RTVSPropertyOp9
 70
     1
102
RTVSPropertyOp10
 70
     1
102
RTVSPropertyOp11
 70
     1
102
RTVSPropertyOp12
 70
     1
102
RTVSPropertyOp13
 70
     1
102
RTVSPropertyOp14
 70
     1
102
RTVSPropertyOp15
 70
     1
102
RTVSPropertyOp16
 70
     1
102
RTVSPropertyOp17
 70
     1
102
RTVSPropertyOp18
 70
     1
102
RTVSPropertyOp19
 70
     1
102
RTVSPropertyOp20
 70
     1
102
RTVSPropertyOp21
 70
     1
102
RTVSPropertyOp22
 70
     1
102
RTVSPropertyOp23
 70
     1
102
RTVSPropertyOp24
 70
     1
102
RTVSPropertyOp25
 70
     1
102
RTVSPropertyOp26
 70
     1
102
RTVSPropertyOp27
 70
     1
102
RTVSPropertyOp28
 70
     1
102
RTVSPropertyOp29
 70
     1
102
RTVSPropertyOp30
 70
     1
102
RTVSPropertyOp31
 70
     1
102
RTVSPropertyOp32
 70
     1
  0
XRECORD
  5
1DE4
102
{ACAD_REACTORS
330
1DE3
102
}
330
1DE3
100
AcDbXrecord
280
     1
102
RTVSPropertyOp0
 70
     1
102
RTVSPropertyOp1
 70
     1
102
RTVSPropertyOp2
 70
     1
102
RTVSPropertyOp3
 70
     1
102
RTVSPropertyOp4
 70
     1
102
RTVSPropertyOp5
 70
     1
102
RTVSPropertyOp6
 70
     1
102
RTVSPropertyOp7
 70
     1
102
RTVSPropertyOp8
 70
     1
102
RTVSPropertyOp9
 70
     1
102
RTVSPropertyOp10
 70
     1
102
RTVSPropertyOp11
 70
     1
102
RTVSPropertyOp12
 70
     1
102
RTVSPropertyOp13
 70
     1
102
RTVSPropertyOp14
 70
     1
102
RTVSPropertyOp15
 70
     1
102
RTVSPropertyOp16
 70
     1
102
RTVSPropertyOp17
 70
     1
102
RTVSPropertyOp18
 70
     1
102
RTVSPropertyOp19
 70
     1
102
RTVSPropertyOp20
 70
     1
102
RTVSPropertyOp21
 70
     1
102
RTVSPropertyOp22
 70
     1
102
RTVSPropertyOp23
 70
     1
102
RTVSPropertyOp24
 70
     1
102
RTVSPropertyOp25
 70
     1
102
RTVSPropertyOp26
 70
     1
102
RTVSPropertyOp27
 70
     1
102
RTVSPropertyOp28
 70
     1
102
RTVSPropertyOp29
 70
     1
102
RTVSPropertyOp30
 70
     1
102
RTVSPropertyOp31
 70
     1
102
RTVSPropertyOp32
 70
     1
  0
XRECORD
  5
1DB7
102
{ACAD_REACTORS
330
1DB6
102
}
330
1DB6
100
AcDbXrecord
280
     1
102
RTVSPropertyOp0
 70
     1
102
RTVSPropertyOp1
 70
     1
102
RTVSPropertyOp2
 70
     1
102
RTVSPropertyOp3
 70
     1
102
RTVSPropertyOp4
 70
     1
102
RTVSPropertyOp5
 70
     1
102
RTVSPropertyOp6
 70
     1
102
RTVSPropertyOp7
 70
     1
102
RTVSPropertyOp8
 70
     1
102
RTVSPropertyOp9
 70
     1
102
RTVSPropertyOp10
 70
     1
102
RTVSPropertyOp11
 70
     1
102
RTVSPropertyOp12
 70
     1
102
RTVSPropertyOp13
 70
     1
102
RTVSPropertyOp14
 70
     1
102
RTVSPropertyOp15
 70
     1
102
RTVSPropertyOp16
 70
     1
102
RTVSPropertyOp17
 70
     1
102
RTVSPropertyOp18
 70
     1
102
RTVSPropertyOp19
 70
     1
102
RTVSPropertyOp20
 70
     1
102
RTVSPropertyOp21
 70
     1
102
RTVSPropertyOp22
 70
     1
102
RTVSPropertyOp23
 70
     1
102
RTVSPropertyOp24
 70
     1
102
RTVSPropertyOp25
 70
     1
102
RTVSPropertyOp26
 70
     1
102
RTVSPropertyOp27
 70
     1
102
RTVSPropertyOp28
 70
     1
102
RTVSPropertyOp29
 70
     1
102
RTVSPropertyOp30
 70
     1
102
RTVSPropertyOp31
 70
     1
102
RTVSPropertyOp32
 70
     1
  0
XRECORD
  5
1DC5
102
{ACAD_REACTORS
330
1DC4
102
}
330
1DC4
100
AcDbXrecord
280
     1
102
RTVSPropertyOp0
 70
     1
102
RTVSPropertyOp1
 70
     1
102
RTVSPropertyOp2
 70
     1
102
RTVSPropertyOp3
 70
     1
102
RTVSPropertyOp4
 70
     1
102
RTVSPropertyOp5
 70
     1
102
RTVSPropertyOp6
 70
     1
102
RTVSPropertyOp7
 70
     1
102
RTVSPropertyOp8
 70
     1
102
RTVSPropertyOp9
 70
     1
102
RTVSPropertyOp10
 70
     1
102
RTVSPropertyOp11
 70
     1
102
RTVSPropertyOp12
 70
     1
102
RTVSPropertyOp13
 70
     1
102
RTVSPropertyOp14
 70
     1
102
RTVSPropertyOp15
 70
     1
102
RTVSPropertyOp16
 70
     1
102
RTVSPropertyOp17
 70
     1
102
RTVSPropertyOp18
 70
     1
102
RTVSPropertyOp19
 70
     1
102
RTVSPropertyOp20
 70
     1
102
RTVSPropertyOp21
 70
     1
102
RTVSPropertyOp22
 70
     1
102
RTVSPropertyOp23
 70
     1
102
RTVSPropertyOp24
 70
     1
102
RTVSPropertyOp25
 70
     1
102
RTVSPropertyOp26
 70
     1
102
RTVSPropertyOp27
 70
     1
102
RTVSPropertyOp28
 70
     1
102
RTVSPropertyOp29
 70
     1
102
RTVSPropertyOp30
 70
     1
102
RTVSPropertyOp31
 70
     1
102
RTVSPropertyOp32
 70
     1
  0
XRECORD
  5
1DCD
102
{ACAD_REACTORS
330
1DCC
102
}
330
1DCC
100
AcDbXrecord
280
     1
102
RTVSPropertyOp0
 70
     1
102
RTVSPropertyOp1
 70
     1
102
RTVSPropertyOp2
 70
     1
102
RTVSPropertyOp3
 70
     1
102
RTVSPropertyOp4
 70
     1
102
RTVSPropertyOp5
 70
     1
102
RTVSPropertyOp6
 70
     1
102
RTVSPropertyOp7
 70
     1
102
RTVSPropertyOp8
 70
     1
102
RTVSPropertyOp9
 70
     1
102
RTVSPropertyOp10
 70
     1
102
RTVSPropertyOp11
 70
     1
102
RTVSPropertyOp12
 70
     1
102
RTVSPropertyOp13
 70
     1
102
RTVSPropertyOp14
 70
     1
102
RTVSPropertyOp15
 70
     1
102
RTVSPropertyOp16
 70
     1
102
RTVSPropertyOp17
 70
     1
102
RTVSPropertyOp18
 70
     1
102
RTVSPropertyOp19
 70
     1
102
RTVSPropertyOp20
 70
     1
102
RTVSPropertyOp21
 70
     1
102
RTVSPropertyOp22
 70
     1
102
RTVSPropertyOp23
 70
     1
102
RTVSPropertyOp24
 70
     1
102
RTVSPropertyOp25
 70
     1
102
RTVSPropertyOp26
 70
     1
102
RTVSPropertyOp27
 70
     1
102
RTVSPropertyOp28
 70
     1
102
RTVSPropertyOp29
 70
     1
102
RTVSPropertyOp30
 70
     1
102
RTVSPropertyOp31
 70
     1
102
RTVSPropertyOp32
 70
     1
  0
XRECORD
  5
1DBF
102
{ACAD_REACTORS
330
1DBE
102
}
330
1DBE
100
AcDbXrecord
280
     1
102
RTVSPropertyOp0
 70
     1
102
RTVSPropertyOp1
 70
     1
102
RTVSPropertyOp2
 70
     1
102
RTVSPropertyOp3
 70
     1
102
RTVSPropertyOp4
 70
     1
102
RTVSPropertyOp5
 70
     1
102
RTVSPropertyOp6
 70
     1
102
RTVSPropertyOp7
 70
     1
102
RTVSPropertyOp8
 70
     1
102
RTVSPropertyOp9
 70
     1
102
RTVSPropertyOp10
 70
     1
102
RTVSPropertyOp11
 70
     1
102
RTVSPropertyOp12
 70
     1
102
RTVSPropertyOp13
 70
     1
102
RTVSPropertyOp14
 70
     1
102
RTVSPropertyOp15
 70
     1
102
RTVSPropertyOp16
 70
     1
102
RTVSPropertyOp17
 70
     1
102
RTVSPropertyOp18
 70
     1
102
RTVSPropertyOp19
 70
     1
102
RTVSPropertyOp20
 70
     1
102
RTVSPropertyOp21
 70
     1
102
RTVSPropertyOp22
 70
     1
102
RTVSPropertyOp23
 70
     1
102
RTVSPropertyOp24
 70
     1
102
RTVSPropertyOp25
 70
     1
102
RTVSPropertyOp26
 70
     1
102
RTVSPropertyOp27
 70
     1
102
RTVSPropertyOp28
 70
     1
102
RTVSPropertyOp29
 70
     1
102
RTVSPropertyOp30
 70
     1
102
RTVSPropertyOp31
 70
     1
102
RTVSPropertyOp32
 70
     1
  0
XRECORD
  5
1DC3
102
{ACAD_REACTORS
330
1DC2
102
}
330
1DC2
100
AcDbXrecord
280
     1
102
RTVSPropertyOp0
 70
     1
102
RTVSPropertyOp1
 70
     1
102
RTVSPropertyOp2
 70
     1
102
RTVSPropertyOp3
 70
     1
102
RTVSPropertyOp4
 70
     1
102
RTVSPropertyOp5
 70
     1
102
RTVSPropertyOp6
 70
     1
102
RTVSPropertyOp7
 70
     1
102
RTVSPropertyOp8
 70
     1
102
RTVSPropertyOp9
 70
     1
102
RTVSPropertyOp10
 70
     1
102
RTVSPropertyOp11
 70
     1
102
RTVSPropertyOp12
 70
     1
102
RTVSPropertyOp13
 70
     1
102
RTVSPropertyOp14
 70
     1
102
RTVSPropertyOp15
 70
     1
102
RTVSPropertyOp16
 70
     1
102
RTVSPropertyOp17
 70
     1
102
RTVSPropertyOp18
 70
     1
102
RTVSPropertyOp19
 70
     1
102
RTVSPropertyOp20
 70
     1
102
RTVSPropertyOp21
 70
     1
102
RTVSPropertyOp22
 70
     1
102
RTVSPropertyOp23
 70
     1
102
RTVSPropertyOp24
 70
     1
102
RTVSPropertyOp25
 70
     1
102
RTVSPropertyOp26
 70
     1
102
RTVSPropertyOp27
 70
     1
102
RTVSPropertyOp28
 70
     1
102
RTVSPropertyOp29
 70
     1
102
RTVSPropertyOp30
 70
     1
102
RTVSPropertyOp31
 70
     1
102
RTVSPropertyOp32
 70
     1
  0
XRECORD
  5
1DDD
102
{ACAD_REACTORS
330
1DDC
102
}
330
1DDC
100
AcDbXrecord
280
     1
102
RTVSPropertyOp0
 70
     0
102
RTVSPropertyOp1
 70
     0
102
RTVSPropertyOp2
 70
     0
102
RTVSPropertyOp3
 70
     0
102
RTVSPropertyOp4
 70
     0
102
RTVSPropertyOp5
 70
     0
102
RTVSPropertyOp6
 70
     0
102
RTVSPropertyOp7
 70
     0
102
RTVSPropertyOp8
 70
     0
102
RTVSPropertyOp9
 70
     0
102
RTVSPropertyOp10
 70
     0
102
RTVSPropertyOp11
 70
     0
102
RTVSPropertyOp12
 70
     0
102
RTVSPropertyOp13
 70
     0
102
RTVSPropertyOp14
 70
     2
102
RTVSPropertyOp15
 70
     0
102
RTVSPropertyOp16
 70
     0
102
RTVSPropertyOp17
 70
     0
102
RTVSPropertyOp18
 70
     0
102
RTVSPropertyOp19
 70
     0
102
RTVSPropertyOp20
 70
     0
102
RTVSPropertyOp21
 70
     0
102
RTVSPropertyOp22
 70
     0
102
RTVSPropertyOp23
 70
     0
102
RTVSPropertyOp24
 70
     0
102
RTVSPropertyOp25
 70
     0
102
RTVSPropertyOp26
 70
     0
102
RTVSPropertyOp27
 70
     0
102
RTVSPropertyOp28
 70
     0
102
RTVSPropertyOp29
 70
     0
102
RTVSPropertyOp30
 70
     0
102
RTVSPropertyOp31
 70
     0
102
RTVSPropertyOp32
 70
     0
  0
XRECORD
  5
1DCB
102
{ACAD_REACTORS
330
1DCA
102
}
330
1DCA
100
AcDbXrecord
280
     1
102
RTVSPropertyOp0
 70
     1
102
RTVSPropertyOp1
 70
     1
102
RTVSPropertyOp2
 70
     1
102
RTVSPropertyOp3
 70
     1
102
RTVSPropertyOp4
 70
     1
102
RTVSPropertyOp5
 70
     1
102
RTVSPropertyOp6
 70
     1
102
RTVSPropertyOp7
 70
     1
102
RTVSPropertyOp8
 70
     1
102
RTVSPropertyOp9
 70
     1
102
RTVSPropertyOp10
 70
     1
102
RTVSPropertyOp11
 70
     1
102
RTVSPropertyOp12
 70
     1
102
RTVSPropertyOp13
 70
     1
102
RTVSPropertyOp14
 70
     1
102
RTVSPropertyOp15
 70
     1
102
RTVSPropertyOp16
 70
     1
102
RTVSPropertyOp17
 70
     1
102
RTVSPropertyOp18
 70
     1
102
RTVSPropertyOp19
 70
     1
102
RTVSPropertyOp20
 70
     1
102
RTVSPropertyOp21
 70
     1
102
RTVSPropertyOp22
 70
     1
102
RTVSPropertyOp23
 70
     1
102
RTVSPropertyOp24
 70
     1
102
RTVSPropertyOp25
 70
     1
102
RTVSPropertyOp26
 70
     1
102
RTVSPropertyOp27
 70
     1
102
RTVSPropertyOp28
 70
     1
102
RTVSPropertyOp29
 70
     1
102
RTVSPropertyOp30
 70
     1
102
RTVSPropertyOp31
 70
     1
102
RTVSPropertyOp32
 70
     1
  0
XRECORD
  5
1DAF
102
{ACAD_REACTORS
330
1DAE
102
}
330
1DAE
100
AcDbXrecord
280
     1
102
RTVSPropertyOp0
 70
     1
102
RTVSPropertyOp1
 70
     1
102
RTVSPropertyOp2
 70
     1
102
RTVSPropertyOp3
 70
     1
102
RTVSPropertyOp4
 70
     1
102
RTVSPropertyOp5
 70
     1
102
RTVSPropertyOp6
 70
     1
102
RTVSPropertyOp7
 70
     1
102
RTVSPropertyOp8
 70
     1
102
RTVSPropertyOp9
 70
     1
102
RTVSPropertyOp10
 70
     1
102
RTVSPropertyOp11
 70
     1
102
RTVSPropertyOp12
 70
     1
102
RTVSPropertyOp13
 70
     1
102
RTVSPropertyOp14
 70
     1
102
RTVSPropertyOp15
 70
     1
102
RTVSPropertyOp16
 70
     1
102
RTVSPropertyOp17
 70
     1
102
RTVSPropertyOp18
 70
     1
102
RTVSPropertyOp19
 70
     1
102
RTVSPropertyOp20
 70
     1
102
RTVSPropertyOp21
 70
     1
102
RTVSPropertyOp22
 70
     1
102
RTVSPropertyOp23
 70
     1
102
RTVSPropertyOp24
 70
     1
102
RTVSPropertyOp25
 70
     1
102
RTVSPropertyOp26
 70
     1
102
RTVSPropertyOp27
 70
     1
102
RTVSPropertyOp28
 70
     1
102
RTVSPropertyOp29
 70
     1
102
RTVSPropertyOp30
 70
     1
102
RTVSPropertyOp31
 70
     1
102
RTVSPropertyOp32
 70
     1
  0
XRECORD
  5
1DB1
102
{ACAD_REACTORS
330
1DB0
102
}
330
1DB0
100
AcDbXrecord
280
     1
102
RTVSPropertyOp0
 70
     1
102
RTVSPropertyOp1
 70
     1
102
RTVSPropertyOp2
 70
     1
102
RTVSPropertyOp3
 70
     1
102
RTVSPropertyOp4
 70
     1
102
RTVSPropertyOp5
 70
     1
102
RTVSPropertyOp6
 70
     1
102
RTVSPropertyOp7
 70
     1
102
RTVSPropertyOp8
 70
     1
102
RTVSPropertyOp9
 70
     1
102
RTVSPropertyOp10
 70
     1
102
RTVSPropertyOp11
 70
     1
102
RTVSPropertyOp12
 70
     1
102
RTVSPropertyOp13
 70
     1
102
RTVSPropertyOp14
 70
     1
102
RTVSPropertyOp15
 70
     1
102
RTVSPropertyOp16
 70
     1
102
RTVSPropertyOp17
 70
     1
102
RTVSPropertyOp18
 70
     1
102
RTVSPropertyOp19
 70
     1
102
RTVSPropertyOp20
 70
     1
102
RTVSPropertyOp21
 70
     1
102
RTVSPropertyOp22
 70
     1
102
RTVSPropertyOp23
 70
     1
102
RTVSPropertyOp24
 70
     1
102
RTVSPropertyOp25
 70
     1
102
RTVSPropertyOp26
 70
     1
102
RTVSPropertyOp27
 70
     1
102
RTVSPropertyOp28
 70
     1
102
RTVSPropertyOp29
 70
     1
102
RTVSPropertyOp30
 70
     1
102
RTVSPropertyOp31
 70
     1
102
RTVSPropertyOp32
 70
     1
  0
XRECORD
  5
1DB3
102
{ACAD_REACTORS
330
1DB2
102
}
330
1DB2
100
AcDbXrecord
280
     1
102
RTVSPropertyOp0
 70
     1
102
RTVSPropertyOp1
 70
     1
102
RTVSPropertyOp2
 70
     1
102
RTVSPropertyOp3
 70
     1
102
RTVSPropertyOp4
 70
     1
102
RTVSPropertyOp5
 70
     1
102
RTVSPropertyOp6
 70
     1
102
RTVSPropertyOp7
 70
     1
102
RTVSPropertyOp8
 70
     1
102
RTVSPropertyOp9
 70
     1
102
RTVSPropertyOp10
 70
     1
102
RTVSPropertyOp11
 70
     1
102
RTVSPropertyOp12
 70
     1
102
RTVSPropertyOp13
 70
     1
102
RTVSPropertyOp14
 70
     1
102
RTVSPropertyOp15
 70
     1
102
RTVSPropertyOp16
 70
     1
102
RTVSPropertyOp17
 70
     1
102
RTVSPropertyOp18
 70
     1
102
RTVSPropertyOp19
 70
     1
102
RTVSPropertyOp20
 70
     1
102
RTVSPropertyOp21
 70
     1
102
RTVSPropertyOp22
 70
     1
102
RTVSPropertyOp23
 70
     1
102
RTVSPropertyOp24
 70
     1
102
RTVSPropertyOp25
 70
     1
102
RTVSPropertyOp26
 70
     1
102
RTVSPropertyOp27
 70
     1
102
RTVSPropertyOp28
 70
     1
102
RTVSPropertyOp29
 70
     1
102
RTVSPropertyOp30
 70
     1
102
RTVSPropertyOp31
 70
     1
102
RTVSPropertyOp32
 70
     1
  0
XRECORD
  5
1DB5
102
{ACAD_REACTORS
330
1DB4
102
}
330
1DB4
100
AcDbXrecord
280
     1
102
RTVSPropertyOp0
 70
     1
102
RTVSPropertyOp1
 70
     1
102
RTVSPropertyOp2
 70
     1
102
RTVSPropertyOp3
 70
     1
102
RTVSPropertyOp4
 70
     1
102
RTVSPropertyOp5
 70
     1
102
RTVSPropertyOp6
 70
     1
102
RTVSPropertyOp7
 70
     1
102
RTVSPropertyOp8
 70
     1
102
RTVSPropertyOp9
 70
     1
102
RTVSPropertyOp10
 70
     1
102
RTVSPropertyOp11
 70
     1
102
RTVSPropertyOp12
 70
     1
102
RTVSPropertyOp13
 70
     1
102
RTVSPropertyOp14
 70
     1
102
RTVSPropertyOp15
 70
     1
102
RTVSPropertyOp16
 70
     1
102
RTVSPropertyOp17
 70
     1
102
RTVSPropertyOp18
 70
     1
102
RTVSPropertyOp19
 70
     1
102
RTVSPropertyOp20
 70
     1
102
RTVSPropertyOp21
 70
     1
102
RTVSPropertyOp22
 70
     1
102
RTVSPropertyOp23
 70
     1
102
RTVSPropertyOp24
 70
     1
102
RTVSPropertyOp25
 70
     1
102
RTVSPropertyOp26
 70
     1
102
RTVSPropertyOp27
 70
     1
102
RTVSPropertyOp28
 70
     1
102
RTVSPropertyOp29
 70
     1
102
RTVSPropertyOp30
 70
     1
102
RTVSPropertyOp31
 70
     1
102
RTVSPropertyOp32
 70
     1
  0
XRECORD
  5
1DBD
102
{ACAD_REACTORS
330
1DBC
102
}
330
1DBC
100
AcDbXrecord
280
     1
102
RTVSPropertyOp0
 70
     1
102
RTVSPropertyOp1
 70
     1
102
RTVSPropertyOp2
 70
     1
102
RTVSPropertyOp3
 70
     1
102
RTVSPropertyOp4
 70
     1
102
RTVSPropertyOp5
 70
     1
102
RTVSPropertyOp6
 70
     1
102
RTVSPropertyOp7
 70
     1
102
RTVSPropertyOp8
 70
     1
102
RTVSPropertyOp9
 70
     1
102
RTVSPropertyOp10
 70
     1
102
RTVSPropertyOp11
 70
     1
102
RTVSPropertyOp12
 70
     1
102
RTVSPropertyOp13
 70
     1
102
RTVSPropertyOp14
 70
     1
102
RTVSPropertyOp15
 70
     1
102
RTVSPropertyOp16
 70
     1
102
RTVSPropertyOp17
 70
     1
102
RTVSPropertyOp18
 70
     1
102
RTVSPropertyOp19
 70
     1
102
RTVSPropertyOp20
 70
     1
102
RTVSPropertyOp21
 70
     1
102
RTVSPropertyOp22
 70
     1
102
RTVSPropertyOp23
 70
     1
102
RTVSPropertyOp24
 70
     1
102
RTVSPropertyOp25
 70
     1
102
RTVSPropertyOp26
 70
     1
102
RTVSPropertyOp27
 70
     1
102
RTVSPropertyOp28
 70
     1
102
RTVSPropertyOp29
 70
     1
102
RTVSPropertyOp30
 70
     1
102
RTVSPropertyOp31
 70
     1
102
RTVSPropertyOp32
 70
     1
  0
XRECORD
  5
1DD9
102
{ACAD_REACTORS
330
1DD8
102
}
330
1DD8
100
AcDbXrecord
280
     1
102
RTVSPropertyOp0
 70
     0
102
RTVSPropertyOp1
 70
     0
102
RTVSPropertyOp2
 70
     0
102
RTVSPropertyOp3
 70
     0
102
RTVSPropertyOp4
 70
     0
102
RTVSPropertyOp5
 70
     0
102
RTVSPropertyOp6
 70
     0
102
RTVSPropertyOp7
 70
     0
102
RTVSPropertyOp8
 70
     0
102
RTVSPropertyOp9
 70
     0
102
RTVSPropertyOp10
 70
     0
102
RTVSPropertyOp11
 70
     0
102
RTVSPropertyOp12
 70
     0
102
RTVSPropertyOp13
 70
     0
102
RTVSPropertyOp14
 70
     2
102
RTVSPropertyOp15
 70
     0
102
RTVSPropertyOp16
 70
     0
102
RTVSPropertyOp17
 70
     0
102
RTVSPropertyOp18
 70
     0
102
RTVSPropertyOp19
 70
     0
102
RTVSPropertyOp20
 70
     0
102
RTVSPropertyOp21
 70
     0
102
RTVSPropertyOp22
 70
     0
102
RTVSPropertyOp23
 70
     0
102
RTVSPropertyOp24
 70
     0
102
RTVSPropertyOp25
 70
     0
102
RTVSPropertyOp26
 70
     0
102
RTVSPropertyOp27
 70
     0
102
RTVSPropertyOp28
 70
     0
102
RTVSPropertyOp29
 70
     0
102
RTVSPropertyOp30
 70
     0
102
RTVSPropertyOp31
 70
     0
102
RTVSPropertyOp32
 70
     0
  0
XRECORD
  5
1DC9
102
{ACAD_REACTORS
330
1DC8
102
}
330
1DC8
100
AcDbXrecord
280
     1
102
RTVSPropertyOp0
 70
     1
102
RTVSPropertyOp1
 70
     1
102
RTVSPropertyOp2
 70
     1
102
RTVSPropertyOp3
 70
     1
102
RTVSPropertyOp4
 70
     1
102
RTVSPropertyOp5
 70
     1
102
RTVSPropertyOp6
 70
     1
102
RTVSPropertyOp7
 70
     1
102
RTVSPropertyOp8
 70
     1
102
RTVSPropertyOp9
 70
     1
102
RTVSPropertyOp10
 70
     1
102
RTVSPropertyOp11
 70
     1
102
RTVSPropertyOp12
 70
     1
102
RTVSPropertyOp13
 70
     1
102
RTVSPropertyOp14
 70
     1
102
RTVSPropertyOp15
 70
     1
102
RTVSPropertyOp16
 70
     1
102
RTVSPropertyOp17
 70
     1
102
RTVSPropertyOp18
 70
     1
102
RTVSPropertyOp19
 70
     1
102
RTVSPropertyOp20
 70
     1
102
RTVSPropertyOp21
 70
     1
102
RTVSPropertyOp22
 70
     1
102
RTVSPropertyOp23
 70
     1
102
RTVSPropertyOp24
 70
     1
102
RTVSPropertyOp25
 70
     1
102
RTVSPropertyOp26
 70
     1
102
RTVSPropertyOp27
 70
     1
102
RTVSPropertyOp28
 70
     1
102
RTVSPropertyOp29
 70
     1
102
RTVSPropertyOp30
 70
     1
102
RTVSPropertyOp31
 70
     1
102
RTVSPropertyOp32
 70
     1
  0
XRECORD
  5
1DDB
102
{ACAD_REACTORS
330
1DDA
102
}
330
1DDA
100
AcDbXrecord
280
     1
102
RTVSPropertyOp0
 70
     0
102
RTVSPropertyOp1
 70
     0
102
RTVSPropertyOp2
 70
     0
102
RTVSPropertyOp3
 70
     0
102
RTVSPropertyOp4
 70
     0
102
RTVSPropertyOp5
 70
     0
102
RTVSPropertyOp6
 70
     0
102
RTVSPropertyOp7
 70
     0
102
RTVSPropertyOp8
 70
     0
102
RTVSPropertyOp9
 70
     0
102
RTVSPropertyOp10
 70
     0
102
RTVSPropertyOp11
 70
     0
102
RTVSPropertyOp12
 70
     0
102
RTVSPropertyOp13
 70
     0
102
RTVSPropertyOp14
 70
     2
102
RTVSPropertyOp15
 70
     0
102
RTVSPropertyOp16
 70
     0
102
RTVSPropertyOp17
 70
     0
102
RTVSPropertyOp18
 70
     0
102
RTVSPropertyOp19
 70
     0
102
RTVSPropertyOp20
 70
     0
102
RTVSPropertyOp21
 70
     0
102
RTVSPropertyOp22
 70
     0
102
RTVSPropertyOp23
 70
     0
102
RTVSPropertyOp24
 70
     0
102
RTVSPropertyOp25
 70
     0
102
RTVSPropertyOp26
 70
     0
102
RTVSPropertyOp27
 70
     0
102
RTVSPropertyOp28
 70
     0
102
RTVSPropertyOp29
 70
     0
102
RTVSPropertyOp30
 70
     0
102
RTVSPropertyOp31
 70
     0
102
RTVSPropertyOp32
 70
     0
  0
XRECORD
  5
1DC1
102
{ACAD_REACTORS
330
1DC0
102
}
330
1DC0
100
AcDbXrecord
280
     1
102
RTVSPropertyOp0
 70
     1
102
RTVSPropertyOp1
 70
     1
102
RTVSPropertyOp2
 70
     1
102
RTVSPropertyOp3
 70
     1
102
RTVSPropertyOp4
 70
     1
102
RTVSPropertyOp5
 70
     1
102
RTVSPropertyOp6
 70
     1
102
RTVSPropertyOp7
 70
     1
102
RTVSPropertyOp8
 70
     1
102
RTVSPropertyOp9
 70
     1
102
RTVSPropertyOp10
 70
     1
102
RTVSPropertyOp11
 70
     1
102
RTVSPropertyOp12
 70
     1
102
RTVSPropertyOp13
 70
     1
102
RTVSPropertyOp14
 70
     1
102
RTVSPropertyOp15
 70
     1
102
RTVSPropertyOp16
 70
     1
102
RTVSPropertyOp17
 70
     1
102
RTVSPropertyOp18
 70
     1
102
RTVSPropertyOp19
 70
     1
102
RTVSPropertyOp20
 70
     1
102
RTVSPropertyOp21
 70
     1
102
RTVSPropertyOp22
 70
     1
102
RTVSPropertyOp23
 70
     1
102
RTVSPropertyOp24
 70
     1
102
RTVSPropertyOp25
 70
     1
102
RTVSPropertyOp26
 70
     1
102
RTVSPropertyOp27
 70
     1
102
RTVSPropertyOp28
 70
     1
102
RTVSPropertyOp29
 70
     1
102
RTVSPropertyOp30
 70
     1
102
RTVSPropertyOp31
 70
     1
102
RTVSPropertyOp32
 70
     1
  0
XRECORD
  5
1DD7
102
{ACAD_REACTORS
330
1DD6
102
}
330
1DD6
100
AcDbXrecord
280
     1
102
RTVSPropertyOp0
 70
     1
102
RTVSPropertyOp1
 70
     1
102
RTVSPropertyOp2
 70
     1
102
RTVSPropertyOp3
 70
     1
102
RTVSPropertyOp4
 70
     1
102
RTVSPropertyOp5
 70
     1
102
RTVSPropertyOp6
 70
     1
102
RTVSPropertyOp7
 70
     1
102
RTVSPropertyOp8
 70
     1
102
RTVSPropertyOp9
 70
     1
102
RTVSPropertyOp10
 70
     1
102
RTVSPropertyOp11
 70
     1
102
RTVSPropertyOp12
 70
     1
102
RTVSPropertyOp13
 70
     1
102
RTVSPropertyOp14
 70
     1
102
RTVSPropertyOp15
 70
     1
102
RTVSPropertyOp16
 70
     1
102
RTVSPropertyOp17
 70
     1
102
RTVSPropertyOp18
 70
     1
102
RTVSPropertyOp19
 70
     1
102
RTVSPropertyOp20
 70
     1
102
RTVSPropertyOp21
 70
     1
102
RTVSPropertyOp22
 70
     1
102
RTVSPropertyOp23
 70
     1
102
RTVSPropertyOp24
 70
     1
102
RTVSPropertyOp25
 70
     1
102
RTVSPropertyOp26
 70
     1
102
RTVSPropertyOp27
 70
     1
102
RTVSPropertyOp28
 70
     1
102
RTVSPropertyOp29
 70
     1
102
RTVSPropertyOp30
 70
     1
102
RTVSPropertyOp31
 70
     1
102
RTVSPropertyOp32
 70
     1
  0
XRECORD
  5
1DD5
102
{ACAD_REACTORS
330
1DD4
102
}
330
1DD4
100
AcDbXrecord
280
     1
102
RTVSPropertyOp0
 70
     1
102
RTVSPropertyOp1
 70
     1
102
RTVSPropertyOp2
 70
     1
102
RTVSPropertyOp3
 70
     1
102
RTVSPropertyOp4
 70
     1
102
RTVSPropertyOp5
 70
     1
102
RTVSPropertyOp6
 70
     1
102
RTVSPropertyOp7
 70
     1
102
RTVSPropertyOp8
 70
     1
102
RTVSPropertyOp9
 70
     1
102
RTVSPropertyOp10
 70
     1
102
RTVSPropertyOp11
 70
     1
102
RTVSPropertyOp12
 70
     1
102
RTVSPropertyOp13
 70
     1
102
RTVSPropertyOp14
 70
     1
102
RTVSPropertyOp15
 70
     1
102
RTVSPropertyOp16
 70
     1
102
RTVSPropertyOp17
 70
     1
102
RTVSPropertyOp18
 70
     1
102
RTVSPropertyOp19
 70
     1
102
RTVSPropertyOp20
 70
     1
102
RTVSPropertyOp21
 70
     1
102
RTVSPropertyOp22
 70
     1
102
RTVSPropertyOp23
 70
     1
102
RTVSPropertyOp24
 70
     1
102
RTVSPropertyOp25
 70
     1
102
RTVSPropertyOp26
 70
     1
102
RTVSPropertyOp27
 70
     1
102
RTVSPropertyOp28
 70
     1
102
RTVSPropertyOp29
 70
     1
102
RTVSPropertyOp30
 70
     1
102
RTVSPropertyOp31
 70
     1
102
RTVSPropertyOp32
 70
     1
  0
XRECORD
  5
1DCF
102
{ACAD_REACTORS
330
1DCE
102
}
330
1DCE
100
AcDbXrecord
280
     1
102
RTVSPropertyOp0
 70
     1
102
RTVSPropertyOp1
 70
     1
102
RTVSPropertyOp2
 70
     1
102
RTVSPropertyOp3
 70
     1
102
RTVSPropertyOp4
 70
     1
102
RTVSPropertyOp5
 70
     1
102
RTVSPropertyOp6
 70
     1
102
RTVSPropertyOp7
 70
     1
102
RTVSPropertyOp8
 70
     1
102
RTVSPropertyOp9
 70
     1
102
RTVSPropertyOp10
 70
     1
102
RTVSPropertyOp11
 70
     1
102
RTVSPropertyOp12
 70
     1
102
RTVSPropertyOp13
 70
     1
102
RTVSPropertyOp14
 70
     1
102
RTVSPropertyOp15
 70
     1
102
RTVSPropertyOp16
 70
     1
102
RTVSPropertyOp17
 70
     1
102
RTVSPropertyOp18
 70
     1
102
RTVSPropertyOp19
 70
     1
102
RTVSPropertyOp20
 70
     1
102
RTVSPropertyOp21
 70
     1
102
RTVSPropertyOp22
 70
     1
102
RTVSPropertyOp23
 70
     1
102
RTVSPropertyOp24
 70
     1
102
RTVSPropertyOp25
 70
     1
102
RTVSPropertyOp26
 70
     1
102
RTVSPropertyOp27
 70
     1
102
RTVSPropertyOp28
 70
     1
102
RTVSPropertyOp29
 70
     1
102
RTVSPropertyOp30
 70
     1
102
RTVSPropertyOp31
 70
     1
102
RTVSPropertyOp32
 70
     1
  0
XRECORD
  5
1DD1
102
{ACAD_REACTORS
330
1DD0
102
}
330
1DD0
100
AcDbXrecord
280
     1
102
RTVSPropertyOp0
 70
     1
102
RTVSPropertyOp1
 70
     1
102
RTVSPropertyOp2
 70
     1
102
RTVSPropertyOp3
 70
     1
102
RTVSPropertyOp4
 70
     1
102
RTVSPropertyOp5
 70
     1
102
RTVSPropertyOp6
 70
     1
102
RTVSPropertyOp7
 70
     1
102
RTVSPropertyOp8
 70
     1
102
RTVSPropertyOp9
 70
     1
102
RTVSPropertyOp10
 70
     1
102
RTVSPropertyOp11
 70
     1
102
RTVSPropertyOp12
 70
     1
102
RTVSPropertyOp13
 70
     1
102
RTVSPropertyOp14
 70
     1
102
RTVSPropertyOp15
 70
     1
102
RTVSPropertyOp16
 70
     1
102
RTVSPropertyOp17
 70
     1
102
RTVSPropertyOp18
 70
     1
102
RTVSPropertyOp19
 70
     1
102
RTVSPropertyOp20
 70
     1
102
RTVSPropertyOp21
 70
     1
102
RTVSPropertyOp22
 70
     1
102
RTVSPropertyOp23
 70
     1
102
RTVSPropertyOp24
 70
     1
102
RTVSPropertyOp25
 70
     1
102
RTVSPropertyOp26
 70
     1
102
RTVSPropertyOp27
 70
     1
102
RTVSPropertyOp28
 70
     1
102
RTVSPropertyOp29
 70
     1
102
RTVSPropertyOp30
 70
     1
102
RTVSPropertyOp31
 70
     1
102
RTVSPropertyOp32
 70
     1
  0
XRECORD
  5
1DC7
102
{ACAD_REACTORS
330
1DC6
102
}
330
1DC6
100
AcDbXrecord
280
     1
102
RTVSPropertyOp0
 70
     1
102
RTVSPropertyOp1
 70
     1
102
RTVSPropertyOp2
 70
     1
102
RTVSPropertyOp3
 70
     1
102
RTVSPropertyOp4
 70
     1
102
RTVSPropertyOp5
 70
     1
102
RTVSPropertyOp6
 70
     1
102
RTVSPropertyOp7
 70
     1
102
RTVSPropertyOp8
 70
     1
102
RTVSPropertyOp9
 70
     1
102
RTVSPropertyOp10
 70
     1
102
RTVSPropertyOp11
 70
     1
102
RTVSPropertyOp12
 70
     1
102
RTVSPropertyOp13
 70
     1
102
RTVSPropertyOp14
 70
     1
102
RTVSPropertyOp15
 70
     1
102
RTVSPropertyOp16
 70
     1
102
RTVSPropertyOp17
 70
     1
102
RTVSPropertyOp18
 70
     1
102
RTVSPropertyOp19
 70
     1
102
RTVSPropertyOp20
 70
     1
102
RTVSPropertyOp21
 70
     1
102
RTVSPropertyOp22
 70
     1
102
RTVSPropertyOp23
 70
     1
102
RTVSPropertyOp24
 70
     1
102
RTVSPropertyOp25
 70
     1
102
RTVSPropertyOp26
 70
     1
102
RTVSPropertyOp27
 70
     1
102
RTVSPropertyOp28
 70
     1
102
RTVSPropertyOp29
 70
     1
102
RTVSPropertyOp30
 70
     1
102
RTVSPropertyOp31
 70
     1
102
RTVSPropertyOp32
 70
     1
  0
XRECORD
  5
1DBB
102
{ACAD_REACTORS
330
1DBA
102
}
330
1DBA
100
AcDbXrecord
280
     1
102
RTVSPropertyOp0
 70
     1
102
RTVSPropertyOp1
 70
     1
102
RTVSPropertyOp2
 70
     1
102
RTVSPropertyOp3
 70
     1
102
RTVSPropertyOp4
 70
     1
102
RTVSPropertyOp5
 70
     1
102
RTVSPropertyOp6
 70
     1
102
RTVSPropertyOp7
 70
     1
102
RTVSPropertyOp8
 70
     1
102
RTVSPropertyOp9
 70
     1
102
RTVSPropertyOp10
 70
     1
102
RTVSPropertyOp11
 70
     1
102
RTVSPropertyOp12
 70
     1
102
RTVSPropertyOp13
 70
     1
102
RTVSPropertyOp14
 70
     1
102
RTVSPropertyOp15
 70
     1
102
RTVSPropertyOp16
 70
     1
102
RTVSPropertyOp17
 70
     1
102
RTVSPropertyOp18
 70
     1
102
RTVSPropertyOp19
 70
     1
102
RTVSPropertyOp20
 70
     1
102
RTVSPropertyOp21
 70
     1
102
RTVSPropertyOp22
 70
     1
102
RTVSPropertyOp23
 70
     1
102
RTVSPropertyOp24
 70
     1
102
RTVSPropertyOp25
 70
     1
102
RTVSPropertyOp26
 70
     1
102
RTVSPropertyOp27
 70
     1
102
RTVSPropertyOp28
 70
     1
102
RTVSPropertyOp29
 70
     1
102
RTVSPropertyOp30
 70
     1
102
RTVSPropertyOp31
 70
     1
102
RTVSPropertyOp32
 70
     1
  0
XRECORD
  5
1DD3
102
{ACAD_REACTORS
330
1DD2
102
}
330
1DD2
100
AcDbXrecord
280
     1
102
RTVSPropertyOp0
 70
     1
102
RTVSPropertyOp1
 70
     1
102
RTVSPropertyOp2
 70
     1
102
RTVSPropertyOp3
 70
     1
102
RTVSPropertyOp4
 70
     1
102
RTVSPropertyOp5
 70
     1
102
RTVSPropertyOp6
 70
     1
102
RTVSPropertyOp7
 70
     1
102
RTVSPropertyOp8
 70
     1
102
RTVSPropertyOp9
 70
     1
102
RTVSPropertyOp10
 70
     1
102
RTVSPropertyOp11
 70
     1
102
RTVSPropertyOp12
 70
     1
102
RTVSPropertyOp13
 70
     1
102
RTVSPropertyOp14
 70
     1
102
RTVSPropertyOp15
 70
     1
102
RTVSPropertyOp16
 70
     1
102
RTVSPropertyOp17
 70
     1
102
RTVSPropertyOp18
 70
     1
102
RTVSPropertyOp19
 70
     1
102
RTVSPropertyOp20
 70
     1
102
RTVSPropertyOp21
 70
     1
102
RTVSPropertyOp22
 70
     1
102
RTVSPropertyOp23
 70
     1
102
RTVSPropertyOp24
 70
     1
102
RTVSPropertyOp25
 70
     1
102
RTVSPropertyOp26
 70
     1
102
RTVSPropertyOp27
 70
     1
102
RTVSPropertyOp28
 70
     1
102
RTVSPropertyOp29
 70
     1
102
RTVSPropertyOp30
 70
     1
102
RTVSPropertyOp31
 70
     1
102
RTVSPropertyOp32
 70
     1
  0
ENDSEC
  0
EOF
