  0
SECTION
  2
HEADER
  9
$ACADVER
  1
AC1015
  9
$ACADMAINTVER
 70
    20
  9
$DWGCODEPAGE
  3
ANSI_932
  9
$INSBASE
 10
0.0
 20
0.0
 30
0.0
  9
$EXTMIN
 10
379.834845
 20
-1183.001085
 30
0.0
  9
$EXTMAX
 10
1094.014026224648
 20
-864.4236827435696
 30
0.0
  9
$LIMMIN
 10
379.833839
 20
-1183.002099
  9
$LIMMAX
 10
784.8617179999997
 20
-908.94474
  9
$ORTHOMODE
 70
     1
  9
$REGENMODE
 70
     1
  9
$FILLMODE
 70
     1
  9
$QTEXTMODE
 70
     0
  9
$MIRRTEXT
 70
     0
  9
$LTSCALE
 40
6.750430999999997
  9
$ATTMODE
 70
     1
  9
$TEXTSIZE
 40
3.2
  9
$TRACEWID
 40
0.05
  9
$TEXTSTYLE
  7
高3.2
  9
$CLAYER
  8
0
  9
$CELTYPE
  6
CONTINUOUS
  9
$CECOLOR
 62
   256
  9
$CELTSCALE
 40
1.0
  9
$DISPSILH
 70
     0
  9
$DIMSCALE
 40
1.0
  9
$DIMASZ
 40
2.5
  9
$DIMEXO
 40
0.25
  9
$DIMDLI
 40
0.2
  9
$DIMRND
 40
0.0
  9
$DIMDLE
 40
0.0
  9
$DIMEXE
 40
1.25
  9
$DIMTP
 40
0.0
  9
$DIMTM
 40
0.0
  9
$DIMTXT
 40
3.0
  9
$DIMCEN
 40
0.0
  9
$DIMTSZ
 40
0.0
  9
$DIMTOL
 70
     0
  9
$DIMLIM
 70
     0
  9
$DIMTIH
 70
     0
  9
$DIMTOH
 70
     0
  9
$DIMSE1
 70
     0
  9
$DIMSE2
 70
     0
  9
$DIMTAD
 70
     3
  9
$DIMZIN
 70
     8
  9
$DIMBLK
  1
Open30
  9
$DIMASO
 70
     1
  9
$DIMSHO
 70
     1
  9
$DIMPOST
  1

  9
$DIMAPOST
  1

  9
$DIMALT
 70
     0
  9
$DIMALTD
 70
     3
  9
$DIMALTF
 40
0.03937007874016
  9
$DIMLFAC
 40
1.0
  9
$DIMTOFL
 70
     1
  9
$DIMTVP
 40
0.0
  9
$DIMTIX
 70
     0
  9
$DIMSOXD
 70
     0
  9
$DIMSAH
 70
     0
  9
$DIMBLK1
  1

  9
$DIMBLK2
  1

  9
$DIMSTYLE
  2
FREE
  9
$DIMCLRD
 70
     0
  9
$DIMCLRE
 70
     0
  9
$DIMCLRT
 70
     4
  9
$DIMTFAC
 40
1.0
  9
$DIMGAP
 40
0.625
  9
$DIMJUST
 70
     0
  9
$DIMSD1
 70
     0
  9
$DIMSD2
 70
     0
  9
$DIMTOLJ
 70
     0
  9
$DIMTZIN
 70
     8
  9
$DIMALTZ
 70
     0
  9
$DIMALTTZ
 70
     0
  9
$DIMUPT
 70
     1
  9
$DIMDEC
 70
     2
  9
$DIMTDEC
 70
     2
  9
$DIMALTU
 70
     2
  9
$DIMALTTD
 70
     3
  9
$DIMTXSTY
  7
STANDARD
  9
$DIMAUNIT
 70
     0
  9
$DIMADEC
 70
     1
  9
$DIMALTRND
 40
0.0
  9
$DIMAZIN
 70
     2
  9
$DIMDSEP
 70
    46
  9
$DIMATFIT
 70
     0
  9
$DIMFRAC
 70
     0
  9
$DIMLDRBLK
  1
Open30
  9
$DIMLUNIT
 70
     2
  9
$DIMLWD
 70
    -2
  9
$DIMLWE
 70
    -2
  9
$DIMTMOVE
 70
     0
  9
$LUNITS
 70
     2
  9
$LUPREC
 70
     4
  9
$SKETCHINC
 40
0.1
  9
$FILLETRAD
 40
20.0
  9
$AUNITS
 70
     0
  9
$AUPREC
 70
     0
  9
$MENU
  1
.
  9
$ELEVATION
 40
0.0
  9
$PELEVATION
 40
0.0
  9
$THICKNESS
 40
0.0
  9
$LIMCHECK
 70
     0
  9
$CHAMFERA
 40
0.0
  9
$CHAMFERB
 40
0.0
  9
$CHAMFERC
 40
0.0
  9
$CHAMFERD
 40
0.0
  9
$SKPOLY
 70
     0
  9
$TDCREATE
 40
2456214.601356111
  9
$TDUCREATE
 40
2456214.226356111
  9
$TDUPDATE
 40
2456856.874832581
  9
$TDUUPDATE
 40
2456856.499832581
  9
$TDINDWG
 40
0.0908687500
  9
$TDUSRTIMER
 40
0.0908687500
  9
$USRTIMER
 70
     1
  9
$ANGBASE
 50
0.0
  9
$ANGDIR
 70
     0
  9
$PDMODE
 70
     0
  9
$PDSIZE
 40
0.0
  9
$PLINEWID
 40
0.0
  9
$SPLFRAME
 70
     0
  9
$SPLINETYPE
 70
     6
  9
$SPLINESEGS
 70
     8
  9
$HANDSEED
  5
E5D
  9
$SURFTAB1
 70
     6
  9
$SURFTAB2
 70
     6
  9
$SURFTYPE
 70
     6
  9
$SURFU
 70
     6
  9
$SURFV
 70
     6
  9
$UCSBASE
  2

  9
$UCSNAME
  2

  9
$UCSORG
 10
0.0
 20
0.0
 30
0.0
  9
$UCSXDIR
 10
1.0
 20
0.0
 30
0.0
  9
$UCSYDIR
 10
0.0
 20
1.0
 30
0.0
  9
$UCSORTHOREF
  2

  9
$UCSORTHOVIEW
 70
     0
  9
$UCSORGTOP
 10
0.0
 20
0.0
 30
0.0
  9
$UCSORGBOTTOM
 10
0.0
 20
0.0
 30
0.0
  9
$UCSORGLEFT
 10
0.0
 20
0.0
 30
0.0
  9
$UCSORGRIGHT
 10
0.0
 20
0.0
 30
0.0
  9
$UCSORGFRONT
 10
0.0
 20
0.0
 30
0.0
  9
$UCSORGBACK
 10
0.0
 20
0.0
 30
0.0
  9
$PUCSBASE
  2

  9
$PUCSNAME
  2

  9
$PUCSORG
 10
0.0
 20
0.0
 30
0.0
  9
$PUCSXDIR
 10
1.0
 20
0.0
 30
0.0
  9
$PUCSYDIR
 10
0.0
 20
1.0
 30
0.0
  9
$PUCSORTHOREF
  2

  9
$PUCSORTHOVIEW
 70
     0
  9
$PUCSORGTOP
 10
0.0
 20
0.0
 30
0.0
  9
$PUCSORGBOTTOM
 10
0.0
 20
0.0
 30
0.0
  9
$PUCSORGLEFT
 10
0.0
 20
0.0
 30
0.0
  9
$PUCSORGRIGHT
 10
0.0
 20
0.0
 30
0.0
  9
$PUCSORGFRONT
 10
0.0
 20
0.0
 30
0.0
  9
$PUCSORGBACK
 10
0.0
 20
0.0
 30
0.0
  9
$USERI1
 70
     0
  9
$USERI2
 70
     0
  9
$USERI3
 70
     0
  9
$USERI4
 70
     0
  9
$USERI5
 70
     0
  9
$USERR1
 40
0.0
  9
$USERR2
 40
0.0
  9
$USERR3
 40
0.0
  9
$USERR4
 40
0.0
  9
$USERR5
 40
0.0
  9
$WORLDVIEW
 70
     1
  9
$SHADEDGE
 70
     3
  9
$SHADEDIF
 70
    70
  9
$TILEMODE
 70
     1
  9
$MAXACTVP
 70
    64
  9
$PINSBASE
 10
0.0
 20
0.0
 30
0.0
  9
$PLIMCHECK
 70
     0
  9
$PEXTMIN
 10
1.000000000000000E+20
 20
1.000000000000000E+20
 30
1.000000000000000E+20
  9
$PEXTMAX
 10
-1.000000000000000E+20
 20
-1.000000000000000E+20
 30
-1.000000000000000E+20
  9
$PLIMMIN
 10
0.0
 20
0.0
  9
$PLIMMAX
 10
12.0
 20
9.0
  9
$UNITMODE
 70
     0
  9
$VISRETAIN
 70
     1
  9
$PLINEGEN
 70
     0
  9
$PSLTSCALE
 70
     1
  9
$TREEDEPTH
 70
  3020
  9
$CMLSTYLE
  2
Standard
  9
$CMLJUST
 70
     0
  9
$CMLSCALE
 40
1.0
  9
$PROXYGRAPHICS
 70
     1
  9
$MEASUREMENT
 70
     0
  9
$CELWEIGHT
370
    -1
  9
$ENDCAPS
280
     0
  9
$JOINSTYLE
280
     0
  9
$LWDISPLAY
290
     0
  9
$INSUNITS
 70
     0
  9
$HYPERLINKBASE
  1

  9
$STYLESHEET
  1

  9
$XEDIT
290
     1
  9
$CEPSNTYPE
380
     0
  9
$PSTYLEMODE
290
     1
  9
$FINGERPRINTGUID
  2
{B29A954D-8C0C-4F09-97D4-D29A5C8DC3CD}
  9
$VERSIONGUID
  2
{337D5ACA-BE20-4716-BFA6-AA997EF7E4A1}
  9
$EXTNAMES
290
     1
  9
$PSVPSCALE
 40
0.0
  9
$OLESTARTUP
290
     0
  0
ENDSEC
  0
SECTION
  2
CLASSES
  0
CLASS
  1
ACDBDICTIONARYWDFLT
  2
AcDbDictionaryWithDefault
  3
ObjectDBX Classes
 90
        0
280
     0
281
     0
  0
CLASS
  1
MATERIAL
  2
AcDbMaterial
  3
ObjectDBX Classes
 90
     1153
280
     0
281
     0
  0
CLASS
  1
VISUALSTYLE
  2
AcDbVisualStyle
  3
ObjectDBX Classes
 90
     4095
280
     0
281
     0
  0
CLASS
  1
SCALE
  2
AcDbScale
  3
ObjectDBX Classes
 90
     1153
280
     0
281
     0
  0
CLASS
  1
TABLESTYLE
  2
AcDbTableStyle
  3
ObjectDBX Classes
 90
     4095
280
     0
281
     0
  0
CLASS
  1
MLEADERSTYLE
  2
AcDbMLeaderStyle
  3
ACDB_MLEADERSTYLE_CLASS
 90
     4095
280
     0
281
     0
  0
CLASS
  1
SORTENTSTABLE
  2
AcDbSortentsTable
  3
ObjectDBX Classes
 90
        0
280
     0
281
     0
  0
CLASS
  1
DICTIONARYVAR
  2
AcDbDictionaryVar
  3
ObjectDBX Classes
 90
        0
280
     0
281
     0
  0
CLASS
  1
CELLSTYLEMAP
  2
AcDbCellStyleMap
  3
ObjectDBX Classes
 90
     1152
280
     0
281
     0
  0
CLASS
  1
ACDBPLACEHOLDER
  2
AcDbPlaceHolder
  3
ObjectDBX Classes
 90
        0
280
     0
281
     0
  0
CLASS
  1
LAYOUT
  2
AcDbLayout
  3
ObjectDBX Classes
 90
        0
280
     0
281
     0
  0
ENDSEC
  0
SECTION
  2
TABLES
  0
TABLE
  2
VPORT
  5
8
330
0
100
AcDbSymbolTable
 70
     1
  0
VPORT
  5
8B
330
8
100
AcDbSymbolTableRecord
100
AcDbViewportTableRecord
  2
*Active
 70
     0
 10
0.0
 20
0.0
 11
1.0
 21
1.0
 12
751.8854355855165
 22
-1126.002035587646
 13
0.0
 23
0.0
 14
1.0
 24
1.0
 15
0.0
 25
0.0
 16
0.0
 26
0.0
 36
1.0
 17
0.0
 27
0.0
 37
0.0
 40
764.9801030347163
 41
2.123499142367066
 42
50.0
 43
0.0
 44
0.0
 50
0.0
 51
0.0
 71
     0
 72
   100
 73
     1
 74
     1
 75
     0
 76
     0
 77
     0
 78
     0
281
     0
 65
     1
110
0.0
120
0.0
130
0.0
111
1.0
121
0.0
131
0.0
112
0.0
122
1.0
132
0.0
 79
     0
146
0.0
  0
ENDTAB
  0
TABLE
  2
LTYPE
  5
5
330
0
100
AcDbSymbolTable
 70
    26
  0
LTYPE
  5
5A
330
5
100
AcDbSymbolTableRecord
100
AcDbLinetypeTableRecord
  2
ByBlock
 70
     0
  3

 72
    65
 73
     0
 40
0.0
  0
LTYPE
  5
5B
330
5
100
AcDbSymbolTableRecord
100
AcDbLinetypeTableRecord
  2
ByLayer
 70
     0
  3

 72
    65
 73
     0
 40
0.0
  0
LTYPE
  5
5C
330
5
100
AcDbSymbolTableRecord
100
AcDbLinetypeTableRecord
  2
CONTINUOUS
 70
     0
  3
Solid-line
 72
    65
 73
     0
 40
0.0
  0
ENDTAB
  0
TABLE
  2
LAYER
  5
2
102
{ACAD_XDICTIONARY
360
32C
102
}
330
0
100
AcDbSymbolTable
 70
     3
  0
LAYER
  5
54
102
{ACAD_XDICTIONARY
360
4C7
102
}
330
2
100
AcDbSymbolTableRecord
100
AcDbLayerTableRecord
  2
0
 70
     0
 62
     7
  6
CONTINUOUS
370
    -3
390
F
  0
LAYER
  5
317
330
2
100
AcDbSymbolTableRecord
100
AcDbLayerTableRecord
  2
Defpoints
 70
     0
 62
     7
  6
CONTINUOUS
290
     0
370
    -3
390
F
  0
ENDTAB
  0
TABLE
  2
STYLE
  5
3
330
0
100
AcDbSymbolTable
 70
     8
  0
STYLE
  5
55
330
3
100
AcDbSymbolTableRecord
100
AcDbTextStyleTableRecord
  2
STANDARD
 70
     0
 40
0.0
 41
1.0
 50
0.0
 71
     0
 42
0.2
  3
TXT
  4
BIGFONT
  0
STYLE
  5
318
330
3
100
AcDbSymbolTableRecord
100
AcDbTextStyleTableRecord
  2
高3.2
 70
     0
 40
3.2
 41
1.0
 50
0.0
 71
     0
 42
3.2
  3
txt.shx
  4
bigfont.shx
  0
STYLE
  5
319
330
3
100
AcDbSymbolTableRecord
100
AcDbTextStyleTableRecord
  2
高6.3
 70
     0
 40
6.299999999999998
 41
1.0
 50
0.0
 71
     0
 42
6.299999999999998
  3
txt.shx
  4
bigfont.shx
  0
STYLE
  5
31A
330
3
100
AcDbSymbolTableRecord
100
AcDbTextStyleTableRecord
  2
高2.5
 70
     0
 40
2.5
 41
1.0
 50
0.0
 71
     0
 42
0.2
  3
txt.shx
  4
bigfont.shx
  0
STYLE
  5
31B
330
3
100
AcDbSymbolTableRecord
100
AcDbTextStyleTableRecord
  2
高4.5
 70
     0
 40
4.5
 41
1.0
 50
0.0
 71
     0
 42
6.299999999999998
  3
txt.shx
  4
bigfont.shx
  0
STYLE
  5
31C
330
3
100
AcDbSymbolTableRecord
100
AcDbTextStyleTableRecord
  2
高2
 70
     0
 40
2.0
 41
1.0
 50
0.0
 71
     0
 42
2.0
  3
txt.shx
  4
bigfont.shx
  0
ENDTAB
  0
TABLE
  2
VIEW
  5
6
330
0
100
AcDbSymbolTable
 70
     0
  0
ENDTAB
  0
TABLE
  2
UCS
  5
7
330
0
100
AcDbSymbolTable
 70
     0
  0
ENDTAB
  0
TABLE
  2
APPID
  5
9
330
0
100
AcDbSymbolTable
 70
    10
  0
APPID
  5
56
330
9
100
AcDbSymbolTableRecord
100
AcDbRegAppTableRecord
  2
ACAD
 70
     0
  0
APPID
  5
5D
330
9
100
AcDbSymbolTableRecord
100
AcDbRegAppTableRecord
  2
AcadAnnotative
 70
     0
  0
APPID
  5
327
330
9
100
AcDbSymbolTableRecord
100
AcDbRegAppTableRecord
  2
ACAD_DSTYLE_DIMJOGGED_JOGANGLE_SYMBOL
 70
     0
  0
APPID
  5
328
330
9
100
AcDbSymbolTableRecord
100
AcDbRegAppTableRecord
  2
ACAD_DSTYLE_DIMJAG
 70
     0
  0
APPID
  5
329
330
9
100
AcDbSymbolTableRecord
100
AcDbRegAppTableRecord
  2
ACAD_DSTYLE_DIMBREAK
 70
     0
  0
APPID
  5
32A
330
9
100
AcDbSymbolTableRecord
100
AcDbRegAppTableRecord
  2
ACAD_DSTYLE_DIMTALN
 70
     0
  0
APPID
  5
472
330
9
100
AcDbSymbolTableRecord
100
AcDbRegAppTableRecord
  2
ACAD_EXEMPT_FROM_CAD_STANDARDS
 70
     0
  0
APPID
  5
50F
330
9
100
AcDbSymbolTableRecord
100
AcDbRegAppTableRecord
  2
ACAD_MLEADERVER
 70
     0
  0
APPID
  5
514
330
9
100
AcDbSymbolTableRecord
100
AcDbRegAppTableRecord
  2
ACAD_DSTYLE_DIMARC_LENGTH_SYMBOL
 70
     0
  0
APPID
  5
515
330
9
100
AcDbSymbolTableRecord
100
AcDbRegAppTableRecord
  2
ACAD_DSTYLE_DIMEXT_LENGTH
 70
     0
  0
ENDTAB
  0
TABLE
  2
DIMSTYLE
  5
A
330
0
100
AcDbSymbolTable
 70
    12
100
AcDbDimStyleTable
 71
     2
340
326
340
31D
  0
DIMSTYLE
105
57
330
A
100
AcDbSymbolTableRecord
100
AcDbDimStyleTableRecord
  2
Standard
 70
     0
340
55
  0
DIMSTYLE
105
31D
330
A
100
AcDbSymbolTableRecord
100
AcDbDimStyleTableRecord
  2
1：1
 70
     0
 41
2.5
 42
0.25
 43
0.2
 44
1.25
 73
     0
 74
     0
 77
     3
 78
     8
 79
     2
140
3.0
141
0.0
143
0.03937007874016
147
0.625
171
     3
172
     1
178
     4
179
     1
271
     2
272
     2
274
     3
283
     0
284
     8
288
     1
289
     0
340
55
341
287
342
287
1001
ACAD_DSTYLE_DIMARC_LENGTH_SYMBOL
1070
   379
1070
     2
1001
ACAD_DSTYLE_DIMEXT_LENGTH
1070
   378
1040
1.25
1001
ACAD_DSTYLE_DIMJOGGED_JOGANGLE_SYMBOL
1070
   384
1040
1.570796326794896
  0
DIMSTYLE
105
31E
330
A
100
AcDbSymbolTableRecord
100
AcDbDimStyleTableRecord
  2
2：1
 70
     0
 41
2.5
 42
0.25
 43
0.2
 44
1.25
 73
     0
 74
     0
 77
     3
 78
     8
 79
     2
140
3.0
141
0.0
143
0.03937007874016
144
0.5
147
0.625
171
     3
172
     1
178
     4
179
     1
271
     2
272
     2
274
     3
283
     0
284
     8
288
     1
289
     0
340
55
341
287
342
287
1001
ACAD_DSTYLE_DIMARC_LENGTH_SYMBOL
1070
   379
1070
     2
1001
ACAD_DSTYLE_DIMEXT_LENGTH
1070
   378
1040
1.25
1001
ACAD_DSTYLE_DIMJOGGED_JOGANGLE_SYMBOL
1070
   384
1040
1.570796326794896
  0
DIMSTYLE
105
31F
330
A
100
AcDbSymbolTableRecord
100
AcDbDimStyleTableRecord
  2
5：1
 70
     0
 41
2.5
 42
0.25
 43
0.2
 44
1.25
 73
     0
 74
     0
 77
     3
 78
     8
 79
     2
140
3.0
141
0.0
143
0.03937007874016
144
0.2
147
0.625
171
     3
172
     1
178
     4
179
     1
271
     2
272
     2
274
     3
283
     0
284
     8
288
     1
289
     0
340
55
341
287
342
287
1001
ACAD_DSTYLE_DIMARC_LENGTH_SYMBOL
1070
   379
1070
     2
1001
ACAD_DSTYLE_DIMEXT_LENGTH
1070
   378
1040
1.25
1001
ACAD_DSTYLE_DIMJOGGED_JOGANGLE_SYMBOL
1070
   384
1040
1.570796326794896
  0
DIMSTYLE
105
320
330
A
100
AcDbSymbolTableRecord
100
AcDbDimStyleTableRecord
  2
10：1
 70
     0
 41
2.5
 42
0.25
 43
0.2
 44
1.25
 73
     0
 74
     0
 77
     3
 78
     8
 79
     2
140
3.0
141
0.0
143
0.03937007874016
144
0.1
147
0.625
171
     3
172
     1
178
     4
179
     1
271
     2
272
     2
274
     3
283
     0
284
     8
288
     1
289
     0
340
55
341
287
342
287
1001
ACAD_DSTYLE_DIMARC_LENGTH_SYMBOL
1070
   379
1070
     2
1001
ACAD_DSTYLE_DIMEXT_LENGTH
1070
   378
1040
1.25
1001
ACAD_DSTYLE_DIMJOGGED_JOGANGLE_SYMBOL
1070
   384
1040
1.570796326794896
  0
DIMSTYLE
105
321
330
A
100
AcDbSymbolTableRecord
100
AcDbDimStyleTableRecord
  2
1／2
 70
     0
 41
2.5
 42
0.25
 43
0.2
 44
1.25
 73
     0
 74
     0
 77
     3
 78
     8
 79
     2
140
3.0
141
0.0
143
0.03937007874016
144
2.0
147
0.625
171
     3
172
     1
178
     4
179
     1
271
     2
272
     2
274
     3
283
     0
284
     8
288
     1
289
     0
340
55
341
287
342
287
1001
ACAD_DSTYLE_DIMARC_LENGTH_SYMBOL
1070
   379
1070
     2
1001
ACAD_DSTYLE_DIMEXT_LENGTH
1070
   378
1040
1.25
1001
ACAD_DSTYLE_DIMJOGGED_JOGANGLE_SYMBOL
1070
   384
1040
1.570796326794896
  0
DIMSTYLE
105
322
330
A
100
AcDbSymbolTableRecord
100
AcDbDimStyleTableRecord
  2
1／5
 70
     0
 41
2.5
 42
0.25
 43
0.2
 44
1.25
 73
     0
 74
     0
 77
     3
 78
     8
 79
     2
140
3.0
141
0.0
143
0.03937007874016
144
5.0
147
0.625
171
     3
172
     1
178
     4
179
     1
271
     2
272
     2
274
     3
283
     0
284
     8
288
     1
289
     0
340
55
341
287
342
287
1001
ACAD_DSTYLE_DIMARC_LENGTH_SYMBOL
1070
   379
1070
     2
1001
ACAD_DSTYLE_DIMEXT_LENGTH
1070
   378
1040
1.25
1001
ACAD_DSTYLE_DIMJOGGED_JOGANGLE_SYMBOL
1070
   384
1040
1.570796326794896
  0
DIMSTYLE
105
323
330
A
100
AcDbSymbolTableRecord
100
AcDbDimStyleTableRecord
  2
1／10
 70
     0
 41
2.5
 42
0.25
 43
0.2
 44
1.25
 73
     0
 74
     0
 77
     3
 78
     8
 79
     2
140
3.0
141
0.0
143
0.03937007874016
144
10.0
147
0.625
171
     3
172
     1
178
     4
179
     1
271
     2
272
     2
274
     3
283
     0
284
     8
288
     1
289
     0
340
55
341
287
342
287
1001
ACAD_DSTYLE_DIMARC_LENGTH_SYMBOL
1070
   379
1070
     2
1001
ACAD_DSTYLE_DIMEXT_LENGTH
1070
   378
1040
1.25
1001
ACAD_DSTYLE_DIMJOGGED_JOGANGLE_SYMBOL
1070
   384
1040
1.570796326794896
  0
DIMSTYLE
105
324
330
A
100
AcDbSymbolTableRecord
100
AcDbDimStyleTableRecord
  2
1／4
 70
     0
 41
2.5
 42
0.25
 43
0.2
 44
1.25
 73
     0
 74
     0
 77
     3
 78
     8
 79
     2
140
3.0
141
0.0
143
0.03937007874016
144
4.0
147
0.625
171
     3
172
     1
178
     4
179
     1
271
     2
272
     2
274
     3
283
     0
284
     8
288
     1
289
     0
340
55
341
287
342
287
1001
ACAD_DSTYLE_DIMARC_LENGTH_SYMBOL
1070
   379
1070
     2
1001
ACAD_DSTYLE_DIMEXT_LENGTH
1070
   378
1040
1.25
1001
ACAD_DSTYLE_DIMJOGGED_JOGANGLE_SYMBOL
1070
   384
1040
1.570796326794896
  0
DIMSTYLE
105
325
330
A
100
AcDbSymbolTableRecord
100
AcDbDimStyleTableRecord
  2
1／3
 70
     0
 41
2.5
 42
0.25
 43
0.2
 44
1.25
 73
     0
 74
     0
 77
     3
 78
     8
 79
     2
140
3.0
141
0.0
143
0.03937007874016
144
3.0
147
0.625
171
     3
172
     1
178
     4
179
     1
271
     2
272
     2
274
     3
283
     0
284
     8
288
     1
289
     0
340
55
341
287
342
287
1001
ACAD_DSTYLE_DIMARC_LENGTH_SYMBOL
1070
   379
1070
     2
1001
ACAD_DSTYLE_DIMEXT_LENGTH
1070
   378
1040
1.25
1001
ACAD_DSTYLE_DIMJOGGED_JOGANGLE_SYMBOL
1070
   384
1040
1.570796326794896
  0
DIMSTYLE
105
326
330
A
100
AcDbSymbolTableRecord
100
AcDbDimStyleTableRecord
  2
FREE
 70
     0
 41
2.5
 42
0.25
 43
0.2
 44
1.25
 73
     0
 74
     0
 77
     3
 78
     8
 79
     2
140
3.0
141
0.0
143
0.03937007874016
147
0.625
171
     3
172
     1
178
     4
179
     1
271
     2
272
     2
274
     3
283
     0
284
     8
288
     1
289
     0
340
55
341
287
342
287
1001
ACAD_DSTYLE_DIMBREAK
1070
   391
1040
3.75
1001
ACAD_DSTYLE_DIMJAG
1070
   388
1040
1.5
1001
ACAD_DSTYLE_DIMTALN
1070
   392
1070
     0
1001
ACAD_DSTYLE_DIMARC_LENGTH_SYMBOL
1070
   379
1070
     2
1001
ACAD_DSTYLE_DIMEXT_LENGTH
1070
   378
1040
1.25
1001
ACAD_DSTYLE_DIMJOGGED_JOGANGLE_SYMBOL
1070
   384
1040
1.570796326794896
  0
ENDTAB
  0
TABLE
  2
BLOCK_RECORD
  5
1
330
0
100
AcDbSymbolTable
 70
    56
  0
BLOCK_RECORD
  5
6B
102
{ACAD_XDICTIONARY
360
4BD
102
}
330
1
100
AcDbSymbolTableRecord
100
AcDbBlockTableRecord
  2
*Model_Space
340
6E
  0
BLOCK_RECORD
  5
67
330
1
100
AcDbSymbolTableRecord
100
AcDbBlockTableRecord
  2
*Paper_Space
340
6A
  0
BLOCK_RECORD
  5
287
330
1
100
AcDbSymbolTableRecord
100
AcDbBlockTableRecord
  2
_Open30
340
0
102
{BLKREFS
331
B6B
331
B6C
331
B76
331
B77
331
B7F
331
B80
331
B88
331
B89
331
B91
331
B92
331
B9A
331
B9B
331
D05
331
D06
331
D10
331
D11
331
D1B
331
D1C
331
D26
331
D27
331
D31
331
D32
331
D3C
331
D3D
331
D47
331
D48
331
D52
331
D53
331
D5D
331
D5E
331
D66
331
D67
102
}
  0
BLOCK_RECORD
  5
753
330
1
100
AcDbSymbolTableRecord
100
AcDbBlockTableRecord
  2
*D29
340
0
  0
BLOCK_RECORD
  5
772
330
1
100
AcDbSymbolTableRecord
100
AcDbBlockTableRecord
  2
*D30
340
0
  0
BLOCK_RECORD
  5
781
330
1
100
AcDbSymbolTableRecord
100
AcDbBlockTableRecord
  2
*D31
340
0
  0
BLOCK_RECORD
  5
799
330
1
100
AcDbSymbolTableRecord
100
AcDbBlockTableRecord
  2
*D32
340
0
  0
BLOCK_RECORD
  5
7A6
330
1
100
AcDbSymbolTableRecord
100
AcDbBlockTableRecord
  2
*D33
340
0
  0
BLOCK_RECORD
  5
AD8
330
1
100
AcDbSymbolTableRecord
100
AcDbBlockTableRecord
  2
*D34
340
0
  0
BLOCK_RECORD
  5
C76
330
1
100
AcDbSymbolTableRecord
100
AcDbBlockTableRecord
  2
*D46
340
0
  0
BLOCK_RECORD
  5
C84
330
1
100
AcDbSymbolTableRecord
100
AcDbBlockTableRecord
  2
*D47
340
0
  0
BLOCK_RECORD
  5
C92
330
1
100
AcDbSymbolTableRecord
100
AcDbBlockTableRecord
  2
*D48
340
0
  0
BLOCK_RECORD
  5
CA0
330
1
100
AcDbSymbolTableRecord
100
AcDbBlockTableRecord
  2
*D49
340
0
  0
BLOCK_RECORD
  5
CAE
330
1
100
AcDbSymbolTableRecord
100
AcDbBlockTableRecord
  2
*D50
340
0
  0
BLOCK_RECORD
  5
CBC
330
1
100
AcDbSymbolTableRecord
100
AcDbBlockTableRecord
  2
*D51
340
0
  0
BLOCK_RECORD
  5
CCA
330
1
100
AcDbSymbolTableRecord
100
AcDbBlockTableRecord
  2
*D52
340
0
  0
BLOCK_RECORD
  5
CD8
330
1
100
AcDbSymbolTableRecord
100
AcDbBlockTableRecord
  2
*D53
340
0
  0
BLOCK_RECORD
  5
CE6
330
1
100
AcDbSymbolTableRecord
100
AcDbBlockTableRecord
  2
*D54
340
0
  0
BLOCK_RECORD
  5
CF4
330
1
100
AcDbSymbolTableRecord
100
AcDbBlockTableRecord
  2
*D55
340
0
  0
ENDTAB
  0
ENDSEC
  0
SECTION
  2
BLOCKS
  0
BLOCK
  5
6C
330
6B
100
AcDbEntity
  8
0
100
AcDbBlockBegin
  2
*Model_Space
 70
     0
 10
0.0
 20
0.0
 30
0.0
  3
*Model_Space
  1

  0
ENDBLK
  5
6D
330
6B
100
AcDbEntity
  8
0
100
AcDbBlockEnd
  0
BLOCK
  5
68
330
67
100
AcDbEntity
 67
     1
  8
0
100
AcDbBlockBegin
  2
*Paper_Space
 70
     0
 10
0.0
 20
0.0
 30
0.0
  3
*Paper_Space
  1

  0
ENDBLK
  5
69
330
67
100
AcDbEntity
 67
     1
  8
0
100
AcDbBlockEnd
  0
BLOCK
  5
288
330
287
100
AcDbEntity
  8
0
100
AcDbBlockBegin
  2
_Open30
 70
     0
 10
0.0
 20
0.0
 30
0.0
  3
_Open30
  1

  0
LINE
  5
289
330
287
100
AcDbEntity
  8
0
  6
ByBlock
 62
     0
370
    -2
100
AcDbLine
 10
-1.0
 20
0.267949
 30
0.0
 11
0.0
 21
0.0
 31
0.0
  0
LINE
  5
28A
330
287
100
AcDbEntity
  8
0
  6
ByBlock
 62
     0
370
    -2
100
AcDbLine
 10
0.0
 20
0.0
 30
0.0
 11
-1.0
 21
-0.267949
 31
0.0
  0
LINE
  5
28B
330
287
100
AcDbEntity
  8
0
  6
ByBlock
 62
     0
370
    -2
100
AcDbLine
 10
0.0
 20
0.0
 30
0.0
 11
-1.0
 21
0.0
 31
0.0
  0
ENDBLK
  5
28C
330
287
100
AcDbEntity
  8
0
100
AcDbBlockEnd
  0
BLOCK
  5
754
330
753
100
AcDbEntity
  8
0
100
AcDbBlockBegin
  2
*D29
 70
     1
 10
0.0
 20
0.0
 30
0.0
  3
*D29
  1

  0
LINE
  5
B68
330
753
100
AcDbEntity
  8
0
  6
Continuous
 62
     0
370
    -2
100
AcDbLine
 10
477.264255773007
 20
-927.6273879999999
 30
0.0
 11
552.5213281127505
 21
-927.6273879999999
 31
0.0
  0
LINE
  5
B69
330
753
100
AcDbEntity
  8
0
  6
Continuous
 62
     0
370
    -2
100
AcDbLine
 10
506.0142557730072
 20
-1052.627388
 30
0.0
 11
552.5213281127505
 21
-1052.627388
 31
0.0
  0
LINE
  5
B6A
330
753
100
AcDbEntity
  8
0
  6
Continuous
 62
     0
370
    -2
100
AcDbLine
 10
551.2713281127505
 20
-930.127388
 30
0.0
 11
551.2713281127505
 21
-1050.127388
 31
0.0
  0
INSERT
  5
B6B
330
753
100
AcDbEntity
  8
0
  6
Continuous
 62
     0
370
    -2
100
AcDbBlockReference
  2
_Open30
 10
551.2713281127505
 20
-927.6273879999999
 30
0.0
 41
2.5
 42
2.5
 43
2.5
 50
90.0
  0
INSERT
  5
B6C
330
753
100
AcDbEntity
  8
0
  6
Continuous
 62
     0
370
    -2
100
AcDbBlockReference
  2
_Open30
 10
551.2713281127505
 20
-1052.627388
 30
0.0
 41
2.5
 42
2.5
 43
2.5
 50
270.0
  0
MTEXT
  5
B6D
330
753
100
AcDbEntity
  8
0
  6
Continuous
 62
     4
100
AcDbMText
 10
549.1463281127506
 20
-994.9780167398506
 30
0.0
 40
3.0
 41
0.0
 71
     5
 72
     1
  1
125
 11
0.0000000000000001
 21
1.0
 31
0.0
 73
     1
 44
1.0
1001
ACAD
1000
MTEXTBEGIN
1070
    73
1070
     1
1070
    44
1040
1.0
1070
    74
1070
     0
1000
MTEXTEND
  0
POINT
  5
B6E
330
753
100
AcDbEntity
  8
Defpoints
  6
Continuous
 62
     0
100
AcDbPoint
 10
477.014255773007
 20
-927.6273879999999
 30
0.0
  0
POINT
  5
B6F
330
753
100
AcDbEntity
  8
Defpoints
  6
Continuous
 62
     0
100
AcDbPoint
 10
505.7642557730072
 20
-1052.627388
 30
0.0
  0
POINT
  5
B70
330
753
100
AcDbEntity
  8
Defpoints
  6
Continuous
 62
     0
100
AcDbPoint
 10
551.2713281127505
 20
-1052.627388
 30
0.0
  0
ENDBLK
  5
755
330
753
100
AcDbEntity
  8
0
100
AcDbBlockEnd
  0
BLOCK
  5
773
330
772
100
AcDbEntity
  8
0
100
AcDbBlockBegin
  2
*D30
 70
     1
 10
0.0
 20
0.0
 30
0.0
  3
*D30
  1

  0
LINE
  5
B71
330
772
100
AcDbEntity
  8
0
  6
Continuous
 62
     0
370
    -2
100
AcDbLine
 10
529.014255773007
 20
-1049.127388
 30
0.0
 11
537.4554653977095
 21
-1049.127388
 31
0.0
  0
LINE
  5
B72
330
772
100
AcDbEntity
  8
0
  6
Continuous
 62
     0
370
    -2
100
AcDbLine
 10
529.014255773007
 20
-1052.627388
 30
0.0
 11
537.4554653977095
 21
-1052.627388
 31
0.0
  0
LINE
  5
B73
330
772
100
AcDbEntity
  8
0
  6
Continuous
 62
     0
370
    -2
100
AcDbLine
 10
536.2054653977095
 20
-1046.627388
 30
0.0
 11
536.2054653977095
 21
-1044.127388
 31
0.0
  0
LINE
  5
B74
330
772
100
AcDbEntity
  8
0
  6
Continuous
 62
     0
370
    -2
100
AcDbLine
 10
536.2054653977095
 20
-1055.127388
 30
0.0
 11
536.2054653977095
 21
-1064.877388
 31
0.0
  0
LINE
  5
B75
330
772
100
AcDbEntity
  8
0
  6
Continuous
 62
     0
370
    -2
100
AcDbLine
 10
536.2054653977095
 20
-1049.127388
 30
0.0
 11
536.2054653977095
 21
-1052.627388
 31
0.0
  0
INSERT
  5
B76
330
772
100
AcDbEntity
  8
0
  6
Continuous
 62
     0
370
    -2
100
AcDbBlockReference
  2
_Open30
 10
536.2054653977095
 20
-1049.127388
 30
0.0
 41
2.5
 42
2.5
 43
2.5
 50
270.0
  0
INSERT
  5
B77
330
772
100
AcDbEntity
  8
0
  6
Continuous
 62
     0
370
    -2
100
AcDbBlockReference
  2
_Open30
 10
536.2054653977095
 20
-1052.627388
 30
0.0
 41
2.5
 42
2.5
 43
2.5
 50
90.0
  0
MTEXT
  5
B78
330
772
100
AcDbEntity
  8
0
  6
Continuous
 62
     4
100
AcDbMText
 10
534.0804653977096
 20
-1061.252388
 30
0.0
 40
3.0
 41
0.0
 71
     5
 72
     1
  1
3.5
 11
0.0000000000000001
 21
1.0
 31
0.0
 73
     1
 44
1.0
1001
ACAD
1000
MTEXTBEGIN
1070
    73
1070
     1
1070
    44
1040
1.0
1070
    74
1070
     0
1000
MTEXTEND
  0
POINT
  5
B79
330
772
100
AcDbEntity
  8
Defpoints
  6
Continuous
 62
     0
100
AcDbPoint
 10
528.764255773007
 20
-1049.127388
 30
0.0
  0
POINT
  5
B7A
330
772
100
AcDbEntity
  8
Defpoints
  6
Continuous
 62
     0
100
AcDbPoint
 10
528.764255773007
 20
-1052.627388
 30
0.0
  0
POINT
  5
B7B
330
772
100
AcDbEntity
  8
Defpoints
  6
Continuous
 62
     0
100
AcDbPoint
 10
536.2054653977095
 20
-1052.627388
 30
0.0
  0
ENDBLK
  5
774
330
772
100
AcDbEntity
  8
0
100
AcDbBlockEnd
  0
BLOCK
  5
782
330
781
100
AcDbEntity
  8
0
100
AcDbBlockBegin
  2
*D31
 70
     1
 10
0.0
 20
0.0
 30
0.0
  3
*D31
  1

  0
LINE
  5
B7C
330
781
100
AcDbEntity
  8
0
  6
Continuous
 62
     0
370
    -2
100
AcDbLine
 10
529.014255773007
 20
-1049.127388
 30
0.0
 11
537.4554653977095
 21
-1049.127388
 31
0.0
  0
LINE
  5
B7D
330
781
100
AcDbEntity
  8
0
  6
Continuous
 62
     0
370
    -2
100
AcDbLine
 10
522.0142557730071
 20
-954.6273879999999
 30
0.0
 11
537.4554653977095
 21
-954.6273879999999
 31
0.0
  0
LINE
  5
B7E
330
781
100
AcDbEntity
  8
0
  6
Continuous
 62
     0
370
    -2
100
AcDbLine
 10
536.2054653977095
 20
-1046.627388
 30
0.0
 11
536.2054653977095
 21
-957.1273879999999
 31
0.0
  0
INSERT
  5
B7F
330
781
100
AcDbEntity
  8
0
  6
Continuous
 62
     0
370
    -2
100
AcDbBlockReference
  2
_Open30
 10
536.2054653977095
 20
-1049.127388
 30
0.0
 41
2.5
 42
2.5
 43
2.5
 50
270.0
  0
INSERT
  5
B80
330
781
100
AcDbEntity
  8
0
  6
Continuous
 62
     0
370
    -2
100
AcDbBlockReference
  2
_Open30
 10
536.2054653977095
 20
-954.6273879999999
 30
0.0
 41
2.5
 42
2.5
 43
2.5
 50
90.0
  0
MTEXT
  5
B81
330
781
100
AcDbEntity
  8
0
  6
Continuous
 62
     4
100
AcDbMText
 10
534.0804653977096
 20
-1004.265409015123
 30
0.0
 40
3.0
 41
0.0
 71
     5
 72
     1
  1
94.5
 11
0.0000000000000001
 21
1.0
 31
0.0
 73
     1
 44
1.0
1001
ACAD
1000
MTEXTBEGIN
1070
    73
1070
     1
1070
    44
1040
1.0
1070
    74
1070
     0
1000
MTEXTEND
  0
POINT
  5
B82
330
781
100
AcDbEntity
  8
Defpoints
  6
Continuous
 62
     0
100
AcDbPoint
 10
528.764255773007
 20
-1049.127388
 30
0.0
  0
POINT
  5
B83
330
781
100
AcDbEntity
  8
Defpoints
  6
Continuous
 62
     0
100
AcDbPoint
 10
521.7642557730071
 20
-954.6273879999999
 30
0.0
  0
POINT
  5
B84
330
781
100
AcDbEntity
  8
Defpoints
  6
Continuous
 62
     0
100
AcDbPoint
 10
536.2054653977095
 20
-954.6273879999999
 30
0.0
  0
ENDBLK
  5
783
330
781
100
AcDbEntity
  8
0
100
AcDbBlockEnd
  0
BLOCK
  5
79A
330
799
100
AcDbEntity
  8
0
100
AcDbBlockBegin
  2
*D32
 70
     1
 10
0.0
 20
0.0
 30
0.0
  3
*D32
  1

  0
LINE
  5
B85
330
799
100
AcDbEntity
  8
0
  6
Continuous
 62
     0
370
    -2
100
AcDbLine
 10
528.764255773007
 20
-1049.377388
 30
0.0
 11
528.764255773007
 21
-1065.493471711775
 31
0.0
  0
LINE
  5
B86
330
799
100
AcDbEntity
  8
0
  6
Continuous
 62
     0
370
    -2
100
AcDbLine
 10
413.7642557730071
 20
-1049.377388
 30
0.0
 11
413.7642557730071
 21
-1065.493471711775
 31
0.0
  0
LINE
  5
B87
330
799
100
AcDbEntity
  8
0
  6
Continuous
 62
     0
370
    -2
100
AcDbLine
 10
526.2642557730069
 20
-1064.243471711775
 30
0.0
 11
416.264255773007
 21
-1064.243471711775
 31
0.0
  0
INSERT
  5
B88
330
799
100
AcDbEntity
  8
0
  6
Continuous
 62
     0
370
    -2
100
AcDbBlockReference
  2
_Open30
 10
528.764255773007
 20
-1064.243471711775
 30
0.0
 41
2.5
 42
2.5
 43
2.5
  0
INSERT
  5
B89
330
799
100
AcDbEntity
  8
0
  6
Continuous
 62
     0
370
    -2
100
AcDbBlockReference
  2
_Open30
 10
413.7642557730071
 20
-1064.243471711775
 30
0.0
 41
2.5
 42
2.5
 43
2.5
 50
180.0
  0
MTEXT
  5
B8A
330
799
100
AcDbEntity
  8
0
  6
Continuous
 62
     4
100
AcDbMText
 10
471.9317998936859
 20
-1062.118471711775
 30
0.0
 40
3.0
 41
0.0
 71
     5
 72
     1
  1
115
 73
     1
 44
1.0
1001
ACAD
1000
MTEXTBEGIN
1070
    73
1070
     1
1070
    44
1040
1.0
1070
    74
1070
     0
1000
MTEXTEND
  0
POINT
  5
B8B
330
799
100
AcDbEntity
  8
Defpoints
  6
Continuous
 62
     0
100
AcDbPoint
 10
528.764255773007
 20
-1049.127388
 30
0.0
  0
POINT
  5
B8C
330
799
100
AcDbEntity
  8
Defpoints
  6
Continuous
 62
     0
100
AcDbPoint
 10
413.7642557730071
 20
-1049.127388
 30
0.0
  0
POINT
  5
B8D
330
799
100
AcDbEntity
  8
Defpoints
  6
Continuous
 62
     0
100
AcDbPoint
 10
413.7642557730071
 20
-1064.243471711775
 30
0.0
  0
ENDBLK
  5
79B
330
799
100
AcDbEntity
  8
0
100
AcDbBlockEnd
  0
BLOCK
  5
7A7
330
7A6
100
AcDbEntity
  8
0
100
AcDbBlockBegin
  2
*D33
 70
     1
 10
0.0
 20
0.0
 30
0.0
  3
*D33
  1

  0
LINE
  5
B8E
330
7A6
100
AcDbEntity
  8
0
  6
Continuous
 62
     0
370
    -2
100
AcDbLine
 10
561.9209608938988
 20
-1034.377388
 30
0.0
 11
561.9209608938988
 21
-1065.622122396889
 31
0.0
  0
LINE
  5
B8F
330
7A6
100
AcDbEntity
  8
0
  6
Continuous
 62
     0
370
    -2
100
AcDbLine
 10
721.9209608938989
 20
-1049.377388
 30
0.0
 11
721.9209608938989
 21
-1065.622122396889
 31
0.0
  0
LINE
  5
B90
330
7A6
100
AcDbEntity
  8
0
  6
Continuous
 62
     0
370
    -2
100
AcDbLine
 10
564.4209608938988
 20
-1064.372122396889
 30
0.0
 11
719.4209608938989
 21
-1064.372122396889
 31
0.0
  0
INSERT
  5
B91
330
7A6
100
AcDbEntity
  8
0
  6
Continuous
 62
     0
370
    -2
100
AcDbBlockReference
  2
_Open30
 10
561.9209608938988
 20
-1064.372122396889
 30
0.0
 41
2.5
 42
2.5
 43
2.5
 50
180.0
  0
INSERT
  5
B92
330
7A6
100
AcDbEntity
  8
0
  6
Continuous
 62
     0
370
    -2
100
AcDbBlockReference
  2
_Open30
 10
721.9209608938989
 20
-1064.372122396889
 30
0.0
 41
2.5
 42
2.5
 43
2.5
  0
MTEXT
  5
B93
330
7A6
100
AcDbEntity
  8
0
  6
Continuous
 62
     4
100
AcDbMText
 10
643.9762166945165
 20
-1062.247122396889
 30
0.0
 40
3.0
 41
0.0
 71
     5
 72
     1
  1
160
 73
     1
 44
1.0
1001
ACAD
1000
MTEXTBEGIN
1070
    73
1070
     1
1070
    44
1040
1.0
1070
    74
1070
     0
1000
MTEXTEND
  0
POINT
  5
B94
330
7A6
100
AcDbEntity
  8
Defpoints
  6
Continuous
 62
     0
100
AcDbPoint
 10
561.9209608938988
 20
-1034.127388
 30
0.0
  0
POINT
  5
B95
330
7A6
100
AcDbEntity
  8
Defpoints
  6
Continuous
 62
     0
100
AcDbPoint
 10
721.9209608938989
 20
-1049.127388
 30
0.0
  0
POINT
  5
B96
330
7A6
100
AcDbEntity
  8
Defpoints
  6
Continuous
 62
     0
100
AcDbPoint
 10
721.9209608938989
 20
-1064.372122396889
 30
0.0
  0
ENDBLK
  5
7A8
330
7A6
100
AcDbEntity
  8
0
100
AcDbBlockEnd
  0
BLOCK
  5
AD9
330
AD8
100
AcDbEntity
  8
0
100
AcDbBlockBegin
  2
*D34
 70
     1
 10
0.0
 20
0.0
 30
0.0
  3
*D34
  1

  0
LINE
  5
B97
330
AD8
100
AcDbEntity
  8
0
  6
Continuous
 62
     0
370
    -2
100
AcDbLine
 10
478.2642557730071
 20
-947.6066620578363
 30
0.0
 11
544.4307889860205
 21
-947.6066620578363
 31
0.0
  0
LINE
  5
B98
330
AD8
100
AcDbEntity
  8
0
  6
Continuous
 62
     0
370
    -2
100
AcDbLine
 10
506.0142557730069
 20
-1052.627388
 30
0.0
 11
544.4307889860205
 21
-1052.627388
 31
0.0
  0
LINE
  5
B99
330
AD8
100
AcDbEntity
  8
0
  6
Continuous
 62
     0
370
    -2
100
AcDbLine
 10
543.1807889860205
 20
-950.1066620578363
 30
0.0
 11
543.1807889860205
 21
-1050.127388
 31
0.0
  0
INSERT
  5
B9A
330
AD8
100
AcDbEntity
  8
0
  6
Continuous
 62
     0
370
    -2
100
AcDbBlockReference
  2
_Open30
 10
543.1807889860205
 20
-947.6066620578363
 30
0.0
 41
2.5
 42
2.5
 43
2.5
 50
90.0
  0
INSERT
  5
B9B
330
AD8
100
AcDbEntity
  8
0
  6
Continuous
 62
     0
370
    -2
100
AcDbBlockReference
  2
_Open30
 10
543.1807889860205
 20
-1052.627388
 30
0.0
 41
2.5
 42
2.5
 43
2.5
 50
270.0
  0
MTEXT
  5
B9C
330
AD8
100
AcDbEntity
  8
0
  6
Continuous
 62
     4
100
AcDbMText
 10
541.0557889860206
 20
-1000.53922357597
 30
0.0
 40
3.0
 41
0.0
 71
     5
 72
     1
  1
105
 11
0.0000000000000001
 21
1.0
 31
0.0
 73
     1
 44
1.0
1001
ACAD
1000
MTEXTBEGIN
1070
    73
1070
     1
1070
    44
1040
1.0
1070
    74
1070
     0
1000
MTEXTEND
  0
POINT
  5
B9D
330
AD8
100
AcDbEntity
  8
Defpoints
  6
Continuous
 62
     0
100
AcDbPoint
 10
478.0142557730071
 20
-947.6066620578363
 30
0.0
  0
POINT
  5
B9E
330
AD8
100
AcDbEntity
  8
Defpoints
  6
Continuous
 62
     0
100
AcDbPoint
 10
505.7642557730068
 20
-1052.627388
 30
0.0
  0
POINT
  5
B9F
330
AD8
100
AcDbEntity
  8
Defpoints
  6
Continuous
 62
     0
100
AcDbPoint
 10
543.1807889860205
 20
-1052.627388
 30
0.0
  0
ENDBLK
  5
ADA
330
AD8
100
AcDbEntity
  8
0
100
AcDbBlockEnd
  0
BLOCK
  5
C77
330
C76
100
AcDbEntity
  8
0
100
AcDbBlockBegin
  2
*D46
 70
     1
 10
0.0
 20
0.0
 30
0.0
  3
*D46
  1

  0
LINE
  5
D00
330
C76
100
AcDbEntity
  8
0
 62
     0
370
    -2
100
AcDbLine
 10
1060.892883630335
 20
-925.5342655780211
 30
0.0
 11
1060.892883630335
 21
-928.4438970000298
 31
0.0
  0
LINE
  5
D01
330
C76
100
AcDbEntity
  8
0
 62
     0
370
    -2
100
AcDbLine
 10
1058.435696576215
 20
-925.5342655780211
 30
0.0
 11
1058.435696576215
 21
-928.4438970000298
 31
0.0
  0
LINE
  5
D02
330
C76
100
AcDbEntity
  8
0
 62
     0
370
    -2
100
AcDbLine
 10
1063.392883630336
 20
-927.1938970000299
 30
0.0
 11
1065.892883630336
 21
-927.1938970000299
 31
0.0
  0
LINE
  5
D03
330
C76
100
AcDbEntity
  8
0
 62
     0
370
    -2
100
AcDbLine
 10
1055.935696576215
 20
-927.1938970000299
 30
0.0
 11
1043.185696576215
 21
-927.1938970000299
 31
0.0
  0
LINE
  5
D04
330
C76
100
AcDbEntity
  8
0
 62
     0
370
    -2
100
AcDbLine
 10
1060.892883630335
 20
-927.1938970000299
 30
0.0
 11
1058.435696576215
 21
-927.1938970000299
 31
0.0
  0
INSERT
  5
D05
330
C76
100
AcDbEntity
  8
0
 62
     0
370
    -2
100
AcDbBlockReference
  2
_Open30
 10
1060.892883630335
 20
-927.1938970000299
 30
0.0
 41
2.5
 42
2.5
 43
2.5
 50
180.0
  0
INSERT
  5
D06
330
C76
100
AcDbEntity
  8
0
 62
     0
370
    -2
100
AcDbBlockReference
  2
_Open30
 10
1058.435696576215
 20
-927.1938970000299
 30
0.0
 41
2.5
 42
2.5
 43
2.5
  0
MTEXT
  5
D07
330
C76
100
AcDbEntity
  8
0
 62
     4
100
AcDbMText
 10
1048.310696576215
 20
-925.0688970000298
 30
0.0
 40
3.0
 41
0.0
 71
     5
 72
     1
  1
2.46
 73
     1
 44
1.0
1001
ACAD
1000
MTEXTBEGIN
1070
    73
1070
     1
1070
    44
1040
1.0
1070
    74
1070
     0
1000
MTEXTEND
  0
POINT
  5
D08
330
C76
100
AcDbEntity
  8
Defpoints
 62
     0
100
AcDbPoint
 10
1060.892883630335
 20
-925.2842655780211
 30
0.0
  0
POINT
  5
D09
330
C76
100
AcDbEntity
  8
Defpoints
 62
     0
100
AcDbPoint
 10
1058.435696576215
 20
-925.2842655780211
 30
0.0
  0
POINT
  5
D0A
330
C76
100
AcDbEntity
  8
Defpoints
 62
     0
100
AcDbPoint
 10
1058.435696576215
 20
-927.1938970000299
 30
0.0
  0
ENDBLK
  5
C78
330
C76
100
AcDbEntity
  8
0
100
AcDbBlockEnd
  0
BLOCK
  5
C85
330
C84
100
AcDbEntity
  8
0
100
AcDbBlockBegin
  2
*D47
 70
     1
 10
0.0
 20
0.0
 30
0.0
  3
*D47
  1

  0
LINE
  5
D0B
330
C84
100
AcDbEntity
  8
0
 62
     0
370
    -2
100
AcDbLine
 10
1062.531008536409
 20
-930.9903551507835
 30
0.0
 11
1062.531008536409
 21
-933.5362472202467
 31
0.0
  0
LINE
  5
D0C
330
C84
100
AcDbEntity
  8
0
 62
     0
370
    -2
100
AcDbLine
 10
1059.436772738266
 20
-930.9903551507835
 30
0.0
 11
1059.436772738266
 21
-933.5362472202467
 31
0.0
  0
LINE
  5
D0D
330
C84
100
AcDbEntity
  8
0
 62
     0
370
    -2
100
AcDbLine
 10
1065.031008536409
 20
-932.2862472202467
 30
0.0
 11
1067.531008536409
 21
-932.2862472202467
 31
0.0
  0
LINE
  5
D0E
330
C84
100
AcDbEntity
  8
0
 62
     0
370
    -2
100
AcDbLine
 10
1056.936772738266
 20
-932.2862472202467
 30
0.0
 11
1043.103439404932
 21
-932.2862472202467
 31
0.0
  0
LINE
  5
D0F
330
C84
100
AcDbEntity
  8
0
 62
     0
370
    -2
100
AcDbLine
 10
1062.531008536409
 20
-932.2862472202467
 30
0.0
 11
1059.436772738266
 21
-932.2862472202467
 31
0.0
  0
INSERT
  5
D10
330
C84
100
AcDbEntity
  8
0
 62
     0
370
    -2
100
AcDbBlockReference
  2
_Open30
 10
1062.531008536409
 20
-932.2862472202467
 30
0.0
 41
2.5
 42
2.5
 43
2.5
 50
180.0
  0
INSERT
  5
D11
330
C84
100
AcDbEntity
  8
0
 62
     0
370
    -2
100
AcDbBlockReference
  2
_Open30
 10
1059.436772738266
 20
-932.2862472202467
 30
0.0
 41
2.5
 42
2.5
 43
2.5
  0
MTEXT
  5
D12
330
C84
100
AcDbEntity
  8
0
 62
     4
100
AcDbMText
 10
1048.311772738266
 20
-930.4112472202467
 30
0.0
 40
2.5
 41
0.0
 71
     5
 72
     1
  1
15.47
  7
高2.5
 73
     1
 44
1.0
1001
ACAD
1000
MTEXTBEGIN
1070
    73
1070
     1
1070
    44
1040
1.0
1070
    74
1070
     0
1000
MTEXTEND
  0
POINT
  5
D13
330
C84
100
AcDbEntity
  8
Defpoints
 62
     0
100
AcDbPoint
 10
1062.531008536409
 20
-930.7403551507833
 30
0.0
  0
POINT
  5
D14
330
C84
100
AcDbEntity
  8
Defpoints
 62
     0
100
AcDbPoint
 10
1059.436772738266
 20
-930.7403551507833
 30
0.0
  0
POINT
  5
D15
330
C84
100
AcDbEntity
  8
Defpoints
 62
     0
100
AcDbPoint
 10
1059.436772738266
 20
-932.2862472202467
 30
0.0
  0
ENDBLK
  5
C86
330
C84
100
AcDbEntity
  8
0
100
AcDbBlockEnd
  0
BLOCK
  5
C93
330
C92
100
AcDbEntity
  8
0
100
AcDbBlockBegin
  2
*D48
 70
     1
 10
0.0
 20
0.0
 30
0.0
  3
*D48
  1

  0
LINE
  5
D16
330
C92
100
AcDbEntity
  8
0
 62
     0
370
    -2
100
AcDbLine
 10
1064.260140144494
 20
-936.4464448666298
 30
0.0
 11
1064.260140144494
 21
-938.7195325289972
 31
0.0
  0
LINE
  5
D17
330
C92
100
AcDbEntity
  8
0
 62
     0
370
    -2
100
AcDbLine
 10
1060.255835191302
 20
-936.4464448666298
 30
0.0
 11
1060.255835191302
 21
-938.7195325289972
 31
0.0
  0
LINE
  5
D18
330
C92
100
AcDbEntity
  8
0
 62
     0
370
    -2
100
AcDbLine
 10
1066.760140144494
 20
-937.4695325289971
 30
0.0
 11
1069.260140144494
 21
-937.4695325289971
 31
0.0
  0
LINE
  5
D19
330
C92
100
AcDbEntity
  8
0
 62
     0
370
    -2
100
AcDbLine
 10
1057.755835191303
 20
-937.4695325289971
 30
0.0
 11
1046.005835191302
 21
-937.4695325289971
 31
0.0
  0
LINE
  5
D1A
330
C92
100
AcDbEntity
  8
0
 62
     0
370
    -2
100
AcDbLine
 10
1064.260140144494
 20
-937.4695325289971
 30
0.0
 11
1060.255835191302
 21
-937.4695325289971
 31
0.0
  0
INSERT
  5
D1B
330
C92
100
AcDbEntity
  8
0
 62
     0
370
    -2
100
AcDbBlockReference
  2
_Open30
 10
1064.260140144494
 20
-937.4695325289971
 30
0.0
 41
2.5
 42
2.5
 43
2.5
 50
180.0
  0
INSERT
  5
D1C
330
C92
100
AcDbEntity
  8
0
 62
     0
370
    -2
100
AcDbBlockReference
  2
_Open30
 10
1060.255835191302
 20
-937.4695325289971
 30
0.0
 41
2.5
 42
2.5
 43
2.5
  0
MTEXT
  5
D1D
330
C92
100
AcDbEntity
  8
0
 62
     4
100
AcDbMText
 10
1050.630835191302
 20
-935.2445325289972
 30
0.0
 40
3.2
 41
0.0
 71
     5
 72
     1
  1
8.01
  7
高3.2
 73
     1
 44
1.0
1001
ACAD
1000
MTEXTBEGIN
1070
    73
1070
     1
1070
    44
1040
1.0
1070
    74
1070
     0
1000
MTEXTEND
  0
POINT
  5
D1E
330
C92
100
AcDbEntity
  8
Defpoints
 62
     0
100
AcDbPoint
 10
1064.260140144494
 20
-936.1964448666299
 30
0.0
  0
POINT
  5
D1F
330
C92
100
AcDbEntity
  8
Defpoints
 62
     0
100
AcDbPoint
 10
1060.255835191302
 20
-936.1964448666299
 30
0.0
  0
POINT
  5
D20
330
C92
100
AcDbEntity
  8
Defpoints
 62
     0
100
AcDbPoint
 10
1060.255835191302
 20
-937.4695325289971
 30
0.0
  0
ENDBLK
  5
C94
330
C92
100
AcDbEntity
  8
0
100
AcDbBlockEnd
  0
BLOCK
  5
CA1
330
CA0
100
AcDbEntity
  8
0
100
AcDbBlockBegin
  2
*D49
 70
     1
 10
0.0
 20
0.0
 30
0.0
  3
*D49
  1

  0
LINE
  5
D21
330
CA0
100
AcDbEntity
  8
0
 62
     0
370
    -2
100
AcDbLine
 10
1064.169133442482
 20
-941.7206648346615
 30
0.0
 11
1064.169133442482
 21
-943.539078342118
 31
0.0
  0
LINE
  5
D22
330
CA0
100
AcDbEntity
  8
0
 62
     0
370
    -2
100
AcDbLine
 10
1059.436772738266
 20
-941.7206648346615
 30
0.0
 11
1059.436772738266
 21
-943.539078342118
 31
0.0
  0
LINE
  5
D23
330
CA0
100
AcDbEntity
  8
0
 62
     0
370
    -2
100
AcDbLine
 10
1066.669133442482
 20
-942.2890783421179
 30
0.0
 11
1069.169133442482
 21
-942.2890783421179
 31
0.0
  0
LINE
  5
D24
330
CA0
100
AcDbEntity
  8
0
 62
     0
370
    -2
100
AcDbLine
 10
1056.936772738266
 20
-942.2890783421179
 30
0.0
 11
1035.186772738266
 21
-942.2890783421179
 31
0.0
  0
LINE
  5
D25
330
CA0
100
AcDbEntity
  8
0
 62
     0
370
    -2
100
AcDbLine
 10
1064.169133442482
 20
-942.2890783421179
 30
0.0
 11
1059.436772738266
 21
-942.2890783421179
 31
0.0
  0
INSERT
  5
D26
330
CA0
100
AcDbEntity
  8
0
 62
     0
370
    -2
100
AcDbBlockReference
  2
_Open30
 10
1064.169133442482
 20
-942.2890783421179
 30
0.0
 41
2.5
 42
2.5
 43
2.5
 50
180.0
  0
INSERT
  5
D27
330
CA0
100
AcDbEntity
  8
0
 62
     0
370
    -2
100
AcDbBlockReference
  2
_Open30
 10
1059.436772738266
 20
-942.2890783421179
 30
0.0
 41
2.5
 42
2.5
 43
2.5
  0
MTEXT
  5
D28
330
CA0
100
AcDbEntity
  8
0
 62
     4
100
AcDbMText
 10
1044.811772738266
 20
-939.4140783421178
 30
0.0
 40
4.5
 41
0.0
 71
     5
 72
     1
  1
47.32
  7
高4.5
 73
     1
 44
1.0
1001
ACAD
1000
MTEXTBEGIN
1070
    73
1070
     1
1070
    44
1040
1.0
1070
    74
1070
     0
1000
MTEXTEND
  0
POINT
  5
D29
330
CA0
100
AcDbEntity
  8
Defpoints
 62
     0
100
AcDbPoint
 10
1064.169133442482
 20
-941.4706648346616
 30
0.0
  0
POINT
  5
D2A
330
CA0
100
AcDbEntity
  8
Defpoints
 62
     0
100
AcDbPoint
 10
1059.436772738266
 20
-941.4706648346616
 30
0.0
  0
POINT
  5
D2B
330
CA0
100
AcDbEntity
  8
Defpoints
 62
     0
100
AcDbPoint
 10
1059.436772738266
 20
-942.2890783421179
 30
0.0
  0
ENDBLK
  5
CA2
330
CA0
100
AcDbEntity
  8
0
100
AcDbBlockEnd
  0
BLOCK
  5
CAF
330
CAE
100
AcDbEntity
  8
0
100
AcDbBlockBegin
  2
*D50
 70
     1
 10
0.0
 20
0.0
 30
0.0
  3
*D50
  1

  0
LINE
  5
D2C
330
CAE
100
AcDbEntity
  8
0
 62
     0
370
    -2
100
AcDbLine
 10
1085.646769710489
 20
-925.5342655780211
 30
0.0
 11
1085.646769710489
 21
-928.4438970000298
 31
0.0
  0
LINE
  5
D2D
330
CAE
100
AcDbEntity
  8
0
 62
     0
370
    -2
100
AcDbLine
 10
1083.189582656369
 20
-925.5342655780211
 30
0.0
 11
1083.189582656369
 21
-928.4438970000298
 31
0.0
  0
LINE
  5
D2E
330
CAE
100
AcDbEntity
  8
0
 62
     0
370
    -2
100
AcDbLine
 10
1088.14676971049
 20
-927.1938970000299
 30
0.0
 11
1090.64676971049
 21
-927.1938970000299
 31
0.0
  0
LINE
  5
D2F
330
CAE
100
AcDbEntity
  8
0
 62
     0
370
    -2
100
AcDbLine
 10
1080.689582656369
 20
-927.1938970000299
 30
0.0
 11
1059.089582656369
 21
-927.1938970000299
 31
0.0
  0
LINE
  5
D30
330
CAE
100
AcDbEntity
  8
0
 62
     0
370
    -2
100
AcDbLine
 10
1085.646769710489
 20
-927.1938970000299
 30
0.0
 11
1083.189582656369
 21
-927.1938970000299
 31
0.0
  0
INSERT
  5
D31
330
CAE
100
AcDbEntity
  8
0
 62
     0
370
    -2
100
AcDbBlockReference
  2
_Open30
 10
1085.646769710489
 20
-927.1938970000299
 30
0.0
 41
2.5
 42
2.5
 43
2.5
 50
180.0
  0
INSERT
  5
D32
330
CAE
100
AcDbEntity
  8
0
 62
     0
370
    -2
100
AcDbBlockReference
  2
_Open30
 10
1083.189582656369
 20
-927.1938970000299
 30
0.0
 41
2.5
 42
2.5
 43
2.5
  0
MTEXT
  5
D33
330
CAE
100
AcDbEntity
  8
0
 62
     4
100
AcDbMText
 10
1068.639582656369
 20
-923.41889700003
 30
0.0
 40
6.299999999999998
 41
0.0
 71
     5
 72
     1
  1
0.25
  7
高6.3
 73
     1
 44
1.0
1001
ACAD
1000
MTEXTBEGIN
1070
    73
1070
     1
1070
    44
1040
1.0
1070
    74
1070
     0
1000
MTEXTEND
  0
POINT
  5
D34
330
CAE
100
AcDbEntity
  8
Defpoints
 62
     0
100
AcDbPoint
 10
1085.646769710489
 20
-925.2842655780211
 30
0.0
  0
POINT
  5
D35
330
CAE
100
AcDbEntity
  8
Defpoints
 62
     0
100
AcDbPoint
 10
1083.189582656369
 20
-925.2842655780211
 30
0.0
  0
POINT
  5
D36
330
CAE
100
AcDbEntity
  8
Defpoints
 62
     0
100
AcDbPoint
 10
1083.189582656369
 20
-927.1938970000299
 30
0.0
  0
ENDBLK
  5
CB0
330
CAE
100
AcDbEntity
  8
0
100
AcDbBlockEnd
  0
BLOCK
  5
CBD
330
CBC
100
AcDbEntity
  8
0
100
AcDbBlockBegin
  2
*D51
 70
     1
 10
0.0
 20
0.0
 30
0.0
  3
*D51
  1

  0
LINE
  5
D37
330
CBC
100
AcDbEntity
  8
0
 62
     0
370
    -2
100
AcDbLine
 10
1087.284894616562
 20
-930.9903551507835
 30
0.0
 11
1087.284894616562
 21
-933.5362472202467
 31
0.0
  0
LINE
  5
D38
330
CBC
100
AcDbEntity
  8
0
 62
     0
370
    -2
100
AcDbLine
 10
1084.19065881842
 20
-930.9903551507835
 30
0.0
 11
1084.19065881842
 21
-933.5362472202467
 31
0.0
  0
LINE
  5
D39
330
CBC
100
AcDbEntity
  8
0
 62
     0
370
    -2
100
AcDbLine
 10
1089.784894616562
 20
-932.2862472202467
 30
0.0
 11
1092.284894616563
 21
-932.2862472202467
 31
0.0
  0
LINE
  5
D3A
330
CBC
100
AcDbEntity
  8
0
 62
     0
370
    -2
100
AcDbLine
 10
1081.69065881842
 20
-932.2862472202467
 30
0.0
 11
1069.69065881842
 21
-932.2862472202467
 31
0.0
  0
LINE
  5
D3B
330
CBC
100
AcDbEntity
  8
0
 62
     0
370
    -2
100
AcDbLine
 10
1087.284894616562
 20
-932.2862472202467
 30
0.0
 11
1084.19065881842
 21
-932.2862472202467
 31
0.0
  0
INSERT
  5
D3C
330
CBC
100
AcDbEntity
  8
0
 62
     0
370
    -2
100
AcDbBlockReference
  2
_Open30
 10
1087.284894616562
 20
-932.2862472202467
 30
0.0
 41
2.5
 42
2.5
 43
2.5
 50
180.0
  0
INSERT
  5
D3D
330
CBC
100
AcDbEntity
  8
0
 62
     0
370
    -2
100
AcDbBlockReference
  2
_Open30
 10
1084.19065881842
 20
-932.2862472202467
 30
0.0
 41
2.5
 42
2.5
 43
2.5
  0
MTEXT
  5
D3E
330
CBC
100
AcDbEntity
  8
0
 62
     4
100
AcDbMText
 10
1074.31565881842
 20
-930.1612472202467
 30
0.0
 40
3.0
 41
0.0
 71
     5
 72
     1
  1
1.55
 73
     1
 44
1.0
1001
ACAD
1000
MTEXTBEGIN
1070
    73
1070
     1
1070
    44
1040
1.0
1070
    74
1070
     0
1000
MTEXTEND
  0
POINT
  5
D3F
330
CBC
100
AcDbEntity
  8
Defpoints
 62
     0
100
AcDbPoint
 10
1087.284894616562
 20
-930.7403551507833
 30
0.0
  0
POINT
  5
D40
330
CBC
100
AcDbEntity
  8
Defpoints
 62
     0
100
AcDbPoint
 10
1084.19065881842
 20
-930.7403551507833
 30
0.0
  0
POINT
  5
D41
330
CBC
100
AcDbEntity
  8
Defpoints
 62
     0
100
AcDbPoint
 10
1084.19065881842
 20
-932.2862472202467
 30
0.0
  0
ENDBLK
  5
CBE
330
CBC
100
AcDbEntity
  8
0
100
AcDbBlockEnd
  0
BLOCK
  5
CCB
330
CCA
100
AcDbEntity
  8
0
100
AcDbBlockBegin
  2
*D52
 70
     1
 10
0.0
 20
0.0
 30
0.0
  3
*D52
  1

  0
LINE
  5
D42
330
CCA
100
AcDbEntity
  8
0
 62
     0
370
    -2
100
AcDbLine
 10
1089.014026224648
 20
-936.4464448666298
 30
0.0
 11
1089.014026224648
 21
-938.7195325289972
 31
0.0
  0
LINE
  5
D43
330
CCA
100
AcDbEntity
  8
0
 62
     0
370
    -2
100
AcDbLine
 10
1085.009721271456
 20
-936.4464448666298
 30
0.0
 11
1085.009721271456
 21
-938.7195325289972
 31
0.0
  0
LINE
  5
D44
330
CCA
100
AcDbEntity
  8
0
 62
     0
370
    -2
100
AcDbLine
 10
1091.514026224648
 20
-937.4695325289971
 30
0.0
 11
1094.014026224648
 21
-937.4695325289971
 31
0.0
  0
LINE
  5
D45
330
CCA
100
AcDbEntity
  8
0
 62
     0
370
    -2
100
AcDbLine
 10
1082.509721271456
 20
-937.4695325289971
 30
0.0
 11
1074.176387938123
 21
-937.4695325289971
 31
0.0
  0
LINE
  5
D46
330
CCA
100
AcDbEntity
  8
0
 62
     0
370
    -2
100
AcDbLine
 10
1089.014026224648
 20
-937.4695325289971
 30
0.0
 11
1085.009721271456
 21
-937.4695325289971
 31
0.0
  0
INSERT
  5
D47
330
CCA
100
AcDbEntity
  8
0
 62
     0
370
    -2
100
AcDbBlockReference
  2
_Open30
 10
1089.014026224648
 20
-937.4695325289971
 30
0.0
 41
2.5
 42
2.5
 43
2.5
 50
180.0
  0
INSERT
  5
D48
330
CCA
100
AcDbEntity
  8
0
 62
     0
370
    -2
100
AcDbBlockReference
  2
_Open30
 10
1085.009721271456
 20
-937.4695325289971
 30
0.0
 41
2.5
 42
2.5
 43
2.5
  0
MTEXT
  5
D49
330
CCA
100
AcDbEntity
  8
0
 62
     4
100
AcDbMText
 10
1076.634721271456
 20
-935.8445325289972
 30
0.0
 40
2.0
 41
0.0
 71
     5
 72
     1
  1
0.8
  7
高2
 73
     1
 44
1.0
1001
ACAD
1000
MTEXTBEGIN
1070
    73
1070
     1
1070
    44
1040
1.0
1070
    74
1070
     0
1000
MTEXTEND
  0
POINT
  5
D4A
330
CCA
100
AcDbEntity
  8
Defpoints
 62
     0
100
AcDbPoint
 10
1089.014026224648
 20
-936.1964448666299
 30
0.0
  0
POINT
  5
D4B
330
CCA
100
AcDbEntity
  8
Defpoints
 62
     0
100
AcDbPoint
 10
1085.009721271456
 20
-936.1964448666299
 30
0.0
  0
POINT
  5
D4C
330
CCA
100
AcDbEntity
  8
Defpoints
 62
     0
100
AcDbPoint
 10
1085.009721271456
 20
-937.4695325289971
 30
0.0
  0
ENDBLK
  5
CCC
330
CCA
100
AcDbEntity
  8
0
100
AcDbBlockEnd
  0
BLOCK
  5
CD9
330
CD8
100
AcDbEntity
  8
0
100
AcDbBlockBegin
  2
*D53
 70
     1
 10
0.0
 20
0.0
 30
0.0
  3
*D53
  1

  0
LINE
  5
D4D
330
CD8
100
AcDbEntity
  8
0
 62
     0
370
    -2
100
AcDbLine
 10
1088.923019522636
 20
-941.7206648346615
 30
0.0
 11
1088.923019522636
 21
-943.539078342118
 31
0.0
  0
LINE
  5
D4E
330
CD8
100
AcDbEntity
  8
0
 62
     0
370
    -2
100
AcDbLine
 10
1084.19065881842
 20
-941.7206648346615
 30
0.0
 11
1084.19065881842
 21
-943.539078342118
 31
0.0
  0
LINE
  5
D4F
330
CD8
100
AcDbEntity
  8
0
 62
     0
370
    -2
100
AcDbLine
 10
1091.423019522636
 20
-942.2890783421179
 30
0.0
 11
1093.923019522636
 21
-942.2890783421179
 31
0.0
  0
LINE
  5
D50
330
CD8
100
AcDbEntity
  8
0
 62
     0
370
    -2
100
AcDbLine
 10
1081.69065881842
 20
-942.2890783421179
 30
0.0
 11
1066.94065881842
 21
-942.2890783421179
 31
0.0
  0
LINE
  5
D51
330
CD8
100
AcDbEntity
  8
0
 62
     0
370
    -2
100
AcDbLine
 10
1088.923019522636
 20
-942.2890783421179
 30
0.0
 11
1084.19065881842
 21
-942.2890783421179
 31
0.0
  0
INSERT
  5
D52
330
CD8
100
AcDbEntity
  8
0
 62
     0
370
    -2
100
AcDbBlockReference
  2
_Open30
 10
1088.923019522636
 20
-942.2890783421179
 30
0.0
 41
2.5
 42
2.5
 43
2.5
 50
180.0
  0
INSERT
  5
D53
330
CD8
100
AcDbEntity
  8
0
 62
     0
370
    -2
100
AcDbBlockReference
  2
_Open30
 10
1084.19065881842
 20
-942.2890783421179
 30
0.0
 41
2.5
 42
2.5
 43
2.5
  0
MTEXT
  5
D54
330
CD8
100
AcDbEntity
  8
0
 62
     4
100
AcDbMText
 10
1073.06565881842
 20
-940.1640783421179
 30
0.0
 40
3.0
 41
0.0
 71
     5
 72
     1
  1
18.93
 73
     1
 44
1.0
1001
ACAD
1000
MTEXTBEGIN
1070
    73
1070
     1
1070
    44
1040
1.0
1070
    74
1070
     0
1000
MTEXTEND
  0
POINT
  5
D55
330
CD8
100
AcDbEntity
  8
Defpoints
 62
     0
100
AcDbPoint
 10
1088.923019522636
 20
-941.4706648346616
 30
0.0
  0
POINT
  5
D56
330
CD8
100
AcDbEntity
  8
Defpoints
 62
     0
100
AcDbPoint
 10
1084.19065881842
 20
-941.4706648346616
 30
0.0
  0
POINT
  5
D57
330
CD8
100
AcDbEntity
  8
Defpoints
 62
     0
100
AcDbPoint
 10
1084.19065881842
 20
-942.2890783421179
 30
0.0
  0
ENDBLK
  5
CDA
330
CD8
100
AcDbEntity
  8
0
100
AcDbBlockEnd
  0
BLOCK
  5
CE7
330
CE6
100
AcDbEntity
  8
0
100
AcDbBlockBegin
  2
*D54
 70
     1
 10
0.0
 20
0.0
 30
0.0
  3
*D54
  1

  0
LINE
  5
D58
330
CE6
100
AcDbEntity
  8
0
 62
     0
370
    -2
100
AcDbLine
 10
1086.118592671498
 20
-946.7765050412513
 30
0.0
 11
1086.118592671498
 21
-949.0864261181268
 31
0.0
  0
LINE
  5
D59
330
CE6
100
AcDbEntity
  8
0
 62
     0
370
    -2
100
AcDbLine
 10
1081.52991746935
 20
-946.7765050412513
 30
0.0
 11
1081.52991746935
 21
-949.0864261181268
 31
0.0
  0
LINE
  5
D5A
330
CE6
100
AcDbEntity
  8
0
 62
     0
370
    -2
100
AcDbLine
 10
1088.618592671497
 20
-947.8364261181267
 30
0.0
 11
1091.118592671497
 21
-947.8364261181267
 31
0.0
  0
LINE
  5
D5B
330
CE6
100
AcDbEntity
  8
0
 62
     0
370
    -2
100
AcDbLine
 10
1079.02991746935
 20
-947.8364261181267
 30
0.0
 11
1064.27991746935
 21
-947.8364261181267
 31
0.0
  0
LINE
  5
D5C
330
CE6
100
AcDbEntity
  8
0
 62
     0
370
    -2
100
AcDbLine
 10
1086.118592671498
 20
-947.8364261181267
 30
0.0
 11
1081.52991746935
 21
-947.8364261181267
 31
0.0
  0
INSERT
  5
D5D
330
CE6
100
AcDbEntity
  8
0
 62
     0
370
    -2
100
AcDbBlockReference
  2
_Open30
 10
1086.118592671498
 20
-947.8364261181267
 30
0.0
 41
2.5
 42
2.5
 43
2.5
 50
180.0
  0
INSERT
  5
D5E
330
CE6
100
AcDbEntity
  8
0
 62
     0
370
    -2
100
AcDbBlockReference
  2
_Open30
 10
1081.52991746935
 20
-947.8364261181267
 30
0.0
 41
2.5
 42
2.5
 43
2.5
  0
MTEXT
  5
D5F
330
CE6
100
AcDbEntity
  8
0
 62
     4
100
AcDbMText
 10
1070.40491746935
 20
-945.7114261181269
 30
0.0
 40
3.0
 41
0.0
 71
     5
 72
     1
  1
13.77
 73
     1
 44
1.0
1001
ACAD
1000
MTEXTBEGIN
1070
    73
1070
     1
1070
    44
1040
1.0
1070
    74
1070
     0
1000
MTEXTEND
  0
POINT
  5
D60
330
CE6
100
AcDbEntity
  8
Defpoints
 62
     0
100
AcDbPoint
 10
1086.118592671498
 20
-946.5265050412513
 30
0.0
  0
POINT
  5
D61
330
CE6
100
AcDbEntity
  8
Defpoints
 62
     0
100
AcDbPoint
 10
1081.52991746935
 20
-946.5265050412513
 30
0.0
  0
POINT
  5
D62
330
CE6
100
AcDbEntity
  8
Defpoints
 62
     0
100
AcDbPoint
 10
1081.52991746935
 20
-947.8364261181267
 30
0.0
  0
ENDBLK
  5
CE8
330
CE6
100
AcDbEntity
  8
0
100
AcDbBlockEnd
  0
BLOCK
  5
CF5
330
CF4
100
AcDbEntity
  8
0
100
AcDbBlockBegin
  2
*D55
 70
     1
 10
0.0
 20
0.0
 30
0.0
  3
*D55
  1

  0
LINE
  5
D63
330
CF4
100
AcDbEntity
  8
0
 62
     0
370
    -2
100
AcDbLine
 10
1079.022309838347
 20
-915.847013722977
 30
0.0
 11
1079.022309838347
 21
-908.4504802450393
 31
0.0
  0
LINE
  5
D64
330
CF4
100
AcDbEntity
  8
0
 62
     0
370
    -2
100
AcDbLine
 10
1069.083835468857
 20
-915.847013722977
 30
0.0
 11
1069.083835468857
 21
-908.4504802450393
 31
0.0
  0
LINE
  5
D65
330
CF4
100
AcDbEntity
  8
0
 62
     0
370
    -2
100
AcDbLine
 10
1076.522309838347
 20
-909.7004802450392
 30
0.0
 11
1071.583835468857
 21
-909.7004802450392
 31
0.0
  0
INSERT
  5
D66
330
CF4
100
AcDbEntity
  8
0
 62
     0
370
    -2
100
AcDbBlockReference
  2
_Open30
 10
1079.022309838347
 20
-909.7004802450392
 30
0.0
 41
2.5
 42
2.5
 43
2.5
  0
INSERT
  5
D67
330
CF4
100
AcDbEntity
  8
0
 62
     0
370
    -2
100
AcDbBlockReference
  2
_Open30
 10
1069.083835468857
 20
-909.7004802450392
 30
0.0
 41
2.5
 42
2.5
 43
2.5
 50
180.0
  0
MTEXT
  5
D68
330
CF4
100
AcDbEntity
  8
0
 62
     4
100
AcDbMText
 10
1074.053072653602
 20
-906.6254802450391
 30
0.0
 40
3.0
 41
0.0
 71
     5
 72
     1
  1
9.94\H0.7X;\S+0^ -0.02;
 73
     1
 44
1.0
1001
ACAD
1000
MTEXTBEGIN
1070
    73
1070
     1
1070
    44
1040
1.0
1070
    74
1070
     0
1000
MTEXTEND
  0
POINT
  5
D69
330
CF4
100
AcDbEntity
  8
Defpoints
 62
     0
100
AcDbPoint
 10
1079.022309838347
 20
-916.0970137229769
 30
0.0
  0
POINT
  5
D6A
330
CF4
100
AcDbEntity
  8
Defpoints
 62
     0
100
AcDbPoint
 10
1069.083835468857
 20
-916.0970137229769
 30
0.0
  0
POINT
  5
D6B
330
CF4
100
AcDbEntity
  8
Defpoints
 62
     0
100
AcDbPoint
 10
1069.083835468857
 20
-909.7004802450392
 30
0.0
  0
ENDBLK
  5
CF6
330
CF4
100
AcDbEntity
  8
0
100
AcDbBlockEnd
  0
ENDSEC
  0
SECTION
  2
ENTITIES
  0
LINE
  5
CE
330
6B
100
AcDbEntity
  8
0
 62
     3
100
AcDbLine
 10
394.8348450000001
 20
-908.9457239999999
 30
0.0
 11
784.8348449999997
 21
-908.9457239999999
 31
0.0
  0
LINE
  5
CF
330
6B
100
AcDbEntity
  8
0
 62
     3
100
AcDbLine
 10
783.121547
 20
-1183.001085
 30
0.0
 11
734.2831789999997
 21
-1183.001085
 31
0.0
  0
LINE
  5
D0
330
6B
100
AcDbEntity
  8
0
 62
     3
100
AcDbLine
 10
783.121547
 20
-1183.001085
 30
0.0
 11
784.8348449999997
 21
-1183.001085
 31
0.0
  0
LINE
  5
D1
330
6B
100
AcDbEntity
  8
0
 62
     3
100
AcDbLine
 10
784.8348449999997
 20
-908.9457239999999
 30
0.0
 11
784.8348449999997
 21
-1183.001085
 31
0.0
  0
TEXT
  5
D2
330
6B
100
AcDbEntity
  8
0
 62
     3
100
AcDbText
 10
691.286719
 20
-1164.705009
 30
0.0
 40
3.2
  1
別　掲
  7
高3.2
100
AcDbText
  0
TEXT
  5
D3
330
6B
100
AcDbEntity
  8
0
 62
     3
100
AcDbText
 10
749.1414859999999
 20
-1171.997849
 30
0.0
 40
3.2
  1
2000.8.31
  7
高3.2
100
AcDbText
  0
TEXT
  5
D4
330
6B
100
AcDbEntity
  8
0
 62
     3
100
AcDbText
 10
692.821089556649
 20
-1151.037016
 30
0.0
 40
4.5
  1
昇圧トランス
  7
高4.5
100
AcDbText
  0
LINE
  5
DE
330
6B
100
AcDbEntity
  8
0
 62
     3
100
AcDbLine
 10
759.1354809999996
 20
-1166.335363
 30
0.0
 11
759.1354809999998
 21
-1143.335363
 31
0.0
  0
LINE
  5
E0
330
6B
100
AcDbEntity
  8
0
 62
     3
100
AcDbLine
 10
706.081872
 20
-1173.335363
 30
0.0
 11
706.081872
 21
-1159.335363
 31
0.0
  0
TEXT
  5
E2
330
6B
100
AcDbEntity
  8
0
 62
     3
100
AcDbText
 10
735.1458
 20
-1147.130247
 30
0.0
 40
2.0
  1
A
 41
0.7
100
AcDbText
  0
TEXT
  5
E3
330
6B
100
AcDbEntity
  8
0
 62
     3
100
AcDbText
 10
737.681086
 20
-1147.130247
 30
0.0
 40
2.0
  1
P
 41
0.7
100
AcDbText
  0
TEXT
  5
E4
330
6B
100
AcDbEntity
  8
0
 62
     3
100
AcDbText
 10
740.2163719999999
 20
-1147.130247
 30
0.0
 40
2.0
  1
P
 41
0.7
100
AcDbText
  0
TEXT
  5
E5
330
6B
100
AcDbEntity
  8
0
 62
     3
100
AcDbText
 10
742.751658
 20
-1147.130247
 30
0.0
 40
2.0
  1
D
 41
0.7
100
AcDbText
  0
TEXT
  5
E6
330
6B
100
AcDbEntity
  8
0
 62
     3
100
AcDbText
 10
748.120341
 20
-1147.130247
 30
0.0
 40
2.0
  1
C
 41
0.7
100
AcDbText
  0
TEXT
  5
E7
330
6B
100
AcDbEntity
  8
0
 62
     3
100
AcDbText
 10
750.6556279999998
 20
-1147.130247
 30
0.0
 40
2.0
  1
H
 41
0.7
100
AcDbText
  0
TEXT
  5
E8
330
6B
100
AcDbEntity
  8
0
 62
     3
100
AcDbText
 10
753.190914
 20
-1147.130247
 30
0.0
 40
2.0
  1
C
 41
0.7
100
AcDbText
  0
TEXT
  5
E9
330
6B
100
AcDbEntity
  8
0
 62
     3
100
AcDbText
 10
755.7261999999997
 20
-1147.130247
 30
0.0
 40
2.0
  1
K
 41
0.7
100
AcDbText
  0
TEXT
  5
EA
330
6B
100
AcDbEntity
  8
0
 62
     3
100
AcDbText
 10
761.400167
 20
-1147.130247
 30
0.0
 40
2.0
  1
DESN
 41
1.216762999999998
100
AcDbText
  0
TEXT
  5
EB
330
6B
100
AcDbEntity
  8
0
 62
     3
100
AcDbText
 10
676.393808
 20
-1176.476745
 30
0.0
 40
2.0
  1
NICHIDO IND.CO.LTD
 41
1.274876
100
AcDbText
  0
LINE
  5
EC
330
6B
100
AcDbEntity
  8
0
 62
     3
100
AcDbLine
 10
686.776837
 20
-1143.335363
 30
0.0
 11
686.776837
 21
-1166.335363
 31
0.0
  0
LINE
  5
ED
330
6B
100
AcDbEntity
  8
0
 62
     3
100
AcDbLine
 10
733.1354809999996
 20
-1143.335363
 30
0.0
 11
733.1354809999997
 21
-1183.001085
 31
0.0
  0
LINE
  5
F2
330
6B
100
AcDbEntity
  8
0
 62
     3
100
AcDbLine
 10
746.1354809999997
 20
-1143.335363
 30
0.0
 11
746.1354809999996
 21
-1173.335363
 31
0.0
  0
TEXT
  5
F3
330
6B
100
AcDbEntity
  8
0
 62
     3
100
AcDbText
 10
734.247926
 20
-1172.470676
 30
0.0
 40
3.2
  1
作成日
 41
1.017225999999997
100
AcDbText
  0
LINE
  5
F4
330
6B
100
AcDbEntity
  8
0
 62
     3
100
AcDbLine
 10
784.8348449999997
 20
-1143.335363
 30
0.0
 11
673.5314019999997
 21
-1143.335363
 31
0.0
  0
LINE
  5
F5
330
6B
100
AcDbEntity
  8
0
 62
     3
100
AcDbLine
 10
772.1354809999996
 20
-1166.335363
 30
0.0
 11
772.1354809999996
 21
-1143.335363
 31
0.0
  0
TEXT
  5
F6
330
6B
100
AcDbEntity
  8
0
 62
     3
100
AcDbText
 10
775.4592849999997
 20
-1147.044428
 30
0.0
 40
1.8
  1
D
 41
0.666667
100
AcDbText
  0
TEXT
  5
F7
330
6B
100
AcDbEntity
  8
0
 62
     3
100
AcDbText
 10
778.2759129999996
 20
-1147.044428
 30
0.0
 40
1.8
  1
E
 41
0.666667
100
AcDbText
  0
TEXT
  5
F8
330
6B
100
AcDbEntity
  8
0
 62
     3
100
AcDbText
 10
781.092541
 20
-1147.044428
 30
0.0
 40
1.8
  1
F
 41
0.666667
100
AcDbText
  0
TEXT
  5
F9
330
6B
100
AcDbEntity
  8
0
 62
     3
100
AcDbText
 10
775.4592849999997
 20
-1151.036981
 30
0.0
 40
3.2
  1
製図
 41
1.076369
100
AcDbText
  0
LINE
  5
FA
330
6B
100
AcDbEntity
  8
0
 62
     3
100
AcDbLine
 10
673.5314019999997
 20
-1143.335363
 30
0.0
 11
673.5314019999997
 21
-1183.001085
 31
0.0
  0
TEXT
  5
FB
330
6B
100
AcDbEntity
  8
0
 62
     3
100
AcDbText
 10
674.908055
 20
-1182.66862
 30
0.0
 40
5.0
  1
日動工業株式会社
 41
0.833333
100
AcDbText
  0
LINE
  5
FC
330
6B
100
AcDbEntity
  8
0
 62
     3
100
AcDbLine
 10
716.4138059999997
 20
-1159.335363
 30
0.0
 11
716.4138059999997
 21
-1183.001085
 31
0.0
  0
LINE
  5
FD
330
6B
100
AcDbEntity
  8
0
 62
     3
100
AcDbLine
 10
716.4138059999997
 20
-1178.168224
 30
0.0
 11
733.1354809999997
 21
-1178.168224
 31
0.0
  0
TEXT
  5
FE
330
6B
100
AcDbEntity
  8
0
 62
     3
100
AcDbText
 10
717.000408
 20
-1177.351793
 30
0.0
 40
3.2
  1
出図コード
 41
0.8356860000000001
100
AcDbText
  0
LINE
  5
100
330
6B
100
AcDbEntity
  8
0
 62
     3
100
AcDbLine
 10
673.5314019999998
 20
-1173.335363
 30
0.0
 11
784.8348449999997
 21
-1173.335363
 31
0.0
  0
LINE
  5
102
330
6B
100
AcDbEntity
  8
0
 62
     3
100
AcDbLine
 10
673.5314019999997
 20
-1152.335363
 30
0.0
 11
784.8348449999997
 21
-1152.335363
 31
0.0
  0
LINE
  5
108
330
6B
100
AcDbEntity
  8
0
 62
     3
100
AcDbLine
 10
673.5314019999997
 20
-1159.335363
 30
0.0
 11
733.1354809999997
 21
-1159.335363
 31
0.0
  0
LINE
  5
10E
330
6B
100
AcDbEntity
  8
0
 62
     3
100
AcDbLine
 10
673.5314019999997
 20
-1166.335363
 30
0.0
 11
784.8348449999997
 21
-1166.335363
 31
0.0
  0
TEXT
  5
10F
330
6B
100
AcDbEntity
  8
0
 62
     3
100
AcDbText
 10
716.8678599999997
 20
-1182.658291027465
 30
0.0
 40
3.2
  1
ZK-A3X
 41
0.8112849999999999
100
AcDbText
  0
TEXT
  5
110
330
6B
100
AcDbEntity
  8
0
 62
     3
100
AcDbText
 10
675.3487989999999
 20
-1147.165837
 30
0.0
 40
2.0
  1
CONPONENTS
 41
0.5331600000000001
100
AcDbText
  0
TEXT
  5
111
330
6B
100
AcDbEntity
  8
0
 62
     3
100
AcDbText
 10
674.999073
 20
-1166.098014
 30
0.0
 40
3.0
  1
材
 41
0.833333
100
AcDbText
  0
TEXT
  5
112
330
6B
100
AcDbEntity
  8
0
 62
     3
100
AcDbText
 10
682.5347149999998
 20
-1166.098014
 30
0.0
 40
3.0
  1
質
 41
0.833333
100
AcDbText
  0
TEXT
  5
113
330
6B
100
AcDbEntity
  8
0
 62
     3
100
AcDbText
 10
675.087143
 20
-1155.473489
 30
0.0
 40
2.0
  1
MODEL
 41
1.031072999999999
100
AcDbText
  0
TEXT
  5
114
330
6B
100
AcDbEntity
  8
0
 62
     3
100
AcDbText
 10
674.999073
 20
-1162.415706
 30
0.0
 40
2.0
  1
MATERIAL
 41
0.659278
100
AcDbText
  0
TEXT
  5
115
330
6B
100
AcDbEntity
  8
0
 62
     3
100
AcDbText
 10
706.306353
 20
-1166.098014
 30
0.0
 40
3.0
  1
備
 41
0.833333
100
AcDbText
  0
TEXT
  5
116
330
6B
100
AcDbEntity
  8
0
 62
     3
100
AcDbText
 10
713.0393549999999
 20
-1166.098014
 30
0.0
 40
3.0
  1
考
 41
0.833333
100
AcDbText
  0
TEXT
  5
117
330
6B
100
AcDbEntity
  8
0
 62
     3
100
AcDbText
 10
706.6119065485755
 20
-1162.415706
 30
0.0
 40
2.0
  1
REMARKS
 41
0.675794
100
AcDbText
  0
TEXT
  5
118
330
6B
100
AcDbEntity
  8
0
 62
     3
100
AcDbText
 10
676.588802
 20
-1169.335826
 30
0.0
 40
2.0
  1
3AD
 41
1.42614
100
AcDbText
  0
TEXT
  5
119
330
6B
100
AcDbEntity
  8
0
 62
     3
100
AcDbText
 10
685.8997809999997
 20
-1169.170093
 30
0.0
 40
2.0
  1
ANGLE
 41
1.669883999999995
100
AcDbText
  0
TEXT
  5
11A
330
6B
100
AcDbEntity
  8
0
 62
     3
100
AcDbText
 10
706.8336689999996
 20
-1169.546933
 30
0.0
 40
2.0
  1
SCALE
 41
0.7719630000000001
100
AcDbText
  0
TEXT
  5
11B
330
6B
100
AcDbEntity
  8
0
 62
     3
100
AcDbText
 10
676.274932
 20
-1173.335363
 30
0.0
 40
3.0
  1
第
 41
0.833333
100
AcDbText
  0
TEXT
  5
11C
330
6B
100
AcDbEntity
  8
0
 62
     3
100
AcDbText
 10
684.061782
 20
-1173.335363
 30
0.0
 40
3.0
  1
三
 41
0.833333
100
AcDbText
  0
TEXT
  5
11D
330
6B
100
AcDbEntity
  8
0
 62
     3
100
AcDbText
 10
691.8486309999997
 20
-1173.335363
 30
0.0
 40
3.0
  1
角
 41
0.833333
100
AcDbText
  0
TEXT
  5
11E
330
6B
100
AcDbEntity
  8
0
 62
     3
100
AcDbText
 10
699.6354809999997
 20
-1173.335363
 30
0.0
 40
3.0
  1
法
 41
0.833333
100
AcDbText
  0
TEXT
  5
11F
330
6B
100
AcDbEntity
  8
0
 62
     3
100
AcDbText
 10
706.696874
 20
-1173.046933
 30
0.0
 40
3.0
  1
尺
 41
0.833333
100
AcDbText
  0
TEXT
  5
120
330
6B
100
AcDbEntity
  8
0
 62
     3
100
AcDbText
 10
713.429875
 20
-1173.046933
 30
0.0
 40
3.0
  1
度
 41
0.833333
100
AcDbText
  0
TEXT
  5
121
330
6B
100
AcDbEntity
  8
0
 62
     3
100
AcDbText
 10
736.0131459999997
 20
-1150.877634
 30
0.0
 40
3.0
  1
承認
 41
1.089472999999999
100
AcDbText
  0
TEXT
  5
122
330
6B
100
AcDbEntity
  8
0
 62
     3
100
AcDbText
 10
749.256026
 20
-1150.935363
 30
0.0
 40
3.0
  1
検図
 41
0.931761
100
AcDbText
  0
TEXT
  5
123
330
6B
100
AcDbEntity
  8
0
 62
     3
100
AcDbText
 10
762.256423
 20
-1150.935363
 30
0.0
 40
3.0
  1
設
 41
0.833333
100
AcDbText
  0
TEXT
  5
124
330
6B
100
AcDbEntity
  8
0
 62
     3
100
AcDbText
 10
766.746291
 20
-1150.935363
 30
0.0
 40
3.0
  1
計
 41
0.833333
100
AcDbText
  0
TEXT
  5
125
330
6B
100
AcDbEntity
  8
0
 62
     3
100
AcDbText
 10
675.4189059999998
 20
-1150.76281
 30
0.0
 40
3.0
  1
品
 41
0.833333
100
AcDbText
  0
TEXT
  5
126
330
6B
100
AcDbEntity
  8
0
 62
     3
100
AcDbText
 10
682.954548
 20
-1150.76281
 30
0.0
 40
3.0
  1
名
 41
0.833333
100
AcDbText
  0
TEXT
  5
127
330
6B
100
AcDbEntity
  8
0
 62
     3
100
AcDbText
 10
675.087143
 20
-1159.042228408936
 30
0.0
 40
3.0
  1
型
 41
0.833333
100
AcDbText
  0
TEXT
  5
128
330
6B
100
AcDbEntity
  8
0
 62
     3
100
AcDbText
 10
682.6352339999997
 20
-1159.042228408936
 30
0.0
 40
3.0
  1
式
 41
0.833333
100
AcDbText
  0
LINE
  5
129
330
6B
100
AcDbEntity
  8
0
 62
     3
100
AcDbLine
 10
394.8348450000001
 20
-908.9457239999999
 30
0.0
 11
394.8348450000001
 21
-1183.001085
 31
0.0
  0
LINE
  5
12A
330
6B
100
AcDbEntity
  8
0
 62
     3
100
AcDbLine
 10
734.2831789999997
 20
-1183.001085
 30
0.0
 11
394.8348450000001
 21
-1183.001085
 31
0.0
  0
TEXT
  5
12B
330
6B
100
AcDbEntity
  8
0
 62
     3
100
AcDbText
 10
396.3348450000001
 20
-1182.501085
 30
0.0
 40
3.2
  1
No
 41
0.8
  7
高3.2
100
AcDbText
  0
TEXT
  5
12C
330
6B
100
AcDbEntity
  8
0
 62
     3
100
AcDbText
 10
404.4671068732566
 20
-1182.501085
 30
0.0
 40
3.2
  1
部　　品　　名
 41
0.8
  7
高3.2
100
AcDbText
  0
TEXT
  5
12D
330
6B
100
AcDbEntity
  8
0
 62
     3
100
AcDbText
 10
443.2029619681921
 20
-1182.501085
 30
0.0
 40
3.2
  1
材　　　質
 41
0.8
  7
高3.2
100
AcDbText
  0
TEXT
  5
12E
330
6B
100
AcDbEntity
  8
0
 62
     3
100
AcDbText
 10
481.8989235805856
 20
-1182.501085
 30
0.0
 40
3.2
  1
備　　　　　考
 41
0.8
  7
高3.2
100
AcDbText
  0
TEXT
  5
12F
330
6B
100
AcDbEntity
  8
0
 62
     3
100
AcDbText
 10
522.1314435886031
 20
-1182.501085
 30
0.0
 40
3.2
  1
個数
 41
0.8
  7
高3.2
100
AcDbText
  0
TEXT
  5
130
330
6B
100
AcDbEntity
  8
0
 62
     3
100
AcDbText
 10
522.1314435886031
 20
-1177.501085
 30
0.0
 40
3.2
  1
1
 41
0.8
  7
高3.2
100
AcDbText
  0
TEXT
  5
131
330
6B
100
AcDbEntity
  8
0
 62
     3
100
AcDbText
 10
522.1314435886031
 20
-1167.501083444183
 30
0.0
 40
3.2
  1
1
 41
0.8
  7
高3.2
100
AcDbText
  0
TEXT
  5
132
330
6B
100
AcDbEntity
  8
0
 62
     3
100
AcDbText
 10
522.1314435886031
 20
-1162.501083444182
 30
0.0
 40
3.2
  1
2
 41
0.8
  7
高3.2
100
AcDbText
  0
TEXT
  5
133
330
6B
100
AcDbEntity
  8
0
 62
     3
100
AcDbText
 10
522.1314435886031
 20
-1172.501084222091
 30
0.0
 40
3.2
  1
1式
 41
0.8
  7
高3.2
100
AcDbText
  0
TEXT
  5
135
330
6B
100
AcDbEntity
  8
0
 62
     3
100
AcDbText
 10
522.1314435886031
 20
-1157.501082666274
 30
0.0
 40
3.2
  1
1
 41
0.8
  7
高3.2
100
AcDbText
  0
TEXT
  5
136
330
6B
100
AcDbEntity
  8
0
 62
     3
100
AcDbText
 10
481.8989235805856
 20
-1167.501083444183
 30
0.0
 40
3.2
  1
1.25sqx2芯x1.3m
 41
0.8
  7
高3.2
100
AcDbText
  0
TEXT
  5
137
330
6B
100
AcDbEntity
  8
0
 62
     3
100
AcDbText
 10
522.1314435886031
 20
-1152.501081888365
 30
0.0
 40
3.2
  1
1
 41
0.8
  7
高3.2
100
AcDbText
  0
TEXT
  5
138
330
6B
100
AcDbEntity
  8
0
 62
     3
100
AcDbText
 10
443.2029619681921
 20
-1172.501084222091
 30
0.0
 40
3.2
  1
SPCC
 41
0.8
  7
高3.2
100
AcDbText
  0
TEXT
  5
139
330
6B
100
AcDbEntity
  8
0
 62
     3
100
AcDbText
 10
404.4671068732566
 20
-1172.501084222091
 30
0.0
 40
3.2
  1
ケース
 41
0.8
  7
高3.2
100
AcDbText
  0
TEXT
  5
13C
330
6B
100
AcDbEntity
  8
0
 62
     3
100
AcDbText
 10
443.2029619681921
 20
-1162.501083444182
 30
0.0
 40
3.2
  1
ABS樹脂、銅合金
 41
0.8
  7
高3.2
100
AcDbText
  0
TEXT
  5
13D
330
6B
100
AcDbEntity
  8
0
 62
     3
100
AcDbText
 10
443.2029619681921
 20
-1177.501085
 30
0.0
 40
3.2
  1
PA樹脂、真チュウ
 41
0.8
  7
高3.2
100
AcDbText
  0
TEXT
  5
13E
330
6B
100
AcDbEntity
  8
0
 62
     3
100
AcDbText
 10
396.3348450000001
 20
-1152.501081888365
 30
0.0
 40
3.2
  1
6
 41
0.8
  7
高3.2
100
AcDbText
  0
TEXT
  5
13F
330
6B
100
AcDbEntity
  8
0
 62
     3
100
AcDbText
 10
396.3348450000001
 20
-1157.501082666274
 30
0.0
 40
3.2
  1
5
 41
0.8
  7
高3.2
100
AcDbText
  0
TEXT
  5
140
330
6B
100
AcDbEntity
  8
0
 62
     3
100
AcDbText
 10
396.3348450000001
 20
-1162.501083444183
 30
0.0
 40
3.2
  1
4
 41
0.8
  7
高3.2
100
AcDbText
  0
TEXT
  5
141
330
6B
100
AcDbEntity
  8
0
 62
     3
100
AcDbText
 10
396.3348450000001
 20
-1167.501083444183
 30
0.0
 40
3.2
  1
3
 41
0.8
  7
高3.2
100
AcDbText
  0
TEXT
  5
142
330
6B
100
AcDbEntity
  8
0
 62
     3
100
AcDbText
 10
396.3348450000001
 20
-1172.501084222091
 30
0.0
 40
3.2
  1
2
 41
0.8
  7
高3.2
100
AcDbText
  0
TEXT
  5
143
330
6B
100
AcDbEntity
  8
0
 62
     3
100
AcDbText
 10
396.3348450000001
 20
-1177.501085
 30
0.0
 40
3.2
  1
1
 41
0.8
  7
高3.2
100
AcDbText
  0
TEXT
  5
144
330
6B
100
AcDbEntity
  8
0
 62
     3
100
AcDbText
 10
481.8989235805856
 20
-1162.501083444182
 30
0.0
 40
3.2
  1
2P 15A 125V
 41
0.8
  7
高3.2
100
AcDbText
  0
TEXT
  5
146
330
6B
100
AcDbEntity
  8
0
 62
     3
100
AcDbText
 10
404.4671068732566
 20
-1157.501082666274
 30
0.0
 40
3.2
  1
サーキットブレーカー
 41
0.8
  7
高3.2
100
AcDbText
  0
TEXT
  5
147
330
6B
100
AcDbEntity
  8
0
 62
     3
100
AcDbText
 10
404.4671068732566
 20
-1167.501083444183
 30
0.0
 40
3.2
  1
電線　2Pプラグ付き
 41
0.8
  7
高3.2
100
AcDbText
  0
TEXT
  5
148
330
6B
100
AcDbEntity
  8
0
 62
     3
100
AcDbText
 10
481.8989235805856
 20
-1172.501084222091
 30
0.0
 40
3.2
  1
外カバー、パネルベース
 41
0.8
  7
高3.2
100
AcDbText
  0
TEXT
  5
149
330
6B
100
AcDbEntity
  8
0
 62
     3
100
AcDbText
 10
443.2029619681921
 20
-1167.501083444183
 30
0.0
 40
3.2
  1
VFF
 41
0.8
  7
高3.2
100
AcDbText
  0
TEXT
  5
14A
330
6B
100
AcDbEntity
  8
0
 62
     3
100
AcDbText
 10
404.4671068732566
 20
-1152.501081888365
 30
0.0
 40
3.2
  1
電源ランプ
 41
0.8
  7
高3.2
100
AcDbText
  0
TEXT
  5
14C
330
6B
100
AcDbEntity
  8
0
 62
     3
100
AcDbText
 10
404.4671068732566
 20
-1177.501085
 30
0.0
 40
3.2
  1
グリップ
 41
0.8
  7
高3.2
100
AcDbText
  0
LINE
  5
14D
330
6B
100
AcDbEntity
  8
0
 62
     3
100
AcDbLine
 10
784.734809
 20
-1137.335363
 30
0.0
 11
733.135445
 21
-1137.335363
 31
0.0
  0
TEXT
  5
14E
330
6B
100
AcDbEntity
  8
0
 62
     3
100
AcDbText
 10
737.4305245728302
 20
-1142.779278
 30
0.0
 40
4.5
  1
コード
  7
高4.5
100
AcDbText
  0
LINE
  5
14F
330
6B
100
AcDbEntity
  8
0
 62
     3
100
AcDbLine
 10
759.1354449999997
 20
-1143.335363
 30
0.0
 11
759.1354449999997
 21
-1137.335363
 31
0.0
  0
LINE
  5
150
330
6B
100
AcDbEntity
  8
0
 62
     3
100
AcDbLine
 10
733.135445
 20
-1143.335363
 30
0.0
 11
733.135445
 21
-1137.335363
 31
0.0
  0
LINE
  5
167
330
6B
100
AcDbEntity
  8
0
 62
     3
100
AcDbLine
 10
382.432921
 20
-1042.501085
 30
0.0
 11
379.834845
 21
-1044.001085
 31
0.0
  0
LINE
  5
168
330
6B
100
AcDbEntity
  8
0
 62
     3
100
AcDbLine
 10
382.432921
 20
-1042.501085
 30
0.0
 11
379.834845
 21
-1041.001085
 31
0.0
  0
LINE
  5
169
330
6B
100
AcDbEntity
  8
0
 62
     3
100
AcDbLine
 10
379.834845
 20
-1044.001085
 30
0.0
 11
379.834845
 21
-1041.001085
 31
0.0
  0
LINE
  5
211
330
6B
100
AcDbEntity
  8
0
 62
     3
100
AcDbLine
 10
530.7043616214719
 20
-1183.001085
 30
0.0
 11
530.7043616214719
 21
-1148.001081888365
 31
0.0
  0
LINE
  5
212
330
6B
100
AcDbEntity
  8
0
100
AcDbLine
 10
520.6314435886031
 20
-1183.001085
 30
0.0
 11
520.6314435886031
 21
-1148.001081888365
 31
0.0
  0
LINE
  5
213
330
6B
100
AcDbEntity
  8
0
100
AcDbLine
 10
441.7029619681922
 20
-1183.001085
 30
0.0
 11
441.7029619681922
 21
-1148.001081888365
 31
0.0
  0
LINE
  5
214
330
6B
100
AcDbEntity
  8
0
100
AcDbLine
 10
402.9671068732566
 20
-1183.001085
 30
0.0
 11
402.9671068732566
 21
-1148.001081888365
 31
0.0
  0
LINE
  5
215
330
6B
100
AcDbEntity
  8
0
100
AcDbLine
 10
480.3989235805856
 20
-1183.001085
 30
0.0
 11
480.3989235805856
 21
-1148.001081888365
 31
0.0
  0
TEXT
  5
226
330
6B
100
AcDbEntity
  8
0
 62
     3
100
AcDbText
 10
674.1619864329329
 20
-1081.326756858408
 30
0.0
 40
4.5
  1
主　　仕　　様
  7
高4.5
100
AcDbText
  0
TEXT
  5
227
330
6B
100
AcDbEntity
  8
0
 62
     3
100
AcDbText
 10
654.1226424329329
 20
-1093.770449858408
 30
0.0
 40
3.2
  1
入力電圧
  7
高3.2
100
AcDbText
  0
TEXT
  5
228
330
6B
100
AcDbEntity
  8
0
 62
     3
100
AcDbText
 10
654.1226424329329
 20
-1098.770449858408
 30
0.0
 40
3.2
  1
出力電圧
  7
高3.2
100
AcDbText
  0
TEXT
  5
229
330
6B
100
AcDbEntity
  8
0
 62
     3
100
AcDbText
 10
654.1226424329329
 20
-1108.770449858408
 30
0.0
 40
3.2
  1
出力電流
  7
高3.2
100
AcDbText
  0
LINE
  5
22A
330
6B
100
AcDbEntity
  8
0
 62
     3
100
AcDbLine
 10
677.3958956657822
 20
-1084.270449858408
 30
0.0
 11
677.3958956657822
 21
-1124.270449858408
 31
0.0
  0
TEXT
  5
22B
330
6B
100
AcDbEntity
  8
0
 62
     3
100
AcDbText
 10
654.1226424329329
 20
-1113.770449858408
 30
0.0
 40
3.2
  1
容量(2時間)
  7
高3.2
100
AcDbText
  0
TEXT
  5
22C
330
6B
100
AcDbEntity
  8
0
 62
     3
100
AcDbText
 10
654.1226424329329
 20
-1118.770449858408
 30
0.0
 40
3.2
  1
保護回路
  7
高3.2
100
AcDbText
  0
TEXT
  5
22D
330
6B
100
AcDbEntity
  8
0
 62
     3
100
AcDbText
 10
654.1226424329329
 20
-1123.770449858408
 30
0.0
 40
3.2
  1
質　　量
  7
高3.2
100
AcDbText
  0
LINE
  5
22E
330
6B
100
AcDbEntity
  8
0
 62
     3
100
AcDbLine
 10
727.3958956657822
 20
-1124.270449858408
 30
0.0
 11
727.3958956657822
 21
-1084.270449858408
 31
0.0
  0
LINE
  5
22F
330
6B
100
AcDbEntity
  8
0
 62
     3
100
AcDbLine
 10
727.3958956657822
 20
-1084.270449858408
 30
0.0
 11
652.6226424329331
 21
-1084.270449858408
 31
0.0
  0
LINE
  5
230
330
6B
100
AcDbEntity
  8
0
 62
     3
100
AcDbLine
 10
652.6226424329331
 20
-1084.270449858408
 30
0.0
 11
652.6226424329331
 21
-1124.270449858408
 31
0.0
  0
LINE
  5
231
330
6B
100
AcDbEntity
  8
0
 62
     3
100
AcDbLine
 10
652.6226424329331
 20
-1124.270449858408
 30
0.0
 11
727.3958956657822
 21
-1124.270449858408
 31
0.0
  0
TEXT
  5
232
330
6B
100
AcDbEntity
  8
0
 62
     3
100
AcDbText
 10
654.1226424329329
 20
-1088.770449858408
 30
0.0
 40
3.2
  1
型　　式
  7
高3.2
100
AcDbText
  0
LINE
  5
233
330
6B
100
AcDbEntity
  8
0
100
AcDbLine
 10
652.6226424329331
 20
-1094.270449858408
 30
0.0
 11
727.3958956657822
 21
-1094.270449858408
 31
0.0
  0
LINE
  5
234
330
6B
100
AcDbEntity
  8
0
100
AcDbLine
 10
652.6226424329331
 20
-1099.270449858408
 30
0.0
 11
727.3958956657822
 21
-1099.270449858408
 31
0.0
  0
LINE
  5
235
330
6B
100
AcDbEntity
  8
0
100
AcDbLine
 10
652.6226424329331
 20
-1109.270449858408
 30
0.0
 11
727.3958956657822
 21
-1109.270449858408
 31
0.0
  0
LINE
  5
236
330
6B
100
AcDbEntity
  8
0
100
AcDbLine
 10
652.6226424329331
 20
-1114.270449858408
 30
0.0
 11
727.3958956657822
 21
-1114.270449858408
 31
0.0
  0
LINE
  5
237
330
6B
100
AcDbEntity
  8
0
100
AcDbLine
 10
652.6226424329331
 20
-1119.270449858408
 30
0.0
 11
727.3958956657822
 21
-1119.270449858408
 31
0.0
  0
LINE
  5
238
330
6B
100
AcDbEntity
  8
0
100
AcDbLine
 10
677.3958956657822
 20
-1104.270449858408
 30
0.0
 11
727.3958956657822
 21
-1104.270449858408
 31
0.0
  0
TEXT
  5
239
330
6B
100
AcDbEntity
  8
0
 62
     3
100
AcDbText
 10
678.8958956657823
 20
-1113.770449858408
 30
0.0
 40
3.2
  1
1KVA
  7
高3.2
100
AcDbText
  0
TEXT
  5
23A
330
6B
100
AcDbEntity
  8
0
 62
     3
100
AcDbText
 10
678.8958956657823
 20
-1118.770449858408
 30
0.0
 40
3.2
  1
3Aサーキットブレ－カ－
  7
高3.2
100
AcDbText
  0
TEXT
  5
23B
330
6B
100
AcDbEntity
  8
0
 62
     3
100
AcDbText
 10
678.8958956657823
 20
-1123.770449858408
 30
0.0
 40
3.2
  1
約3.5kg
  7
高3.2
100
AcDbText
  0
TEXT
  5
23C
330
6B
100
AcDbEntity
  8
0
 62
     3
100
AcDbText
 10
678.8958956657823
 20
-1098.770449858408
 30
0.0
 40
3.2
  1
115V 125V
  7
高3.2
100
AcDbText
  0
TEXT
  5
23D
330
6B
100
AcDbEntity
  8
0
 62
     3
100
AcDbText
 10
678.8958956657823
 20
-1103.770449858408
 30
0.0
 40
3.2
  1
2時間　10A
  7
高3.2
100
AcDbText
  0
TEXT
  5
23E
330
6B
100
AcDbEntity
  8
0
 62
     3
100
AcDbText
 10
678.8958956657823
 20
-1108.770449858408
 30
0.0
 40
3.2
  1
連　続　7A
  7
高3.2
100
AcDbText
  0
TEXT
  5
23F
330
6B
100
AcDbEntity
  8
0
 62
     3
100
AcDbText
 10
678.8958956657823
 20
-1088.770449858408
 30
0.0
 40
3.2
  1
M-10S
  7
高3.2
100
AcDbText
  0
LINE
  5
240
330
6B
100
AcDbEntity
  8
0
100
AcDbLine
 10
652.6226424329331
 20
-1089.270449858408
 30
0.0
 11
727.3958956657822
 21
-1089.270449858408
 31
0.0
  0
TEXT
  5
241
330
6B
100
AcDbEntity
  8
0
 62
     3
100
AcDbText
 10
678.8958956657823
 20
-1093.770449858408
 30
0.0
 40
3.2
  1
AC100V 50/60Hz
  7
高3.2
100
AcDbText
  0
LINE
  5
242
330
6B
100
AcDbEntity
  8
0
100
AcDbLine
 10
674.2822862505569
 20
-1082.096434936593
 30
0.0
 11
711.0226156439997
 21
-1082.096434936593
 31
0.0
  0
TEXT
  5
243
330
6B
100
AcDbEntity
  8
0
 62
     3
100
AcDbText
 10
699.5941619999999
 20
-1158.378666
 30
0.0
 40
4.5
  1
M-10S
  7
高4.5
100
AcDbText
  0
TEXT
  5
244
330
6B
100
AcDbEntity
  8
0
 62
     3
100
AcDbText
 10
736.784119
 20
-1181.838066
 30
0.0
 40
6.299999999999998
  1
M-10S
  7
高6.3
100
AcDbText
  0
TEXT
  5
245
330
6B
100
AcDbEntity
  8
0
 62
     3
100
AcDbText
 10
719.931198
 20
-1171.921617
 30
0.0
 40
3.2
  1
1/1
  7
高3.2
100
AcDbText
  0
TEXT
  5
27B
330
6B
100
AcDbEntity
  8
0
 62
     3
100
AcDbText
 10
404.4671068732566
 20
-1162.501083444183
 30
0.0
 40
3.2
  1
2Pコンセント
 41
0.8
  7
高3.2
100
AcDbText
  0
TEXT
  5
27C
330
6B
100
AcDbEntity
  8
0
 62
     3
100
AcDbText
 10
481.8989235805856
 20
-1157.501082666274
 30
0.0
 40
3.2
  1
3A
 41
0.8
  7
高3.2
100
AcDbText
  0
LINE
  5
27D
330
6B
100
AcDbEntity
  8
0
 62
     3
100
AcDbLine
 10
394.8348450000001
 20
-1178.001085
 30
0.0
 11
530.7043616214719
 21
-1178.001085
 31
0.0
  0
LINE
  5
27E
330
6B
100
AcDbEntity
  8
0
100
AcDbLine
 10
394.8348450000001
 20
-1173.001084222091
 30
0.0
 11
530.7043616214719
 21
-1173.001084222091
 31
0.0
  0
LINE
  5
27F
330
6B
100
AcDbEntity
  8
0
100
AcDbLine
 10
394.8348450000001
 20
-1168.001083444183
 30
0.0
 11
530.7043616214719
 21
-1168.001083444183
 31
0.0
  0
LINE
  5
280
330
6B
100
AcDbEntity
  8
0
100
AcDbLine
 10
394.8348450000001
 20
-1163.001083444183
 30
0.0
 11
530.7043616214719
 21
-1163.001083444182
 31
0.0
  0
LINE
  5
281
330
6B
100
AcDbEntity
  8
0
100
AcDbLine
 10
394.8348450000001
 20
-1158.001082666274
 30
0.0
 11
530.7043616214719
 21
-1158.001082666274
 31
0.0
  0
LINE
  5
282
330
6B
100
AcDbEntity
  8
0
100
AcDbLine
 10
394.8348450000001
 20
-1153.001081888365
 30
0.0
 11
530.7043616214719
 21
-1153.001081888365
 31
0.0
  0
LINE
  5
283
330
6B
100
AcDbEntity
  8
0
 62
     3
100
AcDbLine
 10
394.8348450000001
 20
-1148.001081888365
 30
0.0
 11
530.7043616214719
 21
-1148.001081888365
 31
0.0
  0
TEXT
  5
285
330
6B
100
AcDbEntity
  8
0
 62
     3
100
AcDbText
 10
763.6460141744237
 20
-1142.837006
 30
0.0
 40
4.5
  1
5698
  7
高4.5
100
AcDbText
  0
TEXT
  5
45D
330
6B
100
AcDbEntity
  8
0
 62
     3
100
AcDbText
 10
772.3348420714716
 20
-918.445724
 30
0.0
 40
3.2
  1
担　当
  7
高3.2
100
AcDbText
  0
TEXT
  5
45E
330
6B
100
AcDbEntity
  8
0
 62
     3
100
AcDbText
 10
728.3348420714717
 20
-918.445724
 30
0.0
 40
3.2
  1
変更・追記内容
  7
高3.2
100
AcDbText
  0
TEXT
  5
45F
330
6B
100
AcDbEntity
  8
0
 62
     3
100
AcDbText
 10
703.448357071811
 20
-923.1162625099084
 30
0.0
 40
2.0
  1
1
  7
高2
100
AcDbText
  0
TEXT
  5
460
330
6B
100
AcDbEntity
  8
0
 62
     3
100
AcDbText
 10
703.1398455950537
 20
-928.2860792221812
 30
0.0
 40
2.0
  1
2
  7
高2
100
AcDbText
  0
TEXT
  5
461
330
6B
100
AcDbEntity
  8
0
 62
     3
100
AcDbText
 10
710.3348420714715
 20
-918.445724
 30
0.0
 40
3.2
  1
日　付
  7
高3.2
100
AcDbText
  0
TEXT
  5
462
330
6B
100
AcDbEntity
  8
0
 62
     3
100
AcDbText
 10
710.3348420714715
 20
-913.4457240000001
 30
0.0
 40
3.2
  1
図　　　　面　　　　略　　　　歴
  7
高3.2
100
AcDbText
  0
TEXT
  5
463
330
6B
100
AcDbEntity
  8
0
 62
     3
100
AcDbText
 10
700.3348420714717
 20
-918.445724
 30
0.0
 40
3.2
  1
記号
  7
高3.2
100
AcDbText
  0
LINE
  5
464
330
6B
100
AcDbEntity
  8
0
100
AcDbLine
 10
703.8348420714717
 20
-925.1548279999999
 30
0.0
 11
701.9348420714717
 21
-928.445724
 31
0.0
  0
LINE
  5
465
330
6B
100
AcDbEntity
  8
0
100
AcDbLine
 10
703.8348420714717
 20
-925.1548279999999
 30
0.0
 11
705.7348420714717
 21
-928.445724
 31
0.0
  0
LINE
  5
466
330
6B
100
AcDbEntity
  8
0
100
AcDbLine
 10
701.9348420714717
 20
-928.445724
 30
0.0
 11
705.7348420714717
 21
-928.445724
 31
0.0
  0
LINE
  5
467
330
6B
100
AcDbEntity
  8
0
100
AcDbLine
 10
703.8348420714717
 20
-920.1548269999999
 30
0.0
 11
701.9348420714717
 21
-923.4457240000001
 31
0.0
  0
LINE
  5
468
330
6B
100
AcDbEntity
  8
0
100
AcDbLine
 10
703.8348420714717
 20
-920.1548269999999
 30
0.0
 11
705.7348420714717
 21
-923.4457240000001
 31
0.0
  0
LINE
  5
469
330
6B
100
AcDbEntity
  8
0
100
AcDbLine
 10
701.9348420714717
 20
-923.4457240000001
 30
0.0
 11
705.7348420714717
 21
-923.4457240000001
 31
0.0
  0
LINE
  5
46A
330
6B
100
AcDbEntity
  8
0
 62
     3
100
AcDbLine
 10
698.8348420714717
 20
-913.945724
 30
0.0
 11
784.8348420714716
 21
-913.945724
 31
0.0
  0
LINE
  5
46B
330
6B
100
AcDbEntity
  8
0
 62
     3
100
AcDbLine
 10
698.8348420714717
 20
-918.9457240000001
 30
0.0
 11
784.8348420714716
 21
-918.9457240000001
 31
0.0
  0
LINE
  5
46C
330
6B
100
AcDbEntity
  8
0
 62
     7
100
AcDbLine
 10
698.8348420714717
 20
-923.945724
 30
0.0
 11
784.8348420714716
 21
-923.945724
 31
0.0
  0
LINE
  5
46D
330
6B
100
AcDbEntity
  8
0
 62
     3
100
AcDbLine
 10
698.8348420714717
 20
-928.945724
 30
0.0
 11
784.8348420714716
 21
-928.945724
 31
0.0
  0
LINE
  5
46E
330
6B
100
AcDbEntity
  8
0
 62
     7
100
AcDbLine
 10
770.8348420714717
 20
-928.945724
 30
0.0
 11
770.8348420714717
 21
-913.945724
 31
0.0
  0
LINE
  5
46F
330
6B
100
AcDbEntity
  8
0
 62
     7
100
AcDbLine
 10
726.8348420714715
 20
-928.945724
 30
0.0
 11
726.8348420714715
 21
-913.945724
 31
0.0
  0
LINE
  5
470
330
6B
100
AcDbEntity
  8
0
 62
     7
100
AcDbLine
 10
708.8348420714717
 20
-928.945724
 30
0.0
 11
708.8348420714717
 21
-913.945724
 31
0.0
  0
LINE
  5
471
330
6B
100
AcDbEntity
  8
0
 62
     3
100
AcDbLine
 10
698.8348420714717
 20
-928.945724
 30
0.0
 11
698.8348420714717
 21
-908.9457239999999
 31
0.0
  0
LINE
  5
539
330
6B
100
AcDbEntity
  8
0
  6
Continuous
 62
     3
100
AcDbLine
 10
505.7642557730072
 20
-1052.627388
 30
0.0
 11
498.7642557730072
 21
-1052.627388
 31
0.0
  0
LINE
  5
53A
330
6B
100
AcDbEntity
  8
0
  6
Continuous
 62
     3
100
AcDbLine
 10
521.7642557730071
 20
-954.6273879999999
 30
0.0
 11
420.764255773007
 21
-954.6273879999999
 31
0.0
  0
LINE
  5
53B
330
6B
100
AcDbEntity
  8
0
  6
Continuous
 62
     3
100
AcDbLine
 10
413.7642557730071
 20
-1049.127388
 30
0.0
 11
528.764255773007
 21
-1049.127388
 31
0.0
  0
LINE
  5
53C
330
6B
100
AcDbEntity
  8
0
  6
Continuous
 62
     3
100
AcDbLine
 10
528.764255773007
 20
-961.6273879999999
 30
0.0
 11
528.764255773007
 21
-1049.127388
 31
0.0
  0
LINE
  5
53D
330
6B
100
AcDbEntity
  8
0
  6
Continuous
 62
     3
100
AcDbLine
 10
413.7642557730071
 20
-961.6273879999999
 30
0.0
 11
413.7642557730071
 21
-1049.127388
 31
0.0
  0
LINE
  5
53E
330
6B
100
AcDbEntity
  8
0
  6
Continuous
 62
     3
100
AcDbLine
 10
477.014255773007
 20
-927.6273879999999
 30
0.0
 11
465.5142557730071
 21
-927.6273879999999
 31
0.0
  0
LINE
  5
53F
330
6B
100
AcDbEntity
  8
0
  6
Continuous
 62
     3
100
AcDbLine
 10
480.0142557730071
 20
-949.6273880000003
 30
0.0
 11
462.5142557730071
 21
-949.6273880000003
 31
0.0
  0
ARC
  5
540
330
6B
100
AcDbEntity
  8
0
  6
Continuous
 62
     3
100
AcDbCircle
 10
521.7642557730071
 20
-961.6273879999999
 30
0.0
 40
7.0
100
AcDbArc
 50
0.0000000000010178
 51
90.0
  0
ARC
  5
541
330
6B
100
AcDbEntity
  8
0
  6
Continuous
 62
     3
100
AcDbCircle
 10
420.7642557730069
 20
-961.6273879999999
 30
0.0
 40
7.0
100
AcDbArc
 50
89.99999999999673
 51
180.000000000001
  0
LINE
  5
542
330
6B
100
AcDbEntity
  8
0
  6
Continuous
100
AcDbLine
 10
527.7642557730071
 20
-961.6273879999999
 30
0.0
 11
527.7642557730071
 21
-1049.127388
 31
0.0
  0
ARC
  5
543
330
6B
100
AcDbEntity
  8
0
  6
Continuous
100
AcDbCircle
 10
521.7642557730071
 20
-961.6273879999999
 30
0.0
 40
6.0
100
AcDbArc
 50
0.0000000000010178
 51
90.0
  0
LINE
  5
544
330
6B
100
AcDbEntity
  8
0
  6
Continuous
100
AcDbLine
 10
521.7642557730071
 20
-955.627388
 30
0.0
 11
420.764255773007
 21
-955.627388
 31
0.0
  0
ARC
  5
545
330
6B
100
AcDbEntity
  8
0
  6
Continuous
100
AcDbCircle
 10
420.7642557730069
 20
-961.6273879999999
 30
0.0
 40
6.0
100
AcDbArc
 50
89.99999999999673
 51
180.000000000001
  0
LINE
  5
546
330
6B
100
AcDbEntity
  8
0
  6
Continuous
100
AcDbLine
 10
414.7642557730071
 20
-961.6273879999999
 30
0.0
 11
414.7642557730071
 21
-1049.127388
 31
0.0
  0
LINE
  5
547
330
6B
100
AcDbEntity
  8
0
  6
Continuous
 62
     3
100
AcDbLine
 10
721.9209608938989
 20
-954.6273879999999
 30
0.0
 11
561.9209608938988
 21
-954.6273879999999
 31
0.0
  0
LINE
  5
548
330
6B
100
AcDbEntity
  8
0
  6
Continuous
 62
     3
100
AcDbLine
 10
571.9209608938987
 20
-1049.127388
 30
0.0
 11
721.9209608938989
 21
-1049.127388
 31
0.0
  0
LINE
  5
549
330
6B
100
AcDbEntity
  8
0
  6
Continuous
 62
     3
100
AcDbLine
 10
561.9209608938988
 20
-1034.127388
 30
0.0
 11
561.9209608938988
 21
-954.6273879999999
 31
0.0
  0
LINE
  5
54A
330
6B
100
AcDbEntity
  8
0
  6
Continuous
 62
     3
100
AcDbLine
 10
721.9209608938989
 20
-1049.127388
 30
0.0
 11
721.9209608938989
 21
-954.6273879999999
 31
0.0
  0
LINE
  5
54D
330
6B
100
AcDbEntity
  8
0
  6
Continuous
 62
     3
100
AcDbLine
 10
561.9209608938988
 20
-1034.127388
 30
0.0
 11
571.9209608938987
 21
-1049.127388
 31
0.0
  0
LINE
  5
54E
330
6B
100
AcDbEntity
  8
0
  6
Continuous
100
AcDbLine
 10
413.7642557730071
 20
-1034.127388
 30
0.0
 11
414.7642557730071
 21
-1034.127388
 31
0.0
  0
LINE
  5
54F
330
6B
100
AcDbEntity
  8
0
  6
Continuous
100
AcDbLine
 10
527.7642557730071
 20
-1034.127388
 30
0.0
 11
528.764255773007
 21
-1034.127388
 31
0.0
  0
ARC
  5
55A
330
6B
100
AcDbEntity
  8
0
  6
Continuous
 62
     3
100
AcDbCircle
 10
502.2642557730072
 20
-1045.627388
 30
0.0
 40
7.826237921249162
100
AcDbArc
 50
206.5650511770776
 51
243.4349488229236
  0
ARC
  5
55B
330
6B
100
AcDbEntity
  8
0
  6
Continuous
 62
     3
100
AcDbCircle
 10
502.2642557730072
 20
-1045.627388
 30
0.0
 40
7.826237921249162
100
AcDbArc
 50
296.5650511770763
 51
333.4349488229218
  0
LINE
  5
55C
330
6B
100
AcDbEntity
  8
0
  6
Continuous
 62
     3
100
AcDbLine
 10
443.7642557730072
 20
-1052.627388
 30
0.0
 11
436.7642557730071
 21
-1052.627388
 31
0.0
  0
ARC
  5
55D
330
6B
100
AcDbEntity
  8
0
  6
Continuous
 62
     3
100
AcDbCircle
 10
440.2642557730072
 20
-1045.627388
 30
0.0
 40
7.826237921249162
100
AcDbArc
 50
206.5650511770776
 51
243.4349488229237
  0
ARC
  5
55E
330
6B
100
AcDbEntity
  8
0
  6
Continuous
 62
     3
100
AcDbCircle
 10
440.2642557730072
 20
-1045.627388
 30
0.0
 40
7.826237921249162
100
AcDbArc
 50
296.5650511770763
 51
333.4349488229218
  0
LINE
  5
561
330
6B
100
AcDbEntity
  8
0
  6
Continuous
 62
     3
100
AcDbLine
 10
600.4209608938992
 20
-1052.627388
 30
0.0
 11
593.4209608938991
 21
-1052.627388
 31
0.0
  0
ARC
  5
562
330
6B
100
AcDbEntity
  8
0
  6
Continuous
 62
     3
100
AcDbCircle
 10
596.9209608938991
 20
-1045.627388
 30
0.0
 40
7.826237921249162
100
AcDbArc
 50
206.5650511770776
 51
243.4349488229237
  0
ARC
  5
563
330
6B
100
AcDbEntity
  8
0
  6
Continuous
 62
     3
100
AcDbCircle
 10
596.9209608938991
 20
-1045.627388
 30
0.0
 40
7.826237921249162
100
AcDbArc
 50
296.5650511770763
 51
333.4349488229216
  0
LINE
  5
564
330
6B
100
AcDbEntity
  8
0
  6
Continuous
 62
     3
100
AcDbLine
 10
710.4209608938989
 20
-1052.627388
 30
0.0
 11
703.4209608938992
 21
-1052.627388
 31
0.0
  0
ARC
  5
565
330
6B
100
AcDbEntity
  8
0
  6
Continuous
 62
     3
100
AcDbCircle
 10
706.9209608938989
 20
-1045.627388
 30
0.0
 40
7.826237921249162
100
AcDbArc
 50
206.5650511770776
 51
243.4349488229237
  0
ARC
  5
566
330
6B
100
AcDbEntity
  8
0
  6
Continuous
 62
     3
100
AcDbCircle
 10
706.9209608938989
 20
-1045.627388
 30
0.0
 40
7.826237921249162
100
AcDbArc
 50
296.5650511770763
 51
333.434948822922
  0
LINE
  5
568
330
6B
100
AcDbEntity
  8
0
  6
Continuous
 62
     3
100
AcDbLine
 10
480.0142557730071
 20
-954.6273879999999
 30
0.0
 11
480.0142557730071
 21
-949.6066620578362
 31
0.0
  0
LINE
  5
569
330
6B
100
AcDbEntity
  8
0
  6
Continuous
 62
     3
100
AcDbLine
 10
462.5142557730071
 20
-954.6273879999999
 30
0.0
 11
462.5142557730071
 21
-949.6066620578362
 31
0.0
  0
LINE
  5
56A
330
6B
100
AcDbEntity
  8
0
  6
Continuous
 62
     3
100
AcDbLine
 10
691.9209608938991
 20
-949.6273880000003
 30
0.0
 11
717.920960893899
 21
-949.6273880000003
 31
0.0
  0
LINE
  5
56B
330
6B
100
AcDbEntity
  8
0
  6
Continuous
 62
     3
100
AcDbLine
 10
717.920960893899
 20
-954.6273879999999
 30
0.0
 11
717.920960893899
 21
-949.6273880000003
 31
0.0
  0
LINE
  5
573
330
6B
100
AcDbEntity
  8
0
  6
Continuous
 62
     3
100
AcDbLine
 10
691.9209608938991
 20
-954.6273879999999
 30
0.0
 11
691.9209608938991
 21
-949.6273880000003
 31
0.0
  0
LINE
  5
575
330
6B
100
AcDbEntity
  8
0
  6
Continuous
100
AcDbLine
 10
691.6530117014682
 20
-950.6273880000001
 30
0.0
 11
691.9209608938991
 21
-950.6273880000001
 31
0.0
  0
LINE
  5
576
330
6B
100
AcDbEntity
  8
0
  6
Continuous
100
AcDbLine
 10
688.4209608938991
 20
-947.6066620578363
 30
0.0
 11
691.9209608938992
 21
-949.6273880000003
 31
0.0
  0
LINE
  5
577
330
6B
100
AcDbEntity
  8
0
  6
Continuous
100
AcDbLine
 10
687.9209608938991
 20
-948.4726874616209
 30
0.0
 11
691.6530117014682
 21
-950.627388
 31
0.0
  0
LINE
  5
578
330
6B
100
AcDbEntity
  8
0
  6
Continuous
100
AcDbLine
 10
687.9209608938991
 20
-948.4726874616209
 30
0.0
 11
688.4209608938991
 21
-947.6066620578363
 31
0.0
  0
LINE
  5
579
330
6B
100
AcDbEntity
  8
0
  6
Continuous
 62
     3
100
AcDbLine
 10
576.9209608938987
 20
-954.6273879999999
 30
0.0
 11
576.9209608938987
 21
-949.6273880000003
 31
0.0
  0
LINE
  5
57C
330
6B
100
AcDbEntity
  8
0
  6
Continuous
 62
     3
100
AcDbLine
 10
576.9209608938987
 20
-954.6273879999999
 30
0.0
 11
576.9209608938987
 21
-949.6273880000003
 31
0.0
  0
LINE
  5
57D
330
6B
100
AcDbEntity
  8
0
  6
Continuous
 62
     3
100
AcDbLine
 10
602.9209608938987
 20
-954.6273879999999
 30
0.0
 11
602.9209608938987
 21
-949.6273880000003
 31
0.0
  0
LINE
  5
57E
330
6B
100
AcDbEntity
  8
0
  6
Continuous
 62
     3
100
AcDbLine
 10
602.9209608938987
 20
-949.6273880000003
 30
0.0
 11
576.9209608938987
 21
-949.6273880000003
 31
0.0
  0
LINE
  5
57F
330
6B
100
AcDbEntity
  8
0
  6
Continuous
100
AcDbLine
 10
603.18891008633
 20
-950.6273880000001
 30
0.0
 11
602.9209608938987
 21
-950.6273880000001
 31
0.0
  0
LINE
  5
580
330
6B
100
AcDbEntity
  8
0
  6
Continuous
100
AcDbLine
 10
606.4209608938987
 20
-947.6066620578363
 30
0.0
 11
602.9209608938987
 21
-949.6273880000003
 31
0.0
  0
LINE
  5
581
330
6B
100
AcDbEntity
  8
0
  6
Continuous
100
AcDbLine
 10
606.9209608938987
 20
-948.4726874616209
 30
0.0
 11
603.18891008633
 21
-950.627388
 31
0.0
  0
LINE
  5
582
330
6B
100
AcDbEntity
  8
0
  6
Continuous
100
AcDbLine
 10
606.9209608938987
 20
-948.4726874616209
 30
0.0
 11
606.4209608938987
 21
-947.6066620578363
 31
0.0
  0
LINE
  5
585
330
6B
100
AcDbEntity
  8
0
  6
Continuous
100
AcDbLine
 10
704.1709608938989
 20
-949.6273879999996
 30
0.0
 11
704.1709608938989
 21
-949.3273879999996
 31
0.0
  0
LINE
  5
586
330
6B
100
AcDbEntity
  8
0
  6
Continuous
100
AcDbLine
 10
697.6709608938989
 20
-949.6273879999996
 30
0.0
 11
697.6709608938989
 21
-949.3273879999996
 31
0.0
  0
ARC
  5
588
330
6B
100
AcDbEntity
  8
0
  6
Continuous
100
AcDbCircle
 10
700.9209608938991
 20
-954.1086380000001
 30
0.0
 40
5.781249999999905
100
AcDbArc
 50
55.79454206189486
 51
124.2054579381051
  0
LINE
  5
589
330
6B
100
AcDbEntity
  8
0
  6
Continuous
100
AcDbLine
 10
590.6709608938987
 20
-949.6273879999996
 30
0.0
 11
590.6709608938987
 21
-949.3273879999996
 31
0.0
  0
LINE
  5
58A
330
6B
100
AcDbEntity
  8
0
  6
Continuous
100
AcDbLine
 10
597.1709608938986
 20
-949.6273879999996
 30
0.0
 11
597.1709608938986
 21
-949.3273879999996
 31
0.0
  0
ARC
  5
58B
330
6B
100
AcDbEntity
  8
0
  6
Continuous
100
AcDbCircle
 10
593.9209608938987
 20
-954.1086380000001
 30
0.0
 40
5.781249999999905
100
AcDbArc
 50
55.79454206189486
 51
124.2054579381051
  0
LINE
  5
58C
330
6B
100
AcDbEntity
  8
0
  6
Continuous
100
AcDbLine
 10
468.0142557730071
 20
-949.6273879999996
 30
0.0
 11
468.0142557730071
 21
-949.3273879999996
 31
0.0
  0
LINE
  5
58D
330
6B
100
AcDbEntity
  8
0
  6
Continuous
100
AcDbLine
 10
474.5142557730071
 20
-949.6273879999996
 30
0.0
 11
474.5142557730071
 21
-949.3273879999996
 31
0.0
  0
ARC
  5
58E
330
6B
100
AcDbEntity
  8
0
  6
Continuous
100
AcDbCircle
 10
471.2642557730069
 20
-954.1086380000001
 30
0.0
 40
5.781249999999905
100
AcDbArc
 50
55.7945420618949
 51
124.2054579381051
  0
LINE
  5
58F
330
6B
100
AcDbEntity
  8
0
  6
Continuous
100
AcDbLine
 10
478.0142557730071
 20
-947.6066620578363
 30
0.0
 11
464.514255773007
 21
-947.6066620578363
 31
0.0
  0
ARC
  5
590
330
6B
100
AcDbEntity
  8
0
  6
Continuous
100
AcDbCircle
 10
478.0142557730068
 20
-949.6066620578362
 30
0.0
 40
2.0
100
AcDbArc
 50
0.0
 51
89.99999999999673
  0
ARC
  5
591
330
6B
100
AcDbEntity
  8
0
  6
Continuous
100
AcDbCircle
 10
464.514255773007
 20
-949.6066620578361
 30
0.0
 40
2.0
100
AcDbArc
 50
90.0
 51
180.0000000000065
  0
LINE
  5
592
330
6B
100
AcDbEntity
  8
0
  6
Continuous
 62
     3
100
AcDbLine
 10
478.5142557730071
 20
-929.1273880000003
 30
0.0
 11
478.5142557730071
 21
-947.6701703847323
 31
0.0
  0
LINE
  5
593
330
6B
100
AcDbEntity
  8
0
  6
Continuous
 62
     3
100
AcDbLine
 10
464.0142557730071
 20
-929.1273880000003
 30
0.0
 11
464.0142557730071
 21
-947.6701703847323
 31
0.0
  0
ARC
  5
594
330
6B
100
AcDbEntity
  8
0
  6
Continuous
 62
     3
100
AcDbCircle
 10
477.0142557730069
 20
-929.1273880000003
 30
0.0
 40
1.5
100
AcDbArc
 50
0.0000000000087529
 51
89.99999999999024
  0
ARC
  5
595
330
6B
100
AcDbEntity
  8
0
  6
Continuous
 62
     3
100
AcDbCircle
 10
465.5142557730072
 20
-929.1273880000003
 30
0.0
 40
1.5
100
AcDbArc
 50
90.00000000000978
 51
179.999999999987
  0
LINE
  5
596
330
6B
100
AcDbEntity
  8
0
  6
Continuous
 62
     3
100
AcDbLine
 10
638.2542942272325
 20
-927.6273879999999
 30
0.0
 11
656.587627560566
 21
-927.6273879999999
 31
0.0
  0
LINE
  5
59D
330
6B
100
AcDbEntity
  8
0
  6
Continuous
 62
     3
100
AcDbLine
 10
638.2542942272325
 20
-930.627388
 30
0.0
 11
656.587627560566
 21
-930.627388
 31
0.0
  0
LINE
  5
5A2
330
6B
100
AcDbEntity
  8
0
  6
Continuous
 62
     3
100
AcDbLine
 10
691.9209608938992
 20
-951.6273879999999
 30
0.0
 11
673.2542942272325
 21
-951.6273879999999
 31
0.0
  0
ARC
  5
5AC
330
6B
100
AcDbEntity
  8
0
  6
Continuous
 62
     3
100
AcDbCircle
 10
656.587627560566
 20
-934.1273880000001
 30
0.0
 40
6.5
100
AcDbArc
 50
22.61986494804091
 51
90.0
  0
ARC
  5
5AD
330
6B
100
AcDbEntity
  8
0
  6
Continuous
 62
     3
100
AcDbCircle
 10
656.587627560566
 20
-934.1273880000001
 30
0.0
 40
3.5
100
AcDbArc
 50
22.61986494804091
 51
90.0
  0
LINE
  5
5AE
330
6B
100
AcDbEntity
  8
0
  6
Continuous
 62
     3
100
AcDbLine
 10
662.587627560566
 20
-931.627388
 30
0.0
 11
670.0235249964634
 21
-949.4735418461536
 31
0.0
  0
LINE
  5
5AF
330
6B
100
AcDbEntity
  8
0
  6
Continuous
 62
     3
100
AcDbLine
 10
659.818396791335
 20
-932.7812341538459
 30
0.0
 11
667.2542942272325
 21
-950.6273880000001
 31
0.0
  0
ARC
  5
5B0
330
6B
100
AcDbEntity
  8
0
  6
Continuous
 62
     3
100
AcDbCircle
 10
638.2542942272325
 20
-934.1273879999997
 30
0.0
 40
6.5
100
AcDbArc
 50
90.0
 51
157.3801350519623
  0
ARC
  5
5B1
330
6B
100
AcDbEntity
  8
0
  6
Continuous
 62
     3
100
AcDbCircle
 10
638.2542942272325
 20
-934.1273879999997
 30
0.0
 40
3.5
100
AcDbArc
 50
90.0
 51
157.3801350519623
  0
LINE
  5
5B2
330
6B
100
AcDbEntity
  8
0
  6
Continuous
 62
     3
100
AcDbLine
 10
632.2542942272325
 20
-931.627388
 30
0.0
 11
624.8183967913351
 21
-949.4735418461536
 31
0.0
  0
LINE
  5
5B3
330
6B
100
AcDbEntity
  8
0
  6
Continuous
 62
     3
100
AcDbLine
 10
635.0235249964635
 20
-932.7812341538459
 30
0.0
 11
627.587627560566
 21
-950.6273880000001
 31
0.0
  0
ARC
  5
5B4
330
6B
100
AcDbEntity
  8
0
  6
Continuous
 62
     3
100
AcDbCircle
 10
621.587627560566
 20
-948.1273879999999
 30
0.0
 40
3.5
100
AcDbArc
 50
270.0
 51
337.3801350519591
  0
ARC
  5
5B5
330
6B
100
AcDbEntity
  8
0
  6
Continuous
 62
     3
100
AcDbCircle
 10
621.587627560566
 20
-948.1273879999999
 30
0.0
 40
6.5
100
AcDbArc
 50
270.0
 51
337.3801350519591
  0
ARC
  5
5B6
330
6B
100
AcDbEntity
  8
0
  6
Continuous
 62
     3
100
AcDbCircle
 10
673.2542942272325
 20
-948.1273879999999
 30
0.0
 40
3.5
100
AcDbArc
 50
202.6198649480408
 51
270.0
  0
ARC
  5
5B7
330
6B
100
AcDbEntity
  8
0
  6
Continuous
 62
     3
100
AcDbCircle
 10
673.2542942272325
 20
-948.1273879999999
 30
0.0
 40
6.5
100
AcDbArc
 50
202.6198649480408
 51
270.0
  0
LINE
  5
5B8
330
6B
100
AcDbEntity
  8
0
  6
Continuous
 62
     3
100
AcDbLine
 10
621.587627560566
 20
-951.6273879999999
 30
0.0
 11
602.9209608938991
 21
-951.6273879999999
 31
0.0
  0
LINE
  5
5B9
330
6B
100
AcDbEntity
  8
0
  6
Continuous
 62
     3
100
AcDbLine
 10
429.7642557730068
 20
-1022.127388
 30
0.0
 11
455.7642557730071
 21
-1022.127388
 31
0.0
  0
LINE
  5
5BA
330
6B
100
AcDbEntity
  8
0
  6
Continuous
 62
     3
100
AcDbLine
 10
429.7642557730068
 20
-1006.127388
 30
0.0
 11
455.7642557730071
 21
-1006.127388
 31
0.0
  0
LINE
  5
5BB
330
6B
100
AcDbEntity
  8
0
  6
Continuous
 62
     3
100
AcDbLine
 10
455.7642557730071
 20
-1022.127388
 30
0.0
 11
455.7642557730071
 21
-1006.127388
 31
0.0
  0
LINE
  5
5BC
330
6B
100
AcDbEntity
  8
0
  6
Continuous
 62
     3
100
AcDbLine
 10
486.7642557730071
 20
-1022.127388
 30
0.0
 11
486.7642557730071
 21
-1006.127388
 31
0.0
  0
LINE
  5
5BD
330
6B
100
AcDbEntity
  8
0
  6
Continuous
 62
     3
100
AcDbLine
 10
429.7642557730068
 20
-1022.127388
 30
0.0
 11
429.7642557730068
 21
-1006.127388
 31
0.0
  0
LINE
  5
5BE
330
6B
100
AcDbEntity
  8
0
  6
Continuous
 62
     3
100
AcDbLine
 10
512.7642557730069
 20
-1022.127388
 30
0.0
 11
512.7642557730069
 21
-1006.127388
 31
0.0
  0
LINE
  5
5BF
330
6B
100
AcDbEntity
  8
0
  6
Continuous
 62
     3
100
AcDbLine
 10
486.7642557730071
 20
-1006.127388
 30
0.0
 11
512.7642557730069
 21
-1006.127388
 31
0.0
  0
LINE
  5
5C0
330
6B
100
AcDbEntity
  8
0
  6
Continuous
 62
     3
100
AcDbLine
 10
486.7642557730071
 20
-1022.127388
 30
0.0
 11
512.7642557730069
 21
-1022.127388
 31
0.0
  0
LINE
  5
5C3
330
6B
100
AcDbEntity
  8
0
  6
Continuous
 62
     3
100
AcDbLine
 10
505.1142557730071
 20
-1010.877388
 30
0.0
 11
507.1142557730071
 21
-1010.877388
 31
0.0
  0
LINE
  5
5C4
330
6B
100
AcDbEntity
  8
0
  6
Continuous
 62
     3
100
AcDbLine
 10
505.1142557730071
 20
-1017.377388
 30
0.0
 11
507.1142557730071
 21
-1017.377388
 31
0.0
  0
LINE
  5
5C9
330
6B
100
AcDbEntity
  8
0
  6
Continuous
 62
     3
100
AcDbLine
 10
507.1142557730071
 20
-1010.877388
 30
0.0
 11
507.1142557730071
 21
-1017.377388
 31
0.0
  0
LINE
  5
5CA
330
6B
100
AcDbEntity
  8
0
  6
Continuous
 62
     3
100
AcDbLine
 10
505.1142557730071
 20
-1010.877388
 30
0.0
 11
505.1142557730071
 21
-1017.377388
 31
0.0
  0
LINE
  5
5CB
330
6B
100
AcDbEntity
  8
0
  6
Continuous
 62
     3
100
AcDbLine
 10
494.4142557730071
 20
-1009.877388
 30
0.0
 11
494.4142557730071
 21
-1018.377388
 31
0.0
  0
LINE
  5
5CC
330
6B
100
AcDbEntity
  8
0
  6
Continuous
 62
     3
100
AcDbLine
 10
492.4142557730069
 20
-1009.877388
 30
0.0
 11
492.4142557730069
 21
-1018.377388
 31
0.0
  0
LINE
  5
5CD
330
6B
100
AcDbEntity
  8
0
  6
Continuous
 62
     3
100
AcDbLine
 10
492.4142557730069
 20
-1009.877388
 30
0.0
 11
494.4142557730071
 21
-1009.877388
 31
0.0
  0
LINE
  5
5CE
330
6B
100
AcDbEntity
  8
0
  6
Continuous
 62
     3
100
AcDbLine
 10
492.4142557730069
 20
-1018.377388
 30
0.0
 11
494.4142557730071
 21
-1018.377388
 31
0.0
  0
LINE
  5
5CF
330
6B
100
AcDbEntity
  8
0
  6
Continuous
 62
     3
100
AcDbLine
 10
435.4142557730069
 20
-1009.877388
 30
0.0
 11
435.4142557730069
 21
-1018.377388
 31
0.0
  0
LINE
  5
5D0
330
6B
100
AcDbEntity
  8
0
  6
Continuous
 62
     3
100
AcDbLine
 10
437.414255773007
 20
-1009.877388
 30
0.0
 11
437.414255773007
 21
-1018.377388
 31
0.0
  0
LINE
  5
5D1
330
6B
100
AcDbEntity
  8
0
  6
Continuous
 62
     3
100
AcDbLine
 10
448.1142557730071
 20
-1010.877388
 30
0.0
 11
448.1142557730071
 21
-1017.377388
 31
0.0
  0
LINE
  5
5D2
330
6B
100
AcDbEntity
  8
0
  6
Continuous
 62
     3
100
AcDbLine
 10
450.1142557730071
 20
-1010.877388
 30
0.0
 11
450.1142557730071
 21
-1017.377388
 31
0.0
  0
LINE
  5
5D3
330
6B
100
AcDbEntity
  8
0
  6
Continuous
 62
     3
100
AcDbLine
 10
448.1142557730071
 20
-1017.377388
 30
0.0
 11
450.1142557730071
 21
-1017.377388
 31
0.0
  0
LINE
  5
5D4
330
6B
100
AcDbEntity
  8
0
  6
Continuous
 62
     3
100
AcDbLine
 10
435.4142557730069
 20
-1018.377388
 30
0.0
 11
437.414255773007
 21
-1018.377388
 31
0.0
  0
LINE
  5
5D5
330
6B
100
AcDbEntity
  8
0
  6
Continuous
 62
     3
100
AcDbLine
 10
448.1142557730071
 20
-1010.877388
 30
0.0
 11
450.1142557730071
 21
-1010.877388
 31
0.0
  0
LINE
  5
5D6
330
6B
100
AcDbEntity
  8
0
  6
Continuous
 62
     3
100
AcDbLine
 10
435.4142557730069
 20
-1009.877388
 30
0.0
 11
437.414255773007
 21
-1009.877388
 31
0.0
  0
LINE
  5
5D7
330
6B
100
AcDbEntity
  8
0
  6
Continuous
100
AcDbLine
 10
516.264255773007
 20
-1001.627388
 30
0.0
 11
516.264255773007
 21
-1029.127388
 31
0.0
  0
LINE
  5
5D8
330
6B
100
AcDbEntity
  8
0
  6
Continuous
100
AcDbLine
 10
483.264255773007
 20
-1001.627388
 30
0.0
 11
483.264255773007
 21
-1029.127388
 31
0.0
  0
LINE
  5
5D9
330
6B
100
AcDbEntity
  8
0
  6
Continuous
100
AcDbLine
 10
485.2642557730071
 20
-1031.127388
 30
0.0
 11
514.2642557730071
 21
-1031.127388
 31
0.0
  0
LINE
  5
5DA
330
6B
100
AcDbEntity
  8
0
  6
Continuous
100
AcDbLine
 10
485.2642557730071
 20
-999.6273880000003
 30
0.0
 11
514.2642557730071
 21
-999.6273880000003
 31
0.0
  0
ARC
  5
5DB
330
6B
100
AcDbEntity
  8
0
  6
Continuous
100
AcDbCircle
 10
514.2642557730072
 20
-1001.627388
 30
0.0
 40
2.0
100
AcDbArc
 50
359.9999999999935
 51
90.00000000000325
  0
ARC
  5
5DC
330
6B
100
AcDbEntity
  8
0
  6
Continuous
100
AcDbCircle
 10
485.2642557730071
 20
-1001.627388
 30
0.0
 40
2.0
100
AcDbArc
 50
90.0
 51
180.0
  0
ARC
  5
5DD
330
6B
100
AcDbEntity
  8
0
  6
Continuous
100
AcDbCircle
 10
485.2642557730071
 20
-1029.127388
 30
0.0
 40
2.0
100
AcDbArc
 50
179.9999999999935
 51
270.0
  0
ARC
  5
5DE
330
6B
100
AcDbEntity
  8
0
  6
Continuous
100
AcDbCircle
 10
514.2642557730071
 20
-1029.127388
 30
0.0
 40
2.0
100
AcDbArc
 50
270.0
 51
359.9999999999935
  0
LINE
  5
5DF
330
6B
100
AcDbEntity
  8
0
  6
Continuous
100
AcDbLine
 10
428.2642557730071
 20
-1031.127388
 30
0.0
 11
457.2642557730071
 21
-1031.127388
 31
0.0
  0
LINE
  5
5E0
330
6B
100
AcDbEntity
  8
0
  6
Continuous
100
AcDbLine
 10
428.2642557730071
 20
-999.6273880000003
 30
0.0
 11
457.2642557730071
 21
-999.6273880000003
 31
0.0
  0
LINE
  5
5E1
330
6B
100
AcDbEntity
  8
0
  6
Continuous
100
AcDbLine
 10
426.2642557730071
 20
-1001.627388
 30
0.0
 11
426.2642557730071
 21
-1029.127388
 31
0.0
  0
LINE
  5
5E2
330
6B
100
AcDbEntity
  8
0
  6
Continuous
100
AcDbLine
 10
459.2642557730071
 20
-1001.627388
 30
0.0
 11
459.2642557730071
 21
-1029.127388
 31
0.0
  0
ARC
  5
5E3
330
6B
100
AcDbEntity
  8
0
  6
Continuous
100
AcDbCircle
 10
457.2642557730071
 20
-1001.627388
 30
0.0
 40
2.0
100
AcDbArc
 50
359.9999999999935
 51
90.00000000000325
  0
ARC
  5
5E4
330
6B
100
AcDbEntity
  8
0
  6
Continuous
100
AcDbCircle
 10
428.2642557730071
 20
-1001.627388
 30
0.0
 40
2.0
100
AcDbArc
 50
90.0
 51
180.0
  0
ARC
  5
5E5
330
6B
100
AcDbEntity
  8
0
  6
Continuous
100
AcDbCircle
 10
428.2642557730071
 20
-1029.127388
 30
0.0
 40
2.0
100
AcDbArc
 50
179.9999999999935
 51
270.0
  0
ARC
  5
5E6
330
6B
100
AcDbEntity
  8
0
  6
Continuous
100
AcDbCircle
 10
457.2642557730071
 20
-1029.127388
 30
0.0
 40
2.0
100
AcDbArc
 50
270.0
 51
359.9999999999935
  0
TEXT
  5
5E8
330
6B
100
AcDbEntity
  8
0
  6
Continuous
 62
     4
100
AcDbText
 10
494.414415530549
 20
-1004.725056424213
 30
0.0
 40
3.2
  1
125V
  7
高3.2
100
AcDbText
  0
TEXT
  5
5E9
330
6B
100
AcDbEntity
  8
0
  6
Continuous
 62
     4
100
AcDbText
 10
437.4144155305491
 20
-1004.725056424213
 30
0.0
 40
3.2
  1
115V
  7
高3.2
100
AcDbText
  0
TEXT
  5
5EA
330
6B
100
AcDbEntity
  8
0
  6
Continuous
100
AcDbText
 10
486.7649558257769
 20
-1025.515642374978
 30
0.0
 40
2.5
  1
OUTPUT 出力
 41
1.199999999999999
  7
高2.5
100
AcDbText
  0
TEXT
  5
5EB
330
6B
100
AcDbEntity
  8
0
  6
Continuous
100
AcDbText
 10
492.8675273493134
 20
-1029.984671460202
 30
0.0
 40
2.5
  1
25%%%UP
 41
1.199999999999999
  7
高2.5
100
AcDbText
  0
TEXT
  5
5EC
330
6B
100
AcDbEntity
  8
0
  6
Continuous
100
AcDbText
 10
429.7649558257768
 20
-1025.515642374978
 30
0.0
 40
2.5
  1
OUTPUT 出力
 41
1.199999999999999
  7
高2.5
100
AcDbText
  0
TEXT
  5
5ED
330
6B
100
AcDbEntity
  8
0
  6
Continuous
100
AcDbText
 10
435.8675273493131
 20
-1029.984671460202
 30
0.0
 40
2.5
  1
15%%%UP
 41
1.199999999999999
  7
高2.5
100
AcDbText
  0
LINE
  5
5F1
330
6B
100
AcDbEntity
  8
0
  6
Continuous
100
AcDbLine
 10
444.2642557730071
 20
-1040.127388
 30
0.0
 11
498.2642557730072
 21
-1040.127388
 31
0.0
  0
LINE
  5
5F2
330
6B
100
AcDbEntity
  8
0
  6
Continuous
100
AcDbLine
 10
444.2642557730071
 20
-1036.127388
 30
0.0
 11
498.2642557730072
 21
-1036.127388
 31
0.0
  0
ARC
  5
5F7
330
6B
100
AcDbEntity
  8
0
  6
Continuous
100
AcDbCircle
 10
498.2642557730072
 20
-1038.127388
 30
0.0
 40
1.999999999999745
100
AcDbArc
 50
270.0
 51
90.0
  0
ARC
  5
5F8
330
6B
100
AcDbEntity
  8
0
  6
Continuous
100
AcDbCircle
 10
444.2642557730071
 20
-1038.127388
 30
0.0
 40
2.0
100
AcDbArc
 50
90.0
 51
270.0
  0
TEXT
  5
5F9
330
6B
100
AcDbEntity
  8
0
  6
Continuous
100
AcDbText
 10
445.5043651427697
 20
-1039.604300345816
 30
0.0
 40
2.5
  1
INPUT 入力　AC-100V　50/60Hz
 41
0.9
  7
高2.5
100
AcDbText
  0
LINE
  5
5FA
330
6B
100
AcDbEntity
  8
0
  6
Continuous
100
AcDbLine
 10
481.7642557730071
 20
-963.627388
 30
0.0
 11
460.7642557730071
 21
-963.627388
 31
0.0
  0
LINE
  5
5FC
330
6B
100
AcDbEntity
  8
0
  6
Continuous
100
AcDbLine
 10
481.7642557730071
 20
-972.627388
 30
0.0
 11
460.7642557730071
 21
-972.627388
 31
0.0
  0
LINE
  5
5FD
330
6B
100
AcDbEntity
  8
0
  6
Continuous
100
AcDbLine
 10
483.7642557730069
 20
-965.627388
 30
0.0
 11
483.7642557730069
 21
-970.6273879999999
 31
0.0
  0
LINE
  5
5FE
330
6B
100
AcDbEntity
  8
0
  6
Continuous
100
AcDbLine
 10
458.7642557730069
 20
-965.627388
 30
0.0
 11
458.7642557730069
 21
-970.6273879999999
 31
0.0
  0
ARC
  5
5FF
330
6B
100
AcDbEntity
  8
0
  6
Continuous
100
AcDbCircle
 10
481.7642557730071
 20
-965.627388
 30
0.0
 40
2.0
100
AcDbArc
 50
0.0000000000032569
 51
90.0
  0
ARC
  5
600
330
6B
100
AcDbEntity
  8
0
  6
Continuous
100
AcDbCircle
 10
460.7642557730071
 20
-965.627388
 30
0.0
 40
2.0
100
AcDbArc
 50
90.0
 51
180.0
  0
ARC
  5
601
330
6B
100
AcDbEntity
  8
0
  6
Continuous
100
AcDbCircle
 10
460.7642557730071
 20
-970.6273879999999
 30
0.0
 40
2.0
100
AcDbArc
 50
179.9999999999966
 51
270.0
  0
ARC
  5
602
330
6B
100
AcDbEntity
  8
0
  6
Continuous
100
AcDbCircle
 10
481.7642557730072
 20
-970.6273879999999
 30
0.0
 40
2.0
100
AcDbArc
 50
269.9999999999968
 51
0.0
  0
TEXT
  5
603
330
6B
100
AcDbEntity
  8
0
  6
Continuous
 62
     4
100
AcDbText
 10
461.2900987303471
 20
-971.3386844383263
 30
0.0
 40
6.0
  1
昇圧器
  7
高3.2
100
AcDbText
  0
CIRCLE
  5
608
330
6B
100
AcDbEntity
  8
0
  6
Continuous
 62
     3
100
AcDbCircle
 10
442.7642557730071
 20
-972.627388
 30
0.0
 40
5.0
  0
CIRCLE
  5
609
330
6B
100
AcDbEntity
  8
0
  6
Continuous
 62
     3
100
AcDbCircle
 10
499.764255773007
 20
-972.627388
 30
0.0
 40
4.5
  0
CIRCLE
  5
60A
330
6B
100
AcDbEntity
  8
0
  6
Continuous
 62
     3
100
AcDbCircle
 10
499.764255773007
 20
-972.627388
 30
0.0
 40
1.5
  0
LINE
  5
60B
330
6B
100
AcDbEntity
  8
0
  6
Continuous
100
AcDbLine
 10
505.7642557730071
 20
-969.1632863848623
 30
0.0
 11
505.7642557730071
 21
-976.0914896151378
 31
0.0
  0
LINE
  5
60C
330
6B
100
AcDbEntity
  8
0
  6
Continuous
100
AcDbLine
 10
499.764255773007
 20
-965.6991847697247
 30
0.0
 11
505.7642557730071
 21
-969.1632863848623
 31
0.0
  0
LINE
  5
60D
330
6B
100
AcDbEntity
  8
0
  6
Continuous
100
AcDbLine
 10
493.7642557730072
 20
-969.1632863848623
 30
0.0
 11
499.764255773007
 21
-965.6991847697247
 31
0.0
  0
LINE
  5
60E
330
6B
100
AcDbEntity
  8
0
  6
Continuous
100
AcDbLine
 10
493.7642557730072
 20
-976.0914896151376
 30
0.0
 11
493.7642557730072
 21
-969.1632863848623
 31
0.0
  0
LINE
  5
60F
330
6B
100
AcDbEntity
  8
0
  6
Continuous
100
AcDbLine
 10
499.7642557730072
 20
-979.5555912302754
 30
0.0
 11
493.7642557730072
 21
-976.0914896151376
 31
0.0
  0
LINE
  5
610
330
6B
100
AcDbEntity
  8
0
  6
Continuous
100
AcDbLine
 10
505.7642557730071
 20
-976.0914896151378
 30
0.0
 11
499.7642557730072
 21
-979.5555912302754
 31
0.0
  0
LINE
  5
616
330
6B
100
AcDbEntity
  8
0
  6
Continuous
100
AcDbLine
 10
413.7642557730071
 20
-986.6273879999999
 30
0.0
 11
412.7642557730069
 21
-986.6273879999999
 31
0.0
  0
LINE
  5
617
330
6B
100
AcDbEntity
  8
0
  6
Continuous
100
AcDbLine
 10
413.7642557730071
 20
-992.6273880000001
 30
0.0
 11
412.7642557730069
 21
-992.6273880000001
 31
0.0
  0
LINE
  5
618
330
6B
100
AcDbEntity
  8
0
  6
Continuous
100
AcDbLine
 10
529.7642557730068
 20
-986.6273879999999
 30
0.0
 11
529.7642557730068
 21
-992.6273879999996
 31
0.0
  0
LINE
  5
619
330
6B
100
AcDbEntity
  8
0
  6
Continuous
100
AcDbLine
 10
412.7642557730069
 20
-986.6273879999999
 30
0.0
 11
412.7642557730069
 21
-992.6273879999996
 31
0.0
  0
ARC
  5
61A
330
6B
100
AcDbEntity
  8
0
  6
Continuous
100
AcDbCircle
 10
416.7642557730072
 20
-989.6273879999997
 30
0.0
 40
5.000000000000113
100
AcDbArc
 50
143.1301023541581
 51
216.8698976458433
  0
ARC
  5
61B
330
6B
100
AcDbEntity
  8
0
  6
Continuous
100
AcDbCircle
 10
525.7642557730071
 20
-989.6273879999997
 30
0.0
 40
4.999999999999931
100
AcDbArc
 50
323.1301023541556
 51
36.86989764584299
  0
LINE
  5
61D
330
6B
100
AcDbEntity
  8
0
  6
Continuous
100
AcDbLine
 10
413.7642557730071
 20
-1041.627388
 30
0.0
 11
412.7642557730069
 21
-1041.627388
 31
0.0
  0
LINE
  5
61E
330
6B
100
AcDbEntity
  8
0
  6
Continuous
100
AcDbLine
 10
413.7642557730071
 20
-1047.627388
 30
0.0
 11
412.7642557730069
 21
-1047.627388
 31
0.0
  0
ARC
  5
61F
330
6B
100
AcDbEntity
  8
0
  6
Continuous
100
AcDbCircle
 10
525.7642557730073
 20
-1044.627388
 30
0.0
 40
4.999999999999816
100
AcDbArc
 50
323.1301023541533
 51
36.86989764584466
  0
ARC
  5
620
330
6B
100
AcDbEntity
  8
0
  6
Continuous
100
AcDbCircle
 10
416.7642557730072
 20
-1044.627388
 30
0.0
 40
5.000000000000182
100
AcDbArc
 50
143.1301023541574
 51
216.8698976458426
  0
LINE
  5
621
330
6B
100
AcDbEntity
  8
0
  6
Continuous
100
AcDbLine
 10
528.764255773007
 20
-1041.627388
 30
0.0
 11
529.7642557730068
 21
-1041.627388
 31
0.0
  0
LINE
  5
622
330
6B
100
AcDbEntity
  8
0
  6
Continuous
100
AcDbLine
 10
528.764255773007
 20
-1047.627388
 30
0.0
 11
529.7642557730068
 21
-1047.627388
 31
0.0
  0
LINE
  5
623
330
6B
100
AcDbEntity
  8
0
  6
Continuous
100
AcDbLine
 10
528.764255773007
 20
-992.6273880000001
 30
0.0
 11
529.7642557730068
 21
-992.6273880000001
 31
0.0
  0
LINE
  5
624
330
6B
100
AcDbEntity
  8
0
  6
Continuous
100
AcDbLine
 10
528.764255773007
 20
-986.6273879999999
 30
0.0
 11
529.7642557730068
 21
-986.6273879999999
 31
0.0
  0
LINE
  5
625
330
6B
100
AcDbEntity
  8
0
  6
Continuous
100
AcDbLine
 10
529.7642557730068
 20
-1041.627388
 30
0.0
 11
529.7642557730068
 21
-1047.627388
 31
0.0
  0
LINE
  5
626
330
6B
100
AcDbEntity
  8
0
  6
Continuous
100
AcDbLine
 10
412.7642557730069
 20
-1041.627388
 30
0.0
 11
412.7642557730069
 21
-1047.627388
 31
0.0
  0
CIRCLE
  5
629
330
6B
100
AcDbEntity
  8
0
  6
Continuous
100
AcDbCircle
 10
716.9209608938991
 20
-989.627388
 30
0.0
 40
3.0
  0
LINE
  5
62B
330
6B
100
AcDbEntity
  8
0
  6
Continuous
100
AcDbLine
 10
717.4209608938991
 20
-991.3914888518187
 30
0.0
 11
717.4209608938991
 21
-990.1273879999999
 31
0.0
  0
LINE
  5
62C
330
6B
100
AcDbEntity
  8
0
  6
Continuous
100
AcDbLine
 10
716.4209608938989
 20
-991.3914888518187
 30
0.0
 11
716.4209608938992
 21
-990.1273879999999
 31
0.0
  0
LINE
  5
62D
330
6B
100
AcDbEntity
  8
0
  6
Continuous
100
AcDbLine
 10
718.6850617457179
 20
-989.1273879999999
 30
0.0
 11
717.4209608938991
 21
-989.1273879999999
 31
0.0
  0
LINE
  5
62E
330
6B
100
AcDbEntity
  8
0
  6
Continuous
100
AcDbLine
 10
718.6850617457179
 20
-990.1273879999999
 30
0.0
 11
717.4209608938991
 21
-990.1273879999999
 31
0.0
  0
ARC
  5
633
330
6B
100
AcDbEntity
  8
0
  6
Continuous
100
AcDbCircle
 10
716.9209608938991
 20
-989.627388
 30
0.0
 40
1.83358987109659
100
AcDbArc
 50
164.1756522511578
 51
195.8243477488421
  0
ARC
  5
634
330
6B
100
AcDbEntity
  8
0
  6
Continuous
100
AcDbCircle
 10
716.9209608938991
 20
-989.627388
 30
0.0
 40
1.83358987109659
100
AcDbArc
 50
74.1756522511562
 51
105.8243477488437
  0
ARC
  5
635
330
6B
100
AcDbEntity
  8
0
  6
Continuous
100
AcDbCircle
 10
716.9209608938991
 20
-989.627388
 30
0.0
 40
1.83358987109659
100
AcDbArc
 50
344.1756522511578
 51
15.82434774884211
  0
ARC
  5
636
330
6B
100
AcDbEntity
  8
0
  6
Continuous
100
AcDbCircle
 10
716.9209608938991
 20
-989.627388
 30
0.0
 40
1.83358987109659
100
AcDbArc
 50
254.1756522511563
 51
285.8243477488437
  0
LINE
  5
637
330
6B
100
AcDbEntity
  8
0
  6
Continuous
100
AcDbLine
 10
716.4209608938992
 20
-990.1273879999999
 30
0.0
 11
715.1568600420801
 21
-990.1273879999999
 31
0.0
  0
LINE
  5
638
330
6B
100
AcDbEntity
  8
0
  6
Continuous
100
AcDbLine
 10
716.4209608938992
 20
-989.1273879999999
 30
0.0
 11
716.4209608938989
 21
-987.863287148181
 31
0.0
  0
LINE
  5
639
330
6B
100
AcDbEntity
  8
0
  6
Continuous
100
AcDbLine
 10
716.4209608938992
 20
-989.1273879999999
 30
0.0
 11
715.1568600420801
 21
-989.1273879999999
 31
0.0
  0
LINE
  5
63A
330
6B
100
AcDbEntity
  8
0
  6
Continuous
100
AcDbLine
 10
717.4209608938991
 20
-989.1273879999999
 30
0.0
 11
717.4209608938991
 21
-987.863287148181
 31
0.0
  0
LINE
  5
63B
330
6B
100
AcDbEntity
  8
0
  6
Continuous
100
AcDbLine
 10
576.420960893899
 20
-991.3914888518187
 30
0.0
 11
576.4209608938991
 21
-990.1273879999999
 31
0.0
  0
LINE
  5
63C
330
6B
100
AcDbEntity
  8
0
  6
Continuous
100
AcDbLine
 10
576.4209608938991
 20
-989.1273879999999
 30
0.0
 11
576.420960893899
 21
-987.863287148181
 31
0.0
  0
LINE
  5
63D
330
6B
100
AcDbEntity
  8
0
  6
Continuous
100
AcDbLine
 10
577.4209608938987
 20
-991.3914888518187
 30
0.0
 11
577.4209608938987
 21
-990.1273879999999
 31
0.0
  0
LINE
  5
63E
330
6B
100
AcDbEntity
  8
0
  6
Continuous
100
AcDbLine
 10
577.4209608938987
 20
-989.1273879999999
 30
0.0
 11
577.4209608938987
 21
-987.863287148181
 31
0.0
  0
LINE
  5
63F
330
6B
100
AcDbEntity
  8
0
  6
Continuous
100
AcDbLine
 10
578.685061745718
 20
-990.1273879999999
 30
0.0
 11
577.4209608938987
 21
-990.1273879999999
 31
0.0
  0
LINE
  5
640
330
6B
100
AcDbEntity
  8
0
  6
Continuous
100
AcDbLine
 10
576.4209608938991
 20
-990.1273879999999
 30
0.0
 11
575.1568600420799
 21
-990.1273879999999
 31
0.0
  0
LINE
  5
641
330
6B
100
AcDbEntity
  8
0
  6
Continuous
100
AcDbLine
 10
578.685061745718
 20
-989.1273879999999
 30
0.0
 11
577.4209608938987
 21
-989.1273879999999
 31
0.0
  0
LINE
  5
642
330
6B
100
AcDbEntity
  8
0
  6
Continuous
100
AcDbLine
 10
576.4209608938991
 20
-989.1273879999999
 30
0.0
 11
575.1568600420799
 21
-989.1273879999999
 31
0.0
  0
CIRCLE
  5
643
330
6B
100
AcDbEntity
  8
0
  6
Continuous
100
AcDbCircle
 10
576.9209608938987
 20
-989.627388
 30
0.0
 40
3.0
  0
ARC
  5
644
330
6B
100
AcDbEntity
  8
0
  6
Continuous
100
AcDbCircle
 10
576.9209608938987
 20
-989.627388
 30
0.0
 40
1.83358987109659
100
AcDbArc
 50
164.1756522511578
 51
195.8243477488421
  0
ARC
  5
645
330
6B
100
AcDbEntity
  8
0
  6
Continuous
100
AcDbCircle
 10
576.9209608938987
 20
-989.627388
 30
0.0
 40
1.83358987109659
100
AcDbArc
 50
254.1756522511561
 51
285.8243477488437
  0
ARC
  5
646
330
6B
100
AcDbEntity
  8
0
  6
Continuous
100
AcDbCircle
 10
576.9209608938987
 20
-989.627388
 30
0.0
 40
1.83358987109659
100
AcDbArc
 50
344.1756522511578
 51
15.82434774884211
  0
ARC
  5
647
330
6B
100
AcDbEntity
  8
0
  6
Continuous
100
AcDbCircle
 10
576.9209608938987
 20
-989.627388
 30
0.0
 40
1.83358987109659
100
AcDbArc
 50
74.17565225115615
 51
105.8243477488438
  0
LINE
  5
648
330
6B
100
AcDbEntity
  8
0
  6
Continuous
100
AcDbLine
 10
646.4209608938991
 20
-1046.391488851819
 30
0.0
 11
646.4209608938991
 21
-1045.127388
 31
0.0
  0
LINE
  5
649
330
6B
100
AcDbEntity
  8
0
  6
Continuous
100
AcDbLine
 10
646.4209608938991
 20
-1044.127388
 30
0.0
 11
646.4209608938991
 21
-1042.863287148181
 31
0.0
  0
LINE
  5
64A
330
6B
100
AcDbEntity
  8
0
  6
Continuous
100
AcDbLine
 10
647.420960893899
 20
-1046.391488851819
 30
0.0
 11
647.420960893899
 21
-1045.127388
 31
0.0
  0
LINE
  5
64B
330
6B
100
AcDbEntity
  8
0
  6
Continuous
100
AcDbLine
 10
647.420960893899
 20
-1044.127388
 30
0.0
 11
647.420960893899
 21
-1042.863287148181
 31
0.0
  0
LINE
  5
64C
330
6B
100
AcDbEntity
  8
0
  6
Continuous
100
AcDbLine
 10
648.685061745718
 20
-1045.127388
 30
0.0
 11
647.420960893899
 21
-1045.127388
 31
0.0
  0
LINE
  5
64D
330
6B
100
AcDbEntity
  8
0
  6
Continuous
100
AcDbLine
 10
646.4209608938991
 20
-1045.127388
 30
0.0
 11
645.1568600420801
 21
-1045.127388
 31
0.0
  0
LINE
  5
64E
330
6B
100
AcDbEntity
  8
0
  6
Continuous
100
AcDbLine
 10
648.685061745718
 20
-1044.127388
 30
0.0
 11
647.420960893899
 21
-1044.127388
 31
0.0
  0
LINE
  5
64F
330
6B
100
AcDbEntity
  8
0
  6
Continuous
100
AcDbLine
 10
646.4209608938991
 20
-1044.127388
 30
0.0
 11
645.1568600420801
 21
-1044.127388
 31
0.0
  0
CIRCLE
  5
650
330
6B
100
AcDbEntity
  8
0
  6
Continuous
100
AcDbCircle
 10
646.9209608938987
 20
-1044.627388
 30
0.0
 40
3.0
  0
ARC
  5
651
330
6B
100
AcDbEntity
  8
0
  6
Continuous
100
AcDbCircle
 10
646.9209608938987
 20
-1044.627388
 30
0.0
 40
1.83358987109659
100
AcDbArc
 50
164.1756522511578
 51
195.8243477488421
  0
ARC
  5
652
330
6B
100
AcDbEntity
  8
0
  6
Continuous
100
AcDbCircle
 10
646.9209608938987
 20
-1044.627388
 30
0.0
 40
1.83358987109659
100
AcDbArc
 50
254.1756522511563
 51
285.8243477488437
  0
ARC
  5
653
330
6B
100
AcDbEntity
  8
0
  6
Continuous
100
AcDbCircle
 10
646.9209608938987
 20
-1044.627388
 30
0.0
 40
1.83358987109659
100
AcDbArc
 50
344.1756522511578
 51
15.82434774884211
  0
ARC
  5
654
330
6B
100
AcDbEntity
  8
0
  6
Continuous
100
AcDbCircle
 10
646.9209608938987
 20
-1044.627388
 30
0.0
 40
1.83358987109659
100
AcDbArc
 50
74.17565225115622
 51
105.8243477488437
  0
LINE
  5
68F
330
6B
100
AcDbEntity
  8
0
  6
Continuous
100
AcDbLine
 10
693.4209608938989
 20
-997.6273879999997
 30
0.0
 11
693.4209608938989
 21
-970.6273879999999
 31
0.0
  0
LINE
  5
690
330
6B
100
AcDbEntity
  8
0
  6
Continuous
100
AcDbLine
 10
690.4209608938989
 20
-997.6273879999997
 30
0.0
 11
690.4209608938989
 21
-970.6273879999999
 31
0.0
  0
ARC
  5
6AF
330
6B
100
AcDbEntity
  8
0
  6
Continuous
100
AcDbCircle
 10
691.9209608938987
 20
-970.6273879999999
 30
0.0
 40
1.500000000000154
100
AcDbArc
 50
0.0
 51
180.0
  0
ARC
  5
6B0
330
6B
100
AcDbEntity
  8
0
  6
Continuous
100
AcDbCircle
 10
691.9209608938991
 20
-997.6273879999997
 30
0.0
 40
1.5
100
AcDbArc
 50
180.0
 51
0.0
  0
LINE
  5
6B1
330
6B
100
AcDbEntity
  8
0
  6
Continuous
100
AcDbLine
 10
687.4209608938987
 20
-997.6273879999997
 30
0.0
 11
687.4209608938989
 21
-970.6273879999999
 31
0.0
  0
LINE
  5
6B2
330
6B
100
AcDbEntity
  8
0
  6
Continuous
100
AcDbLine
 10
684.4209608938987
 20
-997.6273879999997
 30
0.0
 11
684.4209608938987
 21
-970.6273879999999
 31
0.0
  0
ARC
  5
6B3
330
6B
100
AcDbEntity
  8
0
  6
Continuous
100
AcDbCircle
 10
685.9209608938986
 20
-970.6273879999999
 30
0.0
 40
1.500000000000154
100
AcDbArc
 50
0.0
 51
180.0
  0
ARC
  5
6B4
330
6B
100
AcDbEntity
  8
0
  6
Continuous
100
AcDbCircle
 10
685.9209608938987
 20
-997.6273879999997
 30
0.0
 40
1.5
100
AcDbArc
 50
180.0
 51
0.0
  0
LINE
  5
6B5
330
6B
100
AcDbEntity
  8
0
  6
Continuous
100
AcDbLine
 10
681.4209608938987
 20
-997.6273879999997
 30
0.0
 11
681.4209608938987
 21
-970.6273879999999
 31
0.0
  0
LINE
  5
6B6
330
6B
100
AcDbEntity
  8
0
  6
Continuous
100
AcDbLine
 10
678.4209608938986
 20
-997.6273879999997
 30
0.0
 11
678.4209608938986
 21
-970.6273879999999
 31
0.0
  0
ARC
  5
6B7
330
6B
100
AcDbEntity
  8
0
  6
Continuous
100
AcDbCircle
 10
679.9209608938986
 20
-970.6273879999999
 30
0.0
 40
1.500000000000154
100
AcDbArc
 50
0.0
 51
180.0
  0
ARC
  5
6B8
330
6B
100
AcDbEntity
  8
0
  6
Continuous
100
AcDbCircle
 10
679.9209608938987
 20
-997.6273879999997
 30
0.0
 40
1.5
100
AcDbArc
 50
180.0
 51
0.0
  0
LINE
  5
6B9
330
6B
100
AcDbEntity
  8
0
  6
Continuous
100
AcDbLine
 10
675.4209608938987
 20
-997.6273879999997
 30
0.0
 11
675.4209608938992
 21
-970.6273879999999
 31
0.0
  0
LINE
  5
6BA
330
6B
100
AcDbEntity
  8
0
  6
Continuous
100
AcDbLine
 10
672.4209608938987
 20
-997.6273879999997
 30
0.0
 11
672.4209608938987
 21
-970.6273879999999
 31
0.0
  0
ARC
  5
6BB
330
6B
100
AcDbEntity
  8
0
  6
Continuous
100
AcDbCircle
 10
673.9209608938986
 20
-970.6273879999999
 30
0.0
 40
1.500000000000154
100
AcDbArc
 50
0.0
 51
180.0
  0
ARC
  5
6BC
330
6B
100
AcDbEntity
  8
0
  6
Continuous
100
AcDbCircle
 10
673.9209608938987
 20
-997.6273879999997
 30
0.0
 40
1.5
100
AcDbArc
 50
180.0
 51
0.0
  0
LINE
  5
6BD
330
6B
100
AcDbEntity
  8
0
  6
Continuous
100
AcDbLine
 10
669.4209608938987
 20
-997.6273879999997
 30
0.0
 11
669.4209608938987
 21
-970.6273879999999
 31
0.0
  0
LINE
  5
6BE
330
6B
100
AcDbEntity
  8
0
  6
Continuous
100
AcDbLine
 10
666.4209608938987
 20
-997.6273879999997
 30
0.0
 11
666.4209608938987
 21
-970.6273879999999
 31
0.0
  0
ARC
  5
6BF
330
6B
100
AcDbEntity
  8
0
  6
Continuous
100
AcDbCircle
 10
667.9209608938986
 20
-970.6273879999999
 30
0.0
 40
1.500000000000154
100
AcDbArc
 50
0.0
 51
180.0
  0
ARC
  5
6C0
330
6B
100
AcDbEntity
  8
0
  6
Continuous
100
AcDbCircle
 10
667.9209608938987
 20
-997.6273879999997
 30
0.0
 40
1.5
100
AcDbArc
 50
180.0
 51
0.0
  0
LINE
  5
6C1
330
6B
100
AcDbEntity
  8
0
  6
Continuous
100
AcDbLine
 10
663.4209608938987
 20
-997.6273879999997
 30
0.0
 11
663.4209608938991
 21
-970.6273879999999
 31
0.0
  0
LINE
  5
6C2
330
6B
100
AcDbEntity
  8
0
  6
Continuous
100
AcDbLine
 10
660.4209608938987
 20
-997.6273879999997
 30
0.0
 11
660.4209608938987
 21
-970.6273879999999
 31
0.0
  0
ARC
  5
6C3
330
6B
100
AcDbEntity
  8
0
  6
Continuous
100
AcDbCircle
 10
661.9209608938986
 20
-970.6273879999999
 30
0.0
 40
1.500000000000154
100
AcDbArc
 50
0.0
 51
180.0
  0
ARC
  5
6C4
330
6B
100
AcDbEntity
  8
0
  6
Continuous
100
AcDbCircle
 10
661.9209608938987
 20
-997.6273879999997
 30
0.0
 40
1.5
100
AcDbArc
 50
180.0
 51
0.0
  0
LINE
  5
6C5
330
6B
100
AcDbEntity
  8
0
  6
Continuous
100
AcDbLine
 10
657.4209608938986
 20
-997.6273879999997
 30
0.0
 11
657.4209608938986
 21
-970.6273879999999
 31
0.0
  0
LINE
  5
6C6
330
6B
100
AcDbEntity
  8
0
  6
Continuous
100
AcDbLine
 10
654.4209608938987
 20
-997.6273879999997
 30
0.0
 11
654.4209608938987
 21
-970.6273879999999
 31
0.0
  0
ARC
  5
6C7
330
6B
100
AcDbEntity
  8
0
  6
Continuous
100
AcDbCircle
 10
655.9209608938986
 20
-970.6273879999999
 30
0.0
 40
1.500000000000154
100
AcDbArc
 50
0.0
 51
180.0
  0
ARC
  5
6C8
330
6B
100
AcDbEntity
  8
0
  6
Continuous
100
AcDbCircle
 10
655.9209608938987
 20
-997.6273879999997
 30
0.0
 40
1.5
100
AcDbArc
 50
180.0
 51
0.0
  0
LINE
  5
6C9
330
6B
100
AcDbEntity
  8
0
  6
Continuous
100
AcDbLine
 10
651.4209608938987
 20
-997.6273879999997
 30
0.0
 11
651.420960893899
 21
-970.6273879999999
 31
0.0
  0
LINE
  5
6CA
330
6B
100
AcDbEntity
  8
0
  6
Continuous
100
AcDbLine
 10
648.4209608938987
 20
-997.6273879999997
 30
0.0
 11
648.4209608938987
 21
-970.6273879999999
 31
0.0
  0
ARC
  5
6CB
330
6B
100
AcDbEntity
  8
0
  6
Continuous
100
AcDbCircle
 10
649.9209608938985
 20
-970.6273879999999
 30
0.0
 40
1.500000000000154
100
AcDbArc
 50
0.0
 51
180.0
  0
ARC
  5
6CC
330
6B
100
AcDbEntity
  8
0
  6
Continuous
100
AcDbCircle
 10
649.9209608938987
 20
-997.6273879999997
 30
0.0
 40
1.5
100
AcDbArc
 50
180.0
 51
0.0
  0
LINE
  5
6CD
330
6B
100
AcDbEntity
  8
0
  6
Continuous
100
AcDbLine
 10
645.4209608938987
 20
-997.6273879999997
 30
0.0
 11
645.4209608938987
 21
-970.6273879999999
 31
0.0
  0
LINE
  5
6CE
330
6B
100
AcDbEntity
  8
0
  6
Continuous
100
AcDbLine
 10
642.4209608938987
 20
-997.6273879999997
 30
0.0
 11
642.4209608938987
 21
-970.6273879999999
 31
0.0
  0
ARC
  5
6CF
330
6B
100
AcDbEntity
  8
0
  6
Continuous
100
AcDbCircle
 10
643.9209608938986
 20
-970.6273879999999
 30
0.0
 40
1.500000000000154
100
AcDbArc
 50
0.0
 51
180.0
  0
ARC
  5
6D0
330
6B
100
AcDbEntity
  8
0
  6
Continuous
100
AcDbCircle
 10
643.9209608938987
 20
-997.6273879999997
 30
0.0
 40
1.5
100
AcDbArc
 50
180.0
 51
0.0
  0
LINE
  5
6D1
330
6B
100
AcDbEntity
  8
0
  6
Continuous
100
AcDbLine
 10
639.4209608938987
 20
-997.6273879999997
 30
0.0
 11
639.4209608938987
 21
-970.6273879999999
 31
0.0
  0
LINE
  5
6D2
330
6B
100
AcDbEntity
  8
0
  6
Continuous
100
AcDbLine
 10
636.4209608938987
 20
-997.6273879999997
 30
0.0
 11
636.4209608938987
 21
-970.6273879999999
 31
0.0
  0
ARC
  5
6D3
330
6B
100
AcDbEntity
  8
0
  6
Continuous
100
AcDbCircle
 10
637.9209608938984
 20
-970.6273879999999
 30
0.0
 40
1.500000000000154
100
AcDbArc
 50
0.0
 51
180.0
  0
ARC
  5
6D4
330
6B
100
AcDbEntity
  8
0
  6
Continuous
100
AcDbCircle
 10
637.9209608938987
 20
-997.6273879999997
 30
0.0
 40
1.5
100
AcDbArc
 50
180.0
 51
0.0
  0
LINE
  5
6D5
330
6B
100
AcDbEntity
  8
0
  6
Continuous
100
AcDbLine
 10
633.4209608938987
 20
-997.6273879999997
 30
0.0
 11
633.4209608938992
 21
-970.6273879999999
 31
0.0
  0
LINE
  5
6D6
330
6B
100
AcDbEntity
  8
0
  6
Continuous
100
AcDbLine
 10
630.4209608938987
 20
-997.6273879999997
 30
0.0
 11
630.4209608938987
 21
-970.6273879999999
 31
0.0
  0
ARC
  5
6D7
330
6B
100
AcDbEntity
  8
0
  6
Continuous
100
AcDbCircle
 10
631.9209608938986
 20
-970.6273879999999
 30
0.0
 40
1.500000000000154
100
AcDbArc
 50
0.0
 51
180.0
  0
ARC
  5
6D8
330
6B
100
AcDbEntity
  8
0
  6
Continuous
100
AcDbCircle
 10
631.9209608938987
 20
-997.6273879999997
 30
0.0
 40
1.5
100
AcDbArc
 50
180.0
 51
0.0
  0
LINE
  5
6D9
330
6B
100
AcDbEntity
  8
0
  6
Continuous
100
AcDbLine
 10
627.4209608938987
 20
-997.6273879999997
 30
0.0
 11
627.4209608938987
 21
-970.6273879999999
 31
0.0
  0
LINE
  5
6DA
330
6B
100
AcDbEntity
  8
0
  6
Continuous
100
AcDbLine
 10
624.4209608938987
 20
-997.6273879999997
 30
0.0
 11
624.4209608938987
 21
-970.6273879999999
 31
0.0
  0
ARC
  5
6DB
330
6B
100
AcDbEntity
  8
0
  6
Continuous
100
AcDbCircle
 10
625.9209608938986
 20
-970.6273879999999
 30
0.0
 40
1.500000000000154
100
AcDbArc
 50
0.0
 51
180.0
  0
ARC
  5
6DC
330
6B
100
AcDbEntity
  8
0
  6
Continuous
100
AcDbCircle
 10
625.9209608938987
 20
-997.6273879999997
 30
0.0
 40
1.5
100
AcDbArc
 50
180.0
 51
0.0
  0
LINE
  5
6DD
330
6B
100
AcDbEntity
  8
0
  6
Continuous
100
AcDbLine
 10
621.4209608938987
 20
-997.6273879999997
 30
0.0
 11
621.4209608938991
 21
-970.6273879999999
 31
0.0
  0
LINE
  5
6DE
330
6B
100
AcDbEntity
  8
0
  6
Continuous
100
AcDbLine
 10
618.4209608938987
 20
-997.6273879999997
 30
0.0
 11
618.4209608938987
 21
-970.6273879999999
 31
0.0
  0
ARC
  5
6DF
330
6B
100
AcDbEntity
  8
0
  6
Continuous
100
AcDbCircle
 10
619.9209608938986
 20
-970.6273879999999
 30
0.0
 40
1.500000000000154
100
AcDbArc
 50
0.0
 51
180.0
  0
ARC
  5
6E0
330
6B
100
AcDbEntity
  8
0
  6
Continuous
100
AcDbCircle
 10
619.9209608938986
 20
-997.6273879999997
 30
0.0
 40
1.5
100
AcDbArc
 50
180.0
 51
0.0
  0
LINE
  5
6E1
330
6B
100
AcDbEntity
  8
0
  6
Continuous
100
AcDbLine
 10
615.4209608938987
 20
-997.6273879999997
 30
0.0
 11
615.4209608938987
 21
-970.6273879999999
 31
0.0
  0
LINE
  5
6E2
330
6B
100
AcDbEntity
  8
0
  6
Continuous
100
AcDbLine
 10
612.4209608938987
 20
-997.6273879999997
 30
0.0
 11
612.4209608938987
 21
-970.6273879999999
 31
0.0
  0
ARC
  5
6E3
330
6B
100
AcDbEntity
  8
0
  6
Continuous
100
AcDbCircle
 10
613.9209608938986
 20
-970.6273879999999
 30
0.0
 40
1.500000000000154
100
AcDbArc
 50
0.0
 51
180.0
  0
ARC
  5
6E4
330
6B
100
AcDbEntity
  8
0
  6
Continuous
100
AcDbCircle
 10
613.9209608938987
 20
-997.6273879999997
 30
0.0
 40
1.5
100
AcDbArc
 50
180.0
 51
0.0
  0
LINE
  5
6E5
330
6B
100
AcDbEntity
  8
0
  6
Continuous
100
AcDbLine
 10
609.4209608938987
 20
-997.6273879999997
 30
0.0
 11
609.4209608938987
 21
-970.6273879999999
 31
0.0
  0
LINE
  5
6E6
330
6B
100
AcDbEntity
  8
0
  6
Continuous
100
AcDbLine
 10
606.4209608938987
 20
-997.6273879999997
 30
0.0
 11
606.4209608938987
 21
-970.6273879999999
 31
0.0
  0
ARC
  5
6E7
330
6B
100
AcDbEntity
  8
0
  6
Continuous
100
AcDbCircle
 10
607.9209608938985
 20
-970.6273879999999
 30
0.0
 40
1.500000000000154
100
AcDbArc
 50
0.0
 51
180.0
  0
ARC
  5
6E8
330
6B
100
AcDbEntity
  8
0
  6
Continuous
100
AcDbCircle
 10
607.9209608938987
 20
-997.6273879999997
 30
0.0
 40
1.5
100
AcDbArc
 50
180.0
 51
0.0
  0
LINE
  5
6E9
330
6B
100
AcDbEntity
  8
0
  6
Continuous
100
AcDbLine
 10
603.4209608938986
 20
-997.6273879999997
 30
0.0
 11
603.4209608938986
 21
-970.6273879999999
 31
0.0
  0
LINE
  5
6EA
330
6B
100
AcDbEntity
  8
0
  6
Continuous
100
AcDbLine
 10
600.4209608938987
 20
-997.6273879999997
 30
0.0
 11
600.4209608938987
 21
-970.6273879999999
 31
0.0
  0
ARC
  5
6EB
330
6B
100
AcDbEntity
  8
0
  6
Continuous
100
AcDbCircle
 10
601.9209608938986
 20
-970.6273879999999
 30
0.0
 40
1.500000000000154
100
AcDbArc
 50
0.0
 51
180.0
  0
ARC
  5
6EC
330
6B
100
AcDbEntity
  8
0
  6
Continuous
100
AcDbCircle
 10
601.9209608938987
 20
-997.6273879999997
 30
0.0
 40
1.5
100
AcDbArc
 50
180.0
 51
0.0
  0
TEXT
  5
6EF
330
6B
100
AcDbEntity
  8
0
  6
Continuous
 62
     4
100
AcDbText
 10
451.3442750373008
 20
-990.8564378592958
 30
0.0
 40
4.5
  1
M-10S 1KVA
  7
高4.5
100
AcDbText
  0
TEXT
  5
6F0
330
6B
100
AcDbEntity
  8
0
  6
Continuous
100
AcDbText
 10
455.1850638470056
 20
-995.1440152935775
 30
0.0
 40
2.5
  1
MAX.10A (1000W)
  7
高2.5
100
AcDbText
  0
TEXT
  5
6F1
330
6B
100
AcDbEntity
  8
0
  6
Continuous
100
AcDbText
 10
449.5958964633435
 20
-984.7116910149292
 30
0.0
 40
2.5
  1
STEPUP TRANSFORMER
  7
高2.5
100
AcDbText
  0
LINE
  5
6F6
330
6B
100
AcDbEntity
  8
0
  6
Continuous
100
AcDbLine
 10
493.7642557730071
 20
-980.627388
 30
0.0
 11
448.7642557730071
 21
-980.627388
 31
0.0
  0
LINE
  5
6F7
330
6B
100
AcDbEntity
  8
0
  6
Continuous
100
AcDbLine
 10
493.7642557730071
 20
-996.6273880000001
 30
0.0
 11
448.7642557730071
 21
-996.6273880000001
 31
0.0
  0
LINE
  5
6F8
330
6B
100
AcDbEntity
  8
0
  6
Continuous
 62
     3
100
AcDbLine
 10
721.9209608938989
 20
-1041.127388
 30
0.0
 11
726.9209608938989
 21
-1041.127388
 31
0.0
  0
LINE
  5
6F9
330
6B
100
AcDbEntity
  8
0
  6
Continuous
 62
     3
100
AcDbLine
 10
726.9209608938989
 20
-1041.127388
 30
0.0
 11
726.9209608938989
 21
-1027.127388
 31
0.0
  0
LINE
  5
6FA
330
6B
100
AcDbEntity
  8
0
  6
Continuous
 62
     3
100
AcDbLine
 10
721.9209608938989
 20
-1027.127388
 30
0.0
 11
726.9209608938989
 21
-1027.127388
 31
0.0
  0
LINE
  5
6FC
330
6B
100
AcDbEntity
  8
0
  6
Continuous
 62
     3
100
AcDbLine
 10
749.9261444290557
 20
-1032.527388
 30
0.0
 11
739.6470520138048
 21
-1032.527388
 31
0.0
  0
LINE
  5
6FD
330
6B
100
AcDbEntity
  8
0
  6
Continuous
 62
     3
100
AcDbLine
 10
746.7261444290556
 20
-1035.727387999999
 30
0.0
 11
740.7753213801911
 21
-1035.727387999999
 31
0.0
  0
LINE
  5
6FE
330
6B
100
AcDbEntity
  8
0
  6
Continuous
 62
     3
100
AcDbLine
 10
766.7261444290558
 20
-1052.527388
 30
0.0
 11
766.7261444290558
 21
-1055.357225694314
 31
0.0
  0
LINE
  5
700
330
6B
100
AcDbEntity
  8
0
  6
Continuous
 62
     3
100
AcDbLine
 10
763.5261444290561
 20
-1052.527388
 30
0.0
 11
763.5261444290561
 21
-1055.357225694314
 31
0.0
  0
LINE
  5
701
330
6B
100
AcDbEntity
  8
0
  6
Continuous
 62
     3
100
AcDbLine
 10
769.9261444290557
 20
-1052.527388
 30
0.0
 11
769.9261444290557
 21
-1055.357225694314
 31
0.0
  0
ARC
  5
702
330
6B
100
AcDbEntity
  8
0
  6
Continuous
 62
     3
100
AcDbCircle
 10
746.7261444290559
 20
-1052.527388
 30
0.0
 40
20.0
100
AcDbArc
 50
359.9999999999994
 51
90.0
  0
ARC
  5
704
330
6B
100
AcDbEntity
  8
0
  6
Continuous
 62
     3
100
AcDbCircle
 10
746.7261444290559
 20
-1052.527388
 30
0.0
 40
16.8
100
AcDbArc
 50
359.9999999999994
 51
90.0
  0
ARC
  5
705
330
6B
100
AcDbEntity
  8
0
  6
Continuous
 62
     3
100
AcDbCircle
 10
749.9261444290562
 20
-1052.527387999999
 30
0.0
 40
20.0
100
AcDbArc
 50
359.9999999999986
 51
90.0
  0
ARC
  5
706
330
6B
100
AcDbEntity
  8
0
  6
Continuous
100
AcDbCircle
 10
741.8677430048887
 20
-1032.519948445252
 30
0.0
 40
2.220703452705162
100
AcDbArc
 50
134.6009029003726
 51
226.5031970700368
  0
ARC
  5
707
330
6B
100
AcDbEntity
  8
0
  6
Continuous
100
AcDbCircle
 10
738.3660066193199
 20
-1035.527717246985
 30
0.0
 40
2.417574409725865
100
AcDbArc
 50
321.9754828047777
 51
35.29501511653422
  0
ARC
  5
708
330
6B
100
AcDbEntity
  8
0
  6
Continuous
100
AcDbCircle
 10
739.404420895004
 20
-1032.519948445252
 30
0.0
 40
2.220703452705162
100
AcDbArc
 50
134.6009029003726
 51
226.5031970700368
  0
ARC
  5
709
330
6B
100
AcDbEntity
  8
0
  6
Continuous
100
AcDbCircle
 10
735.9026845094351
 20
-1035.527717246985
 30
0.0
 40
2.417574409725865
100
AcDbArc
 50
321.9754828047777
 51
35.29501511653422
  0
LINE
  5
70A
330
6B
100
AcDbEntity
  8
0
  6
Continuous
 62
     3
100
AcDbLine
 10
737.18372990392
 20
-1032.527388
 30
0.0
 11
726.9209608938989
 21
-1032.527388
 31
0.0
  0
LINE
  5
70B
330
6B
100
AcDbEntity
  8
0
  6
Continuous
 62
     3
100
AcDbLine
 10
738.3119992703064
 20
-1035.727387999999
 30
0.0
 11
726.9209608938989
 21
-1035.727387999999
 31
0.0
  0
LINE
  5
70C
330
6B
100
AcDbEntity
  8
0
  6
Continuous
 62
     3
100
AcDbLine
 10
761.7261444290558
 20
-1055.357225694314
 30
0.0
 11
771.7261444290556
 21
-1055.357225694314
 31
0.0
  0
LINE
  5
70D
330
6B
100
AcDbEntity
  8
0
  6
Continuous
 62
     3
100
AcDbLine
 10
756.9761444290556
 20
-1071.357225694314
 30
0.0
 11
776.4761444290558
 21
-1071.357225694314
 31
0.0
  0
LINE
  5
70E
330
6B
100
AcDbEntity
  8
0
  6
Continuous
 62
     3
100
AcDbLine
 10
756.7261444290558
 20
-1097.857225694314
 30
0.0
 11
776.7261444290554
 21
-1097.857225694314
 31
0.0
  0
LINE
  5
70F
330
6B
100
AcDbEntity
  8
0
  6
Continuous
100
AcDbLine
 10
773.8261444290555
 20
-1114.857225694314
 30
0.0
 11
772.3261444290556
 21
-1114.857225694314
 31
0.0
  0
LINE
  5
714
330
6B
100
AcDbEntity
  8
0
  6
Continuous
 62
     3
100
AcDbLine
 10
761.2261444290558
 20
-1071.357225694314
 30
0.0
 11
761.7261444290558
 21
-1055.357225694314
 31
0.0
  0
LINE
  5
716
330
6B
100
AcDbEntity
  8
0
  6
Continuous
 62
     3
100
AcDbLine
 10
771.7261444290556
 20
-1055.357225694314
 30
0.0
 11
772.2261444290555
 21
-1071.357225694314
 31
0.0
  0
LINE
  5
717
330
6B
100
AcDbEntity
  8
0
  6
Continuous
100
AcDbLine
 10
761.6730194290558
 20
-1057.057225694314
 30
0.0
 11
771.7792694290555
 21
-1057.057225694314
 31
0.0
  0
LINE
  5
718
330
6B
100
AcDbEntity
  8
0
  6
Continuous
100
AcDbLine
 10
761.6198944290556
 20
-1058.757225694314
 30
0.0
 11
771.8323944290557
 21
-1058.757225694314
 31
0.0
  0
LINE
  5
719
330
6B
100
AcDbEntity
  8
0
  6
Continuous
100
AcDbLine
 10
761.5667694290557
 20
-1060.457225694314
 30
0.0
 11
771.8855194290556
 21
-1060.457225694314
 31
0.0
  0
LINE
  5
71A
330
6B
100
AcDbEntity
  8
0
  6
Continuous
100
AcDbLine
 10
761.5136444290556
 20
-1062.157225694314
 30
0.0
 11
771.9386444290558
 21
-1062.157225694314
 31
0.0
  0
LINE
  5
71B
330
6B
100
AcDbEntity
  8
0
  6
Continuous
100
AcDbLine
 10
761.4605194290557
 20
-1063.857225694314
 30
0.0
 11
771.9917694290558
 21
-1063.857225694314
 31
0.0
  0
LINE
  5
71C
330
6B
100
AcDbEntity
  8
0
  6
Continuous
100
AcDbLine
 10
761.4073944290558
 20
-1065.557225694314
 30
0.0
 11
772.0448944290556
 21
-1065.557225694314
 31
0.0
  0
LINE
  5
71D
330
6B
100
AcDbEntity
  8
0
  6
Continuous
100
AcDbLine
 10
761.3542694290556
 20
-1067.257225694314
 30
0.0
 11
772.0980194290557
 21
-1067.257225694314
 31
0.0
  0
LINE
  5
71E
330
6B
100
AcDbEntity
  8
0
  6
Continuous
100
AcDbLine
 10
761.3011444290557
 20
-1068.957225694314
 30
0.0
 11
772.1511444290556
 21
-1068.957225694314
 31
0.0
  0
LINE
  5
71F
330
6B
100
AcDbEntity
  8
0
  6
Continuous
100
AcDbLine
 10
767.4761444290558
 20
-1057.057225694314
 30
0.0
 11
767.4761444290558
 21
-1058.757225694314
 31
0.0
  0
LINE
  5
720
330
6B
100
AcDbEntity
  8
0
  6
Continuous
100
AcDbLine
 10
765.9761444290555
 20
-1057.057225694314
 30
0.0
 11
765.9761444290555
 21
-1058.757225694314
 31
0.0
  0
LINE
  5
721
330
6B
100
AcDbEntity
  8
0
  6
Continuous
100
AcDbLine
 10
767.4761444290558
 20
-1060.457225694314
 30
0.0
 11
767.4761444290558
 21
-1062.157225694314
 31
0.0
  0
LINE
  5
722
330
6B
100
AcDbEntity
  8
0
  6
Continuous
100
AcDbLine
 10
765.9761444290555
 20
-1060.457225694314
 30
0.0
 11
765.9761444290555
 21
-1062.157225694314
 31
0.0
  0
LINE
  5
723
330
6B
100
AcDbEntity
  8
0
  6
Continuous
100
AcDbLine
 10
765.9761444290555
 20
-1063.857225694314
 30
0.0
 11
765.9761444290555
 21
-1065.557225694314
 31
0.0
  0
LINE
  5
724
330
6B
100
AcDbEntity
  8
0
  6
Continuous
100
AcDbLine
 10
767.4761444290558
 20
-1063.857225694314
 30
0.0
 11
767.4761444290558
 21
-1065.557225694314
 31
0.0
  0
LINE
  5
725
330
6B
100
AcDbEntity
  8
0
  6
Continuous
100
AcDbLine
 10
765.9761444290555
 20
-1067.257225694314
 30
0.0
 11
765.9761444290555
 21
-1068.957225694314
 31
0.0
  0
LINE
  5
726
330
6B
100
AcDbEntity
  8
0
  6
Continuous
100
AcDbLine
 10
767.4761444290558
 20
-1067.257225694314
 30
0.0
 11
767.4761444290558
 21
-1068.957225694314
 31
0.0
  0
LINE
  5
727
330
6B
100
AcDbEntity
  8
0
  6
Continuous
100
AcDbLine
 10
769.9261444290557
 20
-1057.057225694314
 30
0.0
 11
769.9261444290557
 21
-1058.757225694314
 31
0.0
  0
LINE
  5
728
330
6B
100
AcDbEntity
  8
0
  6
Continuous
100
AcDbLine
 10
763.5261444290561
 20
-1057.057225694314
 30
0.0
 11
763.5261444290561
 21
-1058.757225694314
 31
0.0
  0
LINE
  5
729
330
6B
100
AcDbEntity
  8
0
  6
Continuous
100
AcDbLine
 10
763.5261444290561
 20
-1060.457225694314
 30
0.0
 11
763.5261444290561
 21
-1062.157225694314
 31
0.0
  0
LINE
  5
72A
330
6B
100
AcDbEntity
  8
0
  6
Continuous
100
AcDbLine
 10
769.9261444290557
 20
-1060.457225694314
 30
0.0
 11
769.9261444290557
 21
-1062.157225694314
 31
0.0
  0
LINE
  5
72B
330
6B
100
AcDbEntity
  8
0
  6
Continuous
100
AcDbLine
 10
769.9261444290557
 20
-1063.857225694314
 30
0.0
 11
769.9261444290557
 21
-1065.557225694314
 31
0.0
  0
LINE
  5
72C
330
6B
100
AcDbEntity
  8
0
  6
Continuous
100
AcDbLine
 10
763.5261444290561
 20
-1063.857225694314
 30
0.0
 11
763.5261444290561
 21
-1065.557225694314
 31
0.0
  0
LINE
  5
72D
330
6B
100
AcDbEntity
  8
0
  6
Continuous
100
AcDbLine
 10
763.5261444290561
 20
-1067.257225694314
 30
0.0
 11
763.5261444290561
 21
-1068.957225694314
 31
0.0
  0
LINE
  5
72E
330
6B
100
AcDbEntity
  8
0
  6
Continuous
100
AcDbLine
 10
769.9261444290557
 20
-1067.257225694314
 30
0.0
 11
769.9261444290557
 21
-1068.957225694314
 31
0.0
  0
LINE
  5
733
330
6B
100
AcDbEntity
  8
0
  6
Continuous
 62
     3
100
AcDbLine
 10
758.2261444290558
 20
-1071.357225694314
 30
0.0
 11
756.7261444290558
 21
-1097.857225694314
 31
0.0
  0
LINE
  5
735
330
6B
100
AcDbEntity
  8
0
  6
Continuous
 62
     3
100
AcDbLine
 10
776.7261444290554
 20
-1097.857225694314
 30
0.0
 11
775.2261444290557
 21
-1071.357225694314
 31
0.0
  0
LINE
  5
736
330
6B
100
AcDbEntity
  8
0
  6
Continuous
 62
     3
100
AcDbLine
 10
776.4761444290558
 20
-1071.357225694314
 30
0.0
 11
776.4761444290558
 21
-1081.357225694314
 31
0.0
  0
LINE
  5
737
330
6B
100
AcDbEntity
  8
0
  6
Continuous
 62
     3
100
AcDbLine
 10
756.9761444290556
 20
-1071.357225694314
 30
0.0
 11
756.9761444290556
 21
-1081.357225694314
 31
0.0
  0
LINE
  5
738
330
6B
100
AcDbEntity
  8
0
  6
Continuous
 62
     3
100
AcDbLine
 10
757.6601066932068
 20
-1081.357225694314
 30
0.0
 11
756.9761444290556
 21
-1081.357225694314
 31
0.0
  0
LINE
  5
739
330
6B
100
AcDbEntity
  8
0
  6
Continuous
 62
     3
100
AcDbLine
 10
775.7921821649048
 20
-1081.357225694314
 30
0.0
 11
776.4761444290558
 21
-1081.357225694314
 31
0.0
  0
LINE
  5
73D
330
6B
100
AcDbEntity
  8
0
  6
Continuous
100
AcDbLine
 10
760.2261444290554
 20
-1090.857225694314
 30
0.0
 11
773.2261444290558
 21
-1090.857225694314
 31
0.0
  0
LINE
  5
740
330
6B
100
AcDbEntity
  8
0
  6
Continuous
100
AcDbLine
 10
760.2261444290554
 20
-1090.857225694314
 30
0.0
 11
761.2261444290558
 21
-1072.857225694314
 31
0.0
  0
LINE
  5
741
330
6B
100
AcDbEntity
  8
0
  6
Continuous
100
AcDbLine
 10
761.2261444290558
 20
-1072.857225694314
 30
0.0
 11
772.2261444290555
 21
-1072.857225694314
 31
0.0
  0
LINE
  5
742
330
6B
100
AcDbEntity
  8
0
  6
Continuous
100
AcDbLine
 10
772.2261444290555
 20
-1072.857225694314
 30
0.0
 11
773.2261444290558
 21
-1090.857225694314
 31
0.0
  0
LINE
  5
745
330
6B
100
AcDbEntity
  8
0
  6
Continuous
100
AcDbLine
 10
773.8261444290555
 20
-1097.857225694314
 30
0.0
 11
773.8261444290555
 21
-1114.857225694314
 31
0.0
  0
LINE
  5
746
330
6B
100
AcDbEntity
  8
0
  6
Continuous
100
AcDbLine
 10
772.3261444290556
 20
-1097.857225694314
 30
0.0
 11
772.3261444290556
 21
-1114.857225694314
 31
0.0
  0
LINE
  5
747
330
6B
100
AcDbEntity
  8
0
  6
Continuous
100
AcDbLine
 10
761.1261444290557
 20
-1097.857225694314
 30
0.0
 11
761.1261444290557
 21
-1114.857225694314
 31
0.0
  0
LINE
  5
748
330
6B
100
AcDbEntity
  8
0
  6
Continuous
100
AcDbLine
 10
759.6261444290558
 20
-1097.857225694314
 30
0.0
 11
759.6261444290558
 21
-1114.857225694314
 31
0.0
  0
LINE
  5
749
330
6B
100
AcDbEntity
  8
0
  6
Continuous
100
AcDbLine
 10
761.1261444290557
 20
-1114.857225694314
 30
0.0
 11
759.6261444290558
 21
-1114.857225694314
 31
0.0
  0
CIRCLE
  5
74E
330
6B
100
AcDbEntity
  8
0
100
AcDbCircle
 10
444.2087302379015
 20
-931.9038199999999
 30
0.0
 40
5.0
  0
TEXT
  5
74F
330
6B
100
AcDbEntity
  8
0
 62
     4
100
AcDbText
 10
443.1405250216307
 20
-934.9485712165835
 30
0.0
 40
6.299999999999998
  1
1
  7
高6.3
100
AcDbText
  0
CIRCLE
  5
7B3
330
6B
100
AcDbEntity
  8
0
100
AcDbCircle
 10
732.8233594707172
 20
-970.2983656891666
 30
0.0
 40
5.0
  0
TEXT
  5
7B4
330
6B
100
AcDbEntity
  8
0
 62
     4
100
AcDbText
 10
730.7527880453819
 20
-973.7892756891666
 30
0.0
 40
6.299999999999998
  1
2
  7
高6.3
100
AcDbText
  0
CIRCLE
  5
7B6
330
6B
100
AcDbEntity
  8
0
100
AcDbCircle
 10
733.4031436192613
 20
-1008.219389347172
 30
0.0
 40
5.0
  0
TEXT
  5
7B7
330
6B
100
AcDbEntity
  8
0
 62
     4
100
AcDbText
 10
731.3325721939259
 20
-1011.710298347172
 30
0.0
 40
6.299999999999998
  1
3
  7
高6.3
100
AcDbText
  0
CIRCLE
  5
7B9
330
6B
100
AcDbEntity
  8
0
100
AcDbCircle
 10
403.8325554603126
 20
-1012.659361265018
 30
0.0
 40
5.0
  0
TEXT
  5
7BA
330
6B
100
AcDbEntity
  8
0
 62
     4
100
AcDbText
 10
401.7619840349773
 20
-1016.150270265018
 30
0.0
 40
6.299999999999998
  1
4
  7
高6.3
100
AcDbText
  0
CIRCLE
  5
7BF
330
6B
100
AcDbEntity
  8
0
100
AcDbCircle
 10
503.5464597365113
 20
-936.8795200279558
 30
0.0
 40
5.0
  0
TEXT
  5
7C0
330
6B
100
AcDbEntity
  8
0
 62
     4
100
AcDbText
 10
501.475888311176
 20
-940.3704290279558
 30
0.0
 40
6.299999999999998
  1
5
  7
高6.3
100
AcDbText
  0
CIRCLE
  5
7C2
330
6B
100
AcDbEntity
  8
0
100
AcDbCircle
 10
427.9353475309033
 20
-931.81293493944
 30
0.0
 40
5.0
  0
TEXT
  5
7C3
330
6B
100
AcDbEntity
  8
0
 62
     4
100
AcDbText
 10
425.864776105568
 20
-935.3038439394399
 30
0.0
 40
6.299999999999998
  1
6
  7
高6.3
100
AcDbText
  0
LINE
  5
DAB
330
6B
100
AcDbEntity
  8
0
  6
Continuous
100
AcDbLine
 10
478.2642557730071
 20
-947.6066620578363
 30
0.0
 11
544.4307889860205
 21
-947.6066620578363
 31
0.0
  0
LINE
  5
DAC
330
6B
100
AcDbEntity
  8
0
  6
Continuous
100
AcDbLine
 10
506.0142557730069
 20
-1052.627388
 30
0.0
 11
544.4307889860205
 21
-1052.627388
 31
0.0
  0
LINE
  5
DAD
330
6B
100
AcDbEntity
  8
0
  6
Continuous
100
AcDbLine
 10
543.1807889860205
 20
-950.1066620578363
 30
0.0
 11
543.1807889860205
 21
-1050.127388
 31
0.0
  0
LINE
  5
DBD
330
6B
100
AcDbEntity
  8
0
  6
Continuous
100
AcDbLine
 10
561.9209608938988
 20
-1034.377388
 30
0.0
 11
561.9209608938988
 21
-1065.622122396889
 31
0.0
  0
LINE
  5
DBE
330
6B
100
AcDbEntity
  8
0
  6
Continuous
100
AcDbLine
 10
721.9209608938989
 20
-1049.377388
 30
0.0
 11
721.9209608938989
 21
-1065.622122396889
 31
0.0
  0
LINE
  5
DBF
330
6B
100
AcDbEntity
  8
0
  6
Continuous
100
AcDbLine
 10
564.4209608938988
 20
-1064.372122396889
 30
0.0
 11
719.4209608938989
 21
-1064.372122396889
 31
0.0
  0
LINE
  5
DC3
330
6B
100
AcDbEntity
  8
0
  6
Continuous
100
AcDbLine
 10
528.764255773007
 20
-1049.377388
 30
0.0
 11
528.764255773007
 21
-1065.493471711775
 31
0.0
  0
LINE
  5
DC4
330
6B
100
AcDbEntity
  8
0
  6
Continuous
100
AcDbLine
 10
413.7642557730071
 20
-1049.377388
 30
0.0
 11
413.7642557730071
 21
-1065.493471711775
 31
0.0
  0
LINE
  5
DC5
330
6B
100
AcDbEntity
  8
0
  6
Continuous
100
AcDbLine
 10
526.2642557730069
 20
-1064.243471711775
 30
0.0
 11
416.264255773007
 21
-1064.243471711775
 31
0.0
  0
LINE
  5
DC9
330
6B
100
AcDbEntity
  8
0
  6
Continuous
100
AcDbLine
 10
529.014255773007
 20
-1049.127388
 30
0.0
 11
537.4554653977095
 21
-1049.127388
 31
0.0
  0
LINE
  5
DCA
330
6B
100
AcDbEntity
  8
0
  6
Continuous
100
AcDbLine
 10
522.0142557730071
 20
-954.6273879999999
 30
0.0
 11
537.4554653977095
 21
-954.6273879999999
 31
0.0
  0
LINE
  5
DCB
330
6B
100
AcDbEntity
  8
0
  6
Continuous
100
AcDbLine
 10
536.2054653977095
 20
-1046.627388
 30
0.0
 11
536.2054653977095
 21
-957.1273879999999
 31
0.0
  0
LINE
  5
DCF
330
6B
100
AcDbEntity
  8
0
  6
Continuous
100
AcDbLine
 10
529.014255773007
 20
-1049.127388
 30
0.0
 11
537.4554653977095
 21
-1049.127388
 31
0.0
  0
LINE
  5
DD0
330
6B
100
AcDbEntity
  8
0
  6
Continuous
100
AcDbLine
 10
529.014255773007
 20
-1052.627388
 30
0.0
 11
537.4554653977095
 21
-1052.627388
 31
0.0
  0
LINE
  5
DD1
330
6B
100
AcDbEntity
  8
0
  6
Continuous
100
AcDbLine
 10
536.2054653977095
 20
-1046.627388
 30
0.0
 11
536.2054653977095
 21
-1044.127388
 31
0.0
  0
LINE
  5
DD2
330
6B
100
AcDbEntity
  8
0
  6
Continuous
100
AcDbLine
 10
536.2054653977095
 20
-1055.127388
 30
0.0
 11
536.2054653977095
 21
-1064.877388
 31
0.0
  0
LINE
  5
DD3
330
6B
100
AcDbEntity
  8
0
  6
Continuous
100
AcDbLine
 10
536.2054653977095
 20
-1049.127388
 30
0.0
 11
536.2054653977095
 21
-1052.627388
 31
0.0
  0
LINE
  5
DD7
330
6B
100
AcDbEntity
  8
0
  6
Continuous
100
AcDbLine
 10
477.264255773007
 20
-927.6273879999999
 30
0.0
 11
552.5213281127505
 21
-927.6273879999999
 31
0.0
  0
LINE
  5
DD8
330
6B
100
AcDbEntity
  8
0
  6
Continuous
100
AcDbLine
 10
506.0142557730072
 20
-1052.627388
 30
0.0
 11
552.5213281127505
 21
-1052.627388
 31
0.0
  0
LINE
  5
DD9
330
6B
100
AcDbEntity
  8
0
  6
Continuous
100
AcDbLine
 10
551.2713281127505
 20
-930.127388
 30
0.0
 11
551.2713281127505
 21
-1050.127388
 31
0.0
  0
TEXT
  5
DDD
330
6B
100
AcDbEntity
  8
0
  6
Continuous
 62
     4
100
AcDbText
 10
542.5557889860206
 20
-1003.78922357597
 30
0.0
 40
3.0
  1
105
 50
90.0
100
AcDbText
  0
LINE
  5
DDE
330
6B
100
AcDbEntity
  8
0
  6
ByBlock
 62
     0
370
    -2
100
AcDbLine
 10
543.8506614860204
 20
-1050.127388
 30
0.0
 11
543.1807889860205
 21
-1052.627388
 31
0.0
  0
LINE
  5
DDF
330
6B
100
AcDbEntity
  8
0
  6
ByBlock
 62
     0
370
    -2
100
AcDbLine
 10
543.1807889860205
 20
-1052.627388
 30
0.0
 11
542.5109164860205
 21
-1050.127388
 31
0.0
  0
LINE
  5
DE0
330
6B
100
AcDbEntity
  8
0
  6
ByBlock
 62
     0
370
    -2
100
AcDbLine
 10
543.1807889860205
 20
-1052.627388
 30
0.0
 11
543.1807889860205
 21
-1050.127388
 31
0.0
  0
LINE
  5
DE1
330
6B
100
AcDbEntity
  8
0
  6
ByBlock
 62
     0
370
    -2
100
AcDbLine
 10
542.5109164860205
 20
-950.1066620578363
 30
0.0
 11
543.1807889860205
 21
-947.6066620578363
 31
0.0
  0
LINE
  5
DE2
330
6B
100
AcDbEntity
  8
0
  6
ByBlock
 62
     0
370
    -2
100
AcDbLine
 10
543.1807889860205
 20
-947.6066620578363
 30
0.0
 11
543.8506614860204
 21
-950.1066620578363
 31
0.0
  0
LINE
  5
DE3
330
6B
100
AcDbEntity
  8
0
  6
ByBlock
 62
     0
370
    -2
100
AcDbLine
 10
543.1807889860205
 20
-947.6066620578363
 30
0.0
 11
543.1807889860205
 21
-950.1066620578363
 31
0.0
  0
LINE
  5
DE4
330
6B
100
AcDbEntity
  8
0
  6
Continuous
100
AcDbLine
 10
427.2682522158193
 20
-1013.986086044926
 30
0.0
 11
408.8245625746877
 21
-1012.941965175165
 31
0.0
1001
ACAD
1000
DSTYLE
1002
{
1070
   147
1040
0.625
1070
    77
1070
     0
1002
}
  0
LINE
  5
DE5
330
6B
100
AcDbEntity
  8
0
  6
ByBlock
 62
     0
370
    -2
100
AcDbLine
 10
427.3061139333793
 20
-1013.317284387782
 30
0.0
 11
429.7642557730068
 21
-1014.127388
 31
0.0
  0
LINE
  5
DE6
330
6B
100
AcDbEntity
  8
0
  6
ByBlock
 62
     0
370
    -2
100
AcDbLine
 10
429.7642557730068
 20
-1014.127388
 30
0.0
 11
427.2303904982593
 21
-1014.654887702071
 31
0.0
  0
LINE
  5
DE7
330
6B
100
AcDbEntity
  8
0
  6
ByBlock
 62
     0
370
    -2
100
AcDbLine
 10
429.7642557730068
 20
-1014.127388
 30
0.0
 11
427.2682522158193
 21
-1013.986086044926
 31
0.0
  0
LINE
  5
DE8
330
6B
100
AcDbEntity
  8
0
  6
Continuous
100
AcDbLine
 10
440.2031218594254
 20
-965.5782325132269
 30
0.0
 11
429.6427701399576
 21
-936.512371930622
 31
0.0
1001
ACAD
1000
DSTYLE
1002
{
1070
   147
1040
0.625
1070
    77
1070
     0
1002
}
  0
LINE
  5
DE9
330
6B
100
AcDbEntity
  8
0
  6
ByBlock
 62
     0
370
    -2
100
AcDbLine
 10
440.8327265806006
 20
-965.3494814228903
 30
0.0
 11
441.0568331639526
 21
-967.927951008818
 31
0.0
  0
LINE
  5
DEA
330
6B
100
AcDbEntity
  8
0
  6
ByBlock
 62
     0
370
    -2
100
AcDbLine
 10
441.0568331639526
 20
-967.927951008818
 30
0.0
 11
439.5735171382503
 21
-965.8069836035636
 31
0.0
  0
LINE
  5
DEB
330
6B
100
AcDbEntity
  8
0
  6
ByBlock
 62
     0
370
    -2
100
AcDbLine
 10
441.0568331639526
 20
-967.927951008818
 30
0.0
 11
440.2031218594254
 21
-965.5782325132269
 31
0.0
  0
LINE
  5
DEC
330
6B
100
AcDbEntity
  8
0
  6
Continuous
100
AcDbLine
 10
500.5007605606904
 20
-965.6662414925831
 30
0.0
 11
503.0203848881662
 21
-941.8517675332534
 31
0.0
1001
ACAD
1000
DSTYLE
1002
{
1070
   147
1040
0.625
1070
    77
1070
     0
1002
}
  0
LINE
  5
DED
330
6B
100
AcDbEntity
  8
0
  6
ByBlock
 62
     0
370
    -2
100
AcDbLine
 10
501.1669149340888
 20
-965.7367221073528
 30
0.0
 11
500.2377231365177
 21
-968.152365245232
 31
0.0
  0
LINE
  5
DEE
330
6B
100
AcDbEntity
  8
0
  6
ByBlock
 62
     0
370
    -2
100
AcDbLine
 10
500.2377231365177
 20
-968.152365245232
 30
0.0
 11
499.8346061872918
 21
-965.5957608778136
 31
0.0
  0
LINE
  5
DEF
330
6B
100
AcDbEntity
  8
0
  6
ByBlock
 62
     0
370
    -2
100
AcDbLine
 10
500.2377231365177
 20
-968.152365245232
 30
0.0
 11
500.5007605606904
 21
-965.6662414925831
 31
0.0
  0
LINE
  5
DF0
330
6B
100
AcDbEntity
  8
0
  6
Continuous
100
AcDbLine
 10
745.5245616038192
 20
-1030.335083569932
 30
0.0
 11
735.8063092697348
 21
-1012.603998207308
 31
0.0
1001
ACAD
1000
DSTYLE
1002
{
1070
   147
1040
0.625
1070
    77
1070
     0
1002
}
  0
LINE
  5
DF1
330
6B
100
AcDbEntity
  8
0
  6
ByBlock
 62
     0
370
    -2
100
AcDbLine
 10
746.1119873835516
 20
-1030.013120653492
 30
0.0
 11
746.7261444290559
 21
-1032.527388
 31
0.0
  0
LINE
  5
DF2
330
6B
100
AcDbEntity
  8
0
  6
ByBlock
 62
     0
370
    -2
100
AcDbLine
 10
746.7261444290559
 20
-1032.527388
 30
0.0
 11
744.937135824087
 21
-1030.657046486371
 31
0.0
  0
LINE
  5
DF3
330
6B
100
AcDbEntity
  8
0
  6
ByBlock
 62
     0
370
    -2
100
AcDbLine
 10
746.7261444290559
 20
-1032.527388
 30
0.0
 11
745.5245616038192
 21
-1030.335083569932
 31
0.0
  0
LINE
  5
DF4
330
6B
100
AcDbEntity
  8
0
  6
Continuous
100
AcDbLine
 10
724.1793566125644
 20
-974.4022721264988
 30
0.0
 11
728.3065680333862
 21
-972.4427992068241
 31
0.0
1001
ACAD
1000
DSTYLE
1002
{
1070
   147
1040
0.625
1070
    77
1070
     0
1002
}
  0
LINE
  5
DF5
330
6B
100
AcDbEntity
  8
0
  6
ByBlock
 62
     0
370
    -2
100
AcDbLine
 10
724.4666560208758
 20
-975.0074070009196
 30
0.0
 11
721.9209608938989
 21
-975.4744888853275
 31
0.0
  0
LINE
  5
DF6
330
6B
100
AcDbEntity
  8
0
  6
ByBlock
 62
     0
370
    -2
100
AcDbLine
 10
721.9209608938989
 20
-975.4744888853275
 30
0.0
 11
723.892057204253
 21
-973.797137252078
 31
0.0
  0
LINE
  5
DF7
330
6B
100
AcDbEntity
  8
0
  6
ByBlock
 62
     0
370
    -2
100
AcDbLine
 10
721.9209608938989
 20
-975.4744888853275
 30
0.0
 11
724.1793566125644
 21
-974.4022721264988
 31
0.0
  0
LINE
  5
DF8
330
6B
100
AcDbEntity
  8
0
  6
Continuous
100
AcDbLine
 10
461.638729657607
 20
-937.619756936553
 30
0.0
 11
448.9597824687017
 21
-933.4618645116265
 31
0.0
1001
ACAD
1000
DSTYLE
1002
{
1070
   147
1040
0.625
1070
    77
1070
     0
1002
}
  0
LINE
  5
DF9
330
6B
100
AcDbEntity
  8
0
  6
ByBlock
 62
     0
370
    -2
100
AcDbLine
 10
461.8474678920299
 20
-936.9832370894577
 30
0.0
 11
464.0142557730071
 21
-938.3987791923662
 31
0.0
  0
LINE
  5
DFA
330
6B
100
AcDbEntity
  8
0
  6
ByBlock
 62
     0
370
    -2
100
AcDbLine
 10
464.0142557730071
 20
-938.3987791923662
 30
0.0
 11
461.4299914231842
 21
-938.2562767836484
 31
0.0
  0
LINE
  5
DFB
330
6B
100
AcDbEntity
  8
0
  6
ByBlock
 62
     0
370
    -2
100
AcDbLine
 10
464.0142557730071
 20
-938.3987791923662
 30
0.0
 11
461.638729657607
 21
-937.619756936553
 31
0.0
  0
TEXT
  5
DFC
330
6B
100
AcDbEntity
  8
0
  6
Continuous
 62
     4
100
AcDbText
 10
640.7262166945165
 20
-1063.747122396889
 30
0.0
 40
3.0
  1
160
100
AcDbText
  0
LINE
  5
DFD
330
6B
100
AcDbEntity
  8
0
  6
ByBlock
 62
     0
370
    -2
100
AcDbLine
 10
719.4209608938989
 20
-1063.702249896889
 30
0.0
 11
721.9209608938989
 21
-1064.372122396889
 31
0.0
  0
LINE
  5
DFE
330
6B
100
AcDbEntity
  8
0
  6
ByBlock
 62
     0
370
    -2
100
AcDbLine
 10
721.9209608938989
 20
-1064.372122396889
 30
0.0
 11
719.4209608938989
 21
-1065.041994896889
 31
0.0
  0
LINE
  5
DFF
330
6B
100
AcDbEntity
  8
0
  6
ByBlock
 62
     0
370
    -2
100
AcDbLine
 10
721.9209608938989
 20
-1064.372122396889
 30
0.0
 11
719.4209608938989
 21
-1064.372122396889
 31
0.0
  0
LINE
  5
E00
330
6B
100
AcDbEntity
  8
0
  6
ByBlock
 62
     0
370
    -2
100
AcDbLine
 10
564.4209608938988
 20
-1065.041994896889
 30
0.0
 11
561.9209608938988
 21
-1064.372122396889
 31
0.0
  0
LINE
  5
E01
330
6B
100
AcDbEntity
  8
0
  6
ByBlock
 62
     0
370
    -2
100
AcDbLine
 10
561.9209608938988
 20
-1064.372122396889
 30
0.0
 11
564.4209608938988
 21
-1063.702249896889
 31
0.0
  0
LINE
  5
E02
330
6B
100
AcDbEntity
  8
0
  6
ByBlock
 62
     0
370
    -2
100
AcDbLine
 10
561.9209608938988
 20
-1064.372122396889
 30
0.0
 11
564.4209608938988
 21
-1064.372122396889
 31
0.0
  0
TEXT
  5
E03
330
6B
100
AcDbEntity
  8
0
  6
Continuous
 62
     4
100
AcDbText
 10
468.9317998936859
 20
-1063.618471711775
 30
0.0
 40
3.0
  1
115
100
AcDbText
  0
LINE
  5
E04
330
6B
100
AcDbEntity
  8
0
  6
ByBlock
 62
     0
370
    -2
100
AcDbLine
 10
416.264255773007
 20
-1064.913344211775
 30
0.0
 11
413.7642557730071
 21
-1064.243471711775
 31
0.0
  0
LINE
  5
E05
330
6B
100
AcDbEntity
  8
0
  6
ByBlock
 62
     0
370
    -2
100
AcDbLine
 10
413.7642557730071
 20
-1064.243471711775
 30
0.0
 11
416.264255773007
 21
-1063.573599211775
 31
0.0
  0
LINE
  5
E06
330
6B
100
AcDbEntity
  8
0
  6
ByBlock
 62
     0
370
    -2
100
AcDbLine
 10
413.7642557730071
 20
-1064.243471711775
 30
0.0
 11
416.264255773007
 21
-1064.243471711775
 31
0.0
  0
LINE
  5
E07
330
6B
100
AcDbEntity
  8
0
  6
ByBlock
 62
     0
370
    -2
100
AcDbLine
 10
526.2642557730069
 20
-1063.573599211775
 30
0.0
 11
528.764255773007
 21
-1064.243471711775
 31
0.0
  0
LINE
  5
E08
330
6B
100
AcDbEntity
  8
0
  6
ByBlock
 62
     0
370
    -2
100
AcDbLine
 10
528.764255773007
 20
-1064.243471711775
 30
0.0
 11
526.2642557730069
 21
-1064.913344211775
 31
0.0
  0
LINE
  5
E09
330
6B
100
AcDbEntity
  8
0
  6
ByBlock
 62
     0
370
    -2
100
AcDbLine
 10
528.764255773007
 20
-1064.243471711775
 30
0.0
 11
526.2642557730069
 21
-1064.243471711775
 31
0.0
  0
TEXT
  5
E0A
330
6B
100
AcDbEntity
  8
0
  6
Continuous
 62
     4
100
AcDbText
 10
535.5804653977096
 20
-1008.765409015123
 30
0.0
 40
3.0
  1
94.5
 50
90.0
100
AcDbText
  0
LINE
  5
E0B
330
6B
100
AcDbEntity
  8
0
  6
ByBlock
 62
     0
370
    -2
100
AcDbLine
 10
535.5355928977095
 20
-957.1273879999999
 30
0.0
 11
536.2054653977095
 21
-954.6273879999999
 31
0.0
  0
LINE
  5
E0C
330
6B
100
AcDbEntity
  8
0
  6
ByBlock
 62
     0
370
    -2
100
AcDbLine
 10
536.2054653977095
 20
-954.6273879999999
 30
0.0
 11
536.8753378977095
 21
-957.1273879999999
 31
0.0
  0
LINE
  5
E0D
330
6B
100
AcDbEntity
  8
0
  6
ByBlock
 62
     0
370
    -2
100
AcDbLine
 10
536.2054653977095
 20
-954.6273879999999
 30
0.0
 11
536.2054653977095
 21
-957.1273879999999
 31
0.0
  0
LINE
  5
E0E
330
6B
100
AcDbEntity
  8
0
  6
ByBlock
 62
     0
370
    -2
100
AcDbLine
 10
536.8753378977095
 20
-1046.627388
 30
0.0
 11
536.2054653977095
 21
-1049.127388
 31
0.0
  0
LINE
  5
E0F
330
6B
100
AcDbEntity
  8
0
  6
ByBlock
 62
     0
370
    -2
100
AcDbLine
 10
536.2054653977095
 20
-1049.127388
 30
0.0
 11
535.5355928977095
 21
-1046.627388
 31
0.0
  0
LINE
  5
E10
330
6B
100
AcDbEntity
  8
0
  6
ByBlock
 62
     0
370
    -2
100
AcDbLine
 10
536.2054653977095
 20
-1049.127388
 30
0.0
 11
536.2054653977095
 21
-1046.627388
 31
0.0
  0
TEXT
  5
E11
330
6B
100
AcDbEntity
  8
0
  6
Continuous
 62
     4
100
AcDbText
 10
535.5804653977096
 20
-1064.252388
 30
0.0
 40
3.0
  1
3.5
 50
90.0
100
AcDbText
  0
LINE
  5
E12
330
6B
100
AcDbEntity
  8
0
  6
ByBlock
 62
     0
370
    -2
100
AcDbLine
 10
535.5355928977095
 20
-1055.127388
 30
0.0
 11
536.2054653977095
 21
-1052.627388
 31
0.0
  0
LINE
  5
E13
330
6B
100
AcDbEntity
  8
0
  6
ByBlock
 62
     0
370
    -2
100
AcDbLine
 10
536.2054653977095
 20
-1052.627388
 30
0.0
 11
536.8753378977095
 21
-1055.127388
 31
0.0
  0
LINE
  5
E14
330
6B
100
AcDbEntity
  8
0
  6
ByBlock
 62
     0
370
    -2
100
AcDbLine
 10
536.2054653977095
 20
-1052.627388
 30
0.0
 11
536.2054653977095
 21
-1055.127388
 31
0.0
  0
LINE
  5
E15
330
6B
100
AcDbEntity
  8
0
  6
ByBlock
 62
     0
370
    -2
100
AcDbLine
 10
536.8753378977095
 20
-1046.627388
 30
0.0
 11
536.2054653977095
 21
-1049.127388
 31
0.0
  0
LINE
  5
E16
330
6B
100
AcDbEntity
  8
0
  6
ByBlock
 62
     0
370
    -2
100
AcDbLine
 10
536.2054653977095
 20
-1049.127388
 30
0.0
 11
535.5355928977095
 21
-1046.627388
 31
0.0
  0
LINE
  5
E17
330
6B
100
AcDbEntity
  8
0
  6
ByBlock
 62
     0
370
    -2
100
AcDbLine
 10
536.2054653977095
 20
-1049.127388
 30
0.0
 11
536.2054653977095
 21
-1046.627388
 31
0.0
  0
TEXT
  5
E18
330
6B
100
AcDbEntity
  8
0
  6
Continuous
 62
     4
100
AcDbText
 10
550.6463281127507
 20
-998.4780167398506
 30
0.0
 40
3.0
  1
125
 50
90.0
100
AcDbText
  0
LINE
  5
E19
330
6B
100
AcDbEntity
  8
0
  6
ByBlock
 62
     0
370
    -2
100
AcDbLine
 10
551.9412006127505
 20
-1050.127388
 30
0.0
 11
551.2713281127505
 21
-1052.627388
 31
0.0
  0
LINE
  5
E1A
330
6B
100
AcDbEntity
  8
0
  6
ByBlock
 62
     0
370
    -2
100
AcDbLine
 10
551.2713281127505
 20
-1052.627388
 30
0.0
 11
550.6014556127505
 21
-1050.127388
 31
0.0
  0
LINE
  5
E1B
330
6B
100
AcDbEntity
  8
0
  6
ByBlock
 62
     0
370
    -2
100
AcDbLine
 10
551.2713281127505
 20
-1052.627388
 30
0.0
 11
551.2713281127505
 21
-1050.127388
 31
0.0
  0
LINE
  5
E1C
330
6B
100
AcDbEntity
  8
0
  6
ByBlock
 62
     0
370
    -2
100
AcDbLine
 10
550.6014556127505
 20
-930.127388
 30
0.0
 11
551.2713281127505
 21
-927.6273879999999
 31
0.0
  0
LINE
  5
E1D
330
6B
100
AcDbEntity
  8
0
  6
ByBlock
 62
     0
370
    -2
100
AcDbLine
 10
551.2713281127505
 20
-927.6273879999999
 30
0.0
 11
551.9412006127505
 21
-930.127388
 31
0.0
  0
LINE
  5
E1E
330
6B
100
AcDbEntity
  8
0
  6
ByBlock
 62
     0
370
    -2
100
AcDbLine
 10
551.2713281127505
 20
-927.6273879999999
 30
0.0
 11
551.2713281127505
 21
-930.127388
 31
0.0
  0
ENDSEC
  0
SECTION
  2
OBJECTS
  0
DICTIONARY
  5
C
330
0
100
AcDbDictionary
281
     1
  3
ACAD_2007HEADERVARS_RT
350
E22
  3
ACAD_COLOR
350
62
  3
ACAD_GROUP
350
D
  3
ACAD_LAYOUT
350
61
  3
ACAD_MATERIAL
350
10
  3
ACAD_MLEADERSTYLE
350
65
  3
ACAD_MLINESTYLE
350
5E
  3
ACAD_PLOTSETTINGS
350
60
  3
ACAD_PLOTSTYLENAME
350
E
  3
ACAD_SCALELIST
350
42
  3
ACAD_TABLESTYLE
350
63
  3
ACAD_VISUALSTYLE
350
29
  3
ACDB_RECOMPOSE_DATA
350
E20
  3
AcDbVariableDictionary
350
4CB
  3
DWGPROPS
350
E21
  0
DICTIONARY
  5
32C
330
2
100
AcDbDictionary
280
     1
281
     1
  3
ACAD_LAYERSTATES
360
32D
  0
DICTIONARY
  5
4C7
330
54
100
AcDbDictionary
280
     1
281
     1
  3
ADSK_XREC_LAYER_RECONCILED
360
4C8
  0
DICTIONARY
  5
4BD
330
6B
100
AcDbDictionary
280
     1
281
     1
  3
ACAD_SORTENTS
360
4BE
  0
DICTIONARY
  5
E22
102
{ACAD_REACTORS
330
C
102
}
330
C
100
AcDbDictionary
281
     1
  3
DIMARCSYM
350
E24
  3
DIMFXL
350
E23
  3
DIMJOGANG
350
E25
  0
DICTIONARY
  5
62
102
{ACAD_REACTORS
330
C
102
}
330
C
100
AcDbDictionary
281
     1
  0
DICTIONARY
  5
D
102
{ACAD_REACTORS
330
C
102
}
330
C
100
AcDbDictionary
281
     1
  0
DICTIONARY
  5
61
102
{ACAD_REACTORS
330
C
102
}
330
C
100
AcDbDictionary
281
     1
  3
Model
350
6E
  3
レイアウト1
350
6A
  0
DICTIONARY
  5
10
102
{ACAD_REACTORS
330
C
102
}
330
C
100
AcDbDictionary
281
     1
  3
ByBlock
350
19
  3
ByLayer
350
11
  3
Global
350
21
  0
DICTIONARY
  5
65
102
{ACAD_REACTORS
330
C
102
}
330
C
100
AcDbDictionary
281
     1
  3
Standard
350
66
  0
DICTIONARY
  5
5E
102
{ACAD_REACTORS
330
C
102
}
330
C
100
AcDbDictionary
281
     1
  3
Standard
350
5F
  0
DICTIONARY
  5
60
102
{ACAD_REACTORS
330
C
102
}
330
C
100
AcDbDictionary
281
     1
  0
ACDBDICTIONARYWDFLT
  5
E
102
{ACAD_REACTORS
330
C
102
}
330
C
100
AcDbDictionary
281
     1
  3
Normal
350
F
100
AcDbDictionaryWithDefault
340
F
  0
DICTIONARY
  5
42
102
{ACAD_REACTORS
330
C
102
}
330
C
100
AcDbDictionary
281
     1
  3
A0
350
43
  3
A1
350
44
  3
A2
350
45
  3
A3
350
46
  3
A4
350
47
  3
A5
350
48
  3
A6
350
49
  3
A7
350
4A
  3
A8
350
4B
  3
A9
350
4C
  3
B0
350
4D
  3
B1
350
4E
  3
B2
350
4F
  3
B3
350
50
  3
B4
350
51
  3
B5
350
52
  3
B6
350
53
  0
DICTIONARY
  5
63
102
{ACAD_REACTORS
330
C
102
}
330
C
100
AcDbDictionary
281
     1
  3
Standard
350
64
  0
DICTIONARY
  5
29
102
{ACAD_REACTORS
330
C
102
}
330
C
100
AcDbDictionary
281
     1
  3
2dWireframe
350
2F
  3
3dWireframe
350
32B
  3
Basic
350
2E
  3
Brighten
350
35
  3
ColorChange
350
39
  3
Conceptual
350
32
  3
Dim
350
34
  3
EdgeColorOff
350
41
  3
Facepattern
350
38
  3
Flat
350
2A
  3
FlatWithEdges
350
2B
  3
Gouraud
350
2C
  3
GouraudWithEdges
350
2D
  3
Hidden
350
31
  3
JitterOff
350
3F
  3
Linepattern
350
37
  3
OverhangOff
350
40
  3
Realistic
350
33
  3
Shaded
350
3E
  3
Shaded with edges
350
3D
  3
Shades of Gray
350
3A
  3
Sketchy
350
3B
  3
Thicken
350
36
  3
Wireframe
350
30
  3
X-Ray
350
3C
  0
XRECORD
  5
E20
102
{ACAD_REACTORS
330
C
102
}
330
C
100
AcDbXrecord
280
     1
 90
        1
330
64
  0
DICTIONARY
  5
4CB
102
{ACAD_REACTORS
330
C
102
}
330
C
100
AcDbDictionary
281
     1
  3
CANNOSCALE
350
4CE
  3
CMLEADERSTYLE
350
4CD
  3
CTABLESTYLE
350
4CC
  3
DIMASSOC
350
4D1
  3
INDEXCTL
350
4D0
  3
SORTENTS
350
4CF
  3
XCLIPFRAME
350
D6C
  0
XRECORD
  5
E21
102
{ACAD_REACTORS
330
C
102
}
330
C
100
AcDbXrecord
280
     1
  1
DWGPROPS COOKIE
  2

  3

  4

  6

  7

  8
imamura
  9

300
=
301
=
302
=
303
=
304
=
305
=
306
=
307
=
308
=
309
=
 40
0.0908685648148148
 41
2456214.601356111
 42
2456856.874832581
  1

 90
        0
  0
DICTIONARY
  5
32D
102
{ACAD_REACTORS
330
32C
102
}
330
32C
100
AcDbDictionary
281
     1
  0
XRECORD
  5
4C8
102
{ACAD_REACTORS
330
4C7
102
}
330
4C7
100
AcDbXrecord
280
     1
290
     1
  0
SORTENTSTABLE
  5
4BE
102
{ACAD_REACTORS
330
4BD
102
}
330
4BD
100
AcDbSortentsTable
330
6B
331
5D4
  5
664
331
64E
  5
6AF
331
5D0
  5
654
331
60F
  5
691
331
704
  5
72B
331
64A
  5
6AB
331
646
  5
6A7
331
6C5
  5
6CC
331
700
  5
725
331
5CC
  5
64B
331
60B
  5
572
331
642
  5
6A3
331
6C1
  5
6C8
331
6FC
  5
6FE
331
6F8
  5
5F1
331
DED
  5
E07
331
DE9
  5
E0D
331
DE5
  5
E11
331
22D
  5
22E
331
DE1
  5
E18
331
13E
  5
13F
331
229
  5
22A
331
FB
  5
FB
331
46C
  5
46D
331
468
  5
469
331
55E
  5
60C
331
DAB
  5
E15
331
55A
  5
608
331
54F
  5
607
331
595
  5
63D
331
591
  5
63B
331
7C0
  5
E06
331
470
  5
471
331
5C4
  5
64F
331
603
  5
689
331
737
  5
716
331
63E
  5
69F
331
6BD
  5
6C4
331
6B9
  5
6C0
331
5C0
  5
580
331
5FF
  5
685
331
733
  5
745
331
63A
  5
5FF
331
6B5
  5
6BC
331
5BC
  5
54E
331
6F0
  5
6F9
331
636
  5
699
331
6B1
  5
6B8
331
5B8
  5
5D0
331
6EC
  5
6F7
331
72B
  5
723
331
6E8
  5
6EF
331
DDD
  5
E1E
331
E1C
  5
7BF
331
E18
  5
DB0
331
DD9
  5
7B6
331
F7
  5
F7
331
136
  5
137
331
E14
  5
DC8
331
215
  5
216
331
464
  5
465
331
F3
  5
F3
331
132
  5
133
331
E10
  5
DD7
331
DD1
  5
DB6
331
12E
  5
12F
331
211
  5
212
331
460
  5
461
331
EB
  5
EB
331
12A
  5
12A
331
169
  5
16A
331
58D
  5
637
331
547
  5
58F
331
589
  5
633
331
543
  5
58B
331
585
  5
604
331
53F
  5
589
331
53B
  5
575
331
581
  5
62C
331
282
  5
283
331
5F7
  5
682
331
5B4
  5
593
331
727
  5
721
331
62E
  5
61A
331
5B0
  5
648
331
6E4
  5
6EB
331
723
  5
71A
331
5AC
  5
645
331
5EB
  5
67F
331
7BA
  5
E04
331
6E0
  5
6E7
331
71F
  5
71C
331
626
  5
565
331
622
  5
617
331
7B6
  5
DFD
331
6DC
  5
6E3
331
71B
  5
738
331
6D8
  5
6DF
331
E0C
  5
DD9
331
E08
  5
DE3
331
DC9
  5
DCC
331
E7
  5
E7
331
126
  5
126
331
E04
  5
DE5
331
DC5
  5
DE1
331
27C
  5
27D
331
E3
  5
E3
331
122
  5
122
331
E00
  5
DEC
331
11E
  5
11E
331
11A
  5
11A
331
244
  5
245
331
240
  5
241
331
57D
  5
628
331
579
  5
601
331
575
  5
623
331
5E3
  5
678
331
717
  5
732
331
61E
  5
616
331
5DF
  5
674
331
74E
  5
74E
331
6D4
  5
6DB
331
61A
  5
693
331
5DB
  5
670
331
6D0
  5
6D7
331
70F
  5
741
331
616
  5
620
331
651
  5
6B2
331
6CC
  5
6D3
331
70B
  5
6FD
331
746
  5
713
331
742
  5
749
331
6C8
  5
6CF
331
DFC
  5
DF2
331
DBD
  5
DE9
331
DF8
  5
DF6
331
116
  5
116
331
DF4
  5
DFC
331
23C
  5
23D
331
D3
  5
D3
331
112
  5
112
331
14D
  5
14E
331
DF0
  5
E02
331
10E
  5
10E
331
149
  5
14A
331
238
  5
239
331
CF
  5
CF
331
234
  5
235
331
141
  5
142
331
230
  5
231
331
569
  5
556
331
565
  5
614
331
561
  5
60F
331
5D7
  5
64A
331
5D3
  5
657
331
707
  5
72E
331
64D
  5
6AE
331
5CF
  5
653
331
60E
  5
690
331
649
  5
6AA
331
645
  5
6A6
331
6C4
  5
6CB
331
5CB
  5
64C
331
60A
  5
68C
331
641
  5
6A2
331
6C0
  5
6C7
331
DEC
  5
E0A
331
DE8
  5
E10
331
DE4
  5
E14
331
22C
  5
22D
331
102
  5
102
331
DE0
  5
E1D
331
13D
  5
13E
331
228
  5
229
331
46F
  5
470
331
FE
  5
FE
331
FA
  5
FA
331
139
  5
13A
331
46B
  5
46C
331
55D
  5
60B
331
54E
  5
606
331
594
  5
63C
331
7C3
  5
E0C
331
54A
  5
5F8
331
590
  5
63A
331
5C3
  5
651
331
602
  5
688
331
736
  5
717
331
63D
  5
69E
331
6BC
  5
6C3
331
6F7
  5
585
331
6B8
  5
6BF
331
5BF
  5
582
331
5FE
  5
54C
331
639
  5
61D
331
635
  5
69A
331
6B4
  5
6BB
331
5BB
  5
550
331
6EF
  5
6F8
331
72E
  5
724
331
5FA
  5
588
331
6B0
  5
6B7
331
6EB
  5
6F6
331
72A
  5
722
331
E1B
  5
DAF
331
E17
  5
DC3
331
DD8
  5
7B4
331
467
  5
468
331
F6
  5
F6
331
135
  5
136
331
E13
  5
DC7
331
214
  5
215
331
463
  5
464
331
F2
  5
F2
331
131
  5
132
331
DD0
  5
DB5
331
12D
  5
12E
331
45F
  5
460
331
EA
  5
EA
331
129
  5
129
331
168
  5
169
331
58C
  5
636
331
546
  5
566
331
588
  5
62E
331
542
  5
56B
331
53E
  5
574
331
53A
  5
583
331
580
  5
62B
331
285
  5
33E
331
281
  5
282
331
5B7
  5
590
331
5B3
  5
640
331
5F2
  5
578
331
726
  5
71F
331
62D
  5
61C
331
6E7
  5
6EE
331
5AF
  5
642
331
6E3
  5
6EA
331
722
  5
719
331
629
  5
697
331
5EA
  5
67E
331
7B9
  5
E03
331
6DF
  5
6E6
331
71E
  5
73B
331
625
  5
569
331
621
  5
619
331
690
  5
5FB
331
6DB
  5
6E2
331
71A
  5
737
331
E0F
  5
DD2
331
E0B
  5
DD8
331
E07
  5
DE2
331
27F
  5
280
331
E6
  5
E6
331
125
  5
125
331
E03
  5
DE8
331
DC4
  5
DE0
331
27B
  5
27C
331
E2
  5
E2
331
121
  5
121
331
11D
  5
11D
331
DE
  5
DE
331
119
  5
119
331
243
  5
244
331
150
  5
157
331
57C
  5
627
331
578
  5
626
331
5E6
  5
67B
331
5E2
  5
677
331
716
  5
744
331
61D
  5
618
331
6D7
  5
6DE
331
5DE
  5
673
331
6D3
  5
6DA
331
619
  5
563
331
654
  5
6B5
331
6CF
  5
6D6
331
70E
  5
73F
331
749
  5
742
331
5DA
  5
57E
331
650
  5
6B1
331
6CB
  5
6D2
331
70A
  5
6FF
331
745
  5
714
331
DFF
  5
DF1
331
741
  5
748
331
DFB
  5
DF5
331
DF7
  5
DFB
331
23F
  5
240
331
115
  5
115
331
DF3
  5
E01
331
23B
  5
23C
331
D2
  5
D2
331
111
  5
111
331
14C
  5
14D
331
148
  5
149
331
237
  5
238
331
CE
  5
CE
331
144
  5
145
331
233
  5
234
331
140
  5
141
331
568
  5
55E
331
564
  5
613
331
5D6
  5
66F
331
5D2
  5
656
331
706
  5
72D
331
64C
  5
6AD
331
6C7
  5
6CE
331
5CE
  5
650
331
60D
  5
68F
331
702
  5
72A
331
648
  5
6A9
331
609
  5
68B
331
644
  5
6A5
331
6C3
  5
6CA
331
5CA
  5
64D
331
6FE
  5
700
331
73D
  5
740
331
739
  5
73E
331
640
  5
6A1
331
6FA
  5
5F2
331
DEF
  5
E09
331
DEB
  5
E0F
331
DE7
  5
E13
331
22F
  5
230
331
DE3
  5
E1A
331
22B
  5
22C
331
FD
  5
FD
331
13C
  5
13D
331
227
  5
228
331
46E
  5
46F
331
F9
  5
F9
331
138
  5
139
331
46A
  5
46B
331
DAD
  5
E17
331
55C
  5
60A
331
54D
  5
605
331
593
  5
552
331
7C2
  5
E0B
331
549
  5
5F7
331
6BF
  5
6C6
331
601
  5
687
331
6F6
  5
586
331
735
  5
746
331
63C
  5
69D
331
6BB
  5
6C2
331
6B7
  5
6BE
331
5BE
  5
54F
331
5FD
  5
54D
331
638
  5
5FD
331
634
  5
69B
331
6B3
  5
6BA
331
5BA
  5
581
331
72D
  5
729
331
5F9
  5
684
331
729
  5
727
331
6EA
  5
6F1
331
DDF
  5
E1C
331
E1E
  5
7C2
331
E1A
  5
DAB
331
E16
  5
DBD
331
DD7
  5
7B3
331
466
  5
467
331
F5
  5
F5
331
E12
  5
DC4
331
DD3
  5
DBB
331
130
  5
131
331
213
  5
214
331
462
  5
463
331
12C
  5
12D
331
45E
  5
45F
331
ED
  5
ED
331
E9
  5
E9
331
128
  5
128
331
58F
  5
639
331
58B
  5
635
331
545
  5
58E
331
541
  5
58C
331
53D
  5
562
331
539
  5
573
331
280
  5
281
331
6AF
  5
6B6
331
5B6
  5
591
331
5B2
  5
641
331
5F1
  5
577
331
725
  5
71B
331
62C
  5
5FC
331
6E6
  5
6ED
331
5AE
  5
643
331
6E2
  5
6E9
331
721
  5
71D
331
5ED
  5
681
331
624
  5
621
331
6DE
  5
6E5
331
71D
  5
73A
331
5E9
  5
67D
331
620
  5
696
331
7B4
  5
DF8
331
6DA
  5
6E1
331
719
  5
735
331
E0E
  5
DD1
331
DCF
  5
DB1
331
E0A
  5
DDE
331
DCB
  5
DCE
331
E06
  5
DE7
331
27E
  5
27F
331
E5
  5
E5
331
124
  5
124
331
167
  5
168
331
E02
  5
DEE
331
DC3
  5
DDF
331
120
  5
120
331
11C
  5
11C
331
118
  5
118
331
242
  5
243
331
57F
  5
62A
331
577
  5
625
331
573
  5
602
331
5E5
  5
67A
331
68F
  5
5FA
331
5A2
  5
594
331
5E1
  5
676
331
6D6
  5
6DD
331
5DD
  5
672
331
6D2
  5
6D9
331
618
  5
568
331
653
  5
6B4
331
6CE
  5
6D5
331
70D
  5
73C
331
748
  5
710
331
5D9
  5
57C
331
610
  5
692
331
6CA
  5
6D1
331
709
  5
730
331
DFE
  5
DF0
331
DBF
  5
DEB
331
740
  5
747
331
DFA
  5
DF4
331
DF6
  5
DFA
331
23E
  5
23F
331
114
  5
114
331
14F
  5
150
331
DF2
  5
E00
331
23A
  5
23B
331
D1
  5
D1
331
110
  5
110
331
147
  5
148
331
236
  5
237
331
108
  5
108
331
143
  5
144
331
232
  5
233
331
56B
  5
600
331
563
  5
611
331
5D5
  5
66E
331
64F
  5
6B0
331
5D1
  5
655
331
705
  5
72C
331
64B
  5
6AC
331
6C6
  5
6CD
331
5CD
  5
652
331
60C
  5
68D
331
701
  5
720
331
647
  5
6A8
331
608
  5
68A
331
643
  5
6A4
331
6C2
  5
6C9
331
6FD
  5
6FC
331
5C9
  5
64E
331
738
  5
73D
331
6F9
  5
5F9
331
DEE
  5
E08
331
DEA
  5
E0E
331
DE6
  5
E12
331
22E
  5
22F
331
DE2
  5
E19
331
13F
  5
140
331
22A
  5
22B
331
100
  5
100
331
FC
  5
FC
331
226
  5
227
331
46D
  5
46E
331
469
  5
46A
331
F8
  5
F8
331
DAC
  5
E16
331
55B
  5
609
331
596
  5
63E
331
592
  5
553
331
548
  5
5D1
331
471
  5
4BC
331
63F
  5
6A0
331
6BE
  5
6C5
331
600
  5
686
331
63B
  5
69C
331
6BA
  5
6C1
331
6B6
  5
6BD
331
5BD
  5
551
331
5FC
  5
587
331
6F1
  5
6FA
331
637
  5
61B
331
5F8
  5
683
331
633
  5
698
331
6B2
  5
6B9
331
5B9
  5
57F
331
72C
  5
728
331
728
  5
726
331
6E9
  5
6F0
331
DDE
  5
E1B
331
E1D
  5
7C0
331
E19
  5
7C3
331
137
  5
138
331
E15
  5
DBC
331
465
  5
466
331
F4
  5
F4
331
133
  5
134
331
E11
  5
DCB
331
DD2
  5
DB7
331
12F
  5
130
331
212
  5
213
331
461
  5
462
331
EC
  5
EC
331
12B
  5
12C
331
45D
  5
45E
331
E8
  5
E8
331
58E
  5
638
331
58A
  5
634
331
544
  5
584
331
586
  5
603
331
540
  5
58A
331
53C
  5
567
331
582
  5
62D
331
283
  5
284
331
5B5
  5
592
331
5B1
  5
646
331
7BF
  5
E05
331
6E5
  5
6EC
331
724
  5
71E
331
62B
  5
5FE
331
5AD
  5
644
331
6E1
  5
6E8
331
720
  5
718
331
5EC
  5
680
331
623
  5
61F
331
7B7
  5
DFE
331
6DD
  5
6E4
331
71C
  5
739
331
5E8
  5
67C
331
718
  5
733
331
7B3
  5
DF7
331
6D9
  5
6E0
331
E0D
  5
DDD
331
E09
  5
DE4
331
DCA
  5
DCD
331
127
  5
127
331
E05
  5
DE6
331
27D
  5
27E
331
E4
  5
E4
331
123
  5
123
331
E01
  5
DED
331
11F
  5
11F
331
E0
  5
E0
331
11B
  5
11B
331
245
  5
246
331
241
  5
242
331
57E
  5
629
331
576
  5
624
331
5E4
  5
679
331
61F
  5
695
331
5E0
  5
675
331
714
  5
743
331
61B
  5
694
331
74F
  5
74F
331
6D5
  5
6DC
331
59D
  5
63F
331
5DC
  5
671
331
6D1
  5
6D8
331
617
  5
61E
331
652
  5
6B3
331
6CD
  5
6D4
331
70C
  5
731
331
747
  5
711
331
5D8
  5
649
331
6C9
  5
6D0
331
708
  5
72F
331
DFD
  5
DEF
331
DBE
  5
DEA
331
DF9
  5
DF3
331
117
  5
117
331
DF5
  5
DF9
331
23D
  5
23E
331
D4
  5
D4
331
113
  5
113
331
14E
  5
14F
331
DF1
  5
DFF
331
14A
  5
14B
331
239
  5
23A
331
D0
  5
D0
331
10F
  5
10F
331
146
  5
147
331
235
  5
236
331
142
  5
143
331
231
  5
232
331
56A
  5
622
331
566
  5
615
331
562
  5
610
  0
XRECORD
  5
E24
102
{ACAD_REACTORS
330
E22
102
}
330
E22
100
AcDbXrecord
280
     1
 70
     2
  0
XRECORD
  5
E23
102
{ACAD_REACTORS
330
E22
102
}
330
E22
100
AcDbXrecord
280
     1
 40
1.25
  0
XRECORD
  5
E25
102
{ACAD_REACTORS
330
E22
102
}
330
E22
100
AcDbXrecord
280
     1
 40
1.570796326794896
  0
LAYOUT
  5
6E
102
{ACAD_XDICTIONARY
360
E59
102
}
102
{ACAD_REACTORS
330
61
102
}
330
61
100
AcDbPlotSettings
  1

  2
FX DP 205
  4

  6

 40
0.0
 41
0.0
 42
0.0
 43
0.0
 44
0.0
 45
0.0
 46
0.0
 47
0.0
 48
0.0
 49
0.0
140
0.0
141
0.0
142
1.0
143
1.0
 70
  1712
 72
     0
 73
     0
 74
     0
  7

 75
     0
147
1.0
148
0.0
149
0.0
100
AcDbLayout
  1
Model
 70
     1
 71
     0
 10
0.0
 20
0.0
 11
12.0
 21
9.0
 12
0.0
 22
0.0
 32
0.0
 14
0.0
 24
0.0
 34
0.0
 15
0.0
 25
0.0
 35
0.0
146
0.0
 13
0.0
 23
0.0
 33
0.0
 16
1.0
 26
0.0
 36
0.0
 17
0.0
 27
1.0
 37
0.0
 76
     0
330
6B
331
8B
  0
LAYOUT
  5
6A
102
{ACAD_XDICTIONARY
360
E57
102
}
102
{ACAD_REACTORS
330
61
102
}
330
61
100
AcDbPlotSettings
  1

  2
FX DP 205
  4

  6

 40
0.0
 41
0.0
 42
0.0
 43
0.0
 44
0.0
 45
0.0
 46
0.0
 47
0.0
 48
0.0
 49
0.0
140
0.0
141
0.0
142
1.0
143
1.0
 70
   688
 72
     0
 73
     0
 74
     5
  7

 75
    16
147
1.0
148
0.0
149
0.0
100
AcDbLayout
  1
レイアウト1
 70
     1
 71
     1
 10
0.0
 20
0.0
 11
12.0
 21
9.0
 12
0.0
 22
0.0
 32
0.0
 14
1.000000000000000E+20
 24
1.000000000000000E+20
 34
1.000000000000000E+20
 15
-1.000000000000000E+20
 25
-1.000000000000000E+20
 35
-1.000000000000000E+20
146
0.0
 13
0.0
 23
0.0
 33
0.0
 16
1.0
 26
0.0
 36
0.0
 17
0.0
 27
1.0
 37
0.0
 76
     0
330
67
  0
MATERIAL
  5
19
102
{ACAD_XDICTIONARY
360
1A
102
}
102
{ACAD_REACTORS
330
10
102
}
330
10
100
AcDbMaterial
  1
ByBlock
 72
     0
 43
0.0208333333333333
 43
0.0
 43
0.0
 43
0.0
 43
0.0
 43
0.0208333333333333
 43
0.0
 43
0.0
 43
0.0
 43
0.0
 43
1.0
 43
0.0
 43
0.0
 43
0.0
 43
0.0
 43
1.0
 77
     0
 47
0.0208333333333333
 47
0.0
 47
0.0
 47
0.0
 47
0.0
 47
0.0208333333333333
 47
0.0
 47
0.0
 47
0.0
 47
0.0
 47
1.0
 47
0.0
 47
0.0
 47
0.0
 47
0.0
 47
1.0
171
     0
 49
0.0208333333333333
 49
0.0
 49
0.0
 49
0.0
 49
0.0
 49
0.0208333333333333
 49
0.0
 49
0.0
 49
0.0
 49
0.0
 49
1.0
 49
0.0
 49
0.0
 49
0.0
 49
0.0
 49
1.0
175
     0
142
0.0208333333333333
142
0.0
142
0.0
142
0.0
142
0.0
142
0.0208333333333333
142
0.0
142
0.0
142
0.0
142
0.0
142
1.0
142
0.0
142
0.0
142
0.0
142
0.0
142
1.0
179
     0
144
0.0208333333333333
144
0.0
144
0.0
144
0.0
144
0.0
144
0.0208333333333333
144
0.0
144
0.0
144
0.0
144
0.0
144
1.0
144
0.0
144
0.0
144
0.0
144
0.0
144
1.0
147
0.0208333333333333
147
0.0
147
0.0
147
0.0
147
0.0
147
0.0208333333333333
147
0.0
147
0.0
147
0.0
147
0.0
147
1.0
147
0.0
147
0.0
147
0.0
147
0.0
147
1.0
  0
MATERIAL
  5
11
102
{ACAD_XDICTIONARY
360
12
102
}
102
{ACAD_REACTORS
330
10
102
}
330
10
100
AcDbMaterial
  1
ByLayer
 72
     0
 43
0.0208333333333333
 43
0.0
 43
0.0
 43
0.0
 43
0.0
 43
0.0208333333333333
 43
0.0
 43
0.0
 43
0.0
 43
0.0
 43
1.0
 43
0.0
 43
0.0
 43
0.0
 43
0.0
 43
1.0
 77
     0
 47
0.0208333333333333
 47
0.0
 47
0.0
 47
0.0
 47
0.0
 47
0.0208333333333333
 47
0.0
 47
0.0
 47
0.0
 47
0.0
 47
1.0
 47
0.0
 47
0.0
 47
0.0
 47
0.0
 47
1.0
171
     0
 49
0.0208333333333333
 49
0.0
 49
0.0
 49
0.0
 49
0.0
 49
0.0208333333333333
 49
0.0
 49
0.0
 49
0.0
 49
0.0
 49
1.0
 49
0.0
 49
0.0
 49
0.0
 49
0.0
 49
1.0
175
     0
142
0.0208333333333333
142
0.0
142
0.0
142
0.0
142
0.0
142
0.0208333333333333
142
0.0
142
0.0
142
0.0
142
0.0
142
1.0
142
0.0
142
0.0
142
0.0
142
0.0
142
1.0
179
     0
144
0.0208333333333333
144
0.0
144
0.0
144
0.0
144
0.0
144
0.0208333333333333
144
0.0
144
0.0
144
0.0
144
0.0
144
1.0
144
0.0
144
0.0
144
0.0
144
0.0
144
1.0
147
0.0208333333333333
147
0.0
147
0.0
147
0.0
147
0.0
147
0.0208333333333333
147
0.0
147
0.0
147
0.0
147
0.0
147
1.0
147
0.0
147
0.0
147
0.0
147
0.0
147
1.0
  0
MATERIAL
  5
21
102
{ACAD_XDICTIONARY
360
22
102
}
102
{ACAD_REACTORS
330
10
102
}
330
10
100
AcDbMaterial
  1
Global
 72
     0
 43
0.0208333333333333
 43
0.0
 43
0.0
 43
0.0
 43
0.0
 43
0.0208333333333333
 43
0.0
 43
0.0
 43
0.0
 43
0.0
 43
1.0
 43
0.0
 43
0.0
 43
0.0
 43
0.0
 43
1.0
 77
     0
 47
0.0208333333333333
 47
0.0
 47
0.0
 47
0.0
 47
0.0
 47
0.0208333333333333
 47
0.0
 47
0.0
 47
0.0
 47
0.0
 47
1.0
 47
0.0
 47
0.0
 47
0.0
 47
0.0
 47
1.0
171
     0
 49
0.0208333333333333
 49
0.0
 49
0.0
 49
0.0
 49
0.0
 49
0.0208333333333333
 49
0.0
 49
0.0
 49
0.0
 49
0.0
 49
1.0
 49
0.0
 49
0.0
 49
0.0
 49
0.0
 49
1.0
175
     0
142
0.0208333333333333
142
0.0
142
0.0
142
0.0
142
0.0
142
0.0208333333333333
142
0.0
142
0.0
142
0.0
142
0.0
142
1.0
142
0.0
142
0.0
142
0.0
142
0.0
142
1.0
179
     0
144
0.0208333333333333
144
0.0
144
0.0
144
0.0
144
0.0
144
0.0208333333333333
144
0.0
144
0.0
144
0.0
144
0.0
144
1.0
144
0.0
144
0.0
144
0.0
144
0.0
144
1.0
147
0.0208333333333333
147
0.0
147
0.0
147
0.0
147
0.0
147
0.0208333333333333
147
0.0
147
0.0
147
0.0
147
0.0
147
1.0
147
0.0
147
0.0
147
0.0
147
0.0
147
1.0
  0
MLEADERSTYLE
  5
66
102
{ACAD_REACTORS
330
65
102
}
330
65
100
AcDbMLeaderStyle
170
     2
171
     1
172
     0
 90
        2
 40
0.0
 41
0.0
173
     1
 91
-1056964608
340
5A
 92
       -2
290
     1
 42
0.09
291
     1
 43
0.36
  3
Standard
 44
0.18
300

342
55
174
     1
178
     6
175
     1
176
     0
 93
-1056964608
 45
0.18
292
     0
297
     0
 46
0.18
 94
-1056964608
 47
1.0
 49
1.0
140
1.0
293
     1
141
0.0
294
     1
177
     0
142
1.0
295
     0
296
     0
143
0.125
1001
ACAD_MLEADERVER
1070
     2
  0
MLINESTYLE
  5
5F
102
{ACAD_REACTORS
330
5E
102
}
330
5E
100
AcDbMlineStyle
  2
STANDARD
 70
     0
  3

 62
   256
 51
90.0
 52
90.0
 71
     2
 49
0.5
 62
   256
  6
BYLAYER
 49
-0.5
 62
   256
  6
BYLAYER
  0
ACDBPLACEHOLDER
  5
F
102
{ACAD_REACTORS
330
E
102
}
330
E
  0
SCALE
  5
43
102
{ACAD_REACTORS
330
42
102
}
330
42
100
AcDbScale
 70
     0
300
1:1
140
1.0
141
1.0
290
     1
  0
SCALE
  5
44
102
{ACAD_REACTORS
330
42
102
}
330
42
100
AcDbScale
 70
     0
300
1/128" = 1'-0"
140
0.0078125
141
12.0
290
     0
  0
SCALE
  5
45
102
{ACAD_REACTORS
330
42
102
}
330
42
100
AcDbScale
 70
     0
300
1/64" = 1'-0"
140
0.015625
141
12.0
290
     0
  0
SCALE
  5
46
102
{ACAD_REACTORS
330
42
102
}
330
42
100
AcDbScale
 70
     0
300
1/32" = 1'-0"
140
0.03125
141
12.0
290
     0
  0
SCALE
  5
47
102
{ACAD_REACTORS
330
42
102
}
330
42
100
AcDbScale
 70
     0
300
1/16" = 1'-0"
140
0.0625
141
12.0
290
     0
  0
SCALE
  5
48
102
{ACAD_REACTORS
330
42
102
}
330
42
100
AcDbScale
 70
     0
300
3/32" = 1'-0"
140
0.09375
141
12.0
290
     0
  0
SCALE
  5
49
102
{ACAD_REACTORS
330
42
102
}
330
42
100
AcDbScale
 70
     0
300
1/8" = 1'-0"
140
0.125
141
12.0
290
     0
  0
SCALE
  5
4A
102
{ACAD_REACTORS
330
42
102
}
330
42
100
AcDbScale
 70
     0
300
3/16" = 1'-0"
140
0.1875
141
12.0
290
     0
  0
SCALE
  5
4B
102
{ACAD_REACTORS
330
42
102
}
330
42
100
AcDbScale
 70
     0
300
1/4" = 1'-0"
140
0.25
141
12.0
290
     0
  0
SCALE
  5
4C
102
{ACAD_REACTORS
330
42
102
}
330
42
100
AcDbScale
 70
     0
300
3/8" = 1'-0"
140
0.375
141
12.0
290
     0
  0
SCALE
  5
4D
102
{ACAD_REACTORS
330
42
102
}
330
42
100
AcDbScale
 70
     0
300
1/2" = 1'-0"
140
0.5
141
12.0
290
     0
  0
SCALE
  5
4E
102
{ACAD_REACTORS
330
42
102
}
330
42
100
AcDbScale
 70
     0
300
3/4" = 1'-0"
140
0.75
141
12.0
290
     0
  0
SCALE
  5
4F
102
{ACAD_REACTORS
330
42
102
}
330
42
100
AcDbScale
 70
     0
300
1" = 1'-0"
140
1.0
141
12.0
290
     0
  0
SCALE
  5
50
102
{ACAD_REACTORS
330
42
102
}
330
42
100
AcDbScale
 70
     0
300
1-1/2" = 1'-0"
140
1.5
141
12.0
290
     0
  0
SCALE
  5
51
102
{ACAD_REACTORS
330
42
102
}
330
42
100
AcDbScale
 70
     0
300
3" = 1'-0"
140
3.0
141
12.0
290
     0
  0
SCALE
  5
52
102
{ACAD_REACTORS
330
42
102
}
330
42
100
AcDbScale
 70
     0
300
6" = 1'-0"
140
6.0
141
12.0
290
     0
  0
SCALE
  5
53
102
{ACAD_REACTORS
330
42
102
}
330
42
100
AcDbScale
 70
     0
300
1'-0" = 1'-0"
140
12.0
141
12.0
290
     0
  0
TABLESTYLE
  5
64
102
{ACAD_XDICTIONARY
360
4D3
102
}
102
{ACAD_REACTORS
330
63
102
}
330
63
100
AcDbTableStyle
  3
Standard
 70
     0
 71
     0
 40
0.06
 41
0.06
280
     0
281
     0
  7
STANDARD
140
0.18
170
     2
 62
     0
 63
     7
283
     0
274
    -2
284
     1
 64
     0
275
    -2
285
     1
 65
     0
276
    -2
286
     1
 66
     0
277
    -2
287
     1
 67
     0
278
    -2
288
     1
 68
     0
279
    -2
289
     1
 69
     0
  7
STANDARD
140
0.25
170
     5
 62
     0
 63
     7
283
     0
274
    -2
284
     1
 64
     0
275
    -2
285
     1
 65
     0
276
    -2
286
     1
 66
     0
277
    -2
287
     1
 67
     0
278
    -2
288
     1
 68
     0
279
    -2
289
     1
 69
     0
  7
STANDARD
140
0.18
170
     5
 62
     0
 63
     7
283
     0
274
    -2
284
     1
 64
     0
275
    -2
285
     1
 65
     0
276
    -2
286
     1
 66
     0
277
    -2
287
     1
 67
     0
278
    -2
288
     1
 68
     0
279
    -2
289
     1
 69
     0
  0
VISUALSTYLE
  5
2F
102
{ACAD_XDICTIONARY
360
E30
102
}
102
{ACAD_REACTORS
330
29
102
}
330
29
100
AcDbVisualStyle
  2

 70
     4
 71
     0
 72
     2
 73
     0
 90
        0
 40
-0.6
 41
-30.0
 62
     5
 63
     7
 74
     1
 91
        4
 64
     7
 65
   257
 75
     1
175
     1
 42
1.0
 92
        0
 66
   257
 43
1.0
 76
     1
 77
     6
 78
     2
 67
     7
 79
     5
170
     0
171
     0
290
     0
174
     0
 93
        1
 44
0.0
173
     0
291
     0
 45
0.0
1001
ACAD
1000
AcDbSavedByObjectVersion
1070
     0
  0
VISUALSTYLE
  5
32B
102
{ACAD_XDICTIONARY
360
E5B
102
}
102
{ACAD_REACTORS
330
29
102
}
330
29
100
AcDbVisualStyle
  2

 70
     5
 71
     0
 72
     2
 73
     1
 90
        0
 40
-0.6
 41
-30.0
 62
     5
 63
     7
 74
     1
 91
        4
 64
     7
 65
   257
 75
     1
175
     1
 42
1.0
 92
        0
 66
   257
 43
1.0
 76
     1
 77
     6
 78
     2
 67
     7
 79
     5
170
     0
171
     0
290
     0
174
     0
 93
        1
 44
0.0
173
     0
291
     0
 45
0.0
1001
ACAD
1000
AcDbSavedByObjectVersion
1070
     0
  0
VISUALSTYLE
  5
2E
102
{ACAD_XDICTIONARY
360
E2E
102
}
102
{ACAD_REACTORS
330
29
102
}
330
29
100
AcDbVisualStyle
  2

 70
     7
 71
     1
 72
     0
 73
     1
 90
        0
 40
-0.6
 41
-30.0
 62
     5
 63
     7
 74
     0
 91
        4
 64
     7
 65
   257
 75
     1
175
     1
 42
1.0
 92
        8
 66
     7
 43
1.0
 76
     1
 77
     6
 78
     2
 67
     7
 79
     5
170
     0
171
     0
290
     0
174
     0
 93
        1
 44
0.0
173
     0
291
     1
 45
0.0
1001
ACAD
1000
AcDbSavedByObjectVersion
1070
     0
  0
VISUALSTYLE
  5
35
102
{ACAD_XDICTIONARY
360
E3C
102
}
102
{ACAD_REACTORS
330
29
102
}
330
29
100
AcDbVisualStyle
  2

 70
    12
 71
     2
 72
     2
 73
     0
 90
        0
 40
-0.6
 41
-30.0
 62
     5
 63
     7
 74
     1
 91
        4
 64
     7
 65
   257
 75
     1
175
     1
 42
1.0
 92
        8
 66
     7
 43
1.0
 76
     1
 77
     6
 78
     2
 67
     7
 79
     5
170
     0
171
     0
290
     0
174
     0
 93
        1
 44
50.0
173
     0
291
     1
 45
0.0
1001
ACAD
1000
AcDbSavedByObjectVersion
1070
     0
  0
VISUALSTYLE
  5
39
102
{ACAD_XDICTIONARY
360
E44
102
}
102
{ACAD_REACTORS
330
29
102
}
330
29
100
AcDbVisualStyle
  2

 70
    16
 71
     2
 72
     2
 73
     3
 90
        0
 40
-0.6
 41
-30.0
 62
     5
 63
     8
 74
     1
 91
        4
 64
     7
 65
   257
 75
     1
175
     1
 42
1.0
 92
        8
 66
     8
 43
1.0
 76
     1
 77
     6
 78
     2
 67
     7
 79
     5
170
     0
171
     0
290
     0
174
     0
 93
        1
 44
0.0
173
     0
291
     1
 45
0.0
1001
ACAD
1000
AcDbSavedByObjectVersion
1070
     0
  0
VISUALSTYLE
  5
32
102
{ACAD_XDICTIONARY
360
E36
102
}
102
{ACAD_REACTORS
330
29
102
}
330
29
100
AcDbVisualStyle
  2

 70
     9
 71
     3
 72
     2
 73
     0
 90
        0
 40
-0.6
 41
-30.0
 62
     5
 63
     7
 74
     2
 91
        2
 64
     7
 65
   257
 75
     1
175
     1
 42
179.0
 92
        8
 66
     7
 43
1.0
 76
     1
 77
     6
 78
     2
 67
     7
 79
     3
170
     0
171
     0
290
     0
174
     0
 93
        1
 44
0.0
173
     0
291
     0
 45
0.0
1001
ACAD
1000
AcDbSavedByObjectVersion
1070
     0
  0
VISUALSTYLE
  5
34
102
{ACAD_XDICTIONARY
360
E3A
102
}
102
{ACAD_REACTORS
330
29
102
}
330
29
100
AcDbVisualStyle
  2

 70
    11
 71
     2
 72
     2
 73
     0
 90
        0
 40
-0.6
 41
-30.0
 62
     5
 63
     7
 74
     1
 91
        4
 64
     7
 65
   257
 75
     1
175
     1
 42
1.0
 92
        8
 66
     7
 43
1.0
 76
     1
 77
     6
 78
     2
 67
     7
 79
     5
170
     0
171
     0
290
     0
174
     0
 93
        1
 44
-50.0
173
     0
291
     1
 45
0.0
1001
ACAD
1000
AcDbSavedByObjectVersion
1070
     0
  0
VISUALSTYLE
  5
41
102
{ACAD_XDICTIONARY
360
E54
102
}
102
{ACAD_REACTORS
330
29
102
}
330
29
100
AcDbVisualStyle
  2

 70
    22
 71
     2
 72
     2
 73
     0
 90
        0
 40
-0.6
 41
-30.0
 62
     5
 63
     7
 74
     1
 91
        4
 64
     7
 65
   257
 75
     1
175
     1
 42
1.0
 92
        8
 66
     7
 43
1.0
 76
     1
 77
     6
 78
     2
 67
     7
 79
     5
170
     0
171
     0
290
     0
174
     0
 93
        1
 44
0.0
173
     0
291
     1
 45
0.0
1001
ACAD
1000
AcDbSavedByObjectVersion
1070
     0
  0
VISUALSTYLE
  5
38
102
{ACAD_XDICTIONARY
360
E42
102
}
102
{ACAD_REACTORS
330
29
102
}
330
29
100
AcDbVisualStyle
  2

 70
    15
 71
     2
 72
     2
 73
     0
 90
        0
 40
-0.6
 41
-30.0
 62
     5
 63
     7
 74
     1
 91
        4
 64
     7
 65
   257
 75
     1
175
     1
 42
1.0
 92
        8
 66
     7
 43
1.0
 76
     1
 77
     6
 78
     2
 67
     7
 79
     5
170
     0
171
     0
290
     0
174
     0
 93
        1
 44
0.0
173
     0
291
     1
 45
0.0
1001
ACAD
1000
AcDbSavedByObjectVersion
1070
     0
  0
VISUALSTYLE
  5
2A
102
{ACAD_XDICTIONARY
360
E26
102
}
102
{ACAD_REACTORS
330
29
102
}
330
29
100
AcDbVisualStyle
  2

 70
     0
 71
     2
 72
     1
 73
     1
 90
        2
 40
-0.6
 41
30.0
 62
     5
 63
     7
 74
     0
 91
        0
 64
     7
 65
   257
 75
     1
175
     1
 42
1.0
 92
        8
 66
     7
 43
1.0
 76
     1
 77
     6
 78
     2
 67
     7
 79
     5
170
     0
171
     0
290
     0
174
     0
 93
       13
 44
0.0
173
     0
291
     1
 45
0.0
1001
ACAD
1000
AcDbSavedByObjectVersion
1070
     0
  0
VISUALSTYLE
  5
2B
102
{ACAD_XDICTIONARY
360
E28
102
}
102
{ACAD_REACTORS
330
29
102
}
330
29
100
AcDbVisualStyle
  2

 70
     1
 71
     2
 72
     1
 73
     1
 90
        2
 40
-0.6
 41
30.0
 62
     5
 63
     7
 74
     1
 91
        0
 64
     7
 65
   257
 75
     1
175
     1
 42
1.0
 92
        0
 66
   257
 43
1.0
 76
     1
 77
     6
 78
     2
 67
     7
 79
     5
170
     0
171
     0
290
     0
174
     0
 93
       13
 44
0.0
173
     0
291
     1
 45
0.0
1001
ACAD
1000
AcDbSavedByObjectVersion
1070
     0
  0
VISUALSTYLE
  5
2C
102
{ACAD_XDICTIONARY
360
E2A
102
}
102
{ACAD_REACTORS
330
29
102
}
330
29
100
AcDbVisualStyle
  2

 70
     2
 71
     2
 72
     2
 73
     1
 90
        2
 40
-0.6
 41
30.0
 62
     5
 63
     7
 74
     0
 91
        0
 64
     7
 65
   257
 75
     1
175
     1
 42
1.0
 92
        0
 66
     7
 43
1.0
 76
     1
 77
     6
 78
     2
 67
     7
 79
     5
170
     0
171
     0
290
     0
174
     0
 93
       13
 44
0.0
173
     0
291
     1
 45
0.0
1001
ACAD
1000
AcDbSavedByObjectVersion
1070
     0
  0
VISUALSTYLE
  5
2D
102
{ACAD_XDICTIONARY
360
E2C
102
}
102
{ACAD_REACTORS
330
29
102
}
330
29
100
AcDbVisualStyle
  2

 70
     3
 71
     2
 72
     2
 73
     1
 90
        2
 40
-0.6
 41
30.0
 62
     5
 63
     7
 74
     1
 91
        0
 64
     7
 65
   257
 75
     1
175
     1
 42
1.0
 92
        0
 66
   257
 43
1.0
 76
     1
 77
     6
 78
     2
 67
     7
 79
     5
170
     0
171
     0
290
     0
174
     0
 93
       13
 44
0.0
173
     0
291
     1
 45
0.0
1001
ACAD
1000
AcDbSavedByObjectVersion
1070
     0
  0
VISUALSTYLE
  5
31
102
{ACAD_XDICTIONARY
360
E34
102
}
102
{ACAD_REACTORS
330
29
102
}
330
29
100
AcDbVisualStyle
  2

 70
     6
 71
     1
 72
     2
 73
     2
 90
        0
 40
-0.6
 41
-30.0
 62
     5
 63
     7
 74
     2
 91
        2
 64
     7
 65
   257
 75
     2
175
     1
 42
40.0
 92
        0
 66
   257
 43
1.0
 76
     1
 77
     6
 78
     2
 67
     7
 79
     3
170
     0
171
     0
290
     0
174
     0
 93
        1
 44
0.0
173
     0
291
     0
 45
0.0
1001
ACAD
1000
AcDbSavedByObjectVersion
1070
     0
  0
VISUALSTYLE
  5
3F
102
{ACAD_XDICTIONARY
360
E50
102
}
102
{ACAD_REACTORS
330
29
102
}
330
29
100
AcDbVisualStyle
  2

 70
    20
 71
     2
 72
     2
 73
     0
 90
        0
 40
-0.6
 41
-30.0
 62
     5
 63
     7
 74
     1
 91
        4
 64
     7
 65
   257
 75
     1
175
     1
 42
1.0
 92
       10
 66
     7
 43
1.0
 76
     1
 77
     6
 78
     2
 67
     7
 79
     5
170
     0
171
     0
290
     0
174
     0
 93
        1
 44
0.0
173
     0
291
     1
 45
0.0
1001
ACAD
1000
AcDbSavedByObjectVersion
1070
     0
  0
VISUALSTYLE
  5
37
102
{ACAD_XDICTIONARY
360
E40
102
}
102
{ACAD_REACTORS
330
29
102
}
330
29
100
AcDbVisualStyle
  2

 70
    14
 71
     2
 72
     2
 73
     0
 90
        0
 40
-0.6
 41
-30.0
 62
     5
 63
     7
 74
     1
 91
        4
 64
     7
 65
   257
 75
     7
175
     7
 42
1.0
 92
        8
 66
     7
 43
1.0
 76
     1
 77
     6
 78
     2
 67
     7
 79
     5
170
     0
171
     0
290
     0
174
     0
 93
        1
 44
0.0
173
     0
291
     1
 45
0.0
1001
ACAD
1000
AcDbSavedByObjectVersion
1070
     0
  0
VISUALSTYLE
  5
40
102
{ACAD_XDICTIONARY
360
E52
102
}
102
{ACAD_REACTORS
330
29
102
}
330
29
100
AcDbVisualStyle
  2

 70
    21
 71
     2
 72
     2
 73
     0
 90
        0
 40
-0.6
 41
-30.0
 62
     5
 63
     7
 74
     1
 91
        4
 64
     7
 65
   257
 75
     1
175
     1
 42
1.0
 92
        9
 66
     7
 43
1.0
 76
     1
 77
     6
 78
     2
 67
     7
 79
     5
170
     0
171
     0
290
     0
174
     0
 93
        1
 44
0.0
173
     0
291
     1
 45
0.0
1001
ACAD
1000
AcDbSavedByObjectVersion
1070
     0
  0
VISUALSTYLE
  5
33
102
{ACAD_XDICTIONARY
360
E38
102
}
102
{ACAD_REACTORS
330
29
102
}
330
29
100
AcDbVisualStyle
  2

 70
     8
 71
     2
 72
     3
 73
     0
 90
        2
 40
-0.6
 41
30.0
 62
     5
 63
     7
 74
     0
 91
        0
 64
     7
 65
   257
 75
     1
175
     1
 42
1.0
 92
        8
 66
   257
 43
1.0
 76
     1
 77
     6
 78
     2
 67
     7
 79
     3
170
     0
171
     0
290
     0
174
     0
 93
       13
 44
0.0
173
     0
291
     0
 45
0.0
1001
ACAD
1000
AcDbSavedByObjectVersion
1070
     0
  0
VISUALSTYLE
  5
3E
102
{ACAD_XDICTIONARY
360
E4E
102
}
102
{ACAD_REACTORS
330
29
102
}
330
29
100
AcDbVisualStyle
  2

 70
    27
 71
     2
 72
     2
 73
     1
 90
        2
 40
-0.6
 41
30.0
 62
     5
 63
     7
 74
     0
 91
        4
 64
     7
 65
   257
 75
     1
175
     1
 42
1.0
 92
        8
 66
   257
 43
1.0
 76
     1
 77
     6
 78
     2
 67
     8
 79
     3
170
     0
171
     0
290
     0
174
     0
 93
        5
 44
0.0
173
     0
291
     0
 45
0.0
1001
ACAD
1000
AcDbSavedByObjectVersion
1070
     0
  0
VISUALSTYLE
  5
3D
102
{ACAD_XDICTIONARY
360
E4C
102
}
102
{ACAD_REACTORS
330
29
102
}
330
29
100
AcDbVisualStyle
  2

 70
    26
 71
     2
 72
     2
 73
     1
 90
        2
 40
-0.6
 41
30.0
 62
     5
 63
     7
 74
     1
 91
       10
 64
     7
 65
   257
 75
     2
175
     1
 42
1.0
 92
        8
 66
   257
 43
1.0
 76
     1
 77
     6
 78
     2
 67
     7
 79
     3
170
     0
171
     0
290
     0
174
     0
 93
        5
 44
0.0
173
     0
291
     0
 45
0.0
1001
ACAD
1000
AcDbSavedByObjectVersion
1070
     0
  0
VISUALSTYLE
  5
3A
102
{ACAD_XDICTIONARY
360
E46
102
}
102
{ACAD_REACTORS
330
29
102
}
330
29
100
AcDbVisualStyle
  2

 70
    23
 71
     2
 72
     2
 73
     3
 90
        0
 40
-0.6
 41
-30.0
 62
     5
 63
     7
 74
     2
 91
        2
 64
     7
 65
     7
 75
     1
175
     1
 42
40.0
 92
        8
 66
     7
 43
1.0
 76
     1
 77
     6
 78
     2
 67
     7
 79
     3
170
     0
171
     0
290
     0
174
     0
 93
        1
 44
0.0
173
     0
291
     0
 45
0.0
1001
ACAD
1000
AcDbSavedByObjectVersion
1070
     0
  0
VISUALSTYLE
  5
3B
102
{ACAD_XDICTIONARY
360
E48
102
}
102
{ACAD_REACTORS
330
29
102
}
330
29
100
AcDbVisualStyle
  2

 70
    24
 71
     1
 72
     2
 73
     2
 90
        0
 40
-0.6
 41
-30.0
 62
     5
 63
     7
 74
     2
 91
        2
 64
     7
 65
     7
 75
     1
175
     1
 42
40.0
 92
       11
 66
     7
 43
1.0
 76
     1
 77
     6
 78
     2
 67
     7
 79
     6
170
     0
171
     0
290
     0
174
     0
 93
        1
 44
0.0
173
     0
291
     0
 45
0.0
1001
ACAD
1000
AcDbSavedByObjectVersion
1070
     0
  0
VISUALSTYLE
  5
36
102
{ACAD_XDICTIONARY
360
E3E
102
}
102
{ACAD_REACTORS
330
29
102
}
330
29
100
AcDbVisualStyle
  2

 70
    13
 71
     2
 72
     2
 73
     0
 90
        0
 40
-0.6
 41
-30.0
 62
     5
 63
     7
 74
     1
 91
        4
 64
     7
 65
   257
 75
     1
175
     1
 42
1.0
 92
       12
 66
     7
 43
1.0
 76
     1
 77
     6
 78
     2
 67
     7
 79
     5
170
     0
171
     0
290
     0
174
     0
 93
        1
 44
0.0
173
     0
291
     1
 45
0.0
1001
ACAD
1000
AcDbSavedByObjectVersion
1070
     0
  0
VISUALSTYLE
  5
30
102
{ACAD_XDICTIONARY
360
E32
102
}
102
{ACAD_REACTORS
330
29
102
}
330
29
100
AcDbVisualStyle
  2

 70
     5
 71
     0
 72
     2
 73
     0
 90
        0
 40
-0.6
 41
-30.0
 62
     5
 63
     7
 74
     1
 91
        4
 64
     7
 65
   257
 75
     1
175
     1
 42
1.0
 92
        0
 66
   257
 43
1.0
 76
     1
 77
     6
 78
     2
 67
     7
 79
     3
170
     0
171
     0
290
     0
174
     0
 93
        1
 44
0.0
173
     0
291
     0
 45
0.0
1001
ACAD
1000
AcDbSavedByObjectVersion
1070
     0
  0
VISUALSTYLE
  5
3C
102
{ACAD_XDICTIONARY
360
E4A
102
}
102
{ACAD_REACTORS
330
29
102
}
330
29
100
AcDbVisualStyle
  2

 70
    25
 71
     2
 72
     2
 73
     1
 90
        1
 40
0.5
 41
-30.0
 62
     5
 63
     7
 74
     1
 91
        0
 64
     7
 65
   257
 75
     1
175
     1
 42
1.0
 92
        8
 66
     7
 43
1.0
 76
     1
 77
     6
 78
     2
 67
     7
 79
     3
170
     0
171
     0
290
     0
174
     0
 93
       13
 44
0.0
173
     0
291
     0
 45
0.0
1001
ACAD
1000
AcDbSavedByObjectVersion
1070
     0
  0
DICTIONARYVAR
  5
4CE
102
{ACAD_REACTORS
330
4CB
102
}
330
4CB
100
DictionaryVariables
280
     0
  1
1:1
  0
DICTIONARYVAR
  5
4CD
102
{ACAD_REACTORS
330
4CB
102
}
330
4CB
100
DictionaryVariables
280
     0
  1
STANDARD
  0
DICTIONARYVAR
  5
4CC
102
{ACAD_REACTORS
330
4CB
102
}
330
4CB
100
DictionaryVariables
280
     0
  1
STANDARD
  0
DICTIONARYVAR
  5
4D1
102
{ACAD_REACTORS
330
4CB
102
}
330
4CB
100
DictionaryVariables
280
     0
  1
1
  0
DICTIONARYVAR
  5
4D0
102
{ACAD_REACTORS
330
4CB
102
}
330
4CB
100
DictionaryVariables
280
     0
  1
0
  0
DICTIONARYVAR
  5
4CF
102
{ACAD_REACTORS
330
4CB
102
}
330
4CB
100
DictionaryVariables
280
     0
  1
127
  0
DICTIONARYVAR
  5
D6C
102
{ACAD_REACTORS
330
4CB
102
}
330
4CB
100
DictionaryVariables
280
     0
  1
2
  0
DICTIONARY
  5
E59
330
6E
100
AcDbDictionary
280
     1
281
     1
  3
ACAD_XREC_ROUNDTRIP
360
E5A
  0
DICTIONARY
  5
E57
330
6A
100
AcDbDictionary
280
     1
281
     1
  3
ACAD_XREC_ROUNDTRIP
360
E58
  0
DICTIONARY
  5
1A
330
19
100
AcDbDictionary
280
     1
281
     1
  3
ACAD_XREC_ROUNDTRIP
360
4DC
  3
BUMPTILE
360
1C
  3
DIFFUSETILE
360
1B
  3
OPACITYTILE
360
1F
  3
REFLECTIONTILE
360
1E
  3
REFRACTIONTILE
360
20
  3
SPECULARTILE
360
1D
  0
DICTIONARY
  5
12
330
11
100
AcDbDictionary
280
     1
281
     1
  3
ACAD_XREC_ROUNDTRIP
360
4DB
  3
BUMPTILE
360
14
  3
DIFFUSETILE
360
13
  3
OPACITYTILE
360
17
  3
REFLECTIONTILE
360
16
  3
REFRACTIONTILE
360
18
  3
SPECULARTILE
360
15
  0
DICTIONARY
  5
22
330
21
100
AcDbDictionary
280
     1
281
     1
  3
ACAD_XREC_ROUNDTRIP
360
4DD
  3
BUMPTILE
360
24
  3
DIFFUSETILE
360
23
  3
OPACITYTILE
360
27
  3
REFLECTIONTILE
360
26
  3
REFRACTIONTILE
360
28
  3
SPECULARTILE
360
25
  0
DICTIONARY
  5
4D3
330
64
100
AcDbDictionary
280
     1
281
     1
  3
ACAD_ROUNDTRIP_2008_TABLESTYLE_CELLSTYLEMAP
360
E1F
  3
ACAD_XREC_ROUNDTRIP
360
E56
  0
DICTIONARY
  5
E30
330
2F
100
AcDbDictionary
280
     1
281
     1
  3
ACAD_XREC_ROUNDTRIP
360
E31
  0
DICTIONARY
  5
E5B
330
32B
100
AcDbDictionary
280
     1
281
     1
  3
ACAD_XREC_ROUNDTRIP
360
E5C
  0
DICTIONARY
  5
E2E
330
2E
100
AcDbDictionary
280
     1
281
     1
  3
ACAD_XREC_ROUNDTRIP
360
E2F
  0
DICTIONARY
  5
E3C
330
35
100
AcDbDictionary
280
     1
281
     1
  3
ACAD_XREC_ROUNDTRIP
360
E3D
  0
DICTIONARY
  5
E44
330
39
100
AcDbDictionary
280
     1
281
     1
  3
ACAD_XREC_ROUNDTRIP
360
E45
  0
DICTIONARY
  5
E36
330
32
100
AcDbDictionary
280
     1
281
     1
  3
ACAD_XREC_ROUNDTRIP
360
E37
  0
DICTIONARY
  5
E3A
330
34
100
AcDbDictionary
280
     1
281
     1
  3
ACAD_XREC_ROUNDTRIP
360
E3B
  0
DICTIONARY
  5
E54
330
41
100
AcDbDictionary
280
     1
281
     1
  3
ACAD_XREC_ROUNDTRIP
360
E55
  0
DICTIONARY
  5
E42
330
38
100
AcDbDictionary
280
     1
281
     1
  3
ACAD_XREC_ROUNDTRIP
360
E43
  0
DICTIONARY
  5
E26
330
2A
100
AcDbDictionary
280
     1
281
     1
  3
ACAD_XREC_ROUNDTRIP
360
E27
  0
DICTIONARY
  5
E28
330
2B
100
AcDbDictionary
280
     1
281
     1
  3
ACAD_XREC_ROUNDTRIP
360
E29
  0
DICTIONARY
  5
E2A
330
2C
100
AcDbDictionary
280
     1
281
     1
  3
ACAD_XREC_ROUNDTRIP
360
E2B
  0
DICTIONARY
  5
E2C
330
2D
100
AcDbDictionary
280
     1
281
     1
  3
ACAD_XREC_ROUNDTRIP
360
E2D
  0
DICTIONARY
  5
E34
330
31
100
AcDbDictionary
280
     1
281
     1
  3
ACAD_XREC_ROUNDTRIP
360
E35
  0
DICTIONARY
  5
E50
330
3F
100
AcDbDictionary
280
     1
281
     1
  3
ACAD_XREC_ROUNDTRIP
360
E51
  0
DICTIONARY
  5
E40
330
37
100
AcDbDictionary
280
     1
281
     1
  3
ACAD_XREC_ROUNDTRIP
360
E41
  0
DICTIONARY
  5
E52
330
40
100
AcDbDictionary
280
     1
281
     1
  3
ACAD_XREC_ROUNDTRIP
360
E53
  0
DICTIONARY
  5
E38
330
33
100
AcDbDictionary
280
     1
281
     1
  3
ACAD_XREC_ROUNDTRIP
360
E39
  0
DICTIONARY
  5
E4E
330
3E
100
AcDbDictionary
280
     1
281
     1
  3
ACAD_XREC_ROUNDTRIP
360
E4F
  0
DICTIONARY
  5
E4C
330
3D
100
AcDbDictionary
280
     1
281
     1
  3
ACAD_XREC_ROUNDTRIP
360
E4D
  0
DICTIONARY
  5
E46
330
3A
100
AcDbDictionary
280
     1
281
     1
  3
ACAD_XREC_ROUNDTRIP
360
E47
  0
DICTIONARY
  5
E48
330
3B
100
AcDbDictionary
280
     1
281
     1
  3
ACAD_XREC_ROUNDTRIP
360
E49
  0
DICTIONARY
  5
E3E
330
36
100
AcDbDictionary
280
     1
281
     1
  3
ACAD_XREC_ROUNDTRIP
360
E3F
  0
DICTIONARY
  5
E32
330
30
100
AcDbDictionary
280
     1
281
     1
  3
ACAD_XREC_ROUNDTRIP
360
E33
  0
DICTIONARY
  5
E4A
330
3C
100
AcDbDictionary
280
     1
281
     1
  3
ACAD_XREC_ROUNDTRIP
360
E4B
  0
XRECORD
  5
E5A
102
{ACAD_REACTORS
330
E59
102
}
330
E59
100
AcDbXrecord
280
     1
102
SHADEPLOT
 70
     0
102
SHADEPLOTRESLEVEL
 70
     2
102
SHADEPLOTCUSTOMDPI
 70
   300
  0
XRECORD
  5
E58
102
{ACAD_REACTORS
330
E57
102
}
330
E57
100
AcDbXrecord
280
     1
102
SHADEPLOT
 70
     0
102
SHADEPLOTRESLEVEL
 70
     2
102
SHADEPLOTCUSTOMDPI
 70
   300
  0
XRECORD
  5
4DC
102
{ACAD_REACTORS
330
1A
102
}
330
1A
100
AcDbXrecord
280
     1
102
MATERIAL
148
0.0
149
0.0
149
0.0
 93
        0
 94
      127
282
     0
 72
     0
 77
     0
171
     0
175
     0
179
     0
273
     0
  0
XRECORD
  5
1C
102
{ACAD_REACTORS
330
1A
102
}
330
1A
100
AcDbXrecord
280
     1
270
     1
271
     1
  0
XRECORD
  5
1B
102
{ACAD_REACTORS
330
1A
102
}
330
1A
100
AcDbXrecord
280
     1
270
     1
271
     1
  0
XRECORD
  5
1F
102
{ACAD_REACTORS
330
1A
102
}
330
1A
100
AcDbXrecord
280
     1
270
     1
271
     1
  0
XRECORD
  5
1E
102
{ACAD_REACTORS
330
1A
102
}
330
1A
100
AcDbXrecord
280
     1
270
     1
271
     1
  0
XRECORD
  5
20
102
{ACAD_REACTORS
330
1A
102
}
330
1A
100
AcDbXrecord
280
     1
270
     1
271
     1
  0
XRECORD
  5
1D
102
{ACAD_REACTORS
330
1A
102
}
330
1A
100
AcDbXrecord
280
     1
270
     1
271
     1
  0
XRECORD
  5
4DB
102
{ACAD_REACTORS
330
12
102
}
330
12
100
AcDbXrecord
280
     1
102
MATERIAL
148
0.0
149
0.0
149
0.0
 93
        0
 94
      127
282
     0
 72
     0
 77
     0
171
     0
175
     0
179
     0
273
     0
  0
XRECORD
  5
14
102
{ACAD_REACTORS
330
12
102
}
330
12
100
AcDbXrecord
280
     1
270
     1
271
     1
  0
XRECORD
  5
13
102
{ACAD_REACTORS
330
12
102
}
330
12
100
AcDbXrecord
280
     1
270
     1
271
     1
  0
XRECORD
  5
17
102
{ACAD_REACTORS
330
12
102
}
330
12
100
AcDbXrecord
280
     1
270
     1
271
     1
  0
XRECORD
  5
16
102
{ACAD_REACTORS
330
12
102
}
330
12
100
AcDbXrecord
280
     1
270
     1
271
     1
  0
XRECORD
  5
18
102
{ACAD_REACTORS
330
12
102
}
330
12
100
AcDbXrecord
280
     1
270
     1
271
     1
  0
XRECORD
  5
15
102
{ACAD_REACTORS
330
12
102
}
330
12
100
AcDbXrecord
280
     1
270
     1
271
     1
  0
XRECORD
  5
4DD
102
{ACAD_REACTORS
330
22
102
}
330
22
100
AcDbXrecord
280
     1
102
MATERIAL
148
0.0
149
0.0
149
0.0
 93
        0
 94
      127
282
     0
 72
     0
 77
     0
171
     0
175
     0
179
     0
273
     0
  0
XRECORD
  5
24
102
{ACAD_REACTORS
330
22
102
}
330
22
100
AcDbXrecord
280
     1
270
     1
271
     1
  0
XRECORD
  5
23
102
{ACAD_REACTORS
330
22
102
}
330
22
100
AcDbXrecord
280
     1
270
     1
271
     1
  0
XRECORD
  5
27
102
{ACAD_REACTORS
330
22
102
}
330
22
100
AcDbXrecord
280
     1
270
     1
271
     1
  0
XRECORD
  5
26
102
{ACAD_REACTORS
330
22
102
}
330
22
100
AcDbXrecord
280
     1
270
     1
271
     1
  0
XRECORD
  5
28
102
{ACAD_REACTORS
330
22
102
}
330
22
100
AcDbXrecord
280
     1
270
     1
271
     1
  0
XRECORD
  5
25
102
{ACAD_REACTORS
330
22
102
}
330
22
100
AcDbXrecord
280
     1
270
     1
271
     1
  0
CELLSTYLEMAP
  5
E1F
102
{ACAD_REACTORS
330
4D3
102
}
330
4D3
100
AcDbCellStyleMap
 90
        3
300
CELLSTYLE
  1
TABLEFORMAT_BEGIN
 90
        5
170
     1
 91
        0
 92
    32768
 62
   257
 93
        1
300
CONTENTFORMAT
  1
CONTENTFORMAT_BEGIN
 90
        0
 91
        0
 92
      512
 93
        0
300

 40
0.0
140
1.0
 94
        5
 62
     0
340
55
144
0.25
309
CONTENTFORMAT_END
171
     1
301
MARGIN
  1
CELLMARGIN_BEGIN
 40
0.06
 40
0.06
 40
0.06
 40
0.06
 40
0.18
 40
0.18
309
CELLMARGIN_END
 94
        6
 95
        1
302
GRIDFORMAT
  1
GRIDFORMAT_BEGIN
 90
        0
 91
        1
 62
     0
 92
       -2
340
0
 93
        0
 40
0.045
309
GRIDFORMAT_END
 95
        2
302
GRIDFORMAT
  1
GRIDFORMAT_BEGIN
 90
        0
 91
        1
 62
     0
 92
       -2
340
0
 93
        0
 40
0.045
309
GRIDFORMAT_END
 95
        4
302
GRIDFORMAT
  1
GRIDFORMAT_BEGIN
 90
        0
 91
        1
 62
     0
 92
       -2
340
0
 93
        0
 40
0.045
309
GRIDFORMAT_END
 95
        8
302
GRIDFORMAT
  1
GRIDFORMAT_BEGIN
 90
        0
 91
        1
 62
     0
 92
       -2
340
0
 93
        0
 40
0.045
309
GRIDFORMAT_END
 95
       16
302
GRIDFORMAT
  1
GRIDFORMAT_BEGIN
 90
        0
 91
        1
 62
     0
 92
       -2
340
0
 93
        0
 40
0.045
309
GRIDFORMAT_END
 95
       32
302
GRIDFORMAT
  1
GRIDFORMAT_BEGIN
 90
        0
 91
        1
 62
     0
 92
       -2
340
0
 93
        0
 40
0.045
309
GRIDFORMAT_END
309
TABLEFORMAT_END
  1
CELLSTYLE_BEGIN
 90
        1
 91
        1
300
_TITLE
309
CELLSTYLE_END
300
CELLSTYLE
  1
TABLEFORMAT_BEGIN
 90
        5
170
     1
 91
        0
 92
        0
 62
   257
 93
        1
300
CONTENTFORMAT
  1
CONTENTFORMAT_BEGIN
 90
        0
 91
        0
 92
      512
 93
        0
300

 40
0.0
140
1.0
 94
        5
 62
     0
340
55
144
0.18
309
CONTENTFORMAT_END
171
     1
301
MARGIN
  1
CELLMARGIN_BEGIN
 40
0.06
 40
0.06
 40
0.06
 40
0.06
 40
0.18
 40
0.18
309
CELLMARGIN_END
 94
        6
 95
        1
302
GRIDFORMAT
  1
GRIDFORMAT_BEGIN
 90
        0
 91
        1
 62
     0
 92
       -2
340
0
 93
        0
 40
0.045
309
GRIDFORMAT_END
 95
        2
302
GRIDFORMAT
  1
GRIDFORMAT_BEGIN
 90
        0
 91
        1
 62
     0
 92
       -2
340
0
 93
        0
 40
0.045
309
GRIDFORMAT_END
 95
        4
302
GRIDFORMAT
  1
GRIDFORMAT_BEGIN
 90
        0
 91
        1
 62
     0
 92
       -2
340
0
 93
        0
 40
0.045
309
GRIDFORMAT_END
 95
        8
302
GRIDFORMAT
  1
GRIDFORMAT_BEGIN
 90
        0
 91
        1
 62
     0
 92
       -2
340
0
 93
        0
 40
0.045
309
GRIDFORMAT_END
 95
       16
302
GRIDFORMAT
  1
GRIDFORMAT_BEGIN
 90
        0
 91
        1
 62
     0
 92
       -2
340
0
 93
        0
 40
0.045
309
GRIDFORMAT_END
 95
       32
302
GRIDFORMAT
  1
GRIDFORMAT_BEGIN
 90
        0
 91
        1
 62
     0
 92
       -2
340
0
 93
        0
 40
0.045
309
GRIDFORMAT_END
309
TABLEFORMAT_END
  1
CELLSTYLE_BEGIN
 90
        2
 91
        1
300
_HEADER
309
CELLSTYLE_END
300
CELLSTYLE
  1
TABLEFORMAT_BEGIN
 90
        5
170
     1
 91
        0
 92
        0
 62
   257
 93
        1
300
CONTENTFORMAT
  1
CONTENTFORMAT_BEGIN
 90
        0
 91
        0
 92
      512
 93
        0
300

 40
0.0
140
1.0
 94
        2
 62
     0
340
55
144
0.18
309
CONTENTFORMAT_END
171
     1
301
MARGIN
  1
CELLMARGIN_BEGIN
 40
0.06
 40
0.06
 40
0.06
 40
0.06
 40
0.18
 40
0.18
309
CELLMARGIN_END
 94
        6
 95
        1
302
GRIDFORMAT
  1
GRIDFORMAT_BEGIN
 90
        0
 91
        1
 62
     0
 92
       -2
340
0
 93
        0
 40
0.045
309
GRIDFORMAT_END
 95
        2
302
GRIDFORMAT
  1
GRIDFORMAT_BEGIN
 90
        0
 91
        1
 62
     0
 92
       -2
340
0
 93
        0
 40
0.045
309
GRIDFORMAT_END
 95
        4
302
GRIDFORMAT
  1
GRIDFORMAT_BEGIN
 90
        0
 91
        1
 62
     0
 92
       -2
340
0
 93
        0
 40
0.045
309
GRIDFORMAT_END
 95
        8
302
GRIDFORMAT
  1
GRIDFORMAT_BEGIN
 90
        0
 91
        1
 62
     0
 92
       -2
340
0
 93
        0
 40
0.045
309
GRIDFORMAT_END
 95
       16
302
GRIDFORMAT
  1
GRIDFORMAT_BEGIN
 90
        0
 91
        1
 62
     0
 92
       -2
340
0
 93
        0
 40
0.045
309
GRIDFORMAT_END
 95
       32
302
GRIDFORMAT
  1
GRIDFORMAT_BEGIN
 90
        0
 91
        1
 62
     0
 92
       -2
340
0
 93
        0
 40
0.045
309
GRIDFORMAT_END
309
TABLEFORMAT_END
  1
CELLSTYLE_BEGIN
 90
        3
 91
        2
300
_DATA
309
CELLSTYLE_END
  0
XRECORD
  5
E56
102
{ACAD_REACTORS
330
4D3
102
}
330
4D3
100
AcDbXrecord
280
     1
102
ACAD_ROUNDTRIP_PRE2007_TABLESTYLE
 90
      512
 91
        0
  1

 92
      512
 93
        0
  2

 94
      512
 95
        0
  3

  0
XRECORD
  5
E31
102
{ACAD_REACTORS
330
E30
102
}
330
E30
100
AcDbXrecord
280
     1
102
RTVSPropertyOp0
 70
     1
102
RTVSPropertyOp1
 70
     1
102
RTVSPropertyOp2
 70
     1
102
RTVSPropertyOp3
 70
     1
102
RTVSPropertyOp4
 70
     1
102
RTVSPropertyOp5
 70
     1
102
RTVSPropertyOp6
 70
     1
102
RTVSPropertyOp7
 70
     1
102
RTVSPropertyOp8
 70
     1
102
RTVSPropertyOp9
 70
     1
102
RTVSPropertyOp10
 70
     1
102
RTVSPropertyOp11
 70
     1
102
RTVSPropertyOp12
 70
     1
102
RTVSPropertyOp13
 70
     1
102
RTVSPropertyOp14
 70
     1
102
RTVSPropertyOp15
 70
     1
102
RTVSPropertyOp16
 70
     1
102
RTVSPropertyOp17
 70
     1
102
RTVSPropertyOp18
 70
     1
102
RTVSPropertyOp19
 70
     1
102
RTVSPropertyOp20
 70
     1
102
RTVSPropertyOp21
 70
     1
102
RTVSPropertyOp22
 70
     1
102
RTVSPropertyOp23
 70
     1
102
RTVSPropertyOp24
 70
     1
102
RTVSPropertyOp25
 70
     1
102
RTVSPropertyOp26
 70
     1
102
RTVSPropertyOp27
 70
     1
102
RTVSPropertyOp28
 70
     1
102
RTVSPropertyOp29
 70
     1
102
RTVSPropertyOp30
 70
     1
102
RTVSPropertyOp31
 70
     1
102
RTVSPropertyOp32
 70
     1
  0
XRECORD
  5
E5C
102
{ACAD_REACTORS
330
E5B
102
}
330
E5B
100
AcDbXrecord
280
     1
102
RTVSPropertyOp0
 70
     1
102
RTVSPropertyOp1
 70
     1
102
RTVSPropertyOp2
 70
     1
102
RTVSPropertyOp3
 70
     1
102
RTVSPropertyOp4
 70
     1
102
RTVSPropertyOp5
 70
     1
102
RTVSPropertyOp6
 70
     1
102
RTVSPropertyOp7
 70
     1
102
RTVSPropertyOp8
 70
     1
102
RTVSPropertyOp9
 70
     1
102
RTVSPropertyOp10
 70
     1
102
RTVSPropertyOp11
 70
     1
102
RTVSPropertyOp12
 70
     1
102
RTVSPropertyOp13
 70
     1
102
RTVSPropertyOp14
 70
     1
102
RTVSPropertyOp15
 70
     1
102
RTVSPropertyOp16
 70
     1
102
RTVSPropertyOp17
 70
     1
102
RTVSPropertyOp18
 70
     1
102
RTVSPropertyOp19
 70
     1
102
RTVSPropertyOp20
 70
     1
102
RTVSPropertyOp21
 70
     1
102
RTVSPropertyOp22
 70
     1
102
RTVSPropertyOp23
 70
     1
102
RTVSPropertyOp24
 70
     1
102
RTVSPropertyOp25
 70
     1
102
RTVSPropertyOp26
 70
     1
102
RTVSPropertyOp27
 70
     1
102
RTVSPropertyOp28
 70
     1
102
RTVSPropertyOp29
 70
     1
102
RTVSPropertyOp30
 70
     1
102
RTVSPropertyOp31
 70
     1
102
RTVSPropertyOp32
 70
     1
  0
XRECORD
  5
E2F
102
{ACAD_REACTORS
330
E2E
102
}
330
E2E
100
AcDbXrecord
280
     1
102
RTVSPropertyOp0
 70
     1
102
RTVSPropertyOp1
 70
     1
102
RTVSPropertyOp2
 70
     1
102
RTVSPropertyOp3
 70
     1
102
RTVSPropertyOp4
 70
     1
102
RTVSPropertyOp5
 70
     1
102
RTVSPropertyOp6
 70
     1
102
RTVSPropertyOp7
 70
     1
102
RTVSPropertyOp8
 70
     1
102
RTVSPropertyOp9
 70
     1
102
RTVSPropertyOp10
 70
     1
102
RTVSPropertyOp11
 70
     1
102
RTVSPropertyOp12
 70
     1
102
RTVSPropertyOp13
 70
     1
102
RTVSPropertyOp14
 70
     1
102
RTVSPropertyOp15
 70
     1
102
RTVSPropertyOp16
 70
     1
102
RTVSPropertyOp17
 70
     1
102
RTVSPropertyOp18
 70
     1
102
RTVSPropertyOp19
 70
     1
102
RTVSPropertyOp20
 70
     1
102
RTVSPropertyOp21
 70
     1
102
RTVSPropertyOp22
 70
     1
102
RTVSPropertyOp23
 70
     1
102
RTVSPropertyOp24
 70
     1
102
RTVSPropertyOp25
 70
     1
102
RTVSPropertyOp26
 70
     1
102
RTVSPropertyOp27
 70
     1
102
RTVSPropertyOp28
 70
     1
102
RTVSPropertyOp29
 70
     1
102
RTVSPropertyOp30
 70
     1
102
RTVSPropertyOp31
 70
     1
102
RTVSPropertyOp32
 70
     1
  0
XRECORD
  5
E3D
102
{ACAD_REACTORS
330
E3C
102
}
330
E3C
100
AcDbXrecord
280
     1
102
RTVSPropertyOp0
 70
     1
102
RTVSPropertyOp1
 70
     1
102
RTVSPropertyOp2
 70
     1
102
RTVSPropertyOp3
 70
     1
102
RTVSPropertyOp4
 70
     1
102
RTVSPropertyOp5
 70
     1
102
RTVSPropertyOp6
 70
     1
102
RTVSPropertyOp7
 70
     1
102
RTVSPropertyOp8
 70
     1
102
RTVSPropertyOp9
 70
     1
102
RTVSPropertyOp10
 70
     1
102
RTVSPropertyOp11
 70
     1
102
RTVSPropertyOp12
 70
     1
102
RTVSPropertyOp13
 70
     1
102
RTVSPropertyOp14
 70
     1
102
RTVSPropertyOp15
 70
     1
102
RTVSPropertyOp16
 70
     1
102
RTVSPropertyOp17
 70
     1
102
RTVSPropertyOp18
 70
     1
102
RTVSPropertyOp19
 70
     1
102
RTVSPropertyOp20
 70
     1
102
RTVSPropertyOp21
 70
     1
102
RTVSPropertyOp22
 70
     1
102
RTVSPropertyOp23
 70
     1
102
RTVSPropertyOp24
 70
     1
102
RTVSPropertyOp25
 70
     1
102
RTVSPropertyOp26
 70
     1
102
RTVSPropertyOp27
 70
     1
102
RTVSPropertyOp28
 70
     1
102
RTVSPropertyOp29
 70
     1
102
RTVSPropertyOp30
 70
     1
102
RTVSPropertyOp31
 70
     1
102
RTVSPropertyOp32
 70
     1
  0
XRECORD
  5
E45
102
{ACAD_REACTORS
330
E44
102
}
330
E44
100
AcDbXrecord
280
     1
102
RTVSPropertyOp0
 70
     1
102
RTVSPropertyOp1
 70
     1
102
RTVSPropertyOp2
 70
     1
102
RTVSPropertyOp3
 70
     1
102
RTVSPropertyOp4
 70
     1
102
RTVSPropertyOp5
 70
     1
102
RTVSPropertyOp6
 70
     1
102
RTVSPropertyOp7
 70
     1
102
RTVSPropertyOp8
 70
     1
102
RTVSPropertyOp9
 70
     1
102
RTVSPropertyOp10
 70
     1
102
RTVSPropertyOp11
 70
     1
102
RTVSPropertyOp12
 70
     1
102
RTVSPropertyOp13
 70
     1
102
RTVSPropertyOp14
 70
     1
102
RTVSPropertyOp15
 70
     1
102
RTVSPropertyOp16
 70
     1
102
RTVSPropertyOp17
 70
     1
102
RTVSPropertyOp18
 70
     1
102
RTVSPropertyOp19
 70
     1
102
RTVSPropertyOp20
 70
     1
102
RTVSPropertyOp21
 70
     1
102
RTVSPropertyOp22
 70
     1
102
RTVSPropertyOp23
 70
     1
102
RTVSPropertyOp24
 70
     1
102
RTVSPropertyOp25
 70
     1
102
RTVSPropertyOp26
 70
     1
102
RTVSPropertyOp27
 70
     1
102
RTVSPropertyOp28
 70
     1
102
RTVSPropertyOp29
 70
     1
102
RTVSPropertyOp30
 70
     1
102
RTVSPropertyOp31
 70
     1
102
RTVSPropertyOp32
 70
     1
  0
XRECORD
  5
E37
102
{ACAD_REACTORS
330
E36
102
}
330
E36
100
AcDbXrecord
280
     1
102
RTVSPropertyOp0
 70
     1
102
RTVSPropertyOp1
 70
     1
102
RTVSPropertyOp2
 70
     1
102
RTVSPropertyOp3
 70
     1
102
RTVSPropertyOp4
 70
     1
102
RTVSPropertyOp5
 70
     1
102
RTVSPropertyOp6
 70
     1
102
RTVSPropertyOp7
 70
     1
102
RTVSPropertyOp8
 70
     1
102
RTVSPropertyOp9
 70
     1
102
RTVSPropertyOp10
 70
     1
102
RTVSPropertyOp11
 70
     1
102
RTVSPropertyOp12
 70
     1
102
RTVSPropertyOp13
 70
     1
102
RTVSPropertyOp14
 70
     1
102
RTVSPropertyOp15
 70
     1
102
RTVSPropertyOp16
 70
     1
102
RTVSPropertyOp17
 70
     1
102
RTVSPropertyOp18
 70
     1
102
RTVSPropertyOp19
 70
     1
102
RTVSPropertyOp20
 70
     1
102
RTVSPropertyOp21
 70
     1
102
RTVSPropertyOp22
 70
     1
102
RTVSPropertyOp23
 70
     1
102
RTVSPropertyOp24
 70
     1
102
RTVSPropertyOp25
 70
     1
102
RTVSPropertyOp26
 70
     1
102
RTVSPropertyOp27
 70
     1
102
RTVSPropertyOp28
 70
     1
102
RTVSPropertyOp29
 70
     1
102
RTVSPropertyOp30
 70
     1
102
RTVSPropertyOp31
 70
     1
102
RTVSPropertyOp32
 70
     1
  0
XRECORD
  5
E3B
102
{ACAD_REACTORS
330
E3A
102
}
330
E3A
100
AcDbXrecord
280
     1
102
RTVSPropertyOp0
 70
     1
102
RTVSPropertyOp1
 70
     1
102
RTVSPropertyOp2
 70
     1
102
RTVSPropertyOp3
 70
     1
102
RTVSPropertyOp4
 70
     1
102
RTVSPropertyOp5
 70
     1
102
RTVSPropertyOp6
 70
     1
102
RTVSPropertyOp7
 70
     1
102
RTVSPropertyOp8
 70
     1
102
RTVSPropertyOp9
 70
     1
102
RTVSPropertyOp10
 70
     1
102
RTVSPropertyOp11
 70
     1
102
RTVSPropertyOp12
 70
     1
102
RTVSPropertyOp13
 70
     1
102
RTVSPropertyOp14
 70
     1
102
RTVSPropertyOp15
 70
     1
102
RTVSPropertyOp16
 70
     1
102
RTVSPropertyOp17
 70
     1
102
RTVSPropertyOp18
 70
     1
102
RTVSPropertyOp19
 70
     1
102
RTVSPropertyOp20
 70
     1
102
RTVSPropertyOp21
 70
     1
102
RTVSPropertyOp22
 70
     1
102
RTVSPropertyOp23
 70
     1
102
RTVSPropertyOp24
 70
     1
102
RTVSPropertyOp25
 70
     1
102
RTVSPropertyOp26
 70
     1
102
RTVSPropertyOp27
 70
     1
102
RTVSPropertyOp28
 70
     1
102
RTVSPropertyOp29
 70
     1
102
RTVSPropertyOp30
 70
     1
102
RTVSPropertyOp31
 70
     1
102
RTVSPropertyOp32
 70
     1
  0
XRECORD
  5
E55
102
{ACAD_REACTORS
330
E54
102
}
330
E54
100
AcDbXrecord
280
     1
102
RTVSPropertyOp0
 70
     0
102
RTVSPropertyOp1
 70
     0
102
RTVSPropertyOp2
 70
     0
102
RTVSPropertyOp3
 70
     0
102
RTVSPropertyOp4
 70
     0
102
RTVSPropertyOp5
 70
     0
102
RTVSPropertyOp6
 70
     0
102
RTVSPropertyOp7
 70
     0
102
RTVSPropertyOp8
 70
     0
102
RTVSPropertyOp9
 70
     0
102
RTVSPropertyOp10
 70
     0
102
RTVSPropertyOp11
 70
     0
102
RTVSPropertyOp12
 70
     0
102
RTVSPropertyOp13
 70
     0
102
RTVSPropertyOp14
 70
     2
102
RTVSPropertyOp15
 70
     0
102
RTVSPropertyOp16
 70
     0
102
RTVSPropertyOp17
 70
     0
102
RTVSPropertyOp18
 70
     0
102
RTVSPropertyOp19
 70
     0
102
RTVSPropertyOp20
 70
     0
102
RTVSPropertyOp21
 70
     0
102
RTVSPropertyOp22
 70
     0
102
RTVSPropertyOp23
 70
     0
102
RTVSPropertyOp24
 70
     0
102
RTVSPropertyOp25
 70
     0
102
RTVSPropertyOp26
 70
     0
102
RTVSPropertyOp27
 70
     0
102
RTVSPropertyOp28
 70
     0
102
RTVSPropertyOp29
 70
     0
102
RTVSPropertyOp30
 70
     0
102
RTVSPropertyOp31
 70
     0
102
RTVSPropertyOp32
 70
     0
  0
XRECORD
  5
E43
102
{ACAD_REACTORS
330
E42
102
}
330
E42
100
AcDbXrecord
280
     1
102
RTVSPropertyOp0
 70
     1
102
RTVSPropertyOp1
 70
     1
102
RTVSPropertyOp2
 70
     1
102
RTVSPropertyOp3
 70
     1
102
RTVSPropertyOp4
 70
     1
102
RTVSPropertyOp5
 70
     1
102
RTVSPropertyOp6
 70
     1
102
RTVSPropertyOp7
 70
     1
102
RTVSPropertyOp8
 70
     1
102
RTVSPropertyOp9
 70
     1
102
RTVSPropertyOp10
 70
     1
102
RTVSPropertyOp11
 70
     1
102
RTVSPropertyOp12
 70
     1
102
RTVSPropertyOp13
 70
     1
102
RTVSPropertyOp14
 70
     1
102
RTVSPropertyOp15
 70
     1
102
RTVSPropertyOp16
 70
     1
102
RTVSPropertyOp17
 70
     1
102
RTVSPropertyOp18
 70
     1
102
RTVSPropertyOp19
 70
     1
102
RTVSPropertyOp20
 70
     1
102
RTVSPropertyOp21
 70
     1
102
RTVSPropertyOp22
 70
     1
102
RTVSPropertyOp23
 70
     1
102
RTVSPropertyOp24
 70
     1
102
RTVSPropertyOp25
 70
     1
102
RTVSPropertyOp26
 70
     1
102
RTVSPropertyOp27
 70
     1
102
RTVSPropertyOp28
 70
     1
102
RTVSPropertyOp29
 70
     1
102
RTVSPropertyOp30
 70
     1
102
RTVSPropertyOp31
 70
     1
102
RTVSPropertyOp32
 70
     1
  0
XRECORD
  5
E27
102
{ACAD_REACTORS
330
E26
102
}
330
E26
100
AcDbXrecord
280
     1
102
RTVSPropertyOp0
 70
     1
102
RTVSPropertyOp1
 70
     1
102
RTVSPropertyOp2
 70
     1
102
RTVSPropertyOp3
 70
     1
102
RTVSPropertyOp4
 70
     1
102
RTVSPropertyOp5
 70
     1
102
RTVSPropertyOp6
 70
     1
102
RTVSPropertyOp7
 70
     1
102
RTVSPropertyOp8
 70
     1
102
RTVSPropertyOp9
 70
     1
102
RTVSPropertyOp10
 70
     1
102
RTVSPropertyOp11
 70
     1
102
RTVSPropertyOp12
 70
     1
102
RTVSPropertyOp13
 70
     1
102
RTVSPropertyOp14
 70
     1
102
RTVSPropertyOp15
 70
     1
102
RTVSPropertyOp16
 70
     1
102
RTVSPropertyOp17
 70
     1
102
RTVSPropertyOp18
 70
     1
102
RTVSPropertyOp19
 70
     1
102
RTVSPropertyOp20
 70
     1
102
RTVSPropertyOp21
 70
     1
102
RTVSPropertyOp22
 70
     1
102
RTVSPropertyOp23
 70
     1
102
RTVSPropertyOp24
 70
     1
102
RTVSPropertyOp25
 70
     1
102
RTVSPropertyOp26
 70
     1
102
RTVSPropertyOp27
 70
     1
102
RTVSPropertyOp28
 70
     1
102
RTVSPropertyOp29
 70
     1
102
RTVSPropertyOp30
 70
     1
102
RTVSPropertyOp31
 70
     1
102
RTVSPropertyOp32
 70
     1
  0
XRECORD
  5
E29
102
{ACAD_REACTORS
330
E28
102
}
330
E28
100
AcDbXrecord
280
     1
102
RTVSPropertyOp0
 70
     1
102
RTVSPropertyOp1
 70
     1
102
RTVSPropertyOp2
 70
     1
102
RTVSPropertyOp3
 70
     1
102
RTVSPropertyOp4
 70
     1
102
RTVSPropertyOp5
 70
     1
102
RTVSPropertyOp6
 70
     1
102
RTVSPropertyOp7
 70
     1
102
RTVSPropertyOp8
 70
     1
102
RTVSPropertyOp9
 70
     1
102
RTVSPropertyOp10
 70
     1
102
RTVSPropertyOp11
 70
     1
102
RTVSPropertyOp12
 70
     1
102
RTVSPropertyOp13
 70
     1
102
RTVSPropertyOp14
 70
     1
102
RTVSPropertyOp15
 70
     1
102
RTVSPropertyOp16
 70
     1
102
RTVSPropertyOp17
 70
     1
102
RTVSPropertyOp18
 70
     1
102
RTVSPropertyOp19
 70
     1
102
RTVSPropertyOp20
 70
     1
102
RTVSPropertyOp21
 70
     1
102
RTVSPropertyOp22
 70
     1
102
RTVSPropertyOp23
 70
     1
102
RTVSPropertyOp24
 70
     1
102
RTVSPropertyOp25
 70
     1
102
RTVSPropertyOp26
 70
     1
102
RTVSPropertyOp27
 70
     1
102
RTVSPropertyOp28
 70
     1
102
RTVSPropertyOp29
 70
     1
102
RTVSPropertyOp30
 70
     1
102
RTVSPropertyOp31
 70
     1
102
RTVSPropertyOp32
 70
     1
  0
XRECORD
  5
E2B
102
{ACAD_REACTORS
330
E2A
102
}
330
E2A
100
AcDbXrecord
280
     1
102
RTVSPropertyOp0
 70
     1
102
RTVSPropertyOp1
 70
     1
102
RTVSPropertyOp2
 70
     1
102
RTVSPropertyOp3
 70
     1
102
RTVSPropertyOp4
 70
     1
102
RTVSPropertyOp5
 70
     1
102
RTVSPropertyOp6
 70
     1
102
RTVSPropertyOp7
 70
     1
102
RTVSPropertyOp8
 70
     1
102
RTVSPropertyOp9
 70
     1
102
RTVSPropertyOp10
 70
     1
102
RTVSPropertyOp11
 70
     1
102
RTVSPropertyOp12
 70
     1
102
RTVSPropertyOp13
 70
     1
102
RTVSPropertyOp14
 70
     1
102
RTVSPropertyOp15
 70
     1
102
RTVSPropertyOp16
 70
     1
102
RTVSPropertyOp17
 70
     1
102
RTVSPropertyOp18
 70
     1
102
RTVSPropertyOp19
 70
     1
102
RTVSPropertyOp20
 70
     1
102
RTVSPropertyOp21
 70
     1
102
RTVSPropertyOp22
 70
     1
102
RTVSPropertyOp23
 70
     1
102
RTVSPropertyOp24
 70
     1
102
RTVSPropertyOp25
 70
     1
102
RTVSPropertyOp26
 70
     1
102
RTVSPropertyOp27
 70
     1
102
RTVSPropertyOp28
 70
     1
102
RTVSPropertyOp29
 70
     1
102
RTVSPropertyOp30
 70
     1
102
RTVSPropertyOp31
 70
     1
102
RTVSPropertyOp32
 70
     1
  0
XRECORD
  5
E2D
102
{ACAD_REACTORS
330
E2C
102
}
330
E2C
100
AcDbXrecord
280
     1
102
RTVSPropertyOp0
 70
     1
102
RTVSPropertyOp1
 70
     1
102
RTVSPropertyOp2
 70
     1
102
RTVSPropertyOp3
 70
     1
102
RTVSPropertyOp4
 70
     1
102
RTVSPropertyOp5
 70
     1
102
RTVSPropertyOp6
 70
     1
102
RTVSPropertyOp7
 70
     1
102
RTVSPropertyOp8
 70
     1
102
RTVSPropertyOp9
 70
     1
102
RTVSPropertyOp10
 70
     1
102
RTVSPropertyOp11
 70
     1
102
RTVSPropertyOp12
 70
     1
102
RTVSPropertyOp13
 70
     1
102
RTVSPropertyOp14
 70
     1
102
RTVSPropertyOp15
 70
     1
102
RTVSPropertyOp16
 70
     1
102
RTVSPropertyOp17
 70
     1
102
RTVSPropertyOp18
 70
     1
102
RTVSPropertyOp19
 70
     1
102
RTVSPropertyOp20
 70
     1
102
RTVSPropertyOp21
 70
     1
102
RTVSPropertyOp22
 70
     1
102
RTVSPropertyOp23
 70
     1
102
RTVSPropertyOp24
 70
     1
102
RTVSPropertyOp25
 70
     1
102
RTVSPropertyOp26
 70
     1
102
RTVSPropertyOp27
 70
     1
102
RTVSPropertyOp28
 70
     1
102
RTVSPropertyOp29
 70
     1
102
RTVSPropertyOp30
 70
     1
102
RTVSPropertyOp31
 70
     1
102
RTVSPropertyOp32
 70
     1
  0
XRECORD
  5
E35
102
{ACAD_REACTORS
330
E34
102
}
330
E34
100
AcDbXrecord
280
     1
102
RTVSPropertyOp0
 70
     1
102
RTVSPropertyOp1
 70
     1
102
RTVSPropertyOp2
 70
     1
102
RTVSPropertyOp3
 70
     1
102
RTVSPropertyOp4
 70
     1
102
RTVSPropertyOp5
 70
     1
102
RTVSPropertyOp6
 70
     1
102
RTVSPropertyOp7
 70
     1
102
RTVSPropertyOp8
 70
     1
102
RTVSPropertyOp9
 70
     1
102
RTVSPropertyOp10
 70
     1
102
RTVSPropertyOp11
 70
     1
102
RTVSPropertyOp12
 70
     1
102
RTVSPropertyOp13
 70
     1
102
RTVSPropertyOp14
 70
     1
102
RTVSPropertyOp15
 70
     1
102
RTVSPropertyOp16
 70
     1
102
RTVSPropertyOp17
 70
     1
102
RTVSPropertyOp18
 70
     1
102
RTVSPropertyOp19
 70
     1
102
RTVSPropertyOp20
 70
     1
102
RTVSPropertyOp21
 70
     1
102
RTVSPropertyOp22
 70
     1
102
RTVSPropertyOp23
 70
     1
102
RTVSPropertyOp24
 70
     1
102
RTVSPropertyOp25
 70
     1
102
RTVSPropertyOp26
 70
     1
102
RTVSPropertyOp27
 70
     1
102
RTVSPropertyOp28
 70
     1
102
RTVSPropertyOp29
 70
     1
102
RTVSPropertyOp30
 70
     1
102
RTVSPropertyOp31
 70
     1
102
RTVSPropertyOp32
 70
     1
  0
XRECORD
  5
E51
102
{ACAD_REACTORS
330
E50
102
}
330
E50
100
AcDbXrecord
280
     1
102
RTVSPropertyOp0
 70
     0
102
RTVSPropertyOp1
 70
     0
102
RTVSPropertyOp2
 70
     0
102
RTVSPropertyOp3
 70
     0
102
RTVSPropertyOp4
 70
     0
102
RTVSPropertyOp5
 70
     0
102
RTVSPropertyOp6
 70
     0
102
RTVSPropertyOp7
 70
     0
102
RTVSPropertyOp8
 70
     0
102
RTVSPropertyOp9
 70
     0
102
RTVSPropertyOp10
 70
     0
102
RTVSPropertyOp11
 70
     0
102
RTVSPropertyOp12
 70
     0
102
RTVSPropertyOp13
 70
     0
102
RTVSPropertyOp14
 70
     2
102
RTVSPropertyOp15
 70
     0
102
RTVSPropertyOp16
 70
     0
102
RTVSPropertyOp17
 70
     0
102
RTVSPropertyOp18
 70
     0
102
RTVSPropertyOp19
 70
     0
102
RTVSPropertyOp20
 70
     0
102
RTVSPropertyOp21
 70
     0
102
RTVSPropertyOp22
 70
     0
102
RTVSPropertyOp23
 70
     0
102
RTVSPropertyOp24
 70
     0
102
RTVSPropertyOp25
 70
     0
102
RTVSPropertyOp26
 70
     0
102
RTVSPropertyOp27
 70
     0
102
RTVSPropertyOp28
 70
     0
102
RTVSPropertyOp29
 70
     0
102
RTVSPropertyOp30
 70
     0
102
RTVSPropertyOp31
 70
     0
102
RTVSPropertyOp32
 70
     0
  0
XRECORD
  5
E41
102
{ACAD_REACTORS
330
E40
102
}
330
E40
100
AcDbXrecord
280
     1
102
RTVSPropertyOp0
 70
     1
102
RTVSPropertyOp1
 70
     1
102
RTVSPropertyOp2
 70
     1
102
RTVSPropertyOp3
 70
     1
102
RTVSPropertyOp4
 70
     1
102
RTVSPropertyOp5
 70
     1
102
RTVSPropertyOp6
 70
     1
102
RTVSPropertyOp7
 70
     1
102
RTVSPropertyOp8
 70
     1
102
RTVSPropertyOp9
 70
     1
102
RTVSPropertyOp10
 70
     1
102
RTVSPropertyOp11
 70
     1
102
RTVSPropertyOp12
 70
     1
102
RTVSPropertyOp13
 70
     1
102
RTVSPropertyOp14
 70
     1
102
RTVSPropertyOp15
 70
     1
102
RTVSPropertyOp16
 70
     1
102
RTVSPropertyOp17
 70
     1
102
RTVSPropertyOp18
 70
     1
102
RTVSPropertyOp19
 70
     1
102
RTVSPropertyOp20
 70
     1
102
RTVSPropertyOp21
 70
     1
102
RTVSPropertyOp22
 70
     1
102
RTVSPropertyOp23
 70
     1
102
RTVSPropertyOp24
 70
     1
102
RTVSPropertyOp25
 70
     1
102
RTVSPropertyOp26
 70
     1
102
RTVSPropertyOp27
 70
     1
102
RTVSPropertyOp28
 70
     1
102
RTVSPropertyOp29
 70
     1
102
RTVSPropertyOp30
 70
     1
102
RTVSPropertyOp31
 70
     1
102
RTVSPropertyOp32
 70
     1
  0
XRECORD
  5
E53
102
{ACAD_REACTORS
330
E52
102
}
330
E52
100
AcDbXrecord
280
     1
102
RTVSPropertyOp0
 70
     0
102
RTVSPropertyOp1
 70
     0
102
RTVSPropertyOp2
 70
     0
102
RTVSPropertyOp3
 70
     0
102
RTVSPropertyOp4
 70
     0
102
RTVSPropertyOp5
 70
     0
102
RTVSPropertyOp6
 70
     0
102
RTVSPropertyOp7
 70
     0
102
RTVSPropertyOp8
 70
     0
102
RTVSPropertyOp9
 70
     0
102
RTVSPropertyOp10
 70
     0
102
RTVSPropertyOp11
 70
     0
102
RTVSPropertyOp12
 70
     0
102
RTVSPropertyOp13
 70
     0
102
RTVSPropertyOp14
 70
     2
102
RTVSPropertyOp15
 70
     0
102
RTVSPropertyOp16
 70
     0
102
RTVSPropertyOp17
 70
     0
102
RTVSPropertyOp18
 70
     0
102
RTVSPropertyOp19
 70
     0
102
RTVSPropertyOp20
 70
     0
102
RTVSPropertyOp21
 70
     0
102
RTVSPropertyOp22
 70
     0
102
RTVSPropertyOp23
 70
     0
102
RTVSPropertyOp24
 70
     0
102
RTVSPropertyOp25
 70
     0
102
RTVSPropertyOp26
 70
     0
102
RTVSPropertyOp27
 70
     0
102
RTVSPropertyOp28
 70
     0
102
RTVSPropertyOp29
 70
     0
102
RTVSPropertyOp30
 70
     0
102
RTVSPropertyOp31
 70
     0
102
RTVSPropertyOp32
 70
     0
  0
XRECORD
  5
E39
102
{ACAD_REACTORS
330
E38
102
}
330
E38
100
AcDbXrecord
280
     1
102
RTVSPropertyOp0
 70
     1
102
RTVSPropertyOp1
 70
     1
102
RTVSPropertyOp2
 70
     1
102
RTVSPropertyOp3
 70
     1
102
RTVSPropertyOp4
 70
     1
102
RTVSPropertyOp5
 70
     1
102
RTVSPropertyOp6
 70
     1
102
RTVSPropertyOp7
 70
     1
102
RTVSPropertyOp8
 70
     1
102
RTVSPropertyOp9
 70
     1
102
RTVSPropertyOp10
 70
     1
102
RTVSPropertyOp11
 70
     1
102
RTVSPropertyOp12
 70
     1
102
RTVSPropertyOp13
 70
     1
102
RTVSPropertyOp14
 70
     1
102
RTVSPropertyOp15
 70
     1
102
RTVSPropertyOp16
 70
     1
102
RTVSPropertyOp17
 70
     1
102
RTVSPropertyOp18
 70
     1
102
RTVSPropertyOp19
 70
     1
102
RTVSPropertyOp20
 70
     1
102
RTVSPropertyOp21
 70
     1
102
RTVSPropertyOp22
 70
     1
102
RTVSPropertyOp23
 70
     1
102
RTVSPropertyOp24
 70
     1
102
RTVSPropertyOp25
 70
     1
102
RTVSPropertyOp26
 70
     1
102
RTVSPropertyOp27
 70
     1
102
RTVSPropertyOp28
 70
     1
102
RTVSPropertyOp29
 70
     1
102
RTVSPropertyOp30
 70
     1
102
RTVSPropertyOp31
 70
     1
102
RTVSPropertyOp32
 70
     1
  0
XRECORD
  5
E4F
102
{ACAD_REACTORS
330
E4E
102
}
330
E4E
100
AcDbXrecord
280
     1
102
RTVSPropertyOp0
 70
     1
102
RTVSPropertyOp1
 70
     1
102
RTVSPropertyOp2
 70
     1
102
RTVSPropertyOp3
 70
     1
102
RTVSPropertyOp4
 70
     1
102
RTVSPropertyOp5
 70
     1
102
RTVSPropertyOp6
 70
     1
102
RTVSPropertyOp7
 70
     1
102
RTVSPropertyOp8
 70
     1
102
RTVSPropertyOp9
 70
     1
102
RTVSPropertyOp10
 70
     1
102
RTVSPropertyOp11
 70
     1
102
RTVSPropertyOp12
 70
     1
102
RTVSPropertyOp13
 70
     1
102
RTVSPropertyOp14
 70
     1
102
RTVSPropertyOp15
 70
     1
102
RTVSPropertyOp16
 70
     1
102
RTVSPropertyOp17
 70
     1
102
RTVSPropertyOp18
 70
     1
102
RTVSPropertyOp19
 70
     1
102
RTVSPropertyOp20
 70
     1
102
RTVSPropertyOp21
 70
     1
102
RTVSPropertyOp22
 70
     1
102
RTVSPropertyOp23
 70
     1
102
RTVSPropertyOp24
 70
     1
102
RTVSPropertyOp25
 70
     1
102
RTVSPropertyOp26
 70
     1
102
RTVSPropertyOp27
 70
     1
102
RTVSPropertyOp28
 70
     1
102
RTVSPropertyOp29
 70
     1
102
RTVSPropertyOp30
 70
     1
102
RTVSPropertyOp31
 70
     1
102
RTVSPropertyOp32
 70
     1
  0
XRECORD
  5
E4D
102
{ACAD_REACTORS
330
E4C
102
}
330
E4C
100
AcDbXrecord
280
     1
102
RTVSPropertyOp0
 70
     1
102
RTVSPropertyOp1
 70
     1
102
RTVSPropertyOp2
 70
     1
102
RTVSPropertyOp3
 70
     1
102
RTVSPropertyOp4
 70
     1
102
RTVSPropertyOp5
 70
     1
102
RTVSPropertyOp6
 70
     1
102
RTVSPropertyOp7
 70
     1
102
RTVSPropertyOp8
 70
     1
102
RTVSPropertyOp9
 70
     1
102
RTVSPropertyOp10
 70
     1
102
RTVSPropertyOp11
 70
     1
102
RTVSPropertyOp12
 70
     1
102
RTVSPropertyOp13
 70
     1
102
RTVSPropertyOp14
 70
     1
102
RTVSPropertyOp15
 70
     1
102
RTVSPropertyOp16
 70
     1
102
RTVSPropertyOp17
 70
     1
102
RTVSPropertyOp18
 70
     1
102
RTVSPropertyOp19
 70
     1
102
RTVSPropertyOp20
 70
     1
102
RTVSPropertyOp21
 70
     1
102
RTVSPropertyOp22
 70
     1
102
RTVSPropertyOp23
 70
     1
102
RTVSPropertyOp24
 70
     1
102
RTVSPropertyOp25
 70
     1
102
RTVSPropertyOp26
 70
     1
102
RTVSPropertyOp27
 70
     1
102
RTVSPropertyOp28
 70
     1
102
RTVSPropertyOp29
 70
     1
102
RTVSPropertyOp30
 70
     1
102
RTVSPropertyOp31
 70
     1
102
RTVSPropertyOp32
 70
     1
  0
XRECORD
  5
E47
102
{ACAD_REACTORS
330
E46
102
}
330
E46
100
AcDbXrecord
280
     1
102
RTVSPropertyOp0
 70
     1
102
RTVSPropertyOp1
 70
     1
102
RTVSPropertyOp2
 70
     1
102
RTVSPropertyOp3
 70
     1
102
RTVSPropertyOp4
 70
     1
102
RTVSPropertyOp5
 70
     1
102
RTVSPropertyOp6
 70
     1
102
RTVSPropertyOp7
 70
     1
102
RTVSPropertyOp8
 70
     1
102
RTVSPropertyOp9
 70
     1
102
RTVSPropertyOp10
 70
     1
102
RTVSPropertyOp11
 70
     1
102
RTVSPropertyOp12
 70
     1
102
RTVSPropertyOp13
 70
     1
102
RTVSPropertyOp14
 70
     1
102
RTVSPropertyOp15
 70
     1
102
RTVSPropertyOp16
 70
     1
102
RTVSPropertyOp17
 70
     1
102
RTVSPropertyOp18
 70
     1
102
RTVSPropertyOp19
 70
     1
102
RTVSPropertyOp20
 70
     1
102
RTVSPropertyOp21
 70
     1
102
RTVSPropertyOp22
 70
     1
102
RTVSPropertyOp23
 70
     1
102
RTVSPropertyOp24
 70
     1
102
RTVSPropertyOp25
 70
     1
102
RTVSPropertyOp26
 70
     1
102
RTVSPropertyOp27
 70
     1
102
RTVSPropertyOp28
 70
     1
102
RTVSPropertyOp29
 70
     1
102
RTVSPropertyOp30
 70
     1
102
RTVSPropertyOp31
 70
     1
102
RTVSPropertyOp32
 70
     1
  0
XRECORD
  5
E49
102
{ACAD_REACTORS
330
E48
102
}
330
E48
100
AcDbXrecord
280
     1
102
RTVSPropertyOp0
 70
     1
102
RTVSPropertyOp1
 70
     1
102
RTVSPropertyOp2
 70
     1
102
RTVSPropertyOp3
 70
     1
102
RTVSPropertyOp4
 70
     1
102
RTVSPropertyOp5
 70
     1
102
RTVSPropertyOp6
 70
     1
102
RTVSPropertyOp7
 70
     1
102
RTVSPropertyOp8
 70
     1
102
RTVSPropertyOp9
 70
     1
102
RTVSPropertyOp10
 70
     1
102
RTVSPropertyOp11
 70
     1
102
RTVSPropertyOp12
 70
     1
102
RTVSPropertyOp13
 70
     1
102
RTVSPropertyOp14
 70
     1
102
RTVSPropertyOp15
 70
     1
102
RTVSPropertyOp16
 70
     1
102
RTVSPropertyOp17
 70
     1
102
RTVSPropertyOp18
 70
     1
102
RTVSPropertyOp19
 70
     1
102
RTVSPropertyOp20
 70
     1
102
RTVSPropertyOp21
 70
     1
102
RTVSPropertyOp22
 70
     1
102
RTVSPropertyOp23
 70
     1
102
RTVSPropertyOp24
 70
     1
102
RTVSPropertyOp25
 70
     1
102
RTVSPropertyOp26
 70
     1
102
RTVSPropertyOp27
 70
     1
102
RTVSPropertyOp28
 70
     1
102
RTVSPropertyOp29
 70
     1
102
RTVSPropertyOp30
 70
     1
102
RTVSPropertyOp31
 70
     1
102
RTVSPropertyOp32
 70
     1
  0
XRECORD
  5
E3F
102
{ACAD_REACTORS
330
E3E
102
}
330
E3E
100
AcDbXrecord
280
     1
102
RTVSPropertyOp0
 70
     1
102
RTVSPropertyOp1
 70
     1
102
RTVSPropertyOp2
 70
     1
102
RTVSPropertyOp3
 70
     1
102
RTVSPropertyOp4
 70
     1
102
RTVSPropertyOp5
 70
     1
102
RTVSPropertyOp6
 70
     1
102
RTVSPropertyOp7
 70
     1
102
RTVSPropertyOp8
 70
     1
102
RTVSPropertyOp9
 70
     1
102
RTVSPropertyOp10
 70
     1
102
RTVSPropertyOp11
 70
     1
102
RTVSPropertyOp12
 70
     1
102
RTVSPropertyOp13
 70
     1
102
RTVSPropertyOp14
 70
     1
102
RTVSPropertyOp15
 70
     1
102
RTVSPropertyOp16
 70
     1
102
RTVSPropertyOp17
 70
     1
102
RTVSPropertyOp18
 70
     1
102
RTVSPropertyOp19
 70
     1
102
RTVSPropertyOp20
 70
     1
102
RTVSPropertyOp21
 70
     1
102
RTVSPropertyOp22
 70
     1
102
RTVSPropertyOp23
 70
     1
102
RTVSPropertyOp24
 70
     1
102
RTVSPropertyOp25
 70
     1
102
RTVSPropertyOp26
 70
     1
102
RTVSPropertyOp27
 70
     1
102
RTVSPropertyOp28
 70
     1
102
RTVSPropertyOp29
 70
     1
102
RTVSPropertyOp30
 70
     1
102
RTVSPropertyOp31
 70
     1
102
RTVSPropertyOp32
 70
     1
  0
XRECORD
  5
E33
102
{ACAD_REACTORS
330
E32
102
}
330
E32
100
AcDbXrecord
280
     1
102
RTVSPropertyOp0
 70
     1
102
RTVSPropertyOp1
 70
     1
102
RTVSPropertyOp2
 70
     1
102
RTVSPropertyOp3
 70
     1
102
RTVSPropertyOp4
 70
     1
102
RTVSPropertyOp5
 70
     1
102
RTVSPropertyOp6
 70
     1
102
RTVSPropertyOp7
 70
     1
102
RTVSPropertyOp8
 70
     1
102
RTVSPropertyOp9
 70
     1
102
RTVSPropertyOp10
 70
     1
102
RTVSPropertyOp11
 70
     1
102
RTVSPropertyOp12
 70
     1
102
RTVSPropertyOp13
 70
     1
102
RTVSPropertyOp14
 70
     1
102
RTVSPropertyOp15
 70
     1
102
RTVSPropertyOp16
 70
     1
102
RTVSPropertyOp17
 70
     1
102
RTVSPropertyOp18
 70
     1
102
RTVSPropertyOp19
 70
     1
102
RTVSPropertyOp20
 70
     1
102
RTVSPropertyOp21
 70
     1
102
RTVSPropertyOp22
 70
     1
102
RTVSPropertyOp23
 70
     1
102
RTVSPropertyOp24
 70
     1
102
RTVSPropertyOp25
 70
     1
102
RTVSPropertyOp26
 70
     1
102
RTVSPropertyOp27
 70
     1
102
RTVSPropertyOp28
 70
     1
102
RTVSPropertyOp29
 70
     1
102
RTVSPropertyOp30
 70
     1
102
RTVSPropertyOp31
 70
     1
102
RTVSPropertyOp32
 70
     1
  0
XRECORD
  5
E4B
102
{ACAD_REACTORS
330
E4A
102
}
330
E4A
100
AcDbXrecord
280
     1
102
RTVSPropertyOp0
 70
     1
102
RTVSPropertyOp1
 70
     1
102
RTVSPropertyOp2
 70
     1
102
RTVSPropertyOp3
 70
     1
102
RTVSPropertyOp4
 70
     1
102
RTVSPropertyOp5
 70
     1
102
RTVSPropertyOp6
 70
     1
102
RTVSPropertyOp7
 70
     1
102
RTVSPropertyOp8
 70
     1
102
RTVSPropertyOp9
 70
     1
102
RTVSPropertyOp10
 70
     1
102
RTVSPropertyOp11
 70
     1
102
RTVSPropertyOp12
 70
     1
102
RTVSPropertyOp13
 70
     1
102
RTVSPropertyOp14
 70
     1
102
RTVSPropertyOp15
 70
     1
102
RTVSPropertyOp16
 70
     1
102
RTVSPropertyOp17
 70
     1
102
RTVSPropertyOp18
 70
     1
102
RTVSPropertyOp19
 70
     1
102
RTVSPropertyOp20
 70
     1
102
RTVSPropertyOp21
 70
     1
102
RTVSPropertyOp22
 70
     1
102
RTVSPropertyOp23
 70
     1
102
RTVSPropertyOp24
 70
     1
102
RTVSPropertyOp25
 70
     1
102
RTVSPropertyOp26
 70
     1
102
RTVSPropertyOp27
 70
     1
102
RTVSPropertyOp28
 70
     1
102
RTVSPropertyOp29
 70
     1
102
RTVSPropertyOp30
 70
     1
102
RTVSPropertyOp31
 70
     1
102
RTVSPropertyOp32
 70
     1
  0
ENDSEC
  0
EOF
