  0
SECTION
  2
HEADER
  9
$ACADVER
  1
AC1015
  9
$ACADMAINTVER
 70
    20
  9
$DWGCODEPAGE
  3
ANSI_932
  9
$INSBASE
 10
0.0
 20
0.0
 30
0.0
  9
$EXTMIN
 10
-368.7354668068133
 20
-37.45097636842832
 30
-0.0000000349181948
  9
$EXTMAX
 10
36.3109295198542
 20
236.5771143391719
 30
0.0000000814935747
  9
$LIMMIN
 10
-368.710747
 20
-37.43425
  9
$LIMMAX
 10
36.317109
 20
236.623116
  9
$ORTHOMODE
 70
     1
  9
$REGENMODE
 70
     1
  9
$FILLMODE
 70
     1
  9
$QTEXTMODE
 70
     0
  9
$MIRRTEXT
 70
     0
  9
$LTSCALE
 40
6.750430999999998
  9
$ATTMODE
 70
     1
  9
$TEXTSIZE
 40
3.2
  9
$TRACEWID
 40
0.05
  9
$TEXTSTYLE
  7
高3.2
  9
$CLAYER
  8
0
  9
$CELTYPE
  6
CONTINUOUS
  9
$CECOLOR
 62
   256
  9
$CELTSCALE
 40
1.0
  9
$DISPSILH
 70
     0
  9
$DIMSCALE
 40
1.0
  9
$DIMASZ
 40
2.5
  9
$DIMEXO
 40
0.25
  9
$DIMDLI
 40
0.2
  9
$DIMRND
 40
0.0
  9
$DIMDLE
 40
0.0
  9
$DIMEXE
 40
1.25
  9
$DIMTP
 40
0.0
  9
$DIMTM
 40
0.0
  9
$DIMTXT
 40
3.0
  9
$DIMCEN
 40
0.0
  9
$DIMTSZ
 40
0.0
  9
$DIMTOL
 70
     0
  9
$DIMLIM
 70
     0
  9
$DIMTIH
 70
     0
  9
$DIMTOH
 70
     0
  9
$DIMSE1
 70
     0
  9
$DIMSE2
 70
     0
  9
$DIMTAD
 70
     3
  9
$DIMZIN
 70
     8
  9
$DIMBLK
  1
Open30
  9
$DIMASO
 70
     1
  9
$DIMSHO
 70
     1
  9
$DIMPOST
  1

  9
$DIMAPOST
  1

  9
$DIMALT
 70
     0
  9
$DIMALTD
 70
     3
  9
$DIMALTF
 40
0.03937007874016
  9
$DIMLFAC
 40
2.0
  9
$DIMTOFL
 70
     1
  9
$DIMTVP
 40
0.0
  9
$DIMTIX
 70
     0
  9
$DIMSOXD
 70
     0
  9
$DIMSAH
 70
     0
  9
$DIMBLK1
  1

  9
$DIMBLK2
  1

  9
$DIMSTYLE
  2
1／2
  9
$DIMCLRD
 70
     0
  9
$DIMCLRE
 70
     0
  9
$DIMCLRT
 70
     4
  9
$DIMTFAC
 40
1.0
  9
$DIMGAP
 40
0.625
  9
$DIMJUST
 70
     0
  9
$DIMSD1
 70
     0
  9
$DIMSD2
 70
     0
  9
$DIMTOLJ
 70
     0
  9
$DIMTZIN
 70
     8
  9
$DIMALTZ
 70
     0
  9
$DIMALTTZ
 70
     0
  9
$DIMUPT
 70
     1
  9
$DIMDEC
 70
     2
  9
$DIMTDEC
 70
     2
  9
$DIMALTU
 70
     2
  9
$DIMALTTD
 70
     3
  9
$DIMTXSTY
  7
STANDARD
  9
$DIMAUNIT
 70
     0
  9
$DIMADEC
 70
     1
  9
$DIMALTRND
 40
0.0
  9
$DIMAZIN
 70
     2
  9
$DIMDSEP
 70
    46
  9
$DIMATFIT
 70
     0
  9
$DIMFRAC
 70
     0
  9
$DIMLDRBLK
  1
Open30
  9
$DIMLUNIT
 70
     2
  9
$DIMLWD
 70
    -2
  9
$DIMLWE
 70
    -2
  9
$DIMTMOVE
 70
     0
  9
$LUNITS
 70
     2
  9
$LUPREC
 70
     4
  9
$SKETCHINC
 40
0.1
  9
$FILLETRAD
 40
0.0
  9
$AUNITS
 70
     0
  9
$AUPREC
 70
     0
  9
$MENU
  1
.
  9
$ELEVATION
 40
0.0
  9
$PELEVATION
 40
0.0
  9
$THICKNESS
 40
0.0
  9
$LIMCHECK
 70
     0
  9
$CHAMFERA
 40
0.0
  9
$CHAMFERB
 40
0.0
  9
$CHAMFERC
 40
0.0
  9
$CHAMFERD
 40
0.0
  9
$SKPOLY
 70
     0
  9
$TDCREATE
 40
2455646.753799572
  9
$TDUCREATE
 40
2455646.378799572
  9
$TDUPDATE
 40
2456259.599537176
  9
$TDUUPDATE
 40
2456259.224537176
  9
$TDINDWG
 40
0.0286235764
  9
$TDUSRTIMER
 40
0.0286234028
  9
$USRTIMER
 70
     1
  9
$ANGBASE
 50
0.0
  9
$ANGDIR
 70
     0
  9
$PDMODE
 70
     0
  9
$PDSIZE
 40
0.0
  9
$PLINEWID
 40
0.0
  9
$SPLFRAME
 70
     0
  9
$SPLINETYPE
 70
     6
  9
$SPLINESEGS
 70
     8
  9
$HANDSEED
  5
929
  9
$SURFTAB1
 70
     6
  9
$SURFTAB2
 70
     6
  9
$SURFTYPE
 70
     6
  9
$SURFU
 70
     6
  9
$SURFV
 70
     6
  9
$UCSBASE
  2

  9
$UCSNAME
  2

  9
$UCSORG
 10
0.0
 20
0.0
 30
0.0
  9
$UCSXDIR
 10
1.0
 20
0.0
 30
0.0
  9
$UCSYDIR
 10
0.0
 20
1.0
 30
0.0
  9
$UCSORTHOREF
  2

  9
$UCSORTHOVIEW
 70
     0
  9
$UCSORGTOP
 10
0.0
 20
0.0
 30
0.0
  9
$UCSORGBOTTOM
 10
0.0
 20
0.0
 30
0.0
  9
$UCSORGLEFT
 10
0.0
 20
0.0
 30
0.0
  9
$UCSORGRIGHT
 10
0.0
 20
0.0
 30
0.0
  9
$UCSORGFRONT
 10
0.0
 20
0.0
 30
0.0
  9
$UCSORGBACK
 10
0.0
 20
0.0
 30
0.0
  9
$PUCSBASE
  2

  9
$PUCSNAME
  2

  9
$PUCSORG
 10
0.0
 20
0.0
 30
0.0
  9
$PUCSXDIR
 10
1.0
 20
0.0
 30
0.0
  9
$PUCSYDIR
 10
0.0
 20
1.0
 30
0.0
  9
$PUCSORTHOREF
  2

  9
$PUCSORTHOVIEW
 70
     0
  9
$PUCSORGTOP
 10
0.0
 20
0.0
 30
0.0
  9
$PUCSORGBOTTOM
 10
0.0
 20
0.0
 30
0.0
  9
$PUCSORGLEFT
 10
0.0
 20
0.0
 30
0.0
  9
$PUCSORGRIGHT
 10
0.0
 20
0.0
 30
0.0
  9
$PUCSORGFRONT
 10
0.0
 20
0.0
 30
0.0
  9
$PUCSORGBACK
 10
0.0
 20
0.0
 30
0.0
  9
$USERI1
 70
     0
  9
$USERI2
 70
     0
  9
$USERI3
 70
     0
  9
$USERI4
 70
     0
  9
$USERI5
 70
     0
  9
$USERR1
 40
0.0
  9
$USERR2
 40
0.0
  9
$USERR3
 40
0.0
  9
$USERR4
 40
0.0
  9
$USERR5
 40
0.0
  9
$WORLDVIEW
 70
     1
  9
$SHADEDGE
 70
     3
  9
$SHADEDIF
 70
    70
  9
$TILEMODE
 70
     1
  9
$MAXACTVP
 70
    64
  9
$PINSBASE
 10
0.0
 20
0.0
 30
0.0
  9
$PLIMCHECK
 70
     0
  9
$PEXTMIN
 10
1.000000000000000E+20
 20
1.000000000000000E+20
 30
1.000000000000000E+20
  9
$PEXTMAX
 10
-1.000000000000000E+20
 20
-1.000000000000000E+20
 30
-1.000000000000000E+20
  9
$PLIMMIN
 10
0.0
 20
0.0
  9
$PLIMMAX
 10
12.0
 20
9.0
  9
$UNITMODE
 70
     0
  9
$VISRETAIN
 70
     1
  9
$PLINEGEN
 70
     0
  9
$PSLTSCALE
 70
     1
  9
$TREEDEPTH
 70
  3020
  9
$CMLSTYLE
  2
Standard
  9
$CMLJUST
 70
     0
  9
$CMLSCALE
 40
1.0
  9
$PROXYGRAPHICS
 70
     1
  9
$MEASUREMENT
 70
     0
  9
$CELWEIGHT
370
    -1
  9
$ENDCAPS
280
     0
  9
$JOINSTYLE
280
     0
  9
$LWDISPLAY
290
     0
  9
$INSUNITS
 70
     0
  9
$HYPERLINKBASE
  1

  9
$STYLESHEET
  1
n-plot.ctb
  9
$XEDIT
290
     1
  9
$CEPSNTYPE
380
     0
  9
$PSTYLEMODE
290
     1
  9
$FINGERPRINTGUID
  2
{889A59C5-F240-422F-A3AF-983FA19A3FC5}
  9
$VERSIONGUID
  2
{3CCF1EF7-978A-4E33-845F-78FB23052CD8}
  9
$EXTNAMES
290
     1
  9
$PSVPSCALE
 40
0.0
  9
$OLESTARTUP
290
     0
  0
ENDSEC
  0
SECTION
  2
CLASSES
  0
CLASS
  1
ACDBDICTIONARYWDFLT
  2
AcDbDictionaryWithDefault
  3
ObjectDBX Classes
 90
        0
280
     0
281
     0
  0
CLASS
  1
MATERIAL
  2
AcDbMaterial
  3
ObjectDBX Classes
 90
     1153
280
     0
281
     0
  0
CLASS
  1
VISUALSTYLE
  2
AcDbVisualStyle
  3
ObjectDBX Classes
 90
     4095
280
     0
281
     0
  0
CLASS
  1
TABLESTYLE
  2
AcDbTableStyle
  3
ObjectDBX Classes
 90
     4095
280
     0
281
     0
  0
CLASS
  1
DICTIONARYVAR
  2
AcDbDictionaryVar
  3
ObjectDBX Classes
 90
        0
280
     0
281
     0
  0
CLASS
  1
ACDBPLACEHOLDER
  2
AcDbPlaceHolder
  3
ObjectDBX Classes
 90
        0
280
     0
281
     0
  0
CLASS
  1
LAYOUT
  2
AcDbLayout
  3
ObjectDBX Classes
 90
        0
280
     0
281
     0
  0
CLASS
  1
SCALE
  2
AcDbScale
  3
ObjectDBX Classes
 90
     1153
280
     0
281
     0
  0
CLASS
  1
MLEADERSTYLE
  2
AcDbMLeaderStyle
  3
ACDB_MLEADERSTYLE_CLASS
 90
     4095
280
     0
281
     0
  0
CLASS
  1
SORTENTSTABLE
  2
AcDbSortentsTable
  3
ObjectDBX Classes
 90
        0
280
     0
281
     0
  0
CLASS
  1
CELLSTYLEMAP
  2
AcDbCellStyleMap
  3
ObjectDBX Classes
 90
     1152
280
     0
281
     0
  0
ENDSEC
  0
SECTION
  2
TABLES
  0
TABLE
  2
VPORT
  5
8
330
0
100
AcDbSymbolTable
 70
     1
  0
VPORT
  5
56
330
8
100
AcDbSymbolTableRecord
100
AcDbViewportTableRecord
  2
*Active
 70
     0
 10
0.0
 20
0.0
 11
1.0
 21
1.0
 12
-225.611317420057
 22
85.92834662949968
 13
0.0
 23
0.0
 14
1.0
 24
1.0
 15
0.0
 25
0.0
 16
0.0
 26
0.0
 36
1.0
 17
0.0
 27
0.0
 37
0.0
 40
466.7936933166595
 41
1.87027027027027
 42
50.0
 43
0.0
 44
0.0
 50
0.0
 51
0.0
 71
     0
 72
   100
 73
     1
 74
     1
 75
     0
 76
     0
 77
     0
 78
     0
281
     0
 65
     1
110
0.0
120
0.0
130
0.0
111
1.0
121
0.0
131
0.0
112
0.0
122
1.0
132
0.0
 79
     0
146
0.0
  0
ENDTAB
  0
TABLE
  2
LTYPE
  5
5
330
0
100
AcDbSymbolTable
 70
    27
  0
LTYPE
  5
28
330
5
100
AcDbSymbolTableRecord
100
AcDbLinetypeTableRecord
  2
ByBlock
 70
     0
  3

 72
    65
 73
     0
 40
0.0
  0
LTYPE
  5
29
330
5
100
AcDbSymbolTableRecord
100
AcDbLinetypeTableRecord
  2
ByLayer
 70
     0
  3

 72
    65
 73
     0
 40
0.0
  0
LTYPE
  5
2A
330
5
100
AcDbSymbolTableRecord
100
AcDbLinetypeTableRecord
  2
CONTINUOUS
 70
     0
  3
Solid-line
 72
    65
 73
     0
 40
0.0
  0
LTYPE
  5
3A
330
5
100
AcDbSymbolTableRecord
100
AcDbLinetypeTableRecord
  2
BORDER
 70
     0
  3
BORDER
 72
    65
 73
     6
 40
1.75
 49
0.5
 74
     0
 49
-0.25
 74
     0
 49
0.5
 74
     0
 49
-0.25
 74
     0
 49
0.0
 74
     0
 49
-0.25
 74
     0
  0
LTYPE
  5
3B
330
5
100
AcDbSymbolTableRecord
100
AcDbLinetypeTableRecord
  2
BORDER2
 70
     0
  3
BORDER2
 72
    65
 73
     6
 40
0.875
 49
0.25
 74
     0
 49
-0.125
 74
     0
 49
0.25
 74
     0
 49
-0.125
 74
     0
 49
0.0
 74
     0
 49
-0.125
 74
     0
  0
LTYPE
  5
3C
330
5
100
AcDbSymbolTableRecord
100
AcDbLinetypeTableRecord
  2
BORDERX2
 70
     0
  3
BORDERX2
 72
    65
 73
     6
 40
3.5
 49
1.0
 74
     0
 49
-0.5
 74
     0
 49
1.0
 74
     0
 49
-0.5
 74
     0
 49
0.0
 74
     0
 49
-0.5
 74
     0
  0
LTYPE
  5
3D
330
5
100
AcDbSymbolTableRecord
100
AcDbLinetypeTableRecord
  2
CENTER
 70
     0
  3
CENTER
 72
    65
 73
     4
 40
2.0
 49
1.25
 74
     0
 49
-0.25
 74
     0
 49
0.25
 74
     0
 49
-0.25
 74
     0
  0
LTYPE
  5
3E
330
5
100
AcDbSymbolTableRecord
100
AcDbLinetypeTableRecord
  2
CENTER2
 70
     0
  3
CENTER2
 72
    65
 73
     4
 40
1.125
 49
0.75
 74
     0
 49
-0.125
 74
     0
 49
0.125
 74
     0
 49
-0.125
 74
     0
  0
LTYPE
  5
3F
330
5
100
AcDbSymbolTableRecord
100
AcDbLinetypeTableRecord
  2
CENTERX2
 70
     0
  3
CENTERX2
 72
    65
 73
     4
 40
4.0
 49
2.5
 74
     0
 49
-0.5
 74
     0
 49
0.5
 74
     0
 49
-0.5
 74
     0
  0
LTYPE
  5
40
330
5
100
AcDbSymbolTableRecord
100
AcDbLinetypeTableRecord
  2
DASHDOT
 70
     0
  3
DASHDOT
 72
    65
 73
     4
 40
1.0
 49
0.5
 74
     0
 49
-0.25
 74
     0
 49
0.0
 74
     0
 49
-0.25
 74
     0
  0
LTYPE
  5
41
330
5
100
AcDbSymbolTableRecord
100
AcDbLinetypeTableRecord
  2
DASHDOT2
 70
     0
  3
DASHDOT2
 72
    65
 73
     4
 40
0.5
 49
0.25
 74
     0
 49
-0.125
 74
     0
 49
0.0
 74
     0
 49
-0.125
 74
     0
  0
LTYPE
  5
42
330
5
100
AcDbSymbolTableRecord
100
AcDbLinetypeTableRecord
  2
DASHDOTX2
 70
     0
  3
DASHDOTX2
 72
    65
 73
     4
 40
2.0
 49
1.0
 74
     0
 49
-0.5
 74
     0
 49
0.0
 74
     0
 49
-0.5
 74
     0
  0
LTYPE
  5
43
330
5
100
AcDbSymbolTableRecord
100
AcDbLinetypeTableRecord
  2
DASHED
 70
     0
  3
DASHED
 72
    65
 73
     2
 40
0.75
 49
0.5
 74
     0
 49
-0.25
 74
     0
  0
LTYPE
  5
44
330
5
100
AcDbSymbolTableRecord
100
AcDbLinetypeTableRecord
  2
DASHED2
 70
     0
  3
DASHED2
 72
    65
 73
     2
 40
0.375
 49
0.25
 74
     0
 49
-0.125
 74
     0
  0
LTYPE
  5
45
330
5
100
AcDbSymbolTableRecord
100
AcDbLinetypeTableRecord
  2
DASHEDX2
 70
     0
  3
DASHEDX2
 72
    65
 73
     2
 40
1.5
 49
1.0
 74
     0
 49
-0.5
 74
     0
  0
LTYPE
  5
46
330
5
100
AcDbSymbolTableRecord
100
AcDbLinetypeTableRecord
  2
DIVIDE
 70
     0
  3
DIVIDE
 72
    65
 73
     6
 40
1.25
 49
0.5
 74
     0
 49
-0.25
 74
     0
 49
0.0
 74
     0
 49
-0.25
 74
     0
 49
0.0
 74
     0
 49
-0.25
 74
     0
  0
LTYPE
  5
47
330
5
100
AcDbSymbolTableRecord
100
AcDbLinetypeTableRecord
  2
DIVIDE2
 70
     0
  3
DIVIDE2
 72
    65
 73
     6
 40
0.625
 49
0.25
 74
     0
 49
-0.125
 74
     0
 49
0.0
 74
     0
 49
-0.125
 74
     0
 49
0.0
 74
     0
 49
-0.125
 74
     0
  0
LTYPE
  5
48
330
5
100
AcDbSymbolTableRecord
100
AcDbLinetypeTableRecord
  2
DIVIDEX2
 70
     0
  3
DIVIDEX2
 72
    65
 73
     6
 40
2.5
 49
1.0
 74
     0
 49
-0.5
 74
     0
 49
0.0
 74
     0
 49
-0.5
 74
     0
 49
0.0
 74
     0
 49
-0.5
 74
     0
  0
LTYPE
  5
49
330
5
100
AcDbSymbolTableRecord
100
AcDbLinetypeTableRecord
  2
DOT
 70
     0
  3
DOT
 72
    65
 73
     2
 40
0.25
 49
0.0
 74
     0
 49
-0.25
 74
     0
  0
LTYPE
  5
4A
330
5
100
AcDbSymbolTableRecord
100
AcDbLinetypeTableRecord
  2
DOT2
 70
     0
  3
DOT2
 72
    65
 73
     2
 40
0.125
 49
0.0
 74
     0
 49
-0.125
 74
     0
  0
LTYPE
  5
4B
330
5
100
AcDbSymbolTableRecord
100
AcDbLinetypeTableRecord
  2
DOTX2
 70
     0
  3
DOTX2
 72
    65
 73
     2
 40
0.5
 49
0.0
 74
     0
 49
-0.5
 74
     0
  0
LTYPE
  5
4C
330
5
100
AcDbSymbolTableRecord
100
AcDbLinetypeTableRecord
  2
HIDDEN
 70
     0
  3
HIDDEN
 72
    65
 73
     2
 40
0.375
 49
0.25
 74
     0
 49
-0.125
 74
     0
  0
LTYPE
  5
4D
330
5
100
AcDbSymbolTableRecord
100
AcDbLinetypeTableRecord
  2
HIDDEN2
 70
     0
  3
HIDDEN2
 72
    65
 73
     2
 40
0.1875
 49
0.125
 74
     0
 49
-0.0625
 74
     0
  0
LTYPE
  5
4E
330
5
100
AcDbSymbolTableRecord
100
AcDbLinetypeTableRecord
  2
HIDDENX2
 70
     0
  3
HIDDENX2
 72
    65
 73
     2
 40
0.75
 49
0.5
 74
     0
 49
-0.25
 74
     0
  0
LTYPE
  5
4F
330
5
100
AcDbSymbolTableRecord
100
AcDbLinetypeTableRecord
  2
PHANTOM
 70
     0
  3
PHANTOM
 72
    65
 73
     6
 40
2.5
 49
1.25
 74
     0
 49
-0.25
 74
     0
 49
0.25
 74
     0
 49
-0.25
 74
     0
 49
0.25
 74
     0
 49
-0.25
 74
     0
  0
LTYPE
  5
50
330
5
100
AcDbSymbolTableRecord
100
AcDbLinetypeTableRecord
  2
PHANTOM2
 70
     0
  3
PHANTOM2
 72
    65
 73
     6
 40
1.25
 49
0.625
 74
     0
 49
-0.125
 74
     0
 49
0.125
 74
     0
 49
-0.125
 74
     0
 49
0.125
 74
     0
 49
-0.125
 74
     0
  0
LTYPE
  5
51
330
5
100
AcDbSymbolTableRecord
100
AcDbLinetypeTableRecord
  2
PHANTOMX2
 70
     0
  3
PHANTOMX2
 72
    65
 73
     6
 40
5.0
 49
2.5
 74
     0
 49
-0.5
 74
     0
 49
0.5
 74
     0
 49
-0.5
 74
     0
 49
0.5
 74
     0
 49
-0.5
 74
     0
  0
ENDTAB
  0
TABLE
  2
LAYER
  5
2
102
{ACAD_XDICTIONARY
360
603
102
}
330
0
100
AcDbSymbolTable
 70
     3
  0
LAYER
  5
25
102
{ACAD_XDICTIONARY
360
79C
102
}
330
2
100
AcDbSymbolTableRecord
100
AcDbLayerTableRecord
  2
0
 70
     0
 62
     7
  6
CONTINUOUS
370
    -3
390
F
  0
LAYER
  5
52
102
{ACAD_XDICTIONARY
360
79E
102
}
330
2
100
AcDbSymbolTableRecord
100
AcDbLayerTableRecord
  2
001
 70
     0
 62
     7
  6
CONTINUOUS
370
    -3
390
F
  0
LAYER
  5
5EF
330
2
100
AcDbSymbolTableRecord
100
AcDbLayerTableRecord
  2
Defpoints
 70
     0
 62
     7
  6
CONTINUOUS
290
     0
370
    -3
390
F
  0
ENDTAB
  0
TABLE
  2
STYLE
  5
3
330
0
100
AcDbSymbolTable
 70
     9
  0
STYLE
  5
26
330
3
100
AcDbSymbolTableRecord
100
AcDbTextStyleTableRecord
  2
STANDARD
 70
     0
 40
0.0
 41
1.0
 50
0.0
 71
     0
 42
0.2
  3
TXT
  4
BIGFONT
  0
STYLE
  5
53
330
3
100
AcDbSymbolTableRecord
100
AcDbTextStyleTableRecord
  2
TATEGAKI
 70
     4
 40
1.0
 41
1.0
 50
0.0
 71
     0
 42
0.2
  3
TXT
  4
BIGFONT
  0
STYLE
  5
5F0
330
3
100
AcDbSymbolTableRecord
100
AcDbTextStyleTableRecord
  2
高3.2
 70
     0
 40
3.2
 41
1.0
 50
0.0
 71
     0
 42
3.2
  3
txt.shx
  4
bigfont.shx
  0
STYLE
  5
5F1
330
3
100
AcDbSymbolTableRecord
100
AcDbTextStyleTableRecord
  2
高6.3
 70
     0
 40
6.299999999999999
 41
1.0
 50
0.0
 71
     0
 42
6.299999999999999
  3
txt.shx
  4
bigfont.shx
  0
STYLE
  5
5F2
330
3
100
AcDbSymbolTableRecord
100
AcDbTextStyleTableRecord
  2
高2.5
 70
     0
 40
2.5
 41
1.0
 50
0.0
 71
     0
 42
0.2
  3
txt.shx
  4
bigfont.shx
  0
STYLE
  5
5F3
330
3
100
AcDbSymbolTableRecord
100
AcDbTextStyleTableRecord
  2
高4.5
 70
     0
 40
4.5
 41
1.0
 50
0.0
 71
     0
 42
6.299999999999999
  3
txt.shx
  4
bigfont.shx
  0
STYLE
  5
5F4
330
3
100
AcDbSymbolTableRecord
100
AcDbTextStyleTableRecord
  2
高2
 70
     0
 40
2.0
 41
1.0
 50
0.0
 71
     0
 42
2.0
  3
txt.shx
  4
bigfont.shx
  0
ENDTAB
  0
TABLE
  2
VIEW
  5
6
330
0
100
AcDbSymbolTable
 70
     0
  0
ENDTAB
  0
TABLE
  2
UCS
  5
7
330
0
100
AcDbSymbolTable
 70
     0
  0
ENDTAB
  0
TABLE
  2
APPID
  5
9
330
0
100
AcDbSymbolTable
 70
    10
  0
APPID
  5
27
330
9
100
AcDbSymbolTableRecord
100
AcDbRegAppTableRecord
  2
ACAD
 70
     0
  0
APPID
  5
5FF
330
9
100
AcDbSymbolTableRecord
100
AcDbRegAppTableRecord
  2
ACAD_DSTYLE_DIMJOGGED_JOGANGLE_SYMBOL
 70
     0
  0
APPID
  5
600
330
9
100
AcDbSymbolTableRecord
100
AcDbRegAppTableRecord
  2
ACAD_DSTYLE_DIMJAG
 70
     0
  0
APPID
  5
601
330
9
100
AcDbSymbolTableRecord
100
AcDbRegAppTableRecord
  2
ACAD_DSTYLE_DIMBREAK
 70
     0
  0
APPID
  5
602
330
9
100
AcDbSymbolTableRecord
100
AcDbRegAppTableRecord
  2
ACAD_DSTYLE_DIMTALN
 70
     0
  0
APPID
  5
746
330
9
100
AcDbSymbolTableRecord
100
AcDbRegAppTableRecord
  2
ACAD_EXEMPT_FROM_CAD_STANDARDS
 70
     0
  0
APPID
  5
7E7
330
9
100
AcDbSymbolTableRecord
100
AcDbRegAppTableRecord
  2
ACAD_PSEXT
 70
     0
  0
APPID
  5
926
330
9
100
AcDbSymbolTableRecord
100
AcDbRegAppTableRecord
  2
ACAD_MLEADERVER
 70
     0
  0
APPID
  5
927
330
9
100
AcDbSymbolTableRecord
100
AcDbRegAppTableRecord
  2
ACAD_DSTYLE_DIMARC_LENGTH_SYMBOL
 70
     0
  0
APPID
  5
928
330
9
100
AcDbSymbolTableRecord
100
AcDbRegAppTableRecord
  2
ACAD_DSTYLE_DIMEXT_LENGTH
 70
     0
  0
ENDTAB
  0
TABLE
  2
DIMSTYLE
  5
A
330
0
100
AcDbSymbolTable
 70
    14
100
AcDbDimStyleTable
 71
     1
340
5F9
  0
DIMSTYLE
105
528
330
A
100
AcDbSymbolTableRecord
100
AcDbDimStyleTableRecord
  2
Standard
 70
     0
340
26
  0
DIMSTYLE
105
5F5
102
{ACAD_REACTORS
330
606
102
}
330
A
100
AcDbSymbolTableRecord
100
AcDbDimStyleTableRecord
  2
1：1
 70
     0
 41
2.5
 42
0.25
 43
0.2
 44
1.25
 73
     0
 74
     0
 77
     3
 78
     8
 79
     2
140
3.0
141
0.0
143
0.03937007874016
147
0.625
171
     3
172
     1
178
     4
179
     1
271
     2
272
     2
274
     3
283
     0
284
     8
288
     1
289
     0
340
26
341
55F
342
55F
1001
ACAD_DSTYLE_DIMARC_LENGTH_SYMBOL
1070
   379
1070
     2
1001
ACAD_DSTYLE_DIMEXT_LENGTH
1070
   378
1040
1.25
1001
ACAD_DSTYLE_DIMJOGGED_JOGANGLE_SYMBOL
1070
   384
1040
1.570796326794896
  0
DIMSTYLE
105
5F6
102
{ACAD_REACTORS
330
60B
102
}
330
A
100
AcDbSymbolTableRecord
100
AcDbDimStyleTableRecord
  2
2：1
 70
     0
 41
2.5
 42
0.25
 43
0.2
 44
1.25
 73
     0
 74
     0
 77
     3
 78
     8
 79
     2
140
3.0
141
0.0
143
0.03937007874016
144
0.5
147
0.625
171
     3
172
     1
178
     4
179
     1
271
     2
272
     2
274
     3
283
     0
284
     8
288
     1
289
     0
340
26
341
55F
342
55F
1001
ACAD_DSTYLE_DIMARC_LENGTH_SYMBOL
1070
   379
1070
     2
1001
ACAD_DSTYLE_DIMEXT_LENGTH
1070
   378
1040
1.25
1001
ACAD_DSTYLE_DIMJOGGED_JOGANGLE_SYMBOL
1070
   384
1040
1.570796326794896
  0
DIMSTYLE
105
5F7
102
{ACAD_REACTORS
330
60C
102
}
330
A
100
AcDbSymbolTableRecord
100
AcDbDimStyleTableRecord
  2
5：1
 70
     0
 41
2.5
 42
0.25
 43
0.2
 44
1.25
 73
     0
 74
     0
 77
     3
 78
     8
 79
     2
140
3.0
141
0.0
143
0.03937007874016
144
0.2
147
0.625
171
     3
172
     1
178
     4
179
     1
271
     2
272
     2
274
     3
283
     0
284
     8
288
     1
289
     0
340
26
341
55F
342
55F
1001
ACAD_DSTYLE_DIMARC_LENGTH_SYMBOL
1070
   379
1070
     2
1001
ACAD_DSTYLE_DIMEXT_LENGTH
1070
   378
1040
1.25
1001
ACAD_DSTYLE_DIMJOGGED_JOGANGLE_SYMBOL
1070
   384
1040
1.570796326794896
  0
DIMSTYLE
105
5F8
102
{ACAD_REACTORS
330
60A
102
}
330
A
100
AcDbSymbolTableRecord
100
AcDbDimStyleTableRecord
  2
10：1
 70
     0
 41
2.5
 42
0.25
 43
0.2
 44
1.25
 73
     0
 74
     0
 77
     3
 78
     8
 79
     2
140
3.0
141
0.0
143
0.03937007874016
144
0.1
147
0.625
171
     3
172
     1
178
     4
179
     1
271
     2
272
     2
274
     3
283
     0
284
     8
288
     1
289
     0
340
26
341
55F
342
55F
1001
ACAD_DSTYLE_DIMARC_LENGTH_SYMBOL
1070
   379
1070
     2
1001
ACAD_DSTYLE_DIMEXT_LENGTH
1070
   378
1040
1.25
1001
ACAD_DSTYLE_DIMJOGGED_JOGANGLE_SYMBOL
1070
   384
1040
1.570796326794896
  0
DIMSTYLE
105
5F9
102
{ACAD_REACTORS
330
608
102
}
330
A
100
AcDbSymbolTableRecord
100
AcDbDimStyleTableRecord
  2
1／2
 70
     0
 41
2.5
 42
0.25
 43
0.2
 44
1.25
 73
     0
 74
     0
 77
     3
 78
     8
 79
     2
140
3.0
141
0.0
143
0.03937007874016
144
2.0
147
0.625
171
     3
172
     1
178
     4
179
     1
271
     2
272
     2
274
     3
283
     0
284
     8
288
     1
289
     0
340
26
341
55F
342
55F
1001
ACAD_DSTYLE_DIMARC_LENGTH_SYMBOL
1070
   379
1070
     2
1001
ACAD_DSTYLE_DIMEXT_LENGTH
1070
   378
1040
1.25
1001
ACAD_DSTYLE_DIMJOGGED_JOGANGLE_SYMBOL
1070
   384
1040
1.570796326794896
  0
DIMSTYLE
105
5FA
102
{ACAD_REACTORS
330
607
102
}
330
A
100
AcDbSymbolTableRecord
100
AcDbDimStyleTableRecord
  2
1／5
 70
     0
 41
2.5
 42
0.25
 43
0.2
 44
1.25
 73
     0
 74
     0
 77
     3
 78
     8
 79
     2
140
3.0
141
0.0
143
0.03937007874016
144
5.0
147
0.625
171
     3
172
     1
178
     4
179
     1
271
     2
272
     2
274
     3
283
     0
284
     8
288
     1
289
     0
340
26
341
55F
342
55F
1001
ACAD_DSTYLE_DIMARC_LENGTH_SYMBOL
1070
   379
1070
     2
1001
ACAD_DSTYLE_DIMEXT_LENGTH
1070
   378
1040
1.25
1001
ACAD_DSTYLE_DIMJOGGED_JOGANGLE_SYMBOL
1070
   384
1040
1.570796326794896
  0
DIMSTYLE
105
5FB
102
{ACAD_REACTORS
330
609
102
}
330
A
100
AcDbSymbolTableRecord
100
AcDbDimStyleTableRecord
  2
1／10
 70
     0
 41
2.5
 42
0.25
 43
0.2
 44
1.25
 73
     0
 74
     0
 77
     3
 78
     8
 79
     2
140
3.0
141
0.0
143
0.03937007874016
144
10.0
147
0.625
171
     3
172
     1
178
     4
179
     1
271
     2
272
     2
274
     3
283
     0
284
     8
288
     1
289
     0
340
26
341
55F
342
55F
1001
ACAD_DSTYLE_DIMARC_LENGTH_SYMBOL
1070
   379
1070
     2
1001
ACAD_DSTYLE_DIMEXT_LENGTH
1070
   378
1040
1.25
1001
ACAD_DSTYLE_DIMJOGGED_JOGANGLE_SYMBOL
1070
   384
1040
1.570796326794896
  0
DIMSTYLE
105
5FC
102
{ACAD_REACTORS
330
60D
102
}
330
A
100
AcDbSymbolTableRecord
100
AcDbDimStyleTableRecord
  2
1／4
 70
     0
 41
2.5
 42
0.25
 43
0.2
 44
1.25
 73
     0
 74
     0
 77
     3
 78
     8
 79
     2
140
3.0
141
0.0
143
0.03937007874016
144
4.0
147
0.625
171
     3
172
     1
178
     4
179
     1
271
     2
272
     2
274
     3
283
     0
284
     8
288
     1
289
     0
340
26
341
55F
342
55F
1001
ACAD_DSTYLE_DIMARC_LENGTH_SYMBOL
1070
   379
1070
     2
1001
ACAD_DSTYLE_DIMEXT_LENGTH
1070
   378
1040
1.25
1001
ACAD_DSTYLE_DIMJOGGED_JOGANGLE_SYMBOL
1070
   384
1040
1.570796326794896
  0
DIMSTYLE
105
5FD
102
{ACAD_REACTORS
330
60E
102
}
330
A
100
AcDbSymbolTableRecord
100
AcDbDimStyleTableRecord
  2
1／3
 70
     0
 41
2.5
 42
0.25
 43
0.2
 44
1.25
 73
     0
 74
     0
 77
     3
 78
     8
 79
     2
140
3.0
141
0.0
143
0.03937007874016
144
3.0
147
0.625
171
     3
172
     1
178
     4
179
     1
271
     2
272
     2
274
     3
283
     0
284
     8
288
     1
289
     0
340
26
341
55F
342
55F
1001
ACAD_DSTYLE_DIMARC_LENGTH_SYMBOL
1070
   379
1070
     2
1001
ACAD_DSTYLE_DIMEXT_LENGTH
1070
   378
1040
1.25
1001
ACAD_DSTYLE_DIMJOGGED_JOGANGLE_SYMBOL
1070
   384
1040
1.570796326794896
  0
DIMSTYLE
105
5FE
102
{ACAD_REACTORS
330
60F
102
}
330
A
100
AcDbSymbolTableRecord
100
AcDbDimStyleTableRecord
  2
FREE
 70
     0
 41
2.5
 42
0.25
 43
0.2
 44
1.25
 73
     0
 74
     0
 77
     3
 78
     8
 79
     2
140
3.0
141
0.0
143
0.03937007874016
147
0.625
171
     3
172
     1
178
     4
179
     1
271
     2
272
     2
274
     3
283
     0
284
     8
288
     1
289
     0
340
26
341
55F
342
55F
1001
ACAD_DSTYLE_DIMBREAK
1070
   391
1040
3.75
1001
ACAD_DSTYLE_DIMJAG
1070
   388
1040
1.5
1001
ACAD_DSTYLE_DIMTALN
1070
   392
1070
     0
1001
ACAD_DSTYLE_DIMARC_LENGTH_SYMBOL
1070
   379
1070
     2
1001
ACAD_DSTYLE_DIMEXT_LENGTH
1070
   378
1040
1.25
1001
ACAD_DSTYLE_DIMJOGGED_JOGANGLE_SYMBOL
1070
   384
1040
1.570796326794896
  0
ENDTAB
  0
TABLE
  2
BLOCK_RECORD
  5
1
330
0
100
AcDbSymbolTable
 70
    34
  0
BLOCK_RECORD
  5
36
102
{ACAD_XDICTIONARY
360
791
102
}
330
1
100
AcDbSymbolTableRecord
100
AcDbBlockTableRecord
  2
*Model_Space
340
39
  0
BLOCK_RECORD
  5
32
330
1
100
AcDbSymbolTableRecord
100
AcDbBlockTableRecord
  2
*Paper_Space
340
35
  0
BLOCK_RECORD
  5
57
330
1
100
AcDbSymbolTableRecord
100
AcDbBlockTableRecord
  2
ARROW
340
0
102
{BLKREFS
331
64
331
65
331
70
331
71
331
7C
331
7D
331
88
331
89
102
}
  0
BLOCK_RECORD
  5
5F
330
1
100
AcDbSymbolTableRecord
100
AcDbBlockTableRecord
  2
*D1
340
0
  0
BLOCK_RECORD
  5
6B
330
1
100
AcDbSymbolTableRecord
100
AcDbBlockTableRecord
  2
*D2
340
0
  0
BLOCK_RECORD
  5
77
330
1
100
AcDbSymbolTableRecord
100
AcDbBlockTableRecord
  2
*D3
340
0
  0
BLOCK_RECORD
  5
83
330
1
100
AcDbSymbolTableRecord
100
AcDbBlockTableRecord
  2
*D4
340
0
  0
BLOCK_RECORD
  5
55F
330
1
100
AcDbSymbolTableRecord
100
AcDbBlockTableRecord
  2
_Open30
340
0
102
{BLKREFS
331
56C
331
56D
331
57A
331
57B
331
588
331
589
331
596
331
597
331
5A4
331
5A5
331
5B2
331
5B3
331
5CE
331
5CF
331
5DC
331
5DD
331
5C0
331
5C1
331
5E8
331
5E9
331
6DC
331
6DD
331
6E7
331
6E8
331
6F2
331
6F3
331
6FD
331
6FE
331
708
331
709
331
713
331
714
331
71E
331
71F
331
729
331
72A
331
734
331
735
331
73D
331
73E
331
74E
331
74F
331
75A
331
75B
331
77B
331
77C
331
784
331
785
102
}
  0
BLOCK_RECORD
  5
565
330
1
100
AcDbSymbolTableRecord
100
AcDbBlockTableRecord
  2
*D6
340
0
  0
BLOCK_RECORD
  5
573
330
1
100
AcDbSymbolTableRecord
100
AcDbBlockTableRecord
  2
*D7
340
0
  0
BLOCK_RECORD
  5
581
330
1
100
AcDbSymbolTableRecord
100
AcDbBlockTableRecord
  2
*D8
340
0
  0
BLOCK_RECORD
  5
58F
330
1
100
AcDbSymbolTableRecord
100
AcDbBlockTableRecord
  2
*D9
340
0
  0
BLOCK_RECORD
  5
59D
330
1
100
AcDbSymbolTableRecord
100
AcDbBlockTableRecord
  2
*D10
340
0
  0
BLOCK_RECORD
  5
5AB
330
1
100
AcDbSymbolTableRecord
100
AcDbBlockTableRecord
  2
*D11
340
0
  0
BLOCK_RECORD
  5
5B9
330
1
100
AcDbSymbolTableRecord
100
AcDbBlockTableRecord
  2
*D12
340
0
  0
BLOCK_RECORD
  5
5C7
330
1
100
AcDbSymbolTableRecord
100
AcDbBlockTableRecord
  2
*D13
340
0
  0
BLOCK_RECORD
  5
5D5
330
1
100
AcDbSymbolTableRecord
100
AcDbBlockTableRecord
  2
*D14
340
0
  0
BLOCK_RECORD
  5
5E3
330
1
100
AcDbSymbolTableRecord
100
AcDbBlockTableRecord
  2
*D15
340
0
  0
BLOCK_RECORD
  5
64D
330
1
100
AcDbSymbolTableRecord
100
AcDbBlockTableRecord
  2
*D17
340
0
  0
BLOCK_RECORD
  5
65B
330
1
100
AcDbSymbolTableRecord
100
AcDbBlockTableRecord
  2
*D18
340
0
  0
BLOCK_RECORD
  5
669
330
1
100
AcDbSymbolTableRecord
100
AcDbBlockTableRecord
  2
*D19
340
0
  0
BLOCK_RECORD
  5
677
330
1
100
AcDbSymbolTableRecord
100
AcDbBlockTableRecord
  2
*D20
340
0
  0
BLOCK_RECORD
  5
685
330
1
100
AcDbSymbolTableRecord
100
AcDbBlockTableRecord
  2
*D21
340
0
  0
BLOCK_RECORD
  5
693
330
1
100
AcDbSymbolTableRecord
100
AcDbBlockTableRecord
  2
*D22
340
0
  0
BLOCK_RECORD
  5
6A1
330
1
100
AcDbSymbolTableRecord
100
AcDbBlockTableRecord
  2
*D23
340
0
  0
BLOCK_RECORD
  5
6AF
330
1
100
AcDbSymbolTableRecord
100
AcDbBlockTableRecord
  2
*D24
340
0
  0
BLOCK_RECORD
  5
6BD
330
1
100
AcDbSymbolTableRecord
100
AcDbBlockTableRecord
  2
*D25
340
0
  0
BLOCK_RECORD
  5
6CB
330
1
100
AcDbSymbolTableRecord
100
AcDbBlockTableRecord
  2
*D26
340
0
  0
BLOCK_RECORD
  5
748
330
1
100
AcDbSymbolTableRecord
100
AcDbBlockTableRecord
  2
*D27
340
0
  0
BLOCK_RECORD
  5
754
330
1
100
AcDbSymbolTableRecord
100
AcDbBlockTableRecord
  2
*D28
340
0
  0
BLOCK_RECORD
  5
760
330
1
100
AcDbSymbolTableRecord
100
AcDbBlockTableRecord
  2
*D29
340
0
  0
BLOCK_RECORD
  5
76C
330
1
100
AcDbSymbolTableRecord
100
AcDbBlockTableRecord
  2
*D30
340
0
  0
ENDTAB
  0
ENDSEC
  0
SECTION
  2
BLOCKS
  0
BLOCK
  5
37
330
36
100
AcDbEntity
  8
0
100
AcDbBlockBegin
  2
*Model_Space
 70
     0
 10
0.0
 20
0.0
 30
0.0
  3
*Model_Space
  1

  0
ENDBLK
  5
38
330
36
100
AcDbEntity
  8
0
100
AcDbBlockEnd
  0
BLOCK
  5
33
330
32
100
AcDbEntity
 67
     1
  8
0
100
AcDbBlockBegin
  2
*Paper_Space
 70
     0
 10
0.0
 20
0.0
 30
0.0
  3
*Paper_Space
  1

  0
ENDBLK
  5
34
330
32
100
AcDbEntity
 67
     1
  8
0
100
AcDbBlockEnd
  0
BLOCK
  5
58
330
57
100
AcDbEntity
  8
0
100
AcDbBlockBegin
  2
ARROW
 70
     0
 10
0.0
 20
0.0
 30
0.0
  3
ARROW
  1

  0
LWPOLYLINE
  5
59
330
57
100
AcDbEntity
  8
0
  6
Continuous
 62
     0
100
AcDbPolyline
 90
        3
 70
     0
 43
0.0
 10
2.0
 20
0.535898
 10
0.0
 20
0.0
 10
2.0
 20
-0.535898
  0
ENDBLK
  5
5E
330
57
100
AcDbEntity
  8
0
100
AcDbBlockEnd
  0
BLOCK
  5
60
330
5F
100
AcDbEntity
  8
001
100
AcDbBlockBegin
  2
*D1
 70
     1
 10
0.0
 20
0.0
 30
0.0
  3
*D1
  1

  0
LINE
  5
61
330
5F
100
AcDbEntity
  8
001
100
AcDbLine
 10
-266.755367
 20
187.7742989999999
 30
0.0
 11
-266.755367
 21
161.463019
 31
0.0
  0
LINE
  5
62
330
5F
100
AcDbEntity
  8
001
100
AcDbLine
 10
-91.755367
 20
187.7742989999999
 30
0.0
 11
-91.755367
 21
161.463019
 31
0.0
  0
LINE
  5
63
330
5F
100
AcDbEntity
  8
001
100
AcDbLine
 10
-266.755367
 20
162.463019
 30
0.0
 11
-91.755367
 21
162.463019
 31
0.0
  0
INSERT
  5
64
330
5F
100
AcDbEntity
  8
001
  6
ByBlock
 62
     7
100
AcDbBlockReference
  2
ARROW
 10
-266.755367
 20
162.463019
 30
0.0
  0
INSERT
  5
65
330
5F
100
AcDbEntity
  8
001
  6
ByBlock
 62
     7
100
AcDbBlockReference
  2
ARROW
 10
-91.755367
 20
162.463019
 30
0.0
 50
180.0
  0
TEXT
  5
66
330
5F
100
AcDbEntity
  8
001
100
AcDbText
 10
-182.953992
 20
163.463019
 30
0.0
 40
3.2
  1
350
 41
0.909927
100
AcDbText
  0
POINT
  5
67
330
5F
100
AcDbEntity
  8
001
100
AcDbPoint
 10
-266.755367
 20
188.7742989999999
 30
0.0
  0
POINT
  5
68
330
5F
100
AcDbEntity
  8
001
100
AcDbPoint
 10
-91.755367
 20
188.7742989999999
 30
0.0
  0
POINT
  5
69
330
5F
100
AcDbEntity
  8
001
100
AcDbPoint
 10
-91.755367
 20
162.463019
 30
0.0
  0
ENDBLK
  5
6A
330
5F
100
AcDbEntity
  8
001
100
AcDbBlockEnd
  0
BLOCK
  5
6C
330
6B
100
AcDbEntity
  8
001
100
AcDbBlockBegin
  2
*D2
 70
     1
 10
0.0
 20
0.0
 30
0.0
  3
*D2
  1

  0
LINE
  5
6D
330
6B
100
AcDbEntity
  8
001
100
AcDbLine
 10
-265.255367
 20
89.393858
 30
0.0
 11
-278.989164
 21
89.393858
 31
0.0
  0
LINE
  5
6E
330
6B
100
AcDbEntity
  8
001
100
AcDbLine
 10
-265.255367
 20
148.404967
 30
0.0
 11
-278.989164
 21
148.404967
 31
0.0
  0
LINE
  5
6F
330
6B
100
AcDbEntity
  8
001
100
AcDbLine
 10
-277.989164
 20
89.393858
 30
0.0
 11
-277.989164
 21
148.404967
 31
0.0
  0
INSERT
  5
70
330
6B
100
AcDbEntity
  8
001
  6
ByBlock
 62
     7
100
AcDbBlockReference
  2
ARROW
 10
-277.989164
 20
89.393858
 30
0.0
 50
90.0
  0
INSERT
  5
71
330
6B
100
AcDbEntity
  8
001
  6
ByBlock
 62
     7
100
AcDbBlockReference
  2
ARROW
 10
-277.989164
 20
148.404967
 30
0.0
 50
270.0
  0
TEXT
  5
72
330
6B
100
AcDbEntity
  8
001
100
AcDbText
 10
-278.989164
 20
114.774412
 30
0.0
 40
3.2
  1
118
 50
90.00000300000001
 41
1.10491
100
AcDbText
  0
POINT
  5
73
330
6B
100
AcDbEntity
  8
001
100
AcDbPoint
 10
-264.255367
 20
89.393858
 30
0.0
  0
POINT
  5
74
330
6B
100
AcDbEntity
  8
001
100
AcDbPoint
 10
-264.255367
 20
148.404967
 30
0.0
  0
POINT
  5
75
330
6B
100
AcDbEntity
  8
001
100
AcDbPoint
 10
-277.989164
 20
148.404967
 30
0.0
  0
ENDBLK
  5
76
330
6B
100
AcDbEntity
  8
001
100
AcDbBlockEnd
  0
BLOCK
  5
78
330
77
100
AcDbEntity
  8
001
100
AcDbBlockBegin
  2
*D3
 70
     1
 10
0.0
 20
0.0
 30
0.0
  3
*D3
  1

  0
LINE
  5
79
330
77
100
AcDbEntity
  8
001
100
AcDbLine
 10
-256.42623
 20
176.793066
 30
0.0
 11
-277.190233
 21
176.793066
 31
0.0
  0
LINE
  5
7A
330
77
100
AcDbEntity
  8
001
100
AcDbLine
 10
-256.42623
 20
206.531385
 30
0.0
 11
-277.190233
 21
206.531385
 31
0.0
  0
LINE
  5
7B
330
77
100
AcDbEntity
  8
001
100
AcDbLine
 10
-276.190233
 20
176.793066
 30
0.0
 11
-276.190233
 21
206.531385
 31
0.0
  0
INSERT
  5
7C
330
77
100
AcDbEntity
  8
001
  6
ByBlock
 62
     7
100
AcDbBlockReference
  2
ARROW
 10
-276.190233
 20
176.793066
 30
0.0
 50
90.0
  0
INSERT
  5
7D
330
77
100
AcDbEntity
  8
001
  6
ByBlock
 62
     7
100
AcDbBlockReference
  2
ARROW
 10
-276.190233
 20
206.531385
 30
0.0
 50
270.0
  0
TEXT
  5
7E
330
77
100
AcDbEntity
  8
001
100
AcDbText
 10
-277.190232
 20
188.912225
 30
0.0
 40
3.2
  1
60
 50
90.00000300000001
 41
0.9375
100
AcDbText
  0
POINT
  5
7F
330
77
100
AcDbEntity
  8
001
100
AcDbPoint
 10
-255.42623
 20
176.793066
 30
0.0
  0
POINT
  5
80
330
77
100
AcDbEntity
  8
001
100
AcDbPoint
 10
-255.42623
 20
206.531385
 30
0.0
  0
POINT
  5
81
330
77
100
AcDbEntity
  8
001
100
AcDbPoint
 10
-276.190233
 20
206.531385
 30
0.0
  0
ENDBLK
  5
82
330
77
100
AcDbEntity
  8
001
100
AcDbBlockEnd
  0
BLOCK
  5
84
330
83
100
AcDbEntity
  8
001
100
AcDbBlockBegin
  2
*D4
 70
     1
 10
0.0
 20
0.0
 30
0.0
  3
*D4
  1

  0
LINE
  5
85
330
83
100
AcDbEntity
  8
001
100
AcDbLine
 10
-180.2553669999999
 20
174.662225
 30
0.0
 11
-284.629215
 21
174.662225
 31
0.0
  0
LINE
  5
86
330
83
100
AcDbEntity
  8
001
100
AcDbLine
 10
-180.2553669999999
 20
208.662225
 30
0.0
 11
-284.629215
 21
208.662225
 31
0.0
  0
LINE
  5
87
330
83
100
AcDbEntity
  8
001
100
AcDbLine
 10
-283.629215
 20
174.662225
 30
0.0
 11
-283.629215
 21
208.662225
 31
0.0
  0
INSERT
  5
88
330
83
100
AcDbEntity
  8
001
  6
ByBlock
 62
     7
100
AcDbBlockReference
  2
ARROW
 10
-283.629215
 20
174.662225
 30
0.0
 50
90.0
  0
INSERT
  5
89
330
83
100
AcDbEntity
  8
001
  6
ByBlock
 62
     7
100
AcDbBlockReference
  2
ARROW
 10
-283.629215
 20
208.662225
 30
0.0
 50
270.0
  0
TEXT
  5
8A
330
83
100
AcDbEntity
  8
001
100
AcDbText
 10
-284.629215
 20
188.912225
 30
0.0
 40
3.2
  1
68
 50
90.00000300000001
 41
0.859375
100
AcDbText
  0
POINT
  5
8B
330
83
100
AcDbEntity
  8
001
100
AcDbPoint
 10
-179.255367
 20
174.662225
 30
0.0
  0
POINT
  5
8C
330
83
100
AcDbEntity
  8
001
100
AcDbPoint
 10
-179.255367
 20
208.662225
 30
0.0
  0
POINT
  5
8D
330
83
100
AcDbEntity
  8
001
100
AcDbPoint
 10
-283.629215
 20
208.662225
 30
0.0
  0
ENDBLK
  5
8E
330
83
100
AcDbEntity
  8
001
100
AcDbBlockEnd
  0
BLOCK
  5
560
330
55F
100
AcDbEntity
  8
0
100
AcDbBlockBegin
  2
_Open30
 70
     0
 10
0.0
 20
0.0
 30
0.0
  3
_Open30
  1

  0
LINE
  5
561
330
55F
100
AcDbEntity
  8
0
  6
ByBlock
 62
     0
370
    -2
100
AcDbLine
 10
-1.0
 20
0.267949
 30
0.0
 11
0.0
 21
0.0
 31
0.0
  0
LINE
  5
562
330
55F
100
AcDbEntity
  8
0
  6
ByBlock
 62
     0
370
    -2
100
AcDbLine
 10
0.0
 20
0.0
 30
0.0
 11
-1.0
 21
-0.267949
 31
0.0
  0
LINE
  5
563
330
55F
100
AcDbEntity
  8
0
  6
ByBlock
 62
     0
370
    -2
100
AcDbLine
 10
0.0
 20
0.0
 30
0.0
 11
-1.0
 21
0.0
 31
0.0
  0
ENDBLK
  5
564
330
55F
100
AcDbEntity
  8
0
100
AcDbBlockEnd
  0
BLOCK
  5
566
330
565
100
AcDbEntity
  8
0
100
AcDbBlockBegin
  2
*D6
 70
     1
 10
0.0
 20
0.0
 30
0.0
  3
*D6
  1

  0
LINE
  5
567
330
565
100
AcDbEntity
  8
0
 62
     0
370
    -2
100
AcDbLine
 10
-178.2339678749101
 20
-812.0370112307897
 30
0.0
 11
-178.2339678749101
 21
-814.9466426527986
 31
0.0
  0
LINE
  5
568
330
565
100
AcDbEntity
  8
0
 62
     0
370
    -2
100
AcDbLine
 10
-180.6911549290304
 20
-812.0370112307897
 30
0.0
 11
-180.6911549290304
 21
-814.9466426527986
 31
0.0
  0
LINE
  5
569
330
565
100
AcDbEntity
  8
0
 62
     0
370
    -2
100
AcDbLine
 10
-175.7339678749101
 20
-813.6966426527985
 30
0.0
 11
-173.2339678749101
 21
-813.6966426527985
 31
0.0
  0
LINE
  5
56A
330
565
100
AcDbEntity
  8
0
 62
     0
370
    -2
100
AcDbLine
 10
-183.1911549290304
 20
-813.6966426527985
 30
0.0
 11
-195.9411549290304
 21
-813.6966426527985
 31
0.0
  0
LINE
  5
56B
330
565
100
AcDbEntity
  8
0
 62
     0
370
    -2
100
AcDbLine
 10
-178.2339678749101
 20
-813.6966426527985
 30
0.0
 11
-180.6911549290304
 21
-813.6966426527985
 31
0.0
  0
INSERT
  5
56C
330
565
100
AcDbEntity
  8
0
 62
     0
370
    -2
100
AcDbBlockReference
  2
_Open30
 10
-178.2339678749101
 20
-813.6966426527985
 30
0.0
 41
2.5
 42
2.5
 43
2.5
 50
180.0
  0
INSERT
  5
56D
330
565
100
AcDbEntity
  8
0
 62
     0
370
    -2
100
AcDbBlockReference
  2
_Open30
 10
-180.6911549290304
 20
-813.6966426527985
 30
0.0
 41
2.5
 42
2.5
 43
2.5
  0
MTEXT
  5
56E
330
565
100
AcDbEntity
  8
0
 62
     4
100
AcDbMText
 10
-190.8161549290304
 20
-811.5716426527985
 30
0.0
 40
3.0
 41
0.0
 71
     5
 72
     1
  1
2.46
 73
     1
 44
1.0
1001
ACAD
1000
MTEXTBEGIN
1070
    73
1070
     1
1070
    44
1040
1.0
1070
    74
1070
     0
1000
MTEXTEND
  0
POINT
  5
56F
330
565
100
AcDbEntity
  8
Defpoints
 62
     0
100
AcDbPoint
 10
-178.2339678749101
 20
-811.7870112307898
 30
0.0
  0
POINT
  5
570
330
565
100
AcDbEntity
  8
Defpoints
 62
     0
100
AcDbPoint
 10
-180.6911549290304
 20
-811.7870112307898
 30
0.0
  0
POINT
  5
571
330
565
100
AcDbEntity
  8
Defpoints
 62
     0
100
AcDbPoint
 10
-180.6911549290304
 20
-813.6966426527985
 30
0.0
  0
ENDBLK
  5
572
330
565
100
AcDbEntity
  8
0
100
AcDbBlockEnd
  0
BLOCK
  5
574
330
573
100
AcDbEntity
  8
0
100
AcDbBlockBegin
  2
*D7
 70
     1
 10
0.0
 20
0.0
 30
0.0
  3
*D7
  1

  0
LINE
  5
575
330
573
100
AcDbEntity
  8
0
 62
     0
370
    -2
100
AcDbLine
 10
-176.5958429688369
 20
-817.4931008035521
 30
0.0
 11
-176.5958429688369
 21
-820.0389928730155
 31
0.0
  0
LINE
  5
576
330
573
100
AcDbEntity
  8
0
 62
     0
370
    -2
100
AcDbLine
 10
-179.6900787669798
 20
-817.4931008035521
 30
0.0
 11
-179.6900787669798
 21
-820.0389928730155
 31
0.0
  0
LINE
  5
577
330
573
100
AcDbEntity
  8
0
 62
     0
370
    -2
100
AcDbLine
 10
-174.0958429688369
 20
-818.7889928730154
 30
0.0
 11
-171.5958429688369
 21
-818.7889928730154
 31
0.0
  0
LINE
  5
578
330
573
100
AcDbEntity
  8
0
 62
     0
370
    -2
100
AcDbLine
 10
-182.1900787669798
 20
-818.7889928730154
 30
0.0
 11
-196.0234121003131
 21
-818.7889928730154
 31
0.0
  0
LINE
  5
579
330
573
100
AcDbEntity
  8
0
 62
     0
370
    -2
100
AcDbLine
 10
-176.5958429688369
 20
-818.7889928730154
 30
0.0
 11
-179.6900787669798
 21
-818.7889928730154
 31
0.0
  0
INSERT
  5
57A
330
573
100
AcDbEntity
  8
0
 62
     0
370
    -2
100
AcDbBlockReference
  2
_Open30
 10
-176.5958429688369
 20
-818.7889928730154
 30
0.0
 41
2.5
 42
2.5
 43
2.5
 50
180.0
  0
INSERT
  5
57B
330
573
100
AcDbEntity
  8
0
 62
     0
370
    -2
100
AcDbBlockReference
  2
_Open30
 10
-179.6900787669798
 20
-818.7889928730154
 30
0.0
 41
2.5
 42
2.5
 43
2.5
  0
MTEXT
  5
57C
330
573
100
AcDbEntity
  8
0
 62
     4
100
AcDbMText
 10
-190.8150787669798
 20
-816.9139928730155
 30
0.0
 40
2.5
 41
0.0
 71
     5
 72
     1
  1
15.47
  7
高2.5
 73
     1
 44
1.0
1001
ACAD
1000
MTEXTBEGIN
1070
    73
1070
     1
1070
    44
1040
1.0
1070
    74
1070
     0
1000
MTEXTEND
  0
POINT
  5
57D
330
573
100
AcDbEntity
  8
Defpoints
 62
     0
100
AcDbPoint
 10
-176.5958429688369
 20
-817.2431008035522
 30
0.0
  0
POINT
  5
57E
330
573
100
AcDbEntity
  8
Defpoints
 62
     0
100
AcDbPoint
 10
-179.6900787669798
 20
-817.2431008035522
 30
0.0
  0
POINT
  5
57F
330
573
100
AcDbEntity
  8
Defpoints
 62
     0
100
AcDbPoint
 10
-179.6900787669798
 20
-818.7889928730154
 30
0.0
  0
ENDBLK
  5
580
330
573
100
AcDbEntity
  8
0
100
AcDbBlockEnd
  0
BLOCK
  5
582
330
581
100
AcDbEntity
  8
0
100
AcDbBlockBegin
  2
*D8
 70
     1
 10
0.0
 20
0.0
 30
0.0
  3
*D8
  1

  0
LINE
  5
583
330
581
100
AcDbEntity
  8
0
 62
     0
370
    -2
100
AcDbLine
 10
-174.8667113607514
 20
-822.9491905193986
 30
0.0
 11
-174.8667113607514
 21
-825.2222781817659
 31
0.0
  0
LINE
  5
584
330
581
100
AcDbEntity
  8
0
 62
     0
370
    -2
100
AcDbLine
 10
-178.8710163139432
 20
-822.9491905193986
 30
0.0
 11
-178.8710163139432
 21
-825.2222781817659
 31
0.0
  0
LINE
  5
585
330
581
100
AcDbEntity
  8
0
 62
     0
370
    -2
100
AcDbLine
 10
-172.3667113607514
 20
-823.9722781817658
 30
0.0
 11
-169.8667113607514
 21
-823.9722781817658
 31
0.0
  0
LINE
  5
586
330
581
100
AcDbEntity
  8
0
 62
     0
370
    -2
100
AcDbLine
 10
-181.3710163139432
 20
-823.9722781817658
 30
0.0
 11
-193.1210163139432
 21
-823.9722781817658
 31
0.0
  0
LINE
  5
587
330
581
100
AcDbEntity
  8
0
 62
     0
370
    -2
100
AcDbLine
 10
-174.8667113607514
 20
-823.9722781817658
 30
0.0
 11
-178.8710163139432
 21
-823.9722781817658
 31
0.0
  0
INSERT
  5
588
330
581
100
AcDbEntity
  8
0
 62
     0
370
    -2
100
AcDbBlockReference
  2
_Open30
 10
-174.8667113607514
 20
-823.9722781817658
 30
0.0
 41
2.5
 42
2.5
 43
2.5
 50
180.0
  0
INSERT
  5
589
330
581
100
AcDbEntity
  8
0
 62
     0
370
    -2
100
AcDbBlockReference
  2
_Open30
 10
-178.8710163139432
 20
-823.9722781817658
 30
0.0
 41
2.5
 42
2.5
 43
2.5
  0
MTEXT
  5
58A
330
581
100
AcDbEntity
  8
0
 62
     4
100
AcDbMText
 10
-188.4960163139432
 20
-821.7472781817658
 30
0.0
 40
3.2
 41
0.0
 71
     5
 72
     1
  1
8.01
  7
高3.2
 73
     1
 44
1.0
1001
ACAD
1000
MTEXTBEGIN
1070
    73
1070
     1
1070
    44
1040
1.0
1070
    74
1070
     0
1000
MTEXTEND
  0
POINT
  5
58B
330
581
100
AcDbEntity
  8
Defpoints
 62
     0
100
AcDbPoint
 10
-174.8667113607514
 20
-822.6991905193985
 30
0.0
  0
POINT
  5
58C
330
581
100
AcDbEntity
  8
Defpoints
 62
     0
100
AcDbPoint
 10
-178.8710163139432
 20
-822.6991905193985
 30
0.0
  0
POINT
  5
58D
330
581
100
AcDbEntity
  8
Defpoints
 62
     0
100
AcDbPoint
 10
-178.8710163139432
 20
-823.9722781817658
 30
0.0
  0
ENDBLK
  5
58E
330
581
100
AcDbEntity
  8
0
100
AcDbBlockEnd
  0
BLOCK
  5
590
330
58F
100
AcDbEntity
  8
0
100
AcDbBlockBegin
  2
*D9
 70
     1
 10
0.0
 20
0.0
 30
0.0
  3
*D9
  1

  0
LINE
  5
591
330
58F
100
AcDbEntity
  8
0
 62
     0
370
    -2
100
AcDbLine
 10
-174.9577180627637
 20
-828.2234104874302
 30
0.0
 11
-174.9577180627637
 21
-830.0418239948866
 31
0.0
  0
LINE
  5
592
330
58F
100
AcDbEntity
  8
0
 62
     0
370
    -2
100
AcDbLine
 10
-179.6900787669798
 20
-828.2234104874302
 30
0.0
 11
-179.6900787669798
 21
-830.0418239948866
 31
0.0
  0
LINE
  5
593
330
58F
100
AcDbEntity
  8
0
 62
     0
370
    -2
100
AcDbLine
 10
-172.4577180627637
 20
-828.7918239948865
 30
0.0
 11
-169.9577180627637
 21
-828.7918239948865
 31
0.0
  0
LINE
  5
594
330
58F
100
AcDbEntity
  8
0
 62
     0
370
    -2
100
AcDbLine
 10
-182.1900787669798
 20
-828.7918239948865
 30
0.0
 11
-203.9400787669798
 21
-828.7918239948865
 31
0.0
  0
LINE
  5
595
330
58F
100
AcDbEntity
  8
0
 62
     0
370
    -2
100
AcDbLine
 10
-174.9577180627637
 20
-828.7918239948865
 30
0.0
 11
-179.6900787669798
 21
-828.7918239948865
 31
0.0
  0
INSERT
  5
596
330
58F
100
AcDbEntity
  8
0
 62
     0
370
    -2
100
AcDbBlockReference
  2
_Open30
 10
-174.9577180627637
 20
-828.7918239948865
 30
0.0
 41
2.5
 42
2.5
 43
2.5
 50
180.0
  0
INSERT
  5
597
330
58F
100
AcDbEntity
  8
0
 62
     0
370
    -2
100
AcDbBlockReference
  2
_Open30
 10
-179.6900787669798
 20
-828.7918239948865
 30
0.0
 41
2.5
 42
2.5
 43
2.5
  0
MTEXT
  5
598
330
58F
100
AcDbEntity
  8
0
 62
     4
100
AcDbMText
 10
-194.3150787669798
 20
-825.9168239948866
 30
0.0
 40
4.5
 41
0.0
 71
     5
 72
     1
  1
47.32
  7
高4.5
 73
     1
 44
1.0
1001
ACAD
1000
MTEXTBEGIN
1070
    73
1070
     1
1070
    44
1040
1.0
1070
    74
1070
     0
1000
MTEXTEND
  0
POINT
  5
599
330
58F
100
AcDbEntity
  8
Defpoints
 62
     0
100
AcDbPoint
 10
-174.9577180627637
 20
-827.9734104874302
 30
0.0
  0
POINT
  5
59A
330
58F
100
AcDbEntity
  8
Defpoints
 62
     0
100
AcDbPoint
 10
-179.6900787669798
 20
-827.9734104874302
 30
0.0
  0
POINT
  5
59B
330
58F
100
AcDbEntity
  8
Defpoints
 62
     0
100
AcDbPoint
 10
-179.6900787669798
 20
-828.7918239948865
 30
0.0
  0
ENDBLK
  5
59C
330
58F
100
AcDbEntity
  8
0
100
AcDbBlockEnd
  0
BLOCK
  5
59E
330
59D
100
AcDbEntity
  8
0
100
AcDbBlockBegin
  2
*D10
 70
     1
 10
0.0
 20
0.0
 30
0.0
  3
*D10
  1

  0
LINE
  5
59F
330
59D
100
AcDbEntity
  8
0
 62
     0
370
    -2
100
AcDbLine
 10
-153.4800817947562
 20
-812.0370112307897
 30
0.0
 11
-153.4800817947562
 21
-814.9466426527986
 31
0.0
  0
LINE
  5
5A0
330
59D
100
AcDbEntity
  8
0
 62
     0
370
    -2
100
AcDbLine
 10
-155.9372688488765
 20
-812.0370112307897
 30
0.0
 11
-155.9372688488765
 21
-814.9466426527986
 31
0.0
  0
LINE
  5
5A1
330
59D
100
AcDbEntity
  8
0
 62
     0
370
    -2
100
AcDbLine
 10
-150.9800817947562
 20
-813.6966426527985
 30
0.0
 11
-148.4800817947562
 21
-813.6966426527985
 31
0.0
  0
LINE
  5
5A2
330
59D
100
AcDbEntity
  8
0
 62
     0
370
    -2
100
AcDbLine
 10
-158.4372688488765
 20
-813.6966426527985
 30
0.0
 11
-180.0372688488765
 21
-813.6966426527985
 31
0.0
  0
LINE
  5
5A3
330
59D
100
AcDbEntity
  8
0
 62
     0
370
    -2
100
AcDbLine
 10
-153.4800817947562
 20
-813.6966426527985
 30
0.0
 11
-155.9372688488765
 21
-813.6966426527985
 31
0.0
  0
INSERT
  5
5A4
330
59D
100
AcDbEntity
  8
0
 62
     0
370
    -2
100
AcDbBlockReference
  2
_Open30
 10
-153.4800817947562
 20
-813.6966426527985
 30
0.0
 41
2.5
 42
2.5
 43
2.5
 50
180.0
  0
INSERT
  5
5A5
330
59D
100
AcDbEntity
  8
0
 62
     0
370
    -2
100
AcDbBlockReference
  2
_Open30
 10
-155.9372688488765
 20
-813.6966426527985
 30
0.0
 41
2.5
 42
2.5
 43
2.5
  0
MTEXT
  5
5A6
330
59D
100
AcDbEntity
  8
0
 62
     4
100
AcDbMText
 10
-170.4872688488765
 20
-809.9216426527986
 30
0.0
 40
6.299999999999999
 41
0.0
 71
     5
 72
     1
  1
0.25
  7
高6.3
 73
     1
 44
1.0
1001
ACAD
1000
MTEXTBEGIN
1070
    73
1070
     1
1070
    44
1040
1.0
1070
    74
1070
     0
1000
MTEXTEND
  0
POINT
  5
5A7
330
59D
100
AcDbEntity
  8
Defpoints
 62
     0
100
AcDbPoint
 10
-153.4800817947562
 20
-811.7870112307898
 30
0.0
  0
POINT
  5
5A8
330
59D
100
AcDbEntity
  8
Defpoints
 62
     0
100
AcDbPoint
 10
-155.9372688488765
 20
-811.7870112307898
 30
0.0
  0
POINT
  5
5A9
330
59D
100
AcDbEntity
  8
Defpoints
 62
     0
100
AcDbPoint
 10
-155.9372688488765
 20
-813.6966426527985
 30
0.0
  0
ENDBLK
  5
5AA
330
59D
100
AcDbEntity
  8
0
100
AcDbBlockEnd
  0
BLOCK
  5
5AC
330
5AB
100
AcDbEntity
  8
0
100
AcDbBlockBegin
  2
*D11
 70
     1
 10
0.0
 20
0.0
 30
0.0
  3
*D11
  1

  0
LINE
  5
5AD
330
5AB
100
AcDbEntity
  8
0
 62
     0
370
    -2
100
AcDbLine
 10
-151.841956888683
 20
-817.4931008035521
 30
0.0
 11
-151.841956888683
 21
-820.0389928730155
 31
0.0
  0
LINE
  5
5AE
330
5AB
100
AcDbEntity
  8
0
 62
     0
370
    -2
100
AcDbLine
 10
-154.9361926868259
 20
-817.4931008035521
 30
0.0
 11
-154.9361926868259
 21
-820.0389928730155
 31
0.0
  0
LINE
  5
5AF
330
5AB
100
AcDbEntity
  8
0
 62
     0
370
    -2
100
AcDbLine
 10
-149.341956888683
 20
-818.7889928730154
 30
0.0
 11
-146.841956888683
 21
-818.7889928730154
 31
0.0
  0
LINE
  5
5B0
330
5AB
100
AcDbEntity
  8
0
 62
     0
370
    -2
100
AcDbLine
 10
-157.4361926868259
 20
-818.7889928730154
 30
0.0
 11
-169.4361926868259
 21
-818.7889928730154
 31
0.0
  0
LINE
  5
5B1
330
5AB
100
AcDbEntity
  8
0
 62
     0
370
    -2
100
AcDbLine
 10
-151.841956888683
 20
-818.7889928730154
 30
0.0
 11
-154.9361926868259
 21
-818.7889928730154
 31
0.0
  0
INSERT
  5
5B2
330
5AB
100
AcDbEntity
  8
0
 62
     0
370
    -2
100
AcDbBlockReference
  2
_Open30
 10
-151.841956888683
 20
-818.7889928730154
 30
0.0
 41
2.5
 42
2.5
 43
2.5
 50
180.0
  0
INSERT
  5
5B3
330
5AB
100
AcDbEntity
  8
0
 62
     0
370
    -2
100
AcDbBlockReference
  2
_Open30
 10
-154.9361926868259
 20
-818.7889928730154
 30
0.0
 41
2.5
 42
2.5
 43
2.5
  0
MTEXT
  5
5B4
330
5AB
100
AcDbEntity
  8
0
 62
     4
100
AcDbMText
 10
-164.8111926868259
 20
-816.6639928730154
 30
0.0
 40
3.0
 41
0.0
 71
     5
 72
     1
  1
1.55
 73
     1
 44
1.0
1001
ACAD
1000
MTEXTBEGIN
1070
    73
1070
     1
1070
    44
1040
1.0
1070
    74
1070
     0
1000
MTEXTEND
  0
POINT
  5
5B5
330
5AB
100
AcDbEntity
  8
Defpoints
 62
     0
100
AcDbPoint
 10
-151.841956888683
 20
-817.2431008035522
 30
0.0
  0
POINT
  5
5B6
330
5AB
100
AcDbEntity
  8
Defpoints
 62
     0
100
AcDbPoint
 10
-154.9361926868259
 20
-817.2431008035522
 30
0.0
  0
POINT
  5
5B7
330
5AB
100
AcDbEntity
  8
Defpoints
 62
     0
100
AcDbPoint
 10
-154.9361926868259
 20
-818.7889928730154
 30
0.0
  0
ENDBLK
  5
5B8
330
5AB
100
AcDbEntity
  8
0
100
AcDbBlockEnd
  0
BLOCK
  5
5BA
330
5B9
100
AcDbEntity
  8
0
100
AcDbBlockBegin
  2
*D12
 70
     1
 10
0.0
 20
0.0
 30
0.0
  3
*D12
  1

  0
LINE
  5
5BB
330
5B9
100
AcDbEntity
  8
0
 62
     0
370
    -2
100
AcDbLine
 10
-150.1128252805975
 20
-822.9491905193986
 30
0.0
 11
-150.1128252805975
 21
-825.2222781817659
 31
0.0
  0
LINE
  5
5BC
330
5B9
100
AcDbEntity
  8
0
 62
     0
370
    -2
100
AcDbLine
 10
-154.1171302337894
 20
-822.9491905193986
 30
0.0
 11
-154.1171302337894
 21
-825.2222781817659
 31
0.0
  0
LINE
  5
5BD
330
5B9
100
AcDbEntity
  8
0
 62
     0
370
    -2
100
AcDbLine
 10
-147.6128252805976
 20
-823.9722781817658
 30
0.0
 11
-145.1128252805975
 21
-823.9722781817658
 31
0.0
  0
LINE
  5
5BE
330
5B9
100
AcDbEntity
  8
0
 62
     0
370
    -2
100
AcDbLine
 10
-156.6171302337894
 20
-823.9722781817658
 30
0.0
 11
-164.9504635671227
 21
-823.9722781817658
 31
0.0
  0
LINE
  5
5BF
330
5B9
100
AcDbEntity
  8
0
 62
     0
370
    -2
100
AcDbLine
 10
-150.1128252805975
 20
-823.9722781817658
 30
0.0
 11
-154.1171302337894
 21
-823.9722781817658
 31
0.0
  0
INSERT
  5
5C0
330
5B9
100
AcDbEntity
  8
0
 62
     0
370
    -2
100
AcDbBlockReference
  2
_Open30
 10
-150.1128252805975
 20
-823.9722781817658
 30
0.0
 41
2.5
 42
2.5
 43
2.5
 50
180.0
  0
INSERT
  5
5C1
330
5B9
100
AcDbEntity
  8
0
 62
     0
370
    -2
100
AcDbBlockReference
  2
_Open30
 10
-154.1171302337894
 20
-823.9722781817658
 30
0.0
 41
2.5
 42
2.5
 43
2.5
  0
MTEXT
  5
5C2
330
5B9
100
AcDbEntity
  8
0
 62
     4
100
AcDbMText
 10
-162.4921302337894
 20
-822.3472781817658
 30
0.0
 40
2.0
 41
0.0
 71
     5
 72
     1
  1
0.8
  7
高2
 73
     1
 44
1.0
1001
ACAD
1000
MTEXTBEGIN
1070
    73
1070
     1
1070
    44
1040
1.0
1070
    74
1070
     0
1000
MTEXTEND
  0
POINT
  5
5C3
330
5B9
100
AcDbEntity
  8
Defpoints
 62
     0
100
AcDbPoint
 10
-150.1128252805975
 20
-822.6991905193985
 30
0.0
  0
POINT
  5
5C4
330
5B9
100
AcDbEntity
  8
Defpoints
 62
     0
100
AcDbPoint
 10
-154.1171302337894
 20
-822.6991905193985
 30
0.0
  0
POINT
  5
5C5
330
5B9
100
AcDbEntity
  8
Defpoints
 62
     0
100
AcDbPoint
 10
-154.1171302337894
 20
-823.9722781817658
 30
0.0
  0
ENDBLK
  5
5C6
330
5B9
100
AcDbEntity
  8
0
100
AcDbBlockEnd
  0
BLOCK
  5
5C8
330
5C7
100
AcDbEntity
  8
0
100
AcDbBlockBegin
  2
*D13
 70
     1
 10
0.0
 20
0.0
 30
0.0
  3
*D13
  1

  0
LINE
  5
5C9
330
5C7
100
AcDbEntity
  8
0
 62
     0
370
    -2
100
AcDbLine
 10
-150.2038319826098
 20
-828.2234104874302
 30
0.0
 11
-150.2038319826098
 21
-830.0418239948866
 31
0.0
  0
LINE
  5
5CA
330
5C7
100
AcDbEntity
  8
0
 62
     0
370
    -2
100
AcDbLine
 10
-154.9361926868259
 20
-828.2234104874302
 30
0.0
 11
-154.9361926868259
 21
-830.0418239948866
 31
0.0
  0
LINE
  5
5CB
330
5C7
100
AcDbEntity
  8
0
 62
     0
370
    -2
100
AcDbLine
 10
-147.7038319826099
 20
-828.7918239948865
 30
0.0
 11
-145.2038319826098
 21
-828.7918239948865
 31
0.0
  0
LINE
  5
5CC
330
5C7
100
AcDbEntity
  8
0
 62
     0
370
    -2
100
AcDbLine
 10
-157.4361926868259
 20
-828.7918239948865
 30
0.0
 11
-172.1861926868259
 21
-828.7918239948865
 31
0.0
  0
LINE
  5
5CD
330
5C7
100
AcDbEntity
  8
0
 62
     0
370
    -2
100
AcDbLine
 10
-150.2038319826098
 20
-828.7918239948865
 30
0.0
 11
-154.9361926868259
 21
-828.7918239948865
 31
0.0
  0
INSERT
  5
5CE
330
5C7
100
AcDbEntity
  8
0
 62
     0
370
    -2
100
AcDbBlockReference
  2
_Open30
 10
-150.2038319826098
 20
-828.7918239948865
 30
0.0
 41
2.5
 42
2.5
 43
2.5
 50
180.0
  0
INSERT
  5
5CF
330
5C7
100
AcDbEntity
  8
0
 62
     0
370
    -2
100
AcDbBlockReference
  2
_Open30
 10
-154.9361926868259
 20
-828.7918239948865
 30
0.0
 41
2.5
 42
2.5
 43
2.5
  0
MTEXT
  5
5D0
330
5C7
100
AcDbEntity
  8
0
 62
     4
100
AcDbMText
 10
-166.0611926868259
 20
-826.6668239948867
 30
0.0
 40
3.0
 41
0.0
 71
     5
 72
     1
  1
18.93
 73
     1
 44
1.0
1001
ACAD
1000
MTEXTBEGIN
1070
    73
1070
     1
1070
    44
1040
1.0
1070
    74
1070
     0
1000
MTEXTEND
  0
POINT
  5
5D1
330
5C7
100
AcDbEntity
  8
Defpoints
 62
     0
100
AcDbPoint
 10
-150.2038319826098
 20
-827.9734104874302
 30
0.0
  0
POINT
  5
5D2
330
5C7
100
AcDbEntity
  8
Defpoints
 62
     0
100
AcDbPoint
 10
-154.9361926868259
 20
-827.9734104874302
 30
0.0
  0
POINT
  5
5D3
330
5C7
100
AcDbEntity
  8
Defpoints
 62
     0
100
AcDbPoint
 10
-154.9361926868259
 20
-828.7918239948865
 30
0.0
  0
ENDBLK
  5
5D4
330
5C7
100
AcDbEntity
  8
0
100
AcDbBlockEnd
  0
BLOCK
  5
5D6
330
5D5
100
AcDbEntity
  8
0
100
AcDbBlockBegin
  2
*D14
 70
     1
 10
0.0
 20
0.0
 30
0.0
  3
*D14
  1

  0
LINE
  5
5D7
330
5D5
100
AcDbEntity
  8
0
 62
     0
370
    -2
100
AcDbLine
 10
-153.0082588337482
 20
-833.2792506940199
 30
0.0
 11
-153.0082588337482
 21
-835.5891717708955
 31
0.0
  0
LINE
  5
5D8
330
5D5
100
AcDbEntity
  8
0
 62
     0
370
    -2
100
AcDbLine
 10
-157.5969340358961
 20
-833.2792506940199
 30
0.0
 11
-157.5969340358961
 21
-835.5891717708955
 31
0.0
  0
LINE
  5
5D9
330
5D5
100
AcDbEntity
  8
0
 62
     0
370
    -2
100
AcDbLine
 10
-150.5082588337482
 20
-834.3391717708955
 30
0.0
 11
-148.0082588337482
 21
-834.3391717708955
 31
0.0
  0
LINE
  5
5DA
330
5D5
100
AcDbEntity
  8
0
 62
     0
370
    -2
100
AcDbLine
 10
-160.0969340358961
 20
-834.3391717708955
 30
0.0
 11
-174.8469340358961
 21
-834.3391717708955
 31
0.0
  0
LINE
  5
5DB
330
5D5
100
AcDbEntity
  8
0
 62
     0
370
    -2
100
AcDbLine
 10
-153.0082588337482
 20
-834.3391717708955
 30
0.0
 11
-157.5969340358961
 21
-834.3391717708955
 31
0.0
  0
INSERT
  5
5DC
330
5D5
100
AcDbEntity
  8
0
 62
     0
370
    -2
100
AcDbBlockReference
  2
_Open30
 10
-153.0082588337482
 20
-834.3391717708955
 30
0.0
 41
2.5
 42
2.5
 43
2.5
 50
180.0
  0
INSERT
  5
5DD
330
5D5
100
AcDbEntity
  8
0
 62
     0
370
    -2
100
AcDbBlockReference
  2
_Open30
 10
-157.5969340358961
 20
-834.3391717708955
 30
0.0
 41
2.5
 42
2.5
 43
2.5
  0
MTEXT
  5
5DE
330
5D5
100
AcDbEntity
  8
0
 62
     4
100
AcDbMText
 10
-168.7219340358961
 20
-832.2141717708955
 30
0.0
 40
3.0
 41
0.0
 71
     5
 72
     1
  1
13.77
 73
     1
 44
1.0
1001
ACAD
1000
MTEXTBEGIN
1070
    73
1070
     1
1070
    44
1040
1.0
1070
    74
1070
     0
1000
MTEXTEND
  0
POINT
  5
5DF
330
5D5
100
AcDbEntity
  8
Defpoints
 62
     0
100
AcDbPoint
 10
-153.0082588337482
 20
-833.02925069402
 30
0.0
  0
POINT
  5
5E0
330
5D5
100
AcDbEntity
  8
Defpoints
 62
     0
100
AcDbPoint
 10
-157.5969340358961
 20
-833.02925069402
 30
0.0
  0
POINT
  5
5E1
330
5D5
100
AcDbEntity
  8
Defpoints
 62
     0
100
AcDbPoint
 10
-157.5969340358961
 20
-834.3391717708955
 30
0.0
  0
ENDBLK
  5
5E2
330
5D5
100
AcDbEntity
  8
0
100
AcDbBlockEnd
  0
BLOCK
  5
5E4
330
5E3
100
AcDbEntity
  8
0
100
AcDbBlockBegin
  2
*D15
 70
     1
 10
0.0
 20
0.0
 30
0.0
  3
*D15
  1

  0
LINE
  5
5E5
330
5E3
100
AcDbEntity
  8
0
 62
     0
370
    -2
100
AcDbLine
 10
-160.1045416668985
 20
-802.3497593757456
 30
0.0
 11
-160.1045416668985
 21
-794.9532258978079
 31
0.0
  0
LINE
  5
5E6
330
5E3
100
AcDbEntity
  8
0
 62
     0
370
    -2
100
AcDbLine
 10
-170.0430160363885
 20
-802.3497593757456
 30
0.0
 11
-170.0430160363885
 21
-794.9532258978079
 31
0.0
  0
LINE
  5
5E7
330
5E3
100
AcDbEntity
  8
0
 62
     0
370
    -2
100
AcDbLine
 10
-162.6045416668985
 20
-796.2032258978078
 30
0.0
 11
-167.5430160363885
 21
-796.2032258978078
 31
0.0
  0
INSERT
  5
5E8
330
5E3
100
AcDbEntity
  8
0
 62
     0
370
    -2
100
AcDbBlockReference
  2
_Open30
 10
-160.1045416668985
 20
-796.2032258978078
 30
0.0
 41
2.5
 42
2.5
 43
2.5
  0
INSERT
  5
5E9
330
5E3
100
AcDbEntity
  8
0
 62
     0
370
    -2
100
AcDbBlockReference
  2
_Open30
 10
-170.0430160363885
 20
-796.2032258978078
 30
0.0
 41
2.5
 42
2.5
 43
2.5
 50
180.0
  0
MTEXT
  5
5EA
330
5E3
100
AcDbEntity
  8
0
 62
     4
100
AcDbMText
 10
-167.1793885053084
 20
-794.0782258978079
 30
0.0
 40
3.0
 41
0.0
 71
     5
 72
     1
  1
9.94
 73
     1
 44
1.0
1001
ACAD
1000
MTEXTBEGIN
1070
    73
1070
     1
1070
    44
1040
1.0
1070
    74
1070
     0
1000
MTEXTEND
  0
POINT
  5
5EB
330
5E3
100
AcDbEntity
  8
Defpoints
 62
     0
100
AcDbPoint
 10
-160.1045416668985
 20
-802.5997593757455
 30
0.0
  0
POINT
  5
5EC
330
5E3
100
AcDbEntity
  8
Defpoints
 62
     0
100
AcDbPoint
 10
-170.0430160363885
 20
-802.5997593757455
 30
0.0
  0
POINT
  5
5ED
330
5E3
100
AcDbEntity
  8
Defpoints
 62
     0
100
AcDbPoint
 10
-170.0430160363885
 20
-796.2032258978078
 30
0.0
  0
ENDBLK
  5
5EE
330
5E3
100
AcDbEntity
  8
0
100
AcDbBlockEnd
  0
BLOCK
  5
64E
330
64D
100
AcDbEntity
  8
0
100
AcDbBlockBegin
  2
*D17
 70
     1
 10
0.0
 20
0.0
 30
0.0
  3
*D17
  1

  0
LINE
  5
6D7
330
64D
100
AcDbEntity
  8
0
 62
     0
370
    -2
100
AcDbLine
 10
254.9073111504322
 20
182.3404162920152
 30
0.0
 11
254.9073111504322
 21
179.4307848700063
 31
0.0
  0
LINE
  5
6D8
330
64D
100
AcDbEntity
  8
0
 62
     0
370
    -2
100
AcDbLine
 10
252.4501240963119
 20
182.3404162920152
 30
0.0
 11
252.4501240963119
 21
179.4307848700063
 31
0.0
  0
LINE
  5
6D9
330
64D
100
AcDbEntity
  8
0
 62
     0
370
    -2
100
AcDbLine
 10
257.4073111504322
 20
180.6807848700063
 30
0.0
 11
259.9073111504322
 21
180.6807848700063
 31
0.0
  0
LINE
  5
6DA
330
64D
100
AcDbEntity
  8
0
 62
     0
370
    -2
100
AcDbLine
 10
249.9501240963119
 20
180.6807848700063
 30
0.0
 11
237.2001240963119
 21
180.6807848700063
 31
0.0
  0
LINE
  5
6DB
330
64D
100
AcDbEntity
  8
0
 62
     0
370
    -2
100
AcDbLine
 10
254.9073111504322
 20
180.6807848700063
 30
0.0
 11
252.4501240963119
 21
180.6807848700063
 31
0.0
  0
INSERT
  5
6DC
330
64D
100
AcDbEntity
  8
0
 62
     0
370
    -2
100
AcDbBlockReference
  2
_Open30
 10
254.9073111504322
 20
180.6807848700063
 30
0.0
 41
2.5
 42
2.5
 43
2.5
 50
180.0
  0
INSERT
  5
6DD
330
64D
100
AcDbEntity
  8
0
 62
     0
370
    -2
100
AcDbBlockReference
  2
_Open30
 10
252.4501240963119
 20
180.6807848700063
 30
0.0
 41
2.5
 42
2.5
 43
2.5
  0
MTEXT
  5
6DE
330
64D
100
AcDbEntity
  8
0
 62
     4
100
AcDbMText
 10
242.3251240963119
 20
182.8057848700063
 30
0.0
 40
3.0
 41
0.0
 71
     5
 72
     1
  1
2.46
 73
     1
 44
1.0
1001
ACAD
1000
MTEXTBEGIN
1070
    73
1070
     1
1070
    44
1040
1.0
1070
    74
1070
     0
1000
MTEXTEND
  0
POINT
  5
6DF
330
64D
100
AcDbEntity
  8
Defpoints
 62
     0
100
AcDbPoint
 10
254.9073111504322
 20
182.5904162920152
 30
0.0
  0
POINT
  5
6E0
330
64D
100
AcDbEntity
  8
Defpoints
 62
     0
100
AcDbPoint
 10
252.4501240963119
 20
182.5904162920152
 30
0.0
  0
POINT
  5
6E1
330
64D
100
AcDbEntity
  8
Defpoints
 62
     0
100
AcDbPoint
 10
252.4501240963119
 20
180.6807848700063
 30
0.0
  0
ENDBLK
  5
64F
330
64D
100
AcDbEntity
  8
0
100
AcDbBlockEnd
  0
BLOCK
  5
65C
330
65B
100
AcDbEntity
  8
0
100
AcDbBlockBegin
  2
*D18
 70
     1
 10
0.0
 20
0.0
 30
0.0
  3
*D18
  1

  0
LINE
  5
6E2
330
65B
100
AcDbEntity
  8
0
 62
     0
370
    -2
100
AcDbLine
 10
256.5454360565054
 20
176.8843267192528
 30
0.0
 11
256.5454360565054
 21
174.3384346497895
 31
0.0
  0
LINE
  5
6E3
330
65B
100
AcDbEntity
  8
0
 62
     0
370
    -2
100
AcDbLine
 10
253.4512002583625
 20
176.8843267192528
 30
0.0
 11
253.4512002583625
 21
174.3384346497895
 31
0.0
  0
LINE
  5
6E4
330
65B
100
AcDbEntity
  8
0
 62
     0
370
    -2
100
AcDbLine
 10
259.0454360565054
 20
175.5884346497895
 30
0.0
 11
261.5454360565054
 21
175.5884346497895
 31
0.0
  0
LINE
  5
6E5
330
65B
100
AcDbEntity
  8
0
 62
     0
370
    -2
100
AcDbLine
 10
250.9512002583625
 20
175.5884346497895
 30
0.0
 11
237.1178669250292
 21
175.5884346497895
 31
0.0
  0
LINE
  5
6E6
330
65B
100
AcDbEntity
  8
0
 62
     0
370
    -2
100
AcDbLine
 10
256.5454360565054
 20
175.5884346497895
 30
0.0
 11
253.4512002583625
 21
175.5884346497895
 31
0.0
  0
INSERT
  5
6E7
330
65B
100
AcDbEntity
  8
0
 62
     0
370
    -2
100
AcDbBlockReference
  2
_Open30
 10
256.5454360565054
 20
175.5884346497895
 30
0.0
 41
2.5
 42
2.5
 43
2.5
 50
180.0
  0
INSERT
  5
6E8
330
65B
100
AcDbEntity
  8
0
 62
     0
370
    -2
100
AcDbBlockReference
  2
_Open30
 10
253.4512002583625
 20
175.5884346497895
 30
0.0
 41
2.5
 42
2.5
 43
2.5
  0
MTEXT
  5
6E9
330
65B
100
AcDbEntity
  8
0
 62
     4
100
AcDbMText
 10
242.3262002583625
 20
177.4634346497895
 30
0.0
 40
2.5
 41
0.0
 71
     5
 72
     1
  1
15.47
  7
高2.5
 73
     1
 44
1.0
1001
ACAD
1000
MTEXTBEGIN
1070
    73
1070
     1
1070
    44
1040
1.0
1070
    74
1070
     0
1000
MTEXTEND
  0
POINT
  5
6EA
330
65B
100
AcDbEntity
  8
Defpoints
 62
     0
100
AcDbPoint
 10
256.5454360565054
 20
177.1343267192528
 30
0.0
  0
POINT
  5
6EB
330
65B
100
AcDbEntity
  8
Defpoints
 62
     0
100
AcDbPoint
 10
253.4512002583625
 20
177.1343267192528
 30
0.0
  0
POINT
  5
6EC
330
65B
100
AcDbEntity
  8
Defpoints
 62
     0
100
AcDbPoint
 10
253.4512002583625
 20
175.5884346497895
 30
0.0
  0
ENDBLK
  5
65D
330
65B
100
AcDbEntity
  8
0
100
AcDbBlockEnd
  0
BLOCK
  5
66A
330
669
100
AcDbEntity
  8
0
100
AcDbBlockBegin
  2
*D19
 70
     1
 10
0.0
 20
0.0
 30
0.0
  3
*D19
  1

  0
LINE
  5
6ED
330
669
100
AcDbEntity
  8
0
 62
     0
370
    -2
100
AcDbLine
 10
258.2745676645909
 20
171.4282370034063
 30
0.0
 11
258.2745676645909
 21
169.155149341039
 31
0.0
  0
LINE
  5
6EE
330
669
100
AcDbEntity
  8
0
 62
     0
370
    -2
100
AcDbLine
 10
254.270262711399
 20
171.4282370034063
 30
0.0
 11
254.270262711399
 21
169.155149341039
 31
0.0
  0
LINE
  5
6EF
330
669
100
AcDbEntity
  8
0
 62
     0
370
    -2
100
AcDbLine
 10
260.7745676645909
 20
170.405149341039
 30
0.0
 11
263.2745676645909
 21
170.405149341039
 31
0.0
  0
LINE
  5
6F0
330
669
100
AcDbEntity
  8
0
 62
     0
370
    -2
100
AcDbLine
 10
251.770262711399
 20
170.405149341039
 30
0.0
 11
240.020262711399
 21
170.405149341039
 31
0.0
  0
LINE
  5
6F1
330
669
100
AcDbEntity
  8
0
 62
     0
370
    -2
100
AcDbLine
 10
258.2745676645909
 20
170.405149341039
 30
0.0
 11
254.270262711399
 21
170.405149341039
 31
0.0
  0
INSERT
  5
6F2
330
669
100
AcDbEntity
  8
0
 62
     0
370
    -2
100
AcDbBlockReference
  2
_Open30
 10
258.2745676645909
 20
170.405149341039
 30
0.0
 41
2.5
 42
2.5
 43
2.5
 50
180.0
  0
INSERT
  5
6F3
330
669
100
AcDbEntity
  8
0
 62
     0
370
    -2
100
AcDbBlockReference
  2
_Open30
 10
254.270262711399
 20
170.405149341039
 30
0.0
 41
2.5
 42
2.5
 43
2.5
  0
MTEXT
  5
6F4
330
669
100
AcDbEntity
  8
0
 62
     4
100
AcDbMText
 10
244.645262711399
 20
172.630149341039
 30
0.0
 40
3.2
 41
0.0
 71
     5
 72
     1
  1
8.01
  7
高3.2
 73
     1
 44
1.0
1001
ACAD
1000
MTEXTBEGIN
1070
    73
1070
     1
1070
    44
1040
1.0
1070
    74
1070
     0
1000
MTEXTEND
  0
POINT
  5
6F5
330
669
100
AcDbEntity
  8
Defpoints
 62
     0
100
AcDbPoint
 10
258.2745676645909
 20
171.6782370034063
 30
0.0
  0
POINT
  5
6F6
330
669
100
AcDbEntity
  8
Defpoints
 62
     0
100
AcDbPoint
 10
254.270262711399
 20
171.6782370034063
 30
0.0
  0
POINT
  5
6F7
330
669
100
AcDbEntity
  8
Defpoints
 62
     0
100
AcDbPoint
 10
254.270262711399
 20
170.405149341039
 30
0.0
  0
ENDBLK
  5
66B
330
669
100
AcDbEntity
  8
0
100
AcDbBlockEnd
  0
BLOCK
  5
678
330
677
100
AcDbEntity
  8
0
100
AcDbBlockBegin
  2
*D20
 70
     1
 10
0.0
 20
0.0
 30
0.0
  3
*D20
  1

  0
LINE
  5
6F8
330
677
100
AcDbEntity
  8
0
 62
     0
370
    -2
100
AcDbLine
 10
258.1835609625787
 20
166.1540170353747
 30
0.0
 11
258.1835609625787
 21
164.3356035279183
 31
0.0
  0
LINE
  5
6F9
330
677
100
AcDbEntity
  8
0
 62
     0
370
    -2
100
AcDbLine
 10
253.4512002583625
 20
166.1540170353747
 30
0.0
 11
253.4512002583625
 21
164.3356035279183
 31
0.0
  0
LINE
  5
6FA
330
677
100
AcDbEntity
  8
0
 62
     0
370
    -2
100
AcDbLine
 10
260.6835609625786
 20
165.5856035279183
 30
0.0
 11
263.1835609625787
 21
165.5856035279183
 31
0.0
  0
LINE
  5
6FB
330
677
100
AcDbEntity
  8
0
 62
     0
370
    -2
100
AcDbLine
 10
250.9512002583625
 20
165.5856035279183
 30
0.0
 11
229.2012002583625
 21
165.5856035279183
 31
0.0
  0
LINE
  5
6FC
330
677
100
AcDbEntity
  8
0
 62
     0
370
    -2
100
AcDbLine
 10
258.1835609625787
 20
165.5856035279183
 30
0.0
 11
253.4512002583625
 21
165.5856035279183
 31
0.0
  0
INSERT
  5
6FD
330
677
100
AcDbEntity
  8
0
 62
     0
370
    -2
100
AcDbBlockReference
  2
_Open30
 10
258.1835609625787
 20
165.5856035279183
 30
0.0
 41
2.5
 42
2.5
 43
2.5
 50
180.0
  0
INSERT
  5
6FE
330
677
100
AcDbEntity
  8
0
 62
     0
370
    -2
100
AcDbBlockReference
  2
_Open30
 10
253.4512002583625
 20
165.5856035279183
 30
0.0
 41
2.5
 42
2.5
 43
2.5
  0
MTEXT
  5
6FF
330
677
100
AcDbEntity
  8
0
 62
     4
100
AcDbMText
 10
238.8262002583625
 20
168.4606035279183
 30
0.0
 40
4.5
 41
0.0
 71
     5
 72
     1
  1
47.32
  7
高4.5
 73
     1
 44
1.0
1001
ACAD
1000
MTEXTBEGIN
1070
    73
1070
     1
1070
    44
1040
1.0
1070
    74
1070
     0
1000
MTEXTEND
  0
POINT
  5
700
330
677
100
AcDbEntity
  8
Defpoints
 62
     0
100
AcDbPoint
 10
258.1835609625787
 20
166.4040170353747
 30
0.0
  0
POINT
  5
701
330
677
100
AcDbEntity
  8
Defpoints
 62
     0
100
AcDbPoint
 10
253.4512002583625
 20
166.4040170353747
 30
0.0
  0
POINT
  5
702
330
677
100
AcDbEntity
  8
Defpoints
 62
     0
100
AcDbPoint
 10
253.4512002583625
 20
165.5856035279183
 30
0.0
  0
ENDBLK
  5
679
330
677
100
AcDbEntity
  8
0
100
AcDbBlockEnd
  0
BLOCK
  5
686
330
685
100
AcDbEntity
  8
0
100
AcDbBlockBegin
  2
*D21
 70
     1
 10
0.0
 20
0.0
 30
0.0
  3
*D21
  1

  0
LINE
  5
703
330
685
100
AcDbEntity
  8
0
 62
     0
370
    -2
100
AcDbLine
 10
279.6611972305862
 20
182.3404162920152
 30
0.0
 11
279.6611972305862
 21
179.4307848700063
 31
0.0
  0
LINE
  5
704
330
685
100
AcDbEntity
  8
0
 62
     0
370
    -2
100
AcDbLine
 10
277.2040101764658
 20
182.3404162920152
 30
0.0
 11
277.2040101764658
 21
179.4307848700063
 31
0.0
  0
LINE
  5
705
330
685
100
AcDbEntity
  8
0
 62
     0
370
    -2
100
AcDbLine
 10
282.1611972305861
 20
180.6807848700063
 30
0.0
 11
284.6611972305861
 21
180.6807848700063
 31
0.0
  0
LINE
  5
706
330
685
100
AcDbEntity
  8
0
 62
     0
370
    -2
100
AcDbLine
 10
274.7040101764658
 20
180.6807848700063
 30
0.0
 11
253.1040101764658
 21
180.6807848700063
 31
0.0
  0
LINE
  5
707
330
685
100
AcDbEntity
  8
0
 62
     0
370
    -2
100
AcDbLine
 10
279.6611972305862
 20
180.6807848700063
 30
0.0
 11
277.2040101764658
 21
180.6807848700063
 31
0.0
  0
INSERT
  5
708
330
685
100
AcDbEntity
  8
0
 62
     0
370
    -2
100
AcDbBlockReference
  2
_Open30
 10
279.6611972305862
 20
180.6807848700063
 30
0.0
 41
2.5
 42
2.5
 43
2.5
 50
180.0
  0
INSERT
  5
709
330
685
100
AcDbEntity
  8
0
 62
     0
370
    -2
100
AcDbBlockReference
  2
_Open30
 10
277.2040101764658
 20
180.6807848700063
 30
0.0
 41
2.5
 42
2.5
 43
2.5
  0
MTEXT
  5
70A
330
685
100
AcDbEntity
  8
0
 62
     4
100
AcDbMText
 10
262.6540101764657
 20
184.4557848700064
 30
0.0
 40
6.299999999999999
 41
0.0
 71
     5
 72
     1
  1
0.25
  7
高6.3
 73
     1
 44
1.0
1001
ACAD
1000
MTEXTBEGIN
1070
    73
1070
     1
1070
    44
1040
1.0
1070
    74
1070
     0
1000
MTEXTEND
  0
POINT
  5
70B
330
685
100
AcDbEntity
  8
Defpoints
 62
     0
100
AcDbPoint
 10
279.6611972305862
 20
182.5904162920152
 30
0.0
  0
POINT
  5
70C
330
685
100
AcDbEntity
  8
Defpoints
 62
     0
100
AcDbPoint
 10
277.2040101764658
 20
182.5904162920152
 30
0.0
  0
POINT
  5
70D
330
685
100
AcDbEntity
  8
Defpoints
 62
     0
100
AcDbPoint
 10
277.2040101764658
 20
180.6807848700063
 30
0.0
  0
ENDBLK
  5
687
330
685
100
AcDbEntity
  8
0
100
AcDbBlockEnd
  0
BLOCK
  5
694
330
693
100
AcDbEntity
  8
0
100
AcDbBlockBegin
  2
*D22
 70
     1
 10
0.0
 20
0.0
 30
0.0
  3
*D22
  1

  0
LINE
  5
70E
330
693
100
AcDbEntity
  8
0
 62
     0
370
    -2
100
AcDbLine
 10
281.2993221366593
 20
176.8843267192528
 30
0.0
 11
281.2993221366593
 21
174.3384346497895
 31
0.0
  0
LINE
  5
70F
330
693
100
AcDbEntity
  8
0
 62
     0
370
    -2
100
AcDbLine
 10
278.2050863385164
 20
176.8843267192528
 30
0.0
 11
278.2050863385164
 21
174.3384346497895
 31
0.0
  0
LINE
  5
710
330
693
100
AcDbEntity
  8
0
 62
     0
370
    -2
100
AcDbLine
 10
283.7993221366593
 20
175.5884346497895
 30
0.0
 11
286.2993221366593
 21
175.5884346497895
 31
0.0
  0
LINE
  5
711
330
693
100
AcDbEntity
  8
0
 62
     0
370
    -2
100
AcDbLine
 10
275.7050863385164
 20
175.5884346497895
 30
0.0
 11
263.7050863385164
 21
175.5884346497895
 31
0.0
  0
LINE
  5
712
330
693
100
AcDbEntity
  8
0
 62
     0
370
    -2
100
AcDbLine
 10
281.2993221366593
 20
175.5884346497895
 30
0.0
 11
278.2050863385164
 21
175.5884346497895
 31
0.0
  0
INSERT
  5
713
330
693
100
AcDbEntity
  8
0
 62
     0
370
    -2
100
AcDbBlockReference
  2
_Open30
 10
281.2993221366593
 20
175.5884346497895
 30
0.0
 41
2.5
 42
2.5
 43
2.5
 50
180.0
  0
INSERT
  5
714
330
693
100
AcDbEntity
  8
0
 62
     0
370
    -2
100
AcDbBlockReference
  2
_Open30
 10
278.2050863385164
 20
175.5884346497895
 30
0.0
 41
2.5
 42
2.5
 43
2.5
  0
MTEXT
  5
715
330
693
100
AcDbEntity
  8
0
 62
     4
100
AcDbMText
 10
268.3300863385164
 20
177.7134346497895
 30
0.0
 40
3.0
 41
0.0
 71
     5
 72
     1
  1
1.55
 73
     1
 44
1.0
1001
ACAD
1000
MTEXTBEGIN
1070
    73
1070
     1
1070
    44
1040
1.0
1070
    74
1070
     0
1000
MTEXTEND
  0
POINT
  5
716
330
693
100
AcDbEntity
  8
Defpoints
 62
     0
100
AcDbPoint
 10
281.2993221366593
 20
177.1343267192528
 30
0.0
  0
POINT
  5
717
330
693
100
AcDbEntity
  8
Defpoints
 62
     0
100
AcDbPoint
 10
278.2050863385164
 20
177.1343267192528
 30
0.0
  0
POINT
  5
718
330
693
100
AcDbEntity
  8
Defpoints
 62
     0
100
AcDbPoint
 10
278.2050863385164
 20
175.5884346497895
 30
0.0
  0
ENDBLK
  5
695
330
693
100
AcDbEntity
  8
0
100
AcDbBlockEnd
  0
BLOCK
  5
6A2
330
6A1
100
AcDbEntity
  8
0
100
AcDbBlockBegin
  2
*D23
 70
     1
 10
0.0
 20
0.0
 30
0.0
  3
*D23
  1

  0
LINE
  5
719
330
6A1
100
AcDbEntity
  8
0
 62
     0
370
    -2
100
AcDbLine
 10
283.0284537447448
 20
171.4282370034063
 30
0.0
 11
283.0284537447448
 21
169.155149341039
 31
0.0
  0
LINE
  5
71A
330
6A1
100
AcDbEntity
  8
0
 62
     0
370
    -2
100
AcDbLine
 10
279.024148791553
 20
171.4282370034063
 30
0.0
 11
279.024148791553
 21
169.155149341039
 31
0.0
  0
LINE
  5
71B
330
6A1
100
AcDbEntity
  8
0
 62
     0
370
    -2
100
AcDbLine
 10
285.5284537447447
 20
170.405149341039
 30
0.0
 11
288.0284537447447
 21
170.405149341039
 31
0.0
  0
LINE
  5
71C
330
6A1
100
AcDbEntity
  8
0
 62
     0
370
    -2
100
AcDbLine
 10
276.524148791553
 20
170.405149341039
 30
0.0
 11
268.1908154582196
 21
170.405149341039
 31
0.0
  0
LINE
  5
71D
330
6A1
100
AcDbEntity
  8
0
 62
     0
370
    -2
100
AcDbLine
 10
283.0284537447448
 20
170.405149341039
 30
0.0
 11
279.024148791553
 21
170.405149341039
 31
0.0
  0
INSERT
  5
71E
330
6A1
100
AcDbEntity
  8
0
 62
     0
370
    -2
100
AcDbBlockReference
  2
_Open30
 10
283.0284537447448
 20
170.405149341039
 30
0.0
 41
2.5
 42
2.5
 43
2.5
 50
180.0
  0
INSERT
  5
71F
330
6A1
100
AcDbEntity
  8
0
 62
     0
370
    -2
100
AcDbBlockReference
  2
_Open30
 10
279.024148791553
 20
170.405149341039
 30
0.0
 41
2.5
 42
2.5
 43
2.5
  0
MTEXT
  5
720
330
6A1
100
AcDbEntity
  8
0
 62
     4
100
AcDbMText
 10
270.649148791553
 20
172.030149341039
 30
0.0
 40
2.0
 41
0.0
 71
     5
 72
     1
  1
0.8
  7
高2
 73
     1
 44
1.0
1001
ACAD
1000
MTEXTBEGIN
1070
    73
1070
     1
1070
    44
1040
1.0
1070
    74
1070
     0
1000
MTEXTEND
  0
POINT
  5
721
330
6A1
100
AcDbEntity
  8
Defpoints
 62
     0
100
AcDbPoint
 10
283.0284537447448
 20
171.6782370034063
 30
0.0
  0
POINT
  5
722
330
6A1
100
AcDbEntity
  8
Defpoints
 62
     0
100
AcDbPoint
 10
279.024148791553
 20
171.6782370034063
 30
0.0
  0
POINT
  5
723
330
6A1
100
AcDbEntity
  8
Defpoints
 62
     0
100
AcDbPoint
 10
279.024148791553
 20
170.405149341039
 30
0.0
  0
ENDBLK
  5
6A3
330
6A1
100
AcDbEntity
  8
0
100
AcDbBlockEnd
  0
BLOCK
  5
6B0
330
6AF
100
AcDbEntity
  8
0
100
AcDbBlockBegin
  2
*D24
 70
     1
 10
0.0
 20
0.0
 30
0.0
  3
*D24
  1

  0
LINE
  5
724
330
6AF
100
AcDbEntity
  8
0
 62
     0
370
    -2
100
AcDbLine
 10
282.9374470427324
 20
166.1540170353747
 30
0.0
 11
282.9374470427324
 21
164.3356035279183
 31
0.0
  0
LINE
  5
725
330
6AF
100
AcDbEntity
  8
0
 62
     0
370
    -2
100
AcDbLine
 10
278.2050863385164
 20
166.1540170353747
 30
0.0
 11
278.2050863385164
 21
164.3356035279183
 31
0.0
  0
LINE
  5
726
330
6AF
100
AcDbEntity
  8
0
 62
     0
370
    -2
100
AcDbLine
 10
285.4374470427324
 20
165.5856035279183
 30
0.0
 11
287.9374470427324
 21
165.5856035279183
 31
0.0
  0
LINE
  5
727
330
6AF
100
AcDbEntity
  8
0
 62
     0
370
    -2
100
AcDbLine
 10
275.7050863385164
 20
165.5856035279183
 30
0.0
 11
260.9550863385164
 21
165.5856035279183
 31
0.0
  0
LINE
  5
728
330
6AF
100
AcDbEntity
  8
0
 62
     0
370
    -2
100
AcDbLine
 10
282.9374470427324
 20
165.5856035279183
 30
0.0
 11
278.2050863385164
 21
165.5856035279183
 31
0.0
  0
INSERT
  5
729
330
6AF
100
AcDbEntity
  8
0
 62
     0
370
    -2
100
AcDbBlockReference
  2
_Open30
 10
282.9374470427324
 20
165.5856035279183
 30
0.0
 41
2.5
 42
2.5
 43
2.5
 50
180.0
  0
INSERT
  5
72A
330
6AF
100
AcDbEntity
  8
0
 62
     0
370
    -2
100
AcDbBlockReference
  2
_Open30
 10
278.2050863385164
 20
165.5856035279183
 30
0.0
 41
2.5
 42
2.5
 43
2.5
  0
MTEXT
  5
72B
330
6AF
100
AcDbEntity
  8
0
 62
     4
100
AcDbMText
 10
267.0800863385164
 20
167.7106035279183
 30
0.0
 40
3.0
 41
0.0
 71
     5
 72
     1
  1
18.93
 73
     1
 44
1.0
1001
ACAD
1000
MTEXTBEGIN
1070
    73
1070
     1
1070
    44
1040
1.0
1070
    74
1070
     0
1000
MTEXTEND
  0
POINT
  5
72C
330
6AF
100
AcDbEntity
  8
Defpoints
 62
     0
100
AcDbPoint
 10
282.9374470427324
 20
166.4040170353747
 30
0.0
  0
POINT
  5
72D
330
6AF
100
AcDbEntity
  8
Defpoints
 62
     0
100
AcDbPoint
 10
278.2050863385164
 20
166.4040170353747
 30
0.0
  0
POINT
  5
72E
330
6AF
100
AcDbEntity
  8
Defpoints
 62
     0
100
AcDbPoint
 10
278.2050863385164
 20
165.5856035279183
 30
0.0
  0
ENDBLK
  5
6B1
330
6AF
100
AcDbEntity
  8
0
100
AcDbBlockEnd
  0
BLOCK
  5
6BE
330
6BD
100
AcDbEntity
  8
0
100
AcDbBlockBegin
  2
*D25
 70
     1
 10
0.0
 20
0.0
 30
0.0
  3
*D25
  1

  0
LINE
  5
72F
330
6BD
100
AcDbEntity
  8
0
 62
     0
370
    -2
100
AcDbLine
 10
280.1330201915941
 20
161.0981768287849
 30
0.0
 11
280.1330201915941
 21
158.7882557519094
 31
0.0
  0
LINE
  5
730
330
6BD
100
AcDbEntity
  8
0
 62
     0
370
    -2
100
AcDbLine
 10
275.5443449894463
 20
161.0981768287849
 30
0.0
 11
275.5443449894463
 21
158.7882557519094
 31
0.0
  0
LINE
  5
731
330
6BD
100
AcDbEntity
  8
0
 62
     0
370
    -2
100
AcDbLine
 10
282.6330201915941
 20
160.0382557519094
 30
0.0
 11
285.1330201915942
 21
160.0382557519094
 31
0.0
  0
LINE
  5
732
330
6BD
100
AcDbEntity
  8
0
 62
     0
370
    -2
100
AcDbLine
 10
273.0443449894462
 20
160.0382557519094
 30
0.0
 11
258.2943449894462
 21
160.0382557519094
 31
0.0
  0
LINE
  5
733
330
6BD
100
AcDbEntity
  8
0
 62
     0
370
    -2
100
AcDbLine
 10
280.1330201915941
 20
160.0382557519094
 30
0.0
 11
275.5443449894463
 21
160.0382557519094
 31
0.0
  0
INSERT
  5
734
330
6BD
100
AcDbEntity
  8
0
 62
     0
370
    -2
100
AcDbBlockReference
  2
_Open30
 10
280.1330201915941
 20
160.0382557519094
 30
0.0
 41
2.5
 42
2.5
 43
2.5
 50
180.0
  0
INSERT
  5
735
330
6BD
100
AcDbEntity
  8
0
 62
     0
370
    -2
100
AcDbBlockReference
  2
_Open30
 10
275.5443449894463
 20
160.0382557519094
 30
0.0
 41
2.5
 42
2.5
 43
2.5
  0
MTEXT
  5
736
330
6BD
100
AcDbEntity
  8
0
 62
     4
100
AcDbMText
 10
264.4193449894463
 20
162.1632557519094
 30
0.0
 40
3.0
 41
0.0
 71
     5
 72
     1
  1
13.77
 73
     1
 44
1.0
1001
ACAD
1000
MTEXTBEGIN
1070
    73
1070
     1
1070
    44
1040
1.0
1070
    74
1070
     0
1000
MTEXTEND
  0
POINT
  5
737
330
6BD
100
AcDbEntity
  8
Defpoints
 62
     0
100
AcDbPoint
 10
280.1330201915941
 20
161.3481768287849
 30
0.0
  0
POINT
  5
738
330
6BD
100
AcDbEntity
  8
Defpoints
 62
     0
100
AcDbPoint
 10
275.5443449894463
 20
161.3481768287849
 30
0.0
  0
POINT
  5
739
330
6BD
100
AcDbEntity
  8
Defpoints
 62
     0
100
AcDbPoint
 10
275.5443449894463
 20
160.0382557519094
 30
0.0
  0
ENDBLK
  5
6BF
330
6BD
100
AcDbEntity
  8
0
100
AcDbBlockEnd
  0
BLOCK
  5
6CC
330
6CB
100
AcDbEntity
  8
0
100
AcDbBlockBegin
  2
*D26
 70
     1
 10
0.0
 20
0.0
 30
0.0
  3
*D26
  1

  0
LINE
  5
73A
330
6CB
100
AcDbEntity
  8
0
 62
     0
370
    -2
100
AcDbLine
 10
273.0367373584438
 20
192.0276681470593
 30
0.0
 11
273.0367373584438
 21
199.424201624997
 31
0.0
  0
LINE
  5
73B
330
6CB
100
AcDbEntity
  8
0
 62
     0
370
    -2
100
AcDbLine
 10
263.0982629889538
 20
192.0276681470593
 30
0.0
 11
263.0982629889538
 21
199.424201624997
 31
0.0
  0
LINE
  5
73C
330
6CB
100
AcDbEntity
  8
0
 62
     0
370
    -2
100
AcDbLine
 10
270.5367373584438
 20
198.174201624997
 30
0.0
 11
265.5982629889538
 21
198.174201624997
 31
0.0
  0
INSERT
  5
73D
330
6CB
100
AcDbEntity
  8
0
 62
     0
370
    -2
100
AcDbBlockReference
  2
_Open30
 10
273.0367373584438
 20
198.174201624997
 30
0.0
 41
2.5
 42
2.5
 43
2.5
  0
INSERT
  5
73E
330
6CB
100
AcDbEntity
  8
0
 62
     0
370
    -2
100
AcDbBlockReference
  2
_Open30
 10
263.0982629889538
 20
198.174201624997
 30
0.0
 41
2.5
 42
2.5
 43
2.5
 50
180.0
  0
MTEXT
  5
73F
330
6CB
100
AcDbEntity
  8
0
 62
     4
100
AcDbMText
 10
265.9618905200339
 20
200.2992016249971
 30
0.0
 40
3.0
 41
0.0
 71
     5
 72
     1
  1
9.94
 73
     1
 44
1.0
1001
ACAD
1000
MTEXTBEGIN
1070
    73
1070
     1
1070
    44
1040
1.0
1070
    74
1070
     0
1000
MTEXTEND
  0
POINT
  5
740
330
6CB
100
AcDbEntity
  8
Defpoints
 62
     0
100
AcDbPoint
 10
273.0367373584438
 20
191.7776681470593
 30
0.0
  0
POINT
  5
741
330
6CB
100
AcDbEntity
  8
Defpoints
 62
     0
100
AcDbPoint
 10
263.0982629889538
 20
191.7776681470593
 30
0.0
  0
POINT
  5
742
330
6CB
100
AcDbEntity
  8
Defpoints
 62
     0
100
AcDbPoint
 10
263.0982629889538
 20
198.174201624997
 30
0.0
  0
ENDBLK
  5
6CD
330
6CB
100
AcDbEntity
  8
0
100
AcDbBlockEnd
  0
BLOCK
  5
749
330
748
100
AcDbEntity
  8
0
100
AcDbBlockBegin
  2
*D27
 70
     1
 10
0.0
 20
0.0
 30
0.0
  3
*D27
  1

  0
LINE
  5
74B
330
748
100
AcDbEntity
  8
001
 62
     0
370
    -2
100
AcDbLine
 10
-266.755367
 20
188.5242989999999
 30
0.0
 11
-266.755367
 21
161.213019
 31
0.0
  0
LINE
  5
74C
330
748
100
AcDbEntity
  8
001
 62
     0
370
    -2
100
AcDbLine
 10
-91.755367
 20
188.5242989999999
 30
0.0
 11
-91.755367
 21
161.213019
 31
0.0
  0
LINE
  5
74D
330
748
100
AcDbEntity
  8
001
 62
     0
370
    -2
100
AcDbLine
 10
-264.255367
 20
162.463019
 30
0.0
 11
-94.255367
 21
162.463019
 31
0.0
  0
INSERT
  5
74E
330
748
100
AcDbEntity
  8
001
 62
     0
370
    -2
100
AcDbBlockReference
  2
_Open30
 10
-266.755367
 20
162.463019
 30
0.0
 41
2.5
 42
2.5
 43
2.5
 50
180.0
  0
INSERT
  5
74F
330
748
100
AcDbEntity
  8
001
 62
     0
370
    -2
100
AcDbBlockReference
  2
_Open30
 10
-91.755367
 20
162.463019
 30
0.0
 41
2.5
 42
2.5
 43
2.5
  0
MTEXT
  5
750
330
748
100
AcDbEntity
  8
001
 62
     4
100
AcDbMText
 10
-179.255367
 20
164.588019
 30
0.0
 40
3.0
 41
0.0
 71
     5
 72
     1
  1
350
 73
     1
 44
1.0
1001
ACAD
1000
MTEXTBEGIN
1070
    73
1070
     1
1070
    44
1040
1.0
1070
    74
1070
     0
1000
MTEXTEND
  0
POINT
  5
751
330
748
100
AcDbEntity
  8
Defpoints
 62
     0
100
AcDbPoint
 10
-266.755367
 20
188.7742989999999
 30
0.0
  0
POINT
  5
752
330
748
100
AcDbEntity
  8
Defpoints
 62
     0
100
AcDbPoint
 10
-91.755367
 20
188.7742989999999
 30
0.0
  0
POINT
  5
753
330
748
100
AcDbEntity
  8
Defpoints
 62
     0
100
AcDbPoint
 10
-91.755367
 20
162.463019
 30
0.0
  0
ENDBLK
  5
74A
330
748
100
AcDbEntity
  8
0
100
AcDbBlockEnd
  0
BLOCK
  5
755
330
754
100
AcDbEntity
  8
0
100
AcDbBlockBegin
  2
*D28
 70
     1
 10
0.0
 20
0.0
 30
0.0
  3
*D28
  1

  0
LINE
  5
757
330
754
100
AcDbEntity
  8
001
 62
     0
370
    -2
100
AcDbLine
 10
-179.5053669999999
 20
174.662225
 30
0.0
 11
-284.879215
 21
174.662225
 31
0.0
  0
LINE
  5
758
330
754
100
AcDbEntity
  8
001
 62
     0
370
    -2
100
AcDbLine
 10
-179.5053669999999
 20
208.662225
 30
0.0
 11
-284.879215
 21
208.662225
 31
0.0
  0
LINE
  5
759
330
754
100
AcDbEntity
  8
001
 62
     0
370
    -2
100
AcDbLine
 10
-283.629215
 20
177.162225
 30
0.0
 11
-283.629215
 21
206.162225
 31
0.0
  0
INSERT
  5
75A
330
754
100
AcDbEntity
  8
001
 62
     0
370
    -2
100
AcDbBlockReference
  2
_Open30
 10
-283.629215
 20
174.662225
 30
0.0
 41
2.5
 42
2.5
 43
2.5
 50
270.0
  0
INSERT
  5
75B
330
754
100
AcDbEntity
  8
001
 62
     0
370
    -2
100
AcDbBlockReference
  2
_Open30
 10
-283.629215
 20
208.662225
 30
0.0
 41
2.5
 42
2.5
 43
2.5
 50
90.0
  0
MTEXT
  5
75C
330
754
100
AcDbEntity
  8
001
 62
     4
100
AcDbMText
 10
-285.754215
 20
191.662225
 30
0.0
 40
3.0
 41
0.0
 71
     5
 72
     1
  1
68
 11
0.0000000000000001
 21
1.0
 31
0.0
 73
     1
 44
1.0
1001
ACAD
1000
MTEXTBEGIN
1070
    73
1070
     1
1070
    44
1040
1.0
1070
    74
1070
     0
1000
MTEXTEND
  0
POINT
  5
75D
330
754
100
AcDbEntity
  8
Defpoints
 62
     0
100
AcDbPoint
 10
-179.255367
 20
174.662225
 30
0.0
  0
POINT
  5
75E
330
754
100
AcDbEntity
  8
Defpoints
 62
     0
100
AcDbPoint
 10
-179.255367
 20
208.662225
 30
0.0
  0
POINT
  5
75F
330
754
100
AcDbEntity
  8
Defpoints
 62
     0
100
AcDbPoint
 10
-283.629215
 20
208.662225
 30
0.0
  0
ENDBLK
  5
756
330
754
100
AcDbEntity
  8
0
100
AcDbBlockEnd
  0
BLOCK
  5
761
330
760
100
AcDbEntity
  8
0
100
AcDbBlockBegin
  2
*D29
 70
     1
 10
0.0
 20
0.0
 30
0.0
  3
*D29
  1

  0
LINE
  5
781
330
760
100
AcDbEntity
  8
001
 62
     0
370
    -2
100
AcDbLine
 10
-255.67623
 20
176.793066
 30
0.0
 11
-277.440233
 21
176.793066
 31
0.0
  0
LINE
  5
782
330
760
100
AcDbEntity
  8
001
 62
     0
370
    -2
100
AcDbLine
 10
-255.67623
 20
206.531385
 30
0.0
 11
-277.440233
 21
206.531385
 31
0.0
  0
LINE
  5
783
330
760
100
AcDbEntity
  8
001
 62
     0
370
    -2
100
AcDbLine
 10
-276.190233
 20
179.293066
 30
0.0
 11
-276.190233
 21
204.031385
 31
0.0
  0
INSERT
  5
784
330
760
100
AcDbEntity
  8
001
 62
     0
370
    -2
100
AcDbBlockReference
  2
_Open30
 10
-276.190233
 20
176.793066
 30
0.0
 41
2.5
 42
2.5
 43
2.5
 50
270.0
  0
INSERT
  5
785
330
760
100
AcDbEntity
  8
001
 62
     0
370
    -2
100
AcDbBlockReference
  2
_Open30
 10
-276.190233
 20
206.531385
 30
0.0
 41
2.5
 42
2.5
 43
2.5
 50
90.0
  0
MTEXT
  5
786
330
760
100
AcDbEntity
  8
001
 62
     4
100
AcDbMText
 10
-278.3152330000001
 20
191.6622254999999
 30
0.0
 40
3.0
 41
0.0
 71
     5
 72
     1
  1
60
 11
0.0000000000000001
 21
1.0
 31
0.0
 73
     1
 44
1.0
1001
ACAD
1000
MTEXTBEGIN
1070
    73
1070
     1
1070
    44
1040
1.0
1070
    74
1070
     0
1000
MTEXTEND
  0
POINT
  5
787
330
760
100
AcDbEntity
  8
Defpoints
 62
     0
100
AcDbPoint
 10
-255.42623
 20
176.793066
 30
0.0
  0
POINT
  5
788
330
760
100
AcDbEntity
  8
Defpoints
 62
     0
100
AcDbPoint
 10
-255.42623
 20
206.531385
 30
0.0
  0
POINT
  5
789
330
760
100
AcDbEntity
  8
Defpoints
 62
     0
100
AcDbPoint
 10
-276.190233
 20
206.531385
 30
0.0
  0
ENDBLK
  5
762
330
760
100
AcDbEntity
  8
0
100
AcDbBlockEnd
  0
BLOCK
  5
76D
330
76C
100
AcDbEntity
  8
0
100
AcDbBlockBegin
  2
*D30
 70
     1
 10
0.0
 20
0.0
 30
0.0
  3
*D30
  1

  0
LINE
  5
778
330
76C
100
AcDbEntity
  8
001
 62
     0
370
    -2
100
AcDbLine
 10
-264.505367
 20
89.393858
 30
0.0
 11
-279.2391640000001
 21
89.393858
 31
0.0
  0
LINE
  5
779
330
76C
100
AcDbEntity
  8
001
 62
     0
370
    -2
100
AcDbLine
 10
-264.505367
 20
148.404967
 30
0.0
 11
-279.239164
 21
148.404967
 31
0.0
  0
LINE
  5
77A
330
76C
100
AcDbEntity
  8
001
 62
     0
370
    -2
100
AcDbLine
 10
-277.9891640000001
 20
91.893858
 30
0.0
 11
-277.989164
 21
145.904967
 31
0.0
  0
INSERT
  5
77B
330
76C
100
AcDbEntity
  8
001
 62
     0
370
    -2
100
AcDbBlockReference
  2
_Open30
 10
-277.9891640000001
 20
89.393858
 30
0.0
 41
2.5
 42
2.5
 43
2.5
 50
270.0
  0
INSERT
  5
77C
330
76C
100
AcDbEntity
  8
001
 62
     0
370
    -2
100
AcDbBlockReference
  2
_Open30
 10
-277.989164
 20
148.404967
 30
0.0
 41
2.5
 42
2.5
 43
2.5
 50
90.0
  0
MTEXT
  5
77D
330
76C
100
AcDbEntity
  8
001
 62
     4
100
AcDbMText
 10
-280.1141640000001
 20
118.8994124999999
 30
0.0
 40
3.0
 41
0.0
 71
     5
 72
     1
  1
118
 11
0.0000000000000001
 21
1.0
 31
0.0
 73
     1
 44
1.0
1001
ACAD
1000
MTEXTBEGIN
1070
    73
1070
     1
1070
    44
1040
1.0
1070
    74
1070
     0
1000
MTEXTEND
  0
POINT
  5
77E
330
76C
100
AcDbEntity
  8
Defpoints
 62
     0
100
AcDbPoint
 10
-264.255367
 20
89.393858
 30
0.0
  0
POINT
  5
77F
330
76C
100
AcDbEntity
  8
Defpoints
 62
     0
100
AcDbPoint
 10
-264.255367
 20
148.404967
 30
0.0
  0
POINT
  5
780
330
76C
100
AcDbEntity
  8
Defpoints
 62
     0
100
AcDbPoint
 10
-277.989164
 20
148.404967
 30
0.0
  0
ENDBLK
  5
76E
330
76C
100
AcDbEntity
  8
0
100
AcDbBlockEnd
  0
ENDSEC
  0
SECTION
  2
ENTITIES
  0
ARC
  5
93
330
36
100
AcDbEntity
  8
001
 62
     3
100
AcDbCircle
 10
-179.255367
 20
-155.856142
 30
0.0
 40
258.25
100
AcDbArc
 50
86.49096
 51
86.59479899999999
  0
CIRCLE
  5
94
330
36
100
AcDbEntity
  8
001
 62
     3
100
AcDbCircle
 10
-133.31831
 20
132.404967
 30
0.0
 40
2.0
  0
LINE
  5
95
330
36
100
AcDbEntity
  8
001
 62
     3
100
AcDbLine
 10
-191.130367
 20
93.45467499999999
 30
0.0
 11
-191.130367
 21
92.95467499999999
 31
0.0
  0
LINE
  5
96
330
36
100
AcDbEntity
  8
001
 62
     3
100
AcDbLine
 10
-197.380367
 20
93.45467499999999
 30
0.0
 11
-197.380367
 21
92.96891100000001
 31
0.0
  0
LINE
  5
97
330
36
100
AcDbEntity
  8
001
 62
     3
100
AcDbLine
 10
-144.255367
 20
39.501504
 30
0.0
 11
-144.255367
 21
46.75150399999998
 31
0.0
  0
LINE
  5
98
330
36
100
AcDbEntity
  8
001
 62
     3
100
AcDbLine
 10
-144.255367
 20
39.501504
 30
0.0
 11
-144.255367
 21
35.590951
 31
0.0
  0
LINE
  5
99
330
36
100
AcDbEntity
  8
001
 62
     3
100
AcDbLine
 10
-214.255367
 20
35.590951
 30
0.0
 11
-214.255367
 21
46.75150399999998
 31
0.0
  0
LINE
  5
9A
330
36
100
AcDbEntity
  8
001
 62
     3
100
AcDbLine
 10
-144.255367
 20
34.501504
 30
0.0
 11
-214.3755
 21
34.501504
 31
0.0
  0
LINE
  5
9B
330
36
100
AcDbEntity
  8
001
 62
     3
100
AcDbLine
 10
-196.755367
 20
39.751504
 30
0.0
 11
-191.755367
 21
39.751504
 31
0.0
  0
LINE
  5
9C
330
36
100
AcDbEntity
  8
001
 62
     3
100
AcDbLine
 10
-214.255367
 20
54.501504
 30
0.0
 11
-214.255367
 21
47.25150399999999
 31
0.0
  0
LINE
  5
9D
330
36
100
AcDbEntity
  8
001
 62
     3
100
AcDbLine
 10
-214.255367
 20
54.501504
 30
0.0
 11
-214.255367
 21
58.412058
 31
0.0
  0
LINE
  5
9E
330
36
100
AcDbEntity
  8
001
 62
     3
100
AcDbLine
 10
-144.255367
 20
58.412058
 30
0.0
 11
-144.255367
 21
47.25150399999999
 31
0.0
  0
LINE
  5
9F
330
36
100
AcDbEntity
  8
001
 62
     3
100
AcDbLine
 10
-161.7553669999999
 20
54.251504
 30
0.0
 11
-166.755367
 21
54.251504
 31
0.0
  0
LINE
  5
A0
330
36
100
AcDbEntity
  8
001
 62
     3
100
AcDbLine
 10
-214.755367
 20
47.25150399999999
 30
0.0
 11
-214.755367
 21
46.75150399999998
 31
0.0
  0
LINE
  5
A1
330
36
100
AcDbEntity
  8
001
 62
     3
100
AcDbLine
 10
-196.755367
 20
54.251504
 30
0.0
 11
-191.755367
 21
54.251504
 31
0.0
  0
LINE
  5
A2
330
36
100
AcDbEntity
  8
001
 62
     3
100
AcDbLine
 10
-161.7553669999999
 20
39.751504
 30
0.0
 11
-166.755367
 21
39.751504
 31
0.0
  0
LINE
  5
A3
330
36
100
AcDbEntity
  8
001
 62
     3
100
AcDbLine
 10
-143.7553669999999
 20
46.75150399999998
 30
0.0
 11
-143.7553669999999
 21
47.25150399999999
 31
0.0
  0
LINE
  5
A4
330
36
100
AcDbEntity
  8
001
100
AcDbLine
 10
-179.255367
 20
47.25150399999999
 30
0.0
 11
-141.755367
 21
47.25150399999999
 31
0.0
  0
LINE
  5
A5
330
36
100
AcDbEntity
  8
001
100
AcDbLine
 10
-179.255367
 20
46.75150399999998
 30
0.0
 11
-141.755367
 21
46.75150399999998
 31
0.0
  0
LINE
  5
A6
330
36
100
AcDbEntity
  8
001
100
AcDbLine
 10
-179.255367
 20
47.25150399999999
 30
0.0
 11
-216.755367
 21
47.25150399999999
 31
0.0
  0
LINE
  5
A7
330
36
100
AcDbEntity
  8
001
100
AcDbLine
 10
-179.255367
 20
46.75150399999998
 30
0.0
 11
-216.755367
 21
46.75150399999998
 31
0.0
  0
LINE
  5
A8
330
36
100
AcDbEntity
  8
001
100
AcDbLine
 10
-236.131252
 20
47.25150399999999
 30
0.0
 11
-233.631252
 21
47.25150399999999
 31
0.0
  0
LINE
  5
A9
330
36
100
AcDbEntity
  8
001
100
AcDbLine
 10
-236.131252
 20
46.75150399999998
 30
0.0
 11
-233.631252
 21
46.75150399999998
 31
0.0
  0
LINE
  5
AA
330
36
100
AcDbEntity
  8
001
100
AcDbLine
 10
-124.879482
 20
47.25150399999999
 30
0.0
 11
-122.379482
 21
47.25150399999999
 31
0.0
  0
LINE
  5
AB
330
36
100
AcDbEntity
  8
001
100
AcDbLine
 10
-122.379482
 20
46.75150399999998
 30
0.0
 11
-124.879482
 21
46.75150399999998
 31
0.0
  0
TEXT
  5
BF
330
36
100
AcDbEntity
  8
001
 62
     3
100
AcDbText
 10
-1.307933999999999
 20
-26.138179
 30
0.0
 40
3.2
  1
1996.12.18
  7
高3.2
100
AcDbText
  0
TEXT
  5
C0
330
36
100
AcDbEntity
  8
001
 62
     3
100
AcDbText
 10
-57.73366899999999
 20
-5.344179
 30
0.0
 40
4.5
  1
ハンドリール
  7
高4.5
100
AcDbText
  0
TEXT
  5
C1
330
36
100
AcDbEntity
  8
001
 62
     3
100
AcDbText
 10
-28.616511
 20
-26.138179
 30
0.0
 40
3.2
  1
1/2
  7
高3.2
100
AcDbText
  0
CIRCLE
  5
C2
330
36
100
AcDbEntity
  8
001
100
AcDbCircle
 10
-95.25536700000001
 20
145.496241
 30
0.0
 40
0.8
  0
CIRCLE
  5
C3
330
36
100
AcDbEntity
  8
001
100
AcDbCircle
 10
-133.31831
 20
132.404967
 30
0.0
 40
1.125
  0
CIRCLE
  5
C4
330
36
100
AcDbEntity
  8
001
100
AcDbCircle
 10
-127.873958
 20
94.393858
 30
0.0
 40
1.125
  0
CIRCLE
  5
C5
330
36
100
AcDbEntity
  8
001
100
AcDbCircle
 10
-95.25536700000001
 20
92.302584
 30
0.0
 40
0.8
  0
CIRCLE
  5
C6
330
36
100
AcDbEntity
  8
001
100
AcDbCircle
 10
-206.755367
 20
94.393858
 30
0.0
 40
1.125
  0
CIRCLE
  5
C7
330
36
100
AcDbEntity
  8
001
 62
     3
100
AcDbCircle
 10
-95.25536700000001
 20
92.302584
 30
0.0
 40
2.0
  0
CIRCLE
  5
C8
330
36
100
AcDbEntity
  8
001
 62
     3
100
AcDbCircle
 10
-95.25536700000001
 20
145.496241
 30
0.0
 40
2.0
  0
CIRCLE
  5
C9
330
36
100
AcDbEntity
  8
001
 62
     3
100
AcDbCircle
 10
-127.873958
 20
94.393858
 30
0.0
 40
2.0
  0
CIRCLE
  5
CA
330
36
100
AcDbEntity
  8
001
 62
     3
100
AcDbCircle
 10
-206.755367
 20
94.393858
 30
0.0
 40
2.0
  0
CIRCLE
  5
CB
330
36
100
AcDbEntity
  8
001
  6
PHANTOM
100
AcDbCircle
 10
-124.957363
 20
134.189125
 30
0.0
 40
3.0
  0
CIRCLE
  5
CC
330
36
100
AcDbEntity
  8
001
  6
PHANTOM
100
AcDbCircle
 10
-124.957363
 20
128.189125
 30
0.0
 40
3.0
  0
CIRCLE
  5
CD
330
36
100
AcDbEntity
  8
001
  6
PHANTOM
100
AcDbCircle
 10
-124.957363
 20
122.189125
 30
0.0
 40
3.0
  0
CIRCLE
  5
CE
330
36
100
AcDbEntity
  8
001
  6
PHANTOM
100
AcDbCircle
 10
-124.957363
 20
116.189125
 30
0.0
 40
3.0
  0
CIRCLE
  5
CF
330
36
100
AcDbEntity
  8
001
  6
PHANTOM
100
AcDbCircle
 10
-124.957363
 20
110.189125
 30
0.0
 40
3.0
  0
CIRCLE
  5
D0
330
36
100
AcDbEntity
  8
001
  6
PHANTOM
100
AcDbCircle
 10
-124.957363
 20
104.189125
 30
0.0
 40
3.0
  0
CIRCLE
  5
D1
330
36
100
AcDbEntity
  8
001
  6
PHANTOM
100
AcDbCircle
 10
-233.553372
 20
133.689125
 30
0.0
 40
3.0
  0
CIRCLE
  5
D2
330
36
100
AcDbEntity
  8
001
  6
PHANTOM
100
AcDbCircle
 10
-233.553372
 20
127.689125
 30
0.0
 40
3.0
  0
CIRCLE
  5
D3
330
36
100
AcDbEntity
  8
001
  6
PHANTOM
100
AcDbCircle
 10
-233.553372
 20
121.689125
 30
0.0
 40
3.0
  0
CIRCLE
  5
D4
330
36
100
AcDbEntity
  8
001
  6
PHANTOM
100
AcDbCircle
 10
-233.553372
 20
115.689125
 30
0.0
 40
3.0
  0
CIRCLE
  5
D5
330
36
100
AcDbEntity
  8
001
  6
PHANTOM
100
AcDbCircle
 10
-233.553372
 20
109.689125
 30
0.0
 40
3.0
  0
CIRCLE
  5
D6
330
36
100
AcDbEntity
  8
001
  6
PHANTOM
100
AcDbCircle
 10
-233.553372
 20
103.689125
 30
0.0
 40
3.0
  0
LINE
  5
D7
330
36
100
AcDbEntity
  8
001
 62
     3
100
AcDbLine
 10
-58.627959
 20
42.80810999999999
 30
0.0
 11
-58.627959
 21
14.00811
 31
0.0
  0
LINE
  5
D8
330
36
100
AcDbEntity
  8
001
100
AcDbLine
 10
-34.37981987343824
 20
27.44811
 30
0.0
 11
-34.37981987343824
 21
14.00811
 31
0.0
  0
LINE
  5
D9
330
36
100
AcDbEntity
  8
001
 62
     3
100
AcDbLine
 10
-1.158646999999998
 20
42.80810999999999
 30
0.0
 11
-1.158646999999998
 21
14.00811
 31
0.0
  0
LINE
  5
DA
330
36
100
AcDbEntity
  8
001
 62
     3
100
AcDbLine
 10
-38.001624
 20
109.20194
 30
0.0
 11
-38.501624
 21
93.576942
 31
0.0
  0
LINE
  5
DB
330
36
100
AcDbEntity
  8
001
 62
     3
100
AcDbLine
 10
-45.073052
 20
109.20194
 30
0.0
 11
-44.50162399999999
 21
93.576942
 31
0.0
  0
LINE
  5
DC
330
36
100
AcDbEntity
  8
001
 62
     3
100
AcDbLine
 10
-144.255367
 20
113.837902
 30
0.0
 11
-145.247099
 21
113.837902
 31
0.0
  0
LINE
  5
DD
330
36
100
AcDbEntity
  8
001
 62
     3
100
AcDbLine
 10
-144.255367
 20
105.393858
 30
0.0
 11
-145.247099
 21
105.393858
 31
0.0
  0
ARC
  5
DE
330
36
100
AcDbEntity
  8
001
 62
     3
100
AcDbCircle
 10
-220.558518
 20
109.61588
 30
0.0
 40
7.586513
100
AcDbArc
 50
326.184746
 51
33.815254
  0
LINE
  5
DF
330
36
100
AcDbEntity
  8
001
 62
     3
100
AcDbLine
 10
-145.247099
 20
113.837902
 30
0.0
 11
-145.247099
 21
105.393858
 31
0.0
  0
TEXT
  5
E0
330
36
100
AcDbEntity
  8
001
 62
     3
100
AcDbText
 10
-57.559105
 20
-19.344179
 30
0.0
 40
3.2
  1
別　掲
  7
高3.2
100
AcDbText
  0
LINE
  5
E1
330
36
100
AcDbEntity
  8
001
  6
PHANTOM
100
AcDbLine
 10
-145.247099
 20
112.689125
 30
0.0
 11
-233.553372
 21
106.689125
 31
0.0
  0
LINE
  5
E2
330
36
100
AcDbEntity
  8
001
  6
PHANTOM
100
AcDbLine
 10
-145.247099
 20
106.689125
 30
0.0
 11
-233.553372
 21
100.689125
 31
0.0
  0
LINE
  5
F5
330
36
100
AcDbEntity
  8
001
  6
PHANTOM
100
AcDbLine
 10
-124.957363
 20
137.189125
 30
0.0
 11
-80.582161
 21
137.189125
 31
0.0
  0
LINE
  5
F6
330
36
100
AcDbEntity
  8
001
  6
PHANTOM
100
AcDbLine
 10
-124.957363
 20
131.189125
 30
0.0
 11
-80.17987899999999
 21
131.189125
 31
0.0
  0
LINE
  5
F7
330
36
100
AcDbEntity
  8
001
100
AcDbLine
 10
-122.379482
 20
191.912225
 30
0.0
 11
-130.3803669999999
 21
191.912225
 31
0.0
  0
LINE
  5
F8
330
36
100
AcDbEntity
  8
001
100
AcDbLine
 10
-122.379482
 20
191.412225
 30
0.0
 11
-130.3803669999999
 21
191.412225
 31
0.0
  0
LINE
  5
F9
330
36
100
AcDbEntity
  8
001
100
AcDbLine
 10
-236.131252
 20
191.912225
 30
0.0
 11
-228.130367
 21
191.912225
 31
0.0
  0
LINE
  5
FA
330
36
100
AcDbEntity
  8
001
100
AcDbLine
 10
-236.131252
 20
191.412225
 30
0.0
 11
-228.130367
 21
191.412225
 31
0.0
  0
LINE
  5
FB
330
36
100
AcDbEntity
  8
001
 62
     3
100
AcDbLine
 10
-125.937466
 20
93.89385799999999
 30
0.0
 11
-125.379482
 21
93.89385799999999
 31
0.0
  0
LINE
  5
FC
330
36
100
AcDbEntity
  8
001
 62
     3
100
AcDbLine
 10
-125.937466
 20
94.89385799999999
 30
0.0
 11
-125.379482
 21
94.89385799999999
 31
0.0
  0
LINE
  5
FD
330
36
100
AcDbEntity
  8
001
100
AcDbLine
 10
-50.8327910762307
 20
78.88870217130705
 30
0.0
 11
-6.008310758296147
 21
78.88870217130705
 31
0.0
  0
TEXT
  5
FE
330
36
100
AcDbEntity
  8
001
 62
     3
100
AcDbText
 10
-59.253468
 20
-12.344179
 30
0.0
 40
4.5
  1
HR-E104-G
  7
高4.5
100
AcDbText
  0
TEXT
  5
FF
330
36
100
AcDbEntity
  8
001
 62
     3
100
AcDbText
 10
-13.58253378421182
 20
-36.233578
 30
0.0
 40
6.299999999999998
  1
HR-E104-G
 41
0.9
  7
高6.3
100
AcDbText
  0
TEXT
  5
100
330
36
100
AcDbEntity
  8
001
 62
     3
100
AcDbText
 10
-50.22615995057873
 20
80.18823199999998
 30
0.0
 40
4.5
  1
2PE付 15A 125V
 41
0.833333
100
AcDbText
  0
LINE
  5
101
330
36
100
AcDbEntity
  8
001
 62
     3
100
AcDbLine
 10
-353.7097490000002
 20
236.566749
 30
0.0
 11
-353.7097490000002
 21
-37.43325099999999
 31
0.0
  0
LINE
  5
102
330
36
100
AcDbEntity
  8
001
 62
     3
100
AcDbLine
 10
36.290251
 20
-37.433251
 30
0.0
 11
36.290251
 21
236.566749
 31
0.0
  0
LINE
  5
103
330
36
100
AcDbEntity
  8
001
 62
     3
100
AcDbLine
 10
-353.7097490000002
 20
236.566749
 30
0.0
 11
36.290251
 21
236.566749
 31
0.0
  0
LINE
  5
104
330
36
100
AcDbEntity
  8
001
 62
     3
100
AcDbLine
 10
-353.7097490000002
 20
-37.433251
 30
0.0
 11
36.290251
 21
-37.433251
 31
0.0
  0
LINE
  5
105
330
36
100
AcDbEntity
  8
001
 62
     3
100
AcDbLine
 10
-42.251624
 20
120.809081
 30
0.0
 11
-40.75162399999999
 21
120.809081
 31
0.0
  0
LINE
  5
106
330
36
100
AcDbEntity
  8
001
 62
     3
100
AcDbLine
 10
-39.71591
 20
120.809081
 30
0.0
 11
-39.71591
 21
115.898367
 31
0.0
  0
LINE
  5
107
330
36
100
AcDbEntity
  8
001
 62
     3
100
AcDbLine
 10
-40.75162399999999
 20
120.809081
 30
0.0
 11
-39.71591
 21
120.809081
 31
0.0
  0
LINE
  5
108
330
36
100
AcDbEntity
  8
001
 62
     3
100
AcDbLine
 10
-42.251624
 20
120.809081
 30
0.0
 11
-43.287338
 21
120.809081
 31
0.0
  0
LINE
  5
109
330
36
100
AcDbEntity
  8
001
 62
     3
100
AcDbLine
 10
-43.287338
 20
120.809081
 30
0.0
 11
-43.287338
 21
115.898367
 31
0.0
  0
LINE
  5
10A
330
36
100
AcDbEntity
  8
001
 62
     3
100
AcDbLine
 10
-45.073052
 20
109.20194
 30
0.0
 11
-43.287338
 21
115.898367
 31
0.0
  0
LINE
  5
10B
330
36
100
AcDbEntity
  8
001
 62
     3
100
AcDbLine
 10
-38.131267
 20
109.955958
 30
0.0
 11
-39.71591
 21
115.898367
 31
0.0
  0
ARC
  5
10C
330
36
100
AcDbEntity
  8
001
 62
     3
100
AcDbCircle
 10
-42.44481599999999
 20
108.805678
 30
0.0
 40
4.464285
100
AcDbArc
 50
5.092422
 51
14.931417
  0
LINE
  5
10D
330
36
100
AcDbEntity
  8
001
 62
     3
100
AcDbLine
 10
-43.67662399999999
 20
93.576942
 30
0.0
 11
-39.326624
 21
93.576942
 31
0.0
  0
LINE
  5
10E
330
36
100
AcDbEntity
  8
001
 62
     3
100
AcDbLine
 10
-39.326624
 20
93.576942
 30
0.0
 11
-38.501624
 21
93.576942
 31
0.0
  0
LINE
  5
10F
330
36
100
AcDbEntity
  8
001
 62
     3
100
AcDbLine
 10
-43.67662399999999
 20
93.576942
 30
0.0
 11
-44.50162399999999
 21
93.576942
 31
0.0
  0
ARC
  5
110
330
36
100
AcDbEntity
  8
001
 62
     3
100
AcDbCircle
 10
-17.659407
 20
111.987773
 30
0.0
 40
1.416666999999999
100
AcDbArc
 50
298.072487
 51
61.92751300000002
  0
LINE
  5
111
330
36
100
AcDbEntity
  8
001
 62
     3
100
AcDbLine
 10
-16.74274
 20
110.90765
 30
0.0
 11
-16.74274
 21
110.237773
 31
0.0
  0
LINE
  5
112
330
36
100
AcDbEntity
  8
001
 62
     3
100
AcDbLine
 10
-34.24274
 20
110.237773
 30
0.0
 11
-16.74274
 21
110.237773
 31
0.0
  0
LINE
  5
113
330
36
100
AcDbEntity
  8
001
 62
     3
100
AcDbLine
 10
-34.24274
 20
110.90765
 30
0.0
 11
-34.24274
 21
110.237773
 31
0.0
  0
ARC
  5
114
330
36
100
AcDbEntity
  8
001
 62
     3
100
AcDbCircle
 10
-33.326074
 20
111.987773
 30
0.0
 40
1.416666999999999
100
AcDbArc
 50
118.072487
 51
241.927513
  0
ARC
  5
115
330
36
100
AcDbEntity
  8
001
 62
     3
100
AcDbCircle
 10
-32.34217800000001
 20
127.788195
 30
0.0
 40
0.25
100
AcDbArc
 50
306.861424
 51
40.236358
  0
ARC
  5
116
330
36
100
AcDbEntity
  8
001
 62
     3
100
AcDbCircle
 10
-30.49274
 20
131.390701
 30
0.0
 40
0.25
100
AcDbArc
 50
229.763642
 51
0.0
  0
LINE
  5
117
330
36
100
AcDbEntity
  8
001
 62
     3
100
AcDbLine
 10
-28.753975
 20
143.237773
 30
0.0
 11
-22.231506
 21
143.237773
 31
0.0
  0
ARC
  5
118
330
36
100
AcDbEntity
  8
001
 62
     3
100
AcDbCircle
 10
-22.231506
 20
142.737773
 30
0.0
 40
0.5
100
AcDbArc
 50
1.301953
 51
90.0
  0
LINE
  5
119
330
36
100
AcDbEntity
  8
001
 62
     3
100
AcDbLine
 10
-21.731635
 20
142.749134
 30
0.0
 11
-21.49274
 21
132.237773
 31
0.0
  0
LINE
  5
11A
330
36
100
AcDbEntity
  8
001
 62
     3
100
AcDbLine
 10
-29.25384600000001
 20
142.749134
 30
0.0
 11
-29.49274
 21
132.237773
 31
0.0
  0
LINE
  5
11B
330
36
100
AcDbEntity
  8
001
 62
     3
100
AcDbLine
 10
-30.24274
 20
131.390701
 30
0.0
 11
-30.24274
 21
131.737773
 31
0.0
  0
ARC
  5
11C
330
36
100
AcDbEntity
  8
001
 62
     3
100
AcDbCircle
 10
-29.74274
 20
131.737773
 30
0.0
 40
0.5
100
AcDbArc
 50
90.0
 51
180.0
  0
LINE
  5
11D
330
36
100
AcDbEntity
  8
001
 62
     3
100
AcDbLine
 10
-29.74274
 20
132.237773
 30
0.0
 11
-21.24274
 21
132.237773
 31
0.0
  0
ARC
  5
11E
330
36
100
AcDbEntity
  8
001
 62
     3
100
AcDbCircle
 10
-16.99274
 20
130.902431
 30
0.0
 40
3.75
100
AcDbArc
 50
180.0
 51
236.944269
  0
LINE
  5
11F
330
36
100
AcDbEntity
  8
001
 62
     3
100
AcDbLine
 10
-20.74274
 20
131.737773
 30
0.0
 11
-20.74274
 21
130.902431
 31
0.0
  0
ARC
  5
120
330
36
100
AcDbEntity
  8
001
 62
     3
100
AcDbCircle
 10
-21.24274
 20
131.737773
 30
0.0
 40
0.5
100
AcDbArc
 50
0.0
 51
90.0
  0
ARC
  5
121
330
36
100
AcDbEntity
  8
001
 62
     3
100
AcDbCircle
 10
-29.49274
 20
123.987773
 30
0.0
 40
4.5
100
AcDbArc
 50
126.861424
 51
180.0
  0
LINE
  5
122
330
36
100
AcDbEntity
  8
001
 62
     3
100
AcDbLine
 10
-32.151332
 20
127.94968
 30
0.0
 11
-33.940834
 21
130.064546
 31
0.0
  0
LINE
  5
123
330
36
100
AcDbEntity
  8
001
 62
     3
100
AcDbLine
 10
-33.940834
 20
130.064546
 30
0.0
 11
-31.819514
 21
132.185867
 31
0.0
  0
LINE
  5
124
330
36
100
AcDbEntity
  8
001
 62
     3
100
AcDbLine
 10
-30.654226
 20
131.199854
 30
0.0
 11
-31.819514
 21
132.185867
 31
0.0
  0
ARC
  5
125
330
36
100
AcDbEntity
  8
001
 62
     3
100
AcDbCircle
 10
-28.753975
 20
142.737773
 30
0.0
 40
0.5
100
AcDbArc
 50
90.0
 51
178.698047
  0
LINE
  5
126
330
36
100
AcDbEntity
  8
001
 62
     3
100
AcDbLine
 10
-16.99274
 20
123.987773
 30
0.0
 11
-16.99274
 21
113.237773
 31
0.0
  0
LINE
  5
127
330
36
100
AcDbEntity
  8
001
 62
     3
100
AcDbLine
 10
-33.99274000000001
 20
123.987773
 30
0.0
 11
-33.99274000000001
 21
113.237773
 31
0.0
  0
ARC
  5
128
330
36
100
AcDbEntity
  8
001
 62
     3
100
AcDbCircle
 10
-21.49274
 20
123.987773
 30
0.0
 40
4.5
100
AcDbArc
 50
0.0
 51
56.94426899999999
  0
ARC
  5
129
330
36
100
AcDbEntity
  8
001
100
AcDbCircle
 10
-33.99274000000001
 20
130.902431
 30
0.0
 40
3.75
100
AcDbArc
 50
303.055731
 51
0.0
  0
LINE
  5
146
330
36
100
AcDbEntity
  8
001
100
AcDbLine
 10
-24.99274
 20
139.737773
 30
0.0
 11
-24.99274
 21
138.987773
 31
0.0
  0
LINE
  5
147
330
36
100
AcDbEntity
  8
001
100
AcDbLine
 10
-25.99274
 20
139.737773
 30
0.0
 11
-25.99274
 21
138.987773
 31
0.0
  0
LINE
  5
148
330
36
100
AcDbEntity
  8
001
100
AcDbLine
 10
-24.99274
 20
137.987773
 30
0.0
 11
-24.99274
 21
137.237773
 31
0.0
  0
LINE
  5
149
330
36
100
AcDbEntity
  8
001
100
AcDbLine
 10
-25.99274
 20
137.987773
 30
0.0
 11
-25.99274
 21
137.237773
 31
0.0
  0
LINE
  5
14A
330
36
100
AcDbEntity
  8
001
100
AcDbLine
 10
-24.99274
 20
136.237773
 30
0.0
 11
-24.99274
 21
135.487773
 31
0.0
  0
LINE
  5
14B
330
36
100
AcDbEntity
  8
001
100
AcDbLine
 10
-24.99274
 20
134.487773
 30
0.0
 11
-24.99274
 21
133.737773
 31
0.0
  0
LINE
  5
14C
330
36
100
AcDbEntity
  8
001
100
AcDbLine
 10
-25.99274
 20
136.237773
 30
0.0
 11
-25.99274
 21
135.487773
 31
0.0
  0
LINE
  5
14D
330
36
100
AcDbEntity
  8
001
100
AcDbLine
 10
-25.99274
 20
134.487773
 30
0.0
 11
-25.99274
 21
133.737773
 31
0.0
  0
LINE
  5
14E
330
36
100
AcDbEntity
  8
001
100
AcDbLine
 10
-28.901702
 20
136.237773
 30
0.0
 11
-28.918748
 21
135.487773
 31
0.0
  0
LINE
  5
14F
330
36
100
AcDbEntity
  8
001
100
AcDbLine
 10
-28.822157
 20
139.737773
 30
0.0
 11
-28.839202
 21
138.987773
 31
0.0
  0
LINE
  5
150
330
36
100
AcDbEntity
  8
001
100
AcDbLine
 10
-28.861929
 20
137.987773
 30
0.0
 11
-28.878975
 21
137.237773
 31
0.0
  0
LINE
  5
151
330
36
100
AcDbEntity
  8
001
100
AcDbLine
 10
-29.45865
 20
133.737773
 30
0.0
 11
-21.526831
 21
133.737773
 31
0.0
  0
LINE
  5
152
330
36
100
AcDbEntity
  8
001
100
AcDbLine
 10
-29.441604
 20
134.487773
 30
0.0
 11
-21.543877
 21
134.487773
 31
0.0
  0
LINE
  5
153
330
36
100
AcDbEntity
  8
001
100
AcDbLine
 10
-29.418877
 20
135.487773
 30
0.0
 11
-21.566604
 21
135.487773
 31
0.0
  0
LINE
  5
154
330
36
100
AcDbEntity
  8
001
100
AcDbLine
 10
-29.401831
 20
136.237773
 30
0.0
 11
-21.58365
 21
136.237773
 31
0.0
  0
LINE
  5
155
330
36
100
AcDbEntity
  8
001
100
AcDbLine
 10
-29.379104
 20
137.237773
 30
0.0
 11
-21.606377
 21
137.237773
 31
0.0
  0
LINE
  5
156
330
36
100
AcDbEntity
  8
001
100
AcDbLine
 10
-29.362059
 20
137.987773
 30
0.0
 11
-21.623422
 21
137.987773
 31
0.0
  0
LINE
  5
157
330
36
100
AcDbEntity
  8
001
100
AcDbLine
 10
-29.339331
 20
138.987773
 30
0.0
 11
-21.64615
 21
138.987773
 31
0.0
  0
LINE
  5
158
330
36
100
AcDbEntity
  8
001
100
AcDbLine
 10
-29.322286
 20
139.737773
 30
0.0
 11
-21.663195
 21
139.737773
 31
0.0
  0
LINE
  5
159
330
36
100
AcDbEntity
  8
001
100
AcDbLine
 10
-28.941475
 20
134.487773
 30
0.0
 11
-28.95852
 21
133.737773
 31
0.0
  0
LINE
  5
15A
330
36
100
AcDbEntity
  8
001
100
AcDbLine
 10
-22.146279
 20
138.987773
 30
0.0
 11
-22.163324
 21
139.737773
 31
0.0
  0
LINE
  5
15B
330
36
100
AcDbEntity
  8
001
100
AcDbLine
 10
-22.106506
 20
137.237773
 30
0.0
 11
-22.123551
 21
137.987773
 31
0.0
  0
LINE
  5
15C
330
36
100
AcDbEntity
  8
001
100
AcDbLine
 10
-22.066733
 20
135.487773
 30
0.0
 11
-22.083779
 21
136.237773
 31
0.0
  0
LINE
  5
15D
330
36
100
AcDbEntity
  8
001
100
AcDbLine
 10
-22.02696
 20
133.737773
 30
0.0
 11
-22.044006
 21
134.487773
 31
0.0
  0
LINE
  5
15E
330
36
100
AcDbEntity
  8
001
100
AcDbLine
 10
-34.24274
 20
110.737773
 30
0.0
 11
-16.74274
 21
110.737773
 31
0.0
  0
LINE
  5
15F
330
36
100
AcDbEntity
  8
001
 62
     3
100
AcDbLine
 10
-28.24274
 20
151.440232
 30
0.0
 11
-28.24274
 21
143.237773
 31
0.0
  0
LINE
  5
160
330
36
100
AcDbEntity
  8
001
 62
     3
100
AcDbLine
 10
-22.74274
 20
151.468083
 30
0.0
 11
-22.74274
 21
143.237773
 31
0.0
  0
CIRCLE
  5
161
330
36
100
AcDbEntity
  8
001
100
AcDbCircle
 10
-187.545271
 20
195.363068
 30
0.0
 40
0.777605
  0
LINE
  5
162
330
36
100
AcDbEntity
  8
001
100
AcDbLine
 10
-187.207192
 20
194.863068
 30
0.0
 11
-187.207192
 21
195.860008
 31
0.0
  0
LINE
  5
163
330
36
100
AcDbEntity
  8
001
100
AcDbLine
 10
-186.957192
 20
195.113068
 30
0.0
 11
-186.957192
 21
195.613068
 31
0.0
  0
LINE
  5
164
330
36
100
AcDbEntity
  8
001
100
AcDbLine
 10
-187.457192
 20
195.363068
 30
0.0
 11
-187.457192
 21
195.988068
 31
0.0
  0
LINE
  5
165
330
36
100
AcDbEntity
  8
001
100
AcDbLine
 10
-187.457192
 20
195.363068
 30
0.0
 11
-187.457192
 21
194.738068
 31
0.0
  0
LINE
  5
166
330
36
100
AcDbEntity
  8
001
100
AcDbLine
 10
-188.096809
 20
195.363068
 30
0.0
 11
-187.457192
 21
195.363068
 31
0.0
  0
CIRCLE
  5
167
330
36
100
AcDbEntity
  8
001
100
AcDbCircle
 10
-207.045271
 20
195.363068
 30
0.0
 40
0.777605
  0
LINE
  5
168
330
36
100
AcDbEntity
  8
001
100
AcDbLine
 10
-206.707192
 20
194.863068
 30
0.0
 11
-206.707192
 21
195.860008
 31
0.0
  0
LINE
  5
169
330
36
100
AcDbEntity
  8
001
100
AcDbLine
 10
-206.457192
 20
195.113068
 30
0.0
 11
-206.457192
 21
195.613068
 31
0.0
  0
LINE
  5
16A
330
36
100
AcDbEntity
  8
001
100
AcDbLine
 10
-206.957192
 20
195.363068
 30
0.0
 11
-206.957192
 21
195.988068
 31
0.0
  0
LINE
  5
16B
330
36
100
AcDbEntity
  8
001
100
AcDbLine
 10
-206.957192
 20
195.363068
 30
0.0
 11
-206.957192
 21
194.738068
 31
0.0
  0
LINE
  5
16C
330
36
100
AcDbEntity
  8
001
100
AcDbLine
 10
-207.596809
 20
195.363068
 30
0.0
 11
-206.957192
 21
195.363068
 31
0.0
  0
CIRCLE
  5
16D
330
36
100
AcDbEntity
  8
001
 62
     3
100
AcDbCircle
 10
-133.004242
 20
197.269173
 30
0.0
 40
1.75
  0
CIRCLE
  5
16E
330
36
100
AcDbEntity
  8
001
 62
     3
100
AcDbCircle
 10
-133.004242
 20
186.055278
 30
0.0
 40
1.75
  0
CIRCLE
  5
16F
330
36
100
AcDbEntity
  8
001
 62
     3
100
AcDbCircle
 10
-179.255367
 20
202.162225
 30
0.0
 40
1.75
  0
CIRCLE
  5
170
330
36
100
AcDbEntity
  8
001
 62
     3
100
AcDbCircle
 10
-179.255367
 20
181.162225
 30
0.0
 40
1.75
  0
CIRCLE
  5
171
330
36
100
AcDbEntity
  8
001
 62
     3
100
AcDbCircle
 10
-225.506493
 20
197.269173
 30
0.0
 40
1.75
  0
CIRCLE
  5
172
330
36
100
AcDbEntity
  8
001
 62
     3
100
AcDbCircle
 10
-225.506493
 20
186.055278
 30
0.0
 40
1.75
  0
CIRCLE
  5
173
330
36
100
AcDbEntity
  8
001
100
AcDbCircle
 10
-162.654445
 20
195.363068
 30
0.0
 40
0.777605
  0
LINE
  5
174
330
36
100
AcDbEntity
  8
001
100
AcDbLine
 10
-162.316365
 20
194.863068
 30
0.0
 11
-162.316365
 21
195.860008
 31
0.0
  0
LINE
  5
175
330
36
100
AcDbEntity
  8
001
100
AcDbLine
 10
-162.066365
 20
195.113068
 30
0.0
 11
-162.066365
 21
195.613068
 31
0.0
  0
LINE
  5
176
330
36
100
AcDbEntity
  8
001
100
AcDbLine
 10
-162.566365
 20
195.363068
 30
0.0
 11
-162.566365
 21
195.988068
 31
0.0
  0
LINE
  5
177
330
36
100
AcDbEntity
  8
001
100
AcDbLine
 10
-162.566365
 20
195.363068
 30
0.0
 11
-162.566365
 21
194.738068
 31
0.0
  0
LINE
  5
178
330
36
100
AcDbEntity
  8
001
100
AcDbLine
 10
-163.205983
 20
195.363068
 30
0.0
 11
-162.566365
 21
195.363068
 31
0.0
  0
CIRCLE
  5
179
330
36
100
AcDbEntity
  8
001
100
AcDbCircle
 10
-143.154445
 20
195.363068
 30
0.0
 40
0.777605
  0
LINE
  5
17A
330
36
100
AcDbEntity
  8
001
100
AcDbLine
 10
-142.816365
 20
194.863068
 30
0.0
 11
-142.816365
 21
195.860008
 31
0.0
  0
LINE
  5
17B
330
36
100
AcDbEntity
  8
001
100
AcDbLine
 10
-142.566365
 20
195.113068
 30
0.0
 11
-142.566365
 21
195.613068
 31
0.0
  0
LINE
  5
17C
330
36
100
AcDbEntity
  8
001
100
AcDbLine
 10
-143.066365
 20
195.363068
 30
0.0
 11
-143.066365
 21
195.988068
 31
0.0
  0
LINE
  5
17D
330
36
100
AcDbEntity
  8
001
100
AcDbLine
 10
-143.066365
 20
195.363068
 30
0.0
 11
-143.066365
 21
194.738068
 31
0.0
  0
LINE
  5
17E
330
36
100
AcDbEntity
  8
001
100
AcDbLine
 10
-143.705983
 20
195.363068
 30
0.0
 11
-143.066365
 21
195.363068
 31
0.0
  0
LINE
  5
17F
330
36
100
AcDbEntity
  8
001
100
AcDbLine
 10
-152.009954
 20
187.232881
 30
0.0
 11
-146.509954
 21
187.232881
 31
0.0
  0
ARC
  5
180
330
36
100
AcDbEntity
  8
001
100
AcDbCircle
 10
-146.509954
 20
187.982881
 30
0.0
 40
0.75
100
AcDbArc
 50
270.0
 51
0.0
  0
LINE
  5
181
330
36
100
AcDbEntity
  8
001
100
AcDbLine
 10
-145.759954
 20
188.982881
 30
0.0
 11
-145.759954
 21
187.982881
 31
0.0
  0
ARC
  5
182
330
36
100
AcDbEntity
  8
001
100
AcDbCircle
 10
-146.509954
 20
188.982881
 30
0.0
 40
0.75
100
AcDbArc
 50
0.0
 51
90.0
  0
LINE
  5
183
330
36
100
AcDbEntity
  8
001
100
AcDbLine
 10
-146.509954
 20
189.732881
 30
0.0
 11
-152.009954
 21
189.732881
 31
0.0
  0
ARC
  5
184
330
36
100
AcDbEntity
  8
001
100
AcDbCircle
 10
-152.009954
 20
188.982881
 30
0.0
 40
0.75
100
AcDbArc
 50
90.0
 51
180.0
  0
LINE
  5
185
330
36
100
AcDbEntity
  8
001
100
AcDbLine
 10
-152.759954
 20
188.982881
 30
0.0
 11
-152.759954
 21
187.982881
 31
0.0
  0
ARC
  5
186
330
36
100
AcDbEntity
  8
001
100
AcDbCircle
 10
-152.009954
 20
187.982881
 30
0.0
 40
0.75
100
AcDbArc
 50
180.0
 51
270.0
  0
LINE
  5
187
330
36
100
AcDbEntity
  8
001
100
AcDbLine
 10
-146.509954
 20
193.582881
 30
0.0
 11
-152.009954
 21
193.582881
 31
0.0
  0
ARC
  5
188
330
36
100
AcDbEntity
  8
001
100
AcDbCircle
 10
-152.009954
 20
194.332881
 30
0.0
 40
0.75
100
AcDbArc
 50
180.0
 51
270.0
  0
LINE
  5
189
330
36
100
AcDbEntity
  8
001
100
AcDbLine
 10
-152.759954
 20
195.332881
 30
0.0
 11
-152.759954
 21
194.332881
 31
0.0
  0
ARC
  5
18A
330
36
100
AcDbEntity
  8
001
100
AcDbCircle
 10
-152.009954
 20
195.332881
 30
0.0
 40
0.75
100
AcDbArc
 50
90.0
 51
180.0
  0
LINE
  5
18B
330
36
100
AcDbEntity
  8
001
100
AcDbLine
 10
-146.509954
 20
196.082881
 30
0.0
 11
-152.009954
 21
196.082881
 31
0.0
  0
ARC
  5
18C
330
36
100
AcDbEntity
  8
001
100
AcDbCircle
 10
-146.509954
 20
195.332881
 30
0.0
 40
0.75
100
AcDbArc
 50
0.0
 51
90.0
  0
LINE
  5
18D
330
36
100
AcDbEntity
  8
001
100
AcDbLine
 10
-145.759954
 20
195.332881
 30
0.0
 11
-145.759954
 21
194.332881
 31
0.0
  0
ARC
  5
18E
330
36
100
AcDbEntity
  8
001
100
AcDbCircle
 10
-146.509954
 20
194.332881
 30
0.0
 40
0.75
100
AcDbArc
 50
270.0
 51
0.0
  0
LINE
  5
18F
330
36
100
AcDbEntity
  8
001
100
AcDbLine
 10
-141.709954
 20
189.557881
 30
0.0
 11
-143.309954
 21
189.557881
 31
0.0
  0
LINE
  5
190
330
36
100
AcDbEntity
  8
001
100
AcDbLine
 10
-141.209954
 20
190.057881
 30
0.0
 11
-141.209954
 21
193.257881
 31
0.0
  0
LINE
  5
191
330
36
100
AcDbEntity
  8
001
100
AcDbLine
 10
-141.959954
 20
193.007881
 30
0.0
 11
-141.356401
 21
193.611434
 31
0.0
  0
LINE
  5
192
330
36
100
AcDbEntity
  8
001
100
AcDbLine
 10
-141.709954
 20
193.757881
 30
0.0
 11
-143.309954
 21
193.757881
 31
0.0
  0
ARC
  5
193
330
36
100
AcDbEntity
  8
001
100
AcDbCircle
 10
-141.709954
 20
193.257881
 30
0.0
 40
0.5
100
AcDbArc
 50
0.0
 51
90.0
  0
ARC
  5
194
330
36
100
AcDbEntity
  8
001
100
AcDbCircle
 10
-141.709954
 20
190.057881
 30
0.0
 40
0.5
100
AcDbArc
 50
270.0
 51
0.0
  0
ARC
  5
195
330
36
100
AcDbEntity
  8
001
100
AcDbCircle
 10
-143.309954
 20
191.657881
 30
0.0
 40
2.1
100
AcDbArc
 50
90.0
 51
270.0
  0
LINE
  5
196
330
36
100
AcDbEntity
  8
001
100
AcDbLine
 10
-161.459954
 20
193.007881
 30
0.0
 11
-160.856401
 21
193.611434
 31
0.0
  0
LINE
  5
197
330
36
100
AcDbEntity
  8
001
100
AcDbLine
 10
-161.209954
 20
193.757881
 30
0.0
 11
-162.809954
 21
193.757881
 31
0.0
  0
ARC
  5
198
330
36
100
AcDbEntity
  8
001
100
AcDbCircle
 10
-161.209954
 20
193.257881
 30
0.0
 40
0.5
100
AcDbArc
 50
0.0
 51
90.0
  0
LINE
  5
199
330
36
100
AcDbEntity
  8
001
100
AcDbLine
 10
-160.709954
 20
190.057881
 30
0.0
 11
-160.709954
 21
193.257881
 31
0.0
  0
ARC
  5
19A
330
36
100
AcDbEntity
  8
001
100
AcDbCircle
 10
-161.209954
 20
190.057881
 30
0.0
 40
0.5
100
AcDbArc
 50
270.0
 51
0.0
  0
LINE
  5
19B
330
36
100
AcDbEntity
  8
001
100
AcDbLine
 10
-161.459954
 20
190.307881
 30
0.0
 11
-160.856401
 21
189.704327
 31
0.0
  0
LINE
  5
19C
330
36
100
AcDbEntity
  8
001
100
AcDbLine
 10
-161.209954
 20
189.557881
 30
0.0
 11
-162.809954
 21
189.557881
 31
0.0
  0
ARC
  5
19D
330
36
100
AcDbEntity
  8
001
100
AcDbCircle
 10
-162.809954
 20
191.657881
 30
0.0
 40
2.1
100
AcDbArc
 50
90.0
 51
270.0
  0
LINE
  5
19E
330
36
100
AcDbEntity
  8
001
100
AcDbLine
 10
-166.009954
 20
193.582881
 30
0.0
 11
-171.509954
 21
193.582881
 31
0.0
  0
ARC
  5
19F
330
36
100
AcDbEntity
  8
001
100
AcDbCircle
 10
-166.009954
 20
194.332881
 30
0.0
 40
0.75
100
AcDbArc
 50
270.0
 51
0.0
  0
LINE
  5
1A0
330
36
100
AcDbEntity
  8
001
100
AcDbLine
 10
-165.259954
 20
195.332881
 30
0.0
 11
-165.259954
 21
194.332881
 31
0.0
  0
ARC
  5
1A1
330
36
100
AcDbEntity
  8
001
100
AcDbCircle
 10
-166.009954
 20
195.332881
 30
0.0
 40
0.75
100
AcDbArc
 50
0.0
 51
90.0
  0
LINE
  5
1A2
330
36
100
AcDbEntity
  8
001
100
AcDbLine
 10
-166.009954
 20
196.082881
 30
0.0
 11
-171.509954
 21
196.082881
 31
0.0
  0
ARC
  5
1A3
330
36
100
AcDbEntity
  8
001
100
AcDbCircle
 10
-171.509954
 20
195.332881
 30
0.0
 40
0.75
100
AcDbArc
 50
90.0
 51
180.0
  0
LINE
  5
1A4
330
36
100
AcDbEntity
  8
001
100
AcDbLine
 10
-172.259954
 20
195.332881
 30
0.0
 11
-172.259954
 21
194.332881
 31
0.0
  0
ARC
  5
1A5
330
36
100
AcDbEntity
  8
001
100
AcDbCircle
 10
-171.509954
 20
194.332881
 30
0.0
 40
0.75
100
AcDbArc
 50
180.0
 51
270.0
  0
LINE
  5
1A6
330
36
100
AcDbEntity
  8
001
100
AcDbLine
 10
-170.509954
 20
194.282881
 30
0.0
 11
-171.933075
 21
193.713632
 31
0.0
  0
LINE
  5
1A7
330
36
100
AcDbEntity
  8
001
100
AcDbLine
 10
-170.509954
 20
195.382881
 30
0.0
 11
-171.933075
 21
195.952129
 31
0.0
  0
LINE
  5
1A8
330
36
100
AcDbEntity
  8
001
100
AcDbLine
 10
-167.009954
 20
195.382881
 30
0.0
 11
-165.586833
 21
195.952129
 31
0.0
  0
LINE
  5
1A9
330
36
100
AcDbEntity
  8
001
100
AcDbLine
 10
-165.586833
 20
193.713632
 30
0.0
 11
-167.009954
 21
194.282881
 31
0.0
  0
LINE
  5
1AA
330
36
100
AcDbEntity
  8
001
100
AcDbLine
 10
-166.584954
 20
189.032881
 30
0.0
 11
-165.553357
 21
189.577875
 31
0.0
  0
LINE
  5
1AB
330
36
100
AcDbEntity
  8
001
100
AcDbLine
 10
-166.009954
 20
189.732881
 30
0.0
 11
-171.509954
 21
189.732881
 31
0.0
  0
ARC
  5
1AC
330
36
100
AcDbEntity
  8
001
100
AcDbCircle
 10
-166.009954
 20
188.982881
 30
0.0
 40
0.75
100
AcDbArc
 50
0.0
 51
90.0
  0
LINE
  5
1AD
330
36
100
AcDbEntity
  8
001
100
AcDbLine
 10
-165.259954
 20
188.982881
 30
0.0
 11
-165.259954
 21
187.982881
 31
0.0
  0
ARC
  5
1AE
330
36
100
AcDbEntity
  8
001
100
AcDbCircle
 10
-166.009954
 20
187.982881
 30
0.0
 40
0.75
100
AcDbArc
 50
270.0
 51
0.0
  0
LINE
  5
1AF
330
36
100
AcDbEntity
  8
001
100
AcDbLine
 10
-171.509954
 20
187.232881
 30
0.0
 11
-166.009954
 21
187.232881
 31
0.0
  0
LINE
  5
1B0
330
36
100
AcDbEntity
  8
001
100
AcDbLine
 10
-166.584954
 20
187.932881
 30
0.0
 11
-165.553357
 21
187.387886
 31
0.0
  0
ARC
  5
1B1
330
36
100
AcDbEntity
  8
001
100
AcDbCircle
 10
-171.509954
 20
187.982881
 30
0.0
 40
0.75
100
AcDbArc
 50
180.0
 51
270.0
  0
LINE
  5
1B2
330
36
100
AcDbEntity
  8
001
100
AcDbLine
 10
-170.934954
 20
187.932881
 30
0.0
 11
-171.966552
 21
187.387886
 31
0.0
  0
LINE
  5
1B3
330
36
100
AcDbEntity
  8
001
100
AcDbLine
 10
-172.259954
 20
188.982881
 30
0.0
 11
-172.259954
 21
187.982881
 31
0.0
  0
ARC
  5
1B4
330
36
100
AcDbEntity
  8
001
100
AcDbCircle
 10
-171.509954
 20
188.982881
 30
0.0
 40
0.75
100
AcDbArc
 50
90.0
 51
180.0
  0
LINE
  5
1B5
330
36
100
AcDbEntity
  8
001
100
AcDbLine
 10
-170.934954
 20
189.032881
 30
0.0
 11
-171.966552
 21
189.577875
 31
0.0
  0
LINE
  5
1B6
330
36
100
AcDbEntity
  8
001
100
AcDbLine
 10
-141.959954
 20
190.307881
 30
0.0
 11
-141.356401
 21
189.704327
 31
0.0
  0
LINE
  5
1B7
330
36
100
AcDbEntity
  8
001
100
AcDbLine
 10
-147.084954
 20
189.032881
 30
0.0
 11
-146.053357
 21
189.577875
 31
0.0
  0
LINE
  5
1B8
330
36
100
AcDbEntity
  8
001
100
AcDbLine
 10
-147.084954
 20
187.932881
 30
0.0
 11
-146.053357
 21
187.387886
 31
0.0
  0
LINE
  5
1B9
330
36
100
AcDbEntity
  8
001
100
AcDbLine
 10
-151.434954
 20
189.032881
 30
0.0
 11
-152.466552
 21
189.577875
 31
0.0
  0
LINE
  5
1BA
330
36
100
AcDbEntity
  8
001
100
AcDbLine
 10
-151.434954
 20
187.932881
 30
0.0
 11
-152.466552
 21
187.387886
 31
0.0
  0
LINE
  5
1BB
330
36
100
AcDbEntity
  8
001
100
AcDbLine
 10
-151.009954
 20
194.282881
 30
0.0
 11
-152.433075
 21
193.713632
 31
0.0
  0
LINE
  5
1BC
330
36
100
AcDbEntity
  8
001
100
AcDbLine
 10
-151.009954
 20
195.382881
 30
0.0
 11
-152.433075
 21
195.952129
 31
0.0
  0
LINE
  5
1BD
330
36
100
AcDbEntity
  8
001
100
AcDbLine
 10
-147.509954
 20
195.382881
 30
0.0
 11
-146.086833
 21
195.952129
 31
0.0
  0
LINE
  5
1BE
330
36
100
AcDbEntity
  8
001
100
AcDbLine
 10
-146.086833
 20
193.713632
 30
0.0
 11
-147.509954
 21
194.282881
 31
0.0
  0
LINE
  5
1BF
330
36
100
AcDbEntity
  8
001
100
AcDbLine
 10
-186.10078
 20
189.557881
 30
0.0
 11
-187.70078
 21
189.557881
 31
0.0
  0
LINE
  5
1C0
330
36
100
AcDbEntity
  8
001
100
AcDbLine
 10
-186.35078
 20
190.307881
 30
0.0
 11
-185.747227
 21
189.704327
 31
0.0
  0
LINE
  5
1C1
330
36
100
AcDbEntity
  8
001
100
AcDbLine
 10
-185.60078
 20
190.057881
 30
0.0
 11
-185.60078
 21
193.257881
 31
0.0
  0
ARC
  5
1C2
330
36
100
AcDbEntity
  8
001
100
AcDbCircle
 10
-186.10078
 20
193.257881
 30
0.0
 40
0.5
100
AcDbArc
 50
0.0
 51
90.0
  0
ARC
  5
1C3
330
36
100
AcDbEntity
  8
001
100
AcDbCircle
 10
-186.10078
 20
190.057881
 30
0.0
 40
0.5
100
AcDbArc
 50
270.0
 51
0.0
  0
ARC
  5
1C4
330
36
100
AcDbEntity
  8
001
100
AcDbCircle
 10
-187.70078
 20
191.657881
 30
0.0
 40
2.1
100
AcDbArc
 50
90.0
 51
270.0
  0
LINE
  5
1C5
330
36
100
AcDbEntity
  8
001
100
AcDbLine
 10
-186.10078
 20
193.757881
 30
0.0
 11
-187.70078
 21
193.757881
 31
0.0
  0
LINE
  5
1C6
330
36
100
AcDbEntity
  8
001
100
AcDbLine
 10
-186.35078
 20
193.007881
 30
0.0
 11
-185.747227
 21
193.611434
 31
0.0
  0
LINE
  5
1C7
330
36
100
AcDbEntity
  8
001
100
AcDbLine
 10
-190.15078
 20
195.332881
 30
0.0
 11
-190.15078
 21
194.332881
 31
0.0
  0
ARC
  5
1C8
330
36
100
AcDbEntity
  8
001
100
AcDbCircle
 10
-190.90078
 20
195.332881
 30
0.0
 40
0.75
100
AcDbArc
 50
0.0
 51
90.0
  0
LINE
  5
1C9
330
36
100
AcDbEntity
  8
001
100
AcDbLine
 10
-190.90078
 20
196.082881
 30
0.0
 11
-196.40078
 21
196.082881
 31
0.0
  0
LINE
  5
1CA
330
36
100
AcDbEntity
  8
001
100
AcDbLine
 10
-191.90078
 20
195.382881
 30
0.0
 11
-190.477659
 21
195.952129
 31
0.0
  0
ARC
  5
1CB
330
36
100
AcDbEntity
  8
001
100
AcDbCircle
 10
-190.90078
 20
194.332881
 30
0.0
 40
0.75
100
AcDbArc
 50
270.0
 51
0.0
  0
LINE
  5
1CC
330
36
100
AcDbEntity
  8
001
100
AcDbLine
 10
-190.477659
 20
193.713632
 30
0.0
 11
-191.90078
 21
194.282881
 31
0.0
  0
LINE
  5
1CD
330
36
100
AcDbEntity
  8
001
100
AcDbLine
 10
-190.90078
 20
193.582881
 30
0.0
 11
-196.40078
 21
193.582881
 31
0.0
  0
LINE
  5
1CE
330
36
100
AcDbEntity
  8
001
100
AcDbLine
 10
-195.40078
 20
194.282881
 30
0.0
 11
-196.823902
 21
193.713632
 31
0.0
  0
ARC
  5
1CF
330
36
100
AcDbEntity
  8
001
100
AcDbCircle
 10
-196.40078
 20
194.332881
 30
0.0
 40
0.75
100
AcDbArc
 50
180.0
 51
270.0
  0
LINE
  5
1D0
330
36
100
AcDbEntity
  8
001
100
AcDbLine
 10
-197.15078
 20
195.332881
 30
0.0
 11
-197.15078
 21
194.332881
 31
0.0
  0
ARC
  5
1D1
330
36
100
AcDbEntity
  8
001
100
AcDbCircle
 10
-196.40078
 20
195.332881
 30
0.0
 40
0.75
100
AcDbArc
 50
90.0
 51
180.0
  0
LINE
  5
1D2
330
36
100
AcDbEntity
  8
001
100
AcDbLine
 10
-195.40078
 20
195.382881
 30
0.0
 11
-196.823902
 21
195.952129
 31
0.0
  0
ARC
  5
1D3
330
36
100
AcDbEntity
  8
001
100
AcDbCircle
 10
-196.40078
 20
188.982881
 30
0.0
 40
0.75
100
AcDbArc
 50
90.0
 51
180.0
  0
LINE
  5
1D4
330
36
100
AcDbEntity
  8
001
100
AcDbLine
 10
-190.90078
 20
189.732881
 30
0.0
 11
-196.40078
 21
189.732881
 31
0.0
  0
LINE
  5
1D5
330
36
100
AcDbEntity
  8
001
100
AcDbLine
 10
-197.15078
 20
188.982881
 30
0.0
 11
-197.15078
 21
187.982881
 31
0.0
  0
LINE
  5
1D6
330
36
100
AcDbEntity
  8
001
100
AcDbLine
 10
-195.82578
 20
189.032881
 30
0.0
 11
-196.857378
 21
189.577875
 31
0.0
  0
LINE
  5
1D7
330
36
100
AcDbEntity
  8
001
100
AcDbLine
 10
-195.82578
 20
187.932881
 30
0.0
 11
-196.857378
 21
187.387886
 31
0.0
  0
LINE
  5
1D8
330
36
100
AcDbEntity
  8
001
100
AcDbLine
 10
-196.40078
 20
187.232881
 30
0.0
 11
-190.90078
 21
187.232881
 31
0.0
  0
ARC
  5
1D9
330
36
100
AcDbEntity
  8
001
100
AcDbCircle
 10
-196.40078
 20
187.982881
 30
0.0
 40
0.75
100
AcDbArc
 50
180.0
 51
270.0
  0
ARC
  5
1DA
330
36
100
AcDbEntity
  8
001
100
AcDbCircle
 10
-190.90078
 20
187.982881
 30
0.0
 40
0.75
100
AcDbArc
 50
270.0
 51
0.0
  0
LINE
  5
1DB
330
36
100
AcDbEntity
  8
001
100
AcDbLine
 10
-191.47578
 20
187.932881
 30
0.0
 11
-190.444183
 21
187.387886
 31
0.0
  0
LINE
  5
1DC
330
36
100
AcDbEntity
  8
001
100
AcDbLine
 10
-190.15078
 20
188.982881
 30
0.0
 11
-190.15078
 21
187.982881
 31
0.0
  0
ARC
  5
1DD
330
36
100
AcDbEntity
  8
001
100
AcDbCircle
 10
-190.90078
 20
188.982881
 30
0.0
 40
0.75
100
AcDbArc
 50
0.0
 51
90.0
  0
LINE
  5
1DE
330
36
100
AcDbEntity
  8
001
100
AcDbLine
 10
-191.47578
 20
189.032881
 30
0.0
 11
-190.444183
 21
189.577875
 31
0.0
  0
LINE
  5
1DF
330
36
100
AcDbEntity
  8
001
100
AcDbLine
 10
-205.85078
 20
193.007881
 30
0.0
 11
-205.247227
 21
193.611434
 31
0.0
  0
ARC
  5
1E0
330
36
100
AcDbEntity
  8
001
100
AcDbCircle
 10
-205.60078
 20
193.257881
 30
0.0
 40
0.5
100
AcDbArc
 50
0.0
 51
90.0
  0
LINE
  5
1E1
330
36
100
AcDbEntity
  8
001
100
AcDbLine
 10
-205.60078
 20
193.757881
 30
0.0
 11
-207.20078
 21
193.757881
 31
0.0
  0
ARC
  5
1E2
330
36
100
AcDbEntity
  8
001
100
AcDbCircle
 10
-207.20078
 20
191.657881
 30
0.0
 40
2.1
100
AcDbArc
 50
90.0
 51
270.0
  0
LINE
  5
1E3
330
36
100
AcDbEntity
  8
001
100
AcDbLine
 10
-205.60078
 20
189.557881
 30
0.0
 11
-207.20078
 21
189.557881
 31
0.0
  0
ARC
  5
1E4
330
36
100
AcDbEntity
  8
001
100
AcDbCircle
 10
-205.60078
 20
190.057881
 30
0.0
 40
0.5
100
AcDbArc
 50
270.0
 51
0.0
  0
LINE
  5
1E5
330
36
100
AcDbEntity
  8
001
100
AcDbLine
 10
-205.85078
 20
190.307881
 30
0.0
 11
-205.247227
 21
189.704327
 31
0.0
  0
LINE
  5
1E6
330
36
100
AcDbEntity
  8
001
100
AcDbLine
 10
-205.10078
 20
190.057881
 30
0.0
 11
-205.10078
 21
193.257881
 31
0.0
  0
ARC
  5
1E7
330
36
100
AcDbEntity
  8
001
100
AcDbCircle
 10
-210.40078
 20
187.982881
 30
0.0
 40
0.75
100
AcDbArc
 50
270.0
 51
0.0
  0
LINE
  5
1E8
330
36
100
AcDbEntity
  8
001
100
AcDbLine
 10
-210.97578
 20
187.932881
 30
0.0
 11
-209.944183
 21
187.387886
 31
0.0
  0
LINE
  5
1E9
330
36
100
AcDbEntity
  8
001
100
AcDbLine
 10
-209.65078
 20
188.982881
 30
0.0
 11
-209.65078
 21
187.982881
 31
0.0
  0
ARC
  5
1EA
330
36
100
AcDbEntity
  8
001
100
AcDbCircle
 10
-210.40078
 20
188.982881
 30
0.0
 40
0.75
100
AcDbArc
 50
0.0
 51
90.0
  0
LINE
  5
1EB
330
36
100
AcDbEntity
  8
001
100
AcDbLine
 10
-210.97578
 20
189.032881
 30
0.0
 11
-209.944183
 21
189.577875
 31
0.0
  0
LINE
  5
1EC
330
36
100
AcDbEntity
  8
001
100
AcDbLine
 10
-210.40078
 20
189.732881
 30
0.0
 11
-215.90078
 21
189.732881
 31
0.0
  0
ARC
  5
1ED
330
36
100
AcDbEntity
  8
001
100
AcDbCircle
 10
-215.90078
 20
188.982881
 30
0.0
 40
0.75
100
AcDbArc
 50
90.0
 51
180.0
  0
LINE
  5
1EE
330
36
100
AcDbEntity
  8
001
100
AcDbLine
 10
-215.32578
 20
189.032881
 30
0.0
 11
-216.357378
 21
189.577875
 31
0.0
  0
LINE
  5
1EF
330
36
100
AcDbEntity
  8
001
100
AcDbLine
 10
-216.65078
 20
188.982881
 30
0.0
 11
-216.65078
 21
187.982881
 31
0.0
  0
LINE
  5
1F0
330
36
100
AcDbEntity
  8
001
100
AcDbLine
 10
-215.32578
 20
187.932881
 30
0.0
 11
-216.357378
 21
187.387886
 31
0.0
  0
ARC
  5
1F1
330
36
100
AcDbEntity
  8
001
100
AcDbCircle
 10
-215.90078
 20
187.982881
 30
0.0
 40
0.75
100
AcDbArc
 50
180.0
 51
270.0
  0
LINE
  5
1F2
330
36
100
AcDbEntity
  8
001
100
AcDbLine
 10
-215.90078
 20
187.232881
 30
0.0
 11
-210.40078
 21
187.232881
 31
0.0
  0
LINE
  5
1F3
330
36
100
AcDbEntity
  8
001
100
AcDbLine
 10
-210.40078
 20
193.582881
 30
0.0
 11
-215.90078
 21
193.582881
 31
0.0
  0
LINE
  5
1F4
330
36
100
AcDbEntity
  8
001
100
AcDbLine
 10
-214.90078
 20
194.282881
 30
0.0
 11
-216.323902
 21
193.713632
 31
0.0
  0
ARC
  5
1F5
330
36
100
AcDbEntity
  8
001
100
AcDbCircle
 10
-215.90078
 20
194.332881
 30
0.0
 40
0.75
100
AcDbArc
 50
180.0
 51
270.0
  0
LINE
  5
1F6
330
36
100
AcDbEntity
  8
001
100
AcDbLine
 10
-216.65078
 20
195.332881
 30
0.0
 11
-216.65078
 21
194.332881
 31
0.0
  0
ARC
  5
1F7
330
36
100
AcDbEntity
  8
001
100
AcDbCircle
 10
-215.90078
 20
195.332881
 30
0.0
 40
0.75
100
AcDbArc
 50
90.0
 51
180.0
  0
LINE
  5
1F8
330
36
100
AcDbEntity
  8
001
100
AcDbLine
 10
-214.90078
 20
195.382881
 30
0.0
 11
-216.323902
 21
195.952129
 31
0.0
  0
LINE
  5
1F9
330
36
100
AcDbEntity
  8
001
100
AcDbLine
 10
-210.40078
 20
196.082881
 30
0.0
 11
-215.90078
 21
196.082881
 31
0.0
  0
ARC
  5
1FA
330
36
100
AcDbEntity
  8
001
100
AcDbCircle
 10
-210.40078
 20
195.332881
 30
0.0
 40
0.75
100
AcDbArc
 50
0.0
 51
90.0
  0
LINE
  5
1FB
330
36
100
AcDbEntity
  8
001
100
AcDbLine
 10
-209.65078
 20
195.332881
 30
0.0
 11
-209.65078
 21
194.332881
 31
0.0
  0
ARC
  5
1FC
330
36
100
AcDbEntity
  8
001
100
AcDbCircle
 10
-210.40078
 20
194.332881
 30
0.0
 40
0.75
100
AcDbArc
 50
270.0
 51
0.0
  0
LINE
  5
1FD
330
36
100
AcDbEntity
  8
001
100
AcDbLine
 10
-209.977659
 20
193.713632
 30
0.0
 11
-211.4007799999999
 21
194.282881
 31
0.0
  0
LINE
  5
1FE
330
36
100
AcDbEntity
  8
001
100
AcDbLine
 10
-211.4007799999999
 20
195.382881
 30
0.0
 11
-209.977659
 21
195.952129
 31
0.0
  0
LINE
  5
206
330
36
100
AcDbEntity
  8
001
 62
     3
100
AcDbLine
 10
-214.255367
 20
91.893858
 30
0.0
 11
-214.255367
 21
105.393858
 31
0.0
  0
ARC
  5
207
330
36
100
AcDbEntity
  8
001
 62
     3
100
AcDbCircle
 10
-216.755367
 20
97.579816
 30
0.0
 40
2.5
100
AcDbArc
 50
0.0
 51
90.0
  0
LINE
  5
208
330
36
100
AcDbEntity
  8
001
 62
     3
100
AcDbLine
 10
-216.755367
 20
100.079816
 30
0.0
 11
-219.255367
 21
100.079816
 31
0.0
  0
LINE
  5
209
330
36
100
AcDbEntity
  8
001
 62
     3
100
AcDbLine
 10
-237.631252
 20
98.09863100000001
 30
0.0
 11
-219.255367
 21
100.079816
 31
0.0
  0
ARC
  5
20A
330
36
100
AcDbEntity
  8
001
 62
     3
100
AcDbCircle
 10
-216.755367
 20
91.893858
 30
0.0
 40
2.5
100
AcDbArc
 50
318.555703
 51
0.0
  0
ARC
  5
20B
330
36
100
AcDbEntity
  8
001
 62
     3
100
AcDbCircle
 10
-216.755367
 20
91.893858
 30
0.0
 40
2.5
100
AcDbArc
 50
270.0
 51
318.555703
  0
LINE
  5
20C
330
36
100
AcDbEntity
  8
001
 62
     3
100
AcDbLine
 10
-198.00837
 20
89.393858
 30
0.0
 11
-204.255367
 21
89.393858
 31
0.0
  0
ARC
  5
20D
330
36
100
AcDbEntity
  8
001
 62
     3
100
AcDbCircle
 10
-198.00837
 20
90.64686
 30
0.0
 40
1.253001999999999
100
AcDbArc
 50
270.0
 51
25.149305
  0
LINE
  5
20E
330
36
100
AcDbEntity
  8
001
 62
     3
100
AcDbLine
 10
-196.874148
 20
91.179359
 30
0.0
 11
-197.084128
 21
91.62661699999999
 31
0.0
  0
ARC
  5
20F
330
36
100
AcDbEntity
  8
001
 62
     3
100
AcDbCircle
 10
-194.255367
 20
92.95467499999999
 30
0.0
 40
3.125
100
AcDbArc
 50
180.0
 51
205.149305
  0
ARC
  5
210
330
36
100
AcDbEntity
  8
001
 62
     3
100
AcDbCircle
 10
-194.255367
 20
93.45467499999999
 30
0.0
 40
3.125
100
AcDbArc
 50
0.0
 51
180.0
  0
LINE
  5
211
330
36
100
AcDbEntity
  8
001
 62
     3
100
AcDbLine
 10
-191.636587
 20
91.179359
 30
0.0
 11
-191.426607
 21
91.62661699999999
 31
0.0
  0
ARC
  5
212
330
36
100
AcDbEntity
  8
001
 62
     3
100
AcDbCircle
 10
-194.255367
 20
92.95467499999999
 30
0.0
 40
3.125
100
AcDbArc
 50
334.850695
 51
0.0
  0
ARC
  5
213
330
36
100
AcDbEntity
  8
001
 62
     3
100
AcDbCircle
 10
-190.502365
 20
90.64686
 30
0.0
 40
1.253001999999999
100
AcDbArc
 50
154.850695
 51
270.0
  0
LINE
  5
214
330
36
100
AcDbEntity
  8
001
 62
     3
100
AcDbLine
 10
-190.502365
 20
89.393858
 30
0.0
 11
-179.255367
 21
89.393858
 31
0.0
  0
LINE
  5
215
330
36
100
AcDbEntity
  8
001
 62
     3
100
AcDbLine
 10
-168.00837
 20
89.393858
 30
0.0
 11
-179.255367
 21
89.393858
 31
0.0
  0
ARC
  5
216
330
36
100
AcDbEntity
  8
001
 62
     3
100
AcDbCircle
 10
-168.00837
 20
90.64686
 30
0.0
 40
1.253001999999999
100
AcDbArc
 50
270.0
 51
25.149305
  0
LINE
  5
217
330
36
100
AcDbEntity
  8
001
 62
     3
100
AcDbLine
 10
-166.874148
 20
91.179359
 30
0.0
 11
-167.084128
 21
91.62661699999999
 31
0.0
  0
ARC
  5
218
330
36
100
AcDbEntity
  8
001
 62
     3
100
AcDbCircle
 10
-164.255367
 20
92.95467499999999
 30
0.0
 40
3.125
100
AcDbArc
 50
180.0
 51
205.149305
  0
ARC
  5
219
330
36
100
AcDbEntity
  8
001
 62
     3
100
AcDbCircle
 10
-164.255367
 20
93.45467499999999
 30
0.0
 40
3.125
100
AcDbArc
 50
0.0
 51
180.0
  0
LINE
  5
21A
330
36
100
AcDbEntity
  8
001
 62
     3
100
AcDbLine
 10
-161.130367
 20
93.45467499999999
 30
0.0
 11
-161.130367
 21
92.96891100000001
 31
0.0
  0
ARC
  5
21B
330
36
100
AcDbEntity
  8
001
 62
     3
100
AcDbCircle
 10
-164.255367
 20
92.95467499999999
 30
0.0
 40
3.125
100
AcDbArc
 50
334.850695
 51
0.0
  0
LINE
  5
21C
330
36
100
AcDbEntity
  8
001
 62
     3
100
AcDbLine
 10
-161.636587
 20
91.179359
 30
0.0
 11
-161.426607
 21
91.62661699999999
 31
0.0
  0
ARC
  5
21D
330
36
100
AcDbEntity
  8
001
 62
     3
100
AcDbCircle
 10
-160.502365
 20
90.64686
 30
0.0
 40
1.253001999999999
100
AcDbArc
 50
154.850695
 51
270.0
  0
LINE
  5
21E
330
36
100
AcDbEntity
  8
001
 62
     3
100
AcDbLine
 10
-160.502365
 20
89.393858
 30
0.0
 11
-154.255367
 21
89.393858
 31
0.0
  0
LINE
  5
21F
330
36
100
AcDbEntity
  8
001
 62
     3
100
AcDbLine
 10
-167.380367
 20
93.45467499999999
 30
0.0
 11
-167.380367
 21
92.95467499999999
 31
0.0
  0
ARC
  5
220
330
36
100
AcDbEntity
  8
001
 62
     3
100
AcDbCircle
 10
-154.255367
 20
110.393858
 30
0.0
 40
21.0
100
AcDbArc
 50
270.0
 51
291.86529
  0
ARC
  5
221
330
36
100
AcDbEntity
  8
001
 62
     3
100
AcDbCircle
 10
-145.503365
 20
88.58439999999998
 30
0.0
 40
2.5
100
AcDbArc
 50
41.44429699999998
 51
111.86529
  0
ARC
  5
222
330
36
100
AcDbEntity
  8
001
 62
     3
100
AcDbCircle
 10
-141.755367
 20
91.893858
 30
0.0
 40
2.5
100
AcDbArc
 50
221.444297
 51
270.0
  0
LINE
  5
223
330
36
100
AcDbEntity
  8
001
 62
     3
100
AcDbLine
 10
-94.255367
 20
89.393858
 30
0.0
 11
-141.755367
 21
89.393858
 31
0.0
  0
ARC
  5
224
330
36
100
AcDbEntity
  8
001
 62
     3
100
AcDbCircle
 10
-94.255367
 20
91.893858
 30
0.0
 40
2.5
100
AcDbArc
 50
270.0
 51
0.0
  0
LINE
  5
225
330
36
100
AcDbEntity
  8
001
 62
     3
100
AcDbLine
 10
-91.755367
 20
94.06064999999999
 30
0.0
 11
-91.755367
 21
91.893858
 31
0.0
  0
ARC
  5
226
330
36
100
AcDbEntity
  8
001
 62
     3
100
AcDbCircle
 10
-92.75536700000001
 20
94.06064999999999
 30
0.0
 40
1.0
100
AcDbArc
 50
0.0
 51
83.84645799999999
  0
LINE
  5
227
330
36
100
AcDbEntity
  8
001
 62
     3
100
AcDbLine
 10
-144.255367
 20
105.393858
 30
0.0
 11
-144.255367
 21
91.893858
 31
0.0
  0
ARC
  5
228
330
36
100
AcDbEntity
  8
001
 62
     3
100
AcDbCircle
 10
-141.755367
 20
97.579816
 30
0.0
 40
2.5
100
AcDbArc
 50
90.0
 51
180.0
  0
LINE
  5
229
330
36
100
AcDbEntity
  8
001
 62
     3
100
AcDbLine
 10
-141.755367
 20
100.079816
 30
0.0
 11
-139.255367
 21
100.079816
 31
0.0
  0
LINE
  5
22A
330
36
100
AcDbEntity
  8
001
 62
     3
100
AcDbLine
 10
-92.648174
 20
95.05488900000001
 30
0.0
 11
-139.255367
 21
100.079816
 31
0.0
  0
ARC
  5
22B
330
36
100
AcDbEntity
  8
001
 62
     3
100
AcDbCircle
 10
-141.755367
 20
91.893858
 30
0.0
 40
2.5
100
AcDbArc
 50
180.0
 51
221.444297
  0
LINE
  5
22C
330
36
100
AcDbEntity
  8
001
 62
     3
100
AcDbLine
 10
-149.2553669999999
 20
100.393858
 30
0.0
 11
-158.854753
 21
100.393858
 31
0.0
  0
ARC
  5
22D
330
36
100
AcDbEntity
  8
001
 62
     3
100
AcDbCircle
 10
-164.0303669999999
 20
92.427489
 30
0.0
 40
9.5
100
AcDbArc
 50
56.98890200000001
 51
86.49096
  0
LINE
  5
22E
330
36
100
AcDbEntity
  8
001
 62
     3
100
AcDbLine
 10
-168.055348
 20
101.937902
 30
0.0
 11
-165.044639
 21
101.937902
 31
0.0
  0
ARC
  5
22F
330
36
100
AcDbEntity
  8
001
 62
     3
100
AcDbCircle
 10
-164.480367
 20
92.454675
 30
0.0
 40
9.5
100
AcDbArc
 50
86.59479899999999
 51
93.405201
  0
ARC
  5
230
330
36
100
AcDbEntity
  8
001
 62
     3
100
AcDbCircle
 10
-168.055348
 20
96.93790200000002
 30
0.0
 40
5.0
100
AcDbArc
 50
90.0
 51
115.594768
  0
ARC
  5
231
330
36
100
AcDbEntity
  8
001
 62
     3
100
AcDbCircle
 10
-179.255367
 20
120.319626
 30
0.0
 40
20.925768
100
AcDbArc
 50
270.684529
 51
295.594768
  0
ARC
  5
232
330
36
100
AcDbEntity
  8
001
 62
     3
100
AcDbCircle
 10
-179.255367
 20
120.319626
 30
0.0
 40
20.925768
100
AcDbArc
 50
244.405232
 51
270.684529
  0
ARC
  5
233
330
36
100
AcDbEntity
  8
001
 62
     3
100
AcDbCircle
 10
-190.455387
 20
96.93790200000002
 30
0.0
 40
5.0
100
AcDbArc
 50
64.405232
 51
90.0
  0
LINE
  5
234
330
36
100
AcDbEntity
  8
001
 62
     3
100
AcDbLine
 10
-190.455387
 20
101.937902
 30
0.0
 11
-193.466096
 21
101.937902
 31
0.0
  0
ARC
  5
235
330
36
100
AcDbEntity
  8
001
 62
     3
100
AcDbCircle
 10
-179.255367
 20
-155.856142
 30
0.0
 40
258.25
100
AcDbArc
 50
93.405201
 51
93.50903999999999
  0
ARC
  5
236
330
36
100
AcDbEntity
  8
001
 62
     3
100
AcDbCircle
 10
-194.030367
 20
92.454675
 30
0.0
 40
9.5
100
AcDbArc
 50
86.59479899999999
 51
93.405201
  0
ARC
  5
237
330
36
100
AcDbEntity
  8
001
 62
     3
100
AcDbCircle
 10
-194.480367
 20
92.427489
 30
0.0
 40
9.5
100
AcDbArc
 50
93.50903999999999
 51
123.011098
  0
LINE
  5
238
330
36
100
AcDbEntity
  8
001
 62
     3
100
AcDbLine
 10
-209.255367
 20
100.393858
 30
0.0
 11
-199.655981
 21
100.393858
 31
0.0
  0
ARC
  5
239
330
36
100
AcDbEntity
  8
001
 62
     3
100
AcDbCircle
 10
-209.255367
 20
105.393858
 30
0.0
 40
5.0
100
AcDbArc
 50
180.0
 51
270.0
  0
LINE
  5
23A
330
36
100
AcDbEntity
  8
001
 62
     3
100
AcDbLine
 10
-214.255367
 20
105.393858
 30
0.0
 11
-214.255367
 21
113.837902
 31
0.0
  0
ARC
  5
23B
330
36
100
AcDbEntity
  8
001
 62
     3
100
AcDbCircle
 10
-211.755367
 20
113.837902
 30
0.0
 40
2.5
100
AcDbArc
 50
90.0
 51
180.0
  0
LINE
  5
23C
330
36
100
AcDbEntity
  8
001
 62
     3
100
AcDbLine
 10
-179.255367
 20
116.337902
 30
0.0
 11
-211.755367
 21
116.337902
 31
0.0
  0
LINE
  5
23D
330
36
100
AcDbEntity
  8
001
 62
     3
100
AcDbLine
 10
-146.755367
 20
116.337902
 30
0.0
 11
-179.255367
 21
116.337902
 31
0.0
  0
ARC
  5
23E
330
36
100
AcDbEntity
  8
001
 62
     3
100
AcDbCircle
 10
-146.755367
 20
113.837902
 30
0.0
 40
2.5
100
AcDbArc
 50
0.0
 51
90.0
  0
LINE
  5
23F
330
36
100
AcDbEntity
  8
001
 62
     3
100
AcDbLine
 10
-144.255367
 20
113.837902
 30
0.0
 11
-144.255367
 21
105.393858
 31
0.0
  0
ARC
  5
240
330
36
100
AcDbEntity
  8
001
 62
     3
100
AcDbCircle
 10
-149.2553669999999
 20
105.393858
 30
0.0
 40
5.0
100
AcDbArc
 50
270.0
 51
0.0
  0
LINE
  5
241
330
36
100
AcDbEntity
  8
001
 62
     3
100
AcDbLine
 10
-128.2553669999999
 20
134.4150629999999
 30
0.0
 11
-128.2553669999999
 21
103.383761
 31
0.0
  0
LINE
  5
242
330
36
100
AcDbEntity
  8
001
 62
     3
100
AcDbLine
 10
-123.379482
 20
139.430658
 30
0.0
 11
-92.648174
 21
142.743936
 31
0.0
  0
ARC
  5
243
330
36
100
AcDbEntity
  8
001
 62
     3
100
AcDbCircle
 10
-92.75536700000001
 20
143.738174
 30
0.0
 40
1.0
100
AcDbArc
 50
276.153542
 51
0.0
  0
LINE
  5
244
330
36
100
AcDbEntity
  8
001
 62
     3
100
AcDbLine
 10
-91.755367
 20
143.720333
 30
0.0
 11
-91.755367
 21
145.904967
 31
0.0
  0
ARC
  5
245
330
36
100
AcDbEntity
  8
001
 62
     3
100
AcDbCircle
 10
-94.255367
 20
145.904967
 30
0.0
 40
2.5
100
AcDbArc
 50
0.0
 51
90.0
  0
LINE
  5
246
330
36
100
AcDbEntity
  8
001
 62
     3
100
AcDbLine
 10
-123.379482
 20
148.404967
 30
0.0
 11
-94.255367
 21
148.404967
 31
0.0
  0
LINE
  5
247
330
36
100
AcDbEntity
  8
001
 62
     3
100
AcDbLine
 10
-123.379482
 20
148.404967
 30
0.0
 11
-179.255367
 21
148.404967
 31
0.0
  0
ARC
  5
248
330
36
100
AcDbEntity
  8
001
 62
     3
100
AcDbCircle
 10
-264.255367
 20
145.904967
 30
0.0
 40
2.5
100
AcDbArc
 50
90.0
 51
180.0
  0
LINE
  5
249
330
36
100
AcDbEntity
  8
001
 62
     3
100
AcDbLine
 10
-266.755367
 20
143.720333
 30
0.0
 11
-266.755367
 21
145.904967
 31
0.0
  0
ARC
  5
24A
330
36
100
AcDbEntity
  8
001
 62
     3
100
AcDbCircle
 10
-265.755367
 20
143.738174
 30
0.0
 40
1.0
100
AcDbArc
 50
180.0
 51
263.846458
  0
LINE
  5
24B
330
36
100
AcDbEntity
  8
001
 62
     3
100
AcDbLine
 10
-265.862561
 20
142.743936
 30
0.0
 11
-261.755367
 21
142.301122
 31
0.0
  0
LINE
  5
24C
330
36
100
AcDbEntity
  8
001
 62
     3
100
AcDbLine
 10
-261.755367
 20
95.497703
 30
0.0
 11
-237.631252
 21
98.09863100000001
 31
0.0
  0
LINE
  5
24D
330
36
100
AcDbEntity
  8
001
 62
     3
100
AcDbLine
 10
-265.862561
 20
95.05488900000001
 30
0.0
 11
-261.755367
 21
95.497703
 31
0.0
  0
ARC
  5
24E
330
36
100
AcDbEntity
  8
001
 62
     3
100
AcDbCircle
 10
-265.755367
 20
94.06064999999999
 30
0.0
 40
1.0
100
AcDbArc
 50
96.153542
 51
180.0
  0
LINE
  5
24F
330
36
100
AcDbEntity
  8
001
 62
     3
100
AcDbLine
 10
-266.755367
 20
94.06064999999999
 30
0.0
 11
-266.755367
 21
91.893858
 31
0.0
  0
ARC
  5
250
330
36
100
AcDbEntity
  8
001
 62
     3
100
AcDbCircle
 10
-264.255367
 20
91.893858
 30
0.0
 40
2.5
100
AcDbArc
 50
180.0
 51
270.0
  0
LINE
  5
251
330
36
100
AcDbEntity
  8
001
 62
     3
100
AcDbLine
 10
-216.755367
 20
89.393858
 30
0.0
 11
-264.255367
 21
89.393858
 31
0.0
  0
ARC
  5
252
330
36
100
AcDbEntity
  8
001
 62
     3
100
AcDbCircle
 10
-235.255367
 20
103.383761
 30
0.0
 40
5.0
100
AcDbArc
 50
276.153542
 51
0.0
  0
LINE
  5
253
330
36
100
AcDbEntity
  8
001
 62
     3
100
AcDbLine
 10
-230.255367
 20
103.383761
 30
0.0
 11
-230.255367
 21
134.449378
 31
0.0
  0
ARC
  5
254
330
36
100
AcDbEntity
  8
001
 62
     3
100
AcDbCircle
 10
-235.255239
 20
134.449378
 30
0.0
 40
5.0
100
AcDbArc
 50
0.0
 51
77.148061
  0
ARC
  5
255
330
36
100
AcDbEntity
  8
001
 62
     3
100
AcDbCircle
 10
-213.00737
 20
88.58439999999998
 30
0.0
 40
2.5
100
AcDbArc
 50
68.13470999999998
 51
138.555703
  0
ARC
  5
256
330
36
100
AcDbEntity
  8
001
 62
     3
100
AcDbCircle
 10
-204.255367
 20
110.393858
 30
0.0
 40
21.0
100
AcDbArc
 50
248.13471
 51
270.0
  0
ARC
  5
257
330
36
100
AcDbEntity
  8
001
 62
     3
100
AcDbCircle
 10
-103.755367
 20
194.550152
 30
0.0
 40
12.0
100
AcDbArc
 50
0.0
 51
86.79519599999997
  0
LINE
  5
258
330
36
100
AcDbEntity
  8
001
 62
     3
100
AcDbLine
 10
-91.755367
 20
194.550152
 30
0.0
 11
-91.755367
 21
191.662225
 31
0.0
  0
ARC
  5
259
330
36
100
AcDbEntity
  8
001
 62
     3
100
AcDbCircle
 10
-103.755367
 20
188.7742989999999
 30
0.0
 40
12.0
100
AcDbArc
 50
273.204804
 51
0.0
  0
ARC
  5
25A
330
36
100
AcDbEntity
  8
001
 62
     3
100
AcDbCircle
 10
-179.255367
 20
-1153.837775
 30
0.0
 40
1362.5
100
AcDbArc
 50
86.79519599999997
 51
93.204804
  0
ARC
  5
25B
330
36
100
AcDbEntity
  8
001
 62
     3
100
AcDbCircle
 10
-179.255367
 20
1537.162225
 30
0.0
 40
1362.5
100
AcDbArc
 50
266.795196
 51
273.204804
  0
ARC
  5
25C
330
36
100
AcDbEntity
  8
001
 62
     3
100
AcDbCircle
 10
-219.255367
 20
35.590951
 30
0.0
 40
5.0
100
AcDbArc
 50
268.311482
 51
0.0
  0
LINE
  5
25D
330
36
100
AcDbEntity
  8
001
 62
     3
100
AcDbLine
 10
-98.75536700000001
 20
47.001504
 30
0.0
 11
-91.755367
 21
47.001504
 31
0.0
  0
ARC
  5
25E
330
36
100
AcDbEntity
  8
001
 62
     3
100
AcDbCircle
 10
-139.255367
 20
58.412058
 30
0.0
 40
5.0
100
AcDbArc
 50
88.31148199999999
 51
180.0
  0
LINE
  5
25F
330
36
100
AcDbEntity
  8
001
 62
     3
100
AcDbLine
 10
-91.755367
 20
44.113578
 30
0.0
 11
-91.755367
 21
47.001504
 31
0.0
  0
ARC
  5
260
330
36
100
AcDbEntity
  8
001
 62
     3
100
AcDbCircle
 10
-103.755367
 20
44.113578
 30
0.0
 40
12.0
100
AcDbArc
 50
273.204804
 51
0.0
  0
ARC
  5
261
330
36
100
AcDbEntity
  8
001
 62
     3
100
AcDbCircle
 10
-103.755367
 20
49.889431
 30
0.0
 40
12.0
100
AcDbArc
 50
0.0
 51
86.79519599999997
  0
ARC
  5
262
330
36
100
AcDbEntity
  8
001
 62
     3
100
AcDbCircle
 10
-148.2553669999999
 20
58.501504
 30
0.0
 40
4.0
100
AcDbArc
 50
270.0
 51
0.0
  0
LINE
  5
263
330
36
100
AcDbEntity
  8
001
 62
     3
100
AcDbLine
 10
-214.255367
 20
59.501504
 30
0.0
 11
-144.135235
 21
59.501504
 31
0.0
  0
ARC
  5
264
330
36
100
AcDbEntity
  8
001
 62
     3
100
AcDbCircle
 10
-210.255367
 20
58.501504
 30
0.0
 40
4.0
100
AcDbArc
 50
180.0
 51
270.0
  0
ARC
  5
265
330
36
100
AcDbEntity
  8
001
 62
     3
100
AcDbCircle
 10
-219.255367
 20
58.412058
 30
0.0
 40
5.0
100
AcDbArc
 50
0.0
 51
91.688518
  0
ARC
  5
266
330
36
100
AcDbEntity
  8
001
 62
     3
100
AcDbCircle
 10
-179.255367
 20
-1298.498496
 30
0.0
 40
1362.5
100
AcDbArc
 50
86.79519599999997
 51
93.204804
  0
ARC
  5
267
330
36
100
AcDbEntity
  8
001
 62
     3
100
AcDbCircle
 10
-254.755367
 20
49.889431
 30
0.0
 40
12.0
100
AcDbArc
 50
93.204804
 51
180.0
  0
ARC
  5
268
330
36
100
AcDbEntity
  8
001
 62
     3
100
AcDbCircle
 10
-179.255367
 20
1392.501504
 30
0.0
 40
1362.5
100
AcDbArc
 50
266.795196
 51
273.204804
  0
LINE
  5
269
330
36
100
AcDbEntity
  8
001
 62
     3
100
AcDbLine
 10
-266.755367
 20
44.113578
 30
0.0
 11
-266.755367
 21
49.889431
 31
0.0
  0
ARC
  5
26A
330
36
100
AcDbEntity
  8
001
 62
     3
100
AcDbCircle
 10
-254.755367
 20
44.113578
 30
0.0
 40
12.0
100
AcDbArc
 50
180.0
 51
266.795196
  0
ARC
  5
26B
330
36
100
AcDbEntity
  8
001
 62
     3
100
AcDbCircle
 10
-254.755367
 20
188.7742989999999
 30
0.0
 40
12.0
100
AcDbArc
 50
180.0
 51
266.795196
  0
LINE
  5
26C
330
36
100
AcDbEntity
  8
001
 62
     3
100
AcDbLine
 10
-266.755367
 20
188.7742989999999
 30
0.0
 11
-266.755367
 21
191.662225
 31
0.0
  0
ARC
  5
26D
330
36
100
AcDbEntity
  8
001
 62
     3
100
AcDbCircle
 10
-254.755367
 20
194.550152
 30
0.0
 40
12.0
100
AcDbArc
 50
93.204804
 51
180.0
  0
LINE
  5
26E
330
36
100
AcDbEntity
  8
001
 62
     3
100
AcDbLine
 10
-266.755367
 20
194.550152
 30
0.0
 11
-266.755367
 21
191.662225
 31
0.0
  0
ARC
  5
26F
330
36
100
AcDbEntity
  8
001
 62
     3
100
AcDbCircle
 10
-123.255367
 20
134.4150629999999
 30
0.0
 40
5.0
100
AcDbArc
 50
100.798319
 51
180.0
  0
ARC
  5
270
330
36
100
AcDbEntity
  8
001
 62
     3
100
AcDbCircle
 10
-123.255367
 20
103.383761
 30
0.0
 40
5.0
100
AcDbArc
 50
180.0
 51
259.201681
  0
LINE
  5
271
330
36
100
AcDbEntity
  8
001
 62
     3
100
AcDbLine
 10
-139.255367
 20
137.719009
 30
0.0
 11
-123.379482
 21
139.430658
 31
0.0
  0
LINE
  5
272
330
36
100
AcDbEntity
  8
001
 62
     3
100
AcDbLine
 10
-179.255367
 20
137.719009
 30
0.0
 11
-139.255367
 21
137.719009
 31
0.0
  0
LINE
  5
273
330
36
100
AcDbEntity
  8
001
 62
     3
100
AcDbLine
 10
-179.255367
 20
137.719009
 30
0.0
 11
-219.255367
 21
137.719009
 31
0.0
  0
LINE
  5
274
330
36
100
AcDbEntity
  8
001
 62
     3
100
AcDbLine
 10
-196.755367
 20
46.75150399999998
 30
0.0
 11
-196.755367
 21
39.751504
 31
0.0
  0
LINE
  5
275
330
36
100
AcDbEntity
  8
001
 62
     3
100
AcDbLine
 10
-196.755367
 20
47.25150399999999
 30
0.0
 11
-196.755367
 21
54.251504
 31
0.0
  0
LINE
  5
276
330
36
100
AcDbEntity
  8
001
 62
     3
100
AcDbLine
 10
-191.755367
 20
47.25150399999999
 30
0.0
 11
-191.755367
 21
54.251504
 31
0.0
  0
LINE
  5
277
330
36
100
AcDbEntity
  8
001
 62
     3
100
AcDbLine
 10
-191.755367
 20
46.75150399999998
 30
0.0
 11
-191.755367
 21
39.751504
 31
0.0
  0
ARC
  5
278
330
36
100
AcDbEntity
  8
001
 62
     3
100
AcDbCircle
 10
-191.5053669999999
 20
39.751504
 30
0.0
 40
0.25
100
AcDbArc
 50
180.0
 51
270.0
  0
ARC
  5
279
330
36
100
AcDbEntity
  8
001
 62
     3
100
AcDbCircle
 10
-197.005367
 20
39.751504
 30
0.0
 40
0.25
100
AcDbArc
 50
270.0
 51
0.0
  0
ARC
  5
27A
330
36
100
AcDbEntity
  8
001
 62
     3
100
AcDbCircle
 10
-191.5053669999999
 20
54.251504
 30
0.0
 40
0.25
100
AcDbArc
 50
90.0
 51
180.0
  0
ARC
  5
27B
330
36
100
AcDbEntity
  8
001
 62
     3
100
AcDbCircle
 10
-197.005367
 20
54.251504
 30
0.0
 40
0.25
100
AcDbArc
 50
0.0
 51
90.0
  0
LINE
  5
27C
330
36
100
AcDbEntity
  8
001
 62
     3
100
AcDbLine
 10
-161.7553669999999
 20
46.75150399999998
 30
0.0
 11
-161.7553669999999
 21
39.751504
 31
0.0
  0
LINE
  5
27D
330
36
100
AcDbEntity
  8
001
 62
     3
100
AcDbLine
 10
-166.755367
 20
46.75150399999998
 30
0.0
 11
-166.755367
 21
39.751504
 31
0.0
  0
ARC
  5
27E
330
36
100
AcDbEntity
  8
001
 62
     3
100
AcDbCircle
 10
-167.0053669999999
 20
39.751504
 30
0.0
 40
0.25
100
AcDbArc
 50
270.0
 51
0.0
  0
ARC
  5
27F
330
36
100
AcDbEntity
  8
001
 62
     3
100
AcDbCircle
 10
-161.5053669999999
 20
39.751504
 30
0.0
 40
0.25
100
AcDbArc
 50
180.0
 51
270.0
  0
LINE
  5
280
330
36
100
AcDbEntity
  8
001
 62
     3
100
AcDbLine
 10
-161.7553669999999
 20
47.25150399999999
 30
0.0
 11
-161.7553669999999
 21
54.251504
 31
0.0
  0
ARC
  5
281
330
36
100
AcDbEntity
  8
001
 62
     3
100
AcDbCircle
 10
-161.5053669999999
 20
54.251504
 30
0.0
 40
0.25
100
AcDbArc
 50
90.0
 51
180.0
  0
ARC
  5
282
330
36
100
AcDbEntity
  8
001
 62
     3
100
AcDbCircle
 10
-167.0053669999999
 20
54.251504
 30
0.0
 40
0.25
100
AcDbArc
 50
0.0
 51
90.0
  0
LINE
  5
283
330
36
100
AcDbEntity
  8
001
 62
     3
100
AcDbLine
 10
-166.755367
 20
47.25150399999999
 30
0.0
 11
-166.755367
 21
54.251504
 31
0.0
  0
LINE
  5
284
330
36
100
AcDbEntity
  8
001
 62
     3
100
AcDbLine
 10
-167.014085
 20
46.75150399999998
 30
0.0
 11
-167.014085
 21
47.25150399999999
 31
0.0
  0
LINE
  5
285
330
36
100
AcDbEntity
  8
001
 62
     3
100
AcDbLine
 10
-161.496649
 20
46.75150399999998
 30
0.0
 11
-161.496649
 21
47.25150399999999
 31
0.0
  0
LINE
  5
286
330
36
100
AcDbEntity
  8
001
 62
     3
100
AcDbLine
 10
-197.014085
 20
47.25150399999999
 30
0.0
 11
-197.014085
 21
46.75150399999998
 31
0.0
  0
LINE
  5
287
330
36
100
AcDbEntity
  8
001
 62
     3
100
AcDbLine
 10
-191.496649
 20
47.25150399999999
 30
0.0
 11
-191.496649
 21
46.75150399999998
 31
0.0
  0
LINE
  5
288
330
36
100
AcDbEntity
  8
001
 62
     3
100
AcDbLine
 10
-264.255367
 20
148.404967
 30
0.0
 11
-179.255367
 21
148.404967
 31
0.0
  0
LINE
  5
289
330
36
100
AcDbEntity
  8
001
 62
     3
100
AcDbLine
 10
-219.255367
 20
137.719009
 30
0.0
 11
-261.755367
 21
142.301122
 31
0.0
  0
LINE
  5
28A
330
36
100
AcDbEntity
  8
001
 62
     3
100
AcDbLine
 10
-91.755367
 20
191.662225
 30
0.0
 11
-98.75536700000001
 21
191.662225
 31
0.0
  0
LINE
  5
28B
330
36
100
AcDbEntity
  8
001
 62
     3
100
AcDbLine
 10
-91.755367
 20
188.7742989999999
 30
0.0
 11
-91.755367
 21
191.662225
 31
0.0
  0
LINE
  5
28C
330
36
100
AcDbEntity
  8
001
 62
     3
100
AcDbLine
 10
-259.755367
 20
191.662225
 30
0.0
 11
-266.755367
 21
191.662225
 31
0.0
  0
LINE
  5
28D
330
36
100
AcDbEntity
  8
001
 62
     3
100
AcDbLine
 10
-259.755367
 20
47.001504
 30
0.0
 11
-266.755367
 21
47.001504
 31
0.0
  0
LINE
  5
28E
330
36
100
AcDbEntity
  8
001
 62
     3
100
AcDbLine
 10
-91.755367
 20
49.889431
 30
0.0
 11
-91.755367
 21
47.001504
 31
0.0
  0
LINE
  5
28F
330
36
100
AcDbEntity
  8
001
 62
     3
100
AcDbLine
 10
-122.879482
 20
46.75150399999998
 30
0.0
 11
-122.879482
 21
47.25150399999999
 31
0.0
  0
LINE
  5
290
330
36
100
AcDbEntity
  8
001
 62
     3
100
AcDbLine
 10
-235.631252
 20
47.25150399999999
 30
0.0
 11
-235.631252
 21
46.75150399999998
 31
0.0
  0
LINE
  5
291
330
36
100
AcDbEntity
  8
001
 62
     3
100
AcDbLine
 10
-236.131252
 20
187.033944
 30
0.0
 11
-236.131252
 21
191.412225
 31
0.0
  0
LINE
  5
292
330
36
100
AcDbEntity
  8
001
 62
     3
100
AcDbLine
 10
-236.131252
 20
196.245047
 30
0.0
 11
-236.131252
 21
191.912225
 31
0.0
  0
ARC
  5
293
330
36
100
AcDbEntity
  8
001
 62
     3
100
AcDbCircle
 10
-179.255367
 20
-1153.837775
 30
0.0
 40
1355.5
100
AcDbArc
 50
92.58165899999999
 51
93.204804
  0
ARC
  5
294
330
36
100
AcDbEntity
  8
001
 62
     3
100
AcDbCircle
 10
-254.755367
 20
194.550152
 30
0.0
 40
5.0
100
AcDbArc
 50
93.204804
 51
180.0
  0
LINE
  5
295
330
36
100
AcDbEntity
  8
001
 62
     3
100
AcDbLine
 10
-259.755367
 20
194.550152
 30
0.0
 11
-259.755367
 21
188.7742989999999
 31
0.0
  0
ARC
  5
296
330
36
100
AcDbEntity
  8
001
 62
     3
100
AcDbCircle
 10
-254.755367
 20
188.7742989999999
 30
0.0
 40
5.0
100
AcDbArc
 50
180.0
 51
266.795196
  0
ARC
  5
297
330
36
100
AcDbEntity
  8
001
 62
     3
100
AcDbCircle
 10
-179.255367
 20
1537.162225
 30
0.0
 40
1355.5
100
AcDbArc
 50
266.795196
 51
267.418341
  0
LINE
  5
298
330
36
100
AcDbEntity
  8
001
 62
     3
100
AcDbLine
 10
-122.379482
 20
196.245047
 30
0.0
 11
-122.379482
 21
191.912225
 31
0.0
  0
ARC
  5
299
330
36
100
AcDbEntity
  8
001
 62
     3
100
AcDbCircle
 10
-179.255367
 20
-1153.837775
 30
0.0
 40
1355.5
100
AcDbArc
 50
86.79519599999997
 51
87.418341
  0
ARC
  5
29A
330
36
100
AcDbEntity
  8
001
 62
     3
100
AcDbCircle
 10
-103.755367
 20
194.550152
 30
0.0
 40
5.0
100
AcDbArc
 50
0.0
 51
86.79519599999997
  0
LINE
  5
29B
330
36
100
AcDbEntity
  8
001
 62
     3
100
AcDbLine
 10
-98.75536700000001
 20
194.550152
 30
0.0
 11
-98.75536700000001
 21
188.7742989999999
 31
0.0
  0
ARC
  5
29C
330
36
100
AcDbEntity
  8
001
 62
     3
100
AcDbCircle
 10
-103.755367
 20
188.7742989999999
 30
0.0
 40
5.0
100
AcDbArc
 50
273.204804
 51
0.0
  0
ARC
  5
29D
330
36
100
AcDbEntity
  8
001
 62
     3
100
AcDbCircle
 10
-179.255367
 20
1537.162225
 30
0.0
 40
1355.5
100
AcDbArc
 50
272.581659
 51
273.204804
  0
LINE
  5
29E
330
36
100
AcDbEntity
  8
001
 62
     3
100
AcDbLine
 10
-122.379482
 20
187.033944
 30
0.0
 11
-122.379482
 21
191.412225
 31
0.0
  0
LINE
  5
29F
330
36
100
AcDbEntity
  8
001
 62
     3
100
AcDbLine
 10
-148.2553669999999
 20
54.501504
 30
0.0
 11
-161.5053669999999
 21
54.501504
 31
0.0
  0
LINE
  5
2A0
330
36
100
AcDbEntity
  8
001
 62
     3
100
AcDbLine
 10
-167.0053669999999
 20
54.501504
 30
0.0
 11
-179.255367
 21
54.501504
 31
0.0
  0
LINE
  5
2A1
330
36
100
AcDbEntity
  8
001
 62
     3
100
AcDbLine
 10
-148.2553669999999
 20
39.501504
 30
0.0
 11
-161.5053669999999
 21
39.501504
 31
0.0
  0
LINE
  5
2A2
330
36
100
AcDbEntity
  8
001
 62
     3
100
AcDbLine
 10
-167.0053669999999
 20
39.501504
 30
0.0
 11
-179.255367
 21
39.501504
 31
0.0
  0
LINE
  5
2A3
330
36
100
AcDbEntity
  8
001
 62
     3
100
AcDbLine
 10
-210.255367
 20
54.501504
 30
0.0
 11
-197.005367
 21
54.501504
 31
0.0
  0
LINE
  5
2A4
330
36
100
AcDbEntity
  8
001
 62
     3
100
AcDbLine
 10
-191.5053669999999
 20
54.501504
 30
0.0
 11
-179.255367
 21
54.501504
 31
0.0
  0
ARC
  5
2A5
330
36
100
AcDbEntity
  8
001
 62
     3
100
AcDbCircle
 10
-179.255367
 20
-1298.498496
 30
0.0
 40
1355.5
100
AcDbArc
 50
86.79519599999997
 51
87.418341
  0
ARC
  5
2A6
330
36
100
AcDbEntity
  8
001
 62
     3
100
AcDbCircle
 10
-103.755367
 20
49.889431
 30
0.0
 40
5.0
100
AcDbArc
 50
0.0
 51
86.79519599999997
  0
LINE
  5
2A7
330
36
100
AcDbEntity
  8
001
 62
     3
100
AcDbLine
 10
-98.75536700000001
 20
44.113578
 30
0.0
 11
-98.75536700000001
 21
47.001504
 31
0.0
  0
ARC
  5
2A8
330
36
100
AcDbEntity
  8
001
 62
     3
100
AcDbCircle
 10
-103.755367
 20
44.113578
 30
0.0
 40
5.0
100
AcDbArc
 50
273.204804
 51
0.0
  0
ARC
  5
2A9
330
36
100
AcDbEntity
  8
001
 62
     3
100
AcDbCircle
 10
-179.255367
 20
1392.501504
 30
0.0
 40
1355.5
100
AcDbArc
 50
272.581659
 51
273.204804
  0
LINE
  5
2AA
330
36
100
AcDbEntity
  8
001
 62
     3
100
AcDbLine
 10
-122.379482
 20
51.58432600000001
 30
0.0
 11
-122.379482
 21
47.25150399999999
 31
0.0
  0
LINE
  5
2AB
330
36
100
AcDbEntity
  8
001
 62
     3
100
AcDbLine
 10
-98.75536700000001
 20
49.889431
 30
0.0
 11
-98.75536700000001
 21
47.001504
 31
0.0
  0
LINE
  5
2AC
330
36
100
AcDbEntity
  8
001
 62
     3
100
AcDbLine
 10
-122.379482
 20
42.37322299999998
 30
0.0
 11
-122.379482
 21
46.75150399999998
 31
0.0
  0
LINE
  5
2AD
330
36
100
AcDbEntity
  8
001
 62
     3
100
AcDbLine
 10
-236.131252
 20
42.37322299999998
 30
0.0
 11
-236.131252
 21
46.75150399999998
 31
0.0
  0
LINE
  5
2AE
330
36
100
AcDbEntity
  8
001
 62
     3
100
AcDbLine
 10
-236.131252
 20
51.58432600000001
 30
0.0
 11
-236.131252
 21
47.25150399999999
 31
0.0
  0
LINE
  5
2AF
330
36
100
AcDbEntity
  8
001
 62
     3
100
AcDbLine
 10
-259.755367
 20
44.113578
 30
0.0
 11
-259.755367
 21
47.001504
 31
0.0
  0
ARC
  5
2B0
330
36
100
AcDbEntity
  8
001
 62
     3
100
AcDbCircle
 10
-179.255367
 20
-1298.498496
 30
0.0
 40
1355.5
100
AcDbArc
 50
92.58165899999999
 51
93.204804
  0
ARC
  5
2B1
330
36
100
AcDbEntity
  8
001
 62
     3
100
AcDbCircle
 10
-179.255367
 20
1392.501504
 30
0.0
 40
1355.5
100
AcDbArc
 50
266.795196
 51
267.418341
  0
LINE
  5
2B2
330
36
100
AcDbEntity
  8
001
 62
     3
100
AcDbLine
 10
-191.5053669999999
 20
39.501504
 30
0.0
 11
-179.255367
 21
39.501504
 31
0.0
  0
LINE
  5
2B3
330
36
100
AcDbEntity
  8
001
 62
     3
100
AcDbLine
 10
-210.255367
 20
39.501504
 30
0.0
 11
-197.005367
 21
39.501504
 31
0.0
  0
ARC
  5
2B4
330
36
100
AcDbEntity
  8
001
 62
     3
100
AcDbCircle
 10
-210.255367
 20
35.501504
 30
0.0
 40
4.0
100
AcDbArc
 50
90.0
 51
180.0
  0
ARC
  5
2B5
330
36
100
AcDbEntity
  8
001
 62
     3
100
AcDbCircle
 10
-148.2553669999999
 20
35.501504
 30
0.0
 40
4.0
100
AcDbArc
 50
0.0
 51
90.0
  0
ARC
  5
2B6
330
36
100
AcDbEntity
  8
001
 62
     3
100
AcDbCircle
 10
-139.255367
 20
35.590951
 30
0.0
 40
5.0
100
AcDbArc
 50
180.0
 51
271.6885180000001
  0
ARC
  5
2B7
330
36
100
AcDbEntity
  8
001
 62
     3
100
AcDbCircle
 10
-254.755367
 20
49.889431
 30
0.0
 40
5.0
100
AcDbArc
 50
93.204804
 51
180.0
  0
ARC
  5
2B8
330
36
100
AcDbEntity
  8
001
 62
     3
100
AcDbCircle
 10
-254.755367
 20
44.113578
 30
0.0
 40
5.0
100
AcDbArc
 50
180.0
 51
266.795196
  0
LINE
  5
2B9
330
36
100
AcDbEntity
  8
001
 62
     3
100
AcDbLine
 10
-259.755367
 20
49.889431
 30
0.0
 11
-259.755367
 21
47.001504
 31
0.0
  0
ARC
  5
2BA
330
36
100
AcDbEntity
  8
001
 62
     3
100
AcDbCircle
 10
-219.255367
 20
195.412225
 30
0.0
 40
8.875
100
AcDbArc
 50
90.0
 51
180.0
  0
LINE
  5
2BB
330
36
100
AcDbEntity
  8
001
 62
     3
100
AcDbLine
 10
-219.255367
 20
204.287225
 30
0.0
 11
-139.255367
 21
204.287225
 31
0.0
  0
LINE
  5
2BC
330
36
100
AcDbEntity
  8
001
 62
     3
100
AcDbLine
 10
-228.130367
 20
187.912225
 30
0.0
 11
-228.130367
 21
195.412225
 31
0.0
  0
ARC
  5
2BD
330
36
100
AcDbEntity
  8
001
 62
     3
100
AcDbCircle
 10
-219.255367
 20
187.912225
 30
0.0
 40
8.875
100
AcDbArc
 50
180.0
 51
270.0
  0
ARC
  5
2BE
330
36
100
AcDbEntity
  8
001
 62
     3
100
AcDbCircle
 10
-193.70078
 20
195.032881
 30
0.0
 40
5.0
100
AcDbArc
 50
90.0
 51
180.0
  0
ARC
  5
2BF
330
36
100
AcDbEntity
  8
001
 62
     3
100
AcDbCircle
 10
-193.70078
 20
188.282881
 30
0.0
 40
5.0
100
AcDbArc
 50
180.0
 51
270.0
  0
LINE
  5
2C0
330
36
100
AcDbEntity
  8
001
 62
     3
100
AcDbLine
 10
-189.70078
 20
183.282881
 30
0.0
 11
-193.70078
 21
183.282881
 31
0.0
  0
LINE
  5
2C1
330
36
100
AcDbEntity
  8
001
 62
     3
100
AcDbLine
 10
-193.70078
 20
200.032881
 30
0.0
 11
-189.70078
 21
200.032881
 31
0.0
  0
ARC
  5
2C2
330
36
100
AcDbEntity
  8
001
 62
     3
100
AcDbCircle
 10
-139.255367
 20
195.412225
 30
0.0
 40
8.875
100
AcDbArc
 50
0.0
 51
90.0
  0
ARC
  5
2C3
330
36
100
AcDbEntity
  8
001
 62
     3
100
AcDbCircle
 10
-139.255367
 20
187.912225
 30
0.0
 40
8.875
100
AcDbArc
 50
270.0
 51
0.0
  0
ARC
  5
2C4
330
36
100
AcDbEntity
  8
001
 62
     3
100
AcDbCircle
 10
-213.20078
 20
188.282881
 30
0.0
 40
5.0
100
AcDbArc
 50
180.0
 51
270.0
  0
LINE
  5
2C5
330
36
100
AcDbEntity
  8
001
 62
     3
100
AcDbLine
 10
-218.20078
 20
188.282881
 30
0.0
 11
-218.20078
 21
191.657881
 31
0.0
  0
LINE
  5
2C6
330
36
100
AcDbEntity
  8
001
 62
     3
100
AcDbLine
 10
-218.20078
 20
195.032881
 30
0.0
 11
-218.20078
 21
191.657881
 31
0.0
  0
ARC
  5
2C7
330
36
100
AcDbEntity
  8
001
 62
     3
100
AcDbCircle
 10
-213.20078
 20
195.032881
 30
0.0
 40
5.0
100
AcDbArc
 50
90.0
 51
180.0
  0
LINE
  5
2C8
330
36
100
AcDbEntity
  8
001
 62
     3
100
AcDbLine
 10
-213.20078
 20
200.032881
 30
0.0
 11
-209.20078
 21
200.032881
 31
0.0
  0
ARC
  5
2C9
330
36
100
AcDbEntity
  8
001
 62
     3
100
AcDbCircle
 10
-209.20078
 20
195.032881
 30
0.0
 40
5.0
100
AcDbArc
 50
0.0
 51
90.0
  0
ARC
  5
2CA
330
36
100
AcDbEntity
  8
001
 62
     3
100
AcDbCircle
 10
-209.20078
 20
188.282881
 30
0.0
 40
5.0
100
AcDbArc
 50
270.0
 51
0.0
  0
LINE
  5
2CB
330
36
100
AcDbEntity
  8
001
 62
     3
100
AcDbLine
 10
-204.20078
 20
195.032881
 30
0.0
 11
-204.20078
 21
191.657881
 31
0.0
  0
LINE
  5
2CC
330
36
100
AcDbEntity
  8
001
 62
     3
100
AcDbLine
 10
-204.20078
 20
188.282881
 30
0.0
 11
-204.20078
 21
191.657881
 31
0.0
  0
LINE
  5
2CD
330
36
100
AcDbEntity
  8
001
 62
     3
100
AcDbLine
 10
-213.20078
 20
183.282881
 30
0.0
 11
-209.20078
 21
183.282881
 31
0.0
  0
LINE
  5
2CE
330
36
100
AcDbEntity
  8
001
 62
     3
100
AcDbLine
 10
-198.70078
 20
195.032881
 30
0.0
 11
-198.70078
 21
188.282881
 31
0.0
  0
ARC
  5
2CF
330
36
100
AcDbEntity
  8
001
 62
     3
100
AcDbCircle
 10
-189.70078
 20
195.032881
 30
0.0
 40
5.0
100
AcDbArc
 50
0.0
 51
90.0
  0
LINE
  5
2D0
330
36
100
AcDbEntity
  8
001
 62
     3
100
AcDbLine
 10
-184.70078
 20
195.032881
 30
0.0
 11
-184.70078
 21
191.657881
 31
0.0
  0
LINE
  5
2D1
330
36
100
AcDbEntity
  8
001
 62
     3
100
AcDbLine
 10
-184.70078
 20
188.282881
 30
0.0
 11
-184.70078
 21
191.657881
 31
0.0
  0
ARC
  5
2D2
330
36
100
AcDbEntity
  8
001
 62
     3
100
AcDbCircle
 10
-189.70078
 20
188.282881
 30
0.0
 40
5.0
100
AcDbArc
 50
270.0
 51
0.0
  0
LINE
  5
2D3
330
36
100
AcDbEntity
  8
001
 62
     3
100
AcDbLine
 10
-219.255367
 20
179.037225
 30
0.0
 11
-139.255367
 21
179.037225
 31
0.0
  0
ARC
  5
2D4
330
36
100
AcDbEntity
  8
001
 62
     3
100
AcDbCircle
 10
-240.131252
 20
187.033944
 30
0.0
 40
4.0
100
AcDbArc
 50
267.418341
 51
0.0
  0
ARC
  5
2D5
330
36
100
AcDbEntity
  8
001
 62
     3
100
AcDbCircle
 10
-240.131252
 20
196.290507
 30
0.0
 40
4.0
100
AcDbArc
 50
0.0
 51
92.58165899999999
  0
ARC
  5
2D6
330
36
100
AcDbEntity
  8
001
 62
     3
100
AcDbCircle
 10
-118.379482
 20
196.290507
 30
0.0
 40
4.0
100
AcDbArc
 50
87.418341
 51
180.0
  0
ARC
  5
2D7
330
36
100
AcDbEntity
  8
001
 62
     3
100
AcDbCircle
 10
-118.379482
 20
187.033944
 30
0.0
 40
4.0
100
AcDbArc
 50
180.0
 51
272.581659
  0
LINE
  5
2D8
330
36
100
AcDbEntity
  8
001
 62
     3
100
AcDbLine
 10
-130.3803669999999
 20
191.662225
 30
0.0
 11
-130.3803669999999
 21
187.912225
 31
0.0
  0
LINE
  5
2D9
330
36
100
AcDbEntity
  8
001
 62
     3
100
AcDbLine
 10
-130.3803669999999
 20
191.662225
 30
0.0
 11
-130.3803669999999
 21
195.412225
 31
0.0
  0
ARC
  5
2DA
330
36
100
AcDbEntity
  8
001
 62
     3
100
AcDbCircle
 10
-118.379482
 20
42.37322299999998
 30
0.0
 40
4.0
100
AcDbArc
 50
180.0
 51
272.581659
  0
ARC
  5
2DB
330
36
100
AcDbEntity
  8
001
 62
     3
100
AcDbCircle
 10
-118.379482
 20
51.62978599999998
 30
0.0
 40
4.0
100
AcDbArc
 50
87.418341
 51
180.0
  0
ARC
  5
2DC
330
36
100
AcDbEntity
  8
001
 62
     3
100
AcDbCircle
 10
-240.131252
 20
42.37322299999998
 30
0.0
 40
4.0
100
AcDbArc
 50
267.418341
 51
0.0
  0
ARC
  5
2DD
330
36
100
AcDbEntity
  8
001
 62
     3
100
AcDbCircle
 10
-240.131252
 20
51.62978599999998
 30
0.0
 40
4.0
100
AcDbArc
 50
0.0
 51
92.58165899999999
  0
ARC
  5
2DE
330
36
100
AcDbEntity
  8
001
 62
     3
100
AcDbCircle
 10
-168.809954
 20
195.032881
 30
0.0
 40
5.0
100
AcDbArc
 50
90.0
 51
180.0
  0
ARC
  5
2DF
330
36
100
AcDbEntity
  8
001
 62
     3
100
AcDbCircle
 10
-168.809954
 20
188.282881
 30
0.0
 40
5.0
100
AcDbArc
 50
180.0
 51
270.0
  0
LINE
  5
2E0
330
36
100
AcDbEntity
  8
001
 62
     3
100
AcDbLine
 10
-168.809954
 20
200.032881
 30
0.0
 11
-164.809954
 21
200.032881
 31
0.0
  0
ARC
  5
2E1
330
36
100
AcDbEntity
  8
001
 62
     3
100
AcDbCircle
 10
-149.309954
 20
188.282881
 30
0.0
 40
5.0
100
AcDbArc
 50
180.0
 51
270.0
  0
LINE
  5
2E2
330
36
100
AcDbEntity
  8
001
 62
     3
100
AcDbLine
 10
-154.309954
 20
188.282881
 30
0.0
 11
-154.309954
 21
191.657881
 31
0.0
  0
LINE
  5
2E3
330
36
100
AcDbEntity
  8
001
 62
     3
100
AcDbLine
 10
-154.309954
 20
195.032881
 30
0.0
 11
-154.309954
 21
191.657881
 31
0.0
  0
ARC
  5
2E4
330
36
100
AcDbEntity
  8
001
 62
     3
100
AcDbCircle
 10
-149.309954
 20
195.032881
 30
0.0
 40
5.0
100
AcDbArc
 50
90.0
 51
180.0
  0
LINE
  5
2E5
330
36
100
AcDbEntity
  8
001
 62
     3
100
AcDbLine
 10
-149.309954
 20
200.032881
 30
0.0
 11
-145.309954
 21
200.032881
 31
0.0
  0
ARC
  5
2E6
330
36
100
AcDbEntity
  8
001
 62
     3
100
AcDbCircle
 10
-145.309954
 20
195.032881
 30
0.0
 40
5.0
100
AcDbArc
 50
0.0
 51
90.0
  0
ARC
  5
2E7
330
36
100
AcDbEntity
  8
001
 62
     3
100
AcDbCircle
 10
-145.309954
 20
188.282881
 30
0.0
 40
5.0
100
AcDbArc
 50
270.0
 51
0.0
  0
ARC
  5
2E8
330
36
100
AcDbEntity
  8
001
 62
     3
100
AcDbCircle
 10
-164.809954
 20
195.032881
 30
0.0
 40
5.0
100
AcDbArc
 50
0.0
 51
90.0
  0
LINE
  5
2E9
330
36
100
AcDbEntity
  8
001
 62
     3
100
AcDbLine
 10
-159.809954
 20
195.032881
 30
0.0
 11
-159.809954
 21
191.657881
 31
0.0
  0
LINE
  5
2EA
330
36
100
AcDbEntity
  8
001
 62
     3
100
AcDbLine
 10
-159.809954
 20
188.282881
 30
0.0
 11
-159.809954
 21
191.657881
 31
0.0
  0
ARC
  5
2EB
330
36
100
AcDbEntity
  8
001
 62
     3
100
AcDbCircle
 10
-164.809954
 20
188.282881
 30
0.0
 40
5.0
100
AcDbArc
 50
270.0
 51
0.0
  0
LINE
  5
2EC
330
36
100
AcDbEntity
  8
001
 62
     3
100
AcDbLine
 10
-140.309954
 20
188.282881
 30
0.0
 11
-140.309954
 21
191.657881
 31
0.0
  0
LINE
  5
2ED
330
36
100
AcDbEntity
  8
001
 62
     3
100
AcDbLine
 10
-140.309954
 20
195.032881
 30
0.0
 11
-140.309954
 21
191.657881
 31
0.0
  0
LINE
  5
2EE
330
36
100
AcDbEntity
  8
001
 62
     3
100
AcDbLine
 10
-149.309954
 20
183.282881
 30
0.0
 11
-145.309954
 21
183.282881
 31
0.0
  0
LINE
  5
2EF
330
36
100
AcDbEntity
  8
001
 62
     3
100
AcDbLine
 10
-164.809954
 20
183.282881
 30
0.0
 11
-168.809954
 21
183.282881
 31
0.0
  0
LINE
  5
2F0
330
36
100
AcDbEntity
  8
001
 62
     3
100
AcDbLine
 10
-173.809954
 20
195.032881
 30
0.0
 11
-173.809954
 21
188.282881
 31
0.0
  0
CIRCLE
  5
2F1
330
36
100
AcDbEntity
  8
001
 62
     3
100
AcDbCircle
 10
-179.255367
 20
191.662225
 30
0.0
 40
4.0
  0
LINE
  5
2F2
330
36
100
AcDbEntity
  8
001
100
AcDbLine
 10
-45.073052
 20
109.20194
 30
0.0
 11
-38.001624
 21
109.20194
 31
0.0
  0
LINE
  5
2F3
330
36
100
AcDbEntity
  8
001
100
AcDbLine
 10
-43.287338
 20
115.898367
 30
0.0
 11
-39.71591
 21
115.898367
 31
0.0
  0
LINE
  5
2F4
330
36
100
AcDbEntity
  8
001
100
AcDbLine
 10
-33.99274000000001
 20
113.237773
 30
0.0
 11
-16.99274
 21
113.237773
 31
0.0
  0
LINE
  5
2F5
330
36
100
AcDbEntity
  8
001
100
AcDbLine
 10
-32.438232
 20
131.567148
 30
0.0
 11
-33.164313
 21
132.293229
 31
0.0
  0
ARC
  5
2F6
330
36
100
AcDbEntity
  8
001
100
AcDbCircle
 10
-36.876624
 20
128.580919
 30
0.0
 40
5.25
100
AcDbArc
 50
45.0
 51
180.0
  0
ARC
  5
2F7
330
36
100
AcDbEntity
  8
001
100
AcDbCircle
 10
-36.876624
 20
128.580919
 30
0.0
 40
4.0
100
AcDbArc
 50
45.0
 51
180.0
  0
LINE
  5
2F8
330
36
100
AcDbEntity
  8
001
100
AcDbLine
 10
-34.048197
 20
131.409346
 30
0.0
 11
-33.322115
 21
130.683265
 31
0.0
  0
LINE
  5
2F9
330
36
100
AcDbEntity
  8
001
100
AcDbLine
 10
-40.876624
 20
128.07485
 30
0.0
 11
-40.876624
 21
128.580919
 31
0.0
  0
LINE
  5
2FA
330
36
100
AcDbEntity
  8
001
100
AcDbLine
 10
-42.126624
 20
127.691409
 30
0.0
 11
-42.126624
 21
128.580919
 31
0.0
  0
LINE
  5
2FB
330
36
100
AcDbEntity
  8
001
100
AcDbLine
 10
-42.126624
 20
126.642064
 30
0.0
 11
-42.126624
 21
120.787242
 31
0.0
  0
LINE
  5
2FC
330
36
100
AcDbEntity
  8
001
100
AcDbLine
 10
-40.876624
 20
126.993728
 30
0.0
 11
-40.876624
 21
120.787242
 31
0.0
  0
LINE
  5
2FD
330
36
100
AcDbEntity
  8
001
100
AcDbLine
 10
-39.326624
 20
92.076942
 30
0.0
 11
-39.326624
 21
93.576942
 31
0.0
  0
ARC
  5
2FE
330
36
100
AcDbEntity
  8
001
100
AcDbCircle
 10
-39.826624
 20
92.076942
 30
0.0
 40
0.5
100
AcDbArc
 50
270.0
 51
0.0
  0
LINE
  5
2FF
330
36
100
AcDbEntity
  8
001
100
AcDbLine
 10
-43.17662399999998
 20
91.57694199999999
 30
0.0
 11
-39.826624
 21
91.57694199999999
 31
0.0
  0
ARC
  5
300
330
36
100
AcDbEntity
  8
001
100
AcDbCircle
 10
-43.17662399999998
 20
92.076942
 30
0.0
 40
0.5
100
AcDbArc
 50
180.0
 51
270.0
  0
LINE
  5
301
330
36
100
AcDbEntity
  8
001
100
AcDbLine
 10
-43.67662399999999
 20
92.076942
 30
0.0
 11
-43.67662399999999
 21
93.576942
 31
0.0
  0
LINE
  5
302
330
36
100
AcDbEntity
  8
001
100
AcDbLine
 10
-22.46774
 20
101.687773
 30
0.0
 11
-21.96774
 21
101.687773
 31
0.0
  0
LINE
  5
303
330
36
100
AcDbEntity
  8
001
100
AcDbLine
 10
-22.59274
 20
102.437773
 30
0.0
 11
-21.84274
 21
102.437773
 31
0.0
  0
LINE
  5
304
330
36
100
AcDbEntity
  8
001
100
AcDbLine
 10
-29.14274000000001
 20
102.437773
 30
0.0
 11
-28.39274000000001
 21
102.437773
 31
0.0
  0
LINE
  5
305
330
36
100
AcDbEntity
  8
001
100
AcDbLine
 10
-26.65524
 20
110.237773
 30
0.0
 11
-26.65524
 21
100.700273
 31
0.0
  0
ARC
  5
306
330
36
100
AcDbEntity
  8
001
100
AcDbCircle
 10
-25.49274
 20
100.700273
 30
0.0
 40
1.1625
100
AcDbArc
 50
180.0
 51
0.0
  0
LINE
  5
307
330
36
100
AcDbEntity
  8
001
100
AcDbLine
 10
-24.33024
 20
110.237773
 30
0.0
 11
-24.33024
 21
100.700273
 31
0.0
  0
LINE
  5
308
330
36
100
AcDbEntity
  8
001
100
AcDbLine
 10
-21.84274
 20
110.237773
 30
0.0
 11
-21.84274
 21
102.437773
 31
0.0
  0
LINE
  5
309
330
36
100
AcDbEntity
  8
001
100
AcDbLine
 10
-21.84274
 20
102.437773
 30
0.0
 11
-21.96774
 21
101.687773
 31
0.0
  0
LINE
  5
30A
330
36
100
AcDbEntity
  8
001
100
AcDbLine
 10
-22.59274
 20
102.437773
 30
0.0
 11
-22.46774
 21
101.687773
 31
0.0
  0
LINE
  5
30B
330
36
100
AcDbEntity
  8
001
100
AcDbLine
 10
-22.59274
 20
110.237773
 30
0.0
 11
-22.59274
 21
102.437773
 31
0.0
  0
LINE
  5
30C
330
36
100
AcDbEntity
  8
001
100
AcDbLine
 10
-28.39274000000001
 20
110.237773
 30
0.0
 11
-28.39274000000001
 21
102.437773
 31
0.0
  0
LINE
  5
30D
330
36
100
AcDbEntity
  8
001
100
AcDbLine
 10
-28.39274000000001
 20
102.437773
 30
0.0
 11
-28.51774000000001
 21
101.687773
 31
0.0
  0
LINE
  5
30E
330
36
100
AcDbEntity
  8
001
100
AcDbLine
 10
-29.01774000000001
 20
101.687773
 30
0.0
 11
-28.51774000000001
 21
101.687773
 31
0.0
  0
LINE
  5
30F
330
36
100
AcDbEntity
  8
001
100
AcDbLine
 10
-29.14274000000001
 20
102.437773
 30
0.0
 11
-29.01774000000001
 21
101.687773
 31
0.0
  0
LINE
  5
310
330
36
100
AcDbEntity
  8
001
100
AcDbLine
 10
-29.14274000000001
 20
110.237773
 30
0.0
 11
-29.14274000000001
 21
102.437773
 31
0.0
  0
CIRCLE
  5
311
330
36
100
AcDbEntity
  8
001
100
AcDbCircle
 10
-225.506493
 20
197.269173
 30
0.0
 40
1.0
  0
CIRCLE
  5
312
330
36
100
AcDbEntity
  8
001
100
AcDbCircle
 10
-225.506493
 20
186.055278
 30
0.0
 40
1.0
  0
CIRCLE
  5
313
330
36
100
AcDbEntity
  8
001
100
AcDbCircle
 10
-179.255367
 20
202.162225
 30
0.0
 40
1.0
  0
CIRCLE
  5
314
330
36
100
AcDbEntity
  8
001
100
AcDbCircle
 10
-179.255367
 20
181.162225
 30
0.0
 40
1.0
  0
CIRCLE
  5
315
330
36
100
AcDbEntity
  8
001
100
AcDbCircle
 10
-133.004242
 20
186.055278
 30
0.0
 40
1.0
  0
CIRCLE
  5
316
330
36
100
AcDbEntity
  8
001
100
AcDbCircle
 10
-133.004242
 20
197.269173
 30
0.0
 40
1.0
  0
LINE
  5
317
330
36
100
AcDbEntity
  8
001
100
AcDbLine
 10
-220.227063
 20
183.330897
 30
0.0
 11
-219.916823
 21
183.330897
 31
0.0
  0
LINE
  5
318
330
36
100
AcDbEntity
  8
001
100
AcDbLine
 10
-220.227063
 20
183.442897
 30
0.0
 11
-220.227063
 21
183.330897
 31
0.0
  0
LINE
  5
319
330
36
100
AcDbEntity
  8
001
100
AcDbLine
 10
-221.926103
 20
183.589617
 30
0.0
 11
-220.373783
 21
183.589617
 31
0.0
  0
ARC
  5
31A
330
36
100
AcDbEntity
  8
001
100
AcDbCircle
 10
-220.373783
 20
183.442897
 30
0.0
 40
0.14672
100
AcDbArc
 50
0.0
 51
90.0
  0
LINE
  5
31B
330
36
100
AcDbEntity
  8
001
100
AcDbLine
 10
-221.926096
 20
187.292437
 30
0.0
 11
-220.373776
 21
187.29241
 31
0.0
  0
LINE
  5
31C
330
36
100
AcDbEntity
  8
001
100
AcDbLine
 10
-220.227054
 20
187.439128
 30
0.0
 11
-220.227052
 21
187.551128
 31
0.0
  0
ARC
  5
31D
330
36
100
AcDbEntity
  8
001
100
AcDbCircle
 10
-220.373774
 20
187.43913
 30
0.0
 40
0.14672
100
AcDbArc
 50
269.999
 51
359.999
  0
LINE
  5
31E
330
36
100
AcDbEntity
  8
001
100
AcDbLine
 10
-220.227052
 20
187.551128
 30
0.0
 11
-219.916812
 21
187.551122
 31
0.0
  0
LINE
  5
31F
330
36
100
AcDbEntity
  8
001
100
AcDbLine
 10
-219.916835
 20
186.206002
 30
0.0
 11
-219.916812
 21
187.551122
 31
0.0
  0
LINE
  5
320
330
36
100
AcDbEntity
  8
001
100
AcDbLine
 10
-221.363102
 20
183.986097
 30
0.0
 11
-220.373783
 21
183.986097
 31
0.0
  0
ARC
  5
321
330
36
100
AcDbEntity
  8
001
100
AcDbCircle
 10
-220.373783
 20
184.132817
 30
0.0
 40
0.14672
100
AcDbArc
 50
270.0
 51
0.0
  0
LINE
  5
322
330
36
100
AcDbEntity
  8
001
100
AcDbLine
 10
-219.916823
 20
183.330897
 30
0.0
 11
-219.916823
 21
184.244817
 31
0.0
  0
LINE
  5
323
330
36
100
AcDbEntity
  8
001
100
AcDbLine
 10
-220.373725
 20
190.556293
 30
0.0
 11
-221.926045
 21
190.556293
 31
0.0
  0
LINE
  5
324
330
36
100
AcDbEntity
  8
001
100
AcDbLine
 10
-222.029645
 20
190.452693
 30
0.0
 11
-222.029645
 21
190.340693
 31
0.0
  0
LINE
  5
325
330
36
100
AcDbEntity
  8
001
100
AcDbLine
 10
-222.029645
 20
190.340693
 30
0.0
 11
-222.383005
 21
190.340693
 31
0.0
  0
LINE
  5
326
330
36
100
AcDbEntity
  8
001
100
AcDbLine
 10
-222.383005
 20
190.340693
 30
0.0
 11
-222.383005
 21
191.599573
 31
0.0
  0
LINE
  5
327
330
36
100
AcDbEntity
  8
001
100
AcDbLine
 10
-219.916765
 20
190.340693
 30
0.0
 11
-220.270125
 21
190.340693
 31
0.0
  0
LINE
  5
328
330
36
100
AcDbEntity
  8
001
100
AcDbLine
 10
-220.270125
 20
190.452693
 30
0.0
 11
-220.270125
 21
190.340693
 31
0.0
  0
ARC
  5
329
330
36
100
AcDbEntity
  8
001
100
AcDbCircle
 10
-220.373725
 20
190.452693
 30
0.0
 40
0.1036
100
AcDbArc
 50
0.0
 51
90.0
  0
ARC
  5
32A
330
36
100
AcDbEntity
  8
001
100
AcDbCircle
 10
-221.149943
 20
189.018699
 30
0.0
 40
1.233119999999998
100
AcDbArc
 50
136.75288
 51
42.82312
  0
ARC
  5
32B
330
36
100
AcDbEntity
  8
001
100
AcDbCircle
 10
-221.178981
 20
181.170913
 30
0.0
 40
8.736
100
AcDbArc
 50
83.86600599999999
 51
87.69403399999999
  0
LINE
  5
32C
330
36
100
AcDbEntity
  8
001
100
AcDbLine
 10
-220.829645
 20
189.314965
 30
0.0
 11
-220.827481
 21
189.899839
 31
0.0
  0
LINE
  5
36F
330
36
100
AcDbEntity
  8
001
100
AcDbLine
 10
-221.468041
 20
189.317327
 30
0.0
 11
-221.465877
 21
189.902201
 31
0.0
  0
ARC
  5
370
330
36
100
AcDbEntity
  8
001
100
AcDbCircle
 10
-221.178981
 20
181.170913
 30
0.0
 40
8.736
100
AcDbArc
 50
91.88196600000001
 51
95.70999399999998
  0
ARC
  5
371
330
36
100
AcDbEntity
  8
001
100
AcDbCircle
 10
-221.926094
 20
187.439157
 30
0.0
 40
0.14672
100
AcDbArc
 50
179.999028
 51
269.999
  0
LINE
  5
372
330
36
100
AcDbEntity
  8
001
100
AcDbLine
 10
-222.383052
 20
187.551165
 30
0.0
 11
-222.072812
 21
187.55116
 31
0.0
  0
LINE
  5
373
330
36
100
AcDbEntity
  8
001
100
AcDbLine
 10
-222.383075
 20
186.206045
 30
0.0
 11
-222.383052
 21
187.551165
 31
0.0
  0
LINE
  5
374
330
36
100
AcDbEntity
  8
001
100
AcDbLine
 10
-222.072814
 20
187.43916
 30
0.0
 11
-222.072812
 21
187.55116
 31
0.0
  0
ARC
  5
375
330
36
100
AcDbEntity
  8
001
100
AcDbCircle
 10
-221.926105
 20
186.318027
 30
0.0
 40
0.14672
100
AcDbArc
 50
89.999803
 51
179.999774
  0
LINE
  5
376
330
36
100
AcDbEntity
  8
001
100
AcDbLine
 10
-221.926105
 20
186.464747
 30
0.0
 11
-220.373785
 21
186.464741
 31
0.0
  0
ARC
  5
377
330
36
100
AcDbEntity
  8
001
100
AcDbCircle
 10
-220.373793
 20
186.31801
 30
0.0
 40
0.14672
100
AcDbArc
 50
359.999
 51
89.999
  0
LINE
  5
378
330
36
100
AcDbEntity
  8
001
100
AcDbLine
 10
-220.227075
 20
186.206008
 30
0.0
 11
-219.916835
 21
186.206002
 31
0.0
  0
LINE
  5
379
330
36
100
AcDbEntity
  8
001
100
AcDbLine
 10
-220.227073
 20
186.318008
 30
0.0
 11
-220.227075
 21
186.206008
 31
0.0
  0
LINE
  5
37A
330
36
100
AcDbEntity
  8
001
100
AcDbLine
 10
-222.383075
 20
186.206045
 30
0.0
 11
-222.072835
 21
186.20604
 31
0.0
  0
LINE
  5
37B
330
36
100
AcDbEntity
  8
001
100
AcDbLine
 10
-222.072833
 20
186.31804
 30
0.0
 11
-222.072835
 21
186.20604
 31
0.0
  0
LINE
  5
37C
330
36
100
AcDbEntity
  8
001
100
AcDbLine
 10
-219.916765
 20
190.340693
 30
0.0
 11
-219.916765
 21
191.599573
 31
0.0
  0
ARC
  5
37D
330
36
100
AcDbEntity
  8
001
100
AcDbCircle
 10
-221.926045
 20
190.452693
 30
0.0
 40
0.1036
100
AcDbArc
 50
90.0
 51
180.0
  0
LINE
  5
37E
330
36
100
AcDbEntity
  8
001
100
AcDbLine
 10
-220.227063
 20
184.244817
 30
0.0
 11
-219.916823
 21
184.244817
 31
0.0
  0
LINE
  5
37F
330
36
100
AcDbEntity
  8
001
100
AcDbLine
 10
-220.227063
 20
184.132817
 30
0.0
 11
-220.227063
 21
184.244817
 31
0.0
  0
LINE
  5
380
330
36
100
AcDbEntity
  8
001
100
AcDbLine
 10
-221.363102
 20
183.986097
 30
0.0
 11
-219.916823
 21
184.890021
 31
0.0
  0
LINE
  5
381
330
36
100
AcDbEntity
  8
001
100
AcDbLine
 10
-219.916823
 20
184.890021
 30
0.0
 11
-219.916823
 21
185.495297
 31
0.0
  0
LINE
  5
382
330
36
100
AcDbEntity
  8
001
100
AcDbLine
 10
-221.839863
 20
185.495297
 30
0.0
 11
-219.916823
 21
185.495297
 31
0.0
  0
ARC
  5
383
330
36
100
AcDbEntity
  8
001
100
AcDbCircle
 10
-221.839863
 20
185.728257
 30
0.0
 40
0.23296
100
AcDbArc
 50
173.651426
 51
270.0
  0
LINE
  5
384
330
36
100
AcDbEntity
  8
001
100
AcDbLine
 10
-222.383063
 20
185.754017
 30
0.0
 11
-222.071395
 21
185.754017
 31
0.0
  0
LINE
  5
385
330
36
100
AcDbEntity
  8
001
100
AcDbLine
 10
-222.383063
 20
184.840097
 30
0.0
 11
-222.383063
 21
185.754017
 31
0.0
  0
LINE
  5
386
330
36
100
AcDbEntity
  8
001
100
AcDbLine
 10
-222.383063
 20
184.840097
 30
0.0
 11
-222.072823
 21
184.840097
 31
0.0
  0
LINE
  5
387
330
36
100
AcDbEntity
  8
001
100
AcDbLine
 10
-222.072823
 20
184.840097
 30
0.0
 11
-222.072823
 21
184.952097
 31
0.0
  0
ARC
  5
388
330
36
100
AcDbEntity
  8
001
100
AcDbCircle
 10
-221.926103
 20
184.952097
 30
0.0
 40
0.14672
100
AcDbArc
 50
90.0
 51
180.0
  0
LINE
  5
389
330
36
100
AcDbEntity
  8
001
100
AcDbLine
 10
-221.266025
 20
185.098817
 30
0.0
 11
-221.926103
 21
185.098817
 31
0.0
  0
LINE
  5
38A
330
36
100
AcDbEntity
  8
001
100
AcDbLine
 10
-221.266025
 20
185.098817
 30
0.0
 11
-222.383063
 21
184.365761
 31
0.0
  0
LINE
  5
38B
330
36
100
AcDbEntity
  8
001
100
AcDbLine
 10
-222.383063
 20
183.330897
 30
0.0
 11
-222.383063
 21
184.365761
 31
0.0
  0
LINE
  5
38C
330
36
100
AcDbEntity
  8
001
100
AcDbLine
 10
-222.383063
 20
183.330897
 30
0.0
 11
-222.072823
 21
183.330897
 31
0.0
  0
LINE
  5
38D
330
36
100
AcDbEntity
  8
001
100
AcDbLine
 10
-222.072823
 20
183.442897
 30
0.0
 11
-222.072823
 21
183.330897
 31
0.0
  0
ARC
  5
38E
330
36
100
AcDbEntity
  8
001
100
AcDbCircle
 10
-221.926103
 20
183.442897
 30
0.0
 40
0.14672
100
AcDbArc
 50
90.0
 51
180.0
  0
LINE
  5
38F
330
36
100
AcDbEntity
  8
001
100
AcDbLine
 10
-222.072823
 20
193.613283
 30
0.0
 11
-222.072823
 21
193.501283
 31
0.0
  0
ARC
  5
390
330
36
100
AcDbEntity
  8
001
100
AcDbCircle
 10
-221.926103
 20
193.613283
 30
0.0
 40
0.14672
100
AcDbArc
 50
90.0
 51
180.0
  0
LINE
  5
391
330
36
100
AcDbEntity
  8
001
100
AcDbLine
 10
-221.926103
 20
193.760003
 30
0.0
 11
-220.373783
 21
193.760003
 31
0.0
  0
LINE
  5
392
330
36
100
AcDbEntity
  8
001
100
AcDbLine
 10
-219.916823
 20
194.846403
 30
0.0
 11
-219.916823
 21
193.501283
 31
0.0
  0
LINE
  5
393
330
36
100
AcDbEntity
  8
001
100
AcDbLine
 10
-220.227063
 20
194.846403
 30
0.0
 11
-219.916823
 21
194.846403
 31
0.0
  0
LINE
  5
394
330
36
100
AcDbEntity
  8
001
100
AcDbLine
 10
-220.227063
 20
194.734403
 30
0.0
 11
-220.227063
 21
194.846403
 31
0.0
  0
ARC
  5
395
330
36
100
AcDbEntity
  8
001
100
AcDbCircle
 10
-220.373783
 20
194.734403
 30
0.0
 40
0.14672
100
AcDbArc
 50
270.0
 51
0.0
  0
LINE
  5
396
330
36
100
AcDbEntity
  8
001
100
AcDbLine
 10
-222.383005
 20
192.979413
 30
0.0
 11
-222.383005
 21
191.720533
 31
0.0
  0
LINE
  5
397
330
36
100
AcDbEntity
  8
001
100
AcDbLine
 10
-222.383005
 20
192.979413
 30
0.0
 11
-222.070713
 21
192.979413
 31
0.0
  0
LINE
  5
398
330
36
100
AcDbEntity
  8
001
100
AcDbLine
 10
-222.070713
 20
192.88608
 30
0.0
 11
-222.070713
 21
192.979413
 31
0.0
  0
ARC
  5
399
330
36
100
AcDbEntity
  8
001
100
AcDbCircle
 10
-221.926045
 20
192.910533
 30
0.0
 40
0.14672
100
AcDbArc
 50
189.5940679999999
 51
270.0
  0
LINE
  5
39A
330
36
100
AcDbEntity
  8
001
100
AcDbLine
 10
-221.926045
 20
192.763813
 30
0.0
 11
-220.373725
 21
192.763813
 31
0.0
  0
ARC
  5
39B
330
36
100
AcDbEntity
  8
001
100
AcDbCircle
 10
-220.373725
 20
192.910533
 30
0.0
 40
0.14672
100
AcDbArc
 50
270.0
 51
350.405932
  0
LINE
  5
39C
330
36
100
AcDbEntity
  8
001
100
AcDbLine
 10
-220.229057
 20
192.88608
 30
0.0
 11
-220.229057
 21
192.979413
 31
0.0
  0
LINE
  5
39D
330
36
100
AcDbEntity
  8
001
100
AcDbLine
 10
-220.229057
 20
192.979413
 30
0.0
 11
-219.916765
 21
192.979413
 31
0.0
  0
LINE
  5
39E
330
36
100
AcDbEntity
  8
001
100
AcDbLine
 10
-219.916765
 20
192.979413
 30
0.0
 11
-219.916765
 21
191.720533
 31
0.0
  0
ARC
  5
39F
330
36
100
AcDbEntity
  8
001
100
AcDbCircle
 10
-221.926103
 20
194.734403
 30
0.0
 40
0.14672
100
AcDbArc
 50
180.0
 51
270.0
  0
LINE
  5
3A0
330
36
100
AcDbEntity
  8
001
100
AcDbLine
 10
-221.926103
 20
194.587683
 30
0.0
 11
-220.373783
 21
194.587683
 31
0.0
  0
LINE
  5
3A1
330
36
100
AcDbEntity
  8
001
100
AcDbLine
 10
-222.383063
 20
194.846403
 30
0.0
 11
-222.072823
 21
194.846403
 31
0.0
  0
LINE
  5
3A2
330
36
100
AcDbEntity
  8
001
100
AcDbLine
 10
-222.072823
 20
194.734403
 30
0.0
 11
-222.072823
 21
194.846403
 31
0.0
  0
LINE
  5
3A3
330
36
100
AcDbEntity
  8
001
100
AcDbLine
 10
-222.383063
 20
194.846403
 30
0.0
 11
-222.383063
 21
193.501283
 31
0.0
  0
LINE
  5
3A4
330
36
100
AcDbEntity
  8
001
100
AcDbLine
 10
-222.383063
 20
193.501283
 30
0.0
 11
-222.072823
 21
193.501283
 31
0.0
  0
LINE
  5
3A5
330
36
100
AcDbEntity
  8
001
100
AcDbLine
 10
-220.227063
 20
195.34773
 30
0.0
 11
-219.916823
 21
195.34773
 31
0.0
  0
ARC
  5
3A6
330
36
100
AcDbEntity
  8
001
100
AcDbCircle
 10
-220.373783
 20
195.45973
 30
0.0
 40
0.14672
100
AcDbArc
 50
0.0
 51
90.0
  0
LINE
  5
3A7
330
36
100
AcDbEntity
  8
001
100
AcDbLine
 10
-220.227063
 20
195.45973
 30
0.0
 11
-220.227063
 21
195.34773
 31
0.0
  0
LINE
  5
3A8
330
36
100
AcDbEntity
  8
001
100
AcDbLine
 10
-219.916823
 20
196.800192
 30
0.0
 11
-219.916823
 21
195.34773
 31
0.0
  0
LINE
  5
3A9
330
36
100
AcDbEntity
  8
001
100
AcDbLine
 10
-221.926103
 20
195.60645
 30
0.0
 11
-220.373783
 21
195.60645
 31
0.0
  0
LINE
  5
3AA
330
36
100
AcDbEntity
  8
001
100
AcDbLine
 10
-221.986583
 20
196.43413
 30
0.0
 11
-220.313303
 21
196.43413
 31
0.0
  0
LINE
  5
3AB
330
36
100
AcDbEntity
  8
001
100
AcDbLine
 10
-220.313303
 20
196.43413
 30
0.0
 11
-220.313303
 21
196.54697
 31
0.0
  0
ARC
  5
3AC
330
36
100
AcDbEntity
  8
001
100
AcDbCircle
 10
-221.149943
 20
195.969984
 30
0.0
 40
1.016307
100
AcDbArc
 50
34.591955
 51
145.408045
  0
ARC
  5
3AD
330
36
100
AcDbEntity
  8
001
100
AcDbCircle
 10
-220.891223
 20
196.800192
 30
0.0
 40
0.9743999999999999
100
AcDbArc
 50
0.0
 51
72.691251
  0
ARC
  5
3AE
330
36
100
AcDbEntity
  8
001
100
AcDbCircle
 10
-221.408663
 20
196.800192
 30
0.0
 40
0.9743999999999999
100
AcDbArc
 50
107.308749
 51
180.0
  0
ARC
  5
3AF
330
36
100
AcDbEntity
  8
001
100
AcDbCircle
 10
-221.149943
 20
195.969984
 30
0.0
 40
1.843986999999999
100
AcDbArc
 50
72.691251
 51
107.308566
  0
LINE
  5
3B0
330
36
100
AcDbEntity
  8
001
100
AcDbLine
 10
-222.383063
 20
196.800192
 30
0.0
 11
-222.383063
 21
195.34773
 31
0.0
  0
LINE
  5
3B1
330
36
100
AcDbEntity
  8
001
100
AcDbLine
 10
-222.383063
 20
195.34773
 30
0.0
 11
-222.072823
 21
195.34773
 31
0.0
  0
LINE
  5
3B2
330
36
100
AcDbEntity
  8
001
100
AcDbLine
 10
-222.072823
 20
195.45973
 30
0.0
 11
-222.072823
 21
195.34773
 31
0.0
  0
ARC
  5
3B3
330
36
100
AcDbEntity
  8
001
100
AcDbCircle
 10
-221.926103
 20
195.45973
 30
0.0
 40
0.14672
100
AcDbArc
 50
90.0
 51
180.0
  0
ARC
  5
3B4
330
36
100
AcDbEntity
  8
001
100
AcDbCircle
 10
-220.373783
 20
193.613283
 30
0.0
 40
0.14672
100
AcDbArc
 50
0.0
 51
90.0
  0
LINE
  5
3B5
330
36
100
AcDbEntity
  8
001
100
AcDbLine
 10
-220.227063
 20
193.613283
 30
0.0
 11
-220.227063
 21
193.501283
 31
0.0
  0
LINE
  5
3B6
330
36
100
AcDbEntity
  8
001
100
AcDbLine
 10
-220.227063
 20
193.501283
 30
0.0
 11
-219.916823
 21
193.501283
 31
0.0
  0
ARC
  5
3B7
330
36
100
AcDbEntity
  8
001
100
AcDbCircle
 10
-221.154308
 20
199.128708
 30
0.0
 40
1.233119999999998
100
AcDbArc
 50
300.35784
 51
233.008079
  0
ARC
  5
3B8
330
36
100
AcDbEntity
  8
001
100
AcDbCircle
 10
-221.306852
 20
196.496735
 30
0.0
 40
1.749347
100
AcDbArc
 50
63.675284
 51
109.690635
  0
ARC
  5
3B9
330
36
100
AcDbEntity
  8
001
100
AcDbCircle
 10
-221.130909
 20
200.487729
 30
0.0
 40
1.636274999999999
100
AcDbArc
 50
239.334413
 51
299.361467
  0
ARC
  5
3BA
330
36
100
AcDbEntity
  8
001
100
AcDbCircle
 10
-221.130907
 20
197.769687
 30
0.0
 40
1.636274999999999
100
AcDbArc
 50
60.37227300000001
 51
120.840525
  0
ARC
  5
3BB
330
36
100
AcDbEntity
  8
001
100
AcDbCircle
 10
-221.922033
 20
199.129504
 30
0.0
 40
0.065643
100
AcDbArc
 50
136.621771
 51
228.589269
  0
ARC
  5
3BC
330
36
100
AcDbEntity
  8
001
100
AcDbCircle
 10
-220.377854
 20
199.129504
 30
0.0
 40
0.083843
100
AcDbArc
 50
305.965123
 51
48.221816
  0
LINE
  5
3BD
330
36
100
AcDbEntity
  8
001
100
AcDbLine
 10
-221.986583
 20
196.43413
 30
0.0
 11
-221.986583
 21
196.54697
 31
0.0
  0
LINE
  5
3BE
330
36
100
AcDbEntity
  8
001
100
AcDbLine
 10
-222.070713
 20
191.720533
 30
0.0
 11
-222.383005
 21
191.720533
 31
0.0
  0
ARC
  5
3BF
330
36
100
AcDbEntity
  8
001
100
AcDbCircle
 10
-221.926045
 20
191.789413
 30
0.0
 40
0.14672
100
AcDbArc
 50
90.0
 51
170.405932
  0
LINE
  5
3C0
330
36
100
AcDbEntity
  8
001
100
AcDbLine
 10
-222.070713
 20
191.813866
 30
0.0
 11
-222.070713
 21
191.720533
 31
0.0
  0
LINE
  5
3C1
330
36
100
AcDbEntity
  8
001
100
AcDbLine
 10
-221.348125
 20
191.936133
 30
0.0
 11
-221.926045
 21
191.936133
 31
0.0
  0
LINE
  5
3C2
330
36
100
AcDbEntity
  8
001
100
AcDbLine
 10
-220.229057
 20
191.813866
 30
0.0
 11
-220.229057
 21
191.720533
 31
0.0
  0
ARC
  5
3C3
330
36
100
AcDbEntity
  8
001
100
AcDbCircle
 10
-220.373725
 20
191.789413
 30
0.0
 40
0.14672
100
AcDbArc
 50
9.594068
 51
90.0
  0
LINE
  5
3C4
330
36
100
AcDbEntity
  8
001
100
AcDbLine
 10
-220.373725
 20
191.936133
 30
0.0
 11
-220.951645
 21
191.936133
 31
0.0
  0
LINE
  5
3C5
330
36
100
AcDbEntity
  8
001
100
AcDbLine
 10
-220.229057
 20
191.720533
 30
0.0
 11
-219.916765
 21
191.720533
 31
0.0
  0
LINE
  5
3C6
330
36
100
AcDbEntity
  8
001
100
AcDbLine
 10
-222.070713
 20
191.50624
 30
0.0
 11
-222.070713
 21
191.599573
 31
0.0
  0
ARC
  5
3C7
330
36
100
AcDbEntity
  8
001
100
AcDbCircle
 10
-221.926045
 20
191.530693
 30
0.0
 40
0.14672
100
AcDbArc
 50
189.5940679999999
 51
270.0
  0
LINE
  5
3C8
330
36
100
AcDbEntity
  8
001
100
AcDbLine
 10
-221.348125
 20
191.383973
 30
0.0
 11
-221.926045
 21
191.383973
 31
0.0
  0
LINE
  5
3C9
330
36
100
AcDbEntity
  8
001
100
AcDbLine
 10
-221.348125
 20
191.936133
 30
0.0
 11
-221.348125
 21
191.383973
 31
0.0
  0
LINE
  5
3CA
330
36
100
AcDbEntity
  8
001
100
AcDbLine
 10
-220.951645
 20
191.936133
 30
0.0
 11
-220.951645
 21
191.383973
 31
0.0
  0
LINE
  5
3CB
330
36
100
AcDbEntity
  8
001
100
AcDbLine
 10
-220.373725
 20
191.383973
 30
0.0
 11
-220.951645
 21
191.383973
 31
0.0
  0
ARC
  5
3CC
330
36
100
AcDbEntity
  8
001
100
AcDbCircle
 10
-220.373725
 20
191.530693
 30
0.0
 40
0.14672
100
AcDbArc
 50
270.0
 51
350.405932
  0
LINE
  5
3CD
330
36
100
AcDbEntity
  8
001
100
AcDbLine
 10
-220.229057
 20
191.50624
 30
0.0
 11
-220.229057
 21
191.599573
 31
0.0
  0
LINE
  5
3CE
330
36
100
AcDbEntity
  8
001
100
AcDbLine
 10
-220.229057
 20
191.599573
 30
0.0
 11
-219.916765
 21
191.599573
 31
0.0
  0
LINE
  5
3CF
330
36
100
AcDbEntity
  8
001
100
AcDbLine
 10
-222.070713
 20
191.599573
 30
0.0
 11
-222.383005
 21
191.599573
 31
0.0
  0
TEXT
  5
3D0
330
36
100
AcDbEntity
  8
001
100
AcDbText
 10
-213.280233
 20
186.474485
 30
0.0
 40
1.370249999999999
  1
N
 50
270.000001
100
AcDbText
  0
LINE
  5
3D1
330
36
100
AcDbEntity
  8
001
100
AcDbLine
 10
-210.97578
 20
189.032881
 30
0.0
 11
-210.97578
 21
187.932881
 31
0.0
  0
LINE
  5
3D2
330
36
100
AcDbEntity
  8
001
100
AcDbLine
 10
-210.97578
 20
187.932881
 30
0.0
 11
-215.32578
 21
187.932881
 31
0.0
  0
LINE
  5
3D3
330
36
100
AcDbEntity
  8
001
100
AcDbLine
 10
-215.32578
 20
189.032881
 30
0.0
 11
-215.32578
 21
187.932881
 31
0.0
  0
LINE
  5
3D4
330
36
100
AcDbEntity
  8
001
100
AcDbLine
 10
-215.32578
 20
189.032881
 30
0.0
 11
-210.97578
 21
189.032881
 31
0.0
  0
LINE
  5
3D5
330
36
100
AcDbEntity
  8
001
100
AcDbLine
 10
-214.90078
 20
194.282881
 30
0.0
 11
-211.4007799999999
 21
194.282881
 31
0.0
  0
LINE
  5
3D6
330
36
100
AcDbEntity
  8
001
100
AcDbLine
 10
-211.4007799999999
 20
195.382881
 30
0.0
 11
-211.4007799999999
 21
194.282881
 31
0.0
  0
LINE
  5
3D7
330
36
100
AcDbEntity
  8
001
100
AcDbLine
 10
-211.4007799999999
 20
195.382881
 30
0.0
 11
-214.90078
 21
195.382881
 31
0.0
  0
LINE
  5
3D8
330
36
100
AcDbEntity
  8
001
100
AcDbLine
 10
-214.90078
 20
195.382881
 30
0.0
 11
-214.90078
 21
194.282881
 31
0.0
  0
LINE
  5
3D9
330
36
100
AcDbEntity
  8
001
100
AcDbLine
 10
-205.85078
 20
193.007881
 30
0.0
 11
-205.85078
 21
191.657881
 31
0.0
  0
LINE
  5
3DA
330
36
100
AcDbEntity
  8
001
100
AcDbLine
 10
-205.85078
 20
190.307881
 30
0.0
 11
-205.85078
 21
191.657881
 31
0.0
  0
LINE
  5
3DB
330
36
100
AcDbEntity
  8
001
100
AcDbLine
 10
-207.20078
 20
190.307881
 30
0.0
 11
-205.85078
 21
190.307881
 31
0.0
  0
ARC
  5
3DC
330
36
100
AcDbEntity
  8
001
100
AcDbCircle
 10
-207.20078
 20
191.657881
 30
0.0
 40
1.35
100
AcDbArc
 50
90.0
 51
270.0
  0
LINE
  5
3DD
330
36
100
AcDbEntity
  8
001
100
AcDbLine
 10
-207.20078
 20
193.007881
 30
0.0
 11
-205.85078
 21
193.007881
 31
0.0
  0
TEXT
  5
3DE
330
36
100
AcDbEntity
  8
001
100
AcDbText
 10
-193.780233
 20
186.474485
 30
0.0
 40
1.370249999999999
  1
N
 50
270.000001
100
AcDbText
  0
LINE
  5
3DF
330
36
100
AcDbEntity
  8
001
100
AcDbLine
 10
-195.82578
 20
189.032881
 30
0.0
 11
-191.47578
 21
189.032881
 31
0.0
  0
LINE
  5
3E0
330
36
100
AcDbEntity
  8
001
100
AcDbLine
 10
-191.47578
 20
189.032881
 30
0.0
 11
-191.47578
 21
187.932881
 31
0.0
  0
LINE
  5
3E1
330
36
100
AcDbEntity
  8
001
100
AcDbLine
 10
-191.47578
 20
187.932881
 30
0.0
 11
-195.82578
 21
187.932881
 31
0.0
  0
LINE
  5
3E2
330
36
100
AcDbEntity
  8
001
100
AcDbLine
 10
-195.82578
 20
189.032881
 30
0.0
 11
-195.82578
 21
187.932881
 31
0.0
  0
LINE
  5
3E3
330
36
100
AcDbEntity
  8
001
100
AcDbLine
 10
-195.40078
 20
194.282881
 30
0.0
 11
-191.90078
 21
194.282881
 31
0.0
  0
LINE
  5
3E4
330
36
100
AcDbEntity
  8
001
100
AcDbLine
 10
-191.90078
 20
195.382881
 30
0.0
 11
-191.90078
 21
194.282881
 31
0.0
  0
LINE
  5
3E5
330
36
100
AcDbEntity
  8
001
100
AcDbLine
 10
-191.90078
 20
195.382881
 30
0.0
 11
-195.40078
 21
195.382881
 31
0.0
  0
LINE
  5
3E6
330
36
100
AcDbEntity
  8
001
100
AcDbLine
 10
-195.40078
 20
195.382881
 30
0.0
 11
-195.40078
 21
194.282881
 31
0.0
  0
LINE
  5
3E7
330
36
100
AcDbEntity
  8
001
100
AcDbLine
 10
-187.70078
 20
193.007881
 30
0.0
 11
-186.35078
 21
193.007881
 31
0.0
  0
LINE
  5
3E8
330
36
100
AcDbEntity
  8
001
100
AcDbLine
 10
-186.35078
 20
193.007881
 30
0.0
 11
-186.35078
 21
191.657881
 31
0.0
  0
LINE
  5
3E9
330
36
100
AcDbEntity
  8
001
100
AcDbLine
 10
-186.35078
 20
190.307881
 30
0.0
 11
-186.35078
 21
191.657881
 31
0.0
  0
LINE
  5
3EA
330
36
100
AcDbEntity
  8
001
100
AcDbLine
 10
-187.70078
 20
190.307881
 30
0.0
 11
-186.35078
 21
190.307881
 31
0.0
  0
ARC
  5
3EB
330
36
100
AcDbEntity
  8
001
100
AcDbCircle
 10
-187.70078
 20
191.657881
 30
0.0
 40
1.35
100
AcDbArc
 50
90.0
 51
270.0
  0
TEXT
  5
3EC
330
36
100
AcDbEntity
  8
001
100
AcDbText
 10
-168.889407
 20
186.474485
 30
0.0
 40
1.370249999999999
  1
N
 50
270.000001
100
AcDbText
  0
LINE
  5
3ED
330
36
100
AcDbEntity
  8
001
100
AcDbLine
 10
-170.934954
 20
189.032881
 30
0.0
 11
-166.584954
 21
189.032881
 31
0.0
  0
LINE
  5
3EE
330
36
100
AcDbEntity
  8
001
100
AcDbLine
 10
-166.584954
 20
189.032881
 30
0.0
 11
-166.584954
 21
187.932881
 31
0.0
  0
LINE
  5
3EF
330
36
100
AcDbEntity
  8
001
100
AcDbLine
 10
-166.584954
 20
187.932881
 30
0.0
 11
-170.934954
 21
187.932881
 31
0.0
  0
LINE
  5
3F0
330
36
100
AcDbEntity
  8
001
100
AcDbLine
 10
-170.934954
 20
189.032881
 30
0.0
 11
-170.934954
 21
187.932881
 31
0.0
  0
LINE
  5
3F1
330
36
100
AcDbEntity
  8
001
100
AcDbLine
 10
-170.509954
 20
194.282881
 30
0.0
 11
-167.009954
 21
194.282881
 31
0.0
  0
LINE
  5
3F2
330
36
100
AcDbEntity
  8
001
100
AcDbLine
 10
-167.009954
 20
195.382881
 30
0.0
 11
-167.009954
 21
194.282881
 31
0.0
  0
LINE
  5
3F3
330
36
100
AcDbEntity
  8
001
100
AcDbLine
 10
-167.009954
 20
195.382881
 30
0.0
 11
-170.509954
 21
195.382881
 31
0.0
  0
LINE
  5
3F4
330
36
100
AcDbEntity
  8
001
100
AcDbLine
 10
-170.509954
 20
195.382881
 30
0.0
 11
-170.509954
 21
194.282881
 31
0.0
  0
LINE
  5
3F5
330
36
100
AcDbEntity
  8
001
100
AcDbLine
 10
-162.809954
 20
193.007881
 30
0.0
 11
-161.459954
 21
193.007881
 31
0.0
  0
LINE
  5
3F6
330
36
100
AcDbEntity
  8
001
100
AcDbLine
 10
-161.459954
 20
193.007881
 30
0.0
 11
-161.459954
 21
191.657881
 31
0.0
  0
LINE
  5
3F7
330
36
100
AcDbEntity
  8
001
100
AcDbLine
 10
-161.459954
 20
190.307881
 30
0.0
 11
-161.459954
 21
191.657881
 31
0.0
  0
LINE
  5
3F8
330
36
100
AcDbEntity
  8
001
100
AcDbLine
 10
-162.809954
 20
190.307881
 30
0.0
 11
-161.459954
 21
190.307881
 31
0.0
  0
ARC
  5
3F9
330
36
100
AcDbEntity
  8
001
100
AcDbCircle
 10
-162.809954
 20
191.657881
 30
0.0
 40
1.35
100
AcDbArc
 50
90.0
 51
270.0
  0
TEXT
  5
3FA
330
36
100
AcDbEntity
  8
001
100
AcDbText
 10
-149.389407
 20
186.474485
 30
0.0
 40
1.370249999999999
  1
N
 50
270.000001
100
AcDbText
  0
LINE
  5
3FB
330
36
100
AcDbEntity
  8
001
100
AcDbLine
 10
-147.084954
 20
189.032881
 30
0.0
 11
-147.084954
 21
187.932881
 31
0.0
  0
LINE
  5
3FC
330
36
100
AcDbEntity
  8
001
100
AcDbLine
 10
-147.084954
 20
187.932881
 30
0.0
 11
-151.434954
 21
187.932881
 31
0.0
  0
LINE
  5
3FD
330
36
100
AcDbEntity
  8
001
100
AcDbLine
 10
-151.434954
 20
189.032881
 30
0.0
 11
-151.434954
 21
187.932881
 31
0.0
  0
LINE
  5
3FE
330
36
100
AcDbEntity
  8
001
100
AcDbLine
 10
-151.434954
 20
189.032881
 30
0.0
 11
-147.084954
 21
189.032881
 31
0.0
  0
LINE
  5
3FF
330
36
100
AcDbEntity
  8
001
100
AcDbLine
 10
-151.009954
 20
194.282881
 30
0.0
 11
-147.509954
 21
194.282881
 31
0.0
  0
LINE
  5
400
330
36
100
AcDbEntity
  8
001
100
AcDbLine
 10
-147.509954
 20
195.382881
 30
0.0
 11
-147.509954
 21
194.282881
 31
0.0
  0
LINE
  5
401
330
36
100
AcDbEntity
  8
001
100
AcDbLine
 10
-147.509954
 20
195.382881
 30
0.0
 11
-151.009954
 21
195.382881
 31
0.0
  0
LINE
  5
402
330
36
100
AcDbEntity
  8
001
100
AcDbLine
 10
-151.009954
 20
195.382881
 30
0.0
 11
-151.009954
 21
194.282881
 31
0.0
  0
LINE
  5
403
330
36
100
AcDbEntity
  8
001
100
AcDbLine
 10
-141.959954
 20
193.007881
 30
0.0
 11
-141.959954
 21
191.657881
 31
0.0
  0
LINE
  5
404
330
36
100
AcDbEntity
  8
001
100
AcDbLine
 10
-141.959954
 20
190.307881
 30
0.0
 11
-141.959954
 21
191.657881
 31
0.0
  0
LINE
  5
405
330
36
100
AcDbEntity
  8
001
100
AcDbLine
 10
-143.309954
 20
190.307881
 30
0.0
 11
-141.959954
 21
190.307881
 31
0.0
  0
ARC
  5
406
330
36
100
AcDbEntity
  8
001
100
AcDbCircle
 10
-143.309954
 20
191.657881
 30
0.0
 40
1.35
100
AcDbArc
 50
90.0
 51
270.0
  0
LINE
  5
407
330
36
100
AcDbEntity
  8
001
100
AcDbLine
 10
-143.309954
 20
193.007881
 30
0.0
 11
-141.959954
 21
193.007881
 31
0.0
  0
LINE
  5
408
330
36
100
AcDbEntity
  8
001
100
AcDbLine
 10
-179.255367
 20
142.904967
 30
0.0
 11
-233.131252
 21
142.904967
 31
0.0
  0
LINE
  5
409
330
36
100
AcDbEntity
  8
001
100
AcDbLine
 10
-179.255367
 20
143.904967
 30
0.0
 11
-233.131252
 21
143.904967
 31
0.0
  0
LINE
  5
40A
330
36
100
AcDbEntity
  8
001
100
AcDbLine
 10
-179.255367
 20
145.904967
 30
0.0
 11
-233.131252
 21
145.904967
 31
0.0
  0
ARC
  5
40B
330
36
100
AcDbEntity
  8
001
100
AcDbCircle
 10
-233.131252
 20
144.904967
 30
0.0
 40
1.0
100
AcDbArc
 50
90.0
 51
269.999998
  0
ARC
  5
40C
330
36
100
AcDbEntity
  8
001
100
AcDbCircle
 10
-233.131252
 20
141.904967
 30
0.0
 40
1.0
100
AcDbArc
 50
90.0
 51
270.0
  0
LINE
  5
40D
330
36
100
AcDbEntity
  8
001
100
AcDbLine
 10
-233.131252
 20
140.904967
 30
0.0
 11
-125.379482
 21
140.904967
 31
0.0
  0
LINE
  5
40E
330
36
100
AcDbEntity
  8
001
100
AcDbLine
 10
-179.255367
 20
142.904967
 30
0.0
 11
-125.379482
 21
142.904967
 31
0.0
  0
LINE
  5
40F
330
36
100
AcDbEntity
  8
001
100
AcDbLine
 10
-179.255367
 20
143.904967
 30
0.0
 11
-125.379482
 21
143.904967
 31
0.0
  0
LINE
  5
410
330
36
100
AcDbEntity
  8
001
100
AcDbLine
 10
-179.255367
 20
145.904967
 30
0.0
 11
-125.379482
 21
145.904967
 31
0.0
  0
ARC
  5
411
330
36
100
AcDbEntity
  8
001
100
AcDbCircle
 10
-125.379482
 20
144.904967
 30
0.0
 40
1.0
100
AcDbArc
 50
270.000002
 51
90.0
  0
ARC
  5
412
330
36
100
AcDbEntity
  8
001
100
AcDbCircle
 10
-125.379482
 20
141.904967
 30
0.0
 40
1.0
100
AcDbArc
 50
270.0
 51
90.0
  0
LINE
  5
413
330
36
100
AcDbEntity
  8
001
100
AcDbLine
 10
-138.137504
 20
96.893858
 30
0.0
 11
-125.379482
 21
96.893858
 31
0.0
  0
ARC
  5
414
330
36
100
AcDbEntity
  8
001
100
AcDbCircle
 10
-125.379482
 20
95.893858
 30
0.0
 40
1.0
100
AcDbArc
 50
270.0
 51
90.0
  0
ARC
  5
415
330
36
100
AcDbEntity
  8
001
100
AcDbCircle
 10
-125.379482
 20
92.89385799999999
 30
0.0
 40
1.0
100
AcDbArc
 50
270.0
 51
89.99999800000002
  0
LINE
  5
416
330
36
100
AcDbEntity
  8
001
100
AcDbLine
 10
-138.248839
 20
93.89385799999999
 30
0.0
 11
-129.810449
 21
93.89385799999999
 31
0.0
  0
LINE
  5
417
330
36
100
AcDbEntity
  8
001
100
AcDbLine
 10
-138.137504
 20
94.89385799999999
 30
0.0
 11
-129.810449
 21
94.89385799999999
 31
0.0
  0
LINE
  5
418
330
36
100
AcDbEntity
  8
001
100
AcDbLine
 10
-138.137503
 20
91.893858
 30
0.0
 11
-125.379482
 21
91.893858
 31
0.0
  0
ARC
  5
419
330
36
100
AcDbEntity
  8
001
100
AcDbCircle
 10
-138.137503
 20
92.89385799999999
 30
0.0
 40
1.0
100
AcDbArc
 50
90.0
 51
270.0
  0
ARC
  5
41A
330
36
100
AcDbEntity
  8
001
100
AcDbCircle
 10
-138.137504
 20
95.893858
 30
0.0
 40
1.0
100
AcDbArc
 50
90.00000199999998
 51
270.0
  0
LINE
  5
41B
330
36
100
AcDbEntity
  8
001
100
AcDbLine
 10
-220.373231
 20
94.89385799999999
 30
0.0
 11
-233.131252
 21
94.89385799999999
 31
0.0
  0
ARC
  5
41C
330
36
100
AcDbEntity
  8
001
100
AcDbCircle
 10
-220.373231
 20
95.893858
 30
0.0
 40
1.0
100
AcDbArc
 50
270.0
 51
89.99999800000002
  0
LINE
  5
41D
330
36
100
AcDbEntity
  8
001
100
AcDbLine
 10
-220.373231
 20
96.893858
 30
0.0
 11
-233.131252
 21
96.893858
 31
0.0
  0
ARC
  5
41E
330
36
100
AcDbEntity
  8
001
100
AcDbCircle
 10
-233.131252
 20
95.893858
 30
0.0
 40
1.0
100
AcDbArc
 50
90.0
 51
270.0
  0
LINE
  5
41F
330
36
100
AcDbEntity
  8
001
100
AcDbLine
 10
-220.261896
 20
93.89385799999999
 30
0.0
 11
-233.131252
 21
93.89385799999999
 31
0.0
  0
ARC
  5
420
330
36
100
AcDbEntity
  8
001
100
AcDbCircle
 10
-233.131252
 20
92.89385799999999
 30
0.0
 40
1.0
100
AcDbArc
 50
90.00000199999998
 51
270.0
  0
LINE
  5
421
330
36
100
AcDbEntity
  8
001
100
AcDbLine
 10
-220.373232
 20
91.893858
 30
0.0
 11
-233.131252
 21
91.893858
 31
0.0
  0
ARC
  5
422
330
36
100
AcDbEntity
  8
001
100
AcDbCircle
 10
-220.373232
 20
92.89385799999999
 30
0.0
 40
1.0
100
AcDbArc
 50
270.0
 51
90.0
  0
LINE
  5
423
330
36
100
AcDbEntity
  8
001
 62
     3
100
AcDbLine
 10
-15.409113
 20
-20.767528
 30
0.0
 11
-15.409113
 21
0.232472
 31
0.0
  0
LINE
  5
424
330
36
100
AcDbEntity
  8
001
 62
     3
100
AcDbLine
 10
-2.409113
 20
-20.767528
 30
0.0
 11
-2.409113
 21
0.232472
 31
0.0
  0
LINE
  5
425
330
36
100
AcDbEntity
  8
001
 62
     3
100
AcDbLine
 10
10.590887
 20
-20.767528
 30
0.0
 11
10.590887
 21
0.232472
 31
0.0
  0
LINE
  5
426
330
36
100
AcDbEntity
  8
001
 62
     3
100
AcDbLine
 10
-15.409113
 20
-20.767528
 30
0.0
 11
-15.409113
 21
-27.76752800000001
 31
0.0
  0
LINE
  5
427
330
36
100
AcDbEntity
  8
001
 62
     3
100
AcDbLine
 10
-42.46272199999999
 20
-27.76752800000001
 30
0.0
 11
-42.46272199999999
 21
-13.767528
 31
0.0
  0
LINE
  5
428
330
36
100
AcDbEntity
  8
001
 62
     3
100
AcDbLine
 10
-32.130788
 20
-13.767528
 30
0.0
 11
-32.130788
 21
-27.76752800000001
 31
0.0
  0
TEXT
  5
429
330
36
100
AcDbEntity
  8
001
 62
     3
100
AcDbText
 10
-13.398795
 20
-1.562412
 30
0.0
 40
2.0
  1
A
 41
0.7
100
AcDbText
  0
TEXT
  5
42A
330
36
100
AcDbEntity
  8
001
 62
     3
100
AcDbText
 10
-10.863509
 20
-1.562412
 30
0.0
 40
2.0
  1
P
 41
0.7
100
AcDbText
  0
TEXT
  5
42B
330
36
100
AcDbEntity
  8
001
 62
     3
100
AcDbText
 10
-8.328222
 20
-1.562412
 30
0.0
 40
2.0
  1
P
 41
0.7
100
AcDbText
  0
TEXT
  5
42C
330
36
100
AcDbEntity
  8
001
 62
     3
100
AcDbText
 10
-5.792936
 20
-1.562412
 30
0.0
 40
2.0
  1
D
 41
0.7
100
AcDbText
  0
TEXT
  5
42D
330
36
100
AcDbEntity
  8
001
 62
     3
100
AcDbText
 10
-0.4242530000000002
 20
-1.562412
 30
0.0
 40
2.0
  1
C
 41
0.7
100
AcDbText
  0
TEXT
  5
42E
330
36
100
AcDbEntity
  8
001
 62
     3
100
AcDbText
 10
2.111033
 20
-1.562412
 30
0.0
 40
2.0
  1
H
 41
0.7
100
AcDbText
  0
TEXT
  5
42F
330
36
100
AcDbEntity
  8
001
 62
     3
100
AcDbText
 10
4.646319
 20
-1.562412
 30
0.0
 40
2.0
  1
C
 41
0.7
100
AcDbText
  0
TEXT
  5
430
330
36
100
AcDbEntity
  8
001
 62
     3
100
AcDbText
 10
7.181605999999998
 20
-1.562412
 30
0.0
 40
2.0
  1
K
 41
0.7
100
AcDbText
  0
TEXT
  5
431
330
36
100
AcDbEntity
  8
001
 62
     3
100
AcDbText
 10
12.855572
 20
-1.562412
 30
0.0
 40
2.0
  1
DESN
 41
1.216762999999998
100
AcDbText
  0
TEXT
  5
432
330
36
100
AcDbEntity
  8
001
 62
     3
100
AcDbText
 10
-72.15078699999998
 20
-30.90891
 30
0.0
 40
2.0
  1
NICHIDO IND.CO.LTD
 41
1.274876
100
AcDbText
  0
LINE
  5
433
330
36
100
AcDbEntity
  8
001
 62
     3
100
AcDbLine
 10
-61.767757
 20
2.232472
 30
0.0
 11
-61.767757
 21
-20.767528
 31
0.0
  0
LINE
  5
434
330
36
100
AcDbEntity
  8
001
 62
     3
100
AcDbLine
 10
-15.409113
 20
-27.76752800000001
 30
0.0
 11
-15.409113
 21
-37.433251
 31
0.0
  0
LINE
  5
436
330
36
100
AcDbEntity
  8
001
 62
     3
100
AcDbLine
 10
-15.409113
 20
0.232472
 30
0.0
 11
-15.409113
 21
2.232472
 31
0.0
  0
LINE
  5
437
330
36
100
AcDbEntity
  8
001
 62
     3
100
AcDbLine
 10
-2.409113
 20
0.232472
 30
0.0
 11
-2.409113
 21
2.232472
 31
0.0
  0
LINE
  5
438
330
36
100
AcDbEntity
  8
001
 62
     3
100
AcDbLine
 10
10.590887
 20
0.232472
 30
0.0
 11
10.590887
 21
2.232472
 31
0.0
  0
LINE
  5
439
330
36
100
AcDbEntity
  8
001
 62
     3
100
AcDbLine
 10
-2.409113
 20
-20.767528
 30
0.0
 11
-2.409113
 21
-27.76752800000001
 31
0.0
  0
TEXT
  5
43A
330
36
100
AcDbEntity
  8
001
 62
     3
100
AcDbText
 10
-14.296668
 20
-26.902841
 30
0.0
 40
3.2
  1
作成日
 41
1.017225999999998
100
AcDbText
  0
LINE
  5
43B
330
36
100
AcDbEntity
  8
001
 62
     3
100
AcDbLine
 10
36.290251
 20
2.232472
 30
0.0
 11
-75.01319200000001
 21
2.232472
 31
0.0
  0
LINE
  5
43C
330
36
100
AcDbEntity
  8
001
 62
     3
100
AcDbLine
 10
23.590887
 20
-20.767528
 30
0.0
 11
23.590887
 21
2.232472
 31
0.0
  0
TEXT
  5
43D
330
36
100
AcDbEntity
  8
001
 62
     3
100
AcDbText
 10
26.91469
 20
-1.476593
 30
0.0
 40
1.8
  1
D
 41
0.666667
100
AcDbText
  0
TEXT
  5
43E
330
36
100
AcDbEntity
  8
001
 62
     3
100
AcDbText
 10
29.731319
 20
-1.476593
 30
0.0
 40
1.8
  1
E
 41
0.666667
100
AcDbText
  0
TEXT
  5
43F
330
36
100
AcDbEntity
  8
001
 62
     3
100
AcDbText
 10
32.547947
 20
-1.476593
 30
0.0
 40
1.8
  1
F
 41
0.666667
100
AcDbText
  0
TEXT
  5
440
330
36
100
AcDbEntity
  8
001
 62
     3
100
AcDbText
 10
26.91469
 20
-5.469147
 30
0.0
 40
3.2
  1
製図
 41
1.076369
100
AcDbText
  0
LINE
  5
441
330
36
100
AcDbEntity
  8
001
 62
     3
100
AcDbLine
 10
-75.01319200000001
 20
2.232472
 30
0.0
 11
-75.01319200000001
 21
-37.433251
 31
0.0
  0
TEXT
  5
442
330
36
100
AcDbEntity
  8
001
 62
     3
100
AcDbText
 10
-73.636539
 20
-37.100785
 30
0.0
 40
5.0
  1
日動工業株式会社
 41
0.833333
100
AcDbText
  0
LINE
  5
443
330
36
100
AcDbEntity
  8
001
 62
     3
100
AcDbLine
 10
-32.130788
 20
-27.76752800000001
 30
0.0
 11
-32.130788
 21
-37.433251
 31
0.0
  0
LINE
  5
444
330
36
100
AcDbEntity
  8
001
 62
     3
100
AcDbLine
 10
-32.130788
 20
-32.600389
 30
0.0
 11
-15.409113
 21
-32.600389
 31
0.0
  0
TEXT
  5
445
330
36
100
AcDbEntity
  8
001
 62
     3
100
AcDbText
 10
-31.544186
 20
-31.783959
 30
0.0
 40
3.2
  1
出図コード
 41
0.8356860000000001
100
AcDbText
  0
LINE
  5
446
330
36
100
AcDbEntity
  8
001
 62
     3
100
AcDbLine
 10
32.653984
 20
-27.76752800000001
 30
0.0
 11
1.174436
 21
-27.76752800000001
 31
0.0
  0
LINE
  5
447
330
36
100
AcDbEntity
  8
001
 62
     3
100
AcDbLine
 10
32.653984
 20
-27.76752800000001
 30
0.0
 11
36.290251
 21
-27.76752800000001
 31
0.0
  0
LINE
  5
448
330
36
100
AcDbEntity
  8
001
 62
     3
100
AcDbLine
 10
-59.86682099999999
 20
-6.767527999999998
 30
0.0
 11
-75.01319200000001
 21
-6.767527999999998
 31
0.0
  0
LINE
  5
449
330
36
100
AcDbEntity
  8
001
 62
     3
100
AcDbLine
 10
-17.594966
 20
-6.767527999999998
 30
0.0
 11
36.290251
 21
-6.767527999999998
 31
0.0
  0
LINE
  5
44A
330
36
100
AcDbEntity
  8
001
 62
     3
100
AcDbLine
 10
-56.28129699999998
 20
-6.767527999999998
 30
0.0
 11
-59.86682099999999
 21
-6.767527999999998
 31
0.0
  0
LINE
  5
44B
330
36
100
AcDbEntity
  8
001
 62
     3
100
AcDbLine
 10
-21.176519
 20
-6.767527999999998
 30
0.0
 11
-56.28129699999998
 21
-6.767527999999998
 31
0.0
  0
LINE
  5
44C
330
36
100
AcDbEntity
  8
001
 62
     3
100
AcDbLine
 10
-21.176519
 20
-6.767527999999998
 30
0.0
 11
-17.594966
 21
-6.767527999999998
 31
0.0
  0
LINE
  5
44D
330
36
100
AcDbEntity
  8
001
 62
     3
100
AcDbLine
 10
-56.28129699999998
 20
-13.767528
 30
0.0
 11
-75.01319200000001
 21
-13.767528
 31
0.0
  0
LINE
  5
44E
330
36
100
AcDbEntity
  8
001
 62
     3
100
AcDbLine
 10
-21.263874
 20
-13.767528
 30
0.0
 11
-56.28129699999998
 21
-13.767528
 31
0.0
  0
LINE
  5
44F
330
36
100
AcDbEntity
  8
001
 62
     3
100
AcDbLine
 10
-21.263874
 20
-13.767528
 30
0.0
 11
-15.409113
 21
-13.767528
 31
0.0
  0
LINE
  5
450
330
36
100
AcDbEntity
  8
001
 62
     3
100
AcDbLine
 10
-28.812136
 20
-27.76752800000001
 30
0.0
 11
-75.01319200000001
 21
-27.76752800000001
 31
0.0
  0
LINE
  5
451
330
36
100
AcDbEntity
  8
001
 62
     3
100
AcDbLine
 10
-19.044264
 20
-27.76752800000001
 30
0.0
 11
-28.812136
 21
-27.76752800000001
 31
0.0
  0
LINE
  5
452
330
36
100
AcDbEntity
  8
001
 62
     3
100
AcDbLine
 10
-19.044264
 20
-27.76752800000001
 30
0.0
 11
1.174436
 21
-27.76752800000001
 31
0.0
  0
LINE
  5
453
330
36
100
AcDbEntity
  8
001
 62
     3
100
AcDbLine
 10
-59.608727
 20
-20.767528
 30
0.0
 11
-75.01319200000001
 21
-20.767528
 31
0.0
  0
LINE
  5
454
330
36
100
AcDbEntity
  8
001
 62
     3
100
AcDbLine
 10
-45.151482
 20
-20.767528
 30
0.0
 11
-59.608727
 21
-20.767528
 31
0.0
  0
LINE
  5
455
330
36
100
AcDbEntity
  8
001
 62
     3
100
AcDbLine
 10
-45.151482
 20
-20.767528
 30
0.0
 11
36.290251
 21
-20.767528
 31
0.0
  0
TEXT
  5
456
330
36
100
AcDbEntity
  8
001
 62
     3
100
AcDbText
 10
-31.676734
 20
-37.02905201012209
 30
0.0
 40
3.2
  1
ZK-A3X
 41
0.8112849999999999
100
AcDbText
  0
TEXT
  5
457
330
36
100
AcDbEntity
  8
001
 62
     3
100
AcDbText
 10
-73.19579499999997
 20
-1.598002
 30
0.0
 40
2.0
  1
CONPONENTS
 41
0.5331600000000001
100
AcDbText
  0
TEXT
  5
458
330
36
100
AcDbEntity
  8
001
 62
     3
100
AcDbText
 10
-73.54552199999997
 20
-20.530179
 30
0.0
 40
3.0
  1
材
 41
0.833333
100
AcDbText
  0
TEXT
  5
459
330
36
100
AcDbEntity
  8
001
 62
     3
100
AcDbText
 10
-66.00987899999998
 20
-20.530179
 30
0.0
 40
3.0
  1
質
 41
0.833333
100
AcDbText
  0
TEXT
  5
45A
330
36
100
AcDbEntity
  8
001
 62
     3
100
AcDbText
 10
-73.45745100000002
 20
-9.905654
 30
0.0
 40
2.0
  1
MODEL
 41
1.031072999999999
100
AcDbText
  0
TEXT
  5
45B
330
36
100
AcDbEntity
  8
001
 62
     3
100
AcDbText
 10
-73.54552199999997
 20
-16.847871
 30
0.0
 40
2.0
  1
MATERIAL
 41
0.659278
100
AcDbText
  0
TEXT
  5
45C
330
36
100
AcDbEntity
  8
001
 62
     3
100
AcDbText
 10
-42.23824099999998
 20
-20.530179
 30
0.0
 40
3.0
  1
備
 41
0.833333
100
AcDbText
  0
TEXT
  5
45D
330
36
100
AcDbEntity
  8
001
 62
     3
100
AcDbText
 10
-35.50524
 20
-20.530179
 30
0.0
 40
3.0
  1
考
 41
0.833333
100
AcDbText
  0
TEXT
  5
45E
330
36
100
AcDbEntity
  8
001
 62
     3
100
AcDbText
 10
-41.87815116276783
 20
-16.847871
 30
0.0
 40
2.0
  1
REMARKS
 41
0.675794
100
AcDbText
  0
TEXT
  5
45F
330
36
100
AcDbEntity
  8
001
 62
     3
100
AcDbText
 10
-71.955793
 20
-23.767991
 30
0.0
 40
2.0
  1
3AD
 41
1.42614
100
AcDbText
  0
TEXT
  5
460
330
36
100
AcDbEntity
  8
001
 62
     3
100
AcDbText
 10
-62.64481299999999
 20
-23.602258
 30
0.0
 40
2.0
  1
ANGLE
 41
1.669883999999998
100
AcDbText
  0
TEXT
  5
461
330
36
100
AcDbEntity
  8
001
 62
     3
100
AcDbText
 10
-41.710926
 20
-23.979099
 30
0.0
 40
2.0
  1
SCALE
 41
0.7719630000000001
100
AcDbText
  0
TEXT
  5
462
330
36
100
AcDbEntity
  8
001
 62
     3
100
AcDbText
 10
-72.26966299999998
 20
-27.76752800000001
 30
0.0
 40
3.0
  1
第
 41
0.833333
100
AcDbText
  0
TEXT
  5
463
330
36
100
AcDbEntity
  8
001
 62
     3
100
AcDbText
 10
-64.48281300000001
 20
-27.76752800000001
 30
0.0
 40
3.0
  1
三
 41
0.833333
100
AcDbText
  0
TEXT
  5
464
330
36
100
AcDbEntity
  8
001
 62
     3
100
AcDbText
 10
-56.695963
 20
-27.76752800000001
 30
0.0
 40
3.0
  1
角
 41
0.833333
100
AcDbText
  0
TEXT
  5
465
330
36
100
AcDbEntity
  8
001
 62
     3
100
AcDbText
 10
-48.90911299999999
 20
-27.76752800000001
 30
0.0
 40
3.0
  1
法
 41
0.833333
100
AcDbText
  0
TEXT
  5
466
330
36
100
AcDbEntity
  8
001
 62
     3
100
AcDbText
 10
-41.84772099999999
 20
-27.479099
 30
0.0
 40
3.0
  1
尺
 41
0.833333
100
AcDbText
  0
TEXT
  5
467
330
36
100
AcDbEntity
  8
001
 62
     3
100
AcDbText
 10
-35.114719
 20
-27.479099
 30
0.0
 40
3.0
  1
度
 41
0.833333
100
AcDbText
  0
TEXT
  5
468
330
36
100
AcDbEntity
  8
001
 62
     3
100
AcDbText
 10
-12.531449
 20
-5.309798999999999
 30
0.0
 40
3.0
  1
承認
 41
1.089472999999999
100
AcDbText
  0
TEXT
  5
469
330
36
100
AcDbEntity
  8
001
 62
     3
100
AcDbText
 10
0.711432
 20
-5.367528
 30
0.0
 40
3.0
  1
検図
 41
0.931761
100
AcDbText
  0
TEXT
  5
46A
330
36
100
AcDbEntity
  8
001
 62
     3
100
AcDbText
 10
13.711828
 20
-5.367528
 30
0.0
 40
3.0
  1
設
 41
0.833333
100
AcDbText
  0
TEXT
  5
46B
330
36
100
AcDbEntity
  8
001
 62
     3
100
AcDbText
 10
18.201696
 20
-5.367528
 30
0.0
 40
3.0
  1
計
 41
0.833333
100
AcDbText
  0
TEXT
  5
46C
330
36
100
AcDbEntity
  8
001
 62
     3
100
AcDbText
 10
-73.125688
 20
-5.194976
 30
0.0
 40
3.0
  1
品
 41
0.833333
100
AcDbText
  0
TEXT
  5
46D
330
36
100
AcDbEntity
  8
001
 62
     3
100
AcDbText
 10
-65.590046
 20
-5.194976
 30
0.0
 40
3.0
  1
名
 41
0.833333
100
AcDbText
  0
TEXT
  5
46E
330
36
100
AcDbEntity
  8
001
 62
     3
100
AcDbText
 10
-73.45745100000002
 20
-13.2638110776293
 30
0.0
 40
3.0
  1
型
 41
0.833333
100
AcDbText
  0
TEXT
  5
46F
330
36
100
AcDbEntity
  8
001
 62
     3
100
AcDbText
 10
-65.909361
 20
-13.2638110776293
 30
0.0
 40
3.0
  1
式
 41
0.833333
100
AcDbText
  0
LINE
  5
47B
330
36
100
AcDbEntity
  8
001
100
AcDbLine
 10
-135.452615
 20
59.257089
 30
0.0
 11
-143.599205
 21
70.668406
 31
0.0
  0
LINE
  5
47C
330
36
100
AcDbEntity
  8
001
100
AcDbLine
 10
-143.599205
 20
70.668406
 30
0.0
 11
-160.099205
 21
70.668406
 31
0.0
  0
TEXT
  5
47D
330
36
100
AcDbEntity
  8
001
 62
     4
100
AcDbText
 10
-157.349205
 20
71.668406
 30
0.0
 40
3.2
  1
型式銘版
 41
0.716146
100
AcDbText
  0
LINE
  5
483
330
36
100
AcDbEntity
  8
001
100
AcDbLine
 10
-225.039408
 20
59.257089
 30
0.0
 11
-218.550405
 21
70.668406
 31
0.0
  0
LINE
  5
484
330
36
100
AcDbEntity
  8
001
100
AcDbLine
 10
-218.550405
 20
70.668406
 30
0.0
 11
-193.800405
 21
70.668406
 31
0.0
  0
TEXT
  5
485
330
36
100
AcDbEntity
  8
001
 62
     4
100
AcDbText
 10
-215.800405
 20
71.668406
 30
0.0
 40
3.2
  1
取り扱いシール
 41
0.716146
100
AcDbText
  0
LINE
  5
486
330
36
100
AcDbEntity
  8
001
 62
     3
100
AcDbLine
 10
-366.111673
 20
103.066749
 30
0.0
 11
-368.7097490000001
 21
101.566749
 31
0.0
  0
LINE
  5
487
330
36
100
AcDbEntity
  8
001
 62
     3
100
AcDbLine
 10
-366.111673
 20
103.066749
 30
0.0
 11
-368.7097490000001
 21
104.566749
 31
0.0
  0
LINE
  5
488
330
36
100
AcDbEntity
  8
001
 62
     3
100
AcDbLine
 10
-368.7097490000001
 20
101.566749
 30
0.0
 11
-368.7097490000001
 21
104.566749
 31
0.0
  0
LINE
  5
489
330
36
100
AcDbEntity
  8
001
 62
     7
100
AcDbLine
 10
-237.87523778023
 20
-37.433251
 30
0.0
 11
-237.87523778023
 21
7.573749000000004
 31
0.0
  0
LINE
  5
48A
330
36
100
AcDbEntity
  8
001
100
AcDbLine
 10
-303.1964165000001
 20
-37.433251
 30
0.0
 11
-303.1964165000001
 21
7.573749000000004
 31
0.0
  0
LINE
  5
48B
330
36
100
AcDbEntity
  8
001
100
AcDbLine
 10
-295.4589848333334
 20
-37.433251
 30
0.0
 11
-295.4589848333334
 21
7.573749000000004
 31
0.0
  0
LINE
  5
48C
330
36
100
AcDbEntity
  8
001
100
AcDbLine
 10
-275.2487956666667
 20
-37.433251
 30
0.0
 11
-275.2487956666667
 21
7.573749000000004
 31
0.0
  0
LINE
  5
48D
330
36
100
AcDbEntity
  8
001
100
AcDbLine
 10
-345.5833656666668
 20
-37.433251
 30
0.0
 11
-345.5833656666667
 21
7.573749000000004
 31
0.0
  0
TEXT
  5
48E
330
36
100
AcDbEntity
  8
001
 62
     3
100
AcDbText
 10
-301.6964165
 20
-1.928250999999994
 30
0.0
 40
3.2
  1
1
 41
0.8
  7
高3.2
100
AcDbText
  0
TEXT
  5
48F
330
36
100
AcDbEntity
  8
001
 62
     3
100
AcDbText
 10
-301.6964165
 20
-26.93225099999999
 30
0.0
 40
3.2
  1
1
 41
0.8
  7
高3.2
100
AcDbText
  0
TEXT
  5
490
330
36
100
AcDbEntity
  8
001
 62
     3
100
AcDbText
 10
-301.6964165
 20
-6.929250999999994
 30
0.0
 40
3.2
  1
1
 41
0.8
  7
高3.2
100
AcDbText
  0
TEXT
  5
491
330
36
100
AcDbEntity
  8
001
 62
     3
100
AcDbText
 10
-293.9589848333334
 20
-26.93225099999999
 30
0.0
 40
3.2
  1
　〃
 41
0.8
  7
高3.2
100
AcDbText
  0
TEXT
  5
492
330
36
100
AcDbEntity
  8
001
 62
     3
100
AcDbText
 10
-293.9589848333334
 20
-16.93125099999999
 30
0.0
 40
3.2
  1
　〃
 41
0.8
  7
高3.2
100
AcDbText
  0
TEXT
  5
493
330
36
100
AcDbEntity
  8
001
 62
     3
100
AcDbText
 10
-301.6964165
 20
-11.93025099999999
 30
0.0
 40
3.2
  1
1
 41
0.8
  7
高3.2
100
AcDbText
  0
TEXT
  5
494
330
36
100
AcDbEntity
  8
001
 62
     3
100
AcDbText
 10
-344.0833656666668
 20
-31.933251
 30
0.0
 40
3.2
  1
フレーム
 41
0.8
  7
高3.2
100
AcDbText
  0
TEXT
  5
495
330
36
100
AcDbEntity
  8
001
 62
     3
100
AcDbText
 10
-344.0833656666668
 20
-26.93225099999999
 30
0.0
 40
3.2
  1
コンセントパネル
 41
0.8
  7
高3.2
100
AcDbText
  0
TEXT
  5
496
330
36
100
AcDbEntity
  8
001
 62
     3
100
AcDbText
 10
-344.0833656666667
 20
-11.93025099999999
 30
0.0
 40
3.2
  1
線止め
 41
0.8
  7
高3.2
100
AcDbText
  0
TEXT
  5
497
330
36
100
AcDbEntity
  8
001
 62
     3
100
AcDbText
 10
-344.0833656666667
 20
-6.929250999999994
 30
0.0
 40
3.2
  1
ホールプラグ
 41
0.8
  7
高3.2
100
AcDbText
  0
TEXT
  5
498
330
36
100
AcDbEntity
  8
001
 62
     3
100
AcDbText
 10
-293.9589848333334
 20
-1.928250999999994
 30
0.0
 40
3.2
  1
SVCT
 41
0.8
  7
高3.2
100
AcDbText
  0
TEXT
  5
499
330
36
100
AcDbEntity
  8
001
 62
     3
100
AcDbText
 10
-293.9589848333334
 20
-11.93025099999999
 30
0.0
 40
3.2
  1
PA6
 41
0.8
  7
高3.2
100
AcDbText
  0
TEXT
  5
49A
330
36
100
AcDbEntity
  8
001
 62
     3
100
AcDbText
 10
-293.9589848333334
 20
-31.933251
 30
0.0
 40
3.2
  1
ABS樹脂
 41
0.8
  7
高3.2
100
AcDbText
  0
TEXT
  5
49B
330
36
100
AcDbEntity
  8
001
 62
     3
100
AcDbText
 10
-293.9589848333334
 20
-6.929250999999994
 30
0.0
 40
3.2
  1
PP樹脂
 41
0.8
  7
高3.2
100
AcDbText
  0
TEXT
  5
49C
330
36
100
AcDbEntity
  8
001
 62
     3
100
AcDbText
 10
-301.6964165
 20
-31.933251
 30
0.0
 40
3.2
  1
1式
 41
0.8
  7
高3.2
100
AcDbText
  0
TEXT
  5
49D
330
36
100
AcDbEntity
  8
001
 62
     3
100
AcDbText
 10
-344.0833656666667
 20
3.072749000000005
 30
0.0
 40
3.2
  1
型式　取説表示シール
 41
0.8
  7
高3.2
100
AcDbText
  0
TEXT
  5
49E
330
36
100
AcDbEntity
  8
001
 62
     3
100
AcDbText
 10
-301.6964165
 20
3.072749000000005
 30
0.0
 40
3.2
  1
各1
 41
0.8
  7
高3.2
100
AcDbText
  0
TEXT
  5
49F
330
36
100
AcDbEntity
  8
001
 62
     3
100
AcDbText
 10
-293.9589848333334
 20
-21.93225099999999
 30
0.0
 40
3.2
  1
　〃
 41
0.8
  7
高3.2
100
AcDbText
  0
TEXT
  5
4A0
330
36
100
AcDbEntity
  8
001
 62
     3
100
AcDbText
 10
-301.6964165
 20
-21.931251
 30
0.0
 40
3.2
  1
1
 41
0.8
  7
高3.2
100
AcDbText
  0
TEXT
  5
4A1
330
36
100
AcDbEntity
  8
001
 62
     3
100
AcDbText
 10
-344.0833656666668
 20
-21.931251
 30
0.0
 40
3.2
  1
電源ランプ
 41
0.8
  7
高3.2
100
AcDbText
  0
TEXT
  5
4A2
330
36
100
AcDbEntity
  8
001
 62
     3
100
AcDbText
 10
-273.7487956666667
 20
-21.931251
 30
0.0
 40
3.2
  1
100V用
 41
0.8
  7
高3.2
100
AcDbText
  0
TEXT
  5
4A3
330
36
100
AcDbEntity
  8
001
 62
     3
100
AcDbText
 10
-352.2097490000001
 20
3.072749000000005
 30
0.0
 40
3.2
  1
8
 41
0.8
  7
高3.2
100
AcDbText
  0
TEXT
  5
4A4
330
36
100
AcDbEntity
  8
001
 62
     3
100
AcDbText
 10
-352.2097490000001
 20
-1.928250999999994
 30
0.0
 40
3.2
  1
7
 41
0.8
  7
高3.2
100
AcDbText
  0
TEXT
  5
4A5
330
36
100
AcDbEntity
  8
001
 62
     3
100
AcDbText
 10
-352.2097490000001
 20
-6.929250999999994
 30
0.0
 40
3.2
  1
6
 41
0.8
  7
高3.2
100
AcDbText
  0
TEXT
  5
4A6
330
36
100
AcDbEntity
  8
001
 62
     3
100
AcDbText
 10
-352.2097490000001
 20
-11.93025099999999
 30
0.0
 40
3.2
  1
5
 41
0.8
  7
高3.2
100
AcDbText
  0
TEXT
  5
4A7
330
36
100
AcDbEntity
  8
001
 62
     3
100
AcDbText
 10
-352.2097490000001
 20
-16.93125099999999
 30
0.0
 40
3.2
  1
4
 41
0.8
  7
高3.2
100
AcDbText
  0
TEXT
  5
4A8
330
36
100
AcDbEntity
  8
001
 62
     3
100
AcDbText
 10
-352.2097490000001
 20
-21.931251
 30
0.0
 40
3.2
  1
3
 41
0.8
  7
高3.2
100
AcDbText
  0
TEXT
  5
4A9
330
36
100
AcDbEntity
  8
001
 62
     3
100
AcDbText
 10
-352.2097490000001
 20
-26.93225099999999
 30
0.0
 40
3.2
  1
2
 41
0.8
  7
高3.2
100
AcDbText
  0
TEXT
  5
4AA
330
36
100
AcDbEntity
  8
001
 62
     3
100
AcDbText
 10
-352.2097490000001
 20
-31.933251
 30
0.0
 40
3.2
  1
1
 41
0.8
  7
高3.2
100
AcDbText
  0
TEXT
  5
4AB
330
36
100
AcDbEntity
  8
001
 62
     3
100
AcDbText
 10
-273.7487956666667
 20
-36.933251
 30
0.0
 40
3.2
  1
備考
 41
0.8
  7
高3.2
100
AcDbText
  0
TEXT
  5
4AC
330
36
100
AcDbEntity
  8
001
 62
     3
100
AcDbText
 10
-293.9589848333334
 20
-36.933251
 30
0.0
 40
3.2
  1
材質
 41
0.8
  7
高3.2
100
AcDbText
  0
TEXT
  5
4AD
330
36
100
AcDbEntity
  8
001
 62
     3
100
AcDbText
 10
-301.6964165
 20
-36.933251
 30
0.0
 40
3.2
  1
数
 41
0.8
  7
高3.2
100
AcDbText
  0
TEXT
  5
4AE
330
36
100
AcDbEntity
  8
001
 62
     3
100
AcDbText
 10
-344.0833656666668
 20
-36.933251
 30
0.0
 40
3.2
  1
部品名
 41
0.8
  7
高3.2
100
AcDbText
  0
TEXT
  5
4AF
330
36
100
AcDbEntity
  8
001
 62
     3
100
AcDbText
 10
-352.2097490000001
 20
-36.93325099999999
 30
0.0
 40
3.2
  1
No
 41
0.8
  7
高3.2
100
AcDbText
  0
LINE
  5
4B5
330
36
100
AcDbEntity
  8
001
100
AcDbLine
 10
-25.059835
 20
146.083546
 30
0.0
 11
-39.40238200000001
 21
160.720668
 31
0.0
  0
CIRCLE
  5
4B6
330
36
100
AcDbEntity
  8
001
100
AcDbCircle
 10
-42.90179699999998
 20
164.291955
 30
0.0
 40
5.0
  0
TEXT
  5
4B7
330
36
100
AcDbEntity
  8
001
 62
     4
100
AcDbText
 10
-45.07131423614805
 20
161.008536664525
 30
0.0
 40
6.299999999999999
  1
7
  7
高6.3
100
AcDbText
  0
LINE
  5
4BD
330
36
100
AcDbEntity
  8
001
100
AcDbLine
 10
-131.612298
 20
57.741864
 30
0.0
 11
-126.063961
 21
72.73622399999998
 31
0.0
  0
CIRCLE
  5
4BE
330
36
100
AcDbEntity
  8
001
100
AcDbCircle
 10
-124.3288
 20
77.42549100000002
 30
0.0
 40
5.0
  0
TEXT
  5
4BF
330
36
100
AcDbEntity
  8
001
 62
     4
100
AcDbText
 10
-126.498317236148
 20
74.14207266452502
 30
0.0
 40
6.299999999999999
  1
8
  7
高6.3
100
AcDbText
  0
LINE
  5
4C5
330
36
100
AcDbEntity
  8
001
100
AcDbLine
 10
-145.247099
 20
105.393858
 30
0.0
 11
-169.503453
 21
83.43978599999998
 31
0.0
  0
CIRCLE
  5
4C6
330
36
100
AcDbEntity
  8
001
100
AcDbCircle
 10
-173.210535
 20
80.08456
 30
0.0
 40
5.0
  0
TEXT
  5
4C7
330
36
100
AcDbEntity
  8
001
 62
     4
100
AcDbText
 10
-175.3800522361481
 20
76.80114166452502
 30
0.0
 40
6.299999999999999
  1
5
  7
高6.3
100
AcDbText
  0
LINE
  5
4CD
330
36
100
AcDbEntity
  8
001
100
AcDbLine
 10
-213.01803
 20
109.659184
 30
0.0
 11
-190.031495
 21
83.70821499999998
 31
0.0
  0
CIRCLE
  5
4CE
330
36
100
AcDbEntity
  8
001
100
AcDbCircle
 10
-186.716206
 20
79.965374
 30
0.0
 40
5.0
  0
TEXT
  5
4CF
330
36
100
AcDbEntity
  8
001
 62
     4
100
AcDbText
 10
-188.885723236148
 20
76.68195566452505
 30
0.0
 40
6.299999999999999
  1
6
  7
高6.3
100
AcDbText
  0
LINE
  5
4D5
330
36
100
AcDbEntity
  8
001
100
AcDbLine
 10
-228.649092
 20
57.741864
 30
0.0
 11
-234.197429
 21
72.73622399999998
 31
0.0
  0
CIRCLE
  5
4D6
330
36
100
AcDbEntity
  8
001
100
AcDbCircle
 10
-235.93259
 20
77.42549100000002
 30
0.0
 40
5.0
  0
TEXT
  5
4D7
330
36
100
AcDbEntity
  8
001
 62
     4
100
AcDbText
 10
-238.1021072361481
 20
74.14207266452502
 30
0.0
 40
6.299999999999999
  1
8
  7
高6.3
100
AcDbText
  0
LINE
  5
4DD
330
36
100
AcDbEntity
  8
001
100
AcDbLine
 10
-124.519512
 20
203.641248
 30
0.0
 11
-118.971175
 21
218.635609
 31
0.0
  0
CIRCLE
  5
4DE
330
36
100
AcDbEntity
  8
001
100
AcDbCircle
 10
-117.236014
 20
223.324875
 30
0.0
 40
5.0
  0
TEXT
  5
4DF
330
36
100
AcDbEntity
  8
001
 62
     4
100
AcDbText
 10
-118.4176832573075
 20
220.3145413983068
 30
0.0
 40
6.299999999999999
  1
1
  7
高6.3
100
AcDbText
  0
LINE
  5
4E5
330
36
100
AcDbEntity
  8
001
100
AcDbLine
 10
-147.454803
 20
202.346393
 30
0.0
 11
-137.217693
 21
219.333733
 31
0.0
  0
CIRCLE
  5
4E6
330
36
100
AcDbEntity
  8
001
100
AcDbCircle
 10
-134.636931
 20
223.616217
 30
0.0
 40
5.0
  0
TEXT
  5
4E7
330
36
100
AcDbEntity
  8
001
 62
     4
100
AcDbText
 10
-136.806448236148
 20
220.3327986645251
 30
0.0
 40
6.299999999999999
  1
2
  7
高6.3
100
AcDbText
  0
LINE
  5
4ED
330
36
100
AcDbEntity
  8
001
100
AcDbLine
 10
-180.573449
 20
194.381748
 30
0.0
 11
-188.407331
 21
219.486163
 31
0.0
  0
CIRCLE
  5
4EE
330
36
100
AcDbEntity
  8
001
100
AcDbCircle
 10
-189.896758
 20
224.259172
 30
0.0
 40
5.0
  0
TEXT
  5
4EF
330
36
100
AcDbEntity
  8
001
 62
     4
100
AcDbText
 10
-192.066275236148
 20
220.975753664525
 30
0.0
 40
6.299999999999999
  1
3
  7
高6.3
100
AcDbText
  0
LINE
  5
4F5
330
36
100
AcDbEntity
  8
001
100
AcDbLine
 10
-215.916696
 20
197.805272
 30
0.0
 11
-223.159325
 21
219.231133
 31
0.0
  0
CIRCLE
  5
4F6
330
36
100
AcDbEntity
  8
001
100
AcDbCircle
 10
-224.760481
 20
223.96783
 30
0.0
 40
5.0
  0
TEXT
  5
4F7
330
36
100
AcDbEntity
  8
001
 62
     4
100
AcDbText
 10
-226.9299982361481
 20
220.6844116645251
 30
0.0
 40
6.299999999999999
  1
4
  7
高6.3
100
AcDbText
  0
TEXT
  5
4F8
330
36
100
AcDbEntity
  8
001
 62
     3
100
AcDbText
 10
-344.0833656666667
 20
-1.928250999999994
 30
0.0
 40
3.2
  1
ポッキンプラグ付き電線
 41
0.8
  7
高3.2
100
AcDbText
  0
TEXT
  5
4F9
330
36
100
AcDbEntity
  8
001
 62
     3
100
AcDbText
 10
-344.0833656666667
 20
-16.93125099999999
 30
0.0
 40
3.2
  1
ハーフコンセント
 41
0.8
  7
高3.2
100
AcDbText
  0
TEXT
  5
4FA
330
36
100
AcDbEntity
  8
001
 62
     3
100
AcDbText
 10
-301.6964165
 20
-16.93125099999999
 30
0.0
 40
3.2
  1
2式
 41
0.8
  7
高3.2
100
AcDbText
  0
TEXT
  5
4FB
330
36
100
AcDbEntity
  8
001
 62
     3
100
AcDbText
 10
-273.7487956666667
 20
-16.93125099999999
 30
0.0
 40
3.2
  1
アース金具付き
 41
0.8
  7
高3.2
100
AcDbText
  0
ARC
  5
4FC
330
36
100
AcDbEntity
  8
001
100
AcDbCircle
 10
-125.879482
 20
60.257089
 30
0.0
 40
1.0
100
AcDbArc
 50
0.0
 51
90.0
  0
LINE
  5
4FD
330
36
100
AcDbEntity
  8
001
100
AcDbLine
 10
-125.879482
 20
61.257089
 30
0.0
 11
-140.7553669999999
 21
61.257089
 31
0.0
  0
ARC
  5
4FE
330
36
100
AcDbEntity
  8
001
100
AcDbCircle
 10
-140.7553669999999
 20
60.257089
 30
0.0
 40
1.0
100
AcDbArc
 50
90.0
 51
180.0
  0
LINE
  5
4FF
330
36
100
AcDbEntity
  8
001
100
AcDbLine
 10
-124.879482
 20
47.25150399999999
 30
0.0
 11
-124.879482
 21
60.257089
 31
0.0
  0
LINE
  5
500
330
36
100
AcDbEntity
  8
001
100
AcDbLine
 10
-141.755367
 20
60.257089
 30
0.0
 11
-141.755367
 21
46.75150399999998
 31
0.0
  0
LINE
  5
501
330
36
100
AcDbEntity
  8
001
100
AcDbLine
 10
-124.879482
 20
47.25150399999999
 30
0.0
 11
-124.879482
 21
33.74592
 31
0.0
  0
ARC
  5
502
330
36
100
AcDbEntity
  8
001
100
AcDbCircle
 10
-125.879482
 20
33.74592
 30
0.0
 40
1.0
100
AcDbArc
 50
270.0
 51
0.0
  0
LINE
  5
503
330
36
100
AcDbEntity
  8
001
100
AcDbLine
 10
-125.879482
 20
32.74592
 30
0.0
 11
-140.7553669999999
 21
32.74592
 31
0.0
  0
ARC
  5
504
330
36
100
AcDbEntity
  8
001
100
AcDbCircle
 10
-140.7553669999999
 20
33.74592
 30
0.0
 40
1.0
100
AcDbArc
 50
180.0
 51
270.0
  0
LINE
  5
505
330
36
100
AcDbEntity
  8
001
100
AcDbLine
 10
-141.755367
 20
33.74592
 30
0.0
 11
-141.755367
 21
46.75150399999998
 31
0.0
  0
LINE
  5
506
330
36
100
AcDbEntity
  8
001
100
AcDbLine
 10
-216.755367
 20
33.74592
 30
0.0
 11
-216.755367
 21
60.257089
 31
0.0
  0
ARC
  5
507
330
36
100
AcDbEntity
  8
001
100
AcDbCircle
 10
-217.755367
 20
60.257089
 30
0.0
 40
1.0
100
AcDbArc
 50
0.0
 51
90.0
  0
LINE
  5
508
330
36
100
AcDbEntity
  8
001
100
AcDbLine
 10
-232.631252
 20
61.257089
 30
0.0
 11
-217.755367
 21
61.257089
 31
0.0
  0
ARC
  5
509
330
36
100
AcDbEntity
  8
001
100
AcDbCircle
 10
-232.631252
 20
60.257089
 30
0.0
 40
1.0
100
AcDbArc
 50
90.0
 51
180.0
  0
LINE
  5
50A
330
36
100
AcDbEntity
  8
001
100
AcDbLine
 10
-233.631252
 20
60.257089
 30
0.0
 11
-233.631252
 21
33.74592
 31
0.0
  0
ARC
  5
50B
330
36
100
AcDbEntity
  8
001
100
AcDbCircle
 10
-232.631252
 20
33.74592
 30
0.0
 40
1.0
100
AcDbArc
 50
180.0
 51
270.0
  0
LINE
  5
50C
330
36
100
AcDbEntity
  8
001
100
AcDbLine
 10
-232.631252
 20
32.74592
 30
0.0
 11
-217.755367
 21
32.74592
 31
0.0
  0
ARC
  5
50D
330
36
100
AcDbEntity
  8
001
100
AcDbCircle
 10
-217.755367
 20
33.74592
 30
0.0
 40
1.0
100
AcDbArc
 50
270.0
 51
0.0
  0
LINE
  5
50E
330
36
100
AcDbEntity
  8
001
 62
     3
100
AcDbLine
 10
36.19021400000001
 20
8.232471999999999
 30
0.0
 11
-15.409149
 21
8.232471999999999
 31
0.0
  0
TEXT
  5
50F
330
36
100
AcDbEntity
  8
001
 62
     3
100
AcDbText
 10
-10.03178297870931
 20
2.788556999999998
 30
0.0
 40
4.5
  1
コード
  7
高4.5
100
AcDbText
  0
LINE
  5
510
330
36
100
AcDbEntity
  8
001
 62
     3
100
AcDbLine
 10
10.590851
 20
2.232472
 30
0.0
 11
10.590851
 21
8.232471999999999
 31
0.0
  0
LINE
  5
511
330
36
100
AcDbEntity
  8
001
 62
     3
100
AcDbLine
 10
-15.409149
 20
2.232472
 30
0.0
 11
-15.409149
 21
8.232471999999999
 31
0.0
  0
TEXT
  5
512
330
36
100
AcDbEntity
  8
001
 62
     3
100
AcDbText
 10
-25.881022
 20
21.333307
 30
0.0
 40
4.5
  1
125V
  7
高4.5
100
AcDbText
  0
TEXT
  5
513
330
36
100
AcDbEntity
  8
001
 62
     3
100
AcDbText
 10
-23.721022
 20
14.805307
 30
0.0
 40
4.5
  1
8A
  7
高4.5
100
AcDbText
  0
TEXT
  5
514
330
36
100
AcDbEntity
  8
001
 62
     3
100
AcDbText
 10
-46.572122
 20
29.118614
 30
0.0
 40
4.5
  1
単相100V仕様
  7
高4.5
100
AcDbText
  0
TEXT
  5
515
330
36
100
AcDbEntity
  8
001
 62
     3
100
AcDbText
 10
-55.32382075720921
 20
36.539929
 30
0.0
 40
4.5
  1
電工ドラム（屋内型）
  7
高4.5
100
AcDbText
  0
TEXT
  5
516
330
36
100
AcDbEntity
  8
001
 62
     3
100
AcDbText
 10
-56.70795899999999
 20
15.07022283980194
 30
0.0
 40
4.5
  1
定格電流
  7
高4.5
100
AcDbText
  0
TEXT
  5
517
330
36
100
AcDbEntity
  8
001
 62
     3
100
AcDbText
 10
-56.707958
 20
21.59822283980194
 30
0.0
 40
4.5
  1
定格電圧
  7
高4.5
100
AcDbText
  0
LINE
  5
518
330
36
100
AcDbEntity
  8
001
100
AcDbLine
 10
-58.627959
 20
27.44811
 30
0.0
 11
-1.158646999999998
 21
27.44811
 31
0.0
  0
LINE
  5
519
330
36
100
AcDbEntity
  8
001
100
AcDbLine
 10
-58.627959
 20
20.72811
 30
0.0
 11
-1.158646999999998
 21
20.72811
 31
0.0
  0
LINE
  5
51A
330
36
100
AcDbEntity
  8
001
 62
     3
100
AcDbLine
 10
-58.627959
 20
14.00811
 30
0.0
 11
-1.158646999999998
 21
14.00811
 31
0.0
  0
LINE
  5
51B
330
36
100
AcDbEntity
  8
001
100
AcDbLine
 10
-58.627959
 20
35.12811
 30
0.0
 11
-1.158646999999998
 21
35.12811
 31
0.0
  0
LINE
  5
51C
330
36
100
AcDbEntity
  8
001
 62
     3
100
AcDbLine
 10
-58.627959
 20
42.80810999999999
 30
0.0
 11
-1.158646999999998
 21
42.80810999999999
 31
0.0
  0
TEXT
  5
51D
330
36
100
AcDbEntity
  8
001
 62
     3
100
AcDbText
 10
15.25538924253305
 20
2.730827999999998
 30
0.0
 40
4.5
  1
5347
  7
高4.5
100
AcDbText
  0
LINE
  5
51E
330
36
100
AcDbEntity
  8
001
 62
     3
100
AcDbLine
 10
-224.9597051861574
 20
7.573749000000004
 30
0.0
 11
-353.7097490000002
 21
7.573749000000004
 31
0.0
  0
LINE
  5
51F
330
36
100
AcDbEntity
  8
001
100
AcDbLine
 10
-224.9597051861574
 20
-22.431251
 30
0.0
 11
-353.7097490000002
 21
-22.431251
 31
0.0
  0
LINE
  5
520
330
36
100
AcDbEntity
  8
001
100
AcDbLine
 10
-224.9597051861574
 20
-12.43025099999999
 30
0.0
 11
-353.7097490000002
 21
-12.43025099999999
 31
0.0
  0
LINE
  5
521
330
36
100
AcDbEntity
  8
001
100
AcDbLine
 10
-224.9597051861574
 20
-7.429250999999994
 30
0.0
 11
-353.7097490000002
 21
-7.429250999999994
 31
0.0
  0
LINE
  5
522
330
36
100
AcDbEntity
  8
001
100
AcDbLine
 10
-224.9597051861574
 20
-2.428250999999994
 30
0.0
 11
-353.7097490000002
 21
-2.428250999999994
 31
0.0
  0
LINE
  5
523
330
36
100
AcDbEntity
  8
001
100
AcDbLine
 10
-224.9597051861574
 20
2.572749000000005
 30
0.0
 11
-353.7097490000002
 21
2.572749000000005
 31
0.0
  0
LINE
  5
524
330
36
100
AcDbEntity
  8
001
100
AcDbLine
 10
-224.9597051861574
 20
-27.432251
 30
0.0
 11
-353.7097490000002
 21
-27.432251
 31
0.0
  0
LINE
  5
525
330
36
100
AcDbEntity
  8
001
100
AcDbLine
 10
-224.9597051861574
 20
-17.43125099999999
 30
0.0
 11
-353.7097490000002
 21
-17.43125099999999
 31
0.0
  0
LINE
  5
526
330
36
100
AcDbEntity
  8
001
 62
     3
100
AcDbLine
 10
-224.9597051861574
 20
-32.43325099999999
 30
0.0
 11
-353.7097490000002
 21
-32.433251
 31
0.0
  0
TEXT
  5
527
330
36
100
AcDbEntity
  8
001
 62
     3
100
AcDbText
 10
-273.7487956666667
 20
-1.928250999999994
 30
0.0
 40
3.2
  1
2.0sqx3cx10m（緑）
 41
0.8
  7
高3.2
100
AcDbText
  0
TEXT
  5
638
330
36
100
AcDbEntity
  8
001
 62
     3
100
AcDbText
 10
23.79025100000001
 20
227.066749
 30
0.0
 40
3.2
  1
担　当
  7
高3.2
100
AcDbText
  0
TEXT
  5
639
330
36
100
AcDbEntity
  8
001
 62
     3
100
AcDbText
 10
-20.20974899999999
 20
227.066749
 30
0.0
 40
3.2
  1
変更・追記内容
  7
高3.2
100
AcDbText
  0
TEXT
  5
63A
330
36
100
AcDbEntity
  8
001
 62
     3
100
AcDbText
 10
-45.09623399966073
 20
222.3962104900917
 30
0.0
 40
2.0
  1
1
  7
高2
100
AcDbText
  0
TEXT
  5
63B
330
36
100
AcDbEntity
  8
001
 62
     3
100
AcDbText
 10
-45.40474547641804
 20
217.2263937778188
 30
0.0
 40
2.0
  1
2
  7
高2
100
AcDbText
  0
TEXT
  5
63C
330
36
100
AcDbEntity
  8
001
 62
     3
100
AcDbText
 10
-38.20974899999999
 20
227.066749
 30
0.0
 40
3.2
  1
日　付
  7
高3.2
100
AcDbText
  0
TEXT
  5
63D
330
36
100
AcDbEntity
  8
001
 62
     3
100
AcDbText
 10
-38.20974899999999
 20
232.066749
 30
0.0
 40
3.2
  1
図　　　　面　　　　略　　　　歴
  7
高3.2
100
AcDbText
  0
TEXT
  5
63E
330
36
100
AcDbEntity
  8
001
 62
     3
100
AcDbText
 10
-48.20974899999999
 20
227.066749
 30
0.0
 40
3.2
  1
記号
  7
高3.2
100
AcDbText
  0
LINE
  5
63F
330
36
100
AcDbEntity
  8
001
100
AcDbLine
 10
-44.70974899999998
 20
220.3576450000001
 30
0.0
 11
-46.60974899999996
 21
217.066749
 31
0.0
  0
LINE
  5
640
330
36
100
AcDbEntity
  8
001
100
AcDbLine
 10
-44.70974899999998
 20
220.3576450000001
 30
0.0
 11
-42.80974900000001
 21
217.066749
 31
0.0
  0
LINE
  5
641
330
36
100
AcDbEntity
  8
001
100
AcDbLine
 10
-46.60974899999996
 20
217.066749
 30
0.0
 11
-42.80974900000001
 21
217.066749
 31
0.0
  0
LINE
  5
642
330
36
100
AcDbEntity
  8
001
100
AcDbLine
 10
-44.70974899999998
 20
225.3576460000001
 30
0.0
 11
-46.60974899999996
 21
222.066749
 31
0.0
  0
LINE
  5
643
330
36
100
AcDbEntity
  8
001
100
AcDbLine
 10
-44.70974899999998
 20
225.3576460000001
 30
0.0
 11
-42.80974900000001
 21
222.066749
 31
0.0
  0
LINE
  5
644
330
36
100
AcDbEntity
  8
001
100
AcDbLine
 10
-46.60974899999996
 20
222.066749
 30
0.0
 11
-42.80974900000001
 21
222.066749
 31
0.0
  0
LINE
  5
645
330
36
100
AcDbEntity
  8
001
 62
     3
100
AcDbLine
 10
-49.70974899999998
 20
231.566749
 30
0.0
 11
36.29025100000002
 21
231.566749
 31
0.0
  0
LINE
  5
646
330
36
100
AcDbEntity
  8
001
 62
     3
100
AcDbLine
 10
-49.70974899999998
 20
226.566749
 30
0.0
 11
36.29025100000002
 21
226.566749
 31
0.0
  0
LINE
  5
647
330
36
100
AcDbEntity
  8
001
 62
     7
100
AcDbLine
 10
-49.70974899999998
 20
221.566749
 30
0.0
 11
36.29025100000002
 21
221.566749
 31
0.0
  0
LINE
  5
648
330
36
100
AcDbEntity
  8
001
 62
     3
100
AcDbLine
 10
-49.70974899999998
 20
216.566749
 30
0.0
 11
36.29025100000002
 21
216.566749
 31
0.0
  0
LINE
  5
649
330
36
100
AcDbEntity
  8
001
 62
     7
100
AcDbLine
 10
22.29025099999995
 20
216.566749
 30
0.0
 11
22.29025100000001
 21
231.566749
 31
0.0
  0
LINE
  5
64A
330
36
100
AcDbEntity
  8
001
 62
     7
100
AcDbLine
 10
-21.70974899999999
 20
216.566749
 30
0.0
 11
-21.70974899999999
 21
231.566749
 31
0.0
  0
LINE
  5
64B
330
36
100
AcDbEntity
  8
001
 62
     7
100
AcDbLine
 10
-39.70974899999999
 20
216.566749
 30
0.0
 11
-39.70974899999999
 21
231.566749
 31
0.0
  0
LINE
  5
64C
330
36
100
AcDbEntity
  8
001
 62
     3
100
AcDbLine
 10
-49.70974899999998
 20
216.566749
 30
0.0
 11
-49.70974899999998
 21
236.566749
 31
0.0
  0
TEXT
  5
743
330
36
100
AcDbEntity
  8
001
 62
     7
100
AcDbText
 10
23.79025100000001
 20
222.066749
 30
0.0
 40
2.5
  1
今村
  7
高2.5
100
AcDbText
  0
TEXT
  5
744
330
36
100
AcDbEntity
  8
001
 62
     7
100
AcDbText
 10
-20.20974899999999
 20
222.066749
 30
0.0
 40
2.5
  1
電源ランプ変更
  7
高2.5
100
AcDbText
  0
TEXT
  5
745
330
36
100
AcDbEntity
  8
001
 62
     7
100
AcDbText
 10
-38.20974899999999
 20
222.066749
 30
0.0
 40
2.5
  1
'12.11.27
  7
高2.5
100
AcDbText
  0
LINE
  5
793
330
36
100
AcDbEntity
  8
001
 62
     3
100
AcDbLine
 10
-224.9597051861574
 20
-37.433251
 30
0.0
 11
-224.9597051861574
 21
7.573749000000004
 31
0.0
  0
TEXT
  5
794
330
36
100
AcDbEntity
  8
001
 62
     3
100
AcDbText
 10
-236.3752377802299
 20
-26.93225099999999
 30
0.0
 40
3.2
  1
-
 41
0.8
  7
高3.2
100
AcDbText
  0
TEXT
  5
795
330
36
100
AcDbEntity
  8
001
 62
     3
100
AcDbText
 10
-236.3752377802299
 20
-16.93125099999999
 30
0.0
 40
3.2
  1
-
 41
0.8
  7
高3.2
100
AcDbText
  0
TEXT
  5
796
330
36
100
AcDbEntity
  8
001
 62
     3
100
AcDbText
 10
-236.3752377802299
 20
-1.928250999999994
 30
0.0
 40
3.2
  1
-
 41
0.8
  7
高3.2
100
AcDbText
  0
TEXT
  5
797
330
36
100
AcDbEntity
  8
001
 62
     3
100
AcDbText
 10
-236.3752377802299
 20
-11.93025099999999
 30
0.0
 40
3.2
  1
-
 41
0.8
  7
高3.2
100
AcDbText
  0
TEXT
  5
798
330
36
100
AcDbEntity
  8
001
 62
     3
100
AcDbText
 10
-236.3752377802299
 20
-31.933251
 30
0.0
 40
3.2
  1
-
 41
0.8
  7
高3.2
100
AcDbText
  0
TEXT
  5
799
330
36
100
AcDbEntity
  8
001
 62
     3
100
AcDbText
 10
-236.3752377802299
 20
-6.929250999999994
 30
0.0
 40
3.2
  1
-
 41
0.8
  7
高3.2
100
AcDbText
  0
TEXT
  5
79A
330
36
100
AcDbEntity
  8
001
 62
     3
100
AcDbText
 10
-236.3752377802299
 20
-21.93225099999999
 30
0.0
 40
3.2
  1
51812
 41
0.8
  7
高3.2
100
AcDbText
  0
TEXT
  5
79B
330
36
100
AcDbEntity
  8
001
 62
     3
100
AcDbText
 10
-236.37523778023
 20
-36.933251
 30
0.0
 40
3.2
  1
コード
 41
0.8
  7
高3.2
100
AcDbText
  0
LINE
  5
840
330
36
100
AcDbEntity
  8
001
100
AcDbLine
 10
-217.064836
 20
199.52834
 30
0.0
 11
-215.916696
 21
197.805272
 31
0.0
  0
LINE
  5
841
330
36
100
AcDbEntity
  8
001
100
AcDbLine
 10
-215.916696
 20
197.805272
 30
0.0
 11
-216.049481
 21
199.8715629999999
 31
0.0
  0
LINE
  5
842
330
36
100
AcDbEntity
  8
001
100
AcDbLine
 10
-181.6807889999999
 20
196.131315
 30
0.0
 11
-180.573449
 21
194.381748
 31
0.0
  0
LINE
  5
843
330
36
100
AcDbEntity
  8
001
100
AcDbLine
 10
-180.573449
 20
194.381748
 30
0.0
 11
-180.65765
 21
196.450587
 31
0.0
  0
LINE
  5
844
330
36
100
AcDbEntity
  8
001
100
AcDbLine
 10
-146.881494
 20
204.335992
 30
0.0
 11
-147.454803
 21
202.346393
 31
0.0
  0
LINE
  5
845
330
36
100
AcDbEntity
  8
001
100
AcDbLine
 10
-147.454803
 20
202.346393
 30
0.0
 11
-145.963503
 21
203.782782
 31
0.0
  0
LINE
  5
846
330
36
100
AcDbEntity
  8
001
100
AcDbLine
 10
-124.328042
 20
205.702928
 30
0.0
 11
-124.519512
 21
203.641248
 31
0.0
  0
LINE
  5
847
330
36
100
AcDbEntity
  8
001
100
AcDbLine
 10
-124.519512
 20
203.641248
 30
0.0
 11
-123.322854
 21
205.33098
 31
0.0
  0
LINE
  5
848
330
36
100
AcDbEntity
  8
001
100
AcDbLine
 10
-229.84575
 20
59.431596
 30
0.0
 11
-228.649092
 21
57.741864
 31
0.0
  0
LINE
  5
849
330
36
100
AcDbEntity
  8
001
100
AcDbLine
 10
-228.649092
 20
57.741864
 30
0.0
 11
-228.840562
 21
59.80354399999999
 31
0.0
  0
LINE
  5
84A
330
36
100
AcDbEntity
  8
001
100
AcDbLine
 10
-211.290758
 20
108.517379
 30
0.0
 11
-213.01803
 21
109.659184
 31
0.0
  0
LINE
  5
84B
330
36
100
AcDbEntity
  8
001
100
AcDbLine
 10
-213.01803
 20
109.659184
 30
0.0
 11
-212.093071
 21
107.806716
 31
0.0
  0
LINE
  5
84C
330
36
100
AcDbEntity
  8
001
100
AcDbLine
 10
-146.37032
 20
103.654443
 30
0.0
 11
-145.247099
 21
105.393858
 31
0.0
  0
LINE
  5
84D
330
36
100
AcDbEntity
  8
001
100
AcDbLine
 10
-145.247099
 20
105.393858
 30
0.0
 11
-147.089544
 21
104.449091
 31
0.0
  0
LINE
  5
84E
330
36
100
AcDbEntity
  8
001
100
AcDbLine
 10
-131.420827
 20
59.80354399999999
 30
0.0
 11
-131.612298
 21
57.741864
 31
0.0
  0
LINE
  5
84F
330
36
100
AcDbEntity
  8
001
100
AcDbLine
 10
-131.612298
 20
57.741864
 30
0.0
 11
-130.415639
 21
59.431596
 31
0.0
  0
LINE
  5
850
330
36
100
AcDbEntity
  8
001
100
AcDbLine
 10
-26.84237
 20
147.136995
 30
0.0
 11
-25.059835
 21
146.083546
 31
0.0
  0
LINE
  5
851
330
36
100
AcDbEntity
  8
001
100
AcDbLine
 10
-25.059835
 20
146.083546
 30
0.0
 11
-26.076831
 21
147.887127
 31
0.0
  0
LINE
  5
852
330
36
100
AcDbEntity
  8
001
100
AcDbLine
 10
-224.516626
 20
61.26055799999999
 30
0.0
 11
-225.039408
 21
59.257089
 31
0.0
  0
LINE
  5
853
330
36
100
AcDbEntity
  8
001
100
AcDbLine
 10
-225.039408
 20
59.257089
 30
0.0
 11
-223.584932
 21
60.730753
 31
0.0
  0
LINE
  5
854
330
36
100
AcDbEntity
  8
001
100
AcDbLine
 10
-137.050838
 20
60.573475
 30
0.0
 11
-135.452615
 21
59.257089
 31
0.0
  0
LINE
  5
855
330
36
100
AcDbEntity
  8
001
100
AcDbLine
 10
-135.452615
 20
59.257089
 30
0.0
 11
-136.178524
 21
61.196224
 31
0.0
  0
LINE
  5
856
330
36
100
AcDbEntity
  8
001
100
AcDbLine
 10
-221.468041
 20
189.317327
 30
0.0
 11
-221.538854
 21
189.306267
 31
0.0
  0
LINE
  5
857
330
36
100
AcDbEntity
  8
001
100
AcDbLine
 10
-221.538854
 20
189.306267
 30
0.0
 11
-221.606662
 21
189.292985
 31
0.0
  0
LINE
  5
858
330
36
100
AcDbEntity
  8
001
100
AcDbLine
 10
-221.606662
 20
189.292985
 30
0.0
 11
-221.67094
 21
189.277582
 31
0.0
  0
LINE
  5
859
330
36
100
AcDbEntity
  8
001
100
AcDbLine
 10
-221.67094
 20
189.277582
 30
0.0
 11
-221.73119
 21
189.260178
 31
0.0
  0
LINE
  5
85A
330
36
100
AcDbEntity
  8
001
100
AcDbLine
 10
-221.73119
 20
189.260178
 30
0.0
 11
-221.786948
 21
189.240908
 31
0.0
  0
LINE
  5
85B
330
36
100
AcDbEntity
  8
001
100
AcDbLine
 10
-221.786948
 20
189.240908
 30
0.0
 11
-221.837782
 21
189.21992
 31
0.0
  0
LINE
  5
85C
330
36
100
AcDbEntity
  8
001
100
AcDbLine
 10
-221.837782
 20
189.21992
 30
0.0
 11
-221.883299
 21
189.197377
 31
0.0
  0
LINE
  5
85D
330
36
100
AcDbEntity
  8
001
100
AcDbLine
 10
-221.883299
 20
189.197377
 30
0.0
 11
-221.923148
 21
189.173453
 31
0.0
  0
LINE
  5
85E
330
36
100
AcDbEntity
  8
001
100
AcDbLine
 10
-221.923148
 20
189.173453
 30
0.0
 11
-221.957021
 21
189.148332
 31
0.0
  0
LINE
  5
85F
330
36
100
AcDbEntity
  8
001
100
AcDbLine
 10
-221.957021
 20
189.148332
 30
0.0
 11
-221.984655
 21
189.12221
 31
0.0
  0
LINE
  5
860
330
36
100
AcDbEntity
  8
001
100
AcDbLine
 10
-221.984655
 20
189.12221
 30
0.0
 11
-222.005837
 21
189.095288
 31
0.0
  0
LINE
  5
861
330
36
100
AcDbEntity
  8
001
100
AcDbLine
 10
-222.005837
 20
189.095288
 30
0.0
 11
-222.020404
 21
189.067773
 31
0.0
  0
LINE
  5
862
330
36
100
AcDbEntity
  8
001
100
AcDbLine
 10
-222.020404
 20
189.067773
 30
0.0
 11
-222.028242
 21
189.039879
 31
0.0
  0
LINE
  5
863
330
36
100
AcDbEntity
  8
001
100
AcDbLine
 10
-222.028242
 20
189.039879
 30
0.0
 11
-222.029292
 21
189.011822
 31
0.0
  0
LINE
  5
864
330
36
100
AcDbEntity
  8
001
100
AcDbLine
 10
-222.029292
 20
189.011822
 30
0.0
 11
-222.023544
 21
188.983818
 31
0.0
  0
LINE
  5
865
330
36
100
AcDbEntity
  8
001
100
AcDbLine
 10
-222.023544
 20
188.983818
 30
0.0
 11
-222.011045
 21
188.956083
 31
0.0
  0
LINE
  5
866
330
36
100
AcDbEntity
  8
001
100
AcDbLine
 10
-222.011045
 20
188.956083
 30
0.0
 11
-221.991889
 21
188.928832
 31
0.0
  0
LINE
  5
867
330
36
100
AcDbEntity
  8
001
100
AcDbLine
 10
-221.991889
 20
188.928832
 30
0.0
 11
-221.966226
 21
188.902276
 31
0.0
  0
LINE
  5
868
330
36
100
AcDbEntity
  8
001
100
AcDbLine
 10
-221.966226
 20
188.902276
 30
0.0
 11
-221.934253
 21
188.87662
 31
0.0
  0
LINE
  5
869
330
36
100
AcDbEntity
  8
001
100
AcDbLine
 10
-221.934253
 20
188.87662
 30
0.0
 11
-221.896218
 21
188.852062
 31
0.0
  0
LINE
  5
86A
330
36
100
AcDbEntity
  8
001
100
AcDbLine
 10
-221.896218
 20
188.852062
 30
0.0
 11
-221.852414
 21
188.828792
 31
0.0
  0
LINE
  5
86B
330
36
100
AcDbEntity
  8
001
100
AcDbLine
 10
-221.852414
 20
188.828792
 30
0.0
 11
-221.803181
 21
188.8069899999999
 31
0.0
  0
LINE
  5
86C
330
36
100
AcDbEntity
  8
001
100
AcDbLine
 10
-221.803181
 20
188.8069899999999
 30
0.0
 11
-221.748898
 21
188.786824
 31
0.0
  0
LINE
  5
86D
330
36
100
AcDbEntity
  8
001
100
AcDbLine
 10
-221.748898
 20
188.786824
 30
0.0
 11
-221.689986
 21
188.768451
 31
0.0
  0
LINE
  5
86E
330
36
100
AcDbEntity
  8
001
100
AcDbLine
 10
-221.689986
 20
188.768451
 30
0.0
 11
-221.6269
 21
188.752012
 31
0.0
  0
LINE
  5
86F
330
36
100
AcDbEntity
  8
001
100
AcDbLine
 10
-221.6269
 20
188.752012
 30
0.0
 11
-221.560127
 21
188.737634
 31
0.0
  0
LINE
  5
870
330
36
100
AcDbEntity
  8
001
100
AcDbLine
 10
-221.560127
 20
188.737634
 30
0.0
 11
-221.490184
 21
188.725429
 31
0.0
  0
LINE
  5
871
330
36
100
AcDbEntity
  8
001
100
AcDbLine
 10
-221.490184
 20
188.725429
 30
0.0
 11
-221.41761
 21
188.71549
 31
0.0
  0
LINE
  5
872
330
36
100
AcDbEntity
  8
001
100
AcDbLine
 10
-221.41761
 20
188.71549
 30
0.0
 11
-221.342968
 21
188.707896
 31
0.0
  0
LINE
  5
873
330
36
100
AcDbEntity
  8
001
100
AcDbLine
 10
-221.342968
 20
188.707896
 30
0.0
 11
-221.266834
 21
188.702703
 31
0.0
  0
LINE
  5
874
330
36
100
AcDbEntity
  8
001
100
AcDbLine
 10
-221.266834
 20
188.702703
 30
0.0
 11
-221.189796
 21
188.699953
 31
0.0
  0
LINE
  5
875
330
36
100
AcDbEntity
  8
001
100
AcDbLine
 10
-221.189796
 20
188.699953
 30
0.0
 11
-221.11245
 21
188.699667
 31
0.0
  0
LINE
  5
876
330
36
100
AcDbEntity
  8
001
100
AcDbLine
 10
-221.11245
 20
188.699667
 30
0.0
 11
-221.035395
 21
188.701847
 31
0.0
  0
LINE
  5
877
330
36
100
AcDbEntity
  8
001
100
AcDbLine
 10
-221.035395
 20
188.701847
 30
0.0
 11
-220.959224
 21
188.706476
 31
0.0
  0
LINE
  5
878
330
36
100
AcDbEntity
  8
001
100
AcDbLine
 10
-220.959224
 20
188.706476
 30
0.0
 11
-220.884528
 21
188.713518
 31
0.0
  0
LINE
  5
879
330
36
100
AcDbEntity
  8
001
100
AcDbLine
 10
-220.884528
 20
188.713518
 30
0.0
 11
-220.811883
 21
188.722919
 31
0.0
  0
LINE
  5
87A
330
36
100
AcDbEntity
  8
001
100
AcDbLine
 10
-220.811883
 20
188.722919
 30
0.0
 11
-220.741851
 21
188.734606
 31
0.0
  0
LINE
  5
87B
330
36
100
AcDbEntity
  8
001
100
AcDbLine
 10
-220.741851
 20
188.734606
 30
0.0
 11
-220.674973
 21
188.74849
 31
0.0
  0
LINE
  5
87C
330
36
100
AcDbEntity
  8
001
100
AcDbLine
 10
-220.674973
 20
188.74849
 30
0.0
 11
-220.611767
 21
188.764461
 31
0.0
  0
LINE
  5
87D
330
36
100
AcDbEntity
  8
001
100
AcDbLine
 10
-220.611767
 20
188.764461
 30
0.0
 11
-220.552721
 21
188.782398
 31
0.0
  0
LINE
  5
87E
330
36
100
AcDbEntity
  8
001
100
AcDbLine
 10
-220.552721
 20
188.782398
 30
0.0
 11
-220.498291
 21
188.802162
 31
0.0
  0
LINE
  5
87F
330
36
100
AcDbEntity
  8
001
100
AcDbLine
 10
-220.498291
 20
188.802162
 30
0.0
 11
-220.448897
 21
188.823599
 31
0.0
  0
LINE
  5
880
330
36
100
AcDbEntity
  8
001
100
AcDbLine
 10
-220.448897
 20
188.823599
 30
0.0
 11
-220.404923
 21
188.846544
 31
0.0
  0
LINE
  5
881
330
36
100
AcDbEntity
  8
001
100
AcDbLine
 10
-220.404923
 20
188.846544
 30
0.0
 11
-220.366707
 21
188.87082
 31
0.0
  0
LINE
  5
882
330
36
100
AcDbEntity
  8
001
100
AcDbLine
 10
-220.366707
 20
188.87082
 30
0.0
 11
-220.334545
 21
188.896239
 31
0.0
  0
LINE
  5
883
330
36
100
AcDbEntity
  8
001
100
AcDbLine
 10
-220.334545
 20
188.896239
 30
0.0
 11
-220.308686
 21
188.922604
 31
0.0
  0
LINE
  5
884
330
36
100
AcDbEntity
  8
001
100
AcDbLine
 10
-220.308686
 20
188.922604
 30
0.0
 11
-220.289329
 21
188.949712
 31
0.0
  0
LINE
  5
885
330
36
100
AcDbEntity
  8
001
100
AcDbLine
 10
-220.289329
 20
188.949712
 30
0.0
 11
-220.276625
 21
188.977354
 31
0.0
  0
LINE
  5
886
330
36
100
AcDbEntity
  8
001
100
AcDbLine
 10
-220.276625
 20
188.977354
 30
0.0
 11
-220.27067
 21
189.005315
 31
0.0
  0
LINE
  5
887
330
36
100
AcDbEntity
  8
001
100
AcDbLine
 10
-220.27067
 20
189.005315
 30
0.0
 11
-220.271512
 21
189.033379
 31
0.0
  0
LINE
  5
888
330
36
100
AcDbEntity
  8
001
100
AcDbLine
 10
-220.271512
 20
189.033379
 30
0.0
 11
-220.279144
 21
189.06133
 31
0.0
  0
LINE
  5
889
330
36
100
AcDbEntity
  8
001
100
AcDbLine
 10
-220.279144
 20
189.06133
 30
0.0
 11
-220.293507
 21
189.088952
 31
0.0
  0
LINE
  5
88A
330
36
100
AcDbEntity
  8
001
100
AcDbLine
 10
-220.293507
 20
189.088952
 30
0.0
 11
-220.314489
 21
189.11603
 31
0.0
  0
LINE
  5
88B
330
36
100
AcDbEntity
  8
001
100
AcDbLine
 10
-220.314489
 20
189.11603
 30
0.0
 11
-220.341929
 21
189.142356
 31
0.0
  0
LINE
  5
88C
330
36
100
AcDbEntity
  8
001
100
AcDbLine
 10
-220.341929
 20
189.142356
 30
0.0
 11
-220.375615
 21
189.167727
 31
0.0
  0
LINE
  5
88D
330
36
100
AcDbEntity
  8
001
100
AcDbLine
 10
-220.375615
 20
189.167727
 30
0.0
 11
-220.415286
 21
189.191945
 31
0.0
  0
LINE
  5
88E
330
36
100
AcDbEntity
  8
001
100
AcDbLine
 10
-220.415286
 20
189.191945
 30
0.0
 11
-220.460635
 21
189.214825
 31
0.0
  0
LINE
  5
88F
330
36
100
AcDbEntity
  8
001
100
AcDbLine
 10
-220.460635
 20
189.214825
 30
0.0
 11
-220.511312
 21
189.236188
 31
0.0
  0
LINE
  5
890
330
36
100
AcDbEntity
  8
001
100
AcDbLine
 10
-220.511312
 20
189.236188
 30
0.0
 11
-220.566926
 21
189.25587
 31
0.0
  0
LINE
  5
891
330
36
100
AcDbEntity
  8
001
100
AcDbLine
 10
-220.566926
 20
189.25587
 30
0.0
 11
-220.627046
 21
189.273719
 31
0.0
  0
LINE
  5
892
330
36
100
AcDbEntity
  8
001
100
AcDbLine
 10
-220.627046
 20
189.273719
 30
0.0
 11
-220.691208
 21
189.289597
 31
0.0
  0
LINE
  5
893
330
36
100
AcDbEntity
  8
001
100
AcDbLine
 10
-220.691208
 20
189.289597
 30
0.0
 11
-220.758915
 21
189.303381
 31
0.0
  0
LINE
  5
894
330
36
100
AcDbEntity
  8
001
100
AcDbLine
 10
-220.758915
 20
189.303381
 30
0.0
 11
-220.829645
 21
189.314965
 31
0.0
  0
LINE
  5
895
330
36
100
AcDbEntity
  8
001
100
AcDbLine
 10
-42.408093
 20
127.575877
 30
0.0
 11
-41.10746999999999
 21
128.032139
 31
0.0
  0
LINE
  5
896
330
36
100
AcDbEntity
  8
001
100
AcDbLine
 10
-41.10746999999999
 20
128.032139
 30
0.0
 11
-39.970267
 21
127.968813
 31
0.0
  0
LINE
  5
897
330
36
100
AcDbEntity
  8
001
100
AcDbLine
 10
-39.970267
 20
127.968813
 30
0.0
 11
-39.362276
 21
127.451913
 31
0.0
  0
LINE
  5
898
330
36
100
AcDbEntity
  8
001
100
AcDbLine
 10
-39.362276
 20
127.451913
 30
0.0
 11
-38.828055
 21
126.707308
 31
0.0
  0
LINE
  5
899
330
36
100
AcDbEntity
  8
001
100
AcDbLine
 10
-42.40462599999999
 20
126.522658
 30
0.0
 11
-41.287319
 21
126.936398
 31
0.0
  0
LINE
  5
89A
330
36
100
AcDbEntity
  8
001
100
AcDbLine
 10
-41.287319
 20
126.936398
 30
0.0
 11
-40.32204899999999
 21
126.867439
 31
0.0
  0
LINE
  5
89B
330
36
100
AcDbEntity
  8
001
100
AcDbLine
 10
-40.32204899999999
 20
126.867439
 30
0.0
 11
-39.924819
 21
126.516291
 31
0.0
  0
LINE
  5
89C
330
36
100
AcDbEntity
  8
001
100
AcDbLine
 10
-39.924819
 20
126.516291
 30
0.0
 11
-39.569343
 21
126.03612
 31
0.0
  0
LINE
  5
89D
330
36
100
AcDbEntity
  8
001
100
AcDbLine
 10
-45.41383999999999
 20
126.707308
 30
0.0
 11
-44.330213
 21
126.926258
 31
0.0
  0
LINE
  5
89E
330
36
100
AcDbEntity
  8
001
100
AcDbLine
 10
-44.330213
 20
126.926258
 30
0.0
 11
-43.20532899999999
 21
127.256716
 31
0.0
  0
LINE
  5
89F
330
36
100
AcDbEntity
  8
001
100
AcDbLine
 10
-43.20532899999999
 20
127.256716
 30
0.0
 11
-42.80912899999999
 21
127.410433
 31
0.0
  0
LINE
  5
8A0
330
36
100
AcDbEntity
  8
001
100
AcDbLine
 10
-42.80912899999999
 20
127.410433
 30
0.0
 11
-42.408093
 21
127.575877
 31
0.0
  0
LINE
  5
8A1
330
36
100
AcDbEntity
  8
001
100
AcDbLine
 10
-45.17242999999999
 20
125.736885
 30
0.0
 11
-44.09914099999999
 21
125.943402
 31
0.0
  0
LINE
  5
8A2
330
36
100
AcDbEntity
  8
001
100
AcDbLine
 10
-44.09914099999999
 20
125.943402
 30
0.0
 11
-42.97709499999998
 21
126.283014
 31
0.0
  0
LINE
  5
8A3
330
36
100
AcDbEntity
  8
001
100
AcDbLine
 10
-42.97709499999998
 20
126.283014
 30
0.0
 11
-42.692432
 21
126.39891
 31
0.0
  0
LINE
  5
8A4
330
36
100
AcDbEntity
  8
001
100
AcDbLine
 10
-42.692432
 20
126.39891
 30
0.0
 11
-42.40462599999999
 21
126.522658
 31
0.0
  0
LINE
  5
8A5
330
36
100
AcDbEntity
  8
001
100
AcDbLine
 10
-79.93703100000002
 20
138.363829
 30
0.0
 11
-80.883365
 21
136.497928
 31
0.0
  0
LINE
  5
8A6
330
36
100
AcDbEntity
  8
001
100
AcDbLine
 10
-80.883365
 20
136.497928
 30
0.0
 11
-81.022017
 21
134.68974
 31
0.0
  0
LINE
  5
8A7
330
36
100
AcDbEntity
  8
001
100
AcDbLine
 10
-81.022017
 20
134.68974
 30
0.0
 11
-80.512341
 21
133.648626
 31
0.0
  0
LINE
  5
8A8
330
36
100
AcDbEntity
  8
001
100
AcDbLine
 10
-80.512341
 20
133.648626
 30
0.0
 11
-80.032153
 21
132.614891
 31
0.0
  0
LINE
  5
8A9
330
36
100
AcDbEntity
  8
001
100
AcDbLine
 10
-80.032153
 20
132.614891
 30
0.0
 11
-80.294454
 21
130.924226
 31
0.0
  0
LINE
  5
8AA
330
36
100
AcDbEntity
  8
001
100
AcDbLine
 10
-80.294454
 20
130.924226
 30
0.0
 11
-81.372779
 21
129.199415
 31
0.0
  0
LINE
  5
8AB
330
36
100
AcDbEntity
  8
001
100
AcDbLine
 10
-29.951224
 20
150.093329
 30
0.0
 11
-28.497696
 21
151.282208
 31
0.0
  0
LINE
  5
8AC
330
36
100
AcDbEntity
  8
001
100
AcDbLine
 10
-28.497696
 20
151.282208
 30
0.0
 11
-26.948934
 21
151.850114
 31
0.0
  0
LINE
  5
8AD
330
36
100
AcDbEntity
  8
001
100
AcDbLine
 10
-26.948934
 20
151.850114
 30
0.0
 11
-25.477631
 21
151.571552
 31
0.0
  0
LINE
  5
8AE
330
36
100
AcDbEntity
  8
001
100
AcDbLine
 10
-25.477631
 20
151.571552
 30
0.0
 11
-23.979343
 21
151.243711
 31
0.0
  0
LINE
  5
8AF
330
36
100
AcDbEntity
  8
001
100
AcDbLine
 10
-23.979343
 20
151.243711
 30
0.0
 11
-22.403148
 21
151.610372
 31
0.0
  0
LINE
  5
8B0
330
36
100
AcDbEntity
  8
001
100
AcDbLine
 10
-22.403148
 20
151.610372
 30
0.0
 11
-20.881932
 21
152.489216
 31
0.0
  0
LINE
  5
8B1
330
36
100
AcDbEntity
  8
001
100
AcDbLine
 10
-179.5053669999999
 20
174.662225
 30
0.0
 11
-284.879215
 21
174.662225
 31
0.0
  0
LINE
  5
8B2
330
36
100
AcDbEntity
  8
001
100
AcDbLine
 10
-179.5053669999999
 20
208.662225
 30
0.0
 11
-284.879215
 21
208.662225
 31
0.0
  0
LINE
  5
8B3
330
36
100
AcDbEntity
  8
001
100
AcDbLine
 10
-283.629215
 20
177.162225
 30
0.0
 11
-283.629215
 21
206.162225
 31
0.0
  0
LINE
  5
8B7
330
36
100
AcDbEntity
  8
001
100
AcDbLine
 10
-255.67623
 20
176.793066
 30
0.0
 11
-277.440233
 21
176.793066
 31
0.0
  0
LINE
  5
8B8
330
36
100
AcDbEntity
  8
001
100
AcDbLine
 10
-255.67623
 20
206.531385
 30
0.0
 11
-277.440233
 21
206.531385
 31
0.0
  0
LINE
  5
8B9
330
36
100
AcDbEntity
  8
001
100
AcDbLine
 10
-276.190233
 20
179.293066
 30
0.0
 11
-276.190233
 21
204.031385
 31
0.0
  0
LINE
  5
8BD
330
36
100
AcDbEntity
  8
001
100
AcDbLine
 10
-264.505367
 20
89.393858
 30
0.0
 11
-279.2391640000001
 21
89.393858
 31
0.0
  0
LINE
  5
8BE
330
36
100
AcDbEntity
  8
001
100
AcDbLine
 10
-264.505367
 20
148.404967
 30
0.0
 11
-279.239164
 21
148.404967
 31
0.0
  0
LINE
  5
8BF
330
36
100
AcDbEntity
  8
001
100
AcDbLine
 10
-277.9891640000001
 20
91.893858
 30
0.0
 11
-277.989164
 21
145.904967
 31
0.0
  0
LINE
  5
8C3
330
36
100
AcDbEntity
  8
001
100
AcDbLine
 10
-266.755367
 20
188.5242989999999
 30
0.0
 11
-266.755367
 21
161.213019
 31
0.0
  0
LINE
  5
8C4
330
36
100
AcDbEntity
  8
001
100
AcDbLine
 10
-91.755367
 20
188.5242989999999
 30
0.0
 11
-91.755367
 21
161.213019
 31
0.0
  0
LINE
  5
8C5
330
36
100
AcDbEntity
  8
001
100
AcDbLine
 10
-264.255367
 20
162.463019
 30
0.0
 11
-94.255367
 21
162.463019
 31
0.0
  0
TEXT
  5
8C9
330
36
100
AcDbEntity
  8
001
  6
Continuous
 62
     4
100
AcDbText
 10
-284.254215
 20
189.162225
 30
0.0
 40
3.0
  1
68
 50
90.0
100
AcDbText
  0
LINE
  5
8CA
330
36
100
AcDbEntity
  8
0
  6
ByBlock
 62
     0
370
    -2
100
AcDbLine
 10
-284.2990875
 20
206.162225
 30
0.0
 11
-283.629215
 21
208.662225
 31
0.0
  0
LINE
  5
8CB
330
36
100
AcDbEntity
  8
0
  6
ByBlock
 62
     0
370
    -2
100
AcDbLine
 10
-283.629215
 20
208.662225
 30
0.0
 11
-282.9593425
 21
206.162225
 31
0.0
  0
LINE
  5
8CC
330
36
100
AcDbEntity
  8
0
  6
ByBlock
 62
     0
370
    -2
100
AcDbLine
 10
-283.629215
 20
208.662225
 30
0.0
 11
-283.629215
 21
206.162225
 31
0.0
  0
LINE
  5
8CD
330
36
100
AcDbEntity
  8
0
  6
ByBlock
 62
     0
370
    -2
100
AcDbLine
 10
-282.9593425
 20
177.162225
 30
0.0
 11
-283.629215
 21
174.662225
 31
0.0
  0
LINE
  5
8CE
330
36
100
AcDbEntity
  8
0
  6
ByBlock
 62
     0
370
    -2
100
AcDbLine
 10
-283.629215
 20
174.662225
 30
0.0
 11
-284.2990875
 21
177.162225
 31
0.0
  0
LINE
  5
8CF
330
36
100
AcDbEntity
  8
0
  6
ByBlock
 62
     0
370
    -2
100
AcDbLine
 10
-283.629215
 20
174.662225
 30
0.0
 11
-283.629215
 21
177.162225
 31
0.0
  0
TEXT
  5
8D0
330
36
100
AcDbEntity
  8
001
  6
Continuous
 62
     4
100
AcDbText
 10
-276.8152330000001
 20
189.4122254999999
 30
0.0
 40
3.0
  1
60
 50
90.0
100
AcDbText
  0
LINE
  5
8D1
330
36
100
AcDbEntity
  8
0
  6
ByBlock
 62
     0
370
    -2
100
AcDbLine
 10
-276.8601055
 20
204.031385
 30
0.0
 11
-276.190233
 21
206.531385
 31
0.0
  0
LINE
  5
8D2
330
36
100
AcDbEntity
  8
0
  6
ByBlock
 62
     0
370
    -2
100
AcDbLine
 10
-276.190233
 20
206.531385
 30
0.0
 11
-275.5203605000001
 21
204.031385
 31
0.0
  0
LINE
  5
8D3
330
36
100
AcDbEntity
  8
0
  6
ByBlock
 62
     0
370
    -2
100
AcDbLine
 10
-276.190233
 20
206.531385
 30
0.0
 11
-276.190233
 21
204.031385
 31
0.0
  0
LINE
  5
8D4
330
36
100
AcDbEntity
  8
0
  6
ByBlock
 62
     0
370
    -2
100
AcDbLine
 10
-275.5203605000001
 20
179.293066
 30
0.0
 11
-276.190233
 21
176.793066
 31
0.0
  0
LINE
  5
8D5
330
36
100
AcDbEntity
  8
0
  6
ByBlock
 62
     0
370
    -2
100
AcDbLine
 10
-276.190233
 20
176.793066
 30
0.0
 11
-276.8601055
 21
179.293066
 31
0.0
  0
LINE
  5
8D6
330
36
100
AcDbEntity
  8
0
  6
ByBlock
 62
     0
370
    -2
100
AcDbLine
 10
-276.190233
 20
176.793066
 30
0.0
 11
-276.190233
 21
179.293066
 31
0.0
  0
TEXT
  5
8D7
330
36
100
AcDbEntity
  8
001
  6
Continuous
 62
     4
100
AcDbText
 10
-278.6141640000001
 20
115.8994124999999
 30
0.0
 40
3.0
  1
118
 50
90.0
100
AcDbText
  0
LINE
  5
8D8
330
36
100
AcDbEntity
  8
0
  6
ByBlock
 62
     0
370
    -2
100
AcDbLine
 10
-278.6590365
 20
145.904967
 30
0.0
 11
-277.989164
 21
148.404967
 31
0.0
  0
LINE
  5
8D9
330
36
100
AcDbEntity
  8
0
  6
ByBlock
 62
     0
370
    -2
100
AcDbLine
 10
-277.989164
 20
148.404967
 30
0.0
 11
-277.3192915
 21
145.904967
 31
0.0
  0
LINE
  5
8DA
330
36
100
AcDbEntity
  8
0
  6
ByBlock
 62
     0
370
    -2
100
AcDbLine
 10
-277.989164
 20
148.404967
 30
0.0
 11
-277.989164
 21
145.904967
 31
0.0
  0
LINE
  5
8DB
330
36
100
AcDbEntity
  8
0
  6
ByBlock
 62
     0
370
    -2
100
AcDbLine
 10
-277.3192915000001
 20
91.893858
 30
0.0
 11
-277.9891640000001
 21
89.393858
 31
0.0
  0
LINE
  5
8DC
330
36
100
AcDbEntity
  8
0
  6
ByBlock
 62
     0
370
    -2
100
AcDbLine
 10
-277.9891640000001
 20
89.393858
 30
0.0
 11
-278.6590365000001
 21
91.893858
 31
0.0
  0
LINE
  5
8DD
330
36
100
AcDbEntity
  8
0
  6
ByBlock
 62
     0
370
    -2
100
AcDbLine
 10
-277.9891640000001
 20
89.393858
 30
0.0
 11
-277.9891640000001
 21
91.893858
 31
0.0
  0
TEXT
  5
8DE
330
36
100
AcDbEntity
  8
001
  6
Continuous
 62
     4
100
AcDbText
 10
-183.005367
 20
163.088019
 30
0.0
 40
3.0
  1
350
100
AcDbText
  0
LINE
  5
8DF
330
36
100
AcDbEntity
  8
0
  6
ByBlock
 62
     0
370
    -2
100
AcDbLine
 10
-94.255367
 20
163.1328915
 30
0.0
 11
-91.755367
 21
162.463019
 31
0.0
  0
LINE
  5
8E0
330
36
100
AcDbEntity
  8
0
  6
ByBlock
 62
     0
370
    -2
100
AcDbLine
 10
-91.755367
 20
162.463019
 30
0.0
 11
-94.255367
 21
161.7931465
 31
0.0
  0
LINE
  5
8E1
330
36
100
AcDbEntity
  8
0
  6
ByBlock
 62
     0
370
    -2
100
AcDbLine
 10
-91.755367
 20
162.463019
 30
0.0
 11
-94.255367
 21
162.463019
 31
0.0
  0
LINE
  5
8E2
330
36
100
AcDbEntity
  8
0
  6
ByBlock
 62
     0
370
    -2
100
AcDbLine
 10
-264.255367
 20
161.7931465
 30
0.0
 11
-266.755367
 21
162.463019
 31
0.0
  0
LINE
  5
8E3
330
36
100
AcDbEntity
  8
0
  6
ByBlock
 62
     0
370
    -2
100
AcDbLine
 10
-266.755367
 20
162.463019
 30
0.0
 11
-264.255367
 21
163.1328915
 31
0.0
  0
LINE
  5
8E4
330
36
100
AcDbEntity
  8
0
  6
ByBlock
 62
     0
370
    -2
100
AcDbLine
 10
-266.755367
 20
162.463019
 30
0.0
 11
-264.255367
 21
162.463019
 31
0.0
  0
ENDSEC
  0
SECTION
  2
OBJECTS
  0
DICTIONARY
  5
C
330
0
100
AcDbDictionary
281
     1
  3
ACAD_2007HEADERVARS_RT
350
8E9
  3
ACAD_COLOR
350
2F
  3
ACAD_GROUP
350
D
  3
ACAD_LAYOUT
350
2E
  3
ACAD_MATERIAL
350
10
  3
ACAD_MLEADERSTYLE
350
55C
  3
ACAD_MLINESTYLE
350
2B
  3
ACAD_PLOTSETTINGS
350
2D
  3
ACAD_PLOTSTYLENAME
350
E
  3
ACAD_SCALELIST
350
54A
  3
ACAD_TABLESTYLE
350
30
  3
ACAD_VISUALSTYLE
350
14
  3
ACDB_RECOMPOSE_DATA
350
8E7
  3
AcDbVariableDictionary
350
52A
  3
DWGPROPS
350
8E8
  0
DICTIONARY
  5
603
330
2
100
AcDbDictionary
280
     1
281
     1
  3
ACAD_LAYERSTATES
360
604
  0
DICTIONARY
  5
79C
330
25
100
AcDbDictionary
280
     1
281
     1
  3
ADSK_XREC_LAYER_RECONCILED
360
79D
  0
DICTIONARY
  5
79E
330
52
100
AcDbDictionary
280
     1
281
     1
  3
ADSK_XREC_LAYER_RECONCILED
360
79F
  0
DICTIONARY
  5
791
330
36
100
AcDbDictionary
280
     1
281
     1
  3
ACAD_SORTENTS
360
792
  0
DICTIONARY
  5
8E9
102
{ACAD_REACTORS
330
C
102
}
330
C
100
AcDbDictionary
281
     1
  3
DIMARCSYM
350
8EB
  3
DIMFXL
350
8EA
  3
DIMJOGANG
350
8EC
  0
DICTIONARY
  5
2F
102
{ACAD_REACTORS
330
C
102
}
330
C
100
AcDbDictionary
281
     1
  0
DICTIONARY
  5
D
102
{ACAD_REACTORS
330
C
102
}
330
C
100
AcDbDictionary
281
     1
  0
DICTIONARY
  5
2E
102
{ACAD_REACTORS
330
C
102
}
330
C
100
AcDbDictionary
281
     1
  3
Model
350
39
  3
レイアウト1
350
35
  0
DICTIONARY
  5
10
102
{ACAD_REACTORS
330
C
102
}
330
C
100
AcDbDictionary
281
     1
  3
ByBlock
350
12
  3
ByLayer
350
11
  3
Global
350
13
  0
DICTIONARY
  5
55C
102
{ACAD_REACTORS
330
C
102
}
330
C
100
AcDbDictionary
281
     1
  3
Standard
350
55D
  0
DICTIONARY
  5
2B
102
{ACAD_REACTORS
330
C
102
}
330
C
100
AcDbDictionary
281
     1
  3
Standard
350
2C
  0
DICTIONARY
  5
2D
102
{ACAD_REACTORS
330
C
102
}
330
C
100
AcDbDictionary
281
     1
  0
ACDBDICTIONARYWDFLT
  5
E
102
{ACAD_REACTORS
330
C
102
}
330
C
100
AcDbDictionary
281
     1
  3
Normal
350
F
100
AcDbDictionaryWithDefault
340
F
  0
DICTIONARY
  5
54A
102
{ACAD_REACTORS
330
C
102
}
330
C
100
AcDbDictionary
281
     1
  3
A0
350
54B
  3
A1
350
54C
  3
A2
350
54D
  3
A3
350
54E
  3
A4
350
54F
  3
A5
350
550
  3
A6
350
551
  3
A7
350
552
  3
A8
350
553
  3
A9
350
554
  3
B0
350
555
  3
B1
350
556
  3
B2
350
557
  3
B3
350
558
  3
B4
350
559
  3
B5
350
55A
  3
B6
350
55B
  0
DICTIONARY
  5
30
102
{ACAD_REACTORS
330
C
102
}
330
C
100
AcDbDictionary
281
     1
  3
Standard
350
31
  0
DICTIONARY
  5
14
102
{ACAD_REACTORS
330
C
102
}
330
C
100
AcDbDictionary
281
     1
  3
2dWireframe
350
1A
  3
3D Hidden
350
1C
  3
3dWireframe
350
1B
  3
Basic
350
19
  3
Brighten
350
20
  3
ColorChange
350
24
  3
Conceptual
350
1D
  3
Dim
350
1F
  3
EdgeColorOff
350
549
  3
Facepattern
350
23
  3
Flat
350
15
  3
FlatWithEdges
350
16
  3
Gouraud
350
17
  3
GouraudWithEdges
350
18
  3
Hidden
350
541
  3
JitterOff
350
547
  3
Linepattern
350
22
  3
OverhangOff
350
548
  3
Realistic
350
1E
  3
Shaded
350
546
  3
Shaded with edges
350
545
  3
Shades of Gray
350
542
  3
Sketchy
350
543
  3
Thicken
350
21
  3
Wireframe
350
540
  3
X-Ray
350
544
  0
XRECORD
  5
8E7
102
{ACAD_REACTORS
330
C
102
}
330
C
100
AcDbXrecord
280
     1
 90
        1
330
31
  0
DICTIONARY
  5
52A
102
{ACAD_REACTORS
330
C
102
}
330
C
100
AcDbDictionary
281
     1
  3
CANNOSCALE
350
7A1
  3
CMLEADERSTYLE
350
7A0
  3
CTABLESTYLE
350
52B
  3
DIMASSOC
350
52E
  3
INDEXCTL
350
52D
  3
SORTENTS
350
52C
  3
XCLIPFRAME
350
7A2
  0
XRECORD
  5
8E8
102
{ACAD_REACTORS
330
C
102
}
330
C
100
AcDbXrecord
280
     1
  1
DWGPROPS COOKIE
  2

  3

  4

  6

  7

  8
imamura
  9

300
=
301
=
302
=
303
=
304
=
305
=
306
=
307
=
308
=
309
=
 40
0.0286234490740741
 41
2455646.753799572
 42
2456259.599537176
  1

 90
        0
  0
DICTIONARY
  5
604
102
{ACAD_REACTORS
330
603
102
}
330
603
100
AcDbDictionary
281
     1
  0
XRECORD
  5
79D
102
{ACAD_REACTORS
330
79C
102
}
330
79C
100
AcDbXrecord
280
     1
290
     1
  0
XRECORD
  5
79F
102
{ACAD_REACTORS
330
79E
102
}
330
79E
100
AcDbXrecord
280
     1
290
     1
  0
SORTENTSTABLE
  5
792
102
{ACAD_REACTORS
330
791
102
}
330
791
100
AcDbSortentsTable
330
36
331
400
  5
4A1
331
2F8
  5
38B
331
218
  5
269
331
411
  5
4B7
331
309
  5
39C
331
229
  5
27A
331
1C0
  5
218
331
502
  5
89E
331
422
  5
4E6
331
31A
  5
3AD
331
23A
  5
28B
331
1D1
  5
229
331
843
  5
88B
331
32B
  5
3BE
331
24B
  5
29C
331
1E2
  5
23A
331
63B
  5
8C7
331
433
  5
501
331
513
  5
8AF
331
FB
  5
158
331
854
  5
743
331
374
  5
404
331
25C
  5
2AD
331
64C
  5
8D8
331
444
  5
511
331
524
  5
8C0
331
10C
  5
169
331
385
  5
415
331
455
  5
522
331
865
  5
3CF
331
466
  5
643
331
876
  5
3E0
331
266
  5
2B7
331
11D
  5
17A
331
38F
  5
41F
331
277
  5
2C8
331
887
  5
3F1
331
3A0
  5
430
331
288
  5
2D9
331
3B1
  5
442
331
299
  5
2EA
331
150
  5
1A1
331
898
  5
196
331
161
  5
1B2
331
492
  5
849
331
3C2
  5
453
331
2AA
  5
2FB
331
99
  5
E0
331
3D3
  5
464
331
2BB
  5
30C
331
AA
  5
103
331
4A3
  5
85A
331
8B3
  5
D2
331
3E4
  5
485
331
2CC
  5
31D
331
17C
  5
1CD
331
3F5
  5
496
331
CC
  5
113
331
4C5
  5
873
331
8D5
  5
CA
331
18D
  5
1DE
331
4D6
  5
87E
331
1F6
  5
24E
331
DD
  5
124
331
4E7
  5
889
331
2E7
  5
37A
331
207
  5
258
331
19E
  5
1EF
331
1AF
  5
207
331
8C4
  5
94
331
2E8
  5
37B
331
208
  5
259
331
401
  5
4A2
331
2F9
  5
38C
331
219
  5
26A
331
1B0
  5
208
331
412
  5
4B8
331
30A
  5
39D
331
22A
  5
27B
331
1C1
  5
219
331
503
  5
89F
331
423
  5
4E7
331
31B
  5
3AE
331
23B
  5
28C
331
1D2
  5
22A
331
844
  5
885
331
32C
  5
3BF
331
24C
  5
29D
331
1E3
  5
23B
331
63C
  5
8C8
331
434
  5
502
331
514
  5
8B0
331
FC
  5
159
331
855
  5
744
331
375
  5
405
331
25D
  5
2AE
331
445
  5
512
331
525
  5
8C1
331
10D
  5
16A
331
386
  5
416
331
456
  5
523
331
866
  5
3D0
331
467
  5
644
331
877
  5
3E1
331
267
  5
2B8
331
11E
  5
17B
331
390
  5
420
331
278
  5
2C9
331
888
  5
3F2
331
3A1
  5
431
331
289
  5
2DA
331
3B2
  5
443
331
29A
  5
2EB
331
151
  5
1A2
331
899
  5
18F
331
162
  5
1B3
331
493
  5
84A
331
3C3
  5
454
331
2AB
  5
2FC
331
9A
  5
E1
331
4A4
  5
85B
331
3D4
  5
465
331
2BC
  5
30D
331
AB
  5
104
331
3E5
  5
486
331
2CD
  5
31E
331
4B5
  5
869
331
17D
  5
1CE
331
3F6
  5
497
331
CD
  5
114
331
4C6
  5
874
331
8D6
  5
CB
331
18E
  5
1DF
331
4D7
  5
87F
331
1F7
  5
24F
331
DE
  5
125
331
19F
  5
1F0
331
8C5
  5
95
331
2D8
  5
329
331
1F8
  5
250
331
2E9
  5
37C
331
209
  5
25A
331
1A0
  5
1F1
331
402
  5
4A3
331
2FA
  5
38D
331
21A
  5
26B
331
1B1
  5
209
331
413
  5
4BE
331
30B
  5
39E
331
22B
  5
27C
331
1C2
  5
21A
331
504
  5
8A0
331
424
  5
4E8
331
31C
  5
3AF
331
23C
  5
28D
331
1D3
  5
22B
331
63D
  5
8C9
331
845
  5
886
331
24D
  5
29E
331
1E4
  5
23C
331
515
  5
8B1
331
FD
  5
15A
331
376
  5
406
331
25E
  5
2AF
331
446
  5
513
331
856
  5
3C0
331
526
  5
8C2
331
10E
  5
16B
331
387
  5
417
331
457
  5
524
331
867
  5
3D1
331
468
  5
645
331
878
  5
3E2
331
268
  5
2B9
331
11F
  5
17C
331
391
  5
421
331
279
  5
2CA
331
889
  5
3F3
331
3A2
  5
432
331
28A
  5
2DB
331
483
  5
796
331
3B3
  5
444
331
29B
  5
2EC
331
152
  5
1A3
331
89A
  5
190
331
163
  5
1B4
331
494
  5
84B
331
3C4
  5
455
331
2AC
  5
2FD
331
9B
  5
E2
331
4A5
  5
85C
331
3D5
  5
466
331
2BD
  5
30E
331
3E6
  5
487
331
2CE
  5
31F
331
4B6
  5
86A
331
17E
  5
1CF
331
3F7
  5
498
331
CE
  5
115
331
4C7
  5
875
331
8D7
  5
C5
331
18F
  5
1E0
331
DF
  5
126
331
3F8
  5
499
331
1E8
  5
240
331
190
  5
1E1
331
8D8
  5
C2
331
2D9
  5
32A
331
1F9
  5
251
331
E0
  5
127
331
2EA
  5
37D
331
20A
  5
25B
331
1A1
  5
1F2
331
403
  5
4A4
331
2FB
  5
38E
331
21B
  5
26C
331
1B2
  5
20A
331
414
  5
4BF
331
30C
  5
39F
331
22C
  5
27D
331
1C3
  5
21B
331
505
  5
8A1
331
425
  5
4EE
331
31D
  5
3B0
331
23D
  5
28E
331
1D4
  5
22C
331
846
  5
880
331
24E
  5
29F
331
1E5
  5
23D
331
63E
  5
8CA
331
436
  5
503
331
516
  5
8B2
331
FE
  5
15B
331
377
  5
407
331
25F
  5
2B0
331
447
  5
514
331
857
  5
3C1
331
527
  5
8C3
331
10F
  5
16C
331
458
  5
525
331
868
  5
3D2
331
469
  5
646
331
879
  5
3E3
331
269
  5
2BA
331
120
  5
17D
331
392
  5
422
331
27A
  5
2CB
331
88A
  5
3F4
331
3A3
  5
433
331
28B
  5
2DC
331
484
  5
797
331
3B4
  5
445
331
29C
  5
2ED
331
153
  5
1A4
331
164
  5
1B5
331
495
  5
84C
331
3C5
  5
456
331
2AD
  5
2FE
331
9C
  5
F5
331
4A6
  5
85D
331
3D6
  5
467
331
2BE
  5
30F
331
4B7
  5
86B
331
3E7
  5
488
331
2CF
  5
320
331
89B
  5
191
331
CF
  5
116
331
17F
  5
1D0
331
3E8
  5
489
331
2D0
  5
321
331
180
  5
1D1
331
3F9
  5
49A
331
1E9
  5
241
331
D0
  5
117
331
191
  5
1E2
331
2DA
  5
32B
331
1FA
  5
252
331
E1
  5
128
331
2EB
  5
37E
331
20B
  5
25C
331
1A2
  5
1F3
331
404
  5
4A5
331
2FC
  5
38F
331
21C
  5
26D
331
1B3
  5
20B
331
4F5
  5
891
331
415
  5
4C0
331
30D
  5
3A0
331
22D
  5
27E
331
1C4
  5
21C
331
506
  5
8A2
331
426
  5
4EF
331
31E
  5
3B1
331
23E
  5
28F
331
1D5
  5
22D
331
847
  5
881
331
24F
  5
2A0
331
1E6
  5
23E
331
63F
  5
8CB
331
437
  5
504
331
517
  5
8B3
331
FF
  5
15C
331
378
  5
408
331
448
  5
515
331
858
  5
3C2
331
8D9
  5
C3
331
459
  5
526
331
869
  5
3D3
331
110
  5
16D
331
46A
  5
647
331
87A
  5
3E4
331
26A
  5
2BB
331
121
  5
17E
331
393
  5
423
331
27B
  5
2CC
331
88B
  5
3F5
331
3A4
  5
434
331
485
  5
798
331
3B5
  5
446
331
29D
  5
2EE
331
154
  5
1A5
331
89C
  5
192
331
496
  5
84D
331
3C6
  5
457
331
2AE
  5
2FF
331
9D
  5
F6
331
3D7
  5
468
331
2BF
  5
310
331
4A7
  5
85E
331
8B7
  5
C6
331
BF
  5
106
331
165
  5
1B6
331
28C
  5
2DD
331
3D8
  5
469
331
2C0
  5
311
331
4A8
  5
85F
331
8B8
  5
C7
331
170
  5
1C1
331
3E9
  5
48A
331
2D1
  5
322
331
C0
  5
107
331
181
  5
1D2
331
8C9
  5
D9
331
3FA
  5
49B
331
1EA
  5
242
331
D1
  5
118
331
192
  5
1E3
331
8DA
  5
C4
331
2DB
  5
32C
331
1FB
  5
253
331
2EC
  5
37F
331
20C
  5
25D
331
1A3
  5
1F4
331
405
  5
4A6
331
2FD
  5
390
331
21D
  5
26E
331
1B4
  5
20C
331
4F6
  5
892
331
416
  5
4C6
331
30E
  5
3A1
331
22E
  5
27F
331
1C5
  5
21D
331
507
  5
8A3
331
427
  5
4F0
331
31F
  5
3B2
331
23F
  5
290
331
1D6
  5
22E
331
848
  5
87B
331
250
  5
2A1
331
1E7
  5
23F
331
640
  5
8CC
331
438
  5
505
331
E2
  5
129
331
518
  5
8B4
331
100
  5
15D
331
449
  5
516
331
859
  5
3C3
331
379
  5
409
331
45A
  5
527
331
86A
  5
3D4
331
111
  5
16E
331
46B
  5
648
331
87B
  5
3E5
331
26B
  5
2BC
331
122
  5
17F
331
394
  5
424
331
88C
  5
3F6
331
3A5
  5
436
331
486
  5
799
331
3B6
  5
447
331
29E
  5
2EF
331
155
  5
1A6
331
89D
  5
18B
331
497
  5
84E
331
3C7
  5
458
331
2AF
  5
300
331
9E
  5
F7
331
166
  5
1B7
331
28D
  5
2DE
331
27C
  5
2CD
331
3C8
  5
459
331
2B0
  5
301
331
498
  5
84F
331
8A8
  5
14F
331
3D9
  5
46A
331
2C1
  5
312
331
4A9
  5
860
331
8B9
  5
C8
331
171
  5
1C2
331
3EA
  5
48B
331
2D2
  5
323
331
C1
  5
108
331
182
  5
1D3
331
8CA
  5
D6
331
3FB
  5
49C
331
1EB
  5
243
331
D2
  5
119
331
793
  5
8DC
331
193
  5
1E4
331
8DB
  5
BF
331
2DC
  5
32D
331
4ED
  5
88C
331
2ED
  5
380
331
20D
  5
25E
331
1A4
  5
1F5
331
406
  5
4A7
331
2FE
  5
391
331
21E
  5
26F
331
1B5
  5
20D
331
4F7
  5
893
331
417
  5
4C7
331
30F
  5
3A2
331
22F
  5
280
331
1C6
  5
21E
331
508
  5
8A4
331
428
  5
4F6
331
320
  5
3B3
331
240
  5
291
331
1D7
  5
22F
331
849
  5
87C
331
251
  5
2A2
331
641
  5
8CD
331
439
  5
506
331
1FC
  5
254
331
519
  5
8B5
331
101
  5
15E
331
44A
  5
517
331
85A
  5
3C4
331
37A
  5
40A
331
45B
  5
62C
331
86B
  5
3D5
331
46C
  5
649
331
87C
  5
3E6
331
26C
  5
2BD
331
123
  5
180
331
112
  5
16F
331
395
  5
425
331
88D
  5
3F7
331
3A6
  5
437
331
487
  5
79A
331
3B7
  5
448
331
29F
  5
2F0
331
156
  5
1A7
331
89E
  5
18C
331
167
  5
1B8
331
9F
  5
F8
331
28E
  5
2DF
331
27D
  5
2CE
331
488
  5
79B
331
3B8
  5
449
331
2A0
  5
2F1
331
168
  5
1B9
331
3C9
  5
45A
331
2B1
  5
302
331
A0
  5
F9
331
499
  5
850
331
8A9
  5
150
331
4AA
  5
861
331
3DA
  5
46B
331
2C2
  5
313
331
172
  5
1C3
331
3EB
  5
48C
331
2D3
  5
324
331
C2
  5
109
331
183
  5
1D4
331
8CB
  5
D7
331
3FC
  5
49D
331
1EC
  5
244
331
D3
  5
11A
331
794
  5
8DD
331
194
  5
1E5
331
8DC
  5
C0
331
4DD
  5
882
331
2DD
  5
370
331
1A5
  5
1F6
331
4EE
  5
88D
331
2EE
  5
381
331
20E
  5
25F
331
F5
  5
152
331
407
  5
4A8
331
2FF
  5
392
331
21F
  5
270
331
1B6
  5
20E
331
4F8
  5
894
331
418
  5
4C8
331
310
  5
3A3
331
230
  5
281
331
1C7
  5
21F
331
509
  5
8A5
331
429
  5
4F7
331
321
  5
3B4
331
241
  5
292
331
1D8
  5
230
331
84A
  5
876
331
252
  5
2A3
331
1FD
  5
255
331
642
  5
8CE
331
51A
  5
8B6
331
102
  5
15F
331
37B
  5
40B
331
44B
  5
518
331
45C
  5
639
331
86C
  5
3D6
331
113
  5
170
331
85B
  5
3C5
331
46D
  5
64A
331
87D
  5
3E7
331
26D
  5
2BE
331
396
  5
426
331
27E
  5
2CF
331
3A7
  5
438
331
28F
  5
2E0
331
146
  5
197
331
157
  5
1A8
331
89F
  5
18D
331
88E
  5
3F8
331
124
  5
181
331
43A
  5
507
331
3A8
  5
439
331
290
  5
2E1
331
489
  5
840
331
3B9
  5
44A
331
2A1
  5
2F2
331
158
  5
1A9
331
8A0
  5
18E
331
169
  5
1BA
331
3CA
  5
45B
331
2B2
  5
303
331
A1
  5
FA
331
49A
  5
851
331
8AA
  5
151
331
4AB
  5
862
331
3DB
  5
46C
331
2C3
  5
314
331
173
  5
1C4
331
3EC
  5
48D
331
2D4
  5
325
331
C3
  5
10A
331
184
  5
1D5
331
8CC
  5
D8
331
3FD
  5
49E
331
1ED
  5
245
331
D4
  5
11B
331
4CD
  5
878
331
8DD
  5
C1
331
795
  5
8DE
331
195
  5
1E6
331
4DE
  5
883
331
2DE
  5
371
331
1A6
  5
1F7
331
4EF
  5
88E
331
2EF
  5
382
331
20F
  5
260
331
F6
  5
153
331
408
  5
4A9
331
300
  5
393
331
220
  5
271
331
1B7
  5
20F
331
4F9
  5
895
331
419
  5
4CE
331
311
  5
3A4
331
231
  5
282
331
1C8
  5
220
331
50A
  5
8A6
331
42A
  5
4F8
331
322
  5
3B5
331
242
  5
293
331
1D9
  5
231
331
84B
  5
877
331
253
  5
2A4
331
643
  5
8CF
331
51B
  5
8B7
331
103
  5
160
331
37C
  5
40C
331
44C
  5
519
331
45D
  5
63A
331
86D
  5
3D7
331
114
  5
171
331
85C
  5
3C6
331
46E
  5
64B
331
87E
  5
3E8
331
26E
  5
2BF
331
397
  5
427
331
27F
  5
2D0
331
147
  5
198
331
88F
  5
3F9
331
125
  5
182
331
43B
  5
508
331
1FE
  5
256
331
398
  5
428
331
280
  5
2D1
331
890
  5
3FA
331
3A9
  5
43A
331
291
  5
2E2
331
148
  5
199
331
48A
  5
841
331
3BA
  5
44B
331
2A2
  5
2F3
331
159
  5
1AA
331
8A1
  5
187
331
16A
  5
1BB
331
3CB
  5
45C
331
2B3
  5
304
331
A2
  5
FB
331
49B
  5
852
331
8AB
  5
12A
331
4AC
  5
863
331
3DC
  5
46D
331
2C4
  5
315
331
174
  5
1C5
331
3ED
  5
48E
331
2D5
  5
326
331
C4
  5
10B
331
4BD
  5
86E
331
8CD
  5
D3
331
185
  5
1D6
331
3FE
  5
49F
331
1EE
  5
246
331
D5
  5
11C
331
4CE
  5
879
331
8DE
  5
A5
331
796
  5
8DF
331
196
  5
1E7
331
4DF
  5
884
331
1A7
  5
1F8
331
2F0
  5
383
331
210
  5
261
331
F7
  5
154
331
409
  5
4AA
331
301
  5
394
331
221
  5
272
331
1B8
  5
210
331
4FA
  5
896
331
41A
  5
4CF
331
312
  5
3A5
331
232
  5
283
331
1C9
  5
221
331
50B
  5
8A7
331
42B
  5
4F9
331
323
  5
3B6
331
243
  5
294
331
84C
  5
871
331
254
  5
2A5
331
1DA
  5
232
331
644
  5
8D0
331
51C
  5
8B8
331
104
  5
161
331
37D
  5
40D
331
44D
  5
51A
331
85D
  5
3C7
331
45E
  5
63B
331
86E
  5
3D8
331
115
  5
172
331
46F
  5
64C
331
87F
  5
3E9
331
26F
  5
2C0
331
126
  5
183
331
43C
  5
509
331
2DF
  5
372
331
388
  5
418
331
270
  5
2C1
331
880
  5
3EA
331
399
  5
429
331
281
  5
2D2
331
891
  5
3FB
331
3AA
  5
43B
331
292
  5
2E3
331
149
  5
19A
331
48B
  5
842
331
3BB
  5
44C
331
2A3
  5
2F4
331
15A
  5
1AB
331
8A2
  5
188
331
16B
  5
1BC
331
3CC
  5
45D
331
2B4
  5
305
331
A3
  5
FC
331
49C
  5
853
331
8AC
  5
147
331
3DD
  5
46E
331
2C5
  5
316
331
4AD
  5
864
331
8BD
  5
A6
331
175
  5
1C6
331
3EE
  5
48F
331
2D6
  5
327
331
C5
  5
10C
331
4BE
  5
86F
331
186
  5
1D7
331
3FF
  5
4A0
331
1EF
  5
247
331
D6
  5
11D
331
4CF
  5
87A
331
8DF
  5
9F
331
797
  5
8E0
331
2E0
  5
373
331
197
  5
1E8
331
2F1
  5
384
331
211
  5
262
331
1A8
  5
1F9
331
40A
  5
4AB
331
302
  5
395
331
222
  5
273
331
1B9
  5
211
331
4FB
  5
897
331
41B
  5
4D0
331
313
  5
3A6
331
233
  5
284
331
1CA
  5
222
331
50C
  5
8A8
331
42C
  5
4FA
331
324
  5
3B7
331
244
  5
295
331
1DB
  5
233
331
84D
  5
872
331
645
  5
8D1
331
43D
  5
50A
331
255
  5
2A6
331
51D
  5
8B9
331
37E
  5
40E
331
44E
  5
51B
331
85E
  5
3C8
331
45F
  5
63C
331
86F
  5
3D9
331
116
  5
173
331
127
  5
184
331
105
  5
162
331
8CE
  5
D4
331
460
  5
63D
331
870
  5
3DA
331
260
  5
2B1
331
389
  5
419
331
271
  5
2C2
331
128
  5
185
331
881
  5
3EB
331
39A
  5
42A
331
282
  5
2D3
331
892
  5
3FC
331
3AB
  5
43C
331
293
  5
2E4
331
14A
  5
19B
331
47B
  5
745
331
8A3
  5
189
331
15B
  5
1AC
331
743
  5
8D9
331
93
  5
DA
331
48C
  5
843
331
3BC
  5
44D
331
2A4
  5
2F5
331
16C
  5
1BD
331
3CD
  5
45E
331
2B5
  5
306
331
A4
  5
FD
331
49D
  5
854
331
8AD
  5
148
331
3DE
  5
46F
331
2C6
  5
317
331
4AE
  5
865
331
8BE
  5
A7
331
176
  5
1C7
331
3EF
  5
490
331
2D7
  5
328
331
C6
  5
10D
331
4BF
  5
870
331
187
  5
1D8
331
1F0
  5
248
331
D7
  5
11E
331
798
  5
8E1
331
198
  5
1E9
331
8E0
  5
A0
331
2E1
  5
374
331
2F2
  5
385
331
212
  5
263
331
1A9
  5
1FA
331
40B
  5
4AC
331
303
  5
396
331
223
  5
274
331
1BA
  5
212
331
4FC
  5
898
331
41C
  5
4D6
331
314
  5
3A7
331
234
  5
285
331
1CB
  5
223
331
50D
  5
8A9
331
42D
  5
4FB
331
325
  5
3B8
331
245
  5
296
331
1DC
  5
234
331
84E
  5
86C
331
646
  5
8D2
331
43E
  5
50B
331
256
  5
2A7
331
51E
  5
8BA
331
37F
  5
40F
331
44F
  5
51C
331
85F
  5
3C9
331
117
  5
174
331
106
  5
163
331
8CF
  5
D5
331
380
  5
410
331
450
  5
51D
331
860
  5
3CA
331
461
  5
63E
331
871
  5
3DB
331
261
  5
2B2
331
118
  5
175
331
38A
  5
41A
331
272
  5
2C3
331
129
  5
186
331
882
  5
3EC
331
39B
  5
42B
331
283
  5
2D4
331
893
  5
3FD
331
3AC
  5
43D
331
294
  5
2E5
331
14B
  5
19C
331
47C
  5
790
331
8A4
  5
18A
331
15C
  5
1AD
331
744
  5
8DA
331
94
  5
DB
331
48D
  5
844
331
3BD
  5
44E
331
2A5
  5
2F6
331
16D
  5
1BE
331
3CE
  5
45F
331
2B6
  5
307
331
A5
  5
FE
331
49E
  5
855
331
8AE
  5
149
331
3DF
  5
476
331
2C7
  5
318
331
4AF
  5
866
331
8BF
  5
AB
331
177
  5
1C8
331
3F0
  5
491
331
C7
  5
10E
331
188
  5
1D9
331
1F1
  5
249
331
D8
  5
11F
331
799
  5
8E2
331
199
  5
1EA
331
8E1
  5
A1
331
2E2
  5
375
331
2F3
  5
386
331
213
  5
264
331
1AA
  5
1FB
331
40C
  5
4AD
331
304
  5
397
331
224
  5
275
331
1BB
  5
213
331
4FD
  5
899
331
41D
  5
4D7
331
315
  5
3A8
331
235
  5
286
331
1CC
  5
224
331
50E
  5
8AA
331
42E
  5
4FC
331
326
  5
3B9
331
246
  5
297
331
1DD
  5
235
331
84F
  5
86D
331
36F
  5
3FF
331
257
  5
2A8
331
647
  5
8D3
331
43F
  5
50C
331
51F
  5
8BB
331
107
  5
164
331
8D0
  5
CF
331
850
  5
867
331
370
  5
400
331
258
  5
2A9
331
648
  5
8D4
331
440
  5
50D
331
520
  5
8BC
331
108
  5
165
331
381
  5
411
331
451
  5
51E
331
861
  5
3CB
331
462
  5
63F
331
872
  5
3DC
331
262
  5
2B3
331
119
  5
176
331
38B
  5
41B
331
273
  5
2C4
331
883
  5
3ED
331
39C
  5
42C
331
284
  5
2D5
331
894
  5
3FE
331
3AD
  5
43E
331
295
  5
2E6
331
14C
  5
19D
331
47D
  5
793
331
8A5
  5
14C
331
15D
  5
1AE
331
745
  5
8DB
331
95
  5
DC
331
48E
  5
845
331
3BE
  5
44F
331
2A6
  5
2F7
331
16E
  5
1BF
331
3CF
  5
460
331
2B7
  5
308
331
A6
  5
FF
331
49F
  5
856
331
8AF
  5
14A
331
3E0
  5
47C
331
2C8
  5
319
331
178
  5
1C9
331
3F1
  5
492
331
189
  5
1DA
331
8D1
  5
CC
331
C8
  5
10F
331
1F2
  5
24A
331
79A
  5
8E3
331
19A
  5
1EB
331
8E2
  5
99
331
2E3
  5
376
331
2F4
  5
387
331
214
  5
265
331
1AB
  5
1FC
331
40D
  5
4AE
331
305
  5
398
331
225
  5
276
331
1BC
  5
214
331
4FE
  5
89A
331
41E
  5
4D8
331
316
  5
3A9
331
236
  5
287
331
1CD
  5
225
331
50F
  5
8AB
331
42F
  5
4FD
331
327
  5
3BA
331
247
  5
298
331
1DE
  5
236
331
D9
  5
120
331
840
  5
88F
331
328
  5
3BB
331
248
  5
299
331
638
  5
8C4
331
430
  5
4FE
331
510
  5
8AC
331
F8
  5
155
331
851
  5
868
331
371
  5
401
331
259
  5
2AA
331
649
  5
8D5
331
441
  5
50E
331
521
  5
8BD
331
109
  5
166
331
382
  5
412
331
452
  5
51F
331
862
  5
3CC
331
463
  5
640
331
873
  5
3DD
331
263
  5
2B4
331
11A
  5
177
331
38C
  5
41C
331
274
  5
2C5
331
884
  5
3EE
331
39D
  5
42D
331
285
  5
2D6
331
3AE
  5
43F
331
296
  5
2E7
331
14D
  5
19E
331
895
  5
193
331
15E
  5
1AF
331
8A6
  5
14D
331
48F
  5
846
331
3BF
  5
450
331
2A7
  5
2F8
331
96
  5
DD
331
16F
  5
1C0
331
3D0
  5
461
331
2B8
  5
309
331
A7
  5
100
331
4A0
  5
857
331
8B0
  5
14B
331
3E1
  5
47D
331
2C9
  5
31A
331
179
  5
1CA
331
3F2
  5
493
331
18A
  5
1DB
331
8D2
  5
CD
331
1F3
  5
24B
331
DA
  5
121
331
C9
  5
110
331
79B
  5
8E4
331
19B
  5
1EC
331
2E4
  5
377
331
2F5
  5
388
331
215
  5
266
331
1AC
  5
1FD
331
40E
  5
4AF
331
306
  5
399
331
226
  5
277
331
1BD
  5
215
331
4FF
  5
89B
331
41F
  5
4DE
331
317
  5
3AA
331
237
  5
288
331
1CE
  5
226
331
1DF
  5
237
331
8E3
  5
9A
331
500
  5
89C
331
420
  5
4DF
331
318
  5
3AB
331
238
  5
289
331
841
  5
890
331
329
  5
3BC
331
249
  5
29A
331
1E0
  5
238
331
639
  5
8C5
331
431
  5
4FF
331
511
  5
8AD
331
F9
  5
156
331
852
  5
794
331
372
  5
402
331
25A
  5
2AB
331
64A
  5
8D6
331
442
  5
50F
331
522
  5
8BE
331
10A
  5
167
331
383
  5
413
331
453
  5
520
331
863
  5
3CD
331
464
  5
641
331
874
  5
3DE
331
264
  5
2B5
331
11B
  5
178
331
38D
  5
41D
331
275
  5
2C6
331
885
  5
3EF
331
39E
  5
42E
331
286
  5
2D7
331
3AF
  5
440
331
297
  5
2E8
331
14E
  5
19F
331
896
  5
194
331
15F
  5
1B0
331
8A7
  5
14E
331
490
  5
847
331
3C0
  5
451
331
2A8
  5
2F9
331
97
  5
DE
331
3D1
  5
462
331
2B9
  5
30A
331
A8
  5
101
331
4A1
  5
858
331
8B1
  5
D0
331
3E2
  5
47E
331
2CA
  5
31B
331
17A
  5
1CB
331
3F3
  5
494
331
CA
  5
111
331
18B
  5
1DC
331
1F4
  5
24C
331
DB
  5
122
331
4E5
  5
887
331
2E5
  5
378
331
19C
  5
1ED
331
8E4
  5
9B
331
8D3
  5
CE
331
2F6
  5
389
331
216
  5
267
331
40F
  5
4B0
331
307
  5
39A
331
227
  5
278
331
1BE
  5
216
331
1CF
  5
227
331
1AD
  5
1FE
331
410
  5
4B6
331
308
  5
39B
331
228
  5
279
331
501
  5
89D
331
421
  5
4E0
331
319
  5
3AC
331
239
  5
28A
331
1D0
  5
228
331
842
  5
88A
331
32A
  5
3BD
331
24A
  5
29B
331
1E1
  5
239
331
63A
  5
8C6
331
432
  5
500
331
512
  5
8AE
331
FA
  5
157
331
853
  5
795
331
373
  5
403
331
25B
  5
2AC
331
64B
  5
8D7
331
443
  5
510
331
523
  5
8BF
331
10B
  5
168
331
384
  5
414
331
454
  5
521
331
864
  5
3CE
331
465
  5
642
331
875
  5
3DF
331
265
  5
2B6
331
11C
  5
179
331
38E
  5
41E
331
276
  5
2C7
331
886
  5
3F0
331
39F
  5
42F
331
287
  5
2D8
331
3B0
  5
441
331
298
  5
2E9
331
14F
  5
1A0
331
897
  5
195
331
160
  5
1B1
331
491
  5
848
331
3C1
  5
452
331
2A9
  5
2FA
331
98
  5
DF
331
3D2
  5
463
331
2BA
  5
30B
331
A9
  5
102
331
4A2
  5
859
331
8B2
  5
D1
331
3E3
  5
484
331
2CB
  5
31C
331
17B
  5
1CC
331
3F4
  5
495
331
CB
  5
112
331
18C
  5
1DD
331
8D4
  5
C9
331
4D5
  5
87D
331
1F5
  5
24D
331
DC
  5
123
331
4E6
  5
888
331
2E6
  5
379
331
206
  5
257
331
19D
  5
1EE
331
2F7
  5
38A
331
217
  5
268
331
1AE
  5
206
331
1BF
  5
217
331
8C3
  5
93
  0
XRECORD
  5
8EB
102
{ACAD_REACTORS
330
8E9
102
}
330
8E9
100
AcDbXrecord
280
     1
 70
     2
  0
XRECORD
  5
8EA
102
{ACAD_REACTORS
330
8E9
102
}
330
8E9
100
AcDbXrecord
280
     1
 40
1.25
  0
XRECORD
  5
8EC
102
{ACAD_REACTORS
330
8E9
102
}
330
8E9
100
AcDbXrecord
280
     1
 40
1.570796326794896
  0
LAYOUT
  5
39
102
{ACAD_XDICTIONARY
360
910
102
}
102
{ACAD_REACTORS
330
2E
102
}
330
2E
100
AcDbPlotSettings
  1

  2
none_device
  4
Letter_(8.50_x_11.00_Inches)
  6

 40
6.349999904632568
 41
6.349999904632568
 42
6.350006103515625
 43
6.350006103515625
 44
215.8999938964844
 45
279.3999938964844
 46
0.0
 47
0.0
 48
0.0
 49
0.0
140
0.0
141
0.0
142
1.0
143
74.14543964897436
 70
 11952
 72
     0
 73
     1
 74
     0
  7

 75
     0
147
0.0134870061427147
148
15620.67900484257
149
3582.816741745474
100
AcDbLayout
  1
Model
 70
     1
 71
     0
 10
0.0
 20
0.0
 11
12.0
 21
9.0
 12
0.0
 22
0.0
 32
0.0
 14
0.0
 24
0.0
 34
0.0
 15
0.0
 25
0.0
 35
0.0
146
0.0
 13
0.0
 23
0.0
 33
0.0
 16
1.0
 26
0.0
 36
0.0
 17
0.0
 27
1.0
 37
0.0
 76
     0
330
36
331
56
1001
ACAD_PSEXT
1000
なし
1000
なし
1000
適切ではありません
1000
新しいプロッタ環境設定名を選択しない限り、レイアウトは印刷されません。
1070
     0
  0
LAYOUT
  5
35
102
{ACAD_XDICTIONARY
360
90E
102
}
102
{ACAD_REACTORS
330
2E
102
}
330
2E
100
AcDbPlotSettings
  1

  2
PDF Complete
  4

  6

 40
0.0
 41
0.0
 42
0.0
 43
0.0
 44
0.0
 45
0.0
 46
0.0
 47
0.0
 48
0.0
 49
0.0
140
0.0
141
0.0
142
1.0
143
1.0
 70
   688
 72
     0
 73
     0
 74
     5
  7

 75
    16
147
1.0
148
0.0
149
0.0
100
AcDbLayout
  1
レイアウト1
 70
     1
 71
     1
 10
0.0
 20
0.0
 11
12.0
 21
9.0
 12
0.0
 22
0.0
 32
0.0
 14
1.000000000000000E+20
 24
1.000000000000000E+20
 34
1.000000000000000E+20
 15
-1.000000000000000E+20
 25
-1.000000000000000E+20
 35
-1.000000000000000E+20
146
0.0
 13
0.0
 23
0.0
 33
0.0
 16
1.0
 26
0.0
 36
0.0
 17
0.0
 27
1.0
 37
0.0
 76
     0
330
32
  0
MATERIAL
  5
12
102
{ACAD_XDICTIONARY
360
532
102
}
102
{ACAD_REACTORS
330
10
102
}
330
10
100
AcDbMaterial
  1
ByBlock
  0
MATERIAL
  5
11
102
{ACAD_XDICTIONARY
360
530
102
}
102
{ACAD_REACTORS
330
10
102
}
330
10
100
AcDbMaterial
  1
ByLayer
  0
MATERIAL
  5
13
102
{ACAD_XDICTIONARY
360
534
102
}
102
{ACAD_REACTORS
330
10
102
}
330
10
100
AcDbMaterial
  1
Global
  0
MLEADERSTYLE
  5
55D
102
{ACAD_REACTORS
330
55C
102
}
330
55C
100
AcDbMLeaderStyle
170
     2
171
     1
172
     0
 90
        2
 40
0.0
 41
0.0
173
     1
 91
-1056964608
340
28
 92
       -2
290
     1
 42
0.09
291
     1
 43
0.36
  3
Standard
 44
0.18
300

342
26
174
     1
178
     6
175
     1
176
     0
 93
-1056964608
 45
0.18
292
     0
297
     0
 46
0.18
 94
-1056964608
 47
1.0
 49
1.0
140
1.0
293
     1
141
0.0
294
     1
177
     0
142
1.0
295
     0
296
     0
143
0.125
1001
ACAD_MLEADERVER
1070
     2
  0
MLINESTYLE
  5
2C
102
{ACAD_REACTORS
330
2B
102
}
330
2B
100
AcDbMlineStyle
  2
STANDARD
 70
     0
  3

 62
   256
 51
90.0
 52
90.0
 71
     2
 49
0.5
 62
   256
  6
BYLAYER
 49
-0.5
 62
   256
  6
BYLAYER
  0
ACDBPLACEHOLDER
  5
F
102
{ACAD_REACTORS
330
E
102
}
330
E
  0
SCALE
  5
54B
102
{ACAD_REACTORS
330
54A
102
}
330
54A
100
AcDbScale
 70
     0
300
1:1
140
1.0
141
1.0
290
     1
  0
SCALE
  5
54C
102
{ACAD_REACTORS
330
54A
102
}
330
54A
100
AcDbScale
 70
     0
300
1/128" = 1'-0"
140
0.0078125
141
12.0
290
     0
  0
SCALE
  5
54D
102
{ACAD_REACTORS
330
54A
102
}
330
54A
100
AcDbScale
 70
     0
300
1/64" = 1'-0"
140
0.015625
141
12.0
290
     0
  0
SCALE
  5
54E
102
{ACAD_REACTORS
330
54A
102
}
330
54A
100
AcDbScale
 70
     0
300
1/32" = 1'-0"
140
0.03125
141
12.0
290
     0
  0
SCALE
  5
54F
102
{ACAD_REACTORS
330
54A
102
}
330
54A
100
AcDbScale
 70
     0
300
1/16" = 1'-0"
140
0.0625
141
12.0
290
     0
  0
SCALE
  5
550
102
{ACAD_REACTORS
330
54A
102
}
330
54A
100
AcDbScale
 70
     0
300
3/32" = 1'-0"
140
0.09375
141
12.0
290
     0
  0
SCALE
  5
551
102
{ACAD_REACTORS
330
54A
102
}
330
54A
100
AcDbScale
 70
     0
300
1/8" = 1'-0"
140
0.125
141
12.0
290
     0
  0
SCALE
  5
552
102
{ACAD_REACTORS
330
54A
102
}
330
54A
100
AcDbScale
 70
     0
300
3/16" = 1'-0"
140
0.1875
141
12.0
290
     0
  0
SCALE
  5
553
102
{ACAD_REACTORS
330
54A
102
}
330
54A
100
AcDbScale
 70
     0
300
1/4" = 1'-0"
140
0.25
141
12.0
290
     0
  0
SCALE
  5
554
102
{ACAD_REACTORS
330
54A
102
}
330
54A
100
AcDbScale
 70
     0
300
3/8" = 1'-0"
140
0.375
141
12.0
290
     0
  0
SCALE
  5
555
102
{ACAD_REACTORS
330
54A
102
}
330
54A
100
AcDbScale
 70
     0
300
1/2" = 1'-0"
140
0.5
141
12.0
290
     0
  0
SCALE
  5
556
102
{ACAD_REACTORS
330
54A
102
}
330
54A
100
AcDbScale
 70
     0
300
3/4" = 1'-0"
140
0.75
141
12.0
290
     0
  0
SCALE
  5
557
102
{ACAD_REACTORS
330
54A
102
}
330
54A
100
AcDbScale
 70
     0
300
1" = 1'-0"
140
1.0
141
12.0
290
     0
  0
SCALE
  5
558
102
{ACAD_REACTORS
330
54A
102
}
330
54A
100
AcDbScale
 70
     0
300
1-1/2" = 1'-0"
140
1.5
141
12.0
290
     0
  0
SCALE
  5
559
102
{ACAD_REACTORS
330
54A
102
}
330
54A
100
AcDbScale
 70
     0
300
3" = 1'-0"
140
3.0
141
12.0
290
     0
  0
SCALE
  5
55A
102
{ACAD_REACTORS
330
54A
102
}
330
54A
100
AcDbScale
 70
     0
300
6" = 1'-0"
140
6.0
141
12.0
290
     0
  0
SCALE
  5
55B
102
{ACAD_REACTORS
330
54A
102
}
330
54A
100
AcDbScale
 70
     0
300
1'-0" = 1'-0"
140
12.0
141
12.0
290
     0
  0
TABLESTYLE
  5
31
102
{ACAD_XDICTIONARY
360
8E5
102
}
102
{ACAD_REACTORS
330
30
102
}
330
30
100
AcDbTableStyle
  3
Standard
 70
     0
 71
     0
 40
0.06
 41
0.06
280
     0
281
     0
  7
STANDARD
140
0.18
170
     2
 62
     0
 63
     7
283
     0
274
    -2
284
     1
 64
     0
275
    -2
285
     1
 65
     0
276
    -2
286
     1
 66
     0
277
    -2
287
     1
 67
     0
278
    -2
288
     1
 68
     0
279
    -2
289
     1
 69
     0
  7
STANDARD
140
0.25
170
     5
 62
     0
 63
     7
283
     0
274
    -2
284
     1
 64
     0
275
    -2
285
     1
 65
     0
276
    -2
286
     1
 66
     0
277
    -2
287
     1
 67
     0
278
    -2
288
     1
 68
     0
279
    -2
289
     1
 69
     0
  7
STANDARD
140
0.18
170
     5
 62
     0
 63
     7
283
     0
274
    -2
284
     1
 64
     0
275
    -2
285
     1
 65
     0
276
    -2
286
     1
 66
     0
277
    -2
287
     1
 67
     0
278
    -2
288
     1
 68
     0
279
    -2
289
     1
 69
     0
  0
VISUALSTYLE
  5
1A
102
{ACAD_XDICTIONARY
360
8F7
102
}
102
{ACAD_REACTORS
330
14
102
}
330
14
100
AcDbVisualStyle
  2

 70
     4
 71
     0
 72
     2
 73
     0
 90
        0
 40
-0.6
 41
-30.0
 62
     5
 63
     7
 74
     1
 91
        4
 64
     7
 65
   257
 75
     1
175
     1
 42
1.0
 92
        0
 66
   257
 43
1.0
 76
     1
 77
     6
 78
     2
 67
     7
 79
     5
170
     0
171
     0
290
     0
174
     0
 93
        1
 44
0.0
173
     0
291
     0
 45
0.0
1001
ACAD
1000
AcDbSavedByObjectVersion
1070
     0
  0
VISUALSTYLE
  5
1C
102
{ACAD_XDICTIONARY
360
8FB
102
}
102
{ACAD_REACTORS
330
14
102
}
330
14
100
AcDbVisualStyle
  2

 70
     6
 71
     1
 72
     2
 73
     2
 90
        0
 40
-0.6
 41
-30.0
 62
     5
 63
     7
 74
     2
 91
        2
 64
     7
 65
   257
 75
     2
175
     1
 42
40.0
 92
        0
 66
   257
 43
1.0
 76
     1
 77
     6
 78
     2
 67
     7
 79
     3
170
     0
171
     0
290
     0
174
     0
 93
        1
 44
0.0
173
     0
291
     0
 45
0.0
1001
ACAD
1000
AcDbSavedByObjectVersion
1070
     0
  0
VISUALSTYLE
  5
1B
102
{ACAD_XDICTIONARY
360
8F9
102
}
102
{ACAD_REACTORS
330
14
102
}
330
14
100
AcDbVisualStyle
  2

 70
     5
 71
     0
 72
     2
 73
     0
 90
        0
 40
-0.6
 41
-30.0
 62
     5
 63
     7
 74
     1
 91
        4
 64
     7
 65
   257
 75
     1
175
     1
 42
1.0
 92
        0
 66
   257
 43
1.0
 76
     1
 77
     6
 78
     2
 67
     7
 79
     5
170
     0
171
     0
290
     0
174
     0
 93
        1
 44
0.0
173
     0
291
     0
 45
0.0
1001
ACAD
1000
AcDbSavedByObjectVersion
1070
     0
  0
VISUALSTYLE
  5
19
102
{ACAD_XDICTIONARY
360
8F5
102
}
102
{ACAD_REACTORS
330
14
102
}
330
14
100
AcDbVisualStyle
  2

 70
     7
 71
     1
 72
     0
 73
     1
 90
        0
 40
-0.6
 41
-30.0
 62
     5
 63
     7
 74
     0
 91
        4
 64
     7
 65
   257
 75
     1
175
     1
 42
1.0
 92
        8
 66
     7
 43
1.0
 76
     1
 77
     6
 78
     2
 67
     7
 79
     5
170
     0
171
     0
290
     0
174
     0
 93
        1
 44
0.0
173
     0
291
     1
 45
0.0
1001
ACAD
1000
AcDbSavedByObjectVersion
1070
     0
  0
VISUALSTYLE
  5
20
102
{ACAD_XDICTIONARY
360
903
102
}
102
{ACAD_REACTORS
330
14
102
}
330
14
100
AcDbVisualStyle
  2

 70
    12
 71
     2
 72
     2
 73
     0
 90
        0
 40
-0.6
 41
-30.0
 62
     5
 63
     7
 74
     1
 91
        4
 64
     7
 65
   257
 75
     1
175
     1
 42
1.0
 92
        8
 66
     7
 43
1.0
 76
     1
 77
     6
 78
     2
 67
     7
 79
     5
170
     0
171
     0
290
     0
174
     0
 93
        1
 44
50.0
173
     0
291
     1
 45
0.0
1001
ACAD
1000
AcDbSavedByObjectVersion
1070
     0
  0
VISUALSTYLE
  5
24
102
{ACAD_XDICTIONARY
360
90B
102
}
102
{ACAD_REACTORS
330
14
102
}
330
14
100
AcDbVisualStyle
  2

 70
    16
 71
     2
 72
     2
 73
     3
 90
        0
 40
-0.6
 41
-30.0
 62
     5
 63
     8
 74
     1
 91
        4
 64
     7
 65
   257
 75
     1
175
     1
 42
1.0
 92
        8
 66
     8
 43
1.0
 76
     1
 77
     6
 78
     2
 67
     7
 79
     5
170
     0
171
     0
290
     0
174
     0
 93
        1
 44
0.0
173
     0
291
     1
 45
0.0
1001
ACAD
1000
AcDbSavedByObjectVersion
1070
     0
  0
VISUALSTYLE
  5
1D
102
{ACAD_XDICTIONARY
360
8FD
102
}
102
{ACAD_REACTORS
330
14
102
}
330
14
100
AcDbVisualStyle
  2

 70
     9
 71
     3
 72
     2
 73
     0
 90
        0
 40
-0.6
 41
-30.0
 62
     5
 63
     7
 74
     2
 91
        2
 64
     7
 65
   257
 75
     1
175
     1
 42
40.0
 92
        8
 66
     7
 43
1.0
 76
     1
 77
     6
 78
     2
 67
     7
 79
     3
170
     0
171
     0
290
     0
174
     0
 93
        1
 44
0.0
173
     0
291
     0
 45
0.0
1001
ACAD
1000
AcDbSavedByObjectVersion
1070
     0
  0
VISUALSTYLE
  5
1F
102
{ACAD_XDICTIONARY
360
901
102
}
102
{ACAD_REACTORS
330
14
102
}
330
14
100
AcDbVisualStyle
  2

 70
    11
 71
     2
 72
     2
 73
     0
 90
        0
 40
-0.6
 41
-30.0
 62
     5
 63
     7
 74
     1
 91
        4
 64
     7
 65
   257
 75
     1
175
     1
 42
1.0
 92
        8
 66
     7
 43
1.0
 76
     1
 77
     6
 78
     2
 67
     7
 79
     5
170
     0
171
     0
290
     0
174
     0
 93
        1
 44
-50.0
173
     0
291
     1
 45
0.0
1001
ACAD
1000
AcDbSavedByObjectVersion
1070
     0
  0
VISUALSTYLE
  5
549
102
{ACAD_XDICTIONARY
360
924
102
}
102
{ACAD_REACTORS
330
14
102
}
330
14
100
AcDbVisualStyle
  2
EdgeColorOff
 70
    22
 71
     2
 72
     2
 73
     0
 90
        0
 40
-0.6
 41
-30.0
 62
     5
 63
     7
 74
     1
 91
        4
 64
     7
 65
   257
 75
     1
175
     1
 42
1.0
 92
        8
 66
     7
 43
1.0
 76
     1
 77
     6
 78
     2
 67
     7
 79
     5
170
     0
171
     0
290
     0
174
     0
 93
        1
 44
0.0
173
     0
291
     1
 45
0.0
1001
ACAD
1000
AcDbSavedByObjectVersion
1070
     0
  0
VISUALSTYLE
  5
23
102
{ACAD_XDICTIONARY
360
909
102
}
102
{ACAD_REACTORS
330
14
102
}
330
14
100
AcDbVisualStyle
  2

 70
    15
 71
     2
 72
     2
 73
     0
 90
        0
 40
-0.6
 41
-30.0
 62
     5
 63
     7
 74
     1
 91
        4
 64
     7
 65
   257
 75
     1
175
     1
 42
1.0
 92
        8
 66
     7
 43
1.0
 76
     1
 77
     6
 78
     2
 67
     7
 79
     5
170
     0
171
     0
290
     0
174
     0
 93
        1
 44
0.0
173
     0
291
     1
 45
0.0
1001
ACAD
1000
AcDbSavedByObjectVersion
1070
     0
  0
VISUALSTYLE
  5
15
102
{ACAD_XDICTIONARY
360
8ED
102
}
102
{ACAD_REACTORS
330
14
102
}
330
14
100
AcDbVisualStyle
  2

 70
     0
 71
     2
 72
     1
 73
     1
 90
        2
 40
-0.6
 41
30.0
 62
     5
 63
     7
 74
     0
 91
        4
 64
     7
 65
   257
 75
     1
175
     1
 42
1.0
 92
        8
 66
     7
 43
1.0
 76
     1
 77
     6
 78
     2
 67
     7
 79
     5
170
     0
171
     0
290
     0
174
     0
 93
       13
 44
0.0
173
     0
291
     1
 45
0.0
1001
ACAD
1000
AcDbSavedByObjectVersion
1070
     0
  0
VISUALSTYLE
  5
16
102
{ACAD_XDICTIONARY
360
8EF
102
}
102
{ACAD_REACTORS
330
14
102
}
330
14
100
AcDbVisualStyle
  2

 70
     1
 71
     2
 72
     1
 73
     1
 90
        2
 40
-0.6
 41
30.0
 62
     5
 63
     7
 74
     1
 91
        4
 64
     7
 65
   257
 75
     1
175
     1
 42
1.0
 92
        0
 66
   257
 43
1.0
 76
     1
 77
     6
 78
     2
 67
     7
 79
     5
170
     0
171
     0
290
     0
174
     0
 93
       13
 44
0.0
173
     0
291
     1
 45
0.0
1001
ACAD
1000
AcDbSavedByObjectVersion
1070
     0
  0
VISUALSTYLE
  5
17
102
{ACAD_XDICTIONARY
360
8F1
102
}
102
{ACAD_REACTORS
330
14
102
}
330
14
100
AcDbVisualStyle
  2

 70
     2
 71
     2
 72
     2
 73
     1
 90
        2
 40
-0.6
 41
30.0
 62
     5
 63
     7
 74
     0
 91
        4
 64
     7
 65
   257
 75
     1
175
     1
 42
1.0
 92
        0
 66
     7
 43
1.0
 76
     1
 77
     6
 78
     2
 67
     7
 79
     5
170
     0
171
     0
290
     0
174
     0
 93
       13
 44
0.0
173
     0
291
     1
 45
0.0
1001
ACAD
1000
AcDbSavedByObjectVersion
1070
     0
  0
VISUALSTYLE
  5
18
102
{ACAD_XDICTIONARY
360
8F3
102
}
102
{ACAD_REACTORS
330
14
102
}
330
14
100
AcDbVisualStyle
  2

 70
     3
 71
     2
 72
     2
 73
     1
 90
        2
 40
-0.6
 41
30.0
 62
     5
 63
     7
 74
     1
 91
        4
 64
     7
 65
   257
 75
     1
175
     1
 42
1.0
 92
        0
 66
   257
 43
1.0
 76
     1
 77
     6
 78
     2
 67
     7
 79
     5
170
     0
171
     0
290
     0
174
     0
 93
       13
 44
0.0
173
     0
291
     1
 45
0.0
1001
ACAD
1000
AcDbSavedByObjectVersion
1070
     0
  0
VISUALSTYLE
  5
541
102
{ACAD_XDICTIONARY
360
914
102
}
102
{ACAD_REACTORS
330
14
102
}
330
14
100
AcDbVisualStyle
  2
Hidden
 70
     6
 71
     1
 72
     2
 73
     2
 90
        0
 40
-0.6
 41
-30.0
 62
     5
 63
     7
 74
     2
 91
        2
 64
     7
 65
   257
 75
     2
175
     1
 42
40.0
 92
        0
 66
   257
 43
1.0
 76
     1
 77
     6
 78
     2
 67
     7
 79
     3
170
     0
171
     0
290
     0
174
     0
 93
        1
 44
0.0
173
     0
291
     0
 45
0.0
1001
ACAD
1000
AcDbSavedByObjectVersion
1070
     0
  0
VISUALSTYLE
  5
547
102
{ACAD_XDICTIONARY
360
920
102
}
102
{ACAD_REACTORS
330
14
102
}
330
14
100
AcDbVisualStyle
  2
JitterOff
 70
    20
 71
     2
 72
     2
 73
     0
 90
        0
 40
-0.6
 41
-30.0
 62
     5
 63
     7
 74
     1
 91
        4
 64
     7
 65
   257
 75
     1
175
     1
 42
1.0
 92
       10
 66
     7
 43
1.0
 76
     1
 77
     6
 78
     2
 67
     7
 79
     5
170
     0
171
     0
290
     0
174
     0
 93
        1
 44
0.0
173
     0
291
     1
 45
0.0
1001
ACAD
1000
AcDbSavedByObjectVersion
1070
     0
  0
VISUALSTYLE
  5
22
102
{ACAD_XDICTIONARY
360
907
102
}
102
{ACAD_REACTORS
330
14
102
}
330
14
100
AcDbVisualStyle
  2

 70
    14
 71
     2
 72
     2
 73
     0
 90
        0
 40
-0.6
 41
-30.0
 62
     5
 63
     7
 74
     1
 91
        4
 64
     7
 65
   257
 75
     7
175
     7
 42
1.0
 92
        8
 66
     7
 43
1.0
 76
     1
 77
     6
 78
     2
 67
     7
 79
     5
170
     0
171
     0
290
     0
174
     0
 93
        1
 44
0.0
173
     0
291
     1
 45
0.0
1001
ACAD
1000
AcDbSavedByObjectVersion
1070
     0
  0
VISUALSTYLE
  5
548
102
{ACAD_XDICTIONARY
360
922
102
}
102
{ACAD_REACTORS
330
14
102
}
330
14
100
AcDbVisualStyle
  2
OverhangOff
 70
    21
 71
     2
 72
     2
 73
     0
 90
        0
 40
-0.6
 41
-30.0
 62
     5
 63
     7
 74
     1
 91
        4
 64
     7
 65
   257
 75
     1
175
     1
 42
1.0
 92
        9
 66
     7
 43
1.0
 76
     1
 77
     6
 78
     2
 67
     7
 79
     5
170
     0
171
     0
290
     0
174
     0
 93
        1
 44
0.0
173
     0
291
     1
 45
0.0
1001
ACAD
1000
AcDbSavedByObjectVersion
1070
     0
  0
VISUALSTYLE
  5
1E
102
{ACAD_XDICTIONARY
360
8FF
102
}
102
{ACAD_REACTORS
330
14
102
}
330
14
100
AcDbVisualStyle
  2

 70
     8
 71
     2
 72
     2
 73
     0
 90
        0
 40
-0.6
 41
-30.0
 62
     5
 63
     7
 74
     1
 91
        0
 64
     7
 65
   257
 75
     1
175
     1
 42
1.0
 92
        8
 66
     8
 43
1.0
 76
     1
 77
     6
 78
     2
 67
     7
 79
     5
170
     0
171
     0
290
     0
174
     0
 93
       13
 44
0.0
173
     0
291
     0
 45
0.0
1001
ACAD
1000
AcDbSavedByObjectVersion
1070
     0
  0
VISUALSTYLE
  5
546
102
{ACAD_XDICTIONARY
360
91E
102
}
102
{ACAD_REACTORS
330
14
102
}
330
14
100
AcDbVisualStyle
  2
Shaded
 70
    27
 71
     2
 72
     2
 73
     1
 90
        2
 40
-0.6
 41
30.0
 62
     5
 63
     7
 74
     0
 91
        4
 64
     7
 65
   257
 75
     1
175
     1
 42
1.0
 92
        8
 66
   257
 43
1.0
 76
     1
 77
     6
 78
     2
 67
     8
 79
     3
170
     0
171
     0
290
     0
174
     0
 93
        5
 44
0.0
173
     0
291
     0
 45
0.0
1001
ACAD
1000
AcDbSavedByObjectVersion
1070
     0
  0
VISUALSTYLE
  5
545
102
{ACAD_XDICTIONARY
360
91C
102
}
102
{ACAD_REACTORS
330
14
102
}
330
14
100
AcDbVisualStyle
  2
Shaded with edges
 70
    26
 71
     2
 72
     2
 73
     1
 90
        2
 40
-0.6
 41
30.0
 62
     5
 63
     7
 74
     1
 91
       10
 64
     7
 65
   257
 75
     2
175
     1
 42
1.0
 92
        8
 66
   257
 43
1.0
 76
     1
 77
     6
 78
     2
 67
     7
 79
     3
170
     0
171
     0
290
     0
174
     0
 93
        5
 44
0.0
173
     0
291
     0
 45
0.0
1001
ACAD
1000
AcDbSavedByObjectVersion
1070
     0
  0
VISUALSTYLE
  5
542
102
{ACAD_XDICTIONARY
360
916
102
}
102
{ACAD_REACTORS
330
14
102
}
330
14
100
AcDbVisualStyle
  2
Shades of Gray
 70
    23
 71
     2
 72
     2
 73
     3
 90
        0
 40
-0.6
 41
-30.0
 62
     5
 63
     7
 74
     2
 91
        2
 64
     7
 65
     7
 75
     1
175
     1
 42
40.0
 92
        8
 66
     7
 43
1.0
 76
     1
 77
     6
 78
     2
 67
     7
 79
     3
170
     0
171
     0
290
     0
174
     0
 93
        1
 44
0.0
173
     0
291
     0
 45
0.0
1001
ACAD
1000
AcDbSavedByObjectVersion
1070
     0
  0
VISUALSTYLE
  5
543
102
{ACAD_XDICTIONARY
360
918
102
}
102
{ACAD_REACTORS
330
14
102
}
330
14
100
AcDbVisualStyle
  2
Sketchy
 70
    24
 71
     1
 72
     2
 73
     2
 90
        0
 40
-0.6
 41
-30.0
 62
     5
 63
     7
 74
     2
 91
        2
 64
     7
 65
     7
 75
     1
175
     1
 42
40.0
 92
       11
 66
     7
 43
1.0
 76
     1
 77
     6
 78
     2
 67
     7
 79
     6
170
     0
171
     0
290
     0
174
     0
 93
        1
 44
0.0
173
     0
291
     0
 45
0.0
1001
ACAD
1000
AcDbSavedByObjectVersion
1070
     0
  0
VISUALSTYLE
  5
21
102
{ACAD_XDICTIONARY
360
905
102
}
102
{ACAD_REACTORS
330
14
102
}
330
14
100
AcDbVisualStyle
  2

 70
    13
 71
     2
 72
     2
 73
     0
 90
        0
 40
-0.6
 41
-30.0
 62
     5
 63
     7
 74
     1
 91
        4
 64
     7
 65
   257
 75
     1
175
     1
 42
1.0
 92
       12
 66
     7
 43
1.0
 76
     1
 77
     6
 78
     2
 67
     7
 79
     5
170
     0
171
     0
290
     0
174
     0
 93
        1
 44
0.0
173
     0
291
     1
 45
0.0
1001
ACAD
1000
AcDbSavedByObjectVersion
1070
     0
  0
VISUALSTYLE
  5
540
102
{ACAD_XDICTIONARY
360
912
102
}
102
{ACAD_REACTORS
330
14
102
}
330
14
100
AcDbVisualStyle
  2
Wireframe
 70
     5
 71
     0
 72
     2
 73
     0
 90
        0
 40
-0.6
 41
-30.0
 62
     5
 63
     7
 74
     1
 91
        4
 64
     7
 65
   257
 75
     1
175
     1
 42
1.0
 92
        0
 66
   257
 43
1.0
 76
     1
 77
     6
 78
     2
 67
     7
 79
     3
170
     0
171
     0
290
     0
174
     0
 93
        1
 44
0.0
173
     0
291
     0
 45
0.0
1001
ACAD
1000
AcDbSavedByObjectVersion
1070
     0
  0
VISUALSTYLE
  5
544
102
{ACAD_XDICTIONARY
360
91A
102
}
102
{ACAD_REACTORS
330
14
102
}
330
14
100
AcDbVisualStyle
  2
X-Ray
 70
    25
 71
     2
 72
     2
 73
     1
 90
        1
 40
0.5
 41
-30.0
 62
     5
 63
     7
 74
     1
 91
        0
 64
     7
 65
   257
 75
     1
175
     1
 42
1.0
 92
        8
 66
     7
 43
1.0
 76
     1
 77
     6
 78
     2
 67
     7
 79
     3
170
     0
171
     0
290
     0
174
     0
 93
       13
 44
0.0
173
     0
291
     0
 45
0.0
1001
ACAD
1000
AcDbSavedByObjectVersion
1070
     0
  0
DICTIONARYVAR
  5
7A1
102
{ACAD_REACTORS
330
52A
102
}
330
52A
100
DictionaryVariables
280
     0
  1
1:1
  0
DICTIONARYVAR
  5
7A0
102
{ACAD_REACTORS
330
52A
102
}
330
52A
100
DictionaryVariables
280
     0
  1
STANDARD
  0
DICTIONARYVAR
  5
52B
102
{ACAD_REACTORS
330
52A
102
}
330
52A
100
DictionaryVariables
280
     0
  1
STANDARD
  0
DICTIONARYVAR
  5
52E
102
{ACAD_REACTORS
330
52A
102
}
330
52A
100
DictionaryVariables
280
     0
  1
1
  0
DICTIONARYVAR
  5
52D
102
{ACAD_REACTORS
330
52A
102
}
330
52A
100
DictionaryVariables
280
     0
  1
0
  0
DICTIONARYVAR
  5
52C
102
{ACAD_REACTORS
330
52A
102
}
330
52A
100
DictionaryVariables
280
     0
  1
127
  0
DICTIONARYVAR
  5
7A2
102
{ACAD_REACTORS
330
52A
102
}
330
52A
100
DictionaryVariables
280
     0
  1
2
  0
DICTIONARY
  5
910
330
39
100
AcDbDictionary
280
     1
281
     1
  3
ACAD_XREC_ROUNDTRIP
360
911
  0
DICTIONARY
  5
90E
330
35
100
AcDbDictionary
280
     1
281
     1
  3
ACAD_XREC_ROUNDTRIP
360
90F
  0
DICTIONARY
  5
532
330
12
100
AcDbDictionary
280
     1
281
     1
  3
ACAD_XREC_ROUNDTRIP
360
533
  0
DICTIONARY
  5
530
330
11
100
AcDbDictionary
280
     1
281
     1
  3
ACAD_XREC_ROUNDTRIP
360
531
  0
DICTIONARY
  5
534
330
13
100
AcDbDictionary
280
     1
281
     1
  3
ACAD_XREC_ROUNDTRIP
360
535
  0
DICTIONARY
  5
8E5
330
31
100
AcDbDictionary
280
     1
281
     1
  3
ACAD_ROUNDTRIP_2008_TABLESTYLE_CELLSTYLEMAP
360
8E6
  3
ACAD_XREC_ROUNDTRIP
360
90D
  0
DICTIONARY
  5
8F7
330
1A
100
AcDbDictionary
280
     1
281
     1
  3
ACAD_XREC_ROUNDTRIP
360
8F8
  0
DICTIONARY
  5
8FB
330
1C
100
AcDbDictionary
280
     1
281
     1
  3
ACAD_XREC_ROUNDTRIP
360
8FC
  0
DICTIONARY
  5
8F9
330
1B
100
AcDbDictionary
280
     1
281
     1
  3
ACAD_XREC_ROUNDTRIP
360
8FA
  0
DICTIONARY
  5
8F5
330
19
100
AcDbDictionary
280
     1
281
     1
  3
ACAD_XREC_ROUNDTRIP
360
8F6
  0
DICTIONARY
  5
903
330
20
100
AcDbDictionary
280
     1
281
     1
  3
ACAD_XREC_ROUNDTRIP
360
904
  0
DICTIONARY
  5
90B
330
24
100
AcDbDictionary
280
     1
281
     1
  3
ACAD_XREC_ROUNDTRIP
360
90C
  0
DICTIONARY
  5
8FD
330
1D
100
AcDbDictionary
280
     1
281
     1
  3
ACAD_XREC_ROUNDTRIP
360
8FE
  0
DICTIONARY
  5
901
330
1F
100
AcDbDictionary
280
     1
281
     1
  3
ACAD_XREC_ROUNDTRIP
360
902
  0
DICTIONARY
  5
924
330
549
100
AcDbDictionary
280
     1
281
     1
  3
ACAD_XREC_ROUNDTRIP
360
925
  0
DICTIONARY
  5
909
330
23
100
AcDbDictionary
280
     1
281
     1
  3
ACAD_XREC_ROUNDTRIP
360
90A
  0
DICTIONARY
  5
8ED
330
15
100
AcDbDictionary
280
     1
281
     1
  3
ACAD_XREC_ROUNDTRIP
360
8EE
  0
DICTIONARY
  5
8EF
330
16
100
AcDbDictionary
280
     1
281
     1
  3
ACAD_XREC_ROUNDTRIP
360
8F0
  0
DICTIONARY
  5
8F1
330
17
100
AcDbDictionary
280
     1
281
     1
  3
ACAD_XREC_ROUNDTRIP
360
8F2
  0
DICTIONARY
  5
8F3
330
18
100
AcDbDictionary
280
     1
281
     1
  3
ACAD_XREC_ROUNDTRIP
360
8F4
  0
DICTIONARY
  5
914
330
541
100
AcDbDictionary
280
     1
281
     1
  3
ACAD_XREC_ROUNDTRIP
360
915
  0
DICTIONARY
  5
920
330
547
100
AcDbDictionary
280
     1
281
     1
  3
ACAD_XREC_ROUNDTRIP
360
921
  0
DICTIONARY
  5
907
330
22
100
AcDbDictionary
280
     1
281
     1
  3
ACAD_XREC_ROUNDTRIP
360
908
  0
DICTIONARY
  5
922
330
548
100
AcDbDictionary
280
     1
281
     1
  3
ACAD_XREC_ROUNDTRIP
360
923
  0
DICTIONARY
  5
8FF
330
1E
100
AcDbDictionary
280
     1
281
     1
  3
ACAD_XREC_ROUNDTRIP
360
900
  0
DICTIONARY
  5
91E
330
546
100
AcDbDictionary
280
     1
281
     1
  3
ACAD_XREC_ROUNDTRIP
360
91F
  0
DICTIONARY
  5
91C
330
545
100
AcDbDictionary
280
     1
281
     1
  3
ACAD_XREC_ROUNDTRIP
360
91D
  0
DICTIONARY
  5
916
330
542
100
AcDbDictionary
280
     1
281
     1
  3
ACAD_XREC_ROUNDTRIP
360
917
  0
DICTIONARY
  5
918
330
543
100
AcDbDictionary
280
     1
281
     1
  3
ACAD_XREC_ROUNDTRIP
360
919
  0
DICTIONARY
  5
905
330
21
100
AcDbDictionary
280
     1
281
     1
  3
ACAD_XREC_ROUNDTRIP
360
906
  0
DICTIONARY
  5
912
330
540
100
AcDbDictionary
280
     1
281
     1
  3
ACAD_XREC_ROUNDTRIP
360
913
  0
DICTIONARY
  5
91A
330
544
100
AcDbDictionary
280
     1
281
     1
  3
ACAD_XREC_ROUNDTRIP
360
91B
  0
XRECORD
  5
911
102
{ACAD_REACTORS
330
910
102
}
330
910
100
AcDbXrecord
280
     1
102
SHADEPLOT
 70
     0
102
SHADEPLOTRESLEVEL
 70
     2
102
SHADEPLOTCUSTOMDPI
 70
   300
  0
XRECORD
  5
90F
102
{ACAD_REACTORS
330
90E
102
}
330
90E
100
AcDbXrecord
280
     1
102
SHADEPLOT
 70
     0
102
SHADEPLOTRESLEVEL
 70
     2
102
SHADEPLOTCUSTOMDPI
 70
   300
  0
XRECORD
  5
533
102
{ACAD_REACTORS
330
532
102
}
330
532
100
AcDbXrecord
280
     1
102
MATERIAL
148
0.0
149
0.0
149
0.0
 93
        0
 94
      127
282
     0
 72
     1
 77
     1
171
     1
175
     1
179
     1
273
     0
  0
XRECORD
  5
531
102
{ACAD_REACTORS
330
530
102
}
330
530
100
AcDbXrecord
280
     1
102
MATERIAL
148
0.0
149
0.0
149
0.0
 93
        0
 94
      127
282
     0
 72
     1
 77
     1
171
     1
175
     1
179
     1
273
     0
  0
XRECORD
  5
535
102
{ACAD_REACTORS
330
534
102
}
330
534
100
AcDbXrecord
280
     1
102
MATERIAL
148
0.0
149
0.0
149
0.0
 93
        0
 94
      127
282
     0
 72
     1
 77
     1
171
     1
175
     1
179
     1
273
     0
  0
CELLSTYLEMAP
  5
8E6
102
{ACAD_REACTORS
330
8E5
102
}
330
8E5
100
AcDbCellStyleMap
 90
        3
300
CELLSTYLE
  1
TABLEFORMAT_BEGIN
 90
        5
170
     1
 91
        0
 92
    32768
 62
   257
 93
        1
300
CONTENTFORMAT
  1
CONTENTFORMAT_BEGIN
 90
        0
 91
        0
 92
      512
 93
        0
300

 40
0.0
140
1.0
 94
        5
 62
     0
340
26
144
0.25
309
CONTENTFORMAT_END
171
     0
 94
        6
 95
        1
302
GRIDFORMAT
  1
GRIDFORMAT_BEGIN
 90
        0
 91
        1
 62
     0
 92
       -2
340
0
 93
        0
 40
0.045
309
GRIDFORMAT_END
 95
        2
302
GRIDFORMAT
  1
GRIDFORMAT_BEGIN
 90
        0
 91
        1
 62
     0
 92
       -2
340
0
 93
        0
 40
0.045
309
GRIDFORMAT_END
 95
        4
302
GRIDFORMAT
  1
GRIDFORMAT_BEGIN
 90
        0
 91
        1
 62
     0
 92
       -2
340
0
 93
        0
 40
0.045
309
GRIDFORMAT_END
 95
        8
302
GRIDFORMAT
  1
GRIDFORMAT_BEGIN
 90
        0
 91
        1
 62
     0
 92
       -2
340
0
 93
        0
 40
0.045
309
GRIDFORMAT_END
 95
       16
302
GRIDFORMAT
  1
GRIDFORMAT_BEGIN
 90
        0
 91
        1
 62
     0
 92
       -2
340
0
 93
        0
 40
0.045
309
GRIDFORMAT_END
 95
       32
302
GRIDFORMAT
  1
GRIDFORMAT_BEGIN
 90
        0
 91
        1
 62
     0
 92
       -2
340
0
 93
        0
 40
0.045
309
GRIDFORMAT_END
309
TABLEFORMAT_END
  1
CELLSTYLE_BEGIN
 90
        1
 91
        1
300
_TITLE
309
CELLSTYLE_END
300
CELLSTYLE
  1
TABLEFORMAT_BEGIN
 90
        5
170
     1
 91
        0
 92
        0
 62
   257
 93
        1
300
CONTENTFORMAT
  1
CONTENTFORMAT_BEGIN
 90
        0
 91
        0
 92
      512
 93
        0
300

 40
0.0
140
1.0
 94
        5
 62
     0
340
26
144
0.18
309
CONTENTFORMAT_END
171
     0
 94
        6
 95
        1
302
GRIDFORMAT
  1
GRIDFORMAT_BEGIN
 90
        0
 91
        1
 62
     0
 92
       -2
340
0
 93
        0
 40
0.045
309
GRIDFORMAT_END
 95
        2
302
GRIDFORMAT
  1
GRIDFORMAT_BEGIN
 90
        0
 91
        1
 62
     0
 92
       -2
340
0
 93
        0
 40
0.045
309
GRIDFORMAT_END
 95
        4
302
GRIDFORMAT
  1
GRIDFORMAT_BEGIN
 90
        0
 91
        1
 62
     0
 92
       -2
340
0
 93
        0
 40
0.045
309
GRIDFORMAT_END
 95
        8
302
GRIDFORMAT
  1
GRIDFORMAT_BEGIN
 90
        0
 91
        1
 62
     0
 92
       -2
340
0
 93
        0
 40
0.045
309
GRIDFORMAT_END
 95
       16
302
GRIDFORMAT
  1
GRIDFORMAT_BEGIN
 90
        0
 91
        1
 62
     0
 92
       -2
340
0
 93
        0
 40
0.045
309
GRIDFORMAT_END
 95
       32
302
GRIDFORMAT
  1
GRIDFORMAT_BEGIN
 90
        0
 91
        1
 62
     0
 92
       -2
340
0
 93
        0
 40
0.045
309
GRIDFORMAT_END
309
TABLEFORMAT_END
  1
CELLSTYLE_BEGIN
 90
        2
 91
        1
300
_HEADER
309
CELLSTYLE_END
300
CELLSTYLE
  1
TABLEFORMAT_BEGIN
 90
        5
170
     1
 91
        0
 92
        0
 62
   257
 93
        1
300
CONTENTFORMAT
  1
CONTENTFORMAT_BEGIN
 90
        0
 91
        0
 92
      512
 93
        0
300

 40
0.0
140
1.0
 94
        2
 62
     0
340
26
144
0.18
309
CONTENTFORMAT_END
171
     0
 94
        6
 95
        1
302
GRIDFORMAT
  1
GRIDFORMAT_BEGIN
 90
        0
 91
        1
 62
     0
 92
       -2
340
0
 93
        0
 40
0.045
309
GRIDFORMAT_END
 95
        2
302
GRIDFORMAT
  1
GRIDFORMAT_BEGIN
 90
        0
 91
        1
 62
     0
 92
       -2
340
0
 93
        0
 40
0.045
309
GRIDFORMAT_END
 95
        4
302
GRIDFORMAT
  1
GRIDFORMAT_BEGIN
 90
        0
 91
        1
 62
     0
 92
       -2
340
0
 93
        0
 40
0.045
309
GRIDFORMAT_END
 95
        8
302
GRIDFORMAT
  1
GRIDFORMAT_BEGIN
 90
        0
 91
        1
 62
     0
 92
       -2
340
0
 93
        0
 40
0.045
309
GRIDFORMAT_END
 95
       16
302
GRIDFORMAT
  1
GRIDFORMAT_BEGIN
 90
        0
 91
        1
 62
     0
 92
       -2
340
0
 93
        0
 40
0.045
309
GRIDFORMAT_END
 95
       32
302
GRIDFORMAT
  1
GRIDFORMAT_BEGIN
 90
        0
 91
        1
 62
     0
 92
       -2
340
0
 93
        0
 40
0.045
309
GRIDFORMAT_END
309
TABLEFORMAT_END
  1
CELLSTYLE_BEGIN
 90
        3
 91
        2
300
_DATA
309
CELLSTYLE_END
  0
XRECORD
  5
90D
102
{ACAD_REACTORS
330
8E5
102
}
330
8E5
100
AcDbXrecord
280
     1
102
ACAD_ROUNDTRIP_PRE2007_TABLESTYLE
 90
      512
 91
        0
  1

 92
      512
 93
        0
  2

 94
      512
 95
        0
  3

  0
XRECORD
  5
8F8
102
{ACAD_REACTORS
330
8F7
102
}
330
8F7
100
AcDbXrecord
280
     1
102
RTVSPropertyOp0
 70
     1
102
RTVSPropertyOp1
 70
     1
102
RTVSPropertyOp2
 70
     1
102
RTVSPropertyOp3
 70
     1
102
RTVSPropertyOp4
 70
     1
102
RTVSPropertyOp5
 70
     1
102
RTVSPropertyOp6
 70
     1
102
RTVSPropertyOp7
 70
     1
102
RTVSPropertyOp8
 70
     1
102
RTVSPropertyOp9
 70
     1
102
RTVSPropertyOp10
 70
     1
102
RTVSPropertyOp11
 70
     1
102
RTVSPropertyOp12
 70
     1
102
RTVSPropertyOp13
 70
     1
102
RTVSPropertyOp14
 70
     1
102
RTVSPropertyOp15
 70
     1
102
RTVSPropertyOp16
 70
     1
102
RTVSPropertyOp17
 70
     1
102
RTVSPropertyOp18
 70
     1
102
RTVSPropertyOp19
 70
     1
102
RTVSPropertyOp20
 70
     1
102
RTVSPropertyOp21
 70
     1
102
RTVSPropertyOp22
 70
     1
102
RTVSPropertyOp23
 70
     1
102
RTVSPropertyOp24
 70
     1
102
RTVSPropertyOp25
 70
     1
102
RTVSPropertyOp26
 70
     1
102
RTVSPropertyOp27
 70
     1
102
RTVSPropertyOp28
 70
     1
102
RTVSPropertyOp29
 70
     1
102
RTVSPropertyOp30
 70
     1
102
RTVSPropertyOp31
 70
     1
102
RTVSPropertyOp32
 70
     1
  0
XRECORD
  5
8FC
102
{ACAD_REACTORS
330
8FB
102
}
330
8FB
100
AcDbXrecord
280
     1
102
RTVSPropertyOp0
 70
     1
102
RTVSPropertyOp1
 70
     1
102
RTVSPropertyOp2
 70
     1
102
RTVSPropertyOp3
 70
     1
102
RTVSPropertyOp4
 70
     1
102
RTVSPropertyOp5
 70
     1
102
RTVSPropertyOp6
 70
     1
102
RTVSPropertyOp7
 70
     1
102
RTVSPropertyOp8
 70
     1
102
RTVSPropertyOp9
 70
     1
102
RTVSPropertyOp10
 70
     1
102
RTVSPropertyOp11
 70
     1
102
RTVSPropertyOp12
 70
     1
102
RTVSPropertyOp13
 70
     1
102
RTVSPropertyOp14
 70
     1
102
RTVSPropertyOp15
 70
     1
102
RTVSPropertyOp16
 70
     1
102
RTVSPropertyOp17
 70
     1
102
RTVSPropertyOp18
 70
     1
102
RTVSPropertyOp19
 70
     1
102
RTVSPropertyOp20
 70
     1
102
RTVSPropertyOp21
 70
     1
102
RTVSPropertyOp22
 70
     1
102
RTVSPropertyOp23
 70
     1
102
RTVSPropertyOp24
 70
     1
102
RTVSPropertyOp25
 70
     1
102
RTVSPropertyOp26
 70
     1
102
RTVSPropertyOp27
 70
     1
102
RTVSPropertyOp28
 70
     1
102
RTVSPropertyOp29
 70
     1
102
RTVSPropertyOp30
 70
     1
102
RTVSPropertyOp31
 70
     1
102
RTVSPropertyOp32
 70
     1
  0
XRECORD
  5
8FA
102
{ACAD_REACTORS
330
8F9
102
}
330
8F9
100
AcDbXrecord
280
     1
102
RTVSPropertyOp0
 70
     1
102
RTVSPropertyOp1
 70
     1
102
RTVSPropertyOp2
 70
     1
102
RTVSPropertyOp3
 70
     1
102
RTVSPropertyOp4
 70
     1
102
RTVSPropertyOp5
 70
     1
102
RTVSPropertyOp6
 70
     1
102
RTVSPropertyOp7
 70
     1
102
RTVSPropertyOp8
 70
     1
102
RTVSPropertyOp9
 70
     1
102
RTVSPropertyOp10
 70
     1
102
RTVSPropertyOp11
 70
     1
102
RTVSPropertyOp12
 70
     1
102
RTVSPropertyOp13
 70
     1
102
RTVSPropertyOp14
 70
     1
102
RTVSPropertyOp15
 70
     1
102
RTVSPropertyOp16
 70
     1
102
RTVSPropertyOp17
 70
     1
102
RTVSPropertyOp18
 70
     1
102
RTVSPropertyOp19
 70
     1
102
RTVSPropertyOp20
 70
     1
102
RTVSPropertyOp21
 70
     1
102
RTVSPropertyOp22
 70
     1
102
RTVSPropertyOp23
 70
     1
102
RTVSPropertyOp24
 70
     1
102
RTVSPropertyOp25
 70
     1
102
RTVSPropertyOp26
 70
     1
102
RTVSPropertyOp27
 70
     1
102
RTVSPropertyOp28
 70
     1
102
RTVSPropertyOp29
 70
     1
102
RTVSPropertyOp30
 70
     1
102
RTVSPropertyOp31
 70
     1
102
RTVSPropertyOp32
 70
     1
  0
XRECORD
  5
8F6
102
{ACAD_REACTORS
330
8F5
102
}
330
8F5
100
AcDbXrecord
280
     1
102
RTVSPropertyOp0
 70
     1
102
RTVSPropertyOp1
 70
     1
102
RTVSPropertyOp2
 70
     1
102
RTVSPropertyOp3
 70
     1
102
RTVSPropertyOp4
 70
     1
102
RTVSPropertyOp5
 70
     1
102
RTVSPropertyOp6
 70
     1
102
RTVSPropertyOp7
 70
     1
102
RTVSPropertyOp8
 70
     1
102
RTVSPropertyOp9
 70
     1
102
RTVSPropertyOp10
 70
     1
102
RTVSPropertyOp11
 70
     1
102
RTVSPropertyOp12
 70
     1
102
RTVSPropertyOp13
 70
     1
102
RTVSPropertyOp14
 70
     1
102
RTVSPropertyOp15
 70
     1
102
RTVSPropertyOp16
 70
     1
102
RTVSPropertyOp17
 70
     1
102
RTVSPropertyOp18
 70
     1
102
RTVSPropertyOp19
 70
     1
102
RTVSPropertyOp20
 70
     1
102
RTVSPropertyOp21
 70
     1
102
RTVSPropertyOp22
 70
     1
102
RTVSPropertyOp23
 70
     1
102
RTVSPropertyOp24
 70
     1
102
RTVSPropertyOp25
 70
     1
102
RTVSPropertyOp26
 70
     1
102
RTVSPropertyOp27
 70
     1
102
RTVSPropertyOp28
 70
     1
102
RTVSPropertyOp29
 70
     1
102
RTVSPropertyOp30
 70
     1
102
RTVSPropertyOp31
 70
     1
102
RTVSPropertyOp32
 70
     1
  0
XRECORD
  5
904
102
{ACAD_REACTORS
330
903
102
}
330
903
100
AcDbXrecord
280
     1
102
RTVSPropertyOp0
 70
     1
102
RTVSPropertyOp1
 70
     1
102
RTVSPropertyOp2
 70
     1
102
RTVSPropertyOp3
 70
     1
102
RTVSPropertyOp4
 70
     1
102
RTVSPropertyOp5
 70
     1
102
RTVSPropertyOp6
 70
     1
102
RTVSPropertyOp7
 70
     1
102
RTVSPropertyOp8
 70
     1
102
RTVSPropertyOp9
 70
     1
102
RTVSPropertyOp10
 70
     1
102
RTVSPropertyOp11
 70
     1
102
RTVSPropertyOp12
 70
     1
102
RTVSPropertyOp13
 70
     1
102
RTVSPropertyOp14
 70
     1
102
RTVSPropertyOp15
 70
     1
102
RTVSPropertyOp16
 70
     1
102
RTVSPropertyOp17
 70
     1
102
RTVSPropertyOp18
 70
     1
102
RTVSPropertyOp19
 70
     1
102
RTVSPropertyOp20
 70
     1
102
RTVSPropertyOp21
 70
     1
102
RTVSPropertyOp22
 70
     1
102
RTVSPropertyOp23
 70
     1
102
RTVSPropertyOp24
 70
     1
102
RTVSPropertyOp25
 70
     1
102
RTVSPropertyOp26
 70
     1
102
RTVSPropertyOp27
 70
     1
102
RTVSPropertyOp28
 70
     1
102
RTVSPropertyOp29
 70
     1
102
RTVSPropertyOp30
 70
     1
102
RTVSPropertyOp31
 70
     1
102
RTVSPropertyOp32
 70
     1
  0
XRECORD
  5
90C
102
{ACAD_REACTORS
330
90B
102
}
330
90B
100
AcDbXrecord
280
     1
102
RTVSPropertyOp0
 70
     1
102
RTVSPropertyOp1
 70
     1
102
RTVSPropertyOp2
 70
     1
102
RTVSPropertyOp3
 70
     1
102
RTVSPropertyOp4
 70
     1
102
RTVSPropertyOp5
 70
     1
102
RTVSPropertyOp6
 70
     1
102
RTVSPropertyOp7
 70
     1
102
RTVSPropertyOp8
 70
     1
102
RTVSPropertyOp9
 70
     1
102
RTVSPropertyOp10
 70
     1
102
RTVSPropertyOp11
 70
     1
102
RTVSPropertyOp12
 70
     1
102
RTVSPropertyOp13
 70
     1
102
RTVSPropertyOp14
 70
     1
102
RTVSPropertyOp15
 70
     1
102
RTVSPropertyOp16
 70
     1
102
RTVSPropertyOp17
 70
     1
102
RTVSPropertyOp18
 70
     1
102
RTVSPropertyOp19
 70
     1
102
RTVSPropertyOp20
 70
     1
102
RTVSPropertyOp21
 70
     1
102
RTVSPropertyOp22
 70
     1
102
RTVSPropertyOp23
 70
     1
102
RTVSPropertyOp24
 70
     1
102
RTVSPropertyOp25
 70
     1
102
RTVSPropertyOp26
 70
     1
102
RTVSPropertyOp27
 70
     1
102
RTVSPropertyOp28
 70
     1
102
RTVSPropertyOp29
 70
     1
102
RTVSPropertyOp30
 70
     1
102
RTVSPropertyOp31
 70
     1
102
RTVSPropertyOp32
 70
     1
  0
XRECORD
  5
8FE
102
{ACAD_REACTORS
330
8FD
102
}
330
8FD
100
AcDbXrecord
280
     1
102
RTVSPropertyOp0
 70
     1
102
RTVSPropertyOp1
 70
     1
102
RTVSPropertyOp2
 70
     1
102
RTVSPropertyOp3
 70
     1
102
RTVSPropertyOp4
 70
     1
102
RTVSPropertyOp5
 70
     1
102
RTVSPropertyOp6
 70
     1
102
RTVSPropertyOp7
 70
     1
102
RTVSPropertyOp8
 70
     1
102
RTVSPropertyOp9
 70
     1
102
RTVSPropertyOp10
 70
     1
102
RTVSPropertyOp11
 70
     1
102
RTVSPropertyOp12
 70
     1
102
RTVSPropertyOp13
 70
     1
102
RTVSPropertyOp14
 70
     1
102
RTVSPropertyOp15
 70
     1
102
RTVSPropertyOp16
 70
     1
102
RTVSPropertyOp17
 70
     1
102
RTVSPropertyOp18
 70
     1
102
RTVSPropertyOp19
 70
     1
102
RTVSPropertyOp20
 70
     1
102
RTVSPropertyOp21
 70
     1
102
RTVSPropertyOp22
 70
     1
102
RTVSPropertyOp23
 70
     1
102
RTVSPropertyOp24
 70
     1
102
RTVSPropertyOp25
 70
     1
102
RTVSPropertyOp26
 70
     1
102
RTVSPropertyOp27
 70
     1
102
RTVSPropertyOp28
 70
     1
102
RTVSPropertyOp29
 70
     1
102
RTVSPropertyOp30
 70
     1
102
RTVSPropertyOp31
 70
     1
102
RTVSPropertyOp32
 70
     1
  0
XRECORD
  5
902
102
{ACAD_REACTORS
330
901
102
}
330
901
100
AcDbXrecord
280
     1
102
RTVSPropertyOp0
 70
     1
102
RTVSPropertyOp1
 70
     1
102
RTVSPropertyOp2
 70
     1
102
RTVSPropertyOp3
 70
     1
102
RTVSPropertyOp4
 70
     1
102
RTVSPropertyOp5
 70
     1
102
RTVSPropertyOp6
 70
     1
102
RTVSPropertyOp7
 70
     1
102
RTVSPropertyOp8
 70
     1
102
RTVSPropertyOp9
 70
     1
102
RTVSPropertyOp10
 70
     1
102
RTVSPropertyOp11
 70
     1
102
RTVSPropertyOp12
 70
     1
102
RTVSPropertyOp13
 70
     1
102
RTVSPropertyOp14
 70
     1
102
RTVSPropertyOp15
 70
     1
102
RTVSPropertyOp16
 70
     1
102
RTVSPropertyOp17
 70
     1
102
RTVSPropertyOp18
 70
     1
102
RTVSPropertyOp19
 70
     1
102
RTVSPropertyOp20
 70
     1
102
RTVSPropertyOp21
 70
     1
102
RTVSPropertyOp22
 70
     1
102
RTVSPropertyOp23
 70
     1
102
RTVSPropertyOp24
 70
     1
102
RTVSPropertyOp25
 70
     1
102
RTVSPropertyOp26
 70
     1
102
RTVSPropertyOp27
 70
     1
102
RTVSPropertyOp28
 70
     1
102
RTVSPropertyOp29
 70
     1
102
RTVSPropertyOp30
 70
     1
102
RTVSPropertyOp31
 70
     1
102
RTVSPropertyOp32
 70
     1
  0
XRECORD
  5
925
102
{ACAD_REACTORS
330
924
102
}
330
924
100
AcDbXrecord
280
     1
102
RTVSPropertyOp0
 70
     0
102
RTVSPropertyOp1
 70
     0
102
RTVSPropertyOp2
 70
     0
102
RTVSPropertyOp3
 70
     0
102
RTVSPropertyOp4
 70
     0
102
RTVSPropertyOp5
 70
     0
102
RTVSPropertyOp6
 70
     0
102
RTVSPropertyOp7
 70
     0
102
RTVSPropertyOp8
 70
     0
102
RTVSPropertyOp9
 70
     0
102
RTVSPropertyOp10
 70
     0
102
RTVSPropertyOp11
 70
     0
102
RTVSPropertyOp12
 70
     0
102
RTVSPropertyOp13
 70
     0
102
RTVSPropertyOp14
 70
     2
102
RTVSPropertyOp15
 70
     0
102
RTVSPropertyOp16
 70
     0
102
RTVSPropertyOp17
 70
     0
102
RTVSPropertyOp18
 70
     0
102
RTVSPropertyOp19
 70
     0
102
RTVSPropertyOp20
 70
     0
102
RTVSPropertyOp21
 70
     0
102
RTVSPropertyOp22
 70
     0
102
RTVSPropertyOp23
 70
     0
102
RTVSPropertyOp24
 70
     0
102
RTVSPropertyOp25
 70
     0
102
RTVSPropertyOp26
 70
     0
102
RTVSPropertyOp27
 70
     0
102
RTVSPropertyOp28
 70
     0
102
RTVSPropertyOp29
 70
     0
102
RTVSPropertyOp30
 70
     0
102
RTVSPropertyOp31
 70
     0
102
RTVSPropertyOp32
 70
     0
  0
XRECORD
  5
90A
102
{ACAD_REACTORS
330
909
102
}
330
909
100
AcDbXrecord
280
     1
102
RTVSPropertyOp0
 70
     1
102
RTVSPropertyOp1
 70
     1
102
RTVSPropertyOp2
 70
     1
102
RTVSPropertyOp3
 70
     1
102
RTVSPropertyOp4
 70
     1
102
RTVSPropertyOp5
 70
     1
102
RTVSPropertyOp6
 70
     1
102
RTVSPropertyOp7
 70
     1
102
RTVSPropertyOp8
 70
     1
102
RTVSPropertyOp9
 70
     1
102
RTVSPropertyOp10
 70
     1
102
RTVSPropertyOp11
 70
     1
102
RTVSPropertyOp12
 70
     1
102
RTVSPropertyOp13
 70
     1
102
RTVSPropertyOp14
 70
     1
102
RTVSPropertyOp15
 70
     1
102
RTVSPropertyOp16
 70
     1
102
RTVSPropertyOp17
 70
     1
102
RTVSPropertyOp18
 70
     1
102
RTVSPropertyOp19
 70
     1
102
RTVSPropertyOp20
 70
     1
102
RTVSPropertyOp21
 70
     1
102
RTVSPropertyOp22
 70
     1
102
RTVSPropertyOp23
 70
     1
102
RTVSPropertyOp24
 70
     1
102
RTVSPropertyOp25
 70
     1
102
RTVSPropertyOp26
 70
     1
102
RTVSPropertyOp27
 70
     1
102
RTVSPropertyOp28
 70
     1
102
RTVSPropertyOp29
 70
     1
102
RTVSPropertyOp30
 70
     1
102
RTVSPropertyOp31
 70
     1
102
RTVSPropertyOp32
 70
     1
  0
XRECORD
  5
8EE
102
{ACAD_REACTORS
330
8ED
102
}
330
8ED
100
AcDbXrecord
280
     1
102
RTVSPropertyOp0
 70
     1
102
RTVSPropertyOp1
 70
     1
102
RTVSPropertyOp2
 70
     1
102
RTVSPropertyOp3
 70
     1
102
RTVSPropertyOp4
 70
     1
102
RTVSPropertyOp5
 70
     1
102
RTVSPropertyOp6
 70
     1
102
RTVSPropertyOp7
 70
     1
102
RTVSPropertyOp8
 70
     1
102
RTVSPropertyOp9
 70
     1
102
RTVSPropertyOp10
 70
     1
102
RTVSPropertyOp11
 70
     1
102
RTVSPropertyOp12
 70
     1
102
RTVSPropertyOp13
 70
     1
102
RTVSPropertyOp14
 70
     1
102
RTVSPropertyOp15
 70
     1
102
RTVSPropertyOp16
 70
     1
102
RTVSPropertyOp17
 70
     1
102
RTVSPropertyOp18
 70
     1
102
RTVSPropertyOp19
 70
     1
102
RTVSPropertyOp20
 70
     1
102
RTVSPropertyOp21
 70
     1
102
RTVSPropertyOp22
 70
     1
102
RTVSPropertyOp23
 70
     1
102
RTVSPropertyOp24
 70
     1
102
RTVSPropertyOp25
 70
     1
102
RTVSPropertyOp26
 70
     1
102
RTVSPropertyOp27
 70
     1
102
RTVSPropertyOp28
 70
     1
102
RTVSPropertyOp29
 70
     1
102
RTVSPropertyOp30
 70
     1
102
RTVSPropertyOp31
 70
     1
102
RTVSPropertyOp32
 70
     1
  0
XRECORD
  5
8F0
102
{ACAD_REACTORS
330
8EF
102
}
330
8EF
100
AcDbXrecord
280
     1
102
RTVSPropertyOp0
 70
     1
102
RTVSPropertyOp1
 70
     1
102
RTVSPropertyOp2
 70
     1
102
RTVSPropertyOp3
 70
     1
102
RTVSPropertyOp4
 70
     1
102
RTVSPropertyOp5
 70
     1
102
RTVSPropertyOp6
 70
     1
102
RTVSPropertyOp7
 70
     1
102
RTVSPropertyOp8
 70
     1
102
RTVSPropertyOp9
 70
     1
102
RTVSPropertyOp10
 70
     1
102
RTVSPropertyOp11
 70
     1
102
RTVSPropertyOp12
 70
     1
102
RTVSPropertyOp13
 70
     1
102
RTVSPropertyOp14
 70
     1
102
RTVSPropertyOp15
 70
     1
102
RTVSPropertyOp16
 70
     1
102
RTVSPropertyOp17
 70
     1
102
RTVSPropertyOp18
 70
     1
102
RTVSPropertyOp19
 70
     1
102
RTVSPropertyOp20
 70
     1
102
RTVSPropertyOp21
 70
     1
102
RTVSPropertyOp22
 70
     1
102
RTVSPropertyOp23
 70
     1
102
RTVSPropertyOp24
 70
     1
102
RTVSPropertyOp25
 70
     1
102
RTVSPropertyOp26
 70
     1
102
RTVSPropertyOp27
 70
     1
102
RTVSPropertyOp28
 70
     1
102
RTVSPropertyOp29
 70
     1
102
RTVSPropertyOp30
 70
     1
102
RTVSPropertyOp31
 70
     1
102
RTVSPropertyOp32
 70
     1
  0
XRECORD
  5
8F2
102
{ACAD_REACTORS
330
8F1
102
}
330
8F1
100
AcDbXrecord
280
     1
102
RTVSPropertyOp0
 70
     1
102
RTVSPropertyOp1
 70
     1
102
RTVSPropertyOp2
 70
     1
102
RTVSPropertyOp3
 70
     1
102
RTVSPropertyOp4
 70
     1
102
RTVSPropertyOp5
 70
     1
102
RTVSPropertyOp6
 70
     1
102
RTVSPropertyOp7
 70
     1
102
RTVSPropertyOp8
 70
     1
102
RTVSPropertyOp9
 70
     1
102
RTVSPropertyOp10
 70
     1
102
RTVSPropertyOp11
 70
     1
102
RTVSPropertyOp12
 70
     1
102
RTVSPropertyOp13
 70
     1
102
RTVSPropertyOp14
 70
     1
102
RTVSPropertyOp15
 70
     1
102
RTVSPropertyOp16
 70
     1
102
RTVSPropertyOp17
 70
     1
102
RTVSPropertyOp18
 70
     1
102
RTVSPropertyOp19
 70
     1
102
RTVSPropertyOp20
 70
     1
102
RTVSPropertyOp21
 70
     1
102
RTVSPropertyOp22
 70
     1
102
RTVSPropertyOp23
 70
     1
102
RTVSPropertyOp24
 70
     1
102
RTVSPropertyOp25
 70
     1
102
RTVSPropertyOp26
 70
     1
102
RTVSPropertyOp27
 70
     1
102
RTVSPropertyOp28
 70
     1
102
RTVSPropertyOp29
 70
     1
102
RTVSPropertyOp30
 70
     1
102
RTVSPropertyOp31
 70
     1
102
RTVSPropertyOp32
 70
     1
  0
XRECORD
  5
8F4
102
{ACAD_REACTORS
330
8F3
102
}
330
8F3
100
AcDbXrecord
280
     1
102
RTVSPropertyOp0
 70
     1
102
RTVSPropertyOp1
 70
     1
102
RTVSPropertyOp2
 70
     1
102
RTVSPropertyOp3
 70
     1
102
RTVSPropertyOp4
 70
     1
102
RTVSPropertyOp5
 70
     1
102
RTVSPropertyOp6
 70
     1
102
RTVSPropertyOp7
 70
     1
102
RTVSPropertyOp8
 70
     1
102
RTVSPropertyOp9
 70
     1
102
RTVSPropertyOp10
 70
     1
102
RTVSPropertyOp11
 70
     1
102
RTVSPropertyOp12
 70
     1
102
RTVSPropertyOp13
 70
     1
102
RTVSPropertyOp14
 70
     1
102
RTVSPropertyOp15
 70
     1
102
RTVSPropertyOp16
 70
     1
102
RTVSPropertyOp17
 70
     1
102
RTVSPropertyOp18
 70
     1
102
RTVSPropertyOp19
 70
     1
102
RTVSPropertyOp20
 70
     1
102
RTVSPropertyOp21
 70
     1
102
RTVSPropertyOp22
 70
     1
102
RTVSPropertyOp23
 70
     1
102
RTVSPropertyOp24
 70
     1
102
RTVSPropertyOp25
 70
     1
102
RTVSPropertyOp26
 70
     1
102
RTVSPropertyOp27
 70
     1
102
RTVSPropertyOp28
 70
     1
102
RTVSPropertyOp29
 70
     1
102
RTVSPropertyOp30
 70
     1
102
RTVSPropertyOp31
 70
     1
102
RTVSPropertyOp32
 70
     1
  0
XRECORD
  5
915
102
{ACAD_REACTORS
330
914
102
}
330
914
100
AcDbXrecord
280
     1
102
RTVSPropertyOp0
 70
     1
102
RTVSPropertyOp1
 70
     1
102
RTVSPropertyOp2
 70
     1
102
RTVSPropertyOp3
 70
     1
102
RTVSPropertyOp4
 70
     1
102
RTVSPropertyOp5
 70
     1
102
RTVSPropertyOp6
 70
     1
102
RTVSPropertyOp7
 70
     1
102
RTVSPropertyOp8
 70
     1
102
RTVSPropertyOp9
 70
     1
102
RTVSPropertyOp10
 70
     1
102
RTVSPropertyOp11
 70
     1
102
RTVSPropertyOp12
 70
     1
102
RTVSPropertyOp13
 70
     1
102
RTVSPropertyOp14
 70
     1
102
RTVSPropertyOp15
 70
     1
102
RTVSPropertyOp16
 70
     1
102
RTVSPropertyOp17
 70
     1
102
RTVSPropertyOp18
 70
     1
102
RTVSPropertyOp19
 70
     1
102
RTVSPropertyOp20
 70
     1
102
RTVSPropertyOp21
 70
     1
102
RTVSPropertyOp22
 70
     1
102
RTVSPropertyOp23
 70
     1
102
RTVSPropertyOp24
 70
     1
102
RTVSPropertyOp25
 70
     1
102
RTVSPropertyOp26
 70
     1
102
RTVSPropertyOp27
 70
     1
102
RTVSPropertyOp28
 70
     1
102
RTVSPropertyOp29
 70
     1
102
RTVSPropertyOp30
 70
     1
102
RTVSPropertyOp31
 70
     1
102
RTVSPropertyOp32
 70
     1
  0
XRECORD
  5
921
102
{ACAD_REACTORS
330
920
102
}
330
920
100
AcDbXrecord
280
     1
102
RTVSPropertyOp0
 70
     0
102
RTVSPropertyOp1
 70
     0
102
RTVSPropertyOp2
 70
     0
102
RTVSPropertyOp3
 70
     0
102
RTVSPropertyOp4
 70
     0
102
RTVSPropertyOp5
 70
     0
102
RTVSPropertyOp6
 70
     0
102
RTVSPropertyOp7
 70
     0
102
RTVSPropertyOp8
 70
     0
102
RTVSPropertyOp9
 70
     0
102
RTVSPropertyOp10
 70
     0
102
RTVSPropertyOp11
 70
     0
102
RTVSPropertyOp12
 70
     0
102
RTVSPropertyOp13
 70
     0
102
RTVSPropertyOp14
 70
     2
102
RTVSPropertyOp15
 70
     0
102
RTVSPropertyOp16
 70
     0
102
RTVSPropertyOp17
 70
     0
102
RTVSPropertyOp18
 70
     0
102
RTVSPropertyOp19
 70
     0
102
RTVSPropertyOp20
 70
     0
102
RTVSPropertyOp21
 70
     0
102
RTVSPropertyOp22
 70
     0
102
RTVSPropertyOp23
 70
     0
102
RTVSPropertyOp24
 70
     0
102
RTVSPropertyOp25
 70
     0
102
RTVSPropertyOp26
 70
     0
102
RTVSPropertyOp27
 70
     0
102
RTVSPropertyOp28
 70
     0
102
RTVSPropertyOp29
 70
     0
102
RTVSPropertyOp30
 70
     0
102
RTVSPropertyOp31
 70
     0
102
RTVSPropertyOp32
 70
     0
  0
XRECORD
  5
908
102
{ACAD_REACTORS
330
907
102
}
330
907
100
AcDbXrecord
280
     1
102
RTVSPropertyOp0
 70
     1
102
RTVSPropertyOp1
 70
     1
102
RTVSPropertyOp2
 70
     1
102
RTVSPropertyOp3
 70
     1
102
RTVSPropertyOp4
 70
     1
102
RTVSPropertyOp5
 70
     1
102
RTVSPropertyOp6
 70
     1
102
RTVSPropertyOp7
 70
     1
102
RTVSPropertyOp8
 70
     1
102
RTVSPropertyOp9
 70
     1
102
RTVSPropertyOp10
 70
     1
102
RTVSPropertyOp11
 70
     1
102
RTVSPropertyOp12
 70
     1
102
RTVSPropertyOp13
 70
     1
102
RTVSPropertyOp14
 70
     1
102
RTVSPropertyOp15
 70
     1
102
RTVSPropertyOp16
 70
     1
102
RTVSPropertyOp17
 70
     1
102
RTVSPropertyOp18
 70
     1
102
RTVSPropertyOp19
 70
     1
102
RTVSPropertyOp20
 70
     1
102
RTVSPropertyOp21
 70
     1
102
RTVSPropertyOp22
 70
     1
102
RTVSPropertyOp23
 70
     1
102
RTVSPropertyOp24
 70
     1
102
RTVSPropertyOp25
 70
     1
102
RTVSPropertyOp26
 70
     1
102
RTVSPropertyOp27
 70
     1
102
RTVSPropertyOp28
 70
     1
102
RTVSPropertyOp29
 70
     1
102
RTVSPropertyOp30
 70
     1
102
RTVSPropertyOp31
 70
     1
102
RTVSPropertyOp32
 70
     1
  0
XRECORD
  5
923
102
{ACAD_REACTORS
330
922
102
}
330
922
100
AcDbXrecord
280
     1
102
RTVSPropertyOp0
 70
     0
102
RTVSPropertyOp1
 70
     0
102
RTVSPropertyOp2
 70
     0
102
RTVSPropertyOp3
 70
     0
102
RTVSPropertyOp4
 70
     0
102
RTVSPropertyOp5
 70
     0
102
RTVSPropertyOp6
 70
     0
102
RTVSPropertyOp7
 70
     0
102
RTVSPropertyOp8
 70
     0
102
RTVSPropertyOp9
 70
     0
102
RTVSPropertyOp10
 70
     0
102
RTVSPropertyOp11
 70
     0
102
RTVSPropertyOp12
 70
     0
102
RTVSPropertyOp13
 70
     0
102
RTVSPropertyOp14
 70
     2
102
RTVSPropertyOp15
 70
     0
102
RTVSPropertyOp16
 70
     0
102
RTVSPropertyOp17
 70
     0
102
RTVSPropertyOp18
 70
     0
102
RTVSPropertyOp19
 70
     0
102
RTVSPropertyOp20
 70
     0
102
RTVSPropertyOp21
 70
     0
102
RTVSPropertyOp22
 70
     0
102
RTVSPropertyOp23
 70
     0
102
RTVSPropertyOp24
 70
     0
102
RTVSPropertyOp25
 70
     0
102
RTVSPropertyOp26
 70
     0
102
RTVSPropertyOp27
 70
     0
102
RTVSPropertyOp28
 70
     0
102
RTVSPropertyOp29
 70
     0
102
RTVSPropertyOp30
 70
     0
102
RTVSPropertyOp31
 70
     0
102
RTVSPropertyOp32
 70
     0
  0
XRECORD
  5
900
102
{ACAD_REACTORS
330
8FF
102
}
330
8FF
100
AcDbXrecord
280
     1
102
RTVSPropertyOp0
 70
     1
102
RTVSPropertyOp1
 70
     1
102
RTVSPropertyOp2
 70
     1
102
RTVSPropertyOp3
 70
     1
102
RTVSPropertyOp4
 70
     1
102
RTVSPropertyOp5
 70
     1
102
RTVSPropertyOp6
 70
     1
102
RTVSPropertyOp7
 70
     1
102
RTVSPropertyOp8
 70
     1
102
RTVSPropertyOp9
 70
     1
102
RTVSPropertyOp10
 70
     1
102
RTVSPropertyOp11
 70
     1
102
RTVSPropertyOp12
 70
     1
102
RTVSPropertyOp13
 70
     1
102
RTVSPropertyOp14
 70
     1
102
RTVSPropertyOp15
 70
     1
102
RTVSPropertyOp16
 70
     1
102
RTVSPropertyOp17
 70
     1
102
RTVSPropertyOp18
 70
     1
102
RTVSPropertyOp19
 70
     1
102
RTVSPropertyOp20
 70
     1
102
RTVSPropertyOp21
 70
     1
102
RTVSPropertyOp22
 70
     1
102
RTVSPropertyOp23
 70
     1
102
RTVSPropertyOp24
 70
     1
102
RTVSPropertyOp25
 70
     1
102
RTVSPropertyOp26
 70
     1
102
RTVSPropertyOp27
 70
     1
102
RTVSPropertyOp28
 70
     1
102
RTVSPropertyOp29
 70
     1
102
RTVSPropertyOp30
 70
     1
102
RTVSPropertyOp31
 70
     1
102
RTVSPropertyOp32
 70
     1
  0
XRECORD
  5
91F
102
{ACAD_REACTORS
330
91E
102
}
330
91E
100
AcDbXrecord
280
     1
102
RTVSPropertyOp0
 70
     1
102
RTVSPropertyOp1
 70
     1
102
RTVSPropertyOp2
 70
     1
102
RTVSPropertyOp3
 70
     1
102
RTVSPropertyOp4
 70
     1
102
RTVSPropertyOp5
 70
     1
102
RTVSPropertyOp6
 70
     1
102
RTVSPropertyOp7
 70
     1
102
RTVSPropertyOp8
 70
     1
102
RTVSPropertyOp9
 70
     1
102
RTVSPropertyOp10
 70
     1
102
RTVSPropertyOp11
 70
     1
102
RTVSPropertyOp12
 70
     1
102
RTVSPropertyOp13
 70
     1
102
RTVSPropertyOp14
 70
     1
102
RTVSPropertyOp15
 70
     1
102
RTVSPropertyOp16
 70
     1
102
RTVSPropertyOp17
 70
     1
102
RTVSPropertyOp18
 70
     1
102
RTVSPropertyOp19
 70
     1
102
RTVSPropertyOp20
 70
     1
102
RTVSPropertyOp21
 70
     1
102
RTVSPropertyOp22
 70
     1
102
RTVSPropertyOp23
 70
     1
102
RTVSPropertyOp24
 70
     1
102
RTVSPropertyOp25
 70
     1
102
RTVSPropertyOp26
 70
     1
102
RTVSPropertyOp27
 70
     1
102
RTVSPropertyOp28
 70
     1
102
RTVSPropertyOp29
 70
     1
102
RTVSPropertyOp30
 70
     1
102
RTVSPropertyOp31
 70
     1
102
RTVSPropertyOp32
 70
     1
  0
XRECORD
  5
91D
102
{ACAD_REACTORS
330
91C
102
}
330
91C
100
AcDbXrecord
280
     1
102
RTVSPropertyOp0
 70
     1
102
RTVSPropertyOp1
 70
     1
102
RTVSPropertyOp2
 70
     1
102
RTVSPropertyOp3
 70
     1
102
RTVSPropertyOp4
 70
     1
102
RTVSPropertyOp5
 70
     1
102
RTVSPropertyOp6
 70
     1
102
RTVSPropertyOp7
 70
     1
102
RTVSPropertyOp8
 70
     1
102
RTVSPropertyOp9
 70
     1
102
RTVSPropertyOp10
 70
     1
102
RTVSPropertyOp11
 70
     1
102
RTVSPropertyOp12
 70
     1
102
RTVSPropertyOp13
 70
     1
102
RTVSPropertyOp14
 70
     1
102
RTVSPropertyOp15
 70
     1
102
RTVSPropertyOp16
 70
     1
102
RTVSPropertyOp17
 70
     1
102
RTVSPropertyOp18
 70
     1
102
RTVSPropertyOp19
 70
     1
102
RTVSPropertyOp20
 70
     1
102
RTVSPropertyOp21
 70
     1
102
RTVSPropertyOp22
 70
     1
102
RTVSPropertyOp23
 70
     1
102
RTVSPropertyOp24
 70
     1
102
RTVSPropertyOp25
 70
     1
102
RTVSPropertyOp26
 70
     1
102
RTVSPropertyOp27
 70
     1
102
RTVSPropertyOp28
 70
     1
102
RTVSPropertyOp29
 70
     1
102
RTVSPropertyOp30
 70
     1
102
RTVSPropertyOp31
 70
     1
102
RTVSPropertyOp32
 70
     1
  0
XRECORD
  5
917
102
{ACAD_REACTORS
330
916
102
}
330
916
100
AcDbXrecord
280
     1
102
RTVSPropertyOp0
 70
     1
102
RTVSPropertyOp1
 70
     1
102
RTVSPropertyOp2
 70
     1
102
RTVSPropertyOp3
 70
     1
102
RTVSPropertyOp4
 70
     1
102
RTVSPropertyOp5
 70
     1
102
RTVSPropertyOp6
 70
     1
102
RTVSPropertyOp7
 70
     1
102
RTVSPropertyOp8
 70
     1
102
RTVSPropertyOp9
 70
     1
102
RTVSPropertyOp10
 70
     1
102
RTVSPropertyOp11
 70
     1
102
RTVSPropertyOp12
 70
     1
102
RTVSPropertyOp13
 70
     1
102
RTVSPropertyOp14
 70
     1
102
RTVSPropertyOp15
 70
     1
102
RTVSPropertyOp16
 70
     1
102
RTVSPropertyOp17
 70
     1
102
RTVSPropertyOp18
 70
     1
102
RTVSPropertyOp19
 70
     1
102
RTVSPropertyOp20
 70
     1
102
RTVSPropertyOp21
 70
     1
102
RTVSPropertyOp22
 70
     1
102
RTVSPropertyOp23
 70
     1
102
RTVSPropertyOp24
 70
     1
102
RTVSPropertyOp25
 70
     1
102
RTVSPropertyOp26
 70
     1
102
RTVSPropertyOp27
 70
     1
102
RTVSPropertyOp28
 70
     1
102
RTVSPropertyOp29
 70
     1
102
RTVSPropertyOp30
 70
     1
102
RTVSPropertyOp31
 70
     1
102
RTVSPropertyOp32
 70
     1
  0
XRECORD
  5
919
102
{ACAD_REACTORS
330
918
102
}
330
918
100
AcDbXrecord
280
     1
102
RTVSPropertyOp0
 70
     1
102
RTVSPropertyOp1
 70
     1
102
RTVSPropertyOp2
 70
     1
102
RTVSPropertyOp3
 70
     1
102
RTVSPropertyOp4
 70
     1
102
RTVSPropertyOp5
 70
     1
102
RTVSPropertyOp6
 70
     1
102
RTVSPropertyOp7
 70
     1
102
RTVSPropertyOp8
 70
     1
102
RTVSPropertyOp9
 70
     1
102
RTVSPropertyOp10
 70
     1
102
RTVSPropertyOp11
 70
     1
102
RTVSPropertyOp12
 70
     1
102
RTVSPropertyOp13
 70
     1
102
RTVSPropertyOp14
 70
     1
102
RTVSPropertyOp15
 70
     1
102
RTVSPropertyOp16
 70
     1
102
RTVSPropertyOp17
 70
     1
102
RTVSPropertyOp18
 70
     1
102
RTVSPropertyOp19
 70
     1
102
RTVSPropertyOp20
 70
     1
102
RTVSPropertyOp21
 70
     1
102
RTVSPropertyOp22
 70
     1
102
RTVSPropertyOp23
 70
     1
102
RTVSPropertyOp24
 70
     1
102
RTVSPropertyOp25
 70
     1
102
RTVSPropertyOp26
 70
     1
102
RTVSPropertyOp27
 70
     1
102
RTVSPropertyOp28
 70
     1
102
RTVSPropertyOp29
 70
     1
102
RTVSPropertyOp30
 70
     1
102
RTVSPropertyOp31
 70
     1
102
RTVSPropertyOp32
 70
     1
  0
XRECORD
  5
906
102
{ACAD_REACTORS
330
905
102
}
330
905
100
AcDbXrecord
280
     1
102
RTVSPropertyOp0
 70
     1
102
RTVSPropertyOp1
 70
     1
102
RTVSPropertyOp2
 70
     1
102
RTVSPropertyOp3
 70
     1
102
RTVSPropertyOp4
 70
     1
102
RTVSPropertyOp5
 70
     1
102
RTVSPropertyOp6
 70
     1
102
RTVSPropertyOp7
 70
     1
102
RTVSPropertyOp8
 70
     1
102
RTVSPropertyOp9
 70
     1
102
RTVSPropertyOp10
 70
     1
102
RTVSPropertyOp11
 70
     1
102
RTVSPropertyOp12
 70
     1
102
RTVSPropertyOp13
 70
     1
102
RTVSPropertyOp14
 70
     1
102
RTVSPropertyOp15
 70
     1
102
RTVSPropertyOp16
 70
     1
102
RTVSPropertyOp17
 70
     1
102
RTVSPropertyOp18
 70
     1
102
RTVSPropertyOp19
 70
     1
102
RTVSPropertyOp20
 70
     1
102
RTVSPropertyOp21
 70
     1
102
RTVSPropertyOp22
 70
     1
102
RTVSPropertyOp23
 70
     1
102
RTVSPropertyOp24
 70
     1
102
RTVSPropertyOp25
 70
     1
102
RTVSPropertyOp26
 70
     1
102
RTVSPropertyOp27
 70
     1
102
RTVSPropertyOp28
 70
     1
102
RTVSPropertyOp29
 70
     1
102
RTVSPropertyOp30
 70
     1
102
RTVSPropertyOp31
 70
     1
102
RTVSPropertyOp32
 70
     1
  0
XRECORD
  5
913
102
{ACAD_REACTORS
330
912
102
}
330
912
100
AcDbXrecord
280
     1
102
RTVSPropertyOp0
 70
     1
102
RTVSPropertyOp1
 70
     1
102
RTVSPropertyOp2
 70
     1
102
RTVSPropertyOp3
 70
     1
102
RTVSPropertyOp4
 70
     1
102
RTVSPropertyOp5
 70
     1
102
RTVSPropertyOp6
 70
     1
102
RTVSPropertyOp7
 70
     1
102
RTVSPropertyOp8
 70
     1
102
RTVSPropertyOp9
 70
     1
102
RTVSPropertyOp10
 70
     1
102
RTVSPropertyOp11
 70
     1
102
RTVSPropertyOp12
 70
     1
102
RTVSPropertyOp13
 70
     1
102
RTVSPropertyOp14
 70
     1
102
RTVSPropertyOp15
 70
     1
102
RTVSPropertyOp16
 70
     1
102
RTVSPropertyOp17
 70
     1
102
RTVSPropertyOp18
 70
     1
102
RTVSPropertyOp19
 70
     1
102
RTVSPropertyOp20
 70
     1
102
RTVSPropertyOp21
 70
     1
102
RTVSPropertyOp22
 70
     1
102
RTVSPropertyOp23
 70
     1
102
RTVSPropertyOp24
 70
     1
102
RTVSPropertyOp25
 70
     1
102
RTVSPropertyOp26
 70
     1
102
RTVSPropertyOp27
 70
     1
102
RTVSPropertyOp28
 70
     1
102
RTVSPropertyOp29
 70
     1
102
RTVSPropertyOp30
 70
     1
102
RTVSPropertyOp31
 70
     1
102
RTVSPropertyOp32
 70
     1
  0
XRECORD
  5
91B
102
{ACAD_REACTORS
330
91A
102
}
330
91A
100
AcDbXrecord
280
     1
102
RTVSPropertyOp0
 70
     1
102
RTVSPropertyOp1
 70
     1
102
RTVSPropertyOp2
 70
     1
102
RTVSPropertyOp3
 70
     1
102
RTVSPropertyOp4
 70
     1
102
RTVSPropertyOp5
 70
     1
102
RTVSPropertyOp6
 70
     1
102
RTVSPropertyOp7
 70
     1
102
RTVSPropertyOp8
 70
     1
102
RTVSPropertyOp9
 70
     1
102
RTVSPropertyOp10
 70
     1
102
RTVSPropertyOp11
 70
     1
102
RTVSPropertyOp12
 70
     1
102
RTVSPropertyOp13
 70
     1
102
RTVSPropertyOp14
 70
     1
102
RTVSPropertyOp15
 70
     1
102
RTVSPropertyOp16
 70
     1
102
RTVSPropertyOp17
 70
     1
102
RTVSPropertyOp18
 70
     1
102
RTVSPropertyOp19
 70
     1
102
RTVSPropertyOp20
 70
     1
102
RTVSPropertyOp21
 70
     1
102
RTVSPropertyOp22
 70
     1
102
RTVSPropertyOp23
 70
     1
102
RTVSPropertyOp24
 70
     1
102
RTVSPropertyOp25
 70
     1
102
RTVSPropertyOp26
 70
     1
102
RTVSPropertyOp27
 70
     1
102
RTVSPropertyOp28
 70
     1
102
RTVSPropertyOp29
 70
     1
102
RTVSPropertyOp30
 70
     1
102
RTVSPropertyOp31
 70
     1
102
RTVSPropertyOp32
 70
     1
  0
ENDSEC
  0
EOF
