  0
SECTION
  2
HEADER
  9
$ACADVER
  1
AC1015
  9
$ACADMAINTVER
 70
     6
  9
$DWGCODEPAGE
  3
ANSI_932
  9
$INSBASE
 10
0.0
 20
0.0
 30
0.0
  9
$EXTMIN
 10
325.1005537927366
 20
-622.3517583979176
 30
0.0
  9
$EXTMAX
 10
730.1005537927368
 20
-343.1686942777599
 30
0.0
  9
$LIMMIN
 10
0.0
 20
0.0
  9
$LIMMAX
 10
12.0
 20
9.0
  9
$ORTHOMODE
 70
     1
  9
$REGENMODE
 70
     1
  9
$FILLMODE
 70
     1
  9
$QTEXTMODE
 70
     0
  9
$MIRRTEXT
 70
     0
  9
$LTSCALE
 40
1.0
  9
$ATTMODE
 70
     1
  9
$TEXTSIZE
 40
3.2
  9
$TRACEWID
 40
0.05
  9
$TEXTSTYLE
  7
高3.2
  9
$CLAYER
  8
0
  9
$CELTYPE
  6
ByLayer
  9
$CECOLOR
 62
   256
  9
$CELTSCALE
 40
1.0
  9
$DISPSILH
 70
     0
  9
$DIMSCALE
 40
1.0
  9
$DIMASZ
 40
2.5
  9
$DIMEXO
 40
0.25
  9
$DIMDLI
 40
0.2
  9
$DIMRND
 40
0.0
  9
$DIMDLE
 40
0.0
  9
$DIMEXE
 40
1.25
  9
$DIMTP
 40
0.0
  9
$DIMTM
 40
0.0
  9
$DIMTXT
 40
3.0
  9
$DIMCEN
 40
0.0
  9
$DIMTSZ
 40
0.0
  9
$DIMTOL
 70
     0
  9
$DIMLIM
 70
     0
  9
$DIMTIH
 70
     0
  9
$DIMTOH
 70
     0
  9
$DIMSE1
 70
     0
  9
$DIMSE2
 70
     0
  9
$DIMTAD
 70
     3
  9
$DIMZIN
 70
     8
  9
$DIMBLK
  1
Open30
  9
$DIMASO
 70
     1
  9
$DIMSHO
 70
     1
  9
$DIMPOST
  1

  9
$DIMAPOST
  1

  9
$DIMALT
 70
     0
  9
$DIMALTD
 70
     3
  9
$DIMALTF
 40
0.03937007874016
  9
$DIMLFAC
 40
1.0
  9
$DIMTOFL
 70
     1
  9
$DIMTVP
 40
0.0
  9
$DIMTIX
 70
     0
  9
$DIMSOXD
 70
     0
  9
$DIMSAH
 70
     0
  9
$DIMBLK1
  1

  9
$DIMBLK2
  1

  9
$DIMSTYLE
  2
1：1
  9
$DIMCLRD
 70
     0
  9
$DIMCLRE
 70
     0
  9
$DIMCLRT
 70
     4
  9
$DIMTFAC
 40
1.0
  9
$DIMGAP
 40
0.625
  9
$DIMJUST
 70
     0
  9
$DIMSD1
 70
     0
  9
$DIMSD2
 70
     0
  9
$DIMTOLJ
 70
     0
  9
$DIMTZIN
 70
     8
  9
$DIMALTZ
 70
     0
  9
$DIMALTTZ
 70
     0
  9
$DIMUPT
 70
     1
  9
$DIMDEC
 70
     2
  9
$DIMTDEC
 70
     2
  9
$DIMALTU
 70
     2
  9
$DIMALTTD
 70
     3
  9
$DIMTXSTY
  7
Standard
  9
$DIMAUNIT
 70
     0
  9
$DIMADEC
 70
     1
  9
$DIMALTRND
 40
0.0
  9
$DIMAZIN
 70
     2
  9
$DIMDSEP
 70
    46
  9
$DIMATFIT
 70
     0
  9
$DIMFRAC
 70
     0
  9
$DIMLDRBLK
  1
Open30
  9
$DIMLUNIT
 70
     2
  9
$DIMLWD
 70
    -2
  9
$DIMLWE
 70
    -2
  9
$DIMTMOVE
 70
     0
  9
$LUNITS
 70
     2
  9
$LUPREC
 70
     4
  9
$SKETCHINC
 40
0.1
  9
$FILLETRAD
 40
1.0
  9
$AUNITS
 70
     0
  9
$AUPREC
 70
     0
  9
$MENU
  1
.
  9
$ELEVATION
 40
0.0
  9
$PELEVATION
 40
0.0
  9
$THICKNESS
 40
0.0
  9
$LIMCHECK
 70
     0
  9
$CHAMFERA
 40
0.0
  9
$CHAMFERB
 40
0.0
  9
$CHAMFERC
 40
0.0
  9
$CHAMFERD
 40
0.0
  9
$SKPOLY
 70
     0
  9
$TDCREATE
 40
2456300.653817153
  9
$TDUCREATE
 40
2456300.278817153
  9
$TDUPDATE
 40
2460131.349651539
  9
$TDUUPDATE
 40
2460130.974651539
  9
$TDINDWG
 40
5.3346092245
  9
$TDUSRTIMER
 40
5.3346023495
  9
$USRTIMER
 70
     1
  9
$ANGBASE
 50
0.0
  9
$ANGDIR
 70
     0
  9
$PDMODE
 70
     0
  9
$PDSIZE
 40
0.0
  9
$PLINEWID
 40
0.0
  9
$SPLFRAME
 70
     0
  9
$SPLINETYPE
 70
     6
  9
$SPLINESEGS
 70
     8
  9
$HANDSEED
  5
6340F
  9
$SURFTAB1
 70
     6
  9
$SURFTAB2
 70
     6
  9
$SURFTYPE
 70
     6
  9
$SURFU
 70
     6
  9
$SURFV
 70
     6
  9
$UCSBASE
  2

  9
$UCSNAME
  2

  9
$UCSORG
 10
0.0
 20
0.0
 30
0.0
  9
$UCSXDIR
 10
1.0
 20
0.0
 30
0.0
  9
$UCSYDIR
 10
0.0
 20
1.0
 30
0.0
  9
$UCSORTHOREF
  2

  9
$UCSORTHOVIEW
 70
     0
  9
$UCSORGTOP
 10
0.0
 20
0.0
 30
0.0
  9
$UCSORGBOTTOM
 10
0.0
 20
0.0
 30
0.0
  9
$UCSORGLEFT
 10
0.0
 20
0.0
 30
0.0
  9
$UCSORGRIGHT
 10
0.0
 20
0.0
 30
0.0
  9
$UCSORGFRONT
 10
0.0
 20
0.0
 30
0.0
  9
$UCSORGBACK
 10
0.0
 20
0.0
 30
0.0
  9
$PUCSBASE
  2

  9
$PUCSNAME
  2

  9
$PUCSORG
 10
0.0
 20
0.0
 30
0.0
  9
$PUCSXDIR
 10
1.0
 20
0.0
 30
0.0
  9
$PUCSYDIR
 10
0.0
 20
1.0
 30
0.0
  9
$PUCSORTHOREF
  2

  9
$PUCSORTHOVIEW
 70
     0
  9
$PUCSORGTOP
 10
0.0
 20
0.0
 30
0.0
  9
$PUCSORGBOTTOM
 10
0.0
 20
0.0
 30
0.0
  9
$PUCSORGLEFT
 10
0.0
 20
0.0
 30
0.0
  9
$PUCSORGRIGHT
 10
0.0
 20
0.0
 30
0.0
  9
$PUCSORGFRONT
 10
0.0
 20
0.0
 30
0.0
  9
$PUCSORGBACK
 10
0.0
 20
0.0
 30
0.0
  9
$USERI1
 70
     0
  9
$USERI2
 70
     0
  9
$USERI3
 70
     0
  9
$USERI4
 70
     0
  9
$USERI5
 70
     0
  9
$USERR1
 40
0.0
  9
$USERR2
 40
0.0
  9
$USERR3
 40
0.0
  9
$USERR4
 40
0.0
  9
$USERR5
 40
0.0
  9
$WORLDVIEW
 70
     1
  9
$SHADEDGE
 70
     3
  9
$SHADEDIF
 70
    70
  9
$TILEMODE
 70
     1
  9
$MAXACTVP
 70
    64
  9
$PINSBASE
 10
0.0
 20
0.0
 30
0.0
  9
$PLIMCHECK
 70
     0
  9
$PEXTMIN
 10
0.0
 20
0.0
 30
0.0
  9
$PEXTMAX
 10
0.0
 20
0.0
 30
0.0
  9
$PLIMMIN
 10
0.0
 20
0.0
  9
$PLIMMAX
 10
12.0
 20
9.0
  9
$UNITMODE
 70
     0
  9
$VISRETAIN
 70
     1
  9
$PLINEGEN
 70
     0
  9
$PSLTSCALE
 70
     1
  9
$TREEDEPTH
 70
  3020
  9
$CMLSTYLE
  2
Standard
  9
$CMLJUST
 70
     0
  9
$CMLSCALE
 40
1.0
  9
$PROXYGRAPHICS
 70
     1
  9
$MEASUREMENT
 70
     1
  9
$CELWEIGHT
370
    -1
  9
$ENDCAPS
280
     0
  9
$JOINSTYLE
280
     0
  9
$LWDISPLAY
290
     0
  9
$INSUNITS
 70
     1
  9
$HYPERLINKBASE
  1

  9
$STYLESHEET
  1

  9
$XEDIT
290
     1
  9
$CEPSNTYPE
380
     0
  9
$PSTYLEMODE
290
     1
  9
$FINGERPRINTGUID
  2
{8700D258-E9BA-447B-8494-411913EA45F2}
  9
$VERSIONGUID
  2
{D5C8BCCC-472F-43D8-B3B8-878C7B56BC61}
  9
$EXTNAMES
290
     1
  9
$PSVPSCALE
 40
0.0
  9
$OLESTARTUP
290
     0
  0
ENDSEC
  0
SECTION
  2
CLASSES
  0
CLASS
  1
ACDBDICTIONARYWDFLT
  2
AcDbDictionaryWithDefault
  3
ObjectDBX Classes
 90
        0
280
     0
281
     0
  0
CLASS
  1
ACDBPLACEHOLDER
  2
AcDbPlaceHolder
  3
ObjectDBX Classes
 90
        0
280
     0
281
     0
  0
CLASS
  1
LAYOUT
  2
AcDbLayout
  3
ObjectDBX Classes
 90
        0
280
     0
281
     0
  0
CLASS
  1
DICTIONARYVAR
  2
AcDbDictionaryVar
  3
ObjectDBX Classes
 90
        0
280
     0
281
     0
  0
CLASS
  1
TABLESTYLE
  2
AcDbTableStyle
  3
ObjectDBX Classes
 90
     4095
280
     0
281
     0
  0
CLASS
  1
MATERIAL
  2
AcDbMaterial
  3
ObjectDBX Classes
 90
     1153
280
     0
281
     0
  0
CLASS
  1
VISUALSTYLE
  2
AcDbVisualStyle
  3
ObjectDBX Classes
 90
     4095
280
     0
281
     0
  0
CLASS
  1
SORTENTSTABLE
  2
AcDbSortentsTable
  3
ObjectDBX Classes
 90
        0
280
     0
281
     0
  0
CLASS
  1
DIMASSOC
  2
AcDbDimAssoc
  3
"AcDbDimAssoc|Product Desc:     AcDim ARX App For Dimension|Company:          Autodesk, Inc.|WEB Address:      www.autodesk.com"
 90
        0
280
     0
281
     0
  0
CLASS
  1
SCALE
  2
AcDbScale
  3
ObjectDBX Classes
 90
     1153
280
     0
281
     0
  0
CLASS
  1
MLEADERSTYLE
  2
AcDbMLeaderStyle
  3
ACDB_MLEADERSTYLE_CLASS
 90
     4095
280
     0
281
     0
  0
CLASS
  1
CELLSTYLEMAP
  2
AcDbCellStyleMap
  3
ObjectDBX Classes
 90
     1152
280
     0
281
     0
  0
CLASS
  1
AEC_REFEDIT_STATUS_TRACKER
  2
AecDbRefEditStatusTracker
  3
AecArchBase60|Product Desc: Autodesk Architectural Desktop 2007 |Company: Autodesk,Inc. |WEB Address: www.autodesk.com
 90
      129
280
     1
281
     0
  0
CLASS
  1
NPOCOLLECTION
  2
AcDbImpNonPersistentObjectsCollection
  3
ObjectDBX Classes
 90
     1153
280
     1
281
     0
  0
CLASS
  1
ACDBASSOCNETWORK
  2
AcDbAssocNetwork
  3
ObjectDBX Classes
 90
     1025
280
     0
281
     0
  0
CLASS
  1
ACDBASSOCACTION
  2
AcDbAssocAction
  3
ObjectDBX Classes
 90
     1025
280
     0
281
     0
  0
CLASS
  1
ACDBASSOCARRAYACTIONBODY
  2
AcDbAssocArrayActionBody
  3
ObjectDBX Classes
 90
     1025
280
     0
281
     0
  0
CLASS
  1
ACDBASSOCVERTEXACTIONPARAM
  2
AcDbAssocVertexActionParam
  3
ObjectDBX Classes
 90
     1025
280
     0
281
     0
  0
CLASS
  1
ACDBASSOCDEPENDENCY
  2
AcDbAssocDependency
  3
ObjectDBX Classes
 90
     1025
280
     0
281
     0
  0
ENDSEC
  0
SECTION
  2
TABLES
  0
TABLE
  2
VPORT
  5
8
102
{ACAD_XDICTIONARY
360
633D1
102
}
330
0
100
AcDbSymbolTable
 70
     1
  0
VPORT
  5
94
330
8
100
AcDbSymbolTableRecord
100
AcDbViewportTableRecord
  2
*Active
 70
     0
 10
0.0
 20
0.0
 11
1.0
 21
1.0
 12
592.359260743563
 22
-518.0393425570019
 13
0.0
 23
0.0
 14
0.5
 24
0.5
 15
0.5
 25
0.5
 16
0.0
 26
0.0
 36
1.0
 17
0.0
 27
0.0
 37
0.0
 40
464.6597890226501
 41
1.855683269476373
 42
50.0
 43
0.0
 44
0.0
 50
0.0
 51
0.0
 71
     0
 72
  1000
 73
     1
 74
     2
 75
     0
 76
     0
 77
     0
 78
     2
281
     0
 65
     1
110
0.0
120
0.0
130
0.0
111
1.0
121
0.0
131
0.0
112
0.0
122
1.0
132
0.0
 79
     0
146
0.0
  0
ENDTAB
  0
TABLE
  2
LTYPE
  5
5
330
0
100
AcDbSymbolTable
 70
     6
  0
LTYPE
  5
14
330
5
100
AcDbSymbolTableRecord
100
AcDbLinetypeTableRecord
  2
ByBlock
 70
     0
  3

 72
    65
 73
     0
 40
0.0
  0
LTYPE
  5
15
330
5
100
AcDbSymbolTableRecord
100
AcDbLinetypeTableRecord
  2
ByLayer
 70
     0
  3

 72
    65
 73
     0
 40
0.0
  0
LTYPE
  5
16
330
5
100
AcDbSymbolTableRecord
100
AcDbLinetypeTableRecord
  2
Continuous
 70
     0
  3
Solid line
 72
    65
 73
     0
 40
0.0
  0
LTYPE
  5
148
330
5
100
AcDbSymbolTableRecord
100
AcDbLinetypeTableRecord
  2
CENTER
 70
     0
  3
Center ____ _ ____ _ ____ _ ____ _ ____ _ ____
 72
    65
 73
     4
 40
50.8
 49
31.75
 74
     0
 49
-6.349999999999997
 74
     0
 49
6.349999999999997
 74
     0
 49
-6.349999999999997
 74
     0
  0
LTYPE
  5
149
330
5
100
AcDbSymbolTableRecord
100
AcDbLinetypeTableRecord
  2
HIDDEN
 70
     0
  3
Hidden __ __ __ __ __ __ __ __ __ __ __ __ __ __
 72
    65
 73
     2
 40
9.525
 49
6.349999999999997
 74
     0
 49
-3.174999999999998
 74
     0
  0
LTYPE
  5
14A
330
5
100
AcDbSymbolTableRecord
100
AcDbLinetypeTableRecord
  2
PHANTOM
 70
     0
  3
Phantom ______  __  __  ______  __  __  ______
 72
    65
 73
     6
 40
63.5
 49
31.75
 74
     0
 49
-6.349999999999997
 74
     0
 49
6.349999999999997
 74
     0
 49
-6.349999999999997
 74
     0
 49
6.349999999999997
 74
     0
 49
-6.349999999999997
 74
     0
  0
LTYPE
  5
F13
330
5
100
AcDbSymbolTableRecord
100
AcDbLinetypeTableRecord
  2
CENTERX2
 70
     0
  3
Center (2x) ________  __  ________  __  _____
 72
    65
 73
     4
 40
20.32
 49
12.7
 74
     0
 49
-2.54
 74
     0
 49
2.54
 74
     0
 49
-2.54
 74
     0
  0
LTYPE
  5
1E17E
330
5
100
AcDbSymbolTableRecord
100
AcDbLinetypeTableRecord
  2
DASHED
 70
     0
  3
DASHED
 72
    65
 73
     2
 40
0.75
 49
0.5
 74
     0
 49
-0.25
 74
     0
  0
ENDTAB
  0
TABLE
  2
LAYER
  5
2
102
{ACAD_XDICTIONARY
360
DD
102
}
330
0
100
AcDbSymbolTable
 70
     2
  0
LAYER
  5
10
102
{ACAD_XDICTIONARY
360
8E9
102
}
330
2
100
AcDbSymbolTableRecord
100
AcDbLayerTableRecord
  2
0
 70
     0
 62
     7
  6
Continuous
370
    -3
390
F
  0
LAYER
  5
D8
330
2
100
AcDbSymbolTableRecord
100
AcDbLayerTableRecord
  2
Defpoints
 70
     0
 62
     7
  6
Continuous
290
     0
370
    -3
390
F
  0
ENDTAB
  0
TABLE
  2
STYLE
  5
3
330
0
100
AcDbSymbolTable
 70
     9
  0
STYLE
  5
11
330
3
100
AcDbSymbolTableRecord
100
AcDbTextStyleTableRecord
  2
Standard
 70
     0
 40
0.0
 41
1.0
 50
0.0
 71
     0
 42
0.2
  3
txt.shx
  4
bigfont.shx
  0
STYLE
  5
11D
330
3
100
AcDbSymbolTableRecord
100
AcDbTextStyleTableRecord
  2
高3.2
 70
     0
 40
3.2
 41
1.0
 50
0.0
 71
     0
 42
3.2
  3
txt.shx
  4
bigfont.shx
  0
STYLE
  5
11E
330
3
100
AcDbSymbolTableRecord
100
AcDbTextStyleTableRecord
  2
高6.3
 70
     0
 40
6.299999999999998
 41
1.0
 50
0.0
 71
     0
 42
6.299999999999998
  3
txt.shx
  4
bigfont.shx
  0
STYLE
  5
11F
330
3
100
AcDbSymbolTableRecord
100
AcDbTextStyleTableRecord
  2
高2.5
 70
     0
 40
2.5
 41
1.0
 50
0.0
 71
     0
 42
0.2
  3
txt.shx
  4
bigfont.shx
  0
STYLE
  5
146
330
3
100
AcDbSymbolTableRecord
100
AcDbTextStyleTableRecord
  2
高4.5
 70
     0
 40
4.5
 41
1.0
 50
0.0
 71
     0
 42
6.299999999999998
  3
txt.shx
  4
bigfont.shx
  0
STYLE
  5
171
330
3
100
AcDbSymbolTableRecord
100
AcDbTextStyleTableRecord
  2
高2
 70
     0
 40
2.0
 41
1.0
 50
0.0
 71
     0
 42
6.299999999999998
  3
txt.shx
  4
bigfont.shx
  0
STYLE
  5
1A53B
330
3
100
AcDbSymbolTableRecord
100
AcDbTextStyleTableRecord
  2
SLDTEXTSTYLE0
 70
     0
 40
0.0
 41
0.75
 50
0.0
 71
     0
 42
3.5
  3
TXT
  4
bigfont
  0
STYLE
  5
1A53C
330
3
100
AcDbSymbolTableRecord
100
AcDbTextStyleTableRecord
  2
SLDTEXTSTYLE1
 70
     0
 40
0.0
 41
0.7
 50
0.0
 71
     0
 42
3.5
  3
TXT
  4
bigfont
  0
STYLE
  5
1A53D
330
3
100
AcDbSymbolTableRecord
100
AcDbTextStyleTableRecord
  2
SLDTEXTSTYLE2
 70
     0
 40
0.0
 41
0.6200000000000001
 50
0.0
 71
     0
 42
3.5
  3
TXT
  4
bigfont
  0
ENDTAB
  0
TABLE
  2
VIEW
  5
6
330
0
100
AcDbSymbolTable
 70
     0
  0
ENDTAB
  0
TABLE
  2
UCS
  5
7
330
0
100
AcDbSymbolTable
 70
     0
  0
ENDTAB
  0
TABLE
  2
APPID
  5
9
330
0
100
AcDbSymbolTable
 70
    16
  0
APPID
  5
12
330
9
100
AcDbSymbolTableRecord
100
AcDbRegAppTableRecord
  2
ACAD
 70
     0
  0
APPID
  5
DC
330
9
100
AcDbSymbolTableRecord
100
AcDbRegAppTableRecord
  2
ACAD_DSTYLE_DIMJOGGED_JOGANGLE_SYMBOL
 70
     0
  0
APPID
  5
3A5
330
9
100
AcDbSymbolTableRecord
100
AcDbRegAppTableRecord
  2
ACAD_EXEMPT_FROM_CAD_STANDARDS
 70
     0
  0
APPID
  5
70D
330
9
100
AcDbSymbolTableRecord
100
AcDbRegAppTableRecord
  2
ACAD_DSTYLE_DIMJAG
 70
     0
  0
APPID
  5
70E
330
9
100
AcDbSymbolTableRecord
100
AcDbRegAppTableRecord
  2
ACAD_DSTYLE_DIMBREAK
 70
     0
  0
APPID
  5
70F
330
9
100
AcDbSymbolTableRecord
100
AcDbRegAppTableRecord
  2
ACAD_DSTYLE_DIMTALN
 70
     0
  0
APPID
  5
B18
330
9
100
AcDbSymbolTableRecord
100
AcDbRegAppTableRecord
  2
ACAD_DSTYLE_DIMARC_LENGTH_SYMBOL
 70
     0
  0
APPID
  5
B19
330
9
100
AcDbSymbolTableRecord
100
AcDbRegAppTableRecord
  2
ACAD_DSTYLE_DIMEXT_LENGTH
 70
     0
  0
APPID
  5
B2E
330
9
100
AcDbSymbolTableRecord
100
AcDbRegAppTableRecord
  2
ACAD_MLEADERVER
 70
     0
  0
APPID
  5
3D3C
330
9
100
AcDbSymbolTableRecord
100
AcDbRegAppTableRecord
  2
ACAD_SPLINE_DATA
 70
     0
  0
APPID
  5
3D3D
330
9
100
AcDbSymbolTableRecord
100
AcDbRegAppTableRecord
  2
ACAD_SPLINE_DATA2
 70
     0
  0
APPID
  5
75D2
330
9
100
AcDbSymbolTableRecord
100
AcDbRegAppTableRecord
  2
ACAD_PSEXT
 70
     0
  0
APPID
  5
A754
330
9
100
AcDbSymbolTableRecord
100
AcDbRegAppTableRecord
  2
PLOTTRANSPARENCY
 70
     0
  0
APPID
  5
1E18D
330
9
100
AcDbSymbolTableRecord
100
AcDbRegAppTableRecord
  2
AcadAnnotative
 70
     0
  0
APPID
  5
1F484
330
9
100
AcDbSymbolTableRecord
100
AcDbRegAppTableRecord
  2
AcadAnnoPO
 70
     0
  0
APPID
  5
5FBC3
330
9
100
AcDbSymbolTableRecord
100
AcDbRegAppTableRecord
  2
ACAD_DSTYLE_DIMRADIAL_EXTENSION
 70
     0
  0
ENDTAB
  0
TABLE
  2
DIMSTYLE
  5
A
330
0
100
AcDbSymbolTable
 70
    13
100
AcDbDimStyleTable
  0
DIMSTYLE
105
D9
330
A
100
AcDbSymbolTableRecord
100
AcDbDimStyleTableRecord
  2
1：1
 70
     0
 41
2.5
 42
0.25
 43
0.2
 44
1.25
 73
     0
 74
     0
 77
     3
 78
     8
 79
     2
140
3.0
141
0.0
143
0.03937007874016
147
0.625
171
     3
172
     1
271
     2
178
     4
179
     1
271
     2
272
     2
274
     3
283
     0
284
     8
288
     1
289
     0
340
11
341
C6
342
C6
1001
ACAD_DSTYLE_DIMJOGGED_JOGANGLE_SYMBOL
1070
   384
1040
1.570796326794897
1001
ACAD_DSTYLE_DIMARC_LENGTH_SYMBOL
1070
   379
1070
     2
  0
DIMSTYLE
105
DA
330
A
100
AcDbSymbolTableRecord
100
AcDbDimStyleTableRecord
  2
2：1
 70
     0
 41
2.5
 42
0.25
 43
0.2
 44
1.25
 73
     0
 74
     0
 77
     3
 78
     8
 79
     2
140
3.0
141
0.0
143
0.03937007874016
144
0.5
147
0.625
171
     3
172
     1
271
     2
178
     4
179
     1
271
     2
272
     2
274
     3
283
     0
284
     8
288
     1
289
     0
340
11
341
C6
342
C6
1001
ACAD_DSTYLE_DIMJOGGED_JOGANGLE_SYMBOL
1070
   384
1040
1.570796326794897
1001
ACAD_DSTYLE_DIMARC_LENGTH_SYMBOL
1070
   379
1070
     2
  0
DIMSTYLE
105
DB
330
A
100
AcDbSymbolTableRecord
100
AcDbDimStyleTableRecord
  2
5：1
 70
     0
 41
2.5
 42
0.25
 43
0.2
 44
1.25
 73
     0
 74
     0
 77
     3
 78
     8
 79
     2
140
3.0
141
0.0
143
0.03937007874016
144
0.2
147
0.625
171
     3
172
     1
271
     2
178
     4
179
     1
271
     2
272
     2
274
     3
283
     0
284
     8
288
     1
289
     0
340
11
341
C6
342
C6
1001
ACAD_DSTYLE_DIMJOGGED_JOGANGLE_SYMBOL
1070
   384
1040
1.570796326794897
1001
ACAD_DSTYLE_DIMARC_LENGTH_SYMBOL
1070
   379
1070
     2
  0
DIMSTYLE
105
127
330
A
100
AcDbSymbolTableRecord
100
AcDbDimStyleTableRecord
  2
10：1
 70
     0
 41
2.5
 42
0.25
 43
0.2
 44
1.25
 73
     0
 74
     0
 77
     3
 78
     8
 79
     2
140
3.0
141
0.0
143
0.03937007874016
144
0.1
147
0.625
171
     3
172
     1
271
     2
178
     4
179
     1
271
     2
272
     2
274
     3
283
     0
284
     8
288
     1
289
     0
340
11
341
C6
342
C6
1001
ACAD_DSTYLE_DIMJOGGED_JOGANGLE_SYMBOL
1070
   384
1040
1.570796326794897
1001
ACAD_DSTYLE_DIMARC_LENGTH_SYMBOL
1070
   379
1070
     2
  0
DIMSTYLE
105
128
330
A
100
AcDbSymbolTableRecord
100
AcDbDimStyleTableRecord
  2
1／2
 70
     0
 41
2.5
 42
0.25
 43
0.2
 44
1.25
 73
     0
 74
     0
 77
     3
 78
     8
 79
     2
140
3.0
141
0.0
143
0.03937007874016
144
2.0
147
0.625
171
     3
172
     1
271
     2
178
     4
179
     1
271
     2
272
     2
274
     3
283
     0
284
     8
288
     1
289
     0
340
11
341
C6
342
C6
1001
ACAD_DSTYLE_DIMJOGGED_JOGANGLE_SYMBOL
1070
   384
1040
1.570796326794897
1001
ACAD_DSTYLE_DIMARC_LENGTH_SYMBOL
1070
   379
1070
     2
  0
DIMSTYLE
105
129
330
A
100
AcDbSymbolTableRecord
100
AcDbDimStyleTableRecord
  2
1／5
 70
     0
 41
2.5
 42
0.25
 43
0.2
 44
1.25
 73
     0
 74
     0
 77
     3
 78
     8
 79
     2
140
3.0
141
0.0
143
0.03937007874016
144
5.0
147
0.625
171
     3
172
     1
271
     2
178
     4
179
     1
271
     2
272
     2
274
     3
283
     0
284
     8
288
     1
289
     0
340
11
341
C6
342
C6
1001
ACAD_DSTYLE_DIMJOGGED_JOGANGLE_SYMBOL
1070
   384
1040
1.570796326794897
1001
ACAD_DSTYLE_DIMARC_LENGTH_SYMBOL
1070
   379
1070
     2
  0
DIMSTYLE
105
12A
330
A
100
AcDbSymbolTableRecord
100
AcDbDimStyleTableRecord
  2
1／10
 70
     0
 41
2.5
 42
0.25
 43
0.2
 44
1.25
 73
     0
 74
     0
 77
     3
 78
     8
 79
     2
140
3.0
141
0.0
143
0.03937007874016
144
10.0
147
0.625
171
     3
172
     1
271
     2
178
     4
179
     1
271
     2
272
     2
274
     3
283
     0
284
     8
288
     1
289
     0
340
11
341
C6
342
C6
1001
ACAD_DSTYLE_DIMJOGGED_JOGANGLE_SYMBOL
1070
   384
1040
1.570796326794897
1001
ACAD_DSTYLE_DIMARC_LENGTH_SYMBOL
1070
   379
1070
     2
  0
DIMSTYLE
105
70A
330
A
100
AcDbSymbolTableRecord
100
AcDbDimStyleTableRecord
  2
1／4
 70
     0
 41
2.5
 42
0.25
 43
0.2
 44
1.25
 73
     0
 74
     0
 77
     3
 78
     8
 79
     2
140
3.0
141
0.0
143
0.03937007874016
144
4.0
147
0.625
171
     3
172
     1
271
     2
178
     4
179
     1
271
     2
272
     2
274
     3
283
     0
284
     8
288
     1
289
     0
340
11
341
C6
342
C6
1001
ACAD_DSTYLE_DIMJOGGED_JOGANGLE_SYMBOL
1070
   384
1040
1.570796326794897
1001
ACAD_DSTYLE_DIMARC_LENGTH_SYMBOL
1070
   379
1070
     2
  0
DIMSTYLE
105
70B
330
A
100
AcDbSymbolTableRecord
100
AcDbDimStyleTableRecord
  2
1／3
 70
     0
 41
2.5
 42
0.25
 43
0.2
 44
1.25
 73
     0
 74
     0
 77
     3
 78
     8
 79
     2
140
3.0
141
0.0
143
0.03937007874016
144
3.0
147
0.625
171
     3
172
     1
271
     2
178
     4
179
     1
271
     2
272
     2
274
     3
283
     0
284
     8
288
     1
289
     0
340
11
341
C6
342
C6
1001
ACAD_DSTYLE_DIMJOGGED_JOGANGLE_SYMBOL
1070
   384
1040
1.570796326794897
1001
ACAD_DSTYLE_DIMARC_LENGTH_SYMBOL
1070
   379
1070
     2
  0
DIMSTYLE
105
70C
330
A
100
AcDbSymbolTableRecord
100
AcDbDimStyleTableRecord
  2
FREE
 70
     0
 41
2.5
 42
0.25
 43
0.2
 44
1.25
 73
     0
 74
     0
 77
     3
 78
     8
 79
     2
140
3.0
141
0.0
143
0.03937007874016
147
0.625
171
     3
172
     1
271
     2
178
     4
179
     1
271
     2
272
     2
274
     3
283
     0
284
     8
288
     1
289
     0
340
11
341
C6
342
C6
1001
ACAD_DSTYLE_DIMBREAK
1070
   391
1040
3.75
1001
ACAD_DSTYLE_DIMJAG
1070
   388
1040
1.5
1001
ACAD_DSTYLE_DIMTALN
1070
   392
1070
     0
1001
ACAD_DSTYLE_DIMJOGGED_JOGANGLE_SYMBOL
1070
   384
1040
1.570796326794897
1001
ACAD_DSTYLE_DIMARC_LENGTH_SYMBOL
1070
   379
1070
     2
  0
DIMSTYLE
105
F14
330
A
100
AcDbSymbolTableRecord
100
AcDbDimStyleTableRecord
  2
ISO-25
 70
     0
 41
2.5
 42
0.625
 43
3.75
 44
1.25
 73
     0
 74
     0
 77
     1
 78
     8
140
2.5
141
2.5
143
0.03937007874016
147
0.625
171
     3
172
     1
178
     0
271
     2
272
     2
274
     3
278
    44
283
     0
284
     8
340
11
  0
DIMSTYLE
105
B8C1
330
A
100
AcDbSymbolTableRecord
100
AcDbDimStyleTableRecord
  2
1／8
 70
     0
 41
2.5
 42
0.25
 43
0.2
 44
1.25
 73
     0
 74
     0
 77
     3
 78
     8
 79
     2
140
3.0
141
0.0
143
0.03937007874016
144
8.0
147
0.625
171
     3
172
     1
271
     2
178
     4
179
     1
271
     2
272
     2
274
     3
283
     0
284
     8
288
     1
289
     0
340
11
341
C6
342
C6
1001
ACAD_DSTYLE_DIMBREAK
1070
   391
1040
3.75
1001
ACAD_DSTYLE_DIMJAG
1070
   388
1040
1.5
1001
ACAD_DSTYLE_DIMTALN
1070
   392
1070
     0
1001
ACAD_DSTYLE_DIMJOGGED_JOGANGLE_SYMBOL
1070
   384
1040
1.570796326794896
1001
ACAD_DSTYLE_DIMARC_LENGTH_SYMBOL
1070
   379
1070
     2
  0
DIMSTYLE
105
1E188
330
A
100
AcDbSymbolTableRecord
100
AcDbDimStyleTableRecord
  2
1／12
 70
     0
 41
2.5
 42
0.25
 43
0.2
 44
1.25
 73
     0
 74
     0
 77
     3
 78
     8
 79
     2
140
2.5
141
0.0
143
0.03937007874016
144
12.0
147
0.625
171
     3
172
     1
271
     2
178
     4
179
     1
271
     2
272
     2
274
     3
283
     0
284
     8
288
     1
289
     0
340
11
341
C6
342
C6
1001
ACAD_DSTYLE_DIMBREAK
1070
   391
1040
0.125
1001
ACAD_DSTYLE_DIMJAG
1070
   388
1040
1.5
1001
ACAD_DSTYLE_DIMTALN
1070
   392
1070
     0
1001
ACAD_DSTYLE_DIMJOGGED_JOGANGLE_SYMBOL
1070
   384
1040
1.570796326794896
1001
ACAD_DSTYLE_DIMARC_LENGTH_SYMBOL
1070
   379
1070
     2
  0
ENDTAB
  0
TABLE
  2
BLOCK_RECORD
  5
1
330
0
100
AcDbSymbolTable
 70
    21
  0
BLOCK_RECORD
  5
1F
102
{ACAD_XDICTIONARY
360
324
102
}
330
1
100
AcDbSymbolTableRecord
100
AcDbBlockTableRecord
  2
*Model_Space
340
22
  0
BLOCK_RECORD
  5
58
330
1
100
AcDbSymbolTableRecord
100
AcDbBlockTableRecord
  2
*Paper_Space
340
59
  0
BLOCK_RECORD
  5
5D
330
1
100
AcDbSymbolTableRecord
100
AcDbBlockTableRecord
  2
*Paper_Space0
340
5E
  0
BLOCK_RECORD
  5
C6
330
1
100
AcDbSymbolTableRecord
100
AcDbBlockTableRecord
  2
_Open30
340
0
102
{BLKREFS
331
5FB22
331
5FB23
331
5FB2E
331
5FB2F
331
5FB3A
331
5FB3B
331
5FB46
331
5FB47
331
5FBB7
331
5FBB8
331
5FBD5
331
5FBD6
331
5FBE4
331
5FBE5
331
5FBF6
331
5FBF7
331
62BF0
331
62BF1
331
5FB22
331
5FB23
331
5FB2E
331
5FB2F
331
5FB3A
331
5FB3B
331
5FB46
331
5FB47
331
5FBB7
331
5FBB8
331
5FBD5
331
5FBD6
331
5FBE4
331
5FBE5
331
5FBF6
331
5FBF7
331
62BF0
331
62BF1
331
0
331
0
331
0
331
0
331
0
331
0
331
0
331
0
331
0
331
0
331
0
331
0
331
0
331
0
331
0
331
0
331
0
331
0
331
0
331
0
331
0
331
0
102
}
  0
BLOCK_RECORD
  5
5492
330
1
100
AcDbSymbolTableRecord
100
AcDbBlockTableRecord
  2
_DotSmall
340
0
  0
BLOCK_RECORD
  5
1A55D
330
1
100
AcDbSymbolTableRecord
100
AcDbBlockTableRecord
  2
SW_NOTE_0
340
0
  0
BLOCK_RECORD
  5
5FB1E
330
1
100
AcDbSymbolTableRecord
100
AcDbBlockTableRecord
  2
*D4
340
0
  0
BLOCK_RECORD
  5
5FB2A
330
1
100
AcDbSymbolTableRecord
100
AcDbBlockTableRecord
  2
*D5
340
0
  0
BLOCK_RECORD
  5
5FB36
330
1
100
AcDbSymbolTableRecord
100
AcDbBlockTableRecord
  2
*D6
340
0
  0
BLOCK_RECORD
  5
5FB42
330
1
100
AcDbSymbolTableRecord
100
AcDbBlockTableRecord
  2
*D7
340
0
  0
BLOCK_RECORD
  5
5FBB3
330
1
100
AcDbSymbolTableRecord
100
AcDbBlockTableRecord
  2
*D8
340
0
  0
BLOCK_RECORD
  5
5FBD1
330
1
100
AcDbSymbolTableRecord
100
AcDbBlockTableRecord
  2
*D9
340
0
  0
BLOCK_RECORD
  5
5FBE0
330
1
100
AcDbSymbolTableRecord
100
AcDbBlockTableRecord
  2
*D10
340
0
  0
BLOCK_RECORD
  5
5FBF0
330
1
100
AcDbSymbolTableRecord
100
AcDbBlockTableRecord
  2
*D11
340
0
  0
BLOCK_RECORD
  5
5FC7C
330
1
100
AcDbSymbolTableRecord
100
AcDbBlockTableRecord
  2
*U12
340
0
  0
BLOCK_RECORD
  5
5FD92
330
1
100
AcDbSymbolTableRecord
100
AcDbBlockTableRecord
  2
*U13
340
0
  0
BLOCK_RECORD
  5
5FEB7
330
1
100
AcDbSymbolTableRecord
100
AcDbBlockTableRecord
  2
*U14
340
0
  0
BLOCK_RECORD
  5
5FFE4
330
1
100
AcDbSymbolTableRecord
100
AcDbBlockTableRecord
  2
*U15
340
0
  0
BLOCK_RECORD
  5
60C72
102
{ACAD_REACTORS
330
60C52
102
}
330
1
100
AcDbSymbolTableRecord
100
AcDbBlockTableRecord
  2
*U16
340
0
  0
BLOCK_RECORD
  5
60C84
102
{ACAD_REACTORS
330
60C5A
102
}
330
1
100
AcDbSymbolTableRecord
100
AcDbBlockTableRecord
  2
*U17
340
0
  0
BLOCK_RECORD
  5
60C91
102
{ACAD_REACTORS
330
60C62
102
}
330
1
100
AcDbSymbolTableRecord
100
AcDbBlockTableRecord
  2
*U18
340
0
  0
BLOCK_RECORD
  5
62BEE
330
1
100
AcDbSymbolTableRecord
100
AcDbBlockTableRecord
  2
*D19
340
0
  0
ENDTAB
  0
ENDSEC
  0
SECTION
  2
BLOCKS
  0
BLOCK
  5
20
330
1F
100
AcDbEntity
  8
0
100
AcDbBlockBegin
  2
*Model_Space
 70
     0
 10
0.0
 20
0.0
 30
0.0
  3
*Model_Space
  1

  0
ENDBLK
  5
21
330
1F
100
AcDbEntity
  8
0
100
AcDbBlockEnd
  0
BLOCK
  5
5A
330
58
100
AcDbEntity
 67
     1
  8
0
100
AcDbBlockBegin
  2
*Paper_Space
 70
     0
 10
0.0
 20
0.0
 30
0.0
  3
*Paper_Space
  1

  0
ENDBLK
  5
5B
330
58
100
AcDbEntity
 67
     1
  8
0
100
AcDbBlockEnd
  0
BLOCK
  5
5F
330
5D
100
AcDbEntity
  8
0
100
AcDbBlockBegin
  2
*Paper_Space0
 70
     0
 10
0.0
 20
0.0
 30
0.0
  3
*Paper_Space0
  1

  0
ENDBLK
  5
60
330
5D
100
AcDbEntity
  8
0
100
AcDbBlockEnd
  0
BLOCK
  5
C7
330
C6
100
AcDbEntity
  8
0
100
AcDbBlockBegin
  2
_Open30
 70
     0
 10
0.0
 20
0.0
 30
0.0
  3
_Open30
  1

  0
LINE
  5
C8
330
C6
100
AcDbEntity
  8
0
  6
ByBlock
 62
     0
370
    -2
100
AcDbLine
 10
-1.0
 20
0.267949
 30
0.0
 11
0.0
 21
0.0
 31
0.0
  0
LINE
  5
C9
330
C6
100
AcDbEntity
  8
0
  6
ByBlock
 62
     0
370
    -2
100
AcDbLine
 10
0.0
 20
0.0
 30
0.0
 11
-1.0
 21
-0.267949
 31
0.0
  0
LINE
  5
CA
330
C6
100
AcDbEntity
  8
0
  6
ByBlock
 62
     0
370
    -2
100
AcDbLine
 10
0.0
 20
0.0
 30
0.0
 11
-1.0
 21
0.0
 31
0.0
  0
ENDBLK
  5
CB
330
C6
100
AcDbEntity
  8
0
100
AcDbBlockEnd
  0
BLOCK
  5
5493
330
5492
100
AcDbEntity
  8
0
 62
     1
100
AcDbBlockBegin
  2
_DotSmall
 70
     0
 10
0.0
 20
0.0
 30
0.0
  3
_DotSmall
  1

  0
LWPOLYLINE
  5
5494
330
5492
100
AcDbEntity
  8
0
  6
ByBlock
 62
     0
100
AcDbPolyline
 90
        2
 70
     1
 43
0.5
 10
-0.0625
 20
0.0
 42
1.0
 10
0.0625
 20
0.0
 42
1.0
  0
ENDBLK
  5
5495
330
5492
100
AcDbEntity
  8
0
 62
     1
100
AcDbBlockEnd
  0
BLOCK
  5
1A55E
330
1A55D
100
AcDbEntity
  8
0
100
AcDbBlockBegin
  2
SW_NOTE_0
 70
     0
 10
0.0
 20
0.0
 30
0.0
  3
SW_NOTE_0
  1

  0
MTEXT
  5
1A55F
330
1A55D
100
AcDbEntity
  8
0
  6
Continuous
 62
     0
370
    18
100
AcDbMText
 10
12.7992187499999
 20
8.18558014755198
 30
0.0
 40
6.349999999999997
 41
0.0
 71
     2
 72
     1
  1
断面図
  7
SLDTEXTSTYLE0
 73
     1
 44
1.0
  0
MTEXT
  5
1A560
330
1A55D
100
AcDbEntity
  8
0
  6
Continuous
 62
     0
370
    18
100
AcDbMText
 10
32.02201223373402
 20
5.799029312625597
 30
0.0
 40
3.5
 41
0.0
 71
     2
 72
     1
  1
A-A
  7
SLDTEXTSTYLE1
 73
     1
 44
1.0
  0
MTEXT
  5
1A561
330
1A55D
100
AcDbEntity
  8
0
  6
Continuous
 62
     0
370
    18
100
AcDbMText
 10
11.18854007869952
 20
-2.411873720988563
 30
0.0
 40
3.5
 41
0.0
 71
     2
 72
     1
  1
ｽｹｰﾙ
  7
SLDTEXTSTYLE1
 73
     1
 44
1.0
  0
MTEXT
  5
1A562
330
1A55D
100
AcDbEntity
  8
0
  6
Continuous
 62
     0
370
    18
100
AcDbMText
 10
22.66610976308581
 20
-2.411873720988563
 30
0.0
 40
3.5
 41
0.0
 71
     2
 72
     1
  1
1 : 1
  7
SLDTEXTSTYLE2
 73
     1
 44
1.0
  0
ENDBLK
  5
1A563
330
1A55D
100
AcDbEntity
  8
0
100
AcDbBlockEnd
  0
BLOCK
  5
5FB28
330
5FB1E
100
AcDbEntity
  8
0
100
AcDbBlockBegin
  2
*D4
 70
     1
 10
0.0
 20
0.0
 30
0.0
  3
*D4
  1
Acad:XRef
  0
LINE
  5
5FB1F
330
5FB1E
100
AcDbEntity
  8
0
 62
     0
370
    -2
100
AcDbLine
 10
397.4484913516422
 20
-389.2605987843707
 30
0.0
 11
397.4484913516422
 21
-363.3951911766668
 31
0.0
  0
LINE
  5
5FB20
330
5FB1E
100
AcDbEntity
  8
0
 62
     0
370
    -2
100
AcDbLine
 10
446.4484913516422
 20
-397.8764350279059
 30
0.0
 11
446.4484913516422
 21
-363.3951911766668
 31
0.0
  0
LINE
  5
5FB21
330
5FB1E
100
AcDbEntity
  8
0
 62
     0
370
    -2
100
AcDbLine
 10
399.9484913516422
 20
-364.6451911766668
 30
0.0
 11
443.9484913516422
 21
-364.6451911766668
 31
0.0
  0
INSERT
  5
5FB22
330
5FB1E
100
AcDbEntity
  8
0
  6
ByBlock
 62
     0
370
    -2
100
AcDbBlockReference
  2
_Open30
 10
397.4484913516422
 20
-364.6451911766668
 30
0.0
 41
2.5
 42
2.5
 43
2.5
 50
180.0
  0
INSERT
  5
5FB23
330
5FB1E
100
AcDbEntity
  8
0
  6
ByBlock
 62
     0
370
    -2
100
AcDbBlockReference
  2
_Open30
 10
446.4484913516422
 20
-364.6451911766668
 30
0.0
 41
2.5
 42
2.5
 43
2.5
  0
MTEXT
  5
5FB24
330
5FB1E
100
AcDbEntity
  8
0
 62
     4
100
AcDbMText
 10
421.9484913516422
 20
-362.5201911766668
 30
0.0
 40
3.0
 41
0.0
 71
     5
 72
     1
  1
49
 73
     1
 44
1.0
  0
POINT
  5
5FB25
330
5FB1E
100
AcDbEntity
  8
Defpoints
 62
     0
100
AcDbPoint
 10
397.4484913516422
 20
-389.5105987843707
 30
0.0
  0
POINT
  5
5FB26
330
5FB1E
100
AcDbEntity
  8
Defpoints
 62
     0
100
AcDbPoint
 10
446.4484913516422
 20
-398.1264350279059
 30
0.0
  0
POINT
  5
5FB27
330
5FB1E
100
AcDbEntity
  8
Defpoints
 62
     0
100
AcDbPoint
 10
446.4484913516422
 20
-364.6451911766668
 30
0.0
  0
ENDBLK
  5
5FB29
330
5FB1E
100
AcDbEntity
  8
0
100
AcDbBlockEnd
  0
BLOCK
  5
5FB34
330
5FB2A
100
AcDbEntity
  8
0
100
AcDbBlockBegin
  2
*D5
 70
     1
 10
0.0
 20
0.0
 30
0.0
  3
*D5
  1
Acad:XRef
  0
LINE
  5
5FB2B
330
5FB2A
100
AcDbEntity
  8
0
 62
     0
370
    -2
100
AcDbLine
 10
503.6333107925229
 20
-413.8764350279059
 30
0.0
 11
503.6333107925229
 21
-374.8075665348318
 31
0.0
  0
LINE
  5
5FB2C
330
5FB2A
100
AcDbEntity
  8
0
 62
     0
370
    -2
100
AcDbLine
 10
555.6333107925232
 20
-413.8764350279059
 30
0.0
 11
555.6333107925232
 21
-374.8075665348318
 31
0.0
  0
LINE
  5
5FB2D
330
5FB2A
100
AcDbEntity
  8
0
 62
     0
370
    -2
100
AcDbLine
 10
506.1333107925229
 20
-376.0575665348318
 30
0.0
 11
553.1333107925232
 21
-376.0575665348318
 31
0.0
  0
INSERT
  5
5FB2E
330
5FB2A
100
AcDbEntity
  8
0
  6
ByBlock
 62
     0
370
    -2
100
AcDbBlockReference
  2
_Open30
 10
503.6333107925229
 20
-376.0575665348318
 30
0.0
 41
2.5
 42
2.5
 43
2.5
 50
180.0
  0
INSERT
  5
5FB2F
330
5FB2A
100
AcDbEntity
  8
0
  6
ByBlock
 62
     0
370
    -2
100
AcDbBlockReference
  2
_Open30
 10
555.6333107925232
 20
-376.0575665348318
 30
0.0
 41
2.5
 42
2.5
 43
2.5
  0
MTEXT
  5
5FB30
330
5FB2A
100
AcDbEntity
  8
0
 62
     4
100
AcDbMText
 10
529.633310792523
 20
-373.9325665348318
 30
0.0
 40
3.0
 41
0.0
 71
     5
 72
     1
  1
%%C52
 73
     1
 44
1.0
  0
POINT
  5
5FB31
330
5FB2A
100
AcDbEntity
  8
Defpoints
 62
     0
100
AcDbPoint
 10
503.6333107925229
 20
-414.1264350279059
 30
0.0
  0
POINT
  5
5FB32
330
5FB2A
100
AcDbEntity
  8
Defpoints
 62
     0
100
AcDbPoint
 10
555.6333107925232
 20
-414.1264350279059
 30
0.0
  0
POINT
  5
5FB33
330
5FB2A
100
AcDbEntity
  8
Defpoints
 62
     0
100
AcDbPoint
 10
555.6333107925232
 20
-376.0575665348318
 30
0.0
  0
ENDBLK
  5
5FB35
330
5FB2A
100
AcDbEntity
  8
0
100
AcDbBlockEnd
  0
BLOCK
  5
5FB40
330
5FB36
100
AcDbEntity
  8
0
100
AcDbBlockBegin
  2
*D6
 70
     1
 10
0.0
 20
0.0
 30
0.0
  3
*D6
  1
Acad:XRef
  0
LINE
  5
5FB37
330
5FB36
100
AcDbEntity
  8
0
 62
     0
370
    -2
100
AcDbLine
 10
529.8833107925229
 20
-388.1264350279059
 30
0.0
 11
578.9474448365584
 21
-388.1264350279059
 31
0.0
  0
LINE
  5
5FB38
330
5FB36
100
AcDbEntity
  8
0
 62
     0
370
    -2
100
AcDbLine
 10
529.8833107925229
 20
-548.1264350279059
 30
0.0
 11
578.9474448365584
 21
-548.1264350279059
 31
0.0
  0
LINE
  5
5FB39
330
5FB36
100
AcDbEntity
  8
0
 62
     0
370
    -2
100
AcDbLine
 10
577.6974448365584
 20
-390.6264350279059
 30
0.0
 11
577.6974448365584
 21
-545.6264350279059
 31
0.0
  0
INSERT
  5
5FB3A
330
5FB36
100
AcDbEntity
  8
0
  6
ByBlock
 62
     0
370
    -2
100
AcDbBlockReference
  2
_Open30
 10
577.6974448365584
 20
-388.1264350279059
 30
0.0
 41
2.5
 42
2.5
 43
2.5
 50
90.0
  0
INSERT
  5
5FB3B
330
5FB36
100
AcDbEntity
  8
0
  6
ByBlock
 62
     0
370
    -2
100
AcDbBlockReference
  2
_Open30
 10
577.6974448365584
 20
-548.1264350279059
 30
0.0
 41
2.5
 42
2.5
 43
2.5
 50
270.0
  0
MTEXT
  5
5FB3C
330
5FB36
100
AcDbEntity
  8
0
 62
     4
100
AcDbMText
 10
575.5724448365584
 20
-468.1264350279059
 30
0.0
 40
3.0
 41
0.0
 71
     5
 72
     1
  1
160
 11
0.0
 21
1.0
 31
0.0
 73
     1
 44
1.0
  0
POINT
  5
5FB3D
330
5FB36
100
AcDbEntity
  8
Defpoints
 62
     0
100
AcDbPoint
 10
529.6333107925229
 20
-388.1264350279059
 30
0.0
  0
POINT
  5
5FB3E
330
5FB36
100
AcDbEntity
  8
Defpoints
 62
     0
100
AcDbPoint
 10
529.6333107925229
 20
-548.1264350279059
 30
0.0
  0
POINT
  5
5FB3F
330
5FB36
100
AcDbEntity
  8
Defpoints
 62
     0
100
AcDbPoint
 10
577.6974448365584
 20
-548.1264350279059
 30
0.0
  0
ENDBLK
  5
5FB41
330
5FB36
100
AcDbEntity
  8
0
100
AcDbBlockEnd
  0
BLOCK
  5
5FB4C
330
5FB42
100
AcDbEntity
  8
0
100
AcDbBlockBegin
  2
*D7
 70
     1
 10
0.0
 20
0.0
 30
0.0
  3
*D7
  1
Acad:XRef
  0
LINE
  5
5FB43
330
5FB42
100
AcDbEntity
  8
0
 62
     0
370
    -2
100
AcDbLine
 10
529.8833107925229
 20
-548.1264350279059
 30
0.0
 11
578.9474448365584
 21
-548.1264350279059
 31
0.0
  0
LINE
  5
5FB44
330
5FB42
100
AcDbEntity
  8
0
 62
     0
370
    -2
100
AcDbLine
 10
529.8833107925229
 20
-576.1264350279059
 30
0.0
 11
578.9474448365584
 21
-576.1264350279059
 31
0.0
  0
LINE
  5
5FB45
330
5FB42
100
AcDbEntity
  8
0
 62
     0
370
    -2
100
AcDbLine
 10
577.6974448365584
 20
-550.6264350279059
 30
0.0
 11
577.6974448365584
 21
-573.6264350279059
 31
0.0
  0
INSERT
  5
5FB46
330
5FB42
100
AcDbEntity
  8
0
  6
ByBlock
 62
     0
370
    -2
100
AcDbBlockReference
  2
_Open30
 10
577.6974448365584
 20
-548.1264350279059
 30
0.0
 41
2.5
 42
2.5
 43
2.5
 50
90.0
  0
INSERT
  5
5FB47
330
5FB42
100
AcDbEntity
  8
0
  6
ByBlock
 62
     0
370
    -2
100
AcDbBlockReference
  2
_Open30
 10
577.6974448365584
 20
-576.1264350279059
 30
0.0
 41
2.5
 42
2.5
 43
2.5
 50
270.0
  0
MTEXT
  5
5FB48
330
5FB42
100
AcDbEntity
  8
0
 62
     4
100
AcDbMText
 10
575.5724448365584
 20
-562.1264350279059
 30
0.0
 40
3.0
 41
0.0
 71
     5
 72
     1
  1
28
 11
0.0
 21
1.0
 31
0.0
 73
     1
 44
1.0
  0
POINT
  5
5FB49
330
5FB42
100
AcDbEntity
  8
Defpoints
 62
     0
100
AcDbPoint
 10
529.6333107925229
 20
-548.1264350279059
 30
0.0
  0
POINT
  5
5FB4A
330
5FB42
100
AcDbEntity
  8
Defpoints
 62
     0
100
AcDbPoint
 10
529.6333107925229
 20
-576.1264350279059
 30
0.0
  0
POINT
  5
5FB4B
330
5FB42
100
AcDbEntity
  8
Defpoints
 62
     0
100
AcDbPoint
 10
577.6974448365584
 20
-576.1264350279059
 30
0.0
  0
ENDBLK
  5
5FB4D
330
5FB42
100
AcDbEntity
  8
0
100
AcDbBlockEnd
  0
BLOCK
  5
5FBBD
330
5FBB3
100
AcDbEntity
  8
0
100
AcDbBlockBegin
  2
*D8
 70
     1
 10
0.0
 20
0.0
 30
0.0
  3
*D8
  1
Acad:XRef
  0
LINE
  5
5FBB4
330
5FBB3
100
AcDbEntity
  8
0
 62
     0
370
    -2
100
AcDbLine
 10
420.4484913516422
 20
-378.8764350279059
 30
0.0
 11
420.4484913516422
 21
-374.8075665348318
 31
0.0
  0
LINE
  5
5FBB5
330
5FBB3
100
AcDbEntity
  8
0
 62
     0
370
    -2
100
AcDbLine
 10
397.4484913516422
 20
-389.2605987843707
 30
0.0
 11
397.4484913516422
 21
-374.8075665348318
 31
0.0
  0
LINE
  5
5FBB6
330
5FBB3
100
AcDbEntity
  8
0
 62
     0
370
    -2
100
AcDbLine
 10
417.9484913516422
 20
-376.0575665348318
 30
0.0
 11
399.9484913516422
 21
-376.0575665348318
 31
0.0
  0
INSERT
  5
5FBB7
330
5FBB3
100
AcDbEntity
  8
0
  6
ByBlock
 62
     0
370
    -2
100
AcDbBlockReference
  2
_Open30
 10
420.4484913516422
 20
-376.0575665348318
 30
0.0
 41
2.5
 42
2.5
 43
2.5
  0
INSERT
  5
5FBB8
330
5FBB3
100
AcDbEntity
  8
0
  6
ByBlock
 62
     0
370
    -2
100
AcDbBlockReference
  2
_Open30
 10
397.4484913516422
 20
-376.0575665348318
 30
0.0
 41
2.5
 42
2.5
 43
2.5
 50
180.0
  0
MTEXT
  5
5FBB9
330
5FBB3
100
AcDbEntity
  8
0
 62
     4
100
AcDbMText
 10
410.50277407961
 20
-373.9325665348318
 30
0.0
 40
3.0
 41
0.0
 71
     5
 72
     1
  1
23
 73
     1
 44
1.0
  0
POINT
  5
5FBBA
330
5FBB3
100
AcDbEntity
  8
Defpoints
 62
     0
100
AcDbPoint
 10
420.4484913516422
 20
-379.1264350279059
 30
0.0
  0
POINT
  5
5FBBB
330
5FBB3
100
AcDbEntity
  8
Defpoints
 62
     0
100
AcDbPoint
 10
397.4484913516422
 20
-389.5105987843707
 30
0.0
  0
POINT
  5
5FBBC
330
5FBB3
100
AcDbEntity
  8
Defpoints
 62
     0
100
AcDbPoint
 10
397.4484913516422
 20
-376.0575665348318
 30
0.0
  0
ENDBLK
  5
5FBBE
330
5FBB3
100
AcDbEntity
  8
0
100
AcDbBlockEnd
  0
BLOCK
  5
5FBDB
330
5FBD1
100
AcDbEntity
  8
0
100
AcDbBlockBegin
  2
*D9
 70
     1
 10
0.0
 20
0.0
 30
0.0
  3
*D9
  1
Acad:XRef
  0
LINE
  5
5FBD2
330
5FBD1
100
AcDbEntity
  8
0
 62
     0
370
    -2
100
AcDbLine
 10
509.6333107925229
 20
-556.3764350279059
 30
0.0
 11
509.6333107925229
 21
-603.58417050586
 31
0.0
  0
LINE
  5
5FBD3
330
5FBD1
100
AcDbEntity
  8
0
 62
     0
370
    -2
100
AcDbLine
 10
549.6333107925232
 20
-556.3764350279059
 30
0.0
 11
549.6333107925232
 21
-603.58417050586
 31
0.0
  0
LINE
  5
5FBD4
330
5FBD1
100
AcDbEntity
  8
0
 62
     0
370
    -2
100
AcDbLine
 10
512.1333107925229
 20
-602.33417050586
 30
0.0
 11
547.1333107925232
 21
-602.33417050586
 31
0.0
  0
INSERT
  5
5FBD5
330
5FBD1
100
AcDbEntity
  8
0
  6
ByBlock
 62
     0
370
    -2
100
AcDbBlockReference
  2
_Open30
 10
509.6333107925229
 20
-602.33417050586
 30
0.0
 41
2.5
 42
2.5
 43
2.5
 50
180.0
  0
INSERT
  5
5FBD6
330
5FBD1
100
AcDbEntity
  8
0
  6
ByBlock
 62
     0
370
    -2
100
AcDbBlockReference
  2
_Open30
 10
549.6333107925232
 20
-602.33417050586
 30
0.0
 41
2.5
 42
2.5
 43
2.5
  0
MTEXT
  5
5FBD7
330
5FBD1
100
AcDbEntity
  8
0
 62
     4
100
AcDbMText
 10
528.9940457547843
 20
-600.20917050586
 30
0.0
 40
3.0
 41
0.0
 71
     5
 72
     1
  1
%%C40
 73
     1
 44
1.0
  0
POINT
  5
5FBD8
330
5FBD1
100
AcDbEntity
  8
Defpoints
 62
     0
100
AcDbPoint
 10
509.6333107925229
 20
-556.1264350279059
 30
0.0
  0
POINT
  5
5FBD9
330
5FBD1
100
AcDbEntity
  8
Defpoints
 62
     0
100
AcDbPoint
 10
549.6333107925232
 20
-556.1264350279059
 30
0.0
  0
POINT
  5
5FBDA
330
5FBD1
100
AcDbEntity
  8
Defpoints
 62
     0
100
AcDbPoint
 10
549.6333107925232
 20
-602.33417050586
 30
0.0
  0
ENDBLK
  5
5FBDC
330
5FBD1
100
AcDbEntity
  8
0
100
AcDbBlockEnd
  0
BLOCK
  5
5FBEA
330
5FBE0
100
AcDbEntity
  8
0
100
AcDbBlockBegin
  2
*D10
 70
     1
 10
0.0
 20
0.0
 30
0.0
  3
*D10
  1
Acad:XRef
  0
LINE
  5
5FBE1
330
5FBE0
100
AcDbEntity
  8
0
 62
     0
370
    -2
100
AcDbLine
 10
516.1333107925229
 20
-556.3764350279059
 30
0.0
 11
516.1333107925229
 21
-596.0881462833235
 31
0.0
  0
LINE
  5
5FBE2
330
5FBE0
100
AcDbEntity
  8
0
 62
     0
370
    -2
100
AcDbLine
 10
543.1333107925229
 20
-556.3764350279059
 30
0.0
 11
543.1333107925229
 21
-596.0881462833235
 31
0.0
  0
LINE
  5
5FBE3
330
5FBE0
100
AcDbEntity
  8
0
 62
     0
370
    -2
100
AcDbLine
 10
518.6333107925229
 20
-594.8381462833235
 30
0.0
 11
540.6333107925229
 21
-594.8381462833235
 31
0.0
  0
INSERT
  5
5FBE4
330
5FBE0
100
AcDbEntity
  8
0
  6
ByBlock
 62
     0
370
    -2
100
AcDbBlockReference
  2
_Open30
 10
516.1333107925229
 20
-594.8381462833235
 30
0.0
 41
2.5
 42
2.5
 43
2.5
 50
180.0
  0
INSERT
  5
5FBE5
330
5FBE0
100
AcDbEntity
  8
0
  6
ByBlock
 62
     0
370
    -2
100
AcDbBlockReference
  2
_Open30
 10
543.1333107925229
 20
-594.8381462833235
 30
0.0
 41
2.5
 42
2.5
 43
2.5
  0
MTEXT
  5
5FBE6
330
5FBE0
100
AcDbEntity
  8
0
 62
     4
100
AcDbMText
 10
530.4638544258698
 20
-592.7131462833235
 30
0.0
 40
3.0
 41
0.0
 71
     5
 72
     1
  1
%%C27
 73
     1
 44
1.0
  0
POINT
  5
5FBE7
330
5FBE0
100
AcDbEntity
  8
Defpoints
 62
     0
100
AcDbPoint
 10
516.1333107925229
 20
-556.1264350279059
 30
0.0
  0
POINT
  5
5FBE8
330
5FBE0
100
AcDbEntity
  8
Defpoints
 62
     0
100
AcDbPoint
 10
543.1333107925229
 20
-556.1264350279059
 30
0.0
  0
POINT
  5
5FBE9
330
5FBE0
100
AcDbEntity
  8
Defpoints
 62
     0
100
AcDbPoint
 10
543.1333107925229
 20
-594.8381462833235
 30
0.0
  0
ENDBLK
  5
5FBEB
330
5FBE0
100
AcDbEntity
  8
0
100
AcDbBlockEnd
  0
BLOCK
  5
5FBFC
330
5FBF0
100
AcDbEntity
  8
0
100
AcDbBlockBegin
  2
*D11
 70
     1
 10
0.0
 20
0.0
 30
0.0
  3
*D11
  1
Acad:XRef
  0
LINE
  5
5FBF1
330
5FBF0
100
AcDbEntity
  8
0
 62
     0
370
    -2
100
AcDbLine
 10
515.6333107925229
 20
-535.8764350279059
 30
0.0
 11
515.6333107925229
 21
-509.7274041597648
 31
0.0
  0
LINE
  5
5FBF2
330
5FBF0
100
AcDbEntity
  8
0
 62
     0
370
    -2
100
AcDbLine
 10
543.6333107925229
 20
-535.8764350279059
 30
0.0
 11
543.6333107925229
 21
-509.7274041597648
 31
0.0
  0
LINE
  5
5FBF3
330
5FBF0
100
AcDbEntity
  8
0
 62
     0
370
    -2
100
AcDbLine
 10
546.1333107925229
 20
-510.9774041597648
 30
0.0
 11
557.8833107925229
 21
-510.9774041597648
 31
0.0
  0
LINE
  5
5FBF4
330
5FBF0
100
AcDbEntity
  8
0
 62
     0
370
    -2
100
AcDbLine
 10
515.6333107925229
 20
-510.9774041597648
 30
0.0
 11
543.6333107925229
 21
-510.9774041597648
 31
0.0
  0
LINE
  5
5FBF5
330
5FBF0
100
AcDbEntity
  8
0
 62
     0
370
    -2
100
AcDbLine
 10
513.1333107925229
 20
-510.9774041597648
 30
0.0
 11
510.6333107925229
 21
-510.9774041597648
 31
0.0
  0
INSERT
  5
5FBF6
330
5FBF0
100
AcDbEntity
  8
0
  6
ByBlock
 62
     0
370
    -2
100
AcDbBlockReference
  2
_Open30
 10
515.6333107925229
 20
-510.9774041597648
 30
0.0
 41
2.5
 42
2.5
 43
2.5
  0
INSERT
  5
5FBF7
330
5FBF0
100
AcDbEntity
  8
0
  6
ByBlock
 62
     0
370
    -2
100
AcDbBlockReference
  2
_Open30
 10
543.6333107925229
 20
-510.9774041597648
 30
0.0
 41
2.5
 42
2.5
 43
2.5
 50
180.0
  0
MTEXT
  5
5FBF8
330
5FBF0
100
AcDbEntity
  8
0
 62
     4
100
AcDbMText
 10
553.2583107925229
 20
-508.8524041597648
 30
0.0
 40
3.0
 41
0.0
 71
     5
 72
     1
  1
%%C28
 73
     1
 44
1.0
  0
POINT
  5
5FBF9
330
5FBF0
100
AcDbEntity
  8
Defpoints
 62
     0
100
AcDbPoint
 10
515.6333107925229
 20
-536.1264350279059
 30
0.0
  0
POINT
  5
5FBFA
330
5FBF0
100
AcDbEntity
  8
Defpoints
 62
     0
100
AcDbPoint
 10
543.6333107925229
 20
-536.1264350279059
 30
0.0
  0
POINT
  5
5FBFB
330
5FBF0
100
AcDbEntity
  8
Defpoints
 62
     0
100
AcDbPoint
 10
543.6333107925229
 20
-510.9774041597648
 30
0.0
  0
ENDBLK
  5
5FBFD
330
5FBF0
100
AcDbEntity
  8
0
100
AcDbBlockEnd
  0
BLOCK
  5
5FC7D
330
5FC7C
100
AcDbEntity
  8
0
100
AcDbBlockBegin
  2
*U12
 70
     1
 10
0.0
 20
0.0
 30
0.0
  3
*U12
  1
Acad:XRef
  0
LINE
  5
5FC7E
330
5FC7C
100
AcDbEntity
  8
0
 62
     3
100
AcDbLine
 10
-6.049964140858037
 20
0.5995654242073443
 30
0.0
 11
-6.184522151836018
 21
0.5183166841528192
 31
0.0
  0
LINE
  5
5FC7F
330
5FC7C
100
AcDbEntity
  8
0
 62
     3
100
AcDbLine
 10
-6.184522151836018
 20
0.5183166841528192
 30
0.0
 11
-6.049964140858037
 21
0.0291366657949766
 31
0.0
  0
LINE
  5
5FC80
330
5FC7C
100
AcDbEntity
  8
0
 62
     3
100
AcDbLine
 10
-4.710626892053142
 20
-1.522874600756063
 30
0.0
 11
-6.170986070808022
 21
-0.7040299175238716
 31
0.0
  0
LINE
  5
5FC81
330
5FC7C
100
AcDbEntity
  8
0
 62
     3
100
AcDbLine
 10
-7.079680675331793
 20
0.8698753060741411
 30
0.0
 11
-6.170986070808022
 21
-0.7040299175238716
 31
0.0
  0
LINE
  5
5FC82
330
5FC7C
100
AcDbEntity
  8
0
 62
     3
100
AcDbLine
 10
6.170986070808022
 20
-0.7040713240964807
 30
0.0
 11
7.079680675331793
 21
0.869833899501532
 31
0.0
  0
LINE
  5
5FC83
330
5FC7C
100
AcDbEntity
  8
0
 62
     3
100
AcDbLine
 10
5.418520857210069
 20
-1.096205072318549
 30
0.0
 11
6.170986070808022
 21
-0.7040713240964807
 31
0.0
  0
LINE
  5
5FC84
330
5FC7C
100
AcDbEntity
  8
0
 62
     3
100
AcDbLine
 10
6.050035859141963
 20
-0.0155329342699815
 30
0.0
 11
6.203770158229282
 21
0.5433793845698119
 31
0.0
  0
LINE
  5
5FC85
330
5FC7C
100
AcDbEntity
  8
0
 62
     3
100
AcDbLine
 10
6.203770158229282
 20
0.5433793845698119
 30
0.0
 11
6.050035859141963
 21
0.6362071397752743
 31
0.0
  0
LINE
  5
5FC86
330
5FC7C
100
AcDbEntity
  8
0
 62
     3
100
AcDbLine
 10
2.000035859141963
 20
1.679999999999995
 30
0.0
 11
2.000035859141963
 21
-1.679999999999995
 31
0.0
  0
LINE
  5
5FC87
330
5FC7C
100
AcDbEntity
  8
0
 62
     3
100
AcDbLine
 10
6.050035859141963
 20
0.6844670657300185
 30
0.0
 11
6.050035859141963
 21
-0.7155329342699815
 31
0.0
  0
LINE
  5
5FC88
330
5FC7C
100
AcDbEntity
  8
0
 62
     3
100
AcDbLine
 10
5.850035859141963
 20
0.4844670657300185
 30
0.0
 11
5.850035859141963
 21
-0.5155329342699816
 31
0.0
  0
LINE
  5
5FC89
330
5FC7C
100
AcDbEntity
  8
0
 62
     3
100
AcDbLine
 10
0.0000358591419626
 20
-1.679999999999995
 30
0.0
 11
4.450035859141963
 21
-1.679999999999995
 31
0.0
  0
LINE
  5
5FC8A
330
5FC7C
100
AcDbEntity
  8
0
 62
     3
100
AcDbLine
 10
4.450035859141963
 20
1.679999999999995
 30
0.0
 11
0.0000358591419626
 21
1.679999999999995
 31
0.0
  0
ARC
  5
5FC8B
330
5FC7C
100
AcDbEntity
  8
0
 62
     3
100
AcDbCircle
 10
5.705437253616992
 20
0.0
 30
0.0
 40
2.097244063348334
100
AcDbArc
 50
126.7693921003218
 51
233.2306078996782
  0
LINE
  5
5FC8C
330
5FC7C
100
AcDbEntity
  8
0
 62
     3
100
AcDbLine
 10
4.450035859141963
 20
-1.679999999999995
 30
0.0
 11
6.225398925229911
 21
-0.6098254956529445
 31
0.0
  0
LINE
  5
5FC8D
330
5FC7C
100
AcDbEntity
  8
0
 62
     3
100
AcDbLine
 10
6.050035859141963
 20
0.6844670657300185
 30
0.0
 11
4.450035859141963
 21
1.679999999999995
 31
0.0
  0
LINE
  5
5FC8E
330
5FC7C
100
AcDbEntity
  8
0
 62
     3
100
AcDbLine
 10
5.715813232889968
 20
-0.5155329342699816
 30
0.0
 11
5.850035859141963
 21
-0.5155329342699816
 31
0.0
  0
LINE
  5
5FC8F
330
5FC7C
100
AcDbEntity
  8
0
 62
     3
100
AcDbLine
 10
5.715813232889968
 20
0.4844670657300185
 30
0.0
 11
5.850035859141963
 21
0.4844670657300185
 31
0.0
  0
ELLIPSE
  5
5FC90
330
5FC7C
100
AcDbEntity
  8
0
 62
     3
100
AcDbEllipse
 10
4.872267890517469
 20
-0.0155329342699815
 30
0.0
 11
-0.9920687715904478
 21
0.0
 31
0.0
210
0.0
220
0.0
230
1.0
 40
0.9575949039067073
 41
3.695854488042138
 42
8.870516126317057
  0
ELLIPSE
  5
5FC91
330
5FC7C
100
AcDbEntity
  8
0
 62
     3
100
AcDbEllipse
 10
4.894929068649344
 20
-0.0155329342699815
 30
0.0
 11
0.4803652708209484
 21
0.0
 31
0.0
210
0.0
220
0.0
230
1.0
 40
0.8326996648121472
 41
0.0
 42
6.283185307179586
  0
LINE
  5
5FC92
330
5FC7C
100
AcDbEntity
  8
0
 62
     3
100
AcDbLine
 10
6.050035859141963
 20
-0.7155329342699815
 30
0.0
 11
6.050035859141963
 21
0.6844670657300185
 31
0.0
  0
LINE
  5
5FC93
330
5FC7C
100
AcDbEntity
  8
0
 62
     3
100
AcDbLine
 10
-1.999964140858038
 20
1.679999999999995
 30
0.0
 11
-1.999964140858038
 21
-1.679999999999995
 31
0.0
  0
LINE
  5
5FC94
330
5FC7C
100
AcDbEntity
  8
0
 62
     3
100
AcDbLine
 10
-5.849964140858038
 20
0.4844670657300185
 30
0.0
 11
-5.849964140858038
 21
-0.5155329342699816
 31
0.0
  0
LINE
  5
5FC95
330
5FC7C
100
AcDbEntity
  8
0
 62
     3
100
AcDbLine
 10
0.0000358591419626
 20
-1.679999999999995
 30
0.0
 11
-4.449964140858038
 21
-1.679999999999995
 31
0.0
  0
LINE
  5
5FC96
330
5FC7C
100
AcDbEntity
  8
0
 62
     3
100
AcDbLine
 10
-4.449964140858038
 20
1.679999999999995
 30
0.0
 11
0.0000358591419626
 21
1.679999999999995
 31
0.0
  0
ARC
  5
5FC97
330
5FC7C
100
AcDbEntity
  8
0
 62
     3
100
AcDbCircle
 10
-5.705365535333067
 20
0.0
 30
0.0
 40
2.097244063348334
100
AcDbArc
 50
306.7693921003216
 51
53.23060789967823
  0
LINE
  5
5FC98
330
5FC7C
100
AcDbEntity
  8
0
 62
     3
100
AcDbLine
 10
-4.449964140858038
 20
-1.679999999999995
 30
0.0
 11
-6.049964140858037
 21
-0.7155329342699815
 31
0.0
  0
LINE
  5
5FC99
330
5FC7C
100
AcDbEntity
  8
0
 62
     3
100
AcDbLine
 10
-6.049964140858037
 20
0.6844670657300185
 30
0.0
 11
-4.449964140858038
 21
1.679999999999995
 31
0.0
  0
LINE
  5
5FC9A
330
5FC7C
100
AcDbEntity
  8
0
 62
     3
100
AcDbLine
 10
-5.715741514606044
 20
-0.5155329342699816
 30
0.0
 11
-5.849964140858038
 21
-0.5155329342699816
 31
0.0
  0
LINE
  5
5FC9B
330
5FC7C
100
AcDbEntity
  8
0
 62
     3
100
AcDbLine
 10
-5.715741514606044
 20
0.4844670657300185
 30
0.0
 11
-5.849964140858038
 21
0.4844670657300185
 31
0.0
  0
ELLIPSE
  5
5FC9C
330
5FC7C
100
AcDbEntity
  8
0
 62
     3
100
AcDbEllipse
 10
-4.872196172233544
 20
-0.0155329342699815
 30
0.0
 11
0.9920687715904478
 21
0.0
 31
0.0
210
0.0
220
0.0
230
-1.0
 40
0.9575949039067073
 41
3.695854488042138
 42
8.870516126317034
  0
ELLIPSE
  5
5FC9D
330
5FC7C
100
AcDbEntity
  8
0
 62
     3
100
AcDbEllipse
 10
-4.894857350365419
 20
-0.0155329342699815
 30
0.0
 11
-0.4803652708209484
 21
0.0
 31
0.0
210
0.0
220
0.0
230
-1.0
 40
0.8326996648121472
 41
0.0
 42
6.283185307179586
  0
LINE
  5
5FC9E
330
5FC7C
100
AcDbEntity
  8
0
 62
     3
100
AcDbLine
 10
-6.049964140858037
 20
-0.7155329342699815
 30
0.0
 11
-6.049964140858037
 21
0.6844670657300185
 31
0.0
  0
ENDBLK
  5
5FC9F
330
5FC7C
100
AcDbEntity
  8
0
100
AcDbBlockEnd
  0
BLOCK
  5
5FD93
330
5FD92
100
AcDbEntity
  8
0
100
AcDbBlockBegin
  2
*U13
 70
     1
 10
0.0
 20
0.0
 30
0.0
  3
*U13
  1
Acad:XRef
  0
LINE
  5
5FD94
330
5FD92
100
AcDbEntity
  8
0
 62
     3
100
AcDbLine
 10
1.04185155769992
 20
8.434677496207417
 30
0.0
 11
1.825206502348055
 21
8.434677496207417
 31
0.0
  0
LINE
  5
5FD95
330
5FD92
100
AcDbEntity
  8
0
 62
     3
100
AcDbLine
 10
1.825206502348055
 20
8.434677496207417
 30
0.0
 11
2.165899194682197
 21
8.02493724576878
 31
0.0
  0
LINE
  5
5FD96
330
5FD92
100
AcDbEntity
  8
0
 62
     3
100
AcDbLine
 10
2.165899194682197
 20
8.02493724576878
 30
0.0
 11
2.984604332717527
 21
7.040306650977562
 31
0.0
  0
LINE
  5
5FD97
330
5FD92
100
AcDbEntity
  8
0
 62
     3
100
AcDbLine
 10
1.04185155769992
 20
8.434677496207417
 30
0.0
 11
0.994852173508707
 21
6.165011542453442
 31
0.0
  0
LINE
  5
5FD98
330
5FD92
100
AcDbEntity
  8
0
 62
     3
100
AcDbLine
 10
0.994852173508707
 20
6.165011542453442
 30
0.0
 11
-0.9948760796044098
 21
6.165011542453454
 31
0.0
  0
LINE
  5
5FD99
330
5FD92
100
AcDbEntity
  8
0
 62
     3
100
AcDbLine
 10
-0.9948760796044098
 20
6.165011542453454
 30
0.0
 11
-1.026193065001417
 21
8.436736100713905
 31
0.0
  0
LINE
  5
5FD9A
330
5FD92
100
AcDbEntity
  8
0
 62
     3
100
AcDbLine
 10
-1.026193065001417
 20
8.436736100713905
 30
0.0
 11
-1.809548009649552
 21
8.436736100713905
 31
0.0
  0
LINE
  5
5FD9B
330
5FD92
100
AcDbEntity
  8
0
 62
     3
100
AcDbLine
 10
-1.809548009649552
 20
8.436736100713905
 30
0.0
 11
-2.984580426621779
 21
7.042365255484061
 31
0.0
  0
LINE
  5
5FD9C
330
5FD92
100
AcDbEntity
  8
0
 62
     3
100
AcDbLine
 10
-0.7911961440452615
 20
8.577734253287622
 30
0.0
 11
-0.7911961440452615
 21
8.421065654967562
 31
0.0
  0
LINE
  5
5FD9D
330
5FD92
100
AcDbEntity
  8
0
 62
     3
100
AcDbLine
 10
-0.7911961440452615
 20
8.421065654967562
 30
0.0
 11
-1.025977039199006
 21
8.421065654967578
 31
0.0
  0
LINE
  5
5FD9E
330
5FD92
100
AcDbEntity
  8
0
 62
     3
100
AcDbLine
 10
-1.002867221720953
 20
6.744686551542452
 30
0.0
 11
1.006855864366025
 21
6.744686551542452
 31
0.0
  0
LINE
  5
5FD9F
330
5FD92
100
AcDbEntity
  8
0
 62
     3
100
AcDbLine
 10
1.00815335998368
 20
6.807344428432168
 30
0.0
 11
0.0054480340300415
 21
6.807344428432192
 31
0.0
  0
LINE
  5
5FDA0
330
5FD92
100
AcDbEntity
  8
0
 62
     3
100
AcDbLine
 10
0.0078292463492744
 20
6.807344428432192
 30
0.0
 11
-1.003730995371825
 21
6.807344428432168
 31
0.0
  0
LINE
  5
5FDA1
330
5FD92
100
AcDbEntity
  8
0
 62
     3
100
AcDbLine
 10
0.007817293301423
 20
7.622052217620933
 30
0.0
 11
0.8068546367437648
 21
8.421065654967572
 31
0.0
  0
LINE
  5
5FDA2
330
5FD92
100
AcDbEntity
  8
0
 62
     3
100
AcDbLine
 10
0.8068546367437648
 20
8.421065654967572
 30
0.0
 11
0.8068546367437648
 21
8.577734253287622
 31
0.0
  0
LINE
  5
5FDA3
330
5FD92
100
AcDbEntity
  8
0
 62
     3
100
AcDbLine
 10
0.007817293301423
 20
7.622052217620933
 30
0.0
 11
-0.7911961440452615
 21
8.421065654967562
 31
0.0
  0
LINE
  5
5FDA4
330
5FD92
100
AcDbEntity
  8
0
 62
     3
100
AcDbLine
 10
2.984604332717527
 20
7.042365255484061
 30
0.0
 11
2.984604332717527
 21
5.240634539135886
 31
0.0
  0
LINE
  5
5FDA5
330
5FD92
100
AcDbEntity
  8
0
 62
     3
100
AcDbLine
 10
2.984604332717527
 20
5.240634539135886
 30
0.0
 11
1.966240271413563
 21
5.240634539135897
 31
0.0
  0
LINE
  5
5FDA6
330
5FD92
100
AcDbEntity
  8
0
 62
     3
100
AcDbLine
 10
1.966240271413563
 20
5.234612035071507
 30
0.0
 11
1.950546162223282
 21
7.888378077021935
 31
0.0
  0
LINE
  5
5FDA7
330
5FD92
100
AcDbEntity
  8
0
 62
     3
100
AcDbLine
 10
1.950546162223282
 20
7.888378077021935
 30
0.0
 11
2.013227945208701
 21
7.935389414261022
 31
0.0
  0
LINE
  5
5FDA8
330
5FD92
100
AcDbEntity
  8
0
 62
     3
100
AcDbLine
 10
2.013227945208701
 20
7.935389414261022
 30
0.0
 11
2.164757392280535
 21
8.026310455152311
 31
0.0
  0
LINE
  5
5FDA9
330
5FD92
100
AcDbEntity
  8
0
 62
     3
100
AcDbLine
 10
1.950546162223282
 20
7.888378077021935
 30
0.0
 11
1.030538995935831
 21
7.888378077021935
 31
0.0
  0
LINE
  5
5FDAA
330
5FD92
100
AcDbEntity
  8
0
 62
     3
100
AcDbLine
 10
2.342223634547327
 20
7.810037801337979
 30
0.0
 11
2.373564526040082
 21
5.240634539135897
 31
0.0
  0
LINE
  5
5FDAB
330
5FD92
100
AcDbEntity
  8
0
 62
     3
100
AcDbLine
 10
-1.950570068318984
 20
7.888378077021946
 30
0.0
 11
-1.950570068318984
 21
5.240634539135897
 31
0.0
  0
LINE
  5
5FDAC
330
5FD92
100
AcDbEntity
  8
0
 62
     3
100
AcDbLine
 10
-1.950570068318984
 20
7.888378077021946
 30
0.0
 11
-1.026193065001417
 21
7.888378077021946
 31
0.0
  0
LINE
  5
5FDAD
330
5FD92
100
AcDbEntity
  8
0
 62
     3
100
AcDbLine
 10
-1.950570068318984
 20
7.888378077021946
 30
0.0
 11
-1.997569452510197
 21
7.935389414261022
 31
0.0
  0
LINE
  5
5FDAE
330
5FD92
100
AcDbEntity
  8
0
 62
     3
100
AcDbLine
 10
-1.997569452510197
 20
7.935389414261022
 30
0.0
 11
-2.153291556054774
 21
8.028827372052286
 31
0.0
  0
LINE
  5
5FDAF
330
5FD92
100
AcDbEntity
  8
0
 62
     3
100
AcDbLine
 10
-2.342280922656801
 20
7.804560144151151
 30
0.0
 11
-2.357906033341533
 21
5.240634539135897
 31
0.0
  0
LINE
  5
5FDB0
330
5FD92
100
AcDbEntity
  8
0
 62
     3
100
AcDbLine
 10
-3.015921318114488
 20
5.240634539135875
 30
0.0
 11
-2.984580426621779
 21
7.042365255484061
 31
0.0
  0
LINE
  5
5FDB1
330
5FD92
100
AcDbEntity
  8
0
 62
     3
100
AcDbLine
 10
-3.015921318114488
 20
5.240634539135875
 30
0.0
 11
0.0
 21
5.240634539135875
 31
0.0
  0
LINE
  5
5FDB2
330
5FD92
100
AcDbEntity
  8
0
 62
     3
100
AcDbLine
 10
0.0
 20
5.240634539135875
 30
0.0
 11
1.966204654921785
 21
5.240634539135897
 31
0.0
  0
LINE
  5
5FDB3
330
5FD92
100
AcDbEntity
  8
0
 62
     3
100
AcDbLine
 10
2.984604332717527
 20
5.240634539135886
 30
0.0
 11
3.015921318114533
 21
-6.854355765671267
 31
0.0
  0
LINE
  5
5FDB4
330
5FD92
100
AcDbEntity
  8
0
 62
     3
100
AcDbLine
 10
3.015921318114533
 20
-6.854355765671267
 30
0.0
 11
-3.015921318114488
 21
-6.854355765671278
 31
0.0
  0
LINE
  5
5FDB5
330
5FD92
100
AcDbEntity
  8
0
 62
     3
100
AcDbLine
 10
-3.015921318114488
 20
-6.854355765671278
 30
0.0
 11
-3.015921318114488
 21
5.240634539135875
 31
0.0
  0
LINE
  5
5FDB6
330
5FD92
100
AcDbEntity
  8
0
 62
     3
100
AcDbLine
 10
2.451904801724004
 20
-8.436724147666075
 30
0.0
 11
-2.451904801724004
 21
-8.436724147666064
 31
0.0
  0
LINE
  5
5FDB7
330
5FD92
100
AcDbEntity
  8
0
 62
     3
100
AcDbLine
 10
-2.451904801724004
 20
-8.436724147666064
 30
0.0
 11
-2.984580426621779
 21
-7.951047906959514
 31
0.0
  0
LINE
  5
5FDB8
330
5FD92
100
AcDbEntity
  8
0
 62
     3
100
AcDbLine
 10
-2.984580426621779
 20
-7.951047906959514
 30
0.0
 11
-3.015921318114488
 21
-6.854355765671278
 31
0.0
  0
LINE
  5
5FDB9
330
5FD92
100
AcDbEntity
  8
0
 62
     3
100
AcDbLine
 10
-2.342247540643029
 20
-8.311396440838735
 30
0.0
 11
-2.51456267861372
 21
-8.374066270776325
 31
0.0
  0
LINE
  5
5FDBA
330
5FD92
100
AcDbEntity
  8
0
 62
     3
100
AcDbLine
 10
-2.342247540643029
 20
-8.311396440838735
 30
0.0
 11
-1.605891980186107
 21
-8.311396440838724
 31
0.0
  0
LINE
  5
5FDBB
330
5FD92
100
AcDbEntity
  8
0
 62
     3
100
AcDbLine
 10
-2.467563294422507
 20
-8.421065654967549
 30
0.0
 11
2.467563294422507
 21
-8.421065654967572
 31
0.0
  0
LINE
  5
5FDBC
330
5FD92
100
AcDbEntity
  8
0
 62
     3
100
AcDbLine
 10
2.35788212724583
 20
-8.311396440838747
 30
0.0
 11
2.523364154746742
 21
-8.371572766971843
 31
0.0
  0
LINE
  5
5FDBD
330
5FD92
100
AcDbEntity
  8
0
 62
     3
100
AcDbLine
 10
2.35788212724583
 20
-8.311396440838747
 30
0.0
 11
1.605891980186152
 21
-8.311396440838747
 31
0.0
  0
LINE
  5
5FDBE
330
5FD92
100
AcDbEntity
  8
0
 62
     3
100
AcDbLine
 10
1.605891980186152
 20
-8.311396440838747
 30
0.0
 11
1.323871768943036
 21
-7.951047906959514
 31
0.0
  0
LINE
  5
5FDBF
330
5FD92
100
AcDbEntity
  8
0
 62
     3
100
AcDbLine
 10
1.292530877450327
 20
-8.029388182643482
 30
0.0
 11
1.511869305707978
 21
-8.421065654967549
 31
0.0
  0
LINE
  5
5FDC0
330
5FD92
100
AcDbEntity
  8
0
 62
     3
100
AcDbLine
 10
1.323871768943036
 20
-7.951047906959514
 30
0.0
 11
-1.323847862847288
 21
-7.951047906959537
 31
0.0
  0
LINE
  5
5FDC1
330
5FD92
100
AcDbEntity
  8
0
 62
     3
100
AcDbLine
 10
-1.292530877450281
 20
-8.029388182643505
 30
0.0
 11
-1.511869305707933
 21
-8.421065654967572
 31
0.0
  0
LINE
  5
5FDC2
330
5FD92
100
AcDbEntity
  8
0
 62
     3
100
AcDbLine
 10
-1.323847862847288
 20
-7.951047906959537
 30
0.0
 11
-1.605891980186107
 21
-8.311396440838724
 31
0.0
  0
LINE
  5
5FDC3
330
5FD92
100
AcDbEntity
  8
0
 62
     3
100
AcDbLine
 10
0.007817293301423
 20
-8.029388182643492
 30
0.0
 11
-1.292530877450281
 21
-8.029388182643505
 31
0.0
  0
LINE
  5
5FDC4
330
5FD92
100
AcDbEntity
  8
0
 62
     3
100
AcDbLine
 10
0.007817293301423
 20
-8.029388182643492
 30
0.0
 11
1.292530877450327
 21
-8.029388182643482
 31
0.0
  0
LINE
  5
5FDC5
330
5FD92
100
AcDbEntity
  8
0
 62
     3
100
AcDbLine
 10
3.015921318114533
 20
-6.854355765671267
 30
0.0
 11
2.984604332717527
 21
-7.951047906959514
 31
0.0
  0
LINE
  5
5FDC6
330
5FD92
100
AcDbEntity
  8
0
 62
     3
100
AcDbLine
 10
2.984604332717527
 20
-7.951047906959514
 30
0.0
 11
2.45362441347138
 21
-8.435156332189678
 31
0.0
  0
LINE
  5
5FDC7
330
5FD92
100
AcDbEntity
  8
0
 62
     3
100
AcDbLine
 10
-0.3524953814342098
 20
-8.436724147666075
 30
0.0
 11
-0.3524953814342098
 21
-8.577734253287622
 31
0.0
  0
LINE
  5
5FDC8
330
5FD92
100
AcDbEntity
  8
0
 62
     3
100
AcDbLine
 10
-0.3524953814342098
 20
-8.577734253287622
 30
0.0
 11
0.3524953814342553
 21
-8.57773425328761
 31
0.0
  0
LINE
  5
5FDC9
330
5FD92
100
AcDbEntity
  8
0
 62
     3
100
AcDbLine
 10
0.3524953814342553
 20
-8.57773425328761
 30
0.0
 11
0.3681777802284614
 21
-8.562075760589108
 31
0.0
  0
LINE
  5
5FDCA
330
5FD92
100
AcDbEntity
  8
0
 62
     3
100
AcDbLine
 10
0.3681777802284614
 20
-8.562075760589108
 30
0.0
 11
0.3681777802284614
 21
-8.43672414766607
 31
0.0
  0
LINE
  5
5FDCB
330
5FD92
100
AcDbEntity
  8
0
 62
     3
100
AcDbLine
 10
0.3524953814342553
 20
-8.436724147666053
 30
0.0
 11
0.336836888735752
 21
-8.421065654967549
 31
0.0
  0
LINE
  5
5FDCC
330
5FD92
100
AcDbEntity
  8
0
 62
     3
100
AcDbLine
 10
-0.3524953814342098
 20
-8.436724147666075
 30
0.0
 11
-0.3211783960371577
 21
-8.421065654967562
 31
0.0
  0
LINE
  5
5FDCD
330
5FD92
100
AcDbEntity
  8
0
 62
     7
100
AcDbLine
 10
2.381393772389492
 20
5.240634539135892
 30
0.0
 11
2.381393772389492
 21
-6.854355765671267
 31
0.0
  0
LINE
  5
5FDCE
330
5FD92
100
AcDbEntity
  8
0
 62
     7
100
AcDbLine
 10
-1.592170753650771
 20
5.24063453913588
 30
0.0
 11
-1.592170753650771
 21
-6.854355765671272
 31
0.0
  0
LINE
  5
5FDCF
330
5FD92
100
AcDbEntity
  8
0
 62
     7
100
AcDbLine
 10
-1.792170753650771
 20
5.240634539135875
 30
0.0
 11
-1.792170753650771
 21
-6.854355765671278
 31
0.0
  0
LINE
  5
5FDD0
330
5FD92
100
AcDbEntity
  8
0
 62
     7
100
AcDbLine
 10
-1.992170753650771
 20
5.240634539135875
 30
0.0
 11
-1.992170753650771
 21
-6.854355765671278
 31
0.0
  0
LINE
  5
5FDD1
330
5FD92
100
AcDbEntity
  8
0
 62
     7
100
AcDbLine
 10
-2.242170753650771
 20
5.240634539135875
 30
0.0
 11
-2.242170753650771
 21
-6.854355765671278
 31
0.0
  0
LINE
  5
5FDD2
330
5FD92
100
AcDbEntity
  8
0
 62
     7
100
AcDbLine
 10
-2.365735279691035
 20
5.240634539135875
 30
0.0
 11
-2.365735279691035
 21
-6.854355765671278
 31
0.0
  0
LINE
  5
5FDD3
330
5FD92
100
AcDbEntity
  8
0
 62
     3
100
AcDbLine
 10
2.365735279690898
 20
-8.31140241736269
 30
0.0
 11
2.381393772389401
 21
-6.854355765674126
 31
0.0
  0
LINE
  5
5FDD4
330
5FD92
100
AcDbEntity
  8
0
 62
     3
100
AcDbLine
 10
-2.350076786992622
 20
-8.31140241736269
 30
0.0
 11
-2.365735279691126
 21
-6.854355765674126
 31
0.0
  0
LINE
  5
5FDD5
330
5FD92
100
AcDbEntity
  8
0
 62
     3
100
AcDbLine
 10
1.041569688839445
 20
8.421065654967554
 30
0.0
 11
0.8068546367437648
 21
8.421065654967572
 31
0.0
  0
ENDBLK
  5
5FDD6
330
5FD92
100
AcDbEntity
  8
0
100
AcDbBlockEnd
  0
BLOCK
  5
5FEB8
330
5FEB7
100
AcDbEntity
  8
0
100
AcDbBlockBegin
  2
*U14
 70
     1
 10
0.0
 20
0.0
 30
0.0
  3
*U14
  1
Acad:XRef
  0
LINE
  5
5FEB9
330
5FEB7
100
AcDbEntity
  8
0
 62
     7
100
AcDbLine
 10
-0.03125
 20
0.0634622331152421
 30
0.0
 11
-0.03125
 21
-0.0634622331152421
 31
0.0
  0
LINE
  5
5FEBA
330
5FEB7
100
AcDbEntity
  8
0
 62
     7
100
AcDbLine
 10
0.03125
 20
0.0634622331152421
 30
0.0
 11
0.03125
 21
-0.0634622331152421
 31
0.0
  0
ARC
  5
5FEBB
330
5FEB7
100
AcDbEntity
  8
0
 62
     7
100
AcDbCircle
 10
0.0
 20
0.0624847150737189
 30
0.0
 40
0.0312652849262805
100
AcDbArc
 50
358.2083391507604
 51
181.7916608492396
  0
ARC
  5
5FEBC
330
5FEB7
100
AcDbEntity
  8
0
 62
     7
100
AcDbCircle
 10
0.0
 20
-0.0624847150737189
 30
0.0
 40
0.0312652849262805
100
AcDbArc
 50
178.2083391507604
 51
1.79166084923961
  0
ENDBLK
  5
5FEBD
330
5FEB7
100
AcDbEntity
  8
0
100
AcDbBlockEnd
  0
BLOCK
  5
5FFE5
330
5FFE4
100
AcDbEntity
  8
0
100
AcDbBlockBegin
  2
*U15
 70
     1
 10
0.0
 20
0.0
 30
0.0
  3
*U15
  1
Acad:XRef
  0
LINE
  5
5FFE6
330
5FFE4
100
AcDbEntity
  8
0
 62
     7
100
AcDbLine
 10
-0.03125
 20
0.0634622331152421
 30
0.0
 11
-0.03125
 21
-0.0634622331152421
 31
0.0
  0
LINE
  5
5FFE7
330
5FFE4
100
AcDbEntity
  8
0
 62
     7
100
AcDbLine
 10
0.03125
 20
0.0634622331152421
 30
0.0
 11
0.03125
 21
-0.0634622331152421
 31
0.0
  0
ARC
  5
5FFE8
330
5FFE4
100
AcDbEntity
  8
0
 62
     7
100
AcDbCircle
 10
0.0
 20
0.0624847150737189
 30
0.0
 40
0.0312652849262805
100
AcDbArc
 50
358.2083391507604
 51
181.7916608492396
  0
ARC
  5
5FFE9
330
5FFE4
100
AcDbEntity
  8
0
 62
     7
100
AcDbCircle
 10
0.0
 20
-0.0624847150737189
 30
0.0
 40
0.0312652849262805
100
AcDbArc
 50
178.2083391507604
 51
1.79166084923961
  0
ENDBLK
  5
5FFEA
330
5FFE4
100
AcDbEntity
  8
0
100
AcDbBlockEnd
  0
BLOCK
  5
60C73
330
60C72
100
AcDbEntity
  8
0
100
AcDbBlockBegin
  2
*U16
 70
     1
 10
0.0
 20
0.0
 30
0.0
  3
*U16
  1
Acad:XRef
  0
LINE
  5
60C74
330
60C72
100
AcDbEntity
  8
0
 62
     7
100
AcDbLine
 10
-0.03125
 20
0.0634622331152421
 30
0.0
 11
-0.03125
 21
-0.0634622331152421
 31
0.0
  0
LINE
  5
60C75
330
60C72
100
AcDbEntity
  8
0
 62
     7
100
AcDbLine
 10
0.03125
 20
0.0634622331152421
 30
0.0
 11
0.03125
 21
-0.0634622331152421
 31
0.0
  0
ARC
  5
60C76
330
60C72
100
AcDbEntity
  8
0
 62
     7
100
AcDbCircle
 10
0.0
 20
0.0624847150737189
 30
0.0
 40
0.0312652849262805
100
AcDbArc
 50
358.2083391507604
 51
181.7916608492396
  0
ARC
  5
60C77
330
60C72
100
AcDbEntity
  8
0
 62
     7
100
AcDbCircle
 10
0.0
 20
-0.0624847150737189
 30
0.0
 40
0.0312652849262805
100
AcDbArc
 50
178.2083391507604
 51
1.79166084923961
  0
ENDBLK
  5
60C78
330
60C72
100
AcDbEntity
  8
0
100
AcDbBlockEnd
  0
BLOCK
  5
60C85
330
60C84
100
AcDbEntity
  8
0
100
AcDbBlockBegin
  2
*U17
 70
     1
 10
0.0
 20
0.0
 30
0.0
  3
*U17
  1
Acad:XRef
  0
LINE
  5
60C86
330
60C84
100
AcDbEntity
  8
0
 62
     7
100
AcDbLine
 10
-0.03125
 20
0.0634622331152421
 30
0.0
 11
-0.03125
 21
-0.0634622331152421
 31
0.0
  0
LINE
  5
60C87
330
60C84
100
AcDbEntity
  8
0
 62
     7
100
AcDbLine
 10
0.03125
 20
0.0634622331152421
 30
0.0
 11
0.03125
 21
-0.0634622331152421
 31
0.0
  0
ARC
  5
60C88
330
60C84
100
AcDbEntity
  8
0
 62
     7
100
AcDbCircle
 10
0.0
 20
0.0624847150737189
 30
0.0
 40
0.0312652849262805
100
AcDbArc
 50
358.2083391507604
 51
181.7916608492396
  0
ARC
  5
60C89
330
60C84
100
AcDbEntity
  8
0
 62
     7
100
AcDbCircle
 10
0.0
 20
-0.0624847150737189
 30
0.0
 40
0.0312652849262805
100
AcDbArc
 50
178.2083391507604
 51
1.79166084923961
  0
ENDBLK
  5
60C8A
330
60C84
100
AcDbEntity
  8
0
100
AcDbBlockEnd
  0
BLOCK
  5
60C92
330
60C91
100
AcDbEntity
  8
0
100
AcDbBlockBegin
  2
*U18
 70
     1
 10
0.0
 20
0.0
 30
0.0
  3
*U18
  1
Acad:XRef
  0
LINE
  5
60C93
330
60C91
100
AcDbEntity
  8
0
 62
     3
100
AcDbLine
 10
-6.049964140858037
 20
0.5995654242073443
 30
0.0
 11
-6.184522151836018
 21
0.5183166841528192
 31
0.0
  0
LINE
  5
60C94
330
60C91
100
AcDbEntity
  8
0
 62
     3
100
AcDbLine
 10
-6.184522151836018
 20
0.5183166841528192
 30
0.0
 11
-6.049964140858037
 21
0.0291366657949766
 31
0.0
  0
LINE
  5
60C95
330
60C91
100
AcDbEntity
  8
0
 62
     3
100
AcDbLine
 10
-4.710626892053142
 20
-1.522874600756063
 30
0.0
 11
-6.170986070808022
 21
-0.7040299175238716
 31
0.0
  0
LINE
  5
60C96
330
60C91
100
AcDbEntity
  8
0
 62
     3
100
AcDbLine
 10
-7.079680675331793
 20
0.8698753060741411
 30
0.0
 11
-6.170986070808022
 21
-0.7040299175238716
 31
0.0
  0
LINE
  5
60C97
330
60C91
100
AcDbEntity
  8
0
 62
     3
100
AcDbLine
 10
6.170986070808022
 20
-0.7040713240964807
 30
0.0
 11
7.079680675331793
 21
0.869833899501532
 31
0.0
  0
LINE
  5
60C98
330
60C91
100
AcDbEntity
  8
0
 62
     3
100
AcDbLine
 10
5.418520857210069
 20
-1.096205072318549
 30
0.0
 11
6.170986070808022
 21
-0.7040713240964807
 31
0.0
  0
LINE
  5
60C99
330
60C91
100
AcDbEntity
  8
0
 62
     3
100
AcDbLine
 10
6.050035859141963
 20
-0.0155329342699815
 30
0.0
 11
6.203770158229282
 21
0.5433793845698119
 31
0.0
  0
LINE
  5
60C9A
330
60C91
100
AcDbEntity
  8
0
 62
     3
100
AcDbLine
 10
6.203770158229282
 20
0.5433793845698119
 30
0.0
 11
6.050035859141963
 21
0.6362071397752743
 31
0.0
  0
LINE
  5
60C9B
330
60C91
100
AcDbEntity
  8
0
 62
     3
100
AcDbLine
 10
2.000035859141963
 20
1.679999999999995
 30
0.0
 11
2.000035859141963
 21
-1.679999999999995
 31
0.0
  0
LINE
  5
60C9C
330
60C91
100
AcDbEntity
  8
0
 62
     3
100
AcDbLine
 10
6.050035859141963
 20
0.6844670657300185
 30
0.0
 11
6.050035859141963
 21
-0.7155329342699815
 31
0.0
  0
LINE
  5
60C9D
330
60C91
100
AcDbEntity
  8
0
 62
     3
100
AcDbLine
 10
5.850035859141963
 20
0.4844670657300185
 30
0.0
 11
5.850035859141963
 21
-0.5155329342699816
 31
0.0
  0
LINE
  5
60C9E
330
60C91
100
AcDbEntity
  8
0
 62
     3
100
AcDbLine
 10
0.0000358591419626
 20
-1.679999999999995
 30
0.0
 11
4.450035859141963
 21
-1.679999999999995
 31
0.0
  0
LINE
  5
60C9F
330
60C91
100
AcDbEntity
  8
0
 62
     3
100
AcDbLine
 10
4.450035859141963
 20
1.679999999999995
 30
0.0
 11
0.0000358591419626
 21
1.679999999999995
 31
0.0
  0
ARC
  5
60CA0
330
60C91
100
AcDbEntity
  8
0
 62
     3
100
AcDbCircle
 10
5.705437253616992
 20
0.0
 30
0.0
 40
2.097244063348334
100
AcDbArc
 50
126.7693921003218
 51
233.2306078996782
  0
LINE
  5
60CA1
330
60C91
100
AcDbEntity
  8
0
 62
     3
100
AcDbLine
 10
4.450035859141963
 20
-1.679999999999995
 30
0.0
 11
6.225398925229911
 21
-0.6098254956529445
 31
0.0
  0
LINE
  5
60CA2
330
60C91
100
AcDbEntity
  8
0
 62
     3
100
AcDbLine
 10
6.050035859141963
 20
0.6844670657300185
 30
0.0
 11
4.450035859141963
 21
1.679999999999995
 31
0.0
  0
LINE
  5
60CA3
330
60C91
100
AcDbEntity
  8
0
 62
     3
100
AcDbLine
 10
5.715813232889968
 20
-0.5155329342699816
 30
0.0
 11
5.850035859141963
 21
-0.5155329342699816
 31
0.0
  0
LINE
  5
60CA4
330
60C91
100
AcDbEntity
  8
0
 62
     3
100
AcDbLine
 10
5.715813232889968
 20
0.4844670657300185
 30
0.0
 11
5.850035859141963
 21
0.4844670657300185
 31
0.0
  0
ELLIPSE
  5
60CA5
330
60C91
100
AcDbEntity
  8
0
 62
     3
100
AcDbEllipse
 10
4.872267890517469
 20
-0.0155329342699815
 30
0.0
 11
-0.9920687715904478
 21
0.0
 31
0.0
210
0.0
220
0.0
230
1.0
 40
0.9575949039067073
 41
3.695854488042138
 42
8.870516126317057
  0
ELLIPSE
  5
60CA6
330
60C91
100
AcDbEntity
  8
0
 62
     3
100
AcDbEllipse
 10
4.894929068649344
 20
-0.0155329342699815
 30
0.0
 11
0.4803652708209484
 21
0.0
 31
0.0
210
0.0
220
0.0
230
1.0
 40
0.8326996648121472
 41
0.0
 42
6.283185307179586
  0
LINE
  5
60CA7
330
60C91
100
AcDbEntity
  8
0
 62
     3
100
AcDbLine
 10
6.050035859141963
 20
-0.7155329342699815
 30
0.0
 11
6.050035859141963
 21
0.6844670657300185
 31
0.0
  0
LINE
  5
60CA8
330
60C91
100
AcDbEntity
  8
0
 62
     3
100
AcDbLine
 10
-1.999964140858038
 20
1.679999999999995
 30
0.0
 11
-1.999964140858038
 21
-1.679999999999995
 31
0.0
  0
LINE
  5
60CA9
330
60C91
100
AcDbEntity
  8
0
 62
     3
100
AcDbLine
 10
-5.849964140858038
 20
0.4844670657300185
 30
0.0
 11
-5.849964140858038
 21
-0.5155329342699816
 31
0.0
  0
LINE
  5
60CAA
330
60C91
100
AcDbEntity
  8
0
 62
     3
100
AcDbLine
 10
0.0000358591419626
 20
-1.679999999999995
 30
0.0
 11
-4.449964140858038
 21
-1.679999999999995
 31
0.0
  0
LINE
  5
60CAB
330
60C91
100
AcDbEntity
  8
0
 62
     3
100
AcDbLine
 10
-4.449964140858038
 20
1.679999999999995
 30
0.0
 11
0.0000358591419626
 21
1.679999999999995
 31
0.0
  0
ARC
  5
60CAC
330
60C91
100
AcDbEntity
  8
0
 62
     3
100
AcDbCircle
 10
-5.705365535333067
 20
0.0
 30
0.0
 40
2.097244063348334
100
AcDbArc
 50
306.7693921003216
 51
53.23060789967823
  0
LINE
  5
60CAD
330
60C91
100
AcDbEntity
  8
0
 62
     3
100
AcDbLine
 10
-4.449964140858038
 20
-1.679999999999995
 30
0.0
 11
-6.049964140858037
 21
-0.7155329342699815
 31
0.0
  0
LINE
  5
60CAE
330
60C91
100
AcDbEntity
  8
0
 62
     3
100
AcDbLine
 10
-6.049964140858037
 20
0.6844670657300185
 30
0.0
 11
-4.449964140858038
 21
1.679999999999995
 31
0.0
  0
LINE
  5
60CAF
330
60C91
100
AcDbEntity
  8
0
 62
     3
100
AcDbLine
 10
-5.715741514606044
 20
-0.5155329342699816
 30
0.0
 11
-5.849964140858038
 21
-0.5155329342699816
 31
0.0
  0
LINE
  5
60CB0
330
60C91
100
AcDbEntity
  8
0
 62
     3
100
AcDbLine
 10
-5.715741514606044
 20
0.4844670657300185
 30
0.0
 11
-5.849964140858038
 21
0.4844670657300185
 31
0.0
  0
ELLIPSE
  5
60CB1
330
60C91
100
AcDbEntity
  8
0
 62
     3
100
AcDbEllipse
 10
-4.872196172233544
 20
-0.0155329342699815
 30
0.0
 11
0.9920687715904478
 21
0.0
 31
0.0
210
0.0
220
0.0
230
-1.0
 40
0.9575949039067073
 41
3.695854488042138
 42
8.870516126317034
  0
ELLIPSE
  5
60CB2
330
60C91
100
AcDbEntity
  8
0
 62
     3
100
AcDbEllipse
 10
-4.894857350365419
 20
-0.0155329342699815
 30
0.0
 11
-0.4803652708209484
 21
0.0
 31
0.0
210
0.0
220
0.0
230
-1.0
 40
0.8326996648121472
 41
0.0
 42
6.283185307179586
  0
LINE
  5
60CB3
330
60C91
100
AcDbEntity
  8
0
 62
     3
100
AcDbLine
 10
-6.049964140858037
 20
-0.7155329342699815
 30
0.0
 11
-6.049964140858037
 21
0.6844670657300185
 31
0.0
  0
ENDBLK
  5
60CB4
330
60C91
100
AcDbEntity
  8
0
100
AcDbBlockEnd
  0
BLOCK
  5
62BF8
330
62BEE
100
AcDbEntity
  8
0
100
AcDbBlockBegin
  2
*D19
 70
     1
 10
0.0
 20
0.0
 30
0.0
  3
*D19
  1
Acad:XRef
  0
ARC
  5
62BEF
330
62BEE
100
AcDbEntity
  8
0
 62
     0
370
    -2
100
AcDbCircle
 10
420.4484913516422
 20
-541.8157191965427
 30
0.0
 40
43.77715677897438
100
AcDbArc
 50
93.27245830147716
 51
161.7275416985231
  0
INSERT
  5
62BF0
330
62BEE
100
AcDbEntity
  8
0
  6
ByBlock
 62
     0
370
    -2
100
AcDbBlockReference
  2
_Open30
 10
420.4484913516422
 20
-498.0385624175683
 30
0.0
 41
2.5
 42
2.5
 43
2.5
 50
1.636229150738582
  0
INSERT
  5
62BF1
330
62BEE
100
AcDbEntity
  8
0
  6
ByBlock
 62
     0
370
    -2
100
AcDbBlockReference
  2
_Open30
 10
378.1630050173252
 20
-530.4853572817053
 30
0.0
 41
2.5
 42
2.5
 43
2.5
 50
253.3637708492617
  0
MTEXT
  5
62BF2
330
62BEE
100
AcDbEntity
  8
0
 62
     4
100
AcDbMText
 10
394.2202332892737
 20
-504.1449549890655
 30
0.0
 40
3.0
 41
0.0
 71
     5
 72
     1
  1
約75%%d
 11
0.8206752547351409
 21
0.5713948952041937
 31
0.0
 73
     1
 44
1.0
  0
POINT
  5
62BF3
330
62BEE
100
AcDbEntity
  8
Defpoints
 62
     0
100
AcDbPoint
 10
386.9132436655605
 20
-513.6763052317128
 30
0.0
  0
POINT
  5
62BF4
330
62BEE
100
AcDbEntity
  8
Defpoints
 62
     0
100
AcDbPoint
 10
420.4484913516422
 20
-379.1264350279059
 30
0.0
  0
POINT
  5
62BF5
330
62BEE
100
AcDbEntity
  8
Defpoints
 62
     0
100
AcDbPoint
 10
422.9429350488102
 20
-542.4841033707637
 30
0.0
  0
POINT
  5
62BF6
330
62BEE
100
AcDbEntity
  8
Defpoints
 62
     0
100
AcDbPoint
 10
377.5444212132239
 20
-530.3196082509454
 30
0.0
  0
POINT
  5
62BF7
330
62BEE
100
AcDbEntity
  8
Defpoints
 62
     0
100
AcDbPoint
 10
420.4484913516422
 20
-582.3138937736562
 30
0.0
  0
ENDBLK
  5
62BF9
330
62BEE
100
AcDbEntity
  8
0
100
AcDbBlockEnd
  0
ENDSEC
  0
SECTION
  2
ENTITIES
  0
LINE
  5
5733A
330
1F
100
AcDbEntity
  8
0
 62
     3
100
AcDbLine
 10
438.1005537927365
 20
-610.3517583979176
 30
0.0
 11
438.1005537927365
 21
-622.3517583979176
 31
0.0
  0
TEXT
  5
57344
330
1F
100
AcDbEntity
  8
0
100
AcDbText
 10
721.9352979363426
 20
-599.6429377801742
 30
0.0
 40
3.2
  1
W
  7
高3.2
100
AcDbText
  0
TEXT
  5
57345
330
1F
100
AcDbEntity
  8
0
 62
     3
100
AcDbText
 10
718.7870712052562
 20
-590.2112301900327
 30
0.0
 40
3.2
  1
製 図
  7
高3.2
100
AcDbText
1001
ACAD
1000
ACAD_MTEXT_DEFINED_HEIGHT_BEGIN
1070
    46
1040
0.0
1000
ACAD_MTEXT_DEFINED_HEIGHT_END
  0
TEXT
  5
57346
330
1F
100
AcDbEntity
  8
0
 62
     3
100
AcDbText
 10
720.1661428862109
 20
-585.8380662992137
 30
0.0
 40
2.0
  1
DEF
  7
高2
100
AcDbText
  0
TEXT
  5
5734D
330
1F
100
AcDbEntity
  8
0
 62
     3
100
AcDbText
 10
424.6005537927365
 20
-613.8517583979176
 30
0.0
 40
2.5
  1
-
 41
0.8000000000000002
  7
高3.2
100
AcDbText
  0
TEXT
  5
5734E
330
1F
100
AcDbEntity
  8
0
 62
     3
100
AcDbText
 10
424.6005537927365
 20
-617.8517583979176
 30
0.0
 40
2.5
  1
-
 41
0.8000000000000002
  7
高3.2
100
AcDbText
  0
TEXT
  5
5734F
330
1F
100
AcDbEntity
  8
0
 62
     3
100
AcDbText
 10
424.6005537927365
 20
-621.8517583979176
 30
0.0
 40
2.5
  1
コード
 41
0.8000000000000002
  7
高3.2
100
AcDbText
  0
LINE
  5
57350
330
1F
100
AcDbEntity
  8
0
 62
     7
100
AcDbLine
 10
423.1005537927365
 20
-610.3517583979176
 30
0.0
 11
423.1005537927364
 21
-622.3517583979176
 31
0.0
  0
TEXT
  5
57353
330
1F
100
AcDbEntity
  8
0
 62
     3
100
AcDbText
 10
417.6005537927365
 20
-613.8517583979176
 30
0.0
 40
2.5
  1
1
 41
0.8000000000000002
  7
高3.2
100
AcDbText
  0
TEXT
  5
57354
330
1F
100
AcDbEntity
  8
0
 62
     3
100
AcDbText
 10
417.6005537927365
 20
-617.8517583979176
 30
0.0
 40
2.5
  1
1
 41
0.8000000000000002
  7
高3.2
100
AcDbText
  0
TEXT
  5
57355
330
1F
100
AcDbEntity
  8
0
 62
     3
100
AcDbText
 10
417.6005537927365
 20
-621.8517583979176
 30
0.0
 40
2.5
  1
個数
 41
0.8000000000000002
  7
高3.2
100
AcDbText
  0
LINE
  5
57356
330
1F
100
AcDbEntity
  8
0
100
AcDbLine
 10
416.1005537927365
 20
-610.3517583979176
 30
0.0
 11
416.1005537927365
 21
-622.3517583979176
 31
0.0
  0
TEXT
  5
57359
330
1F
100
AcDbEntity
  8
0
 62
     3
100
AcDbText
 10
392.6005537927366
 20
-613.8517583979176
 30
0.0
 40
2.5
  1
タイプC
 41
0.8000000000000002
  7
高3.2
100
AcDbText
  0
TEXT
  5
5735A
330
1F
100
AcDbEntity
  8
0
 62
     3
100
AcDbText
 10
392.6005537927366
 20
-617.8517583979176
 30
0.0
 40
2.5
  1
-
 41
0.8000000000000002
  7
高3.2
100
AcDbText
  0
TEXT
  5
5735B
330
1F
100
AcDbEntity
  8
0
 62
     3
100
AcDbText
 10
392.6005537927366
 20
-621.8517583979176
 30
0.0
 40
2.5
  1
備考
 41
0.8000000000000002
  7
高3.2
100
AcDbText
  0
LINE
  5
5735C
330
1F
100
AcDbEntity
  8
0
100
AcDbLine
 10
391.1005537927366
 20
-610.3517583979176
 30
0.0
 11
391.1005537927365
 21
-622.3517583979176
 31
0.0
  0
TEXT
  5
57360
330
1F
100
AcDbEntity
  8
0
 62
     3
100
AcDbText
 10
375.6005537927366
 20
-613.8517583979176
 30
0.0
 40
2.5
  1
-
 41
0.8000000000000002
  7
高3.2
100
AcDbText
  0
TEXT
  5
57361
330
1F
100
AcDbEntity
  8
0
 62
     3
100
AcDbText
 10
375.6005537927366
 20
-617.8517583979176
 30
0.0
 40
2.5
  1
ABS
 41
0.8000000000000002
  7
高3.2
100
AcDbText
  0
TEXT
  5
57362
330
1F
100
AcDbEntity
  8
0
 62
     3
100
AcDbText
 10
375.6005537927366
 20
-621.8517583979176
 30
0.0
 40
2.5
  1
材質
 41
0.8000000000000002
  7
高3.2
100
AcDbText
  0
LINE
  5
57363
330
1F
100
AcDbEntity
  8
0
100
AcDbLine
 10
374.1005537927366
 20
-610.3517583979176
 30
0.0
 11
374.1005537927366
 21
-622.3517583979176
 31
0.0
  0
TEXT
  5
57366
330
1F
100
AcDbEntity
  8
0
 62
     3
100
AcDbText
 10
350.6005537927365
 20
-613.8517583979176
 30
0.0
 40
2.5
  1
USBケーブル
 41
0.8000000000000002
  7
高3.2
100
AcDbText
  0
TEXT
  5
57367
330
1F
100
AcDbEntity
  8
0
 62
     3
100
AcDbText
 10
350.6005537927365
 20
-617.8517583979176
 30
0.0
 40
2.5
  1
本体
 41
0.8000000000000002
  7
高3.2
100
AcDbText
  0
TEXT
  5
57368
330
1F
100
AcDbEntity
  8
0
 62
     3
100
AcDbText
 10
350.6005537927365
 20
-621.8517583979176
 30
0.0
 40
2.5
  1
部品名
 41
0.8000000000000002
  7
高3.2
100
AcDbText
  0
LINE
  5
57369
330
1F
100
AcDbEntity
  8
0
100
AcDbLine
 10
349.1005537927366
 20
-610.3517583979176
 30
0.0
 11
349.1005537927366
 21
-622.3517583979176
 31
0.0
  0
TEXT
  5
57370
330
1F
100
AcDbEntity
  8
0
 62
     3
100
AcDbText
 10
341.6005537927366
 20
-613.8517583979176
 30
0.0
 40
2.5
  1
付属
 41
0.8000000000000002
  7
高3.2
100
AcDbText
  0
TEXT
  5
57371
330
1F
100
AcDbEntity
  8
0
 62
     3
100
AcDbText
 10
341.6005537927366
 20
-617.8517583979176
 30
0.0
 40
2.5
  1
1
 41
0.8000000000000002
  7
高3.2
100
AcDbText
  0
TEXT
  5
57372
330
1F
100
AcDbEntity
  8
0
 62
     3
100
AcDbText
 10
341.6005537927366
 20
-621.8517583979176
 30
0.0
 40
2.5
  1
No.
 41
0.8000000000000002
  7
高3.2
100
AcDbText
  0
LINE
  5
57378
330
1F
100
AcDbEntity
  8
0
 62
     3
100
AcDbLine
 10
438.1005537927365
 20
-610.3517583979176
 30
0.0
 11
340.1005537927366
 21
-610.3517583979176
 31
0.0
  0
LINE
  5
57379
330
1F
100
AcDbEntity
  8
0
100
AcDbLine
 10
438.1005537927365
 20
-614.3517583979176
 30
0.0
 11
340.1005537927366
 21
-614.3517583979176
 31
0.0
  0
LINE
  5
5737A
330
1F
100
AcDbEntity
  8
0
100
AcDbLine
 10
438.1005537927365
 20
-618.3517583979173
 30
0.0
 11
340.1005537927366
 21
-618.3517583979176
 31
0.0
  0
TEXT
  5
583E7
330
1F
100
AcDbEntity
  8
0
 62
     3
100
AcDbText
 10
616.6089628564916
 20
-425.3197290004324
 30
0.0
 40
3.2
  1
型　　　式
 41
0.8000000000000002
  7
高3.2
100
AcDbText
  0
LINE
  5
583E9
330
1F
100
AcDbEntity
  8
0
 62
     3
100
AcDbLine
 10
615.1089628564916
 20
-420.8197290004324
 30
0.0
 11
615.1089628564916
 21
-459.3197290004323
 31
0.0
  0
LINE
  5
583EA
330
1F
100
AcDbEntity
  8
0
 62
     7
100
AcDbLine
 10
615.1089628564916
 20
-437.3197290004324
 30
0.0
 11
714.7548136214455
 21
-437.3197290004324
 31
0.0
  0
LINE
  5
583EB
330
1F
100
AcDbEntity
  8
0
 62
     7
100
AcDbLine
 10
615.1089628564916
 20
-431.8197290004324
 30
0.0
 11
714.7548136214455
 21
-431.8197290004324
 31
0.0
  0
LINE
  5
583EC
330
1F
100
AcDbEntity
  8
0
 62
     7
100
AcDbLine
 10
615.1089628564916
 20
-426.3197290004324
 30
0.0
 11
714.7548136214455
 21
-426.3197290004324
 31
0.0
  0
LINE
  5
583ED
330
1F
100
AcDbEntity
  8
0
 62
     3
100
AcDbLine
 10
615.1089628564916
 20
-420.8197290004324
 30
0.0
 11
714.7548136214455
 21
-420.8197290004324
 31
0.0
  0
LINE
  5
583EE
330
1F
100
AcDbEntity
  8
0
 62
     3
100
AcDbLine
 10
615.1089628564916
 20
-459.3197290004323
 30
0.0
 11
714.7548136214455
 21
-459.3197290004323
 31
0.0
  0
TEXT
  5
583F3
330
1F
100
AcDbEntity
  8
0
 62
     3
100
AcDbText
 10
645.0007321501262
 20
-416.0684522758517
 30
0.0
 40
4.5
  1
主　　仕　　様
  7
高4.5
100
AcDbText
  0
LINE
  5
5840F
330
1F
100
AcDbEntity
  8
0
100
AcDbLine
 10
615.1089628564916
 20
-448.3197290004323
 30
0.0
 11
714.7548136214455
 21
-448.3197290004323
 31
0.0
  0
TEXT
  5
58410
330
1F
100
AcDbEntity
  8
0
 62
     3
100
AcDbText
 10
616.6089628564916
 20
-447.3197290004323
 30
0.0
 40
3.2
  1
充電　　時間
 41
0.8000000000000002
  7
高3.2
100
AcDbText
  0
TEXT
  5
58411
330
1F
100
AcDbEntity
  8
0
 62
     3
100
AcDbText
 10
640.2548136214455
 20
-447.3197290004323
 30
0.0
 40
3.2
  1
3時間 (DC5V 2Aまで)
  7
高3.2
100
AcDbText
  0
TEXT
  5
58412
330
1F
100
AcDbEntity
  8
0
 62
     3
100
AcDbText
 10
640.2548136214455
 20
-425.3197290004324
 30
0.0
 40
3.2
  1
HF-01-W
  7
高3.2
100
AcDbText
  0
LINE
  5
58414
330
1F
100
AcDbEntity
  8
0
100
AcDbLine
 10
644.4651901748141
 20
-416.6881179239975
 30
0.0
 11
682.8832119677716
 21
-416.6881179239975
 31
0.0
  0
TEXT
  5
58420
330
1F
100
AcDbEntity
  8
0
 62
     3
100
AcDbText
 10
616.6089628564916
 20
-458.3197290004324
 30
0.0
 40
3.2
  1
備　　考
  7
高3.2
100
AcDbText
  0
TEXT
  5
58422
330
1F
100
AcDbEntity
  8
0
 62
     3
100
AcDbText
 10
616.6089628564916
 20
-430.8197290004324
 30
0.0
 40
3.2
  1
運転パターン
 41
0.8000000000000002
  7
高3.2
100
AcDbText
  0
TEXT
  5
58423
330
1F
100
AcDbEntity
  8
0
 62
     3
100
AcDbText
 10
640.2548136214455
 20
-430.8197290004324
 30
0.0
 40
3.2
  1
ファン(中)→ファン(強)→ファン(弱)+冷感プレート
 41
0.7500000000000001
  7
高3.2
100
AcDbText
  0
TEXT
  5
58439
330
1F
100
AcDbEntity
  8
0
 62
     3
100
AcDbText
 10
616.6089628564916
 20
-436.3197290004324
 30
0.0
 40
3.2
  1
運転　　時間
 41
0.8000000000000002
  7
高3.2
100
AcDbText
  0
LINE
  5
58B8B
330
1F
100
AcDbEntity
  8
0
 62
     7
100
AcDbLine
 10
615.1089628564916
 20
-442.8197290004323
 30
0.0
 11
714.7548136214455
 21
-442.8197290004323
 31
0.0
  0
LINE
  5
58B9B
330
1F
100
AcDbEntity
  8
0
 62
     3
100
AcDbLine
 10
340.1005537927366
 20
-348.3517583979176
 30
0.0
 11
340.1005537927366
 21
-622.3517583979176
 31
0.0
  0
LINE
  5
58B9C
330
1F
100
AcDbEntity
  8
0
 62
     3
100
AcDbLine
 10
730.1005537927368
 20
-622.3517583979176
 30
0.0
 11
730.1005537927368
 21
-348.3517583979176
 31
0.0
  0
LINE
  5
58B9D
330
1F
100
AcDbEntity
  8
0
 62
     3
100
AcDbLine
 10
340.1005537927366
 20
-622.3517583979176
 30
0.0
 11
730.1005537927368
 21
-622.3517583979176
 31
0.0
  0
LINE
  5
58B9E
330
1F
100
AcDbEntity
  8
0
 62
     3
100
AcDbLine
 10
558.7572789727369
 20
-348.3517583979176
 30
0.0
 11
730.1005537927362
 21
-348.3517583979176
 31
0.0
  0
LINE
  5
58B9F
330
1F
100
AcDbEntity
  8
0
 62
     3
100
AcDbLine
 10
510.2032443027371
 20
-348.3517583979176
 30
0.0
 11
340.1005537927366
 21
-348.3517583979176
 31
0.0
  0
LINE
  5
58BA0
330
1F
100
AcDbEntity
  8
0
 62
     3
100
AcDbLine
 10
327.6986300027366
 20
-481.9071194479175
 30
0.0
 11
325.1005537927366
 21
-483.4071194479174
 31
0.0
  0
LINE
  5
58BA1
330
1F
100
AcDbEntity
  8
0
 62
     3
100
AcDbLine
 10
327.6986300027366
 20
-481.9071194479175
 30
0.0
 11
325.1005537927366
 21
-480.4071194479174
 31
0.0
  0
LINE
  5
58BA2
330
1F
100
AcDbEntity
  8
0
 62
     3
100
AcDbLine
 10
325.1005537927366
 20
-483.4071194479174
 30
0.0
 11
325.1005537927366
 21
-480.4071194479174
 31
0.0
  0
LINE
  5
58BA3
330
1F
100
AcDbEntity
  8
0
 62
     3
100
AcDbLine
 10
678.1005537927366
 20
-622.3517583979176
 30
0.0
 11
678.1005537927366
 21
-582.3517583979174
 31
0.0
  0
LINE
  5
58BA4
330
1F
100
AcDbEntity
  8
0
 62
     3
100
AcDbLine
 10
691.1005537927368
 20
-612.3517583979174
 30
0.0
 11
691.1005537927368
 21
-584.3517583979176
 31
0.0
  0
LINE
  5
58BA5
330
1F
100
AcDbEntity
  8
0
 62
     3
100
AcDbLine
 10
651.1005537927366
 20
-612.3517583979174
 30
0.0
 11
651.1005537927366
 21
-598.3517583979176
 31
0.0
  0
LINE
  5
58BA6
330
1F
100
AcDbEntity
  8
0
 62
     3
100
AcDbLine
 10
661.1005537927366
 20
-598.3517583979176
 30
0.0
 11
661.1005537927366
 21
-622.3517583979176
 31
0.0
  0
LINE
  5
58BA7
330
1F
100
AcDbEntity
  8
0
 62
     3
100
AcDbLine
 10
632.1005537927366
 20
-582.3517583979174
 30
0.0
 11
632.1005537927366
 21
-605.3517583979176
 31
0.0
  0
LINE
  5
58BA8
330
1F
100
AcDbEntity
  8
0
 62
     3
100
AcDbLine
 10
691.1005537927368
 20
-584.3517583979176
 30
0.0
 11
691.1005537927368
 21
-582.3517583979174
 31
0.0
  0
LINE
  5
58BA9
330
1F
100
AcDbEntity
  8
0
 62
     3
100
AcDbLine
 10
704.1005537927368
 20
-605.3517583979176
 30
0.0
 11
704.1005537927368
 21
-582.3517583979174
 31
0.0
  0
LINE
  5
58BAA
330
1F
100
AcDbEntity
  8
0
 62
     3
100
AcDbLine
 10
730.1005537927368
 20
-582.3517583979174
 30
0.0
 11
618.8551191527366
 21
-582.3517583979174
 31
0.0
  0
TEXT
  5
58BAB
330
1F
100
AcDbEntity
  8
0
 62
     3
100
AcDbText
 10
706.6606915364476
 20
-581.7476910988694
 30
0.0
 40
4.5
  1
29770
  7
高4.5
100
AcDbText
  0
TEXT
  5
58BAC
330
1F
100
AcDbEntity
  8
0
 62
     3
100
AcDbText
 10
683.8523264119261
 20
-581.7476910988694
 30
0.0
 40
4.5
  1
コード
  7
高4.5
100
AcDbText
  0
LINE
  5
58BAD
330
1F
100
AcDbEntity
  8
0
 62
     3
100
AcDbLine
 10
678.1005537927366
 20
-582.3517583979174
 30
0.0
 11
678.1005537927366
 21
-576.3517583979176
 31
0.0
  0
LINE
  5
58BAE
330
1F
100
AcDbEntity
  8
0
 62
     3
100
AcDbLine
 10
704.1005537927368
 20
-582.3517583979174
 30
0.0
 11
704.1005537927368
 21
-576.3517583979176
 31
0.0
  0
LINE
  5
58BAF
330
1F
100
AcDbEntity
  8
0
 62
     3
100
AcDbLine
 10
644.1005537927362
 20
-368.3517583979177
 30
0.0
 11
644.1005537927362
 21
-348.3517583979176
 31
0.0
  0
LINE
  5
58BB0
330
1F
100
AcDbEntity
  8
0
 62
     7
100
AcDbLine
 10
654.1005537927364
 20
-368.3517583979177
 30
0.0
 11
654.1005537927364
 21
-353.3517583979176
 31
0.0
  0
LINE
  5
58BB1
330
1F
100
AcDbEntity
  8
0
 62
     7
100
AcDbLine
 10
672.1005537927362
 20
-368.3517583979177
 30
0.0
 11
672.1005537927362
 21
-353.3517583979176
 31
0.0
  0
LINE
  5
58BB2
330
1F
100
AcDbEntity
  8
0
 62
     7
100
AcDbLine
 10
716.1005537927364
 20
-368.3517583979177
 30
0.0
 11
716.1005537927364
 21
-353.3517583979176
 31
0.0
  0
LINE
  5
58BB3
330
1F
100
AcDbEntity
  8
0
 62
     3
100
AcDbLine
 10
644.1005537927362
 20
-368.3517583979177
 30
0.0
 11
730.1005537927362
 21
-368.3517583979177
 31
0.0
  0
LINE
  5
58BB4
330
1F
100
AcDbEntity
  8
0
 62
     7
100
AcDbLine
 10
644.1005537927362
 20
-363.3517583979176
 30
0.0
 11
730.1005537927362
 21
-363.3517583979176
 31
0.0
  0
LINE
  5
58BB5
330
1F
100
AcDbEntity
  8
0
 62
     3
100
AcDbLine
 10
644.1005537927362
 20
-358.3517583979177
 30
0.0
 11
730.1005537927362
 21
-358.3517583979177
 31
0.0
  0
LINE
  5
58BB6
330
1F
100
AcDbEntity
  8
0
 62
     3
100
AcDbLine
 10
644.1005537927362
 20
-353.3517583979176
 30
0.0
 11
730.1005537927362
 21
-353.3517583979176
 31
0.0
  0
LINE
  5
58BB7
330
1F
100
AcDbEntity
  8
0
100
AcDbLine
 10
647.2005537927367
 20
-362.8517583979177
 30
0.0
 11
651.0005537927362
 21
-362.8517583979177
 31
0.0
  0
LINE
  5
58BB8
330
1F
100
AcDbEntity
  8
0
100
AcDbLine
 10
649.1005537927364
 20
-359.5608613979175
 30
0.0
 11
651.0005537927362
 21
-362.8517583979177
 31
0.0
  0
LINE
  5
58BB9
330
1F
100
AcDbEntity
  8
0
100
AcDbLine
 10
649.1005537927364
 20
-359.5608613979175
 30
0.0
 11
647.2005537927367
 21
-362.8517583979177
 31
0.0
  0
LINE
  5
58BBA
330
1F
100
AcDbEntity
  8
0
100
AcDbLine
 10
647.2005537927367
 20
-367.8517583979176
 30
0.0
 11
651.0005537927362
 21
-367.8517583979176
 31
0.0
  0
LINE
  5
58BBB
330
1F
100
AcDbEntity
  8
0
100
AcDbLine
 10
649.1005537927364
 20
-364.5608623979174
 30
0.0
 11
651.0005537927362
 21
-367.8517583979176
 31
0.0
  0
LINE
  5
58BBC
330
1F
100
AcDbEntity
  8
0
100
AcDbLine
 10
649.1005537927364
 20
-364.5608623979174
 30
0.0
 11
647.2005537927367
 21
-367.8517583979176
 31
0.0
  0
TEXT
  5
58BBD
330
1F
100
AcDbEntity
  8
0
 62
     3
100
AcDbText
 10
645.6005537927364
 20
-357.8517583979177
 30
0.0
 40
3.2
  1
記号
  7
高3.2
100
AcDbText
  0
TEXT
  5
58BBE
330
1F
100
AcDbEntity
  8
0
 62
     3
100
AcDbText
 10
655.6005537927362
 20
-352.8517583979176
 30
0.0
 40
3.2
  1
図　　　　面　　　　略　　　　歴
  7
高3.2
100
AcDbText
  0
TEXT
  5
58BBF
330
1F
100
AcDbEntity
  8
0
 62
     3
100
AcDbText
 10
655.6005537927362
 20
-357.8517583979177
 30
0.0
 40
3.2
  1
日　付
  7
高3.2
100
AcDbText
  0
TEXT
  5
58BC0
330
1F
100
AcDbEntity
  8
0
 62
     3
100
AcDbText
 10
648.4055573163183
 20
-367.6921136200988
 30
0.0
 40
2.0
  1
2
  7
高2
100
AcDbText
  0
TEXT
  5
58BC1
330
1F
100
AcDbEntity
  8
0
 62
     3
100
AcDbText
 10
648.7140687930756
 20
-362.5222969078259
 30
0.0
 40
2.0
  1
1
  7
高2
100
AcDbText
  0
TEXT
  5
58BC2
330
1F
100
AcDbEntity
  8
0
 62
     3
100
AcDbText
 10
673.6005537927362
 20
-357.8517583979177
 30
0.0
 40
3.2
  1
変更・追記内容
  7
高3.2
100
AcDbText
  0
TEXT
  5
58BC3
330
1F
100
AcDbEntity
  8
0
 62
     3
100
AcDbText
 10
717.6005537927362
 20
-357.8517583979177
 30
0.0
 40
3.2
  1
担　当
  7
高3.2
100
AcDbText
  0
ARC
  5
58BC4
330
1F
100
AcDbEntity
  8
0
  6
Continuous
 62
     3
100
AcDbCircle
 10
534.0626068056089
 20
-268.9551697648938
 30
0.0
 40
83.99999999999733
100
AcDbArc
 50
261.4159701951792
 51
278.5840298048207
  0
ARC
  5
58BC5
330
1F
100
AcDbEntity
  8
0
  6
Continuous
 62
     3
100
AcDbCircle
 10
534.0626068056089
 20
-268.9551697648924
 30
0.0
 40
84.74999999999856
100
AcDbArc
 50
261.415970195179
 51
278.584029804821
  0
ARC
  5
58BC6
330
1F
100
AcDbEntity
  8
0
  6
Continuous
 62
     3
100
AcDbCircle
 10
534.0626068056089
 20
-427.9186942777577
 30
0.0
 40
83.99999999999733
100
AcDbArc
 50
81.41597019517916
 51
98.58402980482091
  0
ARC
  5
58BC7
330
1F
100
AcDbEntity
  8
0
  6
Continuous
 62
     3
100
AcDbCircle
 10
534.0626068056089
 20
-427.9186942777585
 30
0.0
 40
84.74999999999856
100
AcDbArc
 50
81.41597019517901
 51
98.58402980482099
  0
ARC
  5
58BC8
330
1F
100
AcDbEntity
  8
0
  6
Continuous
 62
     3
100
AcDbCircle
 10
526.0025808935465
 20
-322.3502630066569
 30
0.0
 40
30.75
100
AcDbArc
 50
246.2514569094748
 51
261.4159701951792
  0
ARC
  5
58BC9
330
1F
100
AcDbEntity
  8
0
  6
Continuous
 62
     3
100
AcDbCircle
 10
526.0025808935465
 20
-322.3502630066569
 30
0.0
 40
30.0
100
AcDbArc
 50
246.2514569094746
 51
261.4159701951791
  0
ARC
  5
58BCA
330
1F
100
AcDbEntity
  8
0
  6
Continuous
 62
     3
100
AcDbCircle
 10
542.1226327176715
 20
-322.3502630066569
 30
0.0
 40
30.75
100
AcDbArc
 50
278.5840298048207
 51
293.7485430905251
  0
ARC
  5
58BCB
330
1F
100
AcDbEntity
  8
0
  6
Continuous
 62
     3
100
AcDbCircle
 10
542.1226327176715
 20
-322.3502630066569
 30
0.0
 40
30.0
100
AcDbArc
 50
278.5840298048209
 51
293.7485430905253
  0
ARC
  5
58BCC
330
1F
100
AcDbEntity
  8
0
  6
Continuous
 62
     3
100
AcDbCircle
 10
526.0025808935465
 20
-374.5236010359943
 30
0.0
 40
30.75
100
AcDbArc
 50
98.58402980482082
 51
113.7485430905252
  0
ARC
  5
58BCD
330
1F
100
AcDbEntity
  8
0
  6
Continuous
 62
     3
100
AcDbCircle
 10
526.0025808935465
 20
-374.5236010359943
 30
0.0
 40
30.0
100
AcDbArc
 50
98.58402980482091
 51
113.7485430905253
  0
ARC
  5
58BCE
330
1F
100
AcDbEntity
  8
0
  6
Continuous
 62
     3
100
AcDbCircle
 10
514.5249635572205
 20
-348.4369320213257
 30
0.0
 40
2.25
100
AcDbArc
 50
113.748543090521
 51
246.251456909479
  0
ARC
  5
58BCF
330
1F
100
AcDbEntity
  8
0
  6
Continuous
 62
     3
100
AcDbCircle
 10
514.5249635572205
 20
-348.4369320213257
 30
0.0
 40
1.5
100
AcDbArc
 50
113.7485430905204
 51
246.2514569094796
  0
ARC
  5
58BD0
330
1F
100
AcDbEntity
  8
0
  6
Continuous
 62
     3
100
AcDbCircle
 10
542.1226327176715
 20
-374.5236010359943
 30
0.0
 40
30.75
100
AcDbArc
 50
66.25145690947483
 51
81.4159701951792
  0
ARC
  5
58BD1
330
1F
100
AcDbEntity
  8
0
  6
Continuous
 62
     3
100
AcDbCircle
 10
542.1226327176715
 20
-374.5236010359943
 30
0.0
 40
30.0
100
AcDbArc
 50
66.25145690947465
 51
81.41597019517911
  0
ARC
  5
58BD2
330
1F
100
AcDbEntity
  8
0
  6
Continuous
 62
     3
100
AcDbCircle
 10
553.6002500539972
 20
-348.4369320213257
 30
0.0
 40
2.25
100
AcDbArc
 50
293.7485430905212
 51
66.25145690947903
  0
ARC
  5
58BD3
330
1F
100
AcDbEntity
  8
0
  6
Continuous
 62
     3
100
AcDbCircle
 10
553.6002500539972
 20
-348.4369320213257
 30
0.0
 40
1.5
100
AcDbArc
 50
293.7485430905203
 51
66.25145690947959
  0
LINE
  5
58BD4
330
1F
100
AcDbEntity
  8
0
  6
Continuous
 62
     3
100
AcDbLine
 10
524.7500063646568
 20
-345.416705930355
 30
0.0
 11
527.2919077524266
 21
-345.4167595154424
 31
0.0
  0
LINE
  5
58BD5
330
1F
100
AcDbEntity
  8
0
  6
Continuous
 62
     3
100
AcDbLine
 10
527.2918025257651
 20
-351.4206812046789
 30
0.0
 11
524.7499021497825
 21
-351.4206290400782
 31
0.0
  0
LINE
  5
58BD6
330
1F
100
AcDbEntity
  8
0
  6
Continuous
 62
     3
100
AcDbLine
 10
518.5732353472868
 20
-351.0823474724542
 30
0.0
 11
519.0795463332703
 21
-350.7535596627509
 31
0.0
  0
LINE
  5
58BD7
330
1F
100
AcDbEntity
  8
0
  6
Continuous
 62
     3
100
AcDbLine
 10
520.551066140724
 20
-351.0823474724542
 30
0.0
 11
520.044755154741
 21
-350.7535596627509
 31
0.0
  0
LINE
  5
58BD8
330
1F
100
AcDbEntity
  8
0
  6
Continuous
 62
     3
100
AcDbLine
 10
524.749907208757
 20
-351.1148625995929
 30
0.0
 11
525.2561746875768
 21
-350.7860231681366
 31
0.0
  0
LINE
  5
58BD9
330
1F
100
AcDbEntity
  8
0
  6
Continuous
 62
     3
100
AcDbLine
 10
527.2918085965343
 20
-351.1148581036798
 30
0.0
 11
526.7855856366824
 21
-350.7860444158293
 31
0.0
  0
LINE
  5
58BDA
330
1F
100
AcDbEntity
  8
0
  6
Continuous
 62
     3
100
AcDbLine
 10
532.4473991716437
 20
-350.786114229677
 30
0.0
 11
531.9411711528415
 21
-351.1148605557892
 31
0.0
  0
LINE
  5
58BDB
330
1F
100
AcDbEntity
  8
0
  6
Continuous
 62
     3
100
AcDbLine
 10
534.5159558746249
 20
-351.1148605557892
 30
0.0
 11
534.0097278558229
 21
-350.786114229677
 31
0.0
  0
LINE
  5
58BDC
330
1F
100
AcDbEntity
  8
0
  6
Continuous
 62
     3
100
AcDbLine
 10
535.0574832369163
 20
-351.1148605557892
 30
0.0
 11
535.5637112557184
 21
-350.786114229677
 31
0.0
  0
LINE
  5
58BDD
330
1F
100
AcDbEntity
  8
0
  6
Continuous
 62
     3
100
AcDbLine
 10
537.6322689704948
 20
-351.1148605557892
 30
0.0
 11
537.1260399398976
 21
-350.786114229677
 31
0.0
  0
LINE
  5
58BDE
330
1F
100
AcDbEntity
  8
0
  6
Continuous
 62
     3
100
AcDbLine
 10
538.6670468850231
 20
-350.786114229677
 30
0.0
 11
538.1608188662209
 21
-351.1148605557892
 31
0.0
  0
LINE
  5
58BDF
330
1F
100
AcDbEntity
  8
0
  6
Continuous
 62
     3
100
AcDbLine
 10
540.1964912233599
 20
-350.786114229677
 30
0.0
 11
540.7027202539572
 21
-351.1148605557892
 31
0.0
  0
LINE
  5
58BE0
330
1F
100
AcDbEntity
  8
0
  6
Continuous
 62
     3
100
AcDbLine
 10
541.7552546358971
 20
-350.786114229677
 30
0.0
 11
541.2490256053001
 21
-351.1148605557892
 31
0.0
  0
LINE
  5
58BE1
330
1F
100
AcDbEntity
  8
0
  6
Continuous
 62
     3
100
AcDbLine
 10
541.2490256053001
 20
-345.7225279997313
 30
0.0
 11
541.7553365912834
 21
-346.0514149653339
 31
0.0
  0
LINE
  5
58BE2
330
1F
100
AcDbEntity
  8
0
  6
Continuous
 62
     3
100
AcDbLine
 10
540.7027202539572
 20
-345.7225279997313
 30
0.0
 11
540.1964092679738
 21
-346.0514149653339
 31
0.0
  0
LINE
  5
58BE3
330
1F
100
AcDbEntity
  8
0
  6
Continuous
 62
     3
100
AcDbLine
 10
538.1608188662209
 20
-345.7225279997313
 30
0.0
 11
538.6671298522043
 21
-346.0514149653339
 31
0.0
  0
LINE
  5
58BE4
330
1F
100
AcDbEntity
  8
0
  6
Continuous
 62
     3
100
AcDbLine
 10
537.6322689704948
 20
-345.7225279997313
 30
0.0
 11
537.1259569727168
 21
-346.0514149653339
 31
0.0
  0
LINE
  5
58BE5
330
1F
100
AcDbEntity
  8
0
  6
Continuous
 62
     3
100
AcDbLine
 10
535.0574832369163
 20
-345.7225279997313
 30
0.0
 11
535.5637942229001
 21
-346.0514149653339
 31
0.0
  0
LINE
  5
58BE6
330
1F
100
AcDbEntity
  8
0
  6
Continuous
 62
     3
100
AcDbLine
 10
534.5159558746249
 20
-345.7225279997313
 30
0.0
 11
534.0096448886416
 21
-346.0514149653339
 31
0.0
  0
LINE
  5
58BE7
330
1F
100
AcDbEntity
  8
0
  6
Continuous
 62
     3
100
AcDbLine
 10
531.9411711528415
 20
-345.7225279997313
 30
0.0
 11
532.4474821388249
 21
-346.0514149653339
 31
0.0
  0
LINE
  5
58BE8
330
1F
100
AcDbEntity
  8
0
  6
Continuous
 62
     3
100
AcDbLine
 10
527.291902693452
 20
-345.7225259559276
 30
0.0
 11
526.7855856366824
 21
-346.0513441396913
 31
0.0
  0
LINE
  5
58BE9
330
1F
100
AcDbEntity
  8
0
  6
Continuous
 62
     3
100
AcDbLine
 10
524.7500013056821
 20
-345.7225300431492
 30
0.0
 11
525.2562738434768
 21
-346.0513228919986
 31
0.0
  0
LINE
  5
58BEA
330
1F
100
AcDbEntity
  8
0
  6
Continuous
 62
     3
100
AcDbLine
 10
524.2251281363966
 20
-345.6900149163959
 30
0.0
 11
523.7188171504132
 21
-346.0188017143041
 31
0.0
  0
LINE
  5
58BEB
330
1F
100
AcDbEntity
  8
0
  6
Continuous
 62
     3
100
AcDbLine
 10
522.2472983547544
 20
-345.6900149163959
 30
0.0
 11
522.7536093407376
 21
-346.0188017143041
 31
0.0
  0
LINE
  5
58BEC
330
1F
100
AcDbEntity
  8
0
  6
Continuous
 62
     3
100
AcDbLine
 10
518.5732353472868
 20
-345.6900149163959
 30
0.0
 11
519.0795463332703
 21
-346.0188017143041
 31
0.0
  0
ARC
  5
58BED
330
1F
100
AcDbEntity
  8
0
 62
     3
100
AcDbCircle
 10
551.5122770338756
 20
-348.3723520480362
 30
0.0
 40
3.983420308030568
100
AcDbArc
 50
180.6665839999972
 51
203.9039280000019
  0
ARC
  5
58BEE
330
1F
100
AcDbEntity
  8
0
 62
     3
100
AcDbCircle
 10
545.8526393966291
 20
-348.3723520480362
 30
0.0
 40
3.983420308030568
100
AcDbArc
 50
336.0960719999981
 51
359.3334159999994
  0
ARC
  5
58BEF
330
1F
100
AcDbEntity
  8
0
 62
     3
100
AcDbCircle
 10
551.5122770338756
 20
-348.4650365074845
 30
0.0
 40
3.983420308030568
100
AcDbArc
 50
156.0960719999965
 51
179.3334160000012
  0
ARC
  5
58BF0
330
1F
100
AcDbEntity
  8
0
 62
     3
100
AcDbCircle
 10
545.8526393966291
 20
-348.4650365074845
 30
0.0
 40
3.983420308030568
100
AcDbArc
 50
0.6665839999988225
 51
23.90392800000336
  0
ARC
  5
58BF1
330
1F
100
AcDbEntity
  8
0
 62
     3
100
AcDbCircle
 10
529.7344028883031
 20
-348.4186942777603
 30
0.0
 40
3.001961048771398
100
AcDbArc
 50
273.9763330000008
 51
312.8231200000004
  0
ARC
  5
58BF2
330
1F
100
AcDbEntity
  8
0
 62
     3
100
AcDbCircle
 10
529.7344028883031
 20
-348.4186942777603
 30
0.0
 40
3.001961048771398
100
AcDbArc
 50
46.75287999999699
 51
89.74999799999911
  0
ARC
  5
58BF3
330
1F
100
AcDbEntity
  8
0
 62
     3
100
AcDbCircle
 10
543.9936474675761
 20
-349.0485335637437
 30
0.0
 40
2.37212176278799
100
AcDbArc
 50
270.0
 51
342.691250999998
  0
ARC
  5
58BF4
330
1F
100
AcDbEntity
  8
0
 62
     3
100
AcDbCircle
 10
541.9725486989715
 20
-348.4186807152648
 30
0.0
 40
4.489082006702322
100
AcDbArc
 50
342.6912510000004
 51
17.30856600000213
  0
ARC
  5
58BF5
330
1F
100
AcDbEntity
  8
0
 62
     3
100
AcDbCircle
 10
543.9936474675761
 20
-347.7888549917769
 30
0.0
 40
2.37212176278799
100
AcDbArc
 50
17.30874900000201
 51
90.0
  0
ARC
  5
58BF6
330
1F
100
AcDbEntity
  8
0
 62
     3
100
AcDbCircle
 10
544.2513039957053
 20
-349.0485335637437
 30
0.0
 40
2.37212176278799
100
AcDbArc
 50
336.2349289999954
 51
342.691250999998
  0
ARC
  5
58BF7
330
1F
100
AcDbEntity
  8
0
 62
     3
100
AcDbCircle
 10
542.2302103061801
 20
-348.4186942777603
 30
0.0
 40
4.489082006702322
100
AcDbArc
 50
342.6912510000004
 51
17.30856600000213
  0
ARC
  5
58BF8
330
1F
100
AcDbEntity
  8
0
 62
     3
100
AcDbCircle
 10
544.2513039957053
 20
-347.7888549917769
 30
0.0
 40
2.37212176278799
100
AcDbArc
 50
17.30874900000201
 51
23.76507100000468
  0
LINE
  5
58BF9
330
1F
100
AcDbEntity
  8
0
 62
     3
100
AcDbLine
 10
518.5732353472868
 20
-345.3842201456536
 30
0.0
 11
518.5732353472868
 21
-345.6900149163959
 31
0.0
  0
LINE
  5
58BFA
330
1F
100
AcDbEntity
  8
0
 62
     3
100
AcDbLine
 10
518.5732353472868
 20
-351.0823474724542
 30
0.0
 11
518.5732353472868
 21
-351.3881422431964
 31
0.0
  0
LINE
  5
58BFB
330
1F
100
AcDbEntity
  8
0
 62
     3
100
AcDbLine
 10
535.0574832369163
 20
-345.7225279997313
 30
0.0
 11
535.0574832369163
 21
-345.4168758920689
 31
0.0
  0
LINE
  5
58BFC
330
1F
100
AcDbEntity
  8
0
 62
     3
100
AcDbLine
 10
534.5159558746249
 20
-345.7225279997313
 30
0.0
 11
534.5159558746249
 21
-345.4168758920689
 31
0.0
  0
LINE
  5
58BFD
330
1F
100
AcDbEntity
  8
0
 62
     3
100
AcDbLine
 10
534.5159558746249
 20
-351.1148605557892
 30
0.0
 11
534.5159558746249
 21
-351.4207979896117
 31
0.0
  0
LINE
  5
58BFE
330
1F
100
AcDbEntity
  8
0
 62
     3
100
AcDbLine
 10
535.0574832369163
 20
-351.1148605557892
 30
0.0
 11
535.0574832369163
 21
-351.4207979896117
 31
0.0
  0
LINE
  5
58BFF
330
1F
100
AcDbEntity
  8
0
 62
     3
100
AcDbLine
 10
531.9411711528415
 20
-351.4207979896119
 30
0.0
 11
534.5159558746249
 21
-351.4207979896117
 31
0.0
  0
LINE
  5
58C00
330
1F
100
AcDbEntity
  8
0
 62
     3
100
AcDbLine
 10
531.9411711528415
 20
-351.4207979896117
 30
0.0
 11
531.9411711528415
 21
-351.1148605557892
 31
0.0
  0
LINE
  5
58C01
330
1F
100
AcDbEntity
  8
0
 62
     3
100
AcDbLine
 10
531.9411711528415
 20
-345.7225279997313
 30
0.0
 11
531.9411711528415
 21
-345.4168758920689
 31
0.0
  0
LINE
  5
58C02
330
1F
100
AcDbEntity
  8
0
 62
     3
100
AcDbLine
 10
531.9411711528415
 20
-345.4168758920689
 30
0.0
 11
534.5159558746249
 21
-345.416875892069
 31
0.0
  0
LINE
  5
58C03
330
1F
100
AcDbEntity
  8
0
 62
     3
100
AcDbLine
 10
518.5732353472868
 20
-345.3842201456536
 30
0.0
 11
520.9690247312197
 21
-345.3842201456536
 31
0.0
  0
LINE
  5
58C04
330
1F
100
AcDbEntity
  8
0
 62
     3
100
AcDbLine
 10
522.7536093407376
 20
-348.1035868805966
 30
0.0
 11
520.9690247312197
 21
-345.3842201456536
 31
0.0
  0
LINE
  5
58C05
330
1F
100
AcDbEntity
  8
0
 62
     3
100
AcDbLine
 10
522.2472983547544
 20
-345.3842201456536
 30
0.0
 11
522.2472983547544
 21
-345.6900149163959
 31
0.0
  0
LINE
  5
58C06
330
1F
100
AcDbEntity
  8
0
 62
     3
100
AcDbLine
 10
522.2472983547544
 20
-345.3842201456536
 30
0.0
 11
524.2251281363966
 21
-345.3842201456536
 31
0.0
  0
LINE
  5
58C07
330
1F
100
AcDbEntity
  8
0
 62
     3
100
AcDbLine
 10
524.2251281363966
 20
-345.3842201456536
 30
0.0
 11
524.2251281363966
 21
-345.6900149163959
 31
0.0
  0
LINE
  5
58C08
330
1F
100
AcDbEntity
  8
0
 62
     3
100
AcDbLine
 10
522.2453078691883
 20
-351.3881422431964
 30
0.0
 11
523.7188171504132
 21
-351.3881422431964
 31
0.0
  0
LINE
  5
58C09
330
1F
100
AcDbEntity
  8
0
 62
     3
100
AcDbLine
 10
520.044755154741
 20
-347.8672579000808
 30
0.0
 11
522.2453078691883
 21
-351.3881422431964
 31
0.0
  0
LINE
  5
58C0A
330
1F
100
AcDbEntity
  8
0
 62
     3
100
AcDbLine
 10
520.551066140724
 20
-351.0823474724542
 30
0.0
 11
520.551066140724
 21
-351.3881422431964
 31
0.0
  0
LINE
  5
58C0B
330
1F
100
AcDbEntity
  8
0
 62
     3
100
AcDbLine
 10
524.7500063646568
 20
-345.416705930355
 30
0.0
 11
524.7500013056821
 21
-345.7225300431492
 31
0.0
  0
LINE
  5
58C0C
330
1F
100
AcDbEntity
  8
0
 62
     3
100
AcDbLine
 10
524.749907208757
 20
-351.1148625995929
 30
0.0
 11
524.7499021497825
 21
-351.4206290400782
 31
0.0
  0
LINE
  5
58C0D
330
1F
100
AcDbEntity
  8
0
 62
     3
100
AcDbLine
 10
527.2919077524266
 20
-345.4167595154424
 30
0.0
 11
527.291902693452
 21
-345.7225259559276
 31
0.0
  0
ARC
  5
58C0E
330
1F
100
AcDbEntity
  8
0
 62
     3
100
AcDbCircle
 10
510.6294084016814
 20
-348.3480032039178
 30
0.0
 40
21.26730034229026
100
AcDbArc
 50
1.881965999999108
 51
5.709994000002833
  0
LINE
  5
58C0F
330
1F
100
AcDbEntity
  8
0
 62
     3
100
AcDbLine
 10
530.4613957317807
 20
-347.6443039024842
 30
0.0
 11
531.8852380252605
 21
-347.6495723184963
 31
0.0
  0
LINE
  5
58C10
330
1F
100
AcDbEntity
  8
0
 62
     3
100
AcDbLine
 10
530.4274459659151
 20
-349.3706303738143
 30
0.0
 11
530.4556457013991
 21
-349.1984421069988
 31
0.0
  0
LINE
  5
58C11
330
1F
100
AcDbEntity
  8
0
 62
     3
100
AcDbLine
 10
530.3938887764685
 20
-349.5354608681625
 30
0.0
 11
530.4274459659151
 21
-349.3706303738143
 31
0.0
  0
LINE
  5
58C12
330
1F
100
AcDbEntity
  8
0
 62
     3
100
AcDbLine
 10
530.3552351761424
 20
-349.6916587284771
 30
0.0
 11
530.3938887764685
 21
-349.5354608681625
 31
0.0
  0
LINE
  5
58C13
330
1F
100
AcDbEntity
  8
0
 62
     3
100
AcDbLine
 10
530.3117826326348
 20
-349.8380178952448
 30
0.0
 11
530.3552351761424
 21
-349.6916587284771
 31
0.0
  0
LINE
  5
58C14
330
1F
100
AcDbEntity
  8
0
 62
     3
100
AcDbLine
 10
530.2638670618509
 20
-349.9734061699794
 30
0.0
 11
530.3117826326348
 21
-349.8380178952448
 31
0.0
  0
LINE
  5
58C15
330
1F
100
AcDbEntity
  8
0
 62
     3
100
AcDbLine
 10
530.2118587807211
 20
-350.0967773567607
 30
0.0
 11
530.2638670618509
 21
-349.9734061699794
 31
0.0
  0
LINE
  5
58C16
330
1F
100
AcDbEntity
  8
0
 62
     3
100
AcDbLine
 10
530.1561604836148
 20
-350.207177333004
 30
0.0
 11
530.2118587807211
 21
-350.0967773567607
 31
0.0
  0
LINE
  5
58C17
330
1F
100
AcDbEntity
  8
0
 62
     3
100
AcDbLine
 10
530.0972021833599
 20
-350.3037541674087
 30
0.0
 11
530.1561604836148
 21
-350.207177333004
 31
0.0
  0
LINE
  5
58C18
330
1F
100
AcDbEntity
  8
0
 62
     3
100
AcDbLine
 10
530.03543918766
 20
-350.3857591317534
 30
0.0
 11
530.0972021833599
 21
-350.3037541674087
 31
0.0
  0
LINE
  5
58C19
330
1F
100
AcDbEntity
  8
0
 62
     3
100
AcDbLine
 10
529.9713500754993
 20
-350.4525608660243
 30
0.0
 11
530.03543918766
 21
-350.3857591317534
 31
0.0
  0
LINE
  5
58C1A
330
1F
100
AcDbEntity
  8
0
 62
     3
100
AcDbLine
 10
529.905428602786
 20
-350.5036413312358
 30
0.0
 11
529.9713500754993
 21
-350.4525608660243
 31
0.0
  0
LINE
  5
58C1B
330
1F
100
AcDbEntity
  8
0
 62
     3
100
AcDbLine
 10
529.8381857259413
 20
-350.5386069391747
 30
0.0
 11
529.905428602786
 21
-350.5036413312358
 31
0.0
  0
LINE
  5
58C1C
330
1F
100
AcDbEntity
  8
0
 62
     3
100
AcDbLine
 10
529.7701404957457
 20
-350.557185517014
 30
0.0
 11
529.8381857259413
 21
-350.5386069391747
 31
0.0
  0
LINE
  5
58C1D
330
1F
100
AcDbEntity
  8
0
 62
     3
100
AcDbLine
 10
529.7018190455442
 20
-350.5592354134687
 30
0.0
 11
529.7701404957457
 21
-350.557185517014
 31
0.0
  0
LINE
  5
58C1E
330
1F
100
AcDbEntity
  8
0
 62
     3
100
AcDbLine
 10
529.6337495322715
 20
-350.5447394280258
 30
0.0
 11
529.7018190455442
 21
-350.5592354134687
 31
0.0
  0
LINE
  5
58C1F
330
1F
100
AcDbEntity
  8
0
 62
     3
100
AcDbLine
 10
529.5664580892721
 20
-350.5138108817132
 30
0.0
 11
529.6337495322715
 21
-350.5447394280258
 31
0.0
  0
LINE
  5
58C20
330
1F
100
AcDbEntity
  8
0
 62
     3
100
AcDbLine
 10
529.5004647791212
 20
-350.466688558126
 30
0.0
 11
529.5664580892721
 21
-350.5138108817132
 31
0.0
  0
LINE
  5
58C21
330
1F
100
AcDbEntity
  8
0
 62
     3
100
AcDbLine
 10
529.4362795464453
 20
-350.4037356916308
 30
0.0
 11
529.5004647791212
 21
-350.466688558126
 31
0.0
  0
LINE
  5
58C22
330
1F
100
AcDbEntity
  8
0
 62
     3
100
AcDbLine
 10
529.3743991825378
 20
-350.3254389555718
 30
0.0
 11
529.4362795464453
 21
-350.4037356916308
 31
0.0
  0
LINE
  5
58C23
330
1F
100
AcDbEntity
  8
0
 62
     3
100
AcDbLine
 10
529.3153012545878
 20
-350.2324044150901
 30
0.0
 11
529.3743991825378
 21
-350.3254389555718
 31
0.0
  0
LINE
  5
58C24
330
1F
100
AcDbEntity
  8
0
 62
     3
100
AcDbLine
 10
529.2594420820928
 20
-350.1253514563555
 30
0.0
 11
529.3153012545878
 21
-350.2324044150901
 31
0.0
  0
LINE
  5
58C25
330
1F
100
AcDbEntity
  8
0
 62
     3
100
AcDbLine
 10
529.2072547132669
 20
-350.0051067157959
 30
0.0
 11
529.2594420820928
 21
-350.1253514563555
 31
0.0
  0
LINE
  5
58C26
330
1F
100
AcDbEntity
  8
0
 62
     3
100
AcDbLine
 10
529.1591418424791
 20
-349.8725990211238
 30
0.0
 11
529.2072547132669
 21
-350.0051067157959
 31
0.0
  0
LINE
  5
58C27
330
1F
100
AcDbEntity
  8
0
 62
     3
100
AcDbLine
 10
529.1154747984543
 20
-349.7288543323616
 30
0.0
 11
529.1591418424791
 21
-349.8725990211238
 31
0.0
  0
LINE
  5
58C28
330
1F
100
AcDbEntity
  8
0
 62
     3
100
AcDbLine
 10
529.0765925324818
 20
-349.574981576713
 30
0.0
 11
529.1154747984543
 21
-349.7288543323616
 31
0.0
  0
LINE
  5
58C29
330
1F
100
AcDbEntity
  8
0
 62
     3
100
AcDbLine
 10
529.0427945358502
 20
-349.4121726485625
 30
0.0
 11
529.0765925324818
 21
-349.574981576713
 31
0.0
  0
LINE
  5
58C2A
330
1F
100
AcDbEntity
  8
0
 62
     3
100
AcDbLine
 10
529.014342863438
 20
-349.2416841971685
 30
0.0
 11
529.0427945358502
 21
-349.4121726485625
 31
0.0
  0
LINE
  5
58C2B
330
1F
100
AcDbEntity
  8
0
 62
     3
100
AcDbLine
 10
528.991456062941
 20
-349.0648345912771
 30
0.0
 11
529.014342863438
 21
-349.2416841971685
 31
0.0
  0
LINE
  5
58C2C
330
1F
100
AcDbEntity
  8
0
 62
     3
100
AcDbLine
 10
528.974312210261
 20
-348.8829897539954
 30
0.0
 11
528.991456062941
 21
-349.0648345912771
 31
0.0
  0
LINE
  5
58C2D
330
1F
100
AcDbEntity
  8
0
 62
     3
100
AcDbLine
 10
528.9630438505288
 20
-348.6975570920204
 30
0.0
 11
528.974312210261
 21
-348.8829897539954
 31
0.0
  0
LINE
  5
58C2E
330
1F
100
AcDbEntity
  8
0
 62
     3
100
AcDbLine
 10
528.9577369863113
 20
-348.5099682951268
 30
0.0
 11
528.9630438505288
 21
-348.6975570920204
 31
0.0
  0
LINE
  5
58C2F
330
1F
100
AcDbEntity
  8
0
 62
     3
100
AcDbLine
 10
528.9584341129931
 20
-348.321674277192
 30
0.0
 11
528.9577369863113
 21
-348.5099682951268
 31
0.0
  0
LINE
  5
58C30
330
1F
100
AcDbEntity
  8
0
 62
     3
100
AcDbLine
 10
528.9651281480102
 20
-348.1341310110688
 30
0.0
 11
528.9584341129931
 21
-348.321674277192
 31
0.0
  0
LINE
  5
58C31
330
1F
100
AcDbEntity
  8
0
 62
     3
100
AcDbLine
 10
528.977768501618
 20
-347.9487863752495
 30
0.0
 11
528.9651281480102
 21
-348.1341310110688
 31
0.0
  0
LINE
  5
58C32
330
1F
100
AcDbEntity
  8
0
 62
     3
100
AcDbLine
 10
528.9962580415063
 20
-347.7670740830988
 30
0.0
 11
528.977768501618
 21
-347.9487863752495
 31
0.0
  0
LINE
  5
58C33
330
1F
100
AcDbEntity
  8
0
 62
     3
100
AcDbLine
 10
529.020452081006
 20
-347.5903985059293
 30
0.0
 11
528.9962580415063
 21
-347.7670740830988
 31
0.0
  0
LINE
  5
58C34
330
1F
100
AcDbEntity
  8
0
 62
     3
100
AcDbLine
 10
529.0501654616515
 20
-347.4201245550527
 30
0.0
 11
529.020452081006
 21
-347.5903985059293
 31
0.0
  0
LINE
  5
58C35
330
1F
100
AcDbEntity
  8
0
 62
     3
100
AcDbLine
 10
529.0851674942063
 20
-347.2575695874207
 30
0.0
 11
529.0501654616515
 21
-347.4201245550527
 31
0.0
  0
LINE
  5
58C36
330
1F
100
AcDbEntity
  8
0
 62
     3
100
AcDbLine
 10
529.1251870176393
 20
-347.1039902522911
 30
0.0
 11
529.0851674942063
 21
-347.2575695874207
 31
0.0
  0
LINE
  5
58C37
330
1F
100
AcDbEntity
  8
0
 62
     3
100
AcDbLine
 10
529.1699164463031
 20
-346.9605723732797
 30
0.0
 11
529.1251870176393
 21
-347.1039902522911
 31
0.0
  0
LINE
  5
58C38
330
1F
100
AcDbEntity
  8
0
 62
     3
100
AcDbLine
 10
529.2190087345485
 20
-346.8284248775897
 30
0.0
 11
529.1699164463031
 21
-346.9605723732797
 31
0.0
  0
LINE
  5
58C39
330
1F
100
AcDbEntity
  8
0
 62
     3
100
AcDbLine
 10
529.2720844592905
 20
-346.7085686662693
 30
0.0
 11
529.2190087345485
 21
-346.8284248775897
 31
0.0
  0
LINE
  5
58C3A
330
1F
100
AcDbEntity
  8
0
 62
     3
100
AcDbLine
 10
529.3287338435971
 20
-346.601931555236
 30
0.0
 11
529.2720844592905
 21
-346.7085686662693
 31
0.0
  0
LINE
  5
58C3B
330
1F
100
AcDbEntity
  8
0
 62
     3
100
AcDbLine
 10
529.3885187802803
 20
-346.5093371455332
 30
0.0
 11
529.3287338435971
 21
-346.601931555236
 31
0.0
  0
LINE
  5
58C3C
330
1F
100
AcDbEntity
  8
0
 62
     3
100
AcDbLine
 10
529.4509778908667
 20
-346.4315007761509
 30
0.0
 11
529.3885187802803
 21
-346.5093371455332
 31
0.0
  0
LINE
  5
58C3D
330
1F
100
AcDbEntity
  8
0
 62
     3
100
AcDbLine
 10
529.5156265256044
 20
-346.3690244650508
 30
0.0
 11
529.4509778908667
 21
-346.4315007761509
 31
0.0
  0
LINE
  5
58C3E
330
1F
100
AcDbEntity
  8
0
 62
     3
100
AcDbLine
 10
529.5819668814032
 20
-346.3223918501919
 30
0.0
 11
529.5156265256044
 21
-346.3690244650508
 31
0.0
  0
LINE
  5
58C3F
330
1F
100
AcDbEntity
  8
0
 62
     3
100
AcDbLine
 10
529.6494859782543
 20
-346.2919621187621
 30
0.0
 11
529.5819668814032
 21
-346.3223918501919
 31
0.0
  0
LINE
  5
58C40
330
1F
100
AcDbEntity
  8
0
 62
     3
100
AcDbLine
 10
529.717660718196
 20
-346.2779700071763
 30
0.0
 11
529.6494859782543
 21
-346.2919621187621
 31
0.0
  0
LINE
  5
58C41
330
1F
100
AcDbEntity
  8
0
 62
     3
100
AcDbLine
 10
529.7859649678845
 20
-346.2805258010778
 30
0.0
 11
529.717660718196
 21
-346.2779700071763
 31
0.0
  0
LINE
  5
58C42
330
1F
100
AcDbEntity
  8
0
 62
     3
100
AcDbLine
 10
529.8538705703846
 20
-346.2996082527741
 30
0.0
 11
529.7859649678845
 21
-346.2805258010778
 31
0.0
  0
LINE
  5
58C43
330
1F
100
AcDbEntity
  8
0
 62
     3
100
AcDbLine
 10
529.9208534159411
 20
-346.3350696402108
 30
0.0
 11
529.8538705703846
 21
-346.2996082527741
 31
0.0
  0
LINE
  5
58C44
330
1F
100
AcDbEntity
  8
0
 62
     3
100
AcDbLine
 10
529.9863944537746
 20
-346.3866367787664
 30
0.0
 11
529.9208534159411
 21
-346.3350696402108
 31
0.0
  0
LINE
  5
58C45
330
1F
100
AcDbEntity
  8
0
 62
     3
100
AcDbLine
 10
530.0499877864373
 20
-346.4539100094578
 30
0.0
 11
529.9863944537746
 21
-346.3866367787664
 31
0.0
  0
LINE
  5
58C46
330
1F
100
AcDbEntity
  8
0
 62
     3
100
AcDbLine
 10
530.1111416816117
 20
-346.5363712932997
 30
0.0
 11
530.0499877864373
 21
-346.4539100094578
 31
0.0
  0
LINE
  5
58C47
330
1F
100
AcDbEntity
  8
0
 62
     3
100
AcDbLine
 10
530.1693836310811
 20
-346.6333811759189
 30
0.0
 11
530.1111416816117
 21
-346.5363712932997
 31
0.0
  0
LINE
  5
58C48
330
1F
100
AcDbEntity
  8
0
 62
     3
100
AcDbLine
 10
530.2242643979139
 20
-346.7441899172994
 30
0.0
 11
530.1693836310811
 21
-346.6333811759189
 31
0.0
  0
LINE
  5
58C49
330
1F
100
AcDbEntity
  8
0
 62
     3
100
AcDbLine
 10
530.2753580164597
 20
-346.8679425507555
 30
0.0
 11
530.2242643979139
 21
-346.7441899172994
 31
0.0
  0
LINE
  5
58C4A
330
1F
100
AcDbEntity
  8
0
 62
     3
100
AcDbLine
 10
530.3222698867085
 20
-347.0036819183183
 30
0.0
 11
530.2753580164597
 21
-346.8679425507555
 31
0.0
  0
LINE
  5
58C4B
330
1F
100
AcDbEntity
  8
0
 62
     3
100
AcDbLine
 10
530.3646387978848
 20
-347.1503577768875
 30
0.0
 11
530.3222698867085
 21
-347.0036819183183
 31
0.0
  0
LINE
  5
58C4C
330
1F
100
AcDbEntity
  8
0
 62
     3
100
AcDbLine
 10
530.4021349048531
 20
-347.3068379279776
 30
0.0
 11
530.3646387978848
 21
-347.1503577768875
 31
0.0
  0
LINE
  5
58C4D
330
1F
100
AcDbEntity
  8
0
 62
     3
100
AcDbLine
 10
530.434470857863
 20
-347.4719122648951
 30
0.0
 11
530.4021349048531
 21
-347.3068379279776
 31
0.0
  0
LINE
  5
58C4E
330
1F
100
AcDbEntity
  8
0
 62
     3
100
AcDbLine
 10
530.4613957317807
 20
-347.6443039024842
 30
0.0
 11
530.434470857863
 21
-347.4719122648951
 31
0.0
  0
LINE
  5
58C4F
330
1F
100
AcDbEntity
  8
0
 62
     3
100
AcDbLine
 10
530.4556457013991
 20
-349.1984421069988
 30
0.0
 11
531.8794879948796
 21
-349.2037105230106
 31
0.0
  0
ARC
  5
58C50
330
1F
100
AcDbEntity
  8
0
 62
     3
100
AcDbCircle
 10
510.6294084016814
 20
-348.3480032039178
 30
0.0
 40
21.26730034229026
100
AcDbArc
 50
353.8660059999984
 51
357.6940340000009
  0
LINE
  5
58C51
330
1F
100
AcDbEntity
  8
0
 62
     3
100
AcDbLine
 10
518.5732353472868
 20
-351.3881422431964
 30
0.0
 11
520.551066140724
 21
-351.3881422431964
 31
0.0
  0
LINE
  5
58C52
330
1F
100
AcDbEntity
  8
0
 62
     3
100
AcDbLine
 10
527.2918085962957
 20
-351.1148701269847
 30
0.0
 11
527.2918025255262
 21
-351.4206932279841
 31
0.0
  0
LINE
  5
58C53
330
1F
100
AcDbEntity
  8
0
 62
     3
100
AcDbLine
 10
543.2846160070527
 20
-346.3819410386644
 30
0.0
 11
543.5593162971196
 21
-346.3819410386644
 31
0.0
  0
LINE
  5
58C54
330
1F
100
AcDbEntity
  8
0
 62
     3
100
AcDbLine
 10
538.1608188662209
 20
-351.1148605557892
 30
0.0
 11
538.1608188662209
 21
-351.4206553265317
 31
0.0
  0
LINE
  5
58C55
330
1F
100
AcDbEntity
  8
0
 62
     3
100
AcDbLine
 10
541.2490256053001
 20
-345.416733228989
 30
0.0
 11
541.2490256053001
 21
-345.7225279997313
 31
0.0
  0
LINE
  5
58C56
330
1F
100
AcDbEntity
  8
0
 62
     3
100
AcDbLine
 10
543.9936474675761
 20
-345.416733228989
 30
0.0
 11
541.2490256053001
 21
-345.416733228989
 31
0.0
  0
ARC
  5
58C57
330
1F
100
AcDbEntity
  8
0
 62
     3
100
AcDbCircle
 10
542.1546768589283
 20
-348.4186942777603
 30
0.0
 40
2.474141041926213
100
AcDbArc
 50
304.5919550000117
 51
55.40804499998831
  0
LINE
  5
58C58
330
1F
100
AcDbEntity
  8
0
 62
     3
100
AcDbLine
 10
543.2846160070527
 20
-350.4554475168561
 30
0.0
 11
543.5593162971196
 21
-350.4554475168561
 31
0.0
  0
LINE
  5
58C59
330
1F
100
AcDbEntity
  8
0
 62
     3
100
AcDbLine
 10
543.2846160070527
 20
-346.3819410386644
 30
0.0
 11
543.2846160070527
 21
-350.4554475168561
 31
0.0
  0
LINE
  5
58C5A
330
1F
100
AcDbEntity
  8
0
 62
     3
100
AcDbLine
 10
543.9936474675761
 20
-351.4206553265317
 30
0.0
 11
541.2490256053001
 21
-351.4206553265317
 31
0.0
  0
LINE
  5
58C5B
330
1F
100
AcDbEntity
  8
0
 62
     3
100
AcDbLine
 10
541.2490256053001
 20
-351.1148605557892
 30
0.0
 11
541.2490256053001
 21
-351.4206553265317
 31
0.0
  0
LINE
  5
58C5C
330
1F
100
AcDbEntity
  8
0
 62
     3
100
AcDbLine
 10
538.1608188662209
 20
-345.416733228989
 30
0.0
 11
538.1608188662209
 21
-345.7225279997313
 31
0.0
  0
LINE
  5
58C5D
330
1F
100
AcDbEntity
  8
0
 62
     3
100
AcDbLine
 10
540.7027202539572
 20
-345.416733228989
 30
0.0
 11
538.1608188662209
 21
-345.416733228989
 31
0.0
  0
LINE
  5
58C5E
330
1F
100
AcDbEntity
  8
0
 62
     3
100
AcDbLine
 10
540.7027202539572
 20
-345.416733228989
 30
0.0
 11
540.7027202539572
 21
-345.7225279997313
 31
0.0
  0
LINE
  5
58C5F
330
1F
100
AcDbEntity
  8
0
 62
     3
100
AcDbLine
 10
537.6322689704948
 20
-351.4207979896117
 30
0.0
 11
535.0574832369163
 21
-351.4207979896117
 31
0.0
  0
LINE
  5
58C60
330
1F
100
AcDbEntity
  8
0
 62
     3
100
AcDbLine
 10
537.6322689704948
 20
-351.1148605557892
 30
0.0
 11
537.6322689704948
 21
-351.4207979896117
 31
0.0
  0
LINE
  5
58C61
330
1F
100
AcDbEntity
  8
0
 62
     3
100
AcDbLine
 10
537.6322689704948
 20
-345.4168758920689
 30
0.0
 11
537.6322689704948
 21
-345.7225279997313
 31
0.0
  0
LINE
  5
58C62
330
1F
100
AcDbEntity
  8
0
 62
     3
100
AcDbLine
 10
537.6322689704948
 20
-345.4168758920689
 30
0.0
 11
535.0574832369163
 21
-345.4168758920689
 31
0.0
  0
LINE
  5
58C63
330
1F
100
AcDbEntity
  8
0
 62
     3
100
AcDbLine
 10
540.7027202539572
 20
-351.1148605557892
 30
0.0
 11
540.7027202539572
 21
-351.4206553265317
 31
0.0
  0
LINE
  5
58C64
330
1F
100
AcDbEntity
  8
0
 62
     3
100
AcDbLine
 10
540.7027202539572
 20
-351.4206553265317
 30
0.0
 11
538.1608188662209
 21
-351.4206553265317
 31
0.0
  0
ARC
  5
58C65
330
1F
100
AcDbEntity
  8
0
 62
     3
100
AcDbCircle
 10
548.6824587211499
 20
-349.699144998896
 30
0.0
 40
0.8612620730595795
100
AcDbArc
 50
199.4866060000073
 51
340.5133939999927
  0
ARC
  5
58C66
330
1F
100
AcDbEntity
  8
0
 62
     3
100
AcDbCircle
 10
548.6824587211499
 20
-347.1382425448296
 30
0.0
 40
0.8612620730595795
100
AcDbArc
 50
19.48660600000015
 51
160.5133939999998
  0
ARC
  5
58C67
330
1F
100
AcDbEntity
  8
0
 62
     3
100
AcDbCircle
 10
548.6824587211499
 20
-349.665811416121
 30
0.0
 40
1.754843910410663
100
AcDbArc
 50
244.3651720000125
 51
295.6348279999875
  0
ARC
  5
58C68
330
1F
100
AcDbEntity
  8
0
 62
     3
100
AcDbCircle
 10
548.6824587211499
 20
-347.1715771393995
 30
0.0
 40
1.754843910410663
100
AcDbArc
 50
64.36517200001249
 51
115.6348279999875
  0
ARC
  5
58C69
330
1F
100
AcDbEntity
  8
0
 62
     3
100
AcDbCircle
 10
549.0153928663277
 20
-348.4019753789357
 30
0.0
 40
3.048311372854727
100
AcDbArc
 50
211.8833889999961
 51
249.0055820000005
  0
ARC
  5
58C6A
330
1F
100
AcDbEntity
  8
0
 62
     3
100
AcDbCircle
 10
548.3495235641773
 20
-348.4019753789357
 30
0.0
 40
3.048311372854727
100
AcDbArc
 50
290.9944179999995
 51
359.6857499999999
  0
ARC
  5
58C6B
330
1F
100
AcDbEntity
  8
0
 62
     3
100
AcDbCircle
 10
549.0153928663277
 20
-348.4354131765849
 30
0.0
 40
3.048311372854727
100
AcDbArc
 50
110.9944179999995
 51
148.1166110000039
  0
ARC
  5
58C6C
330
1F
100
AcDbEntity
  8
0
 62
     3
100
AcDbCircle
 10
548.3495235641773
 20
-348.4354131765849
 30
0.0
 40
3.048311372854727
100
AcDbArc
 50
0.3142499999967191
 51
69.0055820000005
  0
ARC
  5
58C6D
330
1F
100
AcDbEntity
  8
0
 62
     3
100
AcDbCircle
 10
530.1516246071056
 20
-348.4051220610553
 30
0.0
 40
3.015561595733376
100
AcDbArc
 50
97.70152400000856
 51
266.0248408089522
  0
LINE
  5
58C6E
330
1F
100
AcDbEntity
  8
0
 62
     3
100
AcDbLine
 10
541.7553365912834
 20
-346.0514149653339
 30
0.0
 11
541.7552546358971
 21
-350.786114229677
 31
0.0
  0
LINE
  5
58C6F
330
1F
100
AcDbEntity
  8
0
 62
     3
100
AcDbLine
 10
540.1964092679738
 20
-346.0514149653339
 30
0.0
 11
540.1964912233599
 21
-350.786114229677
 31
0.0
  0
LINE
  5
58C70
330
1F
100
AcDbEntity
  8
0
 62
     3
100
AcDbLine
 10
538.6671298522043
 20
-346.0514149653339
 30
0.0
 11
538.6670468850231
 21
-350.786114229677
 31
0.0
  0
LINE
  5
58C71
330
1F
100
AcDbEntity
  8
0
 62
     3
100
AcDbLine
 10
534.0096924430014
 20
-348.7231656207816
 30
0.0
 11
534.0097278558229
 21
-350.786114229677
 31
0.0
  0
LINE
  5
58C72
330
1F
100
AcDbEntity
  8
0
 62
     3
100
AcDbLine
 10
534.0096448886416
 20
-346.0514149653339
 30
0.0
 11
534.0096813132578
 21
-348.114222934739
 31
0.0
  0
LINE
  5
58C73
330
1F
100
AcDbEntity
  8
0
 62
     3
100
AcDbLine
 10
535.5637476803345
 20
-348.7231656207816
 30
0.0
 11
535.5637112557184
 21
-350.786114229677
 31
0.0
  0
LINE
  5
58C74
330
1F
100
AcDbEntity
  8
0
 62
     3
100
AcDbLine
 10
535.5637942229001
 20
-346.0514149653339
 30
0.0
 11
535.563757798284
 21
-348.114222934739
 31
0.0
  0
LINE
  5
58C75
330
1F
100
AcDbEntity
  8
0
 62
     3
100
AcDbLine
 10
535.5637476803345
 20
-348.7231656207816
 30
0.0
 11
534.0096924430014
 21
-348.7231656207816
 31
0.0
  0
LINE
  5
58C76
330
1F
100
AcDbEntity
  8
0
 62
     3
100
AcDbLine
 10
535.563757798284
 20
-348.114222934739
 30
0.0
 11
534.0096813132578
 21
-348.114222934739
 31
0.0
  0
LINE
  5
58C77
330
1F
100
AcDbEntity
  8
0
 62
     3
100
AcDbLine
 10
537.1259569727168
 20
-346.0514149653339
 30
0.0
 11
537.1260399398976
 21
-350.786114229677
 31
0.0
  0
LINE
  5
58C78
330
1F
100
AcDbEntity
  8
0
 62
     3
100
AcDbLine
 10
532.4474821388249
 20
-346.0514149653339
 30
0.0
 11
532.4473991716437
 21
-350.786114229677
 31
0.0
  0
LINE
  5
58C79
330
1F
100
AcDbEntity
  8
0
 62
     3
100
AcDbLine
 10
526.7855856366824
 20
-346.0513441396913
 30
0.0
 11
526.7855856366824
 21
-350.7860444158293
 31
0.0
  0
LINE
  5
58C7A
330
1F
100
AcDbEntity
  8
0
 62
     3
100
AcDbLine
 10
525.2562738434768
 20
-346.0513228919986
 30
0.0
 11
525.2562738434768
 21
-350.7860231681366
 31
0.0
  0
LINE
  5
58C7B
330
1F
100
AcDbEntity
  8
0
 62
     3
100
AcDbLine
 10
523.7188171504132
 20
-346.0188017143041
 30
0.0
 11
523.7188171504132
 21
-351.3881422431964
 31
0.0
  0
LINE
  5
58C7C
330
1F
100
AcDbEntity
  8
0
 62
     3
100
AcDbLine
 10
522.7536093407376
 20
-346.0188017143041
 30
0.0
 11
522.7536093407376
 21
-348.1035868805966
 31
0.0
  0
LINE
  5
58C7D
330
1F
100
AcDbEntity
  8
0
 62
     3
100
AcDbLine
 10
520.044755154741
 20
-347.8672579000808
 30
0.0
 11
520.044755154741
 21
-350.7535596627509
 31
0.0
  0
LINE
  5
58C7E
330
1F
100
AcDbEntity
  8
0
 62
     3
100
AcDbLine
 10
519.0795463332703
 20
-346.0188017143041
 30
0.0
 11
519.0795463332703
 21
-350.7535596627509
 31
0.0
  0
TEXT
  5
58C7F
330
1F
100
AcDbEntity
  8
0
 62
     3
100
AcDbText
 10
705.4864346852565
 20
-590.2112301900327
 30
0.0
 40
3.2
  1
設 計
  7
高3.2
100
AcDbText
1001
ACAD
1000
ACAD_MTEXT_DEFINED_HEIGHT_BEGIN
1070
    46
1040
0.0
1000
ACAD_MTEXT_DEFINED_HEIGHT_END
  0
TEXT
  5
58C80
330
1F
100
AcDbEntity
  8
0
 62
     3
100
AcDbText
 10
692.4864346852565
 20
-590.2112301900327
 30
0.0
 40
3.2
  1
検 図
  7
高3.2
100
AcDbText
1001
ACAD
1000
ACAD_MTEXT_DEFINED_HEIGHT_BEGIN
1070
    46
1040
0.0
1000
ACAD_MTEXT_DEFINED_HEIGHT_END
  0
TEXT
  5
58C81
330
1F
100
AcDbEntity
  8
0
 62
     3
100
AcDbText
 10
679.4864346852565
 20
-590.2112301900327
 30
0.0
 40
3.2
  1
承 認
  7
高3.2
100
AcDbText
1001
ACAD
1000
ACAD_MTEXT_DEFINED_HEIGHT_BEGIN
1070
    46
1040
0.0
1000
ACAD_MTEXT_DEFINED_HEIGHT_END
  0
TEXT
  5
58C82
330
1F
100
AcDbEntity
  8
0
 62
     3
100
AcDbText
 10
679.5919606783924
 20
-610.7670450393871
 30
0.0
 40
3.2
  1
作成日
  7
高3.2
100
AcDbText
1001
ACAD
1000
ACAD_MTEXT_DEFINED_HEIGHT_BEGIN
1070
    46
1040
0.0
1000
ACAD_MTEXT_DEFINED_HEIGHT_END
  0
TEXT
  5
58C83
330
1F
100
AcDbEntity
  8
0
 62
     3
100
AcDbText
 10
652.4456991966141
 20
-611.8985234875045
 30
0.0
 40
3.2
  1
尺度
  7
高3.2
100
AcDbText
1001
ACAD
1000
ACAD_MTEXT_DEFINED_HEIGHT_BEGIN
1070
    46
1040
0.0
1000
ACAD_MTEXT_DEFINED_HEIGHT_END
  0
TEXT
  5
58C84
330
1F
100
AcDbEntity
  8
0
 62
     3
100
AcDbText
 10
662.2535227617369
 20
-616.2055283723467
 30
0.0
 40
2.5
  1
出図コード
  7
高2.5
100
AcDbText
1001
ACAD
1000
ACAD_MTEXT_DEFINED_HEIGHT_BEGIN
1070
    46
1040
0.0
1000
ACAD_MTEXT_DEFINED_HEIGHT_END
  0
TEXT
  5
58C85
330
1F
100
AcDbEntity
  8
0
 62
     3
100
AcDbText
 10
652.6044653147015
 20
-604.9671798647497
 30
0.0
 40
3.2
  1
備考
  7
高3.2
100
AcDbText
1001
ACAD
1000
ACAD_MTEXT_DEFINED_HEIGHT_BEGIN
1070
    46
1040
0.0
1000
ACAD_MTEXT_DEFINED_HEIGHT_END
  0
TEXT
  5
58C86
330
1F
100
AcDbEntity
  8
0
 62
     3
100
AcDbText
 10
618.9688411152225
 20
-621.2112301900328
 30
0.0
 40
3.2
  1
日動工業株式会社
 41
1.199999999999999
  7
高3.2
100
AcDbText
1001
ACAD
1000
ACAD_MTEXT_DEFINED_HEIGHT_BEGIN
1070
    46
1040
0.0
1000
ACAD_MTEXT_DEFINED_HEIGHT_END
  0
TEXT
  5
58C87
330
1F
100
AcDbEntity
  8
0
 62
     3
100
AcDbText
 10
620.5623085076941
 20
-611.8843184056711
 30
0.0
 40
3.2
  1
第 三 角 法
  7
高3.2
100
AcDbText
1001
ACAD
1000
ACAD_MTEXT_DEFINED_HEIGHT_BEGIN
1070
    46
1040
0.0
1000
ACAD_MTEXT_DEFINED_HEIGHT_END
  0
TEXT
  5
58C88
330
1F
100
AcDbEntity
  8
0
 62
     3
100
AcDbText
 10
620.8673434576938
 20
-604.8517583979176
 30
0.0
 40
3.2
  1
材 質
  7
高3.2
100
AcDbText
1001
ACAD
1000
ACAD_MTEXT_DEFINED_HEIGHT_BEGIN
1070
    46
1040
0.0
1000
ACAD_MTEXT_DEFINED_HEIGHT_END
  0
TEXT
  5
58C89
330
1F
100
AcDbEntity
  8
0
 62
     3
100
AcDbText
 10
620.8673434576938
 20
-597.8517583979176
 30
0.0
 40
3.2
  1
型 式
  7
高3.2
100
AcDbText
1001
ACAD
1000
ACAD_MTEXT_DEFINED_HEIGHT_BEGIN
1070
    46
1040
3.064735913775952
1000
ACAD_MTEXT_DEFINED_HEIGHT_END
  0
TEXT
  5
58C8A
330
1F
100
AcDbEntity
  8
0
 62
     3
100
AcDbText
 10
620.8673434576938
 20
-590.2112301900327
 30
0.0
 40
3.2
  1
品 名
  7
高3.2
100
AcDbText
1001
ACAD
1000
ACAD_MTEXT_DEFINED_HEIGHT_BEGIN
1070
    46
1040
0.0
1000
ACAD_MTEXT_DEFINED_HEIGHT_END
  0
TEXT
  5
58C8B
330
1F
100
AcDbEntity
  8
0
 62
     3
100
AcDbText
 10
619.6858201927367
 20
-615.8271379757296
 30
0.0
 40
2.0
  1
NICHIDO IND.CO.LTD
 41
1.3
  7
高2
100
AcDbText
  0
TEXT
  5
58C8C
330
1F
100
AcDbEntity
  8
0
 62
     3
100
AcDbText
 10
661.9654806627362
 20
-621.5348802247815
 30
0.0
 40
3.2
  1
ZK-A3X
 41
0.8000000000000002
  7
高3.2
100
AcDbText
  0
TEXT
  5
58C8D
330
1F
100
AcDbEntity
  8
0
 62
     3
100
AcDbText
 10
664.8881516873831
 20
-611.2508413953498
 30
0.0
 40
3.2
  1
1/1
  7
高3.2
100
AcDbText
  0
TEXT
  5
58C8E
330
1F
100
AcDbEntity
  8
0
 62
     3
100
AcDbText
 10
694.6640635430664
 20
-611.2508692396842
 30
0.0
 40
3.2
  1
2023.06.20
  7
高3.2
100
AcDbText
1001
ACAD
1000
ACAD_MTEXT_DEFINED_HEIGHT_BEGIN
1070
    46
1040
0.0
1000
ACAD_MTEXT_DEFINED_HEIGHT_END
  0
TEXT
  5
58C8F
330
1F
100
AcDbEntity
  8
0
 62
     3
100
AcDbText
 10
680.1879216810199
 20
-621.2075674410826
 30
0.0
 40
6.299999999999998
  1
HF-01-W
 41
0.8000000000000002
  7
高6.3
100
AcDbText
1001
ACAD
1000
ACAD_MTEXT_DEFINED_HEIGHT_BEGIN
1070
    46
1040
0.0
1000
ACAD_MTEXT_DEFINED_HEIGHT_END
  0
TEXT
  5
58C90
330
1F
100
AcDbEntity
  8
0
 62
     3
100
AcDbText
 10
633.2433130579886
 20
-597.2642772701056
 30
0.0
 40
4.5
  1
HF-01-W
  7
高4.5
100
AcDbText
  0
TEXT
  5
58C91
330
1F
100
AcDbEntity
  8
0
 62
     3
100
AcDbText
 10
620.5361975868221
 20
-585.6447370473187
 30
0.0
 40
2.0
  1
CONPONENTS
 41
0.5
  7
高2
100
AcDbText
  0
TEXT
  5
58C92
330
1F
100
AcDbEntity
  8
0
 62
     3
100
AcDbText
 10
620.8992767054914
 20
-594.3517583979176
 30
0.0
 40
2.0
  1
MODEL
  7
高2
100
AcDbText
  0
TEXT
  5
58C93
330
1F
100
AcDbEntity
  8
0
 62
     3
100
AcDbText
 10
620.3227895027366
 20
-601.3517583979176
 30
0.0
 40
2.0
  1
MATERIAL
 41
0.7
  7
高2
100
AcDbText
  0
TEXT
  5
58C94
330
1F
100
AcDbEntity
  8
0
 62
     3
100
AcDbText
 10
651.2971251227383
 20
-601.4318215057297
 30
0.0
 40
2.0
  1
REMARKS
 41
0.7
  7
高2
100
AcDbText
  0
TEXT
  5
58C95
330
1F
100
AcDbEntity
  8
0
 62
     3
100
AcDbText
 10
620.539697855783
 20
-608.1833595746866
 30
0.0
 40
2.0
  1
3AD　ANGLE
 41
1.5
  7
高2
100
AcDbText
  0
TEXT
  5
58C96
330
1F
100
AcDbEntity
  8
0
 62
     3
100
AcDbText
 10
652.0277194318893
 20
-608.1833595746866
 30
0.0
 40
2.0
  1
SCALE
 41
0.8
  7
高2
100
AcDbText
  0
TEXT
  5
58C97
330
1F
100
AcDbEntity
  8
0
 62
     3
100
AcDbText
 10
693.0854136927368
 20
-585.8380662992137
 30
0.0
 40
2.0
  1
CHCK
  7
高2
100
AcDbText
  0
TEXT
  5
58C98
330
1F
100
AcDbEntity
  8
0
 62
     3
100
AcDbText
 10
679.9726775925022
 20
-585.8380662992137
 30
0.0
 40
2.0
  1
APPD
  7
高2
100
AcDbText
  0
TEXT
  5
58C99
330
1F
100
AcDbEntity
  8
0
 62
     3
100
AcDbText
 10
706.2270445325026
 20
-585.8380662992137
 30
0.0
 40
2.0
  1
DESN
  7
高2
100
AcDbText
  0
TEXT
  5
58C9A
330
1F
100
AcDbEntity
  8
0
 62
     3
100
AcDbText
 10
633.2969224879887
 20
-603.0539439929335
 30
0.0
 40
2.5
  1
別記
  7
高2.5
100
AcDbText
  0
TEXT
  5
58C9B
330
1F
100
AcDbEntity
  8
0
 62
     3
100
AcDbText
 10
662.2648792060521
 20
-603.278661544552
 30
0.0
 40
2.5
  1
別記
  7
高2.5
100
AcDbText
  0
LINE
  5
58C9C
330
1F
100
AcDbEntity
  8
0
 62
     3
100
AcDbLine
 10
661.3788787227363
 20
-617.5188971379175
 30
0.0
 11
678.1005537927366
 21
-617.5188971379175
 31
0.0
  0
LINE
  5
58C9D
330
1F
100
AcDbEntity
  8
0
 62
     3
100
AcDbLine
 10
678.1005537927366
 20
-598.3517583979176
 30
0.0
 11
618.8551191527366
 21
-598.3517583979176
 31
0.0
  0
LINE
  5
58C9E
330
1F
100
AcDbEntity
  8
0
 62
     3
100
AcDbLine
 10
618.8551191527366
 20
-582.3517583979174
 30
0.0
 11
618.8551191527366
 21
-622.3517583979176
 31
0.0
  0
LINE
  5
58C9F
330
1F
100
AcDbEntity
  8
0
 62
     3
100
AcDbLine
 10
717.1005537927368
 20
-605.3517583979176
 30
0.0
 11
717.1005537927368
 21
-582.3517583979174
 31
0.0
  0
LINE
  5
58CA0
330
1F
100
AcDbEntity
  8
0
 62
     3
100
AcDbLine
 10
730.1005537927368
 20
-612.3517583979174
 30
0.0
 11
618.8551191527366
 21
-612.3517583979174
 31
0.0
  0
LINE
  5
58CA1
330
1F
100
AcDbEntity
  8
0
 62
     3
100
AcDbLine
 10
730.1005537927368
 20
-605.3517583979176
 30
0.0
 11
618.8551191527366
 21
-605.3517583979176
 31
0.0
  0
LINE
  5
58CA2
330
1F
100
AcDbEntity
  8
0
 62
     3
100
AcDbLine
 10
730.1005537927368
 20
-591.3517583979174
 30
0.0
 11
618.8551191527366
 21
-591.3517583979174
 31
0.0
  0
LINE
  5
58CA3
330
1F
100
AcDbEntity
  8
0
 62
     3
100
AcDbLine
 10
730.1005537927368
 20
-576.3517583979176
 30
0.0
 11
678.1005537927366
 21
-576.3517583979176
 31
0.0
  0
LINE
  5
58E04
330
1F
100
AcDbEntity
  8
0
100
AcDbLine
 10
615.1089628564916
 20
-453.8197290004324
 30
0.0
 11
714.7548136214455
 21
-453.8197290004324
 31
0.0
  0
TEXT
  5
58E05
330
1F
100
AcDbEntity
  8
0
 62
     3
100
AcDbText
 10
616.6089628564916
 20
-452.8197290004323
 30
0.0
 40
3.2
  1
充　電　池
 41
0.8000000000000002
  7
高3.2
100
AcDbText
  0
TEXT
  5
58E06
330
1F
100
AcDbEntity
  8
0
 62
     3
100
AcDbText
 10
640.2548136214455
 20
-452.8197290004323
 30
0.0
 40
3.2
  1
リチウムイオンバッテリー DC3.7V 2000mAh
 41
0.8000000000000002
  7
高3.2
100
AcDbText
  0
LINE
  5
58FF1
330
1F
100
AcDbEntity
  8
0
100
AcDbLine
 10
638.7548136214455
 20
-420.8197290004324
 30
0.0
 11
638.7548136214455
 21
-459.3197290004323
 31
0.0
  0
LINE
  5
5901C
330
1F
100
AcDbEntity
  8
0
 62
     3
100
AcDbLine
 10
714.7548136214455
 20
-420.8197290004324
 30
0.0
 11
714.7548136214455
 21
-459.3197290004323
 31
0.0
  0
TEXT
  5
5FA71
330
1F
100
AcDbEntity
  8
0
 62
     3
100
AcDbText
 10
640.2548136214455
 20
-458.3197290004323
 30
0.0
 40
3.2
  1
充電中 赤ランプ点灯　満充電　消灯
  7
高3.2
100
AcDbText
  0
LINE
  5
5FA88
330
1F
100
AcDbEntity
  8
0
 62
     7
100
AcDbLine
 10
678.7548136214455
 20
-442.8197290004323
 30
0.0
 11
678.7548136214455
 21
-431.8197290004324
 31
0.0
  0
LINE
  5
5FA89
330
1F
100
AcDbEntity
  8
0
 62
     7
100
AcDbLine
 10
658.7548136214455
 20
-442.8197290004323
 30
0.0
 11
658.7548136214455
 21
-431.8197290004324
 31
0.0
  0
TEXT
  5
5FA8A
330
1F
100
AcDbEntity
  8
0
 62
     3
100
AcDbText
 10
640.2548136214455
 20
-441.8197290004382
 30
0.0
 40
3.2
  1
5時間
 41
0.8000000000000002
  7
高3.2
100
AcDbText
  0
TEXT
  5
5FA8B
330
1F
100
AcDbEntity
  8
0
 62
     3
100
AcDbText
 10
640.2548136214455
 20
-436.3197290004376
 30
0.0
 40
3.2
  1
中
  7
高3.2
100
AcDbText
  0
TEXT
  5
5FA8C
330
1F
100
AcDbEntity
  8
0
 62
     3
100
AcDbText
 10
660.2548136214455
 20
-436.3197290004377
 30
0.0
 40
3.2
  1
強
  7
高3.2
100
AcDbText
  0
TEXT
  5
5FA8D
330
1F
100
AcDbEntity
  8
0
 62
     3
100
AcDbText
 10
680.2548136214455
 20
-436.3197290004377
 30
0.0
 40
3.2
  1
弱+冷感プレート
  7
高3.2
100
AcDbText
  0
TEXT
  5
5FA8E
330
1F
100
AcDbEntity
  8
0
 62
     3
100
AcDbText
 10
660.2548136214455
 20
-441.8197290004382
 30
0.0
 40
3.2
  1
3時間
 41
0.8000000000000002
  7
高3.2
100
AcDbText
  0
TEXT
  5
5FA8F
330
1F
100
AcDbEntity
  8
0
 62
     3
100
AcDbText
 10
680.2548136214455
 20
-441.8197290004383
 30
0.0
 40
3.2
  1
1.5時間
 41
0.8000000000000002
  7
高3.2
100
AcDbText
  0
LINE
  5
5FA90
330
1F
100
AcDbEntity
  8
0
 62
     3
100
AcDbLine
 10
506.6455423057807
 20
-414.8764350279059
 30
0.0
 11
512.6498629682437
 21
-414.8764350279059
 31
0.0
  0
LINE
  5
5FA91
330
1F
100
AcDbEntity
  8
0
 62
     3
100
AcDbLine
 10
528.8833107925229
 20
-431.1098828521848
 30
0.0
 11
528.8833107925229
 21
-437.1142035146469
 31
0.0
  0
LINE
  5
5FA92
330
1F
100
AcDbEntity
  8
0
 62
     3
100
AcDbLine
 10
506.6455423057807
 20
-413.3764350279059
 30
0.0
 11
512.6498629682428
 21
-413.3764350279061
 31
0.0
  0
LINE
  5
5FA93
330
1F
100
AcDbEntity
  8
0
 62
     3
100
AcDbLine
 10
530.3833107925229
 20
-431.1098828521848
 30
0.0
 11
530.3833107925229
 21
-437.1142035146469
 31
0.0
  0
CIRCLE
  5
5FA94
330
1F
100
AcDbEntity
  8
0
 62
     3
100
AcDbCircle
 10
529.6333107925229
 20
-414.1264350279059
 30
0.0
 40
26.0
  0
ARC
  5
5FA95
330
1F
100
AcDbEntity
  8
0
 62
     3
100
AcDbCircle
 10
529.6333107925229
 20
-556.1264350279059
 30
0.0
 40
20.0
100
AcDbArc
 50
130.535034121467
 51
49.46496587853299
  0
ARC
  5
5FA96
330
1F
100
AcDbEntity
  8
0
 62
     3
100
AcDbCircle
 10
529.6333107925229
 20
-556.1264350279059
 30
0.0
 40
16.75
100
AcDbArc
 50
298.8176714797639
 51
309.0933679778365
  0
ARC
  5
5FA97
330
1F
100
AcDbEntity
  8
0
 62
     3
100
AcDbCircle
 10
529.6333107925229
 20
-556.1264350279059
 30
0.0
 40
13.5
100
AcDbArc
 50
131.1314340930351
 51
48.86856590696491
  0
ARC
  5
5FA98
330
1F
100
AcDbEntity
  8
0
 62
     3
100
AcDbCircle
 10
531.6333107925229
 20
-536.1264350279059
 30
0.0
 40
12.0
100
AcDbArc
 50
284.9650652106498
 51
0.0
  0
ARC
  5
5FA99
330
1F
100
AcDbEntity
  8
0
 62
     3
100
AcDbCircle
 10
527.6333107925229
 20
-536.1264350279059
 30
0.0
 40
12.0
100
AcDbArc
 50
180.0
 51
255.0349347893502
  0
CIRCLE
  5
5FA9A
330
1F
100
AcDbEntity
  8
0
 62
     3
100
AcDbCircle
 10
529.6333107925229
 20
-414.1264350279059
 30
0.0
 40
17.0
  0
CIRCLE
  5
5FA9B
330
1F
100
AcDbEntity
  8
0
 62
     3
100
AcDbCircle
 10
529.6333107925229
 20
-414.1264350279059
 30
0.0
 40
23.0
  0
ARC
  5
5FA9C
330
1F
100
AcDbEntity
  8
0
 62
     3
100
AcDbCircle
 10
529.6333107925229
 20
-414.1264350279059
 30
0.0
 40
22.0
100
AcDbArc
 50
75.00000000000001
 51
84.31726196183914
  0
LINE
  5
5FA9D
330
1F
100
AcDbEntity
  8
0
 62
     3
100
AcDbLine
 10
514.5502135328488
 20
-406.2842301686048
 30
0.0
 11
509.3503193066886
 21
-403.2820698373737
 31
0.0
  0
LINE
  5
5FA9E
330
1F
100
AcDbEntity
  8
0
 62
     3
100
AcDbLine
 10
515.3002135328488
 20
-404.9851920629282
 30
0.0
 11
510.1003193066886
 21
-401.9830317316971
 31
0.0
  0
LINE
  5
5FA9F
330
1F
100
AcDbEntity
  8
0
 62
     3
100
AcDbLine
 10
520.4920678275448
 20
-399.7933377682329
 30
0.0
 11
517.4899074963139
 21
-394.5934435420729
 31
0.0
  0
LINE
  5
5FAA0
330
1F
100
AcDbEntity
  8
0
 62
     3
100
AcDbLine
 10
521.7911059332209
 20
-399.0433377682329
 30
0.0
 11
518.7889456019898
 21
-393.8434435420729
 31
0.0
  0
LINE
  5
5FAA1
330
1F
100
AcDbEntity
  8
0
 62
     3
100
AcDbLine
 10
528.8833107925229
 20
-397.142987203627
 30
0.0
 11
528.8833107925229
 21
-391.138666541165
 31
0.0
  0
LINE
  5
5FAA2
330
1F
100
AcDbEntity
  8
0
 62
     3
100
AcDbLine
 10
530.3833107925229
 20
-397.142987203627
 30
0.0
 11
530.3833107925229
 21
-391.138666541165
 31
0.0
  0
LINE
  5
5FAA3
330
1F
100
AcDbEntity
  8
0
 62
     3
100
AcDbLine
 10
514.5502135328488
 20
-421.9686398872071
 30
0.0
 11
509.3503193066886
 21
-424.9708002184382
 31
0.0
  0
LINE
  5
5FAA4
330
1F
100
AcDbEntity
  8
0
 62
     3
100
AcDbLine
 10
515.3002135328488
 20
-423.2676779928837
 30
0.0
 11
510.1003193066886
 21
-426.2698383241148
 31
0.0
  0
LINE
  5
5FAA5
330
1F
100
AcDbEntity
  8
0
 62
     3
100
AcDbLine
 10
520.4920678275448
 20
-428.459532287579
 30
0.0
 11
517.4899074963139
 21
-433.659426513739
 31
0.0
  0
LINE
  5
5FAA6
330
1F
100
AcDbEntity
  8
0
 62
     3
100
AcDbLine
 10
521.7911059332209
 20
-429.209532287579
 30
0.0
 11
518.7889456019898
 21
-434.409426513739
 31
0.0
  0
LINE
  5
5FAA7
330
1F
100
AcDbEntity
  8
0
 62
     3
100
AcDbLine
 10
552.6210792792638
 20
-414.8764350279059
 30
0.0
 11
546.6167586168019
 21
-414.8764350279059
 31
0.0
  0
LINE
  5
5FAA8
330
1F
100
AcDbEntity
  8
0
 62
     3
100
AcDbLine
 10
552.6210792792638
 20
-413.3764350279059
 30
0.0
 11
546.6167586168019
 21
-413.3764350279061
 31
0.0
  0
LINE
  5
5FAA9
330
1F
100
AcDbEntity
  8
0
 62
     3
100
AcDbLine
 10
544.7164080521959
 20
-406.2842301686048
 30
0.0
 11
549.9163022783559
 21
-403.2820698373737
 31
0.0
  0
LINE
  5
5FAAA
330
1F
100
AcDbEntity
  8
0
 62
     3
100
AcDbLine
 10
543.9664080521959
 20
-404.9851920629282
 30
0.0
 11
549.1663022783559
 21
-401.9830317316971
 31
0.0
  0
LINE
  5
5FAAB
330
1F
100
AcDbEntity
  8
0
 62
     3
100
AcDbLine
 10
538.7745537575008
 20
-399.7933377682329
 30
0.0
 11
541.7767140887308
 21
-394.5934435420729
 31
0.0
  0
LINE
  5
5FAAC
330
1F
100
AcDbEntity
  8
0
 62
     3
100
AcDbLine
 10
537.4755156518238
 20
-399.0433377682329
 30
0.0
 11
540.4776759830547
 21
-393.8434435420729
 31
0.0
  0
LINE
  5
5FAAD
330
1F
100
AcDbEntity
  8
0
 62
     3
100
AcDbLine
 10
544.7164080521959
 20
-421.9686398872071
 30
0.0
 11
549.9163022783559
 21
-424.9708002184382
 31
0.0
  0
LINE
  5
5FAAE
330
1F
100
AcDbEntity
  8
0
 62
     3
100
AcDbLine
 10
543.9664080521959
 20
-423.2676779928837
 30
0.0
 11
549.1663022783559
 21
-426.2698383241148
 31
0.0
  0
LINE
  5
5FAAF
330
1F
100
AcDbEntity
  8
0
 62
     3
100
AcDbLine
 10
538.7745537575008
 20
-428.459532287579
 30
0.0
 11
541.7767140887308
 21
-433.659426513739
 31
0.0
  0
LINE
  5
5FAB0
330
1F
100
AcDbEntity
  8
0
 62
     3
100
AcDbLine
 10
537.4755156518238
 20
-429.209532287579
 30
0.0
 11
540.4776759830547
 21
-434.409426513739
 31
0.0
  0
LINE
  5
5FAB1
330
1F
100
AcDbEntity
  8
0
 62
     3
100
AcDbLine
 10
543.6333107925229
 20
-536.1264350279059
 30
0.0
 11
543.6333107925229
 21
-436.0353373281126
 31
0.0
  0
LINE
  5
5FAB2
330
1F
100
AcDbEntity
  8
0
 62
     3
100
AcDbLine
 10
515.6333107925229
 20
-536.1264350279059
 30
0.0
 11
515.6333107925229
 21
-436.0353373281126
 31
0.0
  0
LINE
  5
5FAB3
330
1F
100
AcDbEntity
  8
0
 62
     3
100
AcDbLine
 10
529.6333107925229
 20
-397.1264350279059
 30
0.0
 11
529.6333107925229
 21
-397.1264350279059
 31
0.0
  0
LINE
  5
5FAB4
330
1F
100
AcDbEntity
  8
0
 62
     3
100
AcDbLine
 10
530.3833107925229
 20
-394.3273969222291
 30
0.0
 11
530.7468040594429
 21
-392.9708215818721
 31
0.0
  0
ARC
  5
5FAB5
330
1F
100
AcDbEntity
  8
0
 62
     3
100
AcDbCircle
 10
530.5770790613708
 20
-401.675789462491
 30
0.0
 40
9.999999999999988
100
AcDbArc
 50
3.27973946967738
 51
21.98996008508048
  0
ARC
  5
5FAB6
330
1F
100
AcDbEntity
  8
0
 62
     3
100
AcDbCircle
 10
530.5770790613708
 20
-401.675789462491
 30
0.0
 40
9.999999999999988
100
AcDbArc
 50
32.23802025537971
 51
61.63901750190814
  0
ARC
  5
5FAB7
330
1F
100
AcDbEntity
  8
0
 62
     3
100
AcDbCircle
 10
531.7127298857317
 20
-393.2296406269746
 30
0.0
 40
1.0
100
AcDbArc
 50
84.3172619618355
 51
164.9999999999993
  0
ARC
  5
5FAB8
330
1F
100
AcDbEntity
  8
0
 62
     3
100
AcDbCircle
 10
529.6333107925229
 20
-414.1264350279059
 30
0.0
 40
22.0
100
AcDbArc
 50
15.00000000000017
 51
24.3172619618396
  0
LINE
  5
5FAB9
330
1F
100
AcDbEntity
  8
0
 62
     3
100
AcDbLine
 10
544.3557426568577
 20
-405.6264350279057
 30
0.0
 11
544.3557426568577
 21
-405.6264350279057
 31
0.0
  0
LINE
  5
5FABA
330
1F
100
AcDbEntity
  8
0
 62
     3
100
AcDbLine
 10
547.1547807625348
 20
-404.8764350279059
 30
0.0
 11
548.5113561028918
 21
-404.5129417609852
 31
0.0
  0
ARC
  5
5FABB
330
1F
100
AcDbEntity
  8
0
 62
     3
100
AcDbCircle
 10
540.8877702801119
 20
-408.7184395413066
 30
0.0
 40
9.999999999999988
100
AcDbArc
 50
303.2797394696777
 51
321.9899600850806
  0
ARC
  5
5FABC
330
1F
100
AcDbEntity
  8
0
 62
     3
100
AcDbCircle
 10
540.8877702801119
 20
-408.7184395413066
 30
0.0
 40
9.999999999999988
100
AcDbArc
 50
332.2380202553802
 51
1.639017501908399
  0
ARC
  5
5FABD
330
1F
100
AcDbEntity
  8
0
 62
     3
100
AcDbCircle
 10
548.7701751479949
 20
-405.4788675872741
 30
0.0
 40
1.0
100
AcDbArc
 50
24.31726196182195
 51
105.0000000000213
  0
ARC
  5
5FABE
330
1F
100
AcDbEntity
  8
0
 62
     3
100
AcDbCircle
 10
529.6333107925229
 20
-414.1264350279059
 30
0.0
 40
22.0
100
AcDbArc
 50
314.9999999999998
 51
324.3172619618388
  0
LINE
  5
5FABF
330
1F
100
AcDbEntity
  8
0
 62
     3
100
AcDbLine
 10
546.4047807625338
 20
-424.6754731335823
 30
0.0
 11
547.3978628359707
 21
-425.6685552070191
 31
0.0
  0
ARC
  5
5FAC0
330
1F
100
AcDbEntity
  8
0
 62
     3
100
AcDbCircle
 10
539.9440020112638
 20
-421.1690851067216
 30
0.0
 40
9.999999999999988
100
AcDbArc
 50
243.2797394696765
 51
261.9899600850818
  0
ARC
  5
5FAC1
330
1F
100
AcDbEntity
  8
0
 62
     3
100
AcDbCircle
 10
539.9440020112638
 20
-421.1690851067216
 30
0.0
 40
9.999999999999988
100
AcDbArc
 50
272.2380202553812
 51
301.6390175019076
  0
ARC
  5
5FAC2
330
1F
100
AcDbEntity
  8
0
 62
     3
100
AcDbCircle
 10
546.6907560547847
 20
-426.3756619882055
 30
0.0
 40
1.0
100
AcDbArc
 50
324.317261961812
 51
45.00000000002534
  0
ARC
  5
5FAC3
330
1F
100
AcDbEntity
  8
0
 62
     3
100
AcDbCircle
 10
529.6333107925229
 20
-414.1264350279059
 30
0.0
 40
22.0
100
AcDbArc
 50
255.0
 51
264.3172619618392
  0
LINE
  5
5FAC4
330
1F
100
AcDbEntity
  8
0
 62
     3
100
AcDbLine
 10
528.8833107925229
 20
-433.9254731335827
 30
0.0
 11
528.5198175256019
 21
-435.2820484739397
 31
0.0
  0
ARC
  5
5FAC5
330
1F
100
AcDbEntity
  8
0
 62
     3
100
AcDbCircle
 10
528.6895425236748
 20
-426.5770805933208
 30
0.0
 40
9.999999999999988
100
AcDbArc
 50
183.2797394696763
 51
201.9899600850808
  0
ARC
  5
5FAC6
330
1F
100
AcDbEntity
  8
0
 62
     3
100
AcDbCircle
 10
528.6895425236748
 20
-426.5770805933208
 30
0.0
 40
9.999999999999988
100
AcDbArc
 50
212.2380202553797
 51
241.6390175019081
  0
ARC
  5
5FAC7
330
1F
100
AcDbEntity
  8
0
 62
     3
100
AcDbCircle
 10
527.5538916993128
 20
-435.023229428837
 30
0.0
 40
1.0
100
AcDbArc
 50
264.3172619618355
 51
344.9999999999993
  0
ARC
  5
5FAC8
330
1F
100
AcDbEntity
  8
0
 62
     3
100
AcDbCircle
 10
529.6333107925229
 20
-414.1264350279059
 30
0.0
 40
22.0
100
AcDbArc
 50
194.9999999999999
 51
204.317261961839
  0
LINE
  5
5FAC9
330
1F
100
AcDbEntity
  8
0
 62
     3
100
AcDbLine
 10
512.1118408225097
 20
-423.3764350279061
 30
0.0
 11
510.7552654821538
 21
-423.7399282948267
 31
0.0
  0
ARC
  5
5FACA
330
1F
100
AcDbEntity
  8
0
 62
     3
100
AcDbCircle
 10
518.3788513049328
 20
-419.5344305145053
 30
0.0
 40
9.999999999999988
100
AcDbArc
 50
123.2797394696766
 51
141.9899600850813
  0
ARC
  5
5FACB
330
1F
100
AcDbEntity
  8
0
 62
     3
100
AcDbCircle
 10
518.3788513049328
 20
-419.5344305145053
 30
0.0
 40
9.999999999999988
100
AcDbArc
 50
152.2380202553803
 51
181.6390175019075
  0
ARC
  5
5FACC
330
1F
100
AcDbEntity
  8
0
 62
     3
100
AcDbCircle
 10
510.4964464370507
 20
-422.7740024685375
 30
0.0
 40
1.0
100
AcDbArc
 50
204.3172619618306
 51
284.9999999999944
  0
ARC
  5
5FACD
330
1F
100
AcDbEntity
  8
0
 62
     3
100
AcDbCircle
 10
529.6333107925229
 20
-414.1264350279059
 30
0.0
 40
22.0
100
AcDbArc
 50
134.9999999999998
 51
144.3172619618389
  0
LINE
  5
5FACE
330
1F
100
AcDbEntity
  8
0
 62
     3
100
AcDbLine
 10
512.8618408225107
 20
-403.5773969222297
 30
0.0
 11
511.8687587490737
 21
-402.5843148487927
 31
0.0
  0
ARC
  5
5FACF
330
1F
100
AcDbEntity
  8
0
 62
     3
100
AcDbCircle
 10
519.3226195737809
 20
-407.0837849490903
 30
0.0
 40
9.999999999999988
100
AcDbArc
 50
63.2797394696765
 51
81.98996008508183
  0
ARC
  5
5FAD0
330
1F
100
AcDbEntity
  8
0
 62
     3
100
AcDbCircle
 10
519.3226195737809
 20
-407.0837849490903
 30
0.0
 40
9.999999999999988
100
AcDbArc
 50
92.23802025538119
 51
121.6390175019078
  0
ARC
  5
5FAD1
330
1F
100
AcDbEntity
  8
0
 62
     3
100
AcDbCircle
 10
512.5758655302607
 20
-401.8772080676064
 30
0.0
 40
1.0
100
AcDbArc
 50
144.3172619618283
 51
225.0000000000092
  0
CIRCLE
  5
5FAD2
330
1F
100
AcDbEntity
  8
0
 62
     3
100
AcDbCircle
 10
529.6333107925229
 20
-457.1264350279059
 30
0.0
 40
4.5
  0
CIRCLE
  5
5FAD3
330
1F
100
AcDbEntity
  8
0
 62
     3
100
AcDbCircle
 10
529.6333107925229
 20
-457.1264350279059
 30
0.0
 40
3.5
  0
CIRCLE
  5
5FAD4
330
1F
100
AcDbEntity
  8
0
 62
     3
100
AcDbCircle
 10
529.6333107925229
 20
-449.1264350279059
 30
0.0
 40
0.5
  0
LINE
  5
5FAD5
330
1F
100
AcDbEntity
  8
0
 62
     3
100
AcDbLine
 10
534.2568365279528
 20
-568.8100074652682
 30
0.0
 11
537.7072115616409
 21
-570.8020824197732
 31
0.0
  0
CIRCLE
  5
5FAD6
330
1F
100
AcDbEntity
  8
0
 62
     3
100
AcDbCircle
 10
545.2217680606418
 20
-565.1264350279059
 30
0.0
 40
1.000000000000082
  0
CIRCLE
  5
5FAD7
330
1F
100
AcDbEntity
  8
0
 62
     3
100
AcDbCircle
 10
514.0448535244029
 20
-565.1264350279059
 30
0.0
 40
1.000000000000082
  0
LINE
  5
5FAD8
330
1F
100
AcDbEntity
  8
0
 62
     3
100
AcDbLine
 10
439.4484913516422
 20
-388.4580812615421
 30
0.0
 11
439.4484913516422
 21
-439.7947887942698
 31
0.0
  0
LINE
  5
5FAD9
330
1F
100
AcDbEntity
  8
0
 62
     3
100
AcDbLine
 10
397.4484913516422
 20
-389.5105987843707
 30
0.0
 11
397.4484913516422
 21
-438.7422712714412
 31
0.0
  0
LINE
  5
5FADA
330
1F
100
AcDbEntity
  8
0
 62
     3
100
AcDbLine
 10
446.4484913516422
 20
-398.1264350279059
 30
0.0
 11
446.4484913516422
 21
-430.1264350279059
 31
0.0
  0
LINE
  5
5FADB
330
1F
100
AcDbEntity
  8
0
 62
     3
100
AcDbLine
 10
434.4484913516422
 20
-439.8820641189109
 30
0.0
 11
434.4484913516422
 21
-536.1264350279059
 31
0.0
  0
LINE
  5
5FADC
330
1F
100
AcDbEntity
  8
0
 62
     3
100
AcDbLine
 10
406.4484913516422
 20
-439.8820641189109
 30
0.0
 11
406.4484913516422
 21
-536.1264350279059
 31
0.0
  0
LINE
  5
5FADD
330
1F
100
AcDbEntity
  8
0
 62
     3
100
AcDbLine
 10
443.4484913516422
 20
-431.1264350279059
 30
0.0
 11
445.4484913516422
 21
-431.1264350279059
 31
0.0
  0
LINE
  5
5FADE
330
1F
100
AcDbEntity
  8
0
 62
     3
100
AcDbLine
 10
443.4484913516422
 20
-397.1264350279059
 30
0.0
 11
445.4484913516422
 21
-397.1264350279059
 31
0.0
  0
LINE
  5
5FADF
330
1F
100
AcDbEntity
  8
0
 62
     3
100
AcDbLine
 10
419.4484913516422
 20
-545.1264350279059
 30
0.0
 11
418.9484913516422
 21
-545.1046045564517
 31
0.0
  0
LINE
  5
5FAE0
330
1F
100
AcDbEntity
  8
0
 62
     3
100
AcDbLine
 10
420.4484913516422
 20
-388.1264350279059
 30
0.0
 11
398.4310389452049
 21
-388.5107510892143
 31
0.0
  0
LINE
  5
5FAE1
330
1F
100
AcDbEntity
  8
0
 62
     3
100
AcDbLine
 10
406.4484913516422
 20
-439.8820641189109
 30
0.0
 11
398.4310389452049
 21
-439.7421189665975
 31
0.0
  0
LINE
  5
5FAE2
330
1F
100
AcDbEntity
  8
0
 62
     3
100
AcDbLine
 10
443.4484913516422
 20
-389.5105987843707
 30
0.0
 11
443.4484913516422
 21
-438.7422712714412
 31
0.0
  0
LINE
  5
5FAE3
330
1F
100
AcDbEntity
  8
0
 62
     3
100
AcDbLine
 10
420.4484913516422
 20
-388.1264350279059
 30
0.0
 11
442.4659437580794
 21
-388.5107510892143
 31
0.0
  0
LINE
  5
5FAE4
330
1F
100
AcDbEntity
  8
0
 62
     3
100
AcDbLine
 10
434.4484913516422
 20
-439.8820641189109
 30
0.0
 11
442.4659437580795
 21
-439.7421189665975
 31
0.0
  0
ARC
  5
5FAE5
330
1F
100
AcDbEntity
  8
0
 62
     3
100
AcDbCircle
 10
445.4484913516422
 20
-398.1264350279059
 30
0.0
 40
1.0
100
AcDbArc
 50
0.0
 51
90.0
  0
ARC
  5
5FAE6
330
1F
100
AcDbEntity
  8
0
 62
     3
100
AcDbCircle
 10
442.4484913516422
 20
-389.5105987843707
 30
0.0
 40
1.0
100
AcDbArc
 50
0.0
 51
88.99999999999824
  0
ARC
  5
5FAE7
330
1F
100
AcDbEntity
  8
0
 62
     3
100
AcDbCircle
 10
398.4484913516422
 20
-389.5105987843707
 30
0.0
 40
1.0
100
AcDbArc
 50
91.00000000000178
 51
180.0
  0
ARC
  5
5FAE8
330
1F
100
AcDbEntity
  8
0
 62
     3
100
AcDbCircle
 10
445.4484913516422
 20
-430.1264350279059
 30
0.0
 40
1.0
100
AcDbArc
 50
270.0
 51
0.0
  0
ARC
  5
5FAE9
330
1F
100
AcDbEntity
  8
0
 62
     3
100
AcDbCircle
 10
442.4484913516422
 20
-438.7422712714412
 30
0.0
 40
1.0
100
AcDbArc
 50
271.0000000000018
 51
0.0
  0
ARC
  5
5FAEA
330
1F
100
AcDbEntity
  8
0
 62
     3
100
AcDbCircle
 10
398.4484913516422
 20
-438.7422712714412
 30
0.0
 40
1.0
100
AcDbArc
 50
180.0
 51
268.9999999999982
  0
ARC
  5
5FAEB
330
1F
100
AcDbEntity
  8
0
 62
     3
100
AcDbCircle
 10
420.4484913516422
 20
-463.4349056451673
 30
0.0
 40
27.39956831705473
100
AcDbArc
 50
59.27240691124964
 51
120.7275930887504
  0
LINE
  5
5FAEC
330
1F
100
AcDbEntity
  8
0
 62
     3
100
AcDbLine
 10
417.4484913516422
 20
-536.2574178566315
 30
0.0
 11
417.4484913516422
 21
-537.0598102375504
 31
0.0
  0
LINE
  5
5FAED
330
1F
100
AcDbEntity
  8
0
 62
     3
100
AcDbLine
 10
422.1984913516422
 20
-443.8764350279059
 30
0.0
 11
422.1984913516422
 21
-449.3764350279059
 31
0.0
  0
LINE
  5
5FAEE
330
1F
100
AcDbEntity
  8
0
 62
     3
100
AcDbLine
 10
418.6984913516422
 20
-443.8764350279059
 30
0.0
 11
418.6984913516422
 21
-449.3764350279059
 31
0.0
  0
ARC
  5
5FAEF
330
1F
100
AcDbEntity
  8
0
 62
     3
100
AcDbCircle
 10
420.4484913516422
 20
-449.3764350279059
 30
0.0
 40
1.75
100
AcDbArc
 50
180.0
 51
0.0
  0
ARC
  5
5FAF0
330
1F
100
AcDbEntity
  8
0
 62
     3
100
AcDbCircle
 10
420.4484913516422
 20
-443.8764350279059
 30
0.0
 40
1.75
100
AcDbArc
 50
0.0
 51
180.0
  0
LINE
  5
5FAF1
330
1F
100
AcDbEntity
  8
0
 62
     3
100
AcDbLine
 10
412.4484913516422
 20
-540.3764350279058
 30
0.0
 11
412.4484913516422
 21
-572.8764350279059
 31
0.0
  0
ARC
  5
5FAF2
330
1F
100
AcDbEntity
  8
0
 62
     3
100
AcDbCircle
 10
418.9484913516422
 20
-565.1264350279059
 30
0.0
 40
1.0
100
AcDbArc
 50
270.0
 51
90.0
  0
CIRCLE
  5
5FAF3
330
1F
100
AcDbEntity
  8
0
 62
     3
100
AcDbCircle
 10
543.3541075343628
 20
-546.519029719026
 30
0.0
 40
1.25
  0
ARC
  5
5FAF4
330
1F
100
AcDbEntity
  8
0
 62
     3
100
AcDbCircle
 10
543.3541075343628
 20
-546.519029719026
 30
0.0
 40
3.250000000000028
100
AcDbArc
 50
34.99999999999875
 51
215.0000000000004
  0
LINE
  5
5FAF5
330
1F
100
AcDbEntity
  8
0
 62
     3
100
AcDbLine
 10
543.879023847675
 20
-553.6145314568519
 30
0.0
 11
548.3187241339888
 21
-552.8316925101154
 31
0.0
  0
ARC
  5
5FAF6
330
1F
100
AcDbEntity
  8
0
 62
     3
100
AcDbCircle
 10
548.1450759563218
 20
-551.8468847571032
 30
0.0
 40
1.0
100
AcDbArc
 50
280.0000000000051
 51
13.01696130981453
  0
ARC
  5
5FAF7
330
1F
100
AcDbEntity
  8
0
 62
     3
100
AcDbCircle
 10
543.7053756700079
 20
-552.6297237038397
 30
0.0
 40
1.0
100
AcDbArc
 50
193.9545721220955
 51
280.0000000000051
  0
LINE
  5
5FAF8
330
1F
100
AcDbEntity
  8
0
 62
     3
100
AcDbLine
 10
525.9358268177377
 20
-569.1264350279059
 30
0.0
 11
525.9932558478818
 21
-569.1264350279059
 31
0.0
  0
LINE
  5
5FAF9
330
1F
100
AcDbEntity
  8
0
 62
     3
100
AcDbLine
 10
540.1956258796608
 20
-569.1264350279059
 30
0.0
 11
544.8319949460929
 21
-569.1264350279059
 31
0.0
  0
ARC
  5
5FAFA
330
1F
100
AcDbEntity
  8
0
 62
     3
100
AcDbCircle
 10
415.6984913516422
 20
-540.3764350279058
 30
0.0
 40
3.25
100
AcDbArc
 50
0.0
 51
180.0
  0
ARC
  5
5FAFB
330
1F
100
AcDbEntity
  8
0
 62
     3
100
AcDbCircle
 10
415.6984913516422
 20
-540.3764350279058
 30
0.0
 40
3.75
100
AcDbArc
 50
0.0
 51
62.18186071534591
  0
ARC
  5
5FAFC
330
1F
100
AcDbEntity
  8
0
 62
     3
100
AcDbCircle
 10
418.4484913516422
 20
-536.1264350279059
 30
0.0
 40
12.0
100
AcDbArc
 50
180.0
 51
225.6635759067567
  0
ARC
  5
5FAFD
330
1F
100
AcDbEntity
  8
0
 62
     3
100
AcDbCircle
 10
422.4484913516422
 20
-536.1264350279059
 30
0.0
 40
12.0
100
AcDbArc
 50
284.9650652106487
 51
0.0
  0
LINE
  5
5FAFE
330
1F
100
AcDbEntity
  8
0
 62
     3
100
AcDbLine
 10
425.5472519021803
 20
-547.7194364964829
 30
0.0
 11
418.9484913516422
 21
-546.4367673807435
 31
0.0
  0
LINE
  5
5FAFF
330
1F
100
AcDbEntity
  8
0
 62
     3
100
AcDbLine
 10
423.4484033801726
 20
-548.1264350279059
 30
0.0
 11
418.9484913516422
 21
-547.2517407367077
 31
0.0
  0
LINE
  5
5FB00
330
1F
100
AcDbEntity
  8
0
 62
     3
100
AcDbLine
 10
423.4484033801694
 20
-548.1264350279059
 30
0.0
 11
423.6010505764708
 21
-547.3411332811471
 31
0.0
  0
LINE
  5
5FB01
330
1F
100
AcDbEntity
  8
0
 62
     3
100
AcDbLine
 10
411.6688771787945
 20
-545.8367270833868
 30
0.0
 11
411.8215243750959
 21
-545.051425336628
 31
0.0
  0
LINE
  5
5FB02
330
1F
100
AcDbEntity
  8
0
 62
     3
100
AcDbLine
 10
524.5345502419846
 20
-547.7194364964829
 30
0.0
 11
534.7320713430613
 21
-547.7194364964829
 31
0.0
  0
ARC
  5
5FB03
330
1F
100
AcDbEntity
  8
0
 62
     3
100
AcDbCircle
 10
529.6333107925229
 20
-523.1264350279059
 30
0.0
 40
25.0
100
AcDbArc
 50
259.6472672241833
 51
280.3527327758168
  0
LINE
  5
5FB04
330
1F
100
AcDbEntity
  8
0
 62
     3
100
AcDbLine
 10
415.5734435561555
 20
-536.3392842113809
 30
0.0
 11
420.4484913516422
 21
-536.1264350279059
 31
0.0
  0
ARC
  5
5FB05
330
1F
100
AcDbEntity
  8
0
 62
     3
100
AcDbCircle
 10
415.6984913516422
 20
-572.8764350279059
 30
0.0
 40
3.25
100
AcDbArc
 50
180.0
 51
0.0
  0
LINE
  5
5FB06
330
1F
100
AcDbEntity
  8
0
  6
PHANTOM
 62
     7
 48
0.2
100
AcDbLine
 10
414.8573294550591
 20
-543.6822194679344
 30
0.0
 11
383.9477030138087
 21
-535.4000100246537
 31
0.0
  0
LINE
  5
5FB07
330
1F
100
AcDbEntity
  8
0
  6
PHANTOM
 62
     7
 48
0.2
100
AcDbLine
 10
416.5396532482252
 20
-537.4037015970555
 30
0.0
 11
385.6300268069752
 21
-529.1214921537749
 31
0.0
  0
ARC
  5
5FB08
330
1F
100
AcDbEntity
  8
0
  6
PHANTOM
 62
     7
 48
0.2
100
AcDbCircle
 10
415.6984913516422
 20
-540.5429605324948
 30
0.0
 40
3.25
100
AcDbArc
 50
254.9999999999992
 51
75.00000000000117
  0
ARC
  5
5FB09
330
1F
100
AcDbEntity
  8
0
  6
PHANTOM
 62
     7
 48
0.2
100
AcDbCircle
 10
384.788864910392
 20
-532.2607510892143
 30
0.0
 40
3.249999999999982
100
AcDbArc
 50
74.99999999999922
 51
255.0000000000011
  0
LINE
  5
5FB0A
330
1F
100
AcDbEntity
  8
0
  6
CENTER
 62
     2
 48
0.2
100
AcDbLine
 10
422.9429350488102
 20
-542.4841033707637
 30
0.0
 11
377.5444212132239
 21
-530.3196082509454
 31
0.0
  0
LINE
  5
5FB0B
330
1F
100
AcDbEntity
  8
0
 62
     3
100
AcDbLine
 10
419.4484913516422
 20
-540.3764350279058
 30
0.0
 11
419.4484913516422
 21
-546.5339575353123
 31
0.0
  0
ARC
  5
5FB0C
330
1F
100
AcDbEntity
  8
0
 62
     3
100
AcDbCircle
 10
415.7615777421638
 20
-540.6482654993603
 30
0.0
 40
4.313086390521429
100
AcDbArc
 50
92.49999999999925
 51
219.8121766819777
  0
LINE
  5
5FB0D
330
1F
100
AcDbEntity
  8
0
 62
     3
100
AcDbLine
 10
418.9484913516422
 20
-572.8764350279059
 30
0.0
 11
418.9484913516422
 21
-540.3764350279058
 31
0.0
  0
LINE
  5
5FB11
330
1F
100
AcDbEntity
  8
0
  6
CENTER
 48
0.2
100
AcDbLine
 10
564.6333107925229
 20
-414.1264350279059
 30
0.0
 11
494.6333107925229
 21
-414.1264350279059
 31
0.0
  0
LINE
  5
5FB12
330
1F
100
AcDbEntity
  8
0
  6
CENTER
 48
0.2
100
AcDbLine
 10
529.6333107925229
 20
-587.0206836527092
 30
0.0
 11
529.6333107925229
 21
-379.1264350279059
 31
0.0
  0
LINE
  5
5FB1C
330
1F
100
AcDbEntity
  8
0
  6
CENTER
 62
     2
 48
0.2
100
AcDbLine
 10
420.4484913516422
 20
-379.1264350279059
 30
0.0
 11
420.4484913516422
 21
-582.3138937736562
 31
0.0
  0
LINE
  5
5FB1D
330
1F
100
AcDbEntity
  8
0
  6
CENTER
 48
0.2
100
AcDbLine
 10
449.9484913516422
 20
-414.1264350279059
 30
0.0
 11
390.9484913516422
 21
-414.1264350279059
 31
0.0
  0
TEXT
  5
5FB5D
330
1F
100
AcDbEntity
  8
0
 62
     3
100
AcDbText
 10
633.4482296211135
 20
-590.0395088741594
 30
0.0
 40
4.5
  1
アイスポットハンディーファン
 41
0.575
  7
高4.5
100
AcDbText
1001
ACAD
1000
ACAD_MTEXT_DEFINED_HEIGHT_BEGIN
1070
    46
1040
0.0
1000
ACAD_MTEXT_DEFINED_HEIGHT_END
  0
LINE
  5
5FBC1
330
1F
100
AcDbEntity
  8
0
  6
CENTER
 48
0.2
100
AcDbLine
 10
560.5275594173261
 20
-556.1264350279059
 30
0.0
 11
498.7390621677197
 21
-556.1264350279059
 31
0.0
  0
CIRCLE
  5
5FC05
330
1F
100
AcDbEntity
  8
0
 62
     3
100
AcDbCircle
 10
529.6333107925229
 20
-414.1264350279059
 30
0.0
 40
25.59853350665088
  0
LINE
  5
5FC06
330
1F
100
AcDbEntity
  8
0
  6
CENTER
 62
     2
 48
0.2
100
AcDbLine
 10
415.6984913516422
 20
-531.1461794114886
 30
0.0
 11
415.6984913516422
 21
-582.3138937736562
 31
0.0
  0
TEXT
  5
62AFD
330
1F
100
AcDbEntity
  8
0
 62
     7
100
AcDbText
 10
622.7372503683232
 20
-465.5284036436404
 30
0.0
 40
2.5
  1
注１）運転時間はバッテリー使用時の値です。
 41
0.8
  7
高2.5
100
AcDbText
  0
TEXT
  5
62AFE
330
1F
100
AcDbEntity
  8
0
100
AcDbText
 10
622.7372503683232
 20
-471.5284036436404
 30
0.0
 40
2.5
  1
注２）充電中の運転は電子部品に負荷がかかりますので、お控えください。
 41
0.8
  7
高2.5
100
AcDbText
  0
TEXT
  5
62AFF
330
1F
100
AcDbEntity
  8
0
 62
     7
100
AcDbText
 10
622.7372503683232
 20
-477.5284036436404
 30
0.0
 40
2.5
  1
注４）仕様変更は予告なく行う場合があります。予めご了承ください。
 41
0.8
  7
高2.5
100
AcDbText
  0
TEXT
  5
62B00
330
1F
100
AcDbEntity
  8
0
 62
     7
100
AcDbText
 10
622.7372503683232
 20
-474.5284036436404
 30
0.0
 40
2.5
  1
注３）安全にご使用いただくため、取扱説明書をご参照ください。
 41
0.8
  7
高2.5
100
AcDbText
  0
TEXT
  5
62B02
330
1F
100
AcDbEntity
  8
0
 62
     7
100
AcDbText
 10
622.7372503683232
 20
-468.5284036436404
 30
0.0
 40
2.5
  1
　　　使用環境やバッテリーの劣化具合により変化します。
 41
0.8
  7
高2.5
100
AcDbText
  0
LINE
  5
62B13
330
1F
100
AcDbEntity
  8
0
 62
     3
100
AcDbLine
 10
412.4484913516422
 20
-545.9882687273124
 30
0.0
 11
411.6688771787977
 21
-545.8367270833868
 31
0.0
  0
LINE
  5
62B14
330
1F
100
AcDbEntity
  8
0
 62
     3
100
AcDbLine
 10
412.4484913516422
 20
-545.1732953713482
 30
0.0
 11
410.0620498551271
 21
-544.7094181355166
 31
0.0
  0
LINE
  5
62B15
330
1F
100
AcDbEntity
  8
0
  6
HIDDEN
 62
     2
 48
0.2
100
AcDbLine
 10
412.4484913516422
 20
-545.9882687273124
 30
0.0
 11
418.9484913516422
 21
-547.2517407367077
 31
0.0
  0
LINE
  5
62B16
330
1F
100
AcDbEntity
  8
0
  6
HIDDEN
 62
     2
 48
0.2
100
AcDbLine
 10
418.9484913516422
 20
-546.4367673807435
 30
0.0
 11
412.4484913516422
 21
-545.1732953713482
 31
0.0
  0
ARC
  5
62B17
330
1F
100
AcDbEntity
  8
0
  6
HIDDEN
 62
     2
 48
0.2
100
AcDbCircle
 10
415.7615777421638
 20
-540.6482654993603
 30
0.0
 40
4.313086390521401
100
AcDbArc
 50
219.8121766819777
 51
267.4999999999993
  0
LINE
  5
62B18
330
1F
100
AcDbEntity
  8
0
  6
HIDDEN
 62
     2
 48
0.2
100
AcDbLine
 10
415.5734435561554
 20
-544.9572467873396
 30
0.0
 11
418.9484913516422
 21
-545.1046045564517
 31
0.0
  0
ARC
  5
62BE6
330
1F
100
AcDbEntity
  8
0
  6
PHANTOM
 62
     7
 48
0.2
100
AcDbCircle
 10
391.4336281675492
 20
-537.4058576241982
 30
0.0
 40
1.0
100
AcDbArc
 50
165.0000000000055
 51
344.9999999999922
  0
TEXT
  5
632C7
330
1F
100
AcDbEntity
  8
0
 62
     4
100
AcDbText
 10
560.7494728813488
 20
-587.5734603503975
 30
0.0
 40
3.0
  1
\U+22056まで挿入可能
  7
高3.2
100
AcDbText
  0
LINE
  5
632C9
330
1F
100
AcDbEntity
  8
0
100
AcDbLine
 10
546.5908519605425
 20
-570.9030672359675
 30
0.0
 11
560.1244728813488
 21
-584.5734603503975
 31
0.0
1001
ACAD
1000
DSTYLE
1002
{
1070
   147
1040
0.625
1070
    77
1070
     0
1002
}
  0
ARC
  5
632CA
330
1F
100
AcDbEntity
  8
0
100
AcDbCircle
 10
420.4484913516422
 20
-541.8157191965427
 30
0.0
 40
43.77715677897438
100
AcDbArc
 50
93.27245830147716
 51
161.7275416985231
1001
ACAD
1000
DSTYLE
1002
{
1070
    50
1040
0.7853981633974483
1070
    90
1070
     0
1002
}
  0
LINE
  5
632CE
330
1F
100
AcDbEntity
  8
0
100
AcDbLine
 10
515.6333107925229
 20
-535.8764350279059
 30
0.0
 11
515.6333107925229
 21
-509.7274041597648
 31
0.0
1001
ACAD
1000
DSTYLE
1002
{
1070
    50
1040
0.7853981633974483
1070
    90
1070
     0
1002
}
  0
LINE
  5
632CF
330
1F
100
AcDbEntity
  8
0
100
AcDbLine
 10
543.6333107925229
 20
-535.8764350279059
 30
0.0
 11
543.6333107925229
 21
-509.7274041597648
 31
0.0
1001
ACAD
1000
DSTYLE
1002
{
1070
    50
1040
0.7853981633974483
1070
    90
1070
     0
1002
}
  0
LINE
  5
632D0
330
1F
100
AcDbEntity
  8
0
100
AcDbLine
 10
546.1333107925229
 20
-510.9774041597648
 30
0.0
 11
557.8833107925229
 21
-510.9774041597648
 31
0.0
1001
ACAD
1000
DSTYLE
1002
{
1070
    50
1040
0.7853981633974483
1070
    90
1070
     0
1002
}
  0
LINE
  5
632D1
330
1F
100
AcDbEntity
  8
0
100
AcDbLine
 10
515.6333107925229
 20
-510.9774041597648
 30
0.0
 11
543.6333107925229
 21
-510.9774041597648
 31
0.0
1001
ACAD
1000
DSTYLE
1002
{
1070
    50
1040
0.7853981633974483
1070
    90
1070
     0
1002
}
  0
LINE
  5
632D2
330
1F
100
AcDbEntity
  8
0
100
AcDbLine
 10
513.1333107925229
 20
-510.9774041597648
 30
0.0
 11
510.6333107925229
 21
-510.9774041597648
 31
0.0
1001
ACAD
1000
DSTYLE
1002
{
1070
    50
1040
0.7853981633974483
1070
    90
1070
     0
1002
}
  0
LINE
  5
632D6
330
1F
100
AcDbEntity
  8
0
100
AcDbLine
 10
516.1333107925229
 20
-556.3764350279059
 30
0.0
 11
516.1333107925229
 21
-596.0881462833235
 31
0.0
1001
ACAD
1000
DSTYLE
1002
{
1070
    50
1040
0.7853981633974483
1070
    90
1070
     0
1002
}
  0
LINE
  5
632D7
330
1F
100
AcDbEntity
  8
0
100
AcDbLine
 10
543.1333107925229
 20
-556.3764350279059
 30
0.0
 11
543.1333107925229
 21
-596.0881462833235
 31
0.0
1001
ACAD
1000
DSTYLE
1002
{
1070
    50
1040
0.7853981633974483
1070
    90
1070
     0
1002
}
  0
LINE
  5
632D8
330
1F
100
AcDbEntity
  8
0
100
AcDbLine
 10
518.6333107925229
 20
-594.8381462833235
 30
0.0
 11
540.6333107925229
 21
-594.8381462833235
 31
0.0
1001
ACAD
1000
DSTYLE
1002
{
1070
    50
1040
0.7853981633974483
1070
    90
1070
     0
1002
}
  0
LINE
  5
632DC
330
1F
100
AcDbEntity
  8
0
100
AcDbLine
 10
509.6333107925229
 20
-556.3764350279059
 30
0.0
 11
509.6333107925229
 21
-603.58417050586
 31
0.0
1001
ACAD
1000
DSTYLE
1002
{
1070
    50
1040
0.7853981633974483
1070
    90
1070
     0
1002
}
  0
LINE
  5
632DD
330
1F
100
AcDbEntity
  8
0
100
AcDbLine
 10
549.6333107925232
 20
-556.3764350279059
 30
0.0
 11
549.6333107925232
 21
-603.58417050586
 31
0.0
1001
ACAD
1000
DSTYLE
1002
{
1070
    50
1040
0.7853981633974483
1070
    90
1070
     0
1002
}
  0
LINE
  5
632DE
330
1F
100
AcDbEntity
  8
0
100
AcDbLine
 10
512.1333107925229
 20
-602.33417050586
 30
0.0
 11
547.1333107925232
 21
-602.33417050586
 31
0.0
1001
ACAD
1000
DSTYLE
1002
{
1070
    50
1040
0.7853981633974483
1070
    90
1070
     0
1002
}
  0
LINE
  5
632E2
330
1F
100
AcDbEntity
  8
0
100
AcDbLine
 10
420.4484913516422
 20
-378.8764350279059
 30
0.0
 11
420.4484913516422
 21
-374.8075665348318
 31
0.0
1001
ACAD
1000
DSTYLE
1002
{
1070
    50
1040
0.7853981633974483
1070
    90
1070
     0
1002
}
  0
LINE
  5
632E3
330
1F
100
AcDbEntity
  8
0
100
AcDbLine
 10
397.4484913516422
 20
-389.2605987843707
 30
0.0
 11
397.4484913516422
 21
-374.8075665348318
 31
0.0
1001
ACAD
1000
DSTYLE
1002
{
1070
    50
1040
0.7853981633974483
1070
    90
1070
     0
1002
}
  0
LINE
  5
632E4
330
1F
100
AcDbEntity
  8
0
100
AcDbLine
 10
417.9484913516422
 20
-376.0575665348318
 30
0.0
 11
399.9484913516422
 21
-376.0575665348318
 31
0.0
1001
ACAD
1000
DSTYLE
1002
{
1070
    50
1040
0.7853981633974483
1070
    90
1070
     0
1002
}
  0
TEXT
  5
632E8
330
1F
100
AcDbEntity
  8
0
 62
     4
100
AcDbText
 10
357.010904001794
 20
-467.5648726853421
 30
0.0
 40
3.0
  1
充電アダプター差込口
  7
高3.2
100
AcDbText
  0
LINE
  5
632EA
330
1F
100
AcDbEntity
  8
0
100
AcDbLine
 10
416.6391396726087
 20
-448.0438519256682
 30
0.0
 11
392.635904001794
 21
-464.5648726853421
 31
0.0
1001
ACAD
1000
DSTYLE
1002
{
1070
   147
1040
0.625
1070
    77
1070
     0
1002
}
  0
TEXT
  5
632EB
330
1F
100
AcDbEntity
  8
0
 62
     4
100
AcDbText
 10
476.5347524723607
 20
-462.3911461631208
 30
0.0
 40
3.0
  1
運転・充電ランプ
  7
高3.2
100
AcDbText
  0
LINE
  5
632ED
330
1F
100
AcDbEntity
  8
0
100
AcDbLine
 10
526.8741297214927
 20
-450.3032336665622
 30
0.0
 11
505.1597524723607
 21
-459.3911461631208
 31
0.0
1001
ACAD
1000
DSTYLE
1002
{
1070
   147
1040
0.625
1070
    77
1070
     0
1002
}
  0
TEXT
  5
632EE
330
1F
100
AcDbEntity
  8
0
 62
     4
100
AcDbText
 10
491.1358928749773
 20
-471.2904486756314
 30
0.0
 40
3.0
  1
スイッチ
  7
高3.2
100
AcDbText
  0
LINE
  5
632F0
330
1F
100
AcDbEntity
  8
0
100
AcDbLine
 10
523.841441026257
 20
-460.9139084385854
 30
0.0
 11
505.1608928749773
 21
-468.2904486756314
 31
0.0
1001
ACAD
1000
DSTYLE
1002
{
1070
   147
1040
0.625
1070
    77
1070
     0
1002
}
  0
LINE
  5
632F1
330
1F
100
AcDbEntity
  8
0
100
AcDbLine
 10
529.8833107925229
 20
-548.1264350279059
 30
0.0
 11
578.9474448365584
 21
-548.1264350279059
 31
0.0
1001
ACAD
1000
DSTYLE
1002
{
1070
    50
1040
0.7853981633974483
1070
    90
1070
     0
1002
}
  0
LINE
  5
632F2
330
1F
100
AcDbEntity
  8
0
100
AcDbLine
 10
529.8833107925229
 20
-576.1264350279059
 30
0.0
 11
578.9474448365584
 21
-576.1264350279059
 31
0.0
1001
ACAD
1000
DSTYLE
1002
{
1070
    50
1040
0.7853981633974483
1070
    90
1070
     0
1002
}
  0
LINE
  5
632F3
330
1F
100
AcDbEntity
  8
0
100
AcDbLine
 10
577.6974448365584
 20
-550.6264350279059
 30
0.0
 11
577.6974448365584
 21
-573.6264350279059
 31
0.0
1001
ACAD
1000
DSTYLE
1002
{
1070
    50
1040
0.7853981633974483
1070
    90
1070
     0
1002
}
  0
LINE
  5
632F7
330
1F
100
AcDbEntity
  8
0
100
AcDbLine
 10
529.8833107925229
 20
-388.1264350279059
 30
0.0
 11
578.9474448365584
 21
-388.1264350279059
 31
0.0
1001
ACAD
1000
DSTYLE
1002
{
1070
    50
1040
0.7853981633974483
1070
    90
1070
     0
1002
}
  0
LINE
  5
632F8
330
1F
100
AcDbEntity
  8
0
100
AcDbLine
 10
529.8833107925229
 20
-548.1264350279059
 30
0.0
 11
578.9474448365584
 21
-548.1264350279059
 31
0.0
1001
ACAD
1000
DSTYLE
1002
{
1070
    50
1040
0.7853981633974483
1070
    90
1070
     0
1002
}
  0
LINE
  5
632F9
330
1F
100
AcDbEntity
  8
0
100
AcDbLine
 10
577.6974448365584
 20
-390.6264350279059
 30
0.0
 11
577.6974448365584
 21
-545.6264350279059
 31
0.0
1001
ACAD
1000
DSTYLE
1002
{
1070
    50
1040
0.7853981633974483
1070
    90
1070
     0
1002
}
  0
LINE
  5
632FD
330
1F
100
AcDbEntity
  8
0
100
AcDbLine
 10
503.6333107925229
 20
-413.8764350279059
 30
0.0
 11
503.6333107925229
 21
-374.8075665348318
 31
0.0
1001
ACAD
1000
DSTYLE
1002
{
1070
    50
1040
0.7853981633974483
1070
    90
1070
     0
1002
}
  0
LINE
  5
632FE
330
1F
100
AcDbEntity
  8
0
100
AcDbLine
 10
555.6333107925232
 20
-413.8764350279059
 30
0.0
 11
555.6333107925232
 21
-374.8075665348318
 31
0.0
1001
ACAD
1000
DSTYLE
1002
{
1070
    50
1040
0.7853981633974483
1070
    90
1070
     0
1002
}
  0
LINE
  5
632FF
330
1F
100
AcDbEntity
  8
0
100
AcDbLine
 10
506.1333107925229
 20
-376.0575665348318
 30
0.0
 11
553.1333107925232
 21
-376.0575665348318
 31
0.0
1001
ACAD
1000
DSTYLE
1002
{
1070
    50
1040
0.7853981633974483
1070
    90
1070
     0
1002
}
  0
LINE
  5
63303
330
1F
100
AcDbEntity
  8
0
100
AcDbLine
 10
397.4484913516422
 20
-389.2605987843707
 30
0.0
 11
397.4484913516422
 21
-363.3951911766668
 31
0.0
1001
ACAD
1000
DSTYLE
1002
{
1070
    50
1040
0.7853981633974483
1070
    90
1070
     0
1002
}
  0
LINE
  5
63304
330
1F
100
AcDbEntity
  8
0
100
AcDbLine
 10
446.4484913516422
 20
-397.8764350279059
 30
0.0
 11
446.4484913516422
 21
-363.3951911766668
 31
0.0
1001
ACAD
1000
DSTYLE
1002
{
1070
    50
1040
0.7853981633974483
1070
    90
1070
     0
1002
}
  0
LINE
  5
63305
330
1F
100
AcDbEntity
  8
0
100
AcDbLine
 10
399.9484913516422
 20
-364.6451911766668
 30
0.0
 11
443.9484913516422
 21
-364.6451911766668
 31
0.0
1001
ACAD
1000
DSTYLE
1002
{
1070
    50
1040
0.7853981633974483
1070
    90
1070
     0
1002
}
  0
TEXT
  5
63309
330
1F
100
AcDbEntity
  8
0
 62
     4
100
AcDbText
 10
419.4484913516422
 20
-364.0201911766668
 30
0.0
 40
3.0
  1
49
100
AcDbText
1001
ACAD
1000
DSTYLE
1002
{
1070
    50
1040
0.7853981633974483
1070
    90
1070
     0
1002
}
  0
LINE
  5
6330A
330
1F
100
AcDbEntity
  8
0
  6
ByBlock
 62
     0
370
    -2
100
AcDbLine
 10
443.9484913516422
 20
-363.9753186766668
 30
0.0
 11
446.4484913516422
 21
-364.6451911766668
 31
0.0
  0
LINE
  5
6330B
330
1F
100
AcDbEntity
  8
0
  6
ByBlock
 62
     0
370
    -2
100
AcDbLine
 10
446.4484913516422
 20
-364.6451911766668
 30
0.0
 11
443.9484913516422
 21
-365.3150636766668
 31
0.0
  0
LINE
  5
6330C
330
1F
100
AcDbEntity
  8
0
  6
ByBlock
 62
     0
370
    -2
100
AcDbLine
 10
446.4484913516422
 20
-364.6451911766668
 30
0.0
 11
443.9484913516422
 21
-364.6451911766668
 31
0.0
  0
LINE
  5
6330D
330
1F
100
AcDbEntity
  8
0
  6
ByBlock
 62
     0
370
    -2
100
AcDbLine
 10
399.9484913516422
 20
-365.3150636766668
 30
0.0
 11
397.4484913516422
 21
-364.6451911766668
 31
0.0
  0
LINE
  5
6330E
330
1F
100
AcDbEntity
  8
0
  6
ByBlock
 62
     0
370
    -2
100
AcDbLine
 10
397.4484913516422
 20
-364.6451911766668
 30
0.0
 11
399.9484913516422
 21
-363.9753186766668
 31
0.0
  0
LINE
  5
6330F
330
1F
100
AcDbEntity
  8
0
  6
ByBlock
 62
     0
370
    -2
100
AcDbLine
 10
397.4484913516422
 20
-364.6451911766668
 30
0.0
 11
399.9484913516422
 21
-364.6451911766668
 31
0.0
  0
TEXT
  5
63310
330
1F
100
AcDbEntity
  8
0
 62
     4
100
AcDbText
 10
525.633310792523
 20
-375.4325665348318
 30
0.0
 40
3.0
  1
\U+220552
100
AcDbText
1001
ACAD
1000
DSTYLE
1002
{
1070
    50
1040
0.7853981633974483
1070
    90
1070
     0
1002
}
  0
LINE
  5
63311
330
1F
100
AcDbEntity
  8
0
  6
ByBlock
 62
     0
370
    -2
100
AcDbLine
 10
553.1333107925232
 20
-375.3876940348318
 30
0.0
 11
555.6333107925232
 21
-376.0575665348318
 31
0.0
  0
LINE
  5
63312
330
1F
100
AcDbEntity
  8
0
  6
ByBlock
 62
     0
370
    -2
100
AcDbLine
 10
555.6333107925232
 20
-376.0575665348318
 30
0.0
 11
553.1333107925232
 21
-376.7274390348318
 31
0.0
  0
LINE
  5
63313
330
1F
100
AcDbEntity
  8
0
  6
ByBlock
 62
     0
370
    -2
100
AcDbLine
 10
555.6333107925232
 20
-376.0575665348318
 30
0.0
 11
553.1333107925232
 21
-376.0575665348318
 31
0.0
  0
LINE
  5
63314
330
1F
100
AcDbEntity
  8
0
  6
ByBlock
 62
     0
370
    -2
100
AcDbLine
 10
506.1333107925229
 20
-376.7274390348318
 30
0.0
 11
503.6333107925229
 21
-376.0575665348318
 31
0.0
  0
LINE
  5
63315
330
1F
100
AcDbEntity
  8
0
  6
ByBlock
 62
     0
370
    -2
100
AcDbLine
 10
503.6333107925229
 20
-376.0575665348318
 30
0.0
 11
506.1333107925229
 21
-375.3876940348318
 31
0.0
  0
LINE
  5
63316
330
1F
100
AcDbEntity
  8
0
  6
ByBlock
 62
     0
370
    -2
100
AcDbLine
 10
503.6333107925229
 20
-376.0575665348318
 30
0.0
 11
506.1333107925229
 21
-376.0575665348318
 31
0.0
  0
TEXT
  5
63317
330
1F
100
AcDbEntity
  8
0
 62
     4
100
AcDbText
 10
577.0724448365584
 20
-471.3764350279059
 30
0.0
 40
3.0
  1
160
 50
90.0
100
AcDbText
1001
ACAD
1000
DSTYLE
1002
{
1070
    50
1040
0.7853981633974483
1070
    90
1070
     0
1002
}
  0
LINE
  5
63318
330
1F
100
AcDbEntity
  8
0
  6
ByBlock
 62
     0
370
    -2
100
AcDbLine
 10
578.3673173365584
 20
-545.6264350279059
 30
0.0
 11
577.6974448365584
 21
-548.1264350279059
 31
0.0
  0
LINE
  5
63319
330
1F
100
AcDbEntity
  8
0
  6
ByBlock
 62
     0
370
    -2
100
AcDbLine
 10
577.6974448365584
 20
-548.1264350279059
 30
0.0
 11
577.0275723365584
 21
-545.6264350279059
 31
0.0
  0
LINE
  5
6331A
330
1F
100
AcDbEntity
  8
0
  6
ByBlock
 62
     0
370
    -2
100
AcDbLine
 10
577.6974448365584
 20
-548.1264350279059
 30
0.0
 11
577.6974448365584
 21
-545.6264350279059
 31
0.0
  0
LINE
  5
6331B
330
1F
100
AcDbEntity
  8
0
  6
ByBlock
 62
     0
370
    -2
100
AcDbLine
 10
577.0275723365584
 20
-390.6264350279059
 30
0.0
 11
577.6974448365584
 21
-388.1264350279059
 31
0.0
  0
LINE
  5
6331C
330
1F
100
AcDbEntity
  8
0
  6
ByBlock
 62
     0
370
    -2
100
AcDbLine
 10
577.6974448365584
 20
-388.1264350279059
 30
0.0
 11
578.3673173365584
 21
-390.6264350279059
 31
0.0
  0
LINE
  5
6331D
330
1F
100
AcDbEntity
  8
0
  6
ByBlock
 62
     0
370
    -2
100
AcDbLine
 10
577.6974448365584
 20
-388.1264350279059
 30
0.0
 11
577.6974448365584
 21
-390.6264350279059
 31
0.0
  0
TEXT
  5
6331E
330
1F
100
AcDbEntity
  8
0
 62
     4
100
AcDbText
 10
577.0724448365584
 20
-564.6264350279059
 30
0.0
 40
3.0
  1
28
 50
90.0
100
AcDbText
1001
ACAD
1000
DSTYLE
1002
{
1070
    50
1040
0.7853981633974483
1070
    90
1070
     0
1002
}
  0
LINE
  5
6331F
330
1F
100
AcDbEntity
  8
0
  6
ByBlock
 62
     0
370
    -2
100
AcDbLine
 10
578.3673173365584
 20
-573.6264350279059
 30
0.0
 11
577.6974448365584
 21
-576.1264350279059
 31
0.0
  0
LINE
  5
63320
330
1F
100
AcDbEntity
  8
0
  6
ByBlock
 62
     0
370
    -2
100
AcDbLine
 10
577.6974448365584
 20
-576.1264350279059
 30
0.0
 11
577.0275723365584
 21
-573.6264350279059
 31
0.0
  0
LINE
  5
63321
330
1F
100
AcDbEntity
  8
0
  6
ByBlock
 62
     0
370
    -2
100
AcDbLine
 10
577.6974448365584
 20
-576.1264350279059
 30
0.0
 11
577.6974448365584
 21
-573.6264350279059
 31
0.0
  0
LINE
  5
63322
330
1F
100
AcDbEntity
  8
0
  6
ByBlock
 62
     0
370
    -2
100
AcDbLine
 10
577.0275723365584
 20
-550.6264350279059
 30
0.0
 11
577.6974448365584
 21
-548.1264350279059
 31
0.0
  0
LINE
  5
63323
330
1F
100
AcDbEntity
  8
0
  6
ByBlock
 62
     0
370
    -2
100
AcDbLine
 10
577.6974448365584
 20
-548.1264350279059
 30
0.0
 11
578.3673173365584
 21
-550.6264350279059
 31
0.0
  0
LINE
  5
63324
330
1F
100
AcDbEntity
  8
0
  6
ByBlock
 62
     0
370
    -2
100
AcDbLine
 10
577.6974448365584
 20
-548.1264350279059
 30
0.0
 11
577.6974448365584
 21
-550.6264350279059
 31
0.0
  0
LINE
  5
63325
330
1F
100
AcDbEntity
  8
0
  6
ByBlock
 62
     0
370
    -2
100
AcDbLine
 10
523.5954100917284
 20
-460.2908531075664
 30
0.0
 11
526.166716847473
 21
-459.9957078312732
 31
0.0
  0
LINE
  5
63326
330
1F
100
AcDbEntity
  8
0
  6
ByBlock
 62
     0
370
    -2
100
AcDbLine
 10
526.166716847473
 20
-459.9957078312732
 30
0.0
 11
524.0874719607858
 21
-461.5369637696044
 31
0.0
  0
LINE
  5
63327
330
1F
100
AcDbEntity
  8
0
  6
ByBlock
 62
     0
370
    -2
100
AcDbLine
 10
526.166716847473
 20
-459.9957078312732
 30
0.0
 11
523.841441026257
 21
-460.9139084385854
 31
0.0
  0
LINE
  5
63328
330
1F
100
AcDbEntity
  8
0
  6
ByBlock
 62
     0
370
    -2
100
AcDbLine
 10
526.6155106709801
 20
-449.6852973001228
 30
0.0
 11
529.1803012930952
 21
-449.3380535370877
 31
0.0
  0
LINE
  5
63329
330
1F
100
AcDbEntity
  8
0
  6
ByBlock
 62
     0
370
    -2
100
AcDbLine
 10
529.1803012930952
 20
-449.3380535370877
 30
0.0
 11
527.1327487720052
 21
-450.9211700330015
 31
0.0
  0
LINE
  5
6332A
330
1F
100
AcDbEntity
  8
0
  6
ByBlock
 62
     0
370
    -2
100
AcDbLine
 10
529.1803012930952
 20
-449.3380535370877
 30
0.0
 11
526.8741297214927
 21
-450.3032336665622
 31
0.0
  0
LINE
  5
6332B
330
1F
100
AcDbEntity
  8
0
  6
ByBlock
 62
     0
370
    -2
100
AcDbLine
 10
416.2593442322702
 20
-447.4920507026228
 30
0.0
 11
418.6984913516422
 21
-446.6264350279059
 31
0.0
  0
LINE
  5
6332C
330
1F
100
AcDbEntity
  8
0
  6
ByBlock
 62
     0
370
    -2
100
AcDbLine
 10
418.6984913516422
 20
-446.6264350279059
 30
0.0
 11
417.0189351129472
 21
-448.5956531487135
 31
0.0
  0
LINE
  5
6332D
330
1F
100
AcDbEntity
  8
0
  6
ByBlock
 62
     0
370
    -2
100
AcDbLine
 10
418.6984913516422
 20
-446.6264350279059
 30
0.0
 11
416.6391396726087
 21
-448.0438519256682
 31
0.0
  0
TEXT
  5
6332E
330
1F
100
AcDbEntity
  8
0
 62
     4
100
AcDbText
 10
408.00277407961
 20
-375.4325665348318
 30
0.0
 40
3.0
  1
23
100
AcDbText
1001
ACAD
1000
DSTYLE
1002
{
1070
    50
1040
0.7853981633974483
1070
    90
1070
     0
1002
}
  0
LINE
  5
6332F
330
1F
100
AcDbEntity
  8
0
  6
ByBlock
 62
     0
370
    -2
100
AcDbLine
 10
399.9484913516422
 20
-376.7274390348318
 30
0.0
 11
397.4484913516422
 21
-376.0575665348318
 31
0.0
  0
LINE
  5
63330
330
1F
100
AcDbEntity
  8
0
  6
ByBlock
 62
     0
370
    -2
100
AcDbLine
 10
397.4484913516422
 20
-376.0575665348318
 30
0.0
 11
399.9484913516422
 21
-375.3876940348318
 31
0.0
  0
LINE
  5
63331
330
1F
100
AcDbEntity
  8
0
  6
ByBlock
 62
     0
370
    -2
100
AcDbLine
 10
397.4484913516422
 20
-376.0575665348318
 30
0.0
 11
399.9484913516422
 21
-376.0575665348318
 31
0.0
  0
LINE
  5
63332
330
1F
100
AcDbEntity
  8
0
  6
ByBlock
 62
     0
370
    -2
100
AcDbLine
 10
417.9484913516422
 20
-375.3876940348318
 30
0.0
 11
420.4484913516422
 21
-376.0575665348318
 31
0.0
  0
LINE
  5
63333
330
1F
100
AcDbEntity
  8
0
  6
ByBlock
 62
     0
370
    -2
100
AcDbLine
 10
420.4484913516422
 20
-376.0575665348318
 30
0.0
 11
417.9484913516422
 21
-376.7274390348318
 31
0.0
  0
LINE
  5
63334
330
1F
100
AcDbEntity
  8
0
  6
ByBlock
 62
     0
370
    -2
100
AcDbLine
 10
420.4484913516422
 20
-376.0575665348318
 30
0.0
 11
417.9484913516422
 21
-376.0575665348318
 31
0.0
  0
TEXT
  5
63335
330
1F
100
AcDbEntity
  8
0
 62
     4
100
AcDbText
 10
525.2440457547843
 20
-601.70917050586
 30
0.0
 40
3.0
  1
\U+220540
100
AcDbText
1001
ACAD
1000
DSTYLE
1002
{
1070
    50
1040
0.7853981633974483
1070
    90
1070
     0
1002
}
  0
LINE
  5
63336
330
1F
100
AcDbEntity
  8
0
  6
ByBlock
 62
     0
370
    -2
100
AcDbLine
 10
547.1333107925232
 20
-601.66429800586
 30
0.0
 11
549.6333107925232
 21
-602.33417050586
 31
0.0
  0
LINE
  5
63337
330
1F
100
AcDbEntity
  8
0
  6
ByBlock
 62
     0
370
    -2
100
AcDbLine
 10
549.6333107925232
 20
-602.33417050586
 30
0.0
 11
547.1333107925232
 21
-603.00404300586
 31
0.0
  0
LINE
  5
63338
330
1F
100
AcDbEntity
  8
0
  6
ByBlock
 62
     0
370
    -2
100
AcDbLine
 10
549.6333107925232
 20
-602.33417050586
 30
0.0
 11
547.1333107925232
 21
-602.33417050586
 31
0.0
  0
LINE
  5
63339
330
1F
100
AcDbEntity
  8
0
  6
ByBlock
 62
     0
370
    -2
100
AcDbLine
 10
512.1333107925229
 20
-603.00404300586
 30
0.0
 11
509.6333107925229
 21
-602.33417050586
 31
0.0
  0
LINE
  5
6333A
330
1F
100
AcDbEntity
  8
0
  6
ByBlock
 62
     0
370
    -2
100
AcDbLine
 10
509.6333107925229
 20
-602.33417050586
 30
0.0
 11
512.1333107925229
 21
-601.66429800586
 31
0.0
  0
LINE
  5
6333B
330
1F
100
AcDbEntity
  8
0
  6
ByBlock
 62
     0
370
    -2
100
AcDbLine
 10
509.6333107925229
 20
-602.33417050586
 30
0.0
 11
512.1333107925229
 21
-602.33417050586
 31
0.0
  0
TEXT
  5
6333C
330
1F
100
AcDbEntity
  8
0
 62
     4
100
AcDbText
 10
526.4638544258698
 20
-594.2131462833235
 30
0.0
 40
3.0
  1
\U+220527
100
AcDbText
1001
ACAD
1000
DSTYLE
1002
{
1070
    50
1040
0.7853981633974483
1070
    90
1070
     0
1002
}
  0
LINE
  5
6333D
330
1F
100
AcDbEntity
  8
0
  6
ByBlock
 62
     0
370
    -2
100
AcDbLine
 10
540.6333107925229
 20
-594.1682737833235
 30
0.0
 11
543.1333107925229
 21
-594.8381462833235
 31
0.0
  0
LINE
  5
6333E
330
1F
100
AcDbEntity
  8
0
  6
ByBlock
 62
     0
370
    -2
100
AcDbLine
 10
543.1333107925229
 20
-594.8381462833235
 30
0.0
 11
540.6333107925229
 21
-595.5080187833235
 31
0.0
  0
LINE
  5
6333F
330
1F
100
AcDbEntity
  8
0
  6
ByBlock
 62
     0
370
    -2
100
AcDbLine
 10
543.1333107925229
 20
-594.8381462833235
 30
0.0
 11
540.6333107925229
 21
-594.8381462833235
 31
0.0
  0
LINE
  5
63340
330
1F
100
AcDbEntity
  8
0
  6
ByBlock
 62
     0
370
    -2
100
AcDbLine
 10
518.6333107925229
 20
-595.5080187833235
 30
0.0
 11
516.1333107925229
 21
-594.8381462833235
 31
0.0
  0
LINE
  5
63341
330
1F
100
AcDbEntity
  8
0
  6
ByBlock
 62
     0
370
    -2
100
AcDbLine
 10
516.1333107925229
 20
-594.8381462833235
 30
0.0
 11
518.6333107925229
 21
-594.1682737833235
 31
0.0
  0
LINE
  5
63342
330
1F
100
AcDbEntity
  8
0
  6
ByBlock
 62
     0
370
    -2
100
AcDbLine
 10
516.1333107925229
 20
-594.8381462833235
 30
0.0
 11
518.6333107925229
 21
-594.8381462833235
 31
0.0
  0
TEXT
  5
63343
330
1F
100
AcDbEntity
  8
0
 62
     4
100
AcDbText
 10
549.2583107925229
 20
-510.3524041597648
 30
0.0
 40
3.0
  1
\U+220528
100
AcDbText
1001
ACAD
1000
DSTYLE
1002
{
1070
    50
1040
0.7853981633974483
1070
    90
1070
     0
1002
}
  0
LINE
  5
63344
330
1F
100
AcDbEntity
  8
0
  6
ByBlock
 62
     0
370
    -2
100
AcDbLine
 10
546.1333107925229
 20
-511.6472766597648
 30
0.0
 11
543.6333107925229
 21
-510.9774041597648
 31
0.0
  0
LINE
  5
63345
330
1F
100
AcDbEntity
  8
0
  6
ByBlock
 62
     0
370
    -2
100
AcDbLine
 10
543.6333107925229
 20
-510.9774041597648
 30
0.0
 11
546.1333107925229
 21
-510.3075316597648
 31
0.0
  0
LINE
  5
63346
330
1F
100
AcDbEntity
  8
0
  6
ByBlock
 62
     0
370
    -2
100
AcDbLine
 10
543.6333107925229
 20
-510.9774041597648
 30
0.0
 11
546.1333107925229
 21
-510.9774041597648
 31
0.0
  0
LINE
  5
63347
330
1F
100
AcDbEntity
  8
0
  6
ByBlock
 62
     0
370
    -2
100
AcDbLine
 10
513.1333107925229
 20
-510.3075316597648
 30
0.0
 11
515.6333107925229
 21
-510.9774041597648
 31
0.0
  0
LINE
  5
63348
330
1F
100
AcDbEntity
  8
0
  6
ByBlock
 62
     0
370
    -2
100
AcDbLine
 10
515.6333107925229
 20
-510.9774041597648
 30
0.0
 11
513.1333107925229
 21
-511.6472766597648
 31
0.0
  0
LINE
  5
63349
330
1F
100
AcDbEntity
  8
0
  6
ByBlock
 62
     0
370
    -2
100
AcDbLine
 10
515.6333107925229
 20
-510.9774041597648
 30
0.0
 11
513.1333107925229
 21
-510.9774041597648
 31
0.0
  0
TEXT
  5
6334A
330
1F
100
AcDbEntity
  8
0
 62
     4
100
AcDbText
 10
390.7277467819837
 20
-508.4043608157505
 30
0.0
 40
3.0
  1
約75°
 50
34.84755342604121
100
AcDbText
1001
ACAD
1000
DSTYLE
1002
{
1070
    50
1040
0.7853981633974483
1070
    90
1070
     0
1002
}
  0
LINE
  5
6334B
330
1F
100
AcDbEntity
  8
0
  6
ByBlock
 62
     0
370
    -2
100
AcDbLine
 10
379.5205735051307
 20
-528.2817836008011
 30
0.0
 11
378.1630050173252
 21
-530.4853572817053
 31
0.0
  0
LINE
  5
6334C
330
1F
100
AcDbEntity
  8
0
  6
ByBlock
 62
     0
370
    -2
100
AcDbLine
 10
378.1630050173252
 20
-530.4853572817053
 30
0.0
 11
378.2369079036819
 21
-527.8982222775658
 31
0.0
  0
LINE
  5
6334D
330
1F
100
AcDbEntity
  8
0
  6
ByBlock
 62
     0
370
    -2
100
AcDbLine
 10
378.1630050173252
 20
-530.4853572817053
 30
0.0
 11
378.8787407044063
 21
-528.0900029391834
 31
0.0
  0
LINE
  5
6334E
330
1F
100
AcDbEntity
  8
0
  6
ByBlock
 62
     0
370
    -2
100
AcDbLine
 10
417.9303833605701
 20
-497.4403473128148
 30
0.0
 11
420.4484913516422
 21
-498.0385624175683
 31
0.0
  0
LINE
  5
6334F
330
1F
100
AcDbEntity
  8
0
  6
ByBlock
 62
     0
370
    -2
100
AcDbLine
 10
420.4484913516422
 20
-498.0385624175683
 30
0.0
 11
417.9686380434509
 21
-498.7795460449912
 31
0.0
  0
LINE
  5
63350
330
1F
100
AcDbEntity
  8
0
  6
ByBlock
 62
     0
370
    -2
100
AcDbLine
 10
420.4484913516422
 20
-498.0385624175683
 30
0.0
 11
417.9495107020105
 21
-498.109946678903
 31
0.0
  0
LINE
  5
63351
330
1F
100
AcDbEntity
  8
0
  6
ByBlock
 62
     0
370
    -2
100
AcDbLine
 10
546.1148051370246
 20
-571.3743512141322
 30
0.0
 11
544.8319949460929
 21
-569.1264350279059
 31
0.0
  0
LINE
  5
63352
330
1F
100
AcDbEntity
  8
0
  6
ByBlock
 62
     0
370
    -2
100
AcDbLine
 10
544.8319949460929
 20
-569.1264350279059
 30
0.0
 11
547.0668987840604
 21
-570.4317832578026
 31
0.0
  0
LINE
  5
63353
330
1F
100
AcDbEntity
  8
0
  6
ByBlock
 62
     0
370
    -2
100
AcDbLine
 10
544.8319949460929
 20
-569.1264350279059
 30
0.0
 11
546.5908519605425
 21
-570.9030672359675
 31
0.0
  0
ENDSEC
  0
SECTION
  2
OBJECTS
  0
DICTIONARY
  5
C
330
0
100
AcDbDictionary
281
     1
  3
ACAD_ASSOCNETWORK
350
6049B
  3
ACAD_COLOR
350
73
  3
ACAD_DGNDEFINITIONS
350
F12
  3
ACAD_DWFDEFINITIONS
350
F11
  3
ACAD_GROUP
350
D
  3
ACAD_LAYOUT
350
1A
  3
ACAD_MATERIAL
350
72
  3
ACAD_MLEADERSTYLE
350
168
  3
ACAD_MLINESTYLE
350
17
  3
ACAD_PDFDEFINITIONS
350
F10
  3
ACAD_PLOTSETTINGS
350
19
  3
ACAD_PLOTSTYLENAME
350
E
  3
ACAD_SCALELIST
350
156
  3
ACAD_TABLESTYLE
350
86
  3
ACAD_VISUALSTYLE
350
99
  3
ACDBHEADERROUNDTRIPXREC
350
633CD
  3
AcDbVariableDictionary
350
66
  3
DWGPROPS
350
633D0
  0
DICTIONARY
  5
633D1
330
8
100
AcDbDictionary
280
     1
281
     1
  3
ACAD_XREC_ROUNDTRIP
360
633D2
  0
DICTIONARY
  5
DD
330
2
100
AcDbDictionary
280
     1
281
     1
  3
ACAD_LAYERSTATES
360
DE
  3
ACLYDICTIONARY
360
4079C
  0
DICTIONARY
  5
8E9
330
10
100
AcDbDictionary
280
     1
281
     1
  3
ADSK_XREC_LAYER_RECONCILED
360
ADF
  0
DICTIONARY
  5
324
330
1F
100
AcDbDictionary
280
     1
281
     1
  3
ACAD_ASSOCNETWORK
360
60CFF
  3
ACAD_SORTENTS
360
325
  0
DICTIONARY
  5
6049B
102
{ACAD_REACTORS
330
C
102
}
330
C
100
AcDbDictionary
281
     1
  3
ACAD_ASSOCNETWORK
350
6049C
  0
DICTIONARY
  5
73
102
{ACAD_REACTORS
330
C
102
}
330
C
100
AcDbDictionary
281
     1
  0
DICTIONARY
  5
F12
102
{ACAD_REACTORS
330
C
102
}
330
C
100
AcDbDictionary
281
     1
  0
DICTIONARY
  5
F11
102
{ACAD_REACTORS
330
C
102
}
330
C
100
AcDbDictionary
281
     1
  0
DICTIONARY
  5
D
102
{ACAD_REACTORS
330
C
102
}
330
C
100
AcDbDictionary
281
     1
  0
DICTIONARY
  5
1A
102
{ACAD_REACTORS
330
C
102
}
330
C
100
AcDbDictionary
281
     1
  3
Model
350
22
  3
レイアウト1
350
59
  3
レイアウト2
350
5E
  0
DICTIONARY
  5
72
102
{ACAD_REACTORS
330
C
102
}
330
C
100
AcDbDictionary
281
     1
  3
ByBlock
350
97
  3
ByLayer
350
96
  3
Global
350
98
  0
DICTIONARY
  5
168
102
{ACAD_REACTORS
330
C
102
}
330
C
100
AcDbDictionary
281
     1
  3
Standard
350
169
  0
DICTIONARY
  5
17
102
{ACAD_REACTORS
330
C
102
}
330
C
100
AcDbDictionary
281
     1
  3
Standard
350
18
  0
DICTIONARY
  5
F10
102
{ACAD_REACTORS
330
C
102
}
330
C
100
AcDbDictionary
281
     1
  0
DICTIONARY
  5
19
102
{ACAD_REACTORS
330
C
102
}
330
C
100
AcDbDictionary
281
     1
  0
ACDBDICTIONARYWDFLT
  5
E
102
{ACAD_REACTORS
330
C
102
}
330
C
100
AcDbDictionary
281
     1
  3
Normal
350
F
100
AcDbDictionaryWithDefault
340
F
  0
DICTIONARY
  5
156
102
{ACAD_REACTORS
330
C
102
}
330
C
100
AcDbDictionary
281
     1
  3
A0
350
157
  3
A1
350
158
  3
A2
350
159
  3
A3
350
15A
  3
A4
350
15B
  3
A5
350
15C
  3
A6
350
15D
  3
A7
350
15E
  3
A8
350
15F
  3
A9
350
160
  3
B0
350
161
  3
B1
350
162
  3
B2
350
163
  3
B3
350
164
  3
B4
350
165
  3
B5
350
166
  3
B6
350
167
  0
DICTIONARY
  5
86
102
{ACAD_REACTORS
330
C
102
}
330
C
100
AcDbDictionary
281
     1
  3
Standard
350
87
  3
部品表
350
D97
  0
DICTIONARY
  5
99
102
{ACAD_REACTORS
330
C
102
}
330
C
100
AcDbDictionary
281
     1
  3
2dWireframe
350
9F
  3
3D Hidden
350
A1
  3
3dWireframe
350
A0
  3
Basic
350
9E
  3
Brighten
350
A5
  3
ColorChange
350
A9
  3
Conceptual
350
A2
  3
Dim
350
A4
  3
EdgeColorOff
350
155
  3
Facepattern
350
A8
  3
Flat
350
9A
  3
FlatWithEdges
350
9B
  3
Gouraud
350
9C
  3
GouraudWithEdges
350
9D
  3
Hidden
350
14D
  3
JitterOff
350
153
  3
Linepattern
350
A7
  3
OverhangOff
350
154
  3
Realistic
350
A3
  3
Shaded
350
152
  3
Shaded with edges
350
151
  3
Shades of Gray
350
14E
  3
Sketchy
350
14F
  3
Thicken
350
A6
  3
Wireframe
350
14C
  3
X-Ray
350
150
  0
DICTIONARY
  5
633CD
102
{ACAD_REACTORS
330
C
102
}
330
C
100
AcDbDictionary
281
     1
  3
COLORDICT
350
633CE
  3
MATERIALDICT
350
633CF
  0
DICTIONARY
  5
66
102
{ACAD_REACTORS
330
C
102
}
330
C
100
AcDbDictionary
281
     1
  3
CANNOSCALE
350
6335C
  3
CMLEADERSTYLE
350
248
  3
CTABLESTYLE
350
89
  3
DIMASSOC
350
67
  3
HIDETEXT
350
6B
  3
INDEXCTL
350
B30
  3
LAYEREVAL
350
24C
  3
LAYERNOTIFY
350
24D
  3
LIGHTINGUNITS
350
24B
  3
MSLTSCALE
350
249
  3
SORTENTS
350
B2F
  3
XCLIPFRAME
350
5C051
  0
XRECORD
  5
633D0
102
{ACAD_REACTORS
330
C
102
}
330
C
100
AcDbXrecord
280
     1
  1
DWGPROPS COOKIE
  2

  3

  4

  6

  7

  8
watanabe
  9

300
=
301
=
302
=
303
=
304
=
305
=
306
=
307
=
308
=
309
=
 40
0.0
 41
2456300.278817153
 42
2460130.974651539
  1

 90
        0
  0
XRECORD
  5
633D2
102
{ACAD_REACTORS
330
633D1
102
}
330
633D1
100
AcDbXrecord
280
     1
102
VTR_0.000_0.000_1.000_1.000_VISUALSTYLE
340
9F
102
VTR_0.000_0.000_1.000_1.000_GRIDDISPLAY
 70
     3
102
VTR_0.000_0.000_1.000_1.000_GRIDMAJOR
 70
     5
102
VTR_0.000_0.000_1.000_1.000_DEFAULTLIGHTING
280
     1
102
VTR_0.000_0.000_1.000_1.000_DEFAULTLIGHTINGTYPE
 70
     1
102
VTR_0.000_0.000_1.000_1.000_BRIGHTNESS
141
0.0
102
VTR_0.000_0.000_1.000_1.000_CONTRAST
142
0.0
  0
DICTIONARY
  5
DE
102
{ACAD_REACTORS
330
DD
102
}
330
DD
100
AcDbDictionary
281
     1
  0
DICTIONARY
  5
4079C
102
{ACAD_REACTORS
330
DD
102
}
330
DD
100
AcDbDictionary
281
     1
1001
ACAD
1000
All
  0
XRECORD
  5
ADF
102
{ACAD_REACTORS
330
8E9
102
}
330
8E9
100
AcDbXrecord
280
     1
290
     1
  0
DICTIONARY
  5
60CFF
102
{ACAD_REACTORS
330
324
102
}
330
324
100
AcDbDictionary
281
     1
  3
ACAD_ASSOCNETWORK
350
60D00
  0
SORTENTSTABLE
  5
325
102
{ACAD_REACTORS
330
324
102
}
330
324
100
AcDbSortentsTable
330
1F
331
0
  5
62B03
331
5840F
  5
58431
331
58410
  5
58432
331
58411
  5
58433
331
58412
  5
58434
331
58414
  5
58436
331
58420
  5
58442
331
58422
  5
58444
331
58423
  5
58445
331
58439
  5
5845C
331
58B8B
  5
58BBC
331
58B9B
  5
58BC1
331
58B9C
  5
58BC2
331
58B9D
  5
58BC3
331
58B9E
  5
58BC4
331
58B9F
  5
58BC5
331
58BA0
  5
58BC6
331
58BA1
  5
58BC7
331
58BA2
  5
58BC8
331
58BA3
  5
58BC9
331
58BA4
  5
58BCA
331
58BA5
  5
58BCB
331
58BA6
  5
58BCC
331
58BA7
  5
58BCD
331
58BA8
  5
58BCE
331
58BA9
  5
58BCF
331
58BAA
  5
58BD0
331
58BAB
  5
58BD1
331
58BAC
  5
58BD2
331
58BAD
  5
58BD3
331
58BAE
  5
58BD4
331
58BAF
  5
58BD5
331
58BB0
  5
58BD6
331
58BB1
  5
58BD7
331
58BB2
  5
58BD8
331
58BB3
  5
58BD9
331
58BB4
  5
58BDA
331
58BB5
  5
58BDB
331
58BB6
  5
58BDC
331
58BB7
  5
58BDD
331
58BB8
  5
58BDE
331
58BB9
  5
58BDF
331
58BBA
  5
58BE0
331
58BBB
  5
58BE1
331
58BBC
  5
58BE2
331
58BBD
  5
58BE3
331
58BBE
  5
58BE4
331
58BBF
  5
58BE5
331
58BC0
  5
58BE6
331
58BC1
  5
58BE7
331
58BC2
  5
58BE8
331
58BC3
  5
58BE9
331
58BC4
  5
58BEA
331
58BC5
  5
58BEB
331
58BC6
  5
58BEC
331
58BC7
  5
58BED
331
58BC8
  5
58BEE
331
58BC9
  5
58BEF
331
58BCA
  5
58BF0
331
58BCB
  5
58BF1
331
58BCC
  5
58BF2
331
58BCD
  5
58BF3
331
58BCE
  5
58BF4
331
58BCF
  5
58BF5
331
58BD0
  5
58BF6
331
58BD1
  5
58BF7
331
58BD2
  5
58BF8
331
58BD3
  5
58BF9
331
58BD4
  5
58BFA
331
58BD5
  5
58BFB
331
58BD6
  5
58BFC
331
58BD7
  5
58BFD
331
58BD8
  5
58BFE
331
58BD9
  5
58BFF
331
58BDA
  5
58C00
331
58BDB
  5
58C01
331
58BDC
  5
58C02
331
58BDD
  5
58C03
331
58BDE
  5
58C04
331
58BDF
  5
58C05
331
58BE0
  5
58C06
331
58BE1
  5
58C07
331
58BE2
  5
58C08
331
58BE3
  5
58C09
331
58BE4
  5
58C0A
331
58BE5
  5
58C0B
331
58BE6
  5
58C0C
331
58BE7
  5
58C0D
331
58BE8
  5
58C0E
331
58BE9
  5
58C0F
331
58BEA
  5
58C10
331
58BEB
  5
58C11
331
58BEC
  5
58C12
331
58BED
  5
58C13
331
58BEE
  5
58C14
331
58BEF
  5
58C15
331
58BF0
  5
58C16
331
58BF1
  5
58C17
331
58BF2
  5
58C18
331
58BF3
  5
58C19
331
58BF4
  5
58C1A
331
58BF5
  5
58C1B
331
58BF6
  5
58C1C
331
58BF7
  5
58C1D
331
58BF8
  5
58C1E
331
58BF9
  5
58C1F
331
58BFA
  5
58C20
331
58BFB
  5
58C21
331
58BFC
  5
58C22
331
58BFD
  5
58C23
331
58BFE
  5
58C24
331
58BFF
  5
58C25
331
58C00
  5
58C26
331
58C01
  5
58C27
331
58C02
  5
58C28
331
58C03
  5
58C29
331
58C04
  5
58C2A
331
58C05
  5
58C2B
331
58C06
  5
58C2C
331
58C07
  5
58C2D
331
58C08
  5
58C2E
331
58C09
  5
58C2F
331
58C0A
  5
58C30
331
58C0B
  5
58C31
331
58C0C
  5
58C32
331
58C0D
  5
58C33
331
58C0E
  5
58C34
331
58C0F
  5
58C35
331
58C10
  5
58C36
331
58C11
  5
58C37
331
58C12
  5
58C38
331
58C13
  5
58C39
331
58C14
  5
58C3A
331
58C15
  5
58C3B
331
58C16
  5
58C3C
331
58C17
  5
58C3D
331
58C18
  5
58C3E
331
58C19
  5
58C3F
331
58C1A
  5
58C40
331
58C1B
  5
58C41
331
58C1C
  5
58C42
331
58C1D
  5
58C43
331
58C1E
  5
58C44
331
58C1F
  5
58C45
331
58C20
  5
58C46
331
58C21
  5
58C47
331
58C22
  5
58C48
331
58C23
  5
58C49
331
58C24
  5
58C4A
331
58C25
  5
58C4B
331
58C26
  5
58C4C
331
58C27
  5
58C4D
331
58C28
  5
58C4E
331
58C29
  5
58C4F
331
58C2A
  5
58C50
331
58C2B
  5
58C51
331
58C2C
  5
58C52
331
58C2D
  5
58C53
331
58C2E
  5
58C54
331
58C2F
  5
58C55
331
58C30
  5
58C56
331
58C31
  5
58C57
331
58C32
  5
58C58
331
58C33
  5
58C59
331
58C34
  5
58C5A
331
58C35
  5
58C5B
331
58C36
  5
58C5C
331
58C37
  5
58C5D
331
58C38
  5
58C5E
331
58C39
  5
58C5F
331
58C3A
  5
58C60
331
58C3B
  5
58C61
331
58C3C
  5
58C62
331
58C3D
  5
58C63
331
58C3E
  5
58C64
331
58C3F
  5
58C65
331
58C40
  5
58C66
331
58C41
  5
58C67
331
58C42
  5
58C68
331
58C43
  5
58C69
331
58C44
  5
58C6A
331
58C45
  5
58C6B
331
58C46
  5
58C6C
331
58C47
  5
58C6D
331
58C48
  5
58C6E
331
58C49
  5
58C6F
331
58C4A
  5
58C70
331
58C4B
  5
58C71
331
58C4C
  5
58C72
331
58C4D
  5
58C73
331
58C4E
  5
58C74
331
58C4F
  5
58C75
331
58C50
  5
58C76
331
58C51
  5
58C77
331
58C52
  5
58C78
331
58C53
  5
58C79
331
58C54
  5
58C7A
331
58C55
  5
58C7B
331
58C56
  5
58C7C
331
58C57
  5
58C7D
331
58C58
  5
58C7E
331
58C59
  5
58C7F
331
58C5A
  5
58C80
331
58C5B
  5
58C81
331
58C5C
  5
58C82
331
58C5D
  5
58C83
331
58C5E
  5
58C84
331
58C5F
  5
58C85
331
58C60
  5
58C86
331
58C61
  5
58C87
331
58C62
  5
58C88
331
58C63
  5
58C89
331
58C64
  5
58C8A
331
58C65
  5
58C8B
331
58C66
  5
58C8C
331
58C67
  5
58C8D
331
58C68
  5
58C8E
331
58C69
  5
58C8F
331
58C6A
  5
58C90
331
58C6B
  5
58C91
331
58C6C
  5
58C92
331
58C6D
  5
58C93
331
58C6E
  5
58C94
331
58C6F
  5
58C95
331
58C70
  5
58C96
331
58C71
  5
58C97
331
58C72
  5
58C98
331
58C73
  5
58C99
331
58C74
  5
58C9A
331
58C75
  5
58C9B
331
58C76
  5
58C9C
331
58C77
  5
58C9D
331
58C78
  5
58C9E
331
58C79
  5
58C9F
331
58C7A
  5
58CA0
331
58C7B
  5
58CA1
331
58C7C
  5
58CA2
331
58C7D
  5
58CA3
331
58C7E
  5
58DFE
331
58C7F
  5
58DFF
331
58C80
  5
58E00
331
58C81
  5
58E01
331
58C82
  5
58E04
331
58C83
  5
58E05
331
58C84
  5
58E06
331
58C85
  5
58E07
331
58C86
  5
58F9A
331
58C87
  5
58F9B
331
58C88
  5
58F9C
331
58C89
  5
58F9D
331
58C8A
  5
58F9E
331
58C8B
  5
58F9F
331
58C8C
  5
58FA0
331
58C8D
  5
58FA1
331
58C8E
  5
58FA2
331
58C8F
  5
58FA3
331
58C90
  5
58FA4
331
58C91
  5
58FA6
331
58C92
  5
58FEC
331
58C93
  5
58FED
331
58C94
  5
58FEE
331
58C95
  5
58FEF
331
58C96
  5
58FF0
331
58C97
  5
58FF1
331
58C98
  5
58FF2
331
58C99
  5
58FF3
331
58C9A
  5
58FF4
331
58C9B
  5
58FF5
331
58C9C
  5
58FF6
331
58C9D
  5
58FF7
331
58C9E
  5
58FF8
331
58C9F
  5
58FF9
331
58CA0
  5
58FFA
331
58CA1
  5
58FFF
331
58CA2
  5
59000
331
58CA3
  5
59001
331
58E04
  5
59002
331
58E05
  5
5900D
331
58E06
  5
5900E
331
58FF1
  5
583FA
331
5901C
  5
5842A
331
5FAFF
  5
5FB00
331
5FB00
  5
5FB02
331
5FB01
  5
5FB03
331
5FB02
  5
5FB04
331
5FB03
  5
5FB05
331
5FB04
  5
5FB06
331
5FB05
  5
5FB07
331
5FB06
  5
5FB08
331
5FB07
  5
5FB09
331
5FB08
  5
5FB0A
331
5FB09
  5
5FB0B
331
5FB0A
  5
5FB0C
331
5FB0B
  5
5FB0D
331
5FB0C
  5
5FB0E
331
5FB0D
  5
5FB11
331
0
  5
5FB12
331
5FB11
  5
5FB13
331
5FB12
  5
5FB16
331
0
  5
5FB19
331
0
  5
5FB1C
331
0
  5
5FB1D
331
5FB1C
  5
5FB50
331
5FB1D
  5
5FB51
331
0
  5
5FB52
331
0
  5
5FB53
331
0
  5
5FB54
331
0
  5
5FB55
331
0
  5
5FB5D
331
0
  5
5FB5E
331
5FB5D
  5
5FBB2
331
0
  5
5FBD0
331
5FBC1
  5
5FBDF
331
0
  5
5FBEF
331
0
  5
5FC05
331
0
  5
5FC06
331
5FC05
  5
604EA
331
5FC06
  5
604EB
331
62AFD
  5
62AFF
331
62AFE
  5
62B00
331
62AFF
  5
62B01
331
62B00
  5
62B02
331
62B02
  5
62B04
331
62B13
  5
5FB01
331
62B14
  5
5FAFF
  0
ACDBASSOCNETWORK
  5
6049C
102
{ACAD_REACTORS
330
6049B
102
}
330
6049B
100
AcDbAssocAction
 90
        1
 90
        0
330
0
360
0
 90
        0
 90
        0
 90
        0
100
AcDbAssocNetwork
 90
        0
 90
        2
 90
        2
330
0
330
60D00
 90
        0
  0
LAYOUT
  5
22
102
{ACAD_REACTORS
330
1A
102
}
330
1A
100
AcDbPlotSettings
  1

  2
DWG To PDF.pc3
  4
User65939
  6

 40
1.0
 41
0.0
 42
0.0
 43
0.0
 44
420.0
 45
297.0
 46
0.0
 47
0.0
 48
317.6005537927366
 49
-633.3517583979176
140
741.6005537927366
141
-332.8517583979176
142
1.0
143
1.011933174224344
 70
 11952
 72
     1
 73
     0
 74
     4
  7
n-plot.ctb
 75
     0
147
0.9882075471698114
148
-317.6005537927366
149
633.3517583979176
100
AcDbLayout
  1
Model
 70
     1
 71
     0
 10
0.0
 20
0.0
 11
12.0
 21
9.0
 12
0.0
 22
0.0
 32
0.0
 14
325.1005537927366
 24
-622.3517583979176
 34
0.0
 15
730.1005537927368
 25
-343.1686942777599
 35
0.0
146
0.0
 13
0.0
 23
0.0
 33
0.0
 16
1.0
 26
0.0
 36
0.0
 17
0.0
 27
1.0
 37
0.0
 76
     0
330
1F
331
94
1001
PLOTTRANSPARENCY
1071
        0
1001
ACAD_PSEXT
1000
DWG To PDF.pc3
1000
ThirdParty Pdf Plot Driver
1000
ファイル
1000
PDF Plot Driver Developed by ThirdParty LIB
1070
     0
  0
LAYOUT
  5
59
102
{ACAD_REACTORS
330
1A
102
}
330
1A
100
AcDbPlotSettings
  1

  2
None
  4

  6

 40
0.0
 41
0.0
 42
0.0
 43
0.0
 44
0.0
 45
0.0
 46
0.0
 47
0.0
 48
0.0
 49
0.0
140
0.0
141
0.0
142
1.0
143
1.0
 70
   688
 72
     0
 73
     0
 74
     5
  7

 75
    16
147
1.0
148
0.0
149
0.0
100
AcDbLayout
  1
レイアウト1
 70
     1
 71
     1
 10
0.0
 20
0.0
 11
12.0
 21
9.0
 12
0.0
 22
0.0
 32
0.0
 14
0.0
 24
0.0
 34
0.0
 15
0.0
 25
0.0
 35
0.0
146
0.0
 13
0.0
 23
0.0
 33
0.0
 16
1.0
 26
0.0
 36
0.0
 17
0.0
 27
1.0
 37
0.0
 76
     0
330
58
  0
LAYOUT
  5
5E
102
{ACAD_REACTORS
330
1A
102
}
330
1A
100
AcDbPlotSettings
  1

  2
None
  4

  6

 40
0.0
 41
0.0
 42
0.0
 43
0.0
 44
0.0
 45
0.0
 46
0.0
 47
0.0
 48
0.0
 49
0.0
140
0.0
141
0.0
142
1.0
143
1.0
 70
   688
 72
     0
 73
     0
 74
     5
  7

 75
    16
147
1.0
148
0.0
149
0.0
100
AcDbLayout
  1
レイアウト2
 70
     1
 71
     2
 10
0.0
 20
0.0
 11
12.0
 21
9.0
 12
0.0
 22
0.0
 32
0.0
 14
0.0
 24
0.0
 34
0.0
 15
0.0
 25
0.0
 35
0.0
146
0.0
 13
0.0
 23
0.0
 33
0.0
 16
1.0
 26
0.0
 36
0.0
 17
0.0
 27
1.0
 37
0.0
 76
     0
330
5D
  0
MATERIAL
  5
97
102
{ACAD_REACTORS
330
72
102
}
102
{ACAD_XDICTIONARY
360
633D3
102
}
330
72
100
AcDbMaterial
  1
ByBlock
  0
MATERIAL
  5
96
102
{ACAD_REACTORS
330
72
102
}
102
{ACAD_XDICTIONARY
360
633D5
102
}
330
72
100
AcDbMaterial
  1
ByLayer
  0
MATERIAL
  5
98
102
{ACAD_REACTORS
330
72
102
}
102
{ACAD_XDICTIONARY
360
633D7
102
}
330
72
100
AcDbMaterial
  1
Global
  0
MLEADERSTYLE
  5
169
102
{ACAD_REACTORS
330
168
102
}
102
{ACAD_XDICTIONARY
360
633D9
102
}
330
168
100
AcDbMLeaderStyle
170
     2
171
     1
172
     0
 90
        2
 40
0.0
 41
0.0
173
     1
 91
-1056964608
340
14
 92
       -2
290
     1
 42
2.0
291
     1
 43
0.36
  3
Standard
341
0
 44
4.0
300

342
11
174
     1
178
     6
175
     1
176
     0
 93
-1056964608
 45
4.0
292
     0
297
     0
 46
4.0
343
0
 94
-1056964608
 47
1.0
 49
1.0
140
1.0
293
     1
141
0.0
294
     1
177
     0
142
1.0
295
     0
296
     0
143
0.125
1001
ACAD_MLEADERVER
1070
     2
  0
MLINESTYLE
  5
18
102
{ACAD_REACTORS
330
17
102
}
330
17
100
AcDbMlineStyle
  2
STANDARD
 70
     0
  3

 62
   256
 51
90.0
 52
90.0
 71
     2
 49
0.5
 62
   256
  6
BYLAYER
 49
-0.5
 62
   256
  6
BYLAYER
  0
ACDBPLACEHOLDER
  5
F
102
{ACAD_REACTORS
330
E
102
}
330
E
  0
SCALE
  5
157
102
{ACAD_REACTORS
330
156
102
}
330
156
100
AcDbScale
 70
     0
300
1:1
140
1.0
141
1.0
290
     1
  0
SCALE
  5
158
102
{ACAD_REACTORS
330
156
102
}
330
156
100
AcDbScale
 70
     0
300
1:2
140
1.0
141
2.0
290
     0
  0
SCALE
  5
159
102
{ACAD_REACTORS
330
156
102
}
330
156
100
AcDbScale
 70
     0
300
1:4
140
1.0
141
4.0
290
     0
  0
SCALE
  5
15A
102
{ACAD_REACTORS
330
156
102
}
330
156
100
AcDbScale
 70
     0
300
1:5
140
1.0
141
5.0
290
     0
  0
SCALE
  5
15B
102
{ACAD_REACTORS
330
156
102
}
330
156
100
AcDbScale
 70
     0
300
1:8
140
1.0
141
8.0
290
     0
  0
SCALE
  5
15C
102
{ACAD_REACTORS
330
156
102
}
330
156
100
AcDbScale
 70
     0
300
1:10
140
1.0
141
10.0
290
     0
  0
SCALE
  5
15D
102
{ACAD_REACTORS
330
156
102
}
330
156
100
AcDbScale
 70
     0
300
1:16
140
1.0
141
16.0
290
     0
  0
SCALE
  5
15E
102
{ACAD_REACTORS
330
156
102
}
330
156
100
AcDbScale
 70
     0
300
1:20
140
1.0
141
20.0
290
     0
  0
SCALE
  5
15F
102
{ACAD_REACTORS
330
156
102
}
330
156
100
AcDbScale
 70
     0
300
1:30
140
1.0
141
30.0
290
     0
  0
SCALE
  5
160
102
{ACAD_REACTORS
330
156
102
}
330
156
100
AcDbScale
 70
     0
300
1:40
140
1.0
141
40.0
290
     0
  0
SCALE
  5
161
102
{ACAD_REACTORS
330
156
102
}
330
156
100
AcDbScale
 70
     0
300
1:50
140
1.0
141
50.0
290
     0
  0
SCALE
  5
162
102
{ACAD_REACTORS
330
156
102
}
330
156
100
AcDbScale
 70
     0
300
1:100
140
1.0
141
100.0
290
     0
  0
SCALE
  5
163
102
{ACAD_REACTORS
330
156
102
}
330
156
100
AcDbScale
 70
     0
300
2:1
140
2.0
141
1.0
290
     0
  0
SCALE
  5
164
102
{ACAD_REACTORS
330
156
102
}
330
156
100
AcDbScale
 70
     0
300
4:1
140
4.0
141
1.0
290
     0
  0
SCALE
  5
165
102
{ACAD_REACTORS
330
156
102
}
330
156
100
AcDbScale
 70
     0
300
8:1
140
8.0
141
1.0
290
     0
  0
SCALE
  5
166
102
{ACAD_REACTORS
330
156
102
}
330
156
100
AcDbScale
 70
     0
300
10:1
140
10.0
141
1.0
290
     0
  0
SCALE
  5
167
102
{ACAD_REACTORS
330
156
102
}
330
156
100
AcDbScale
 70
     0
300
100:1
140
100.0
141
1.0
290
     0
  0
TABLESTYLE
  5
87
102
{ACAD_REACTORS
330
86
102
}
330
86
100
AcDbTableStyle
  3
Standard
 70
     0
 71
     0
 40
0.06
 41
0.06
280
     0
281
     0
  7
Standard
140
0.18
170
     2
 62
     0
 63
   257
283
     0
274
    -2
284
     1
 64
     0
275
    -2
285
     1
 65
     0
276
    -2
286
     1
 66
     0
277
    -2
287
     1
 67
     0
278
    -2
288
     1
 68
     0
279
    -2
289
     1
 69
     0
  7
Standard
140
0.25
170
     5
 62
     0
 63
   257
283
     0
274
    -2
284
     1
 64
     0
275
    -2
285
     1
 65
     0
276
    -2
286
     1
 66
     0
277
    -2
287
     1
 67
     0
278
    -2
288
     1
 68
     0
279
    -2
289
     1
 69
     0
  7
Standard
140
0.18
170
     5
 62
     0
 63
   257
283
     0
274
    -2
284
     1
 64
     0
275
    -2
285
     1
 65
     0
276
    -2
286
     1
 66
     0
277
    -2
287
     1
 67
     0
278
    -2
288
     1
 68
     0
279
    -2
289
     1
 69
     0
  0
TABLESTYLE
  5
D97
102
{ACAD_REACTORS
330
86
102
}
330
86
100
AcDbTableStyle
  3
Standard
 70
     0
 71
     0
 40
1.5
 41
0.5
280
     0
281
     0
  7
高3.2
140
0.18
170
     7
 62
     3
 63
   257
283
     0
274
    -2
284
     1
 64
     3
275
    -2
285
     1
 65
     7
276
    -2
286
     1
 66
     3
277
    -2
287
     1
 67
     3
278
    -2
288
     1
 68
     7
279
    -2
289
     1
 69
     3
  7
高3.2
140
0.25
170
     8
 62
     3
 63
   257
283
     0
274
    -2
284
     1
 64
     0
275
    -2
285
     1
 65
     0
276
    -2
286
     1
 66
     0
277
    -2
287
     1
 67
     0
278
    -2
288
     1
 68
     0
279
    -2
289
     1
 69
     0
  7
高3.2
140
0.18
170
     7
 62
     3
 63
   257
283
     0
274
    -2
284
     1
 64
     3
275
    -2
285
     1
 65
     7
276
    -2
286
     1
 66
     3
277
    -2
287
     1
 67
     3
278
    -2
288
     1
 68
     7
279
    -2
289
     1
 69
     3
  0
VISUALSTYLE
  5
9F
102
{ACAD_REACTORS
330
99
102
}
102
{ACAD_XDICTIONARY
360
633DB
102
}
330
99
100
AcDbVisualStyle
  2

 70
     4
 71
     0
 72
     2
 73
     1
 90
        0
 40
-0.6
 41
-30.0
 62
     5
 63
     7
 74
     1
 91
        4
 64
     7
 65
   257
 75
     1
175
     1
 42
1.0
 92
        0
 66
   257
 43
1.0
 76
     1
 77
     6
 78
     2
 67
     7
 79
     5
170
     0
171
     0
290
     0
174
     0
 93
        1
 44
0.0
173
     0
291
     0
 45
0.0
1001
ACAD
1000
AcDbSavedByObjectVersion
1070
     0
  0
VISUALSTYLE
  5
A1
102
{ACAD_REACTORS
330
99
102
}
102
{ACAD_XDICTIONARY
360
633DD
102
}
330
99
100
AcDbVisualStyle
  2

 70
     6
 71
     1
 72
     2
 73
     2
 90
        0
 40
-0.6
 41
-30.0
 62
     5
 63
     7
 74
     2
 91
        2
 64
     7
 65
   257
 75
     2
175
     1
 42
40.0
 92
        0
 66
   257
 43
1.0
 76
     1
 77
     6
 78
     2
 67
     7
 79
     3
170
     0
171
     0
290
     0
174
     0
 93
        1
 44
0.0
173
     0
291
     0
 45
0.0
1001
ACAD
1000
AcDbSavedByObjectVersion
1070
     0
  0
VISUALSTYLE
  5
A0
102
{ACAD_REACTORS
330
99
102
}
102
{ACAD_XDICTIONARY
360
633DF
102
}
330
99
100
AcDbVisualStyle
  2

 70
     5
 71
     0
 72
     2
 73
     1
 90
        0
 40
-0.6
 41
-30.0
 62
     5
 63
     7
 74
     1
 91
        4
 64
     7
 65
   257
 75
     1
175
     1
 42
1.0
 92
        0
 66
   257
 43
1.0
 76
     1
 77
     6
 78
     2
 67
     7
 79
     5
170
     0
171
     0
290
     0
174
     0
 93
        1
 44
0.0
173
     0
291
     0
 45
0.0
1001
ACAD
1000
AcDbSavedByObjectVersion
1070
     0
  0
VISUALSTYLE
  5
9E
102
{ACAD_REACTORS
330
99
102
}
102
{ACAD_XDICTIONARY
360
633E1
102
}
330
99
100
AcDbVisualStyle
  2

 70
     7
 71
     1
 72
     0
 73
     1
 90
        0
 40
-0.6
 41
-30.0
 62
     5
 63
     7
 74
     0
 91
        4
 64
     7
 65
   257
 75
     1
175
     1
 42
1.0
 92
        8
 66
     7
 43
1.0
 76
     1
 77
     6
 78
     2
 67
     7
 79
     5
170
     0
171
     0
290
     0
174
     0
 93
        1
 44
0.0
173
     0
291
     1
 45
0.0
1001
ACAD
1000
AcDbSavedByObjectVersion
1070
     0
  0
VISUALSTYLE
  5
A5
102
{ACAD_REACTORS
330
99
102
}
102
{ACAD_XDICTIONARY
360
633E3
102
}
330
99
100
AcDbVisualStyle
  2

 70
    12
 71
     2
 72
     2
 73
     1
 90
        0
 40
-0.6
 41
-30.0
 62
     5
 63
     7
 74
     1
 91
        4
 64
     7
 65
   257
 75
     1
175
     1
 42
1.0
 92
        8
 66
     7
 43
1.0
 76
     1
 77
     6
 78
     2
 67
     7
 79
     5
170
     0
171
     0
290
     0
174
     0
 93
        1
 44
50.0
173
     0
291
     1
 45
0.0
1001
ACAD
1000
AcDbSavedByObjectVersion
1070
     0
  0
VISUALSTYLE
  5
A9
102
{ACAD_REACTORS
330
99
102
}
102
{ACAD_XDICTIONARY
360
633E5
102
}
330
99
100
AcDbVisualStyle
  2

 70
    16
 71
     2
 72
     2
 73
     3
 90
        0
 40
-0.6
 41
-30.0
 62
     5
 63
     8
 74
     1
 91
        4
 64
     7
 65
   257
 75
     1
175
     1
 42
1.0
 92
        8
 66
     8
 43
1.0
 76
     1
 77
     6
 78
     2
 67
     7
 79
     5
170
     0
171
     0
290
     0
174
     0
 93
        1
 44
0.0
173
     0
291
     1
 45
0.0
1001
ACAD
1000
AcDbSavedByObjectVersion
1070
     0
  0
VISUALSTYLE
  5
A2
102
{ACAD_REACTORS
330
99
102
}
102
{ACAD_XDICTIONARY
360
633E7
102
}
330
99
100
AcDbVisualStyle
  2

 70
     9
 71
     3
 72
     2
 73
     1
 90
        0
 40
-0.6
 41
-30.0
 62
     5
 63
     7
 74
     2
 91
        2
 64
     7
 65
   257
 75
     1
175
     1
 42
40.0
 92
        8
 66
     7
 43
1.0
 76
     1
 77
     6
 78
     2
 67
     7
 79
     3
170
     0
171
     0
290
     0
174
     0
 93
        1
 44
0.0
173
     0
291
     0
 45
0.0
1001
ACAD
1000
AcDbSavedByObjectVersion
1070
     0
  0
VISUALSTYLE
  5
A4
102
{ACAD_REACTORS
330
99
102
}
102
{ACAD_XDICTIONARY
360
633E9
102
}
330
99
100
AcDbVisualStyle
  2

 70
    11
 71
     2
 72
     2
 73
     1
 90
        0
 40
-0.6
 41
-30.0
 62
     5
 63
     7
 74
     1
 91
        4
 64
     7
 65
   257
 75
     1
175
     1
 42
1.0
 92
        8
 66
     7
 43
1.0
 76
     1
 77
     6
 78
     2
 67
     7
 79
     5
170
     0
171
     0
290
     0
174
     0
 93
        1
 44
-50.0
173
     0
291
     1
 45
0.0
1001
ACAD
1000
AcDbSavedByObjectVersion
1070
     0
  0
VISUALSTYLE
  5
155
102
{ACAD_REACTORS
330
99
102
}
102
{ACAD_XDICTIONARY
360
633EB
102
}
330
99
100
AcDbVisualStyle
  2

 70
    22
 71
     2
 72
     2
 73
     0
 90
        0
 40
-0.6
 41
-30.0
 62
     5
 63
     7
 74
     1
 91
        4
 64
     7
 65
   257
 75
     1
175
     1
 42
1.0
 92
        8
 66
     7
 43
1.0
 76
     1
 77
     6
 78
     2
 67
     7
 79
     5
170
     0
171
     0
290
     0
174
     0
 93
        1
 44
0.0
173
     0
291
     1
 45
0.0
1001
ACAD
1000
AcDbSavedByObjectVersion
1070
     0
  0
VISUALSTYLE
  5
A8
102
{ACAD_REACTORS
330
99
102
}
102
{ACAD_XDICTIONARY
360
633ED
102
}
330
99
100
AcDbVisualStyle
  2

 70
    15
 71
     2
 72
     2
 73
     1
 90
        0
 40
-0.6
 41
-30.0
 62
     5
 63
     7
 74
     1
 91
        4
 64
     7
 65
   257
 75
     1
175
     1
 42
1.0
 92
        8
 66
     7
 43
1.0
 76
     1
 77
     6
 78
     2
 67
     7
 79
     5
170
     0
171
     0
290
     0
174
     0
 93
        1
 44
0.0
173
     0
291
     1
 45
0.0
1001
ACAD
1000
AcDbSavedByObjectVersion
1070
     0
  0
VISUALSTYLE
  5
9A
102
{ACAD_REACTORS
330
99
102
}
102
{ACAD_XDICTIONARY
360
633EF
102
}
330
99
100
AcDbVisualStyle
  2

 70
     0
 71
     2
 72
     1
 73
     1
 90
        2
 40
-0.6
 41
30.0
 62
     5
 63
     7
 74
     0
 91
        4
 64
     7
 65
   257
 75
     1
175
     1
 42
1.0
 92
        8
 66
     7
 43
1.0
 76
     1
 77
     6
 78
     2
 67
     7
 79
     5
170
     0
171
     0
290
     0
174
     0
 93
        1
 44
0.0
173
     0
291
     1
 45
0.0
1001
ACAD
1000
AcDbSavedByObjectVersion
1070
     0
  0
VISUALSTYLE
  5
9B
102
{ACAD_REACTORS
330
99
102
}
102
{ACAD_XDICTIONARY
360
633F1
102
}
330
99
100
AcDbVisualStyle
  2

 70
     1
 71
     2
 72
     1
 73
     1
 90
        2
 40
-0.6
 41
30.0
 62
     5
 63
     7
 74
     1
 91
        4
 64
     7
 65
   257
 75
     1
175
     1
 42
1.0
 92
        0
 66
   257
 43
1.0
 76
     1
 77
     6
 78
     2
 67
     7
 79
     5
170
     0
171
     0
290
     0
174
     0
 93
        1
 44
0.0
173
     0
291
     1
 45
0.0
1001
ACAD
1000
AcDbSavedByObjectVersion
1070
     0
  0
VISUALSTYLE
  5
9C
102
{ACAD_REACTORS
330
99
102
}
102
{ACAD_XDICTIONARY
360
633F3
102
}
330
99
100
AcDbVisualStyle
  2

 70
     2
 71
     2
 72
     2
 73
     1
 90
        2
 40
-0.6
 41
30.0
 62
     5
 63
     7
 74
     0
 91
        4
 64
     7
 65
   257
 75
     1
175
     1
 42
1.0
 92
        0
 66
     7
 43
1.0
 76
     1
 77
     6
 78
     2
 67
     7
 79
     5
170
     0
171
     0
290
     0
174
     0
 93
        1
 44
0.0
173
     0
291
     1
 45
0.0
1001
ACAD
1000
AcDbSavedByObjectVersion
1070
     0
  0
VISUALSTYLE
  5
9D
102
{ACAD_REACTORS
330
99
102
}
102
{ACAD_XDICTIONARY
360
633F5
102
}
330
99
100
AcDbVisualStyle
  2

 70
     3
 71
     2
 72
     2
 73
     1
 90
        2
 40
-0.6
 41
30.0
 62
     5
 63
     7
 74
     1
 91
        4
 64
     7
 65
   257
 75
     1
175
     1
 42
1.0
 92
        0
 66
   257
 43
1.0
 76
     1
 77
     6
 78
     2
 67
     7
 79
     5
170
     0
171
     0
290
     0
174
     0
 93
        1
 44
0.0
173
     0
291
     1
 45
0.0
1001
ACAD
1000
AcDbSavedByObjectVersion
1070
     0
  0
VISUALSTYLE
  5
14D
102
{ACAD_REACTORS
330
99
102
}
102
{ACAD_XDICTIONARY
360
633F7
102
}
330
99
100
AcDbVisualStyle
  2

 70
     6
 71
     1
 72
     2
 73
     2
 90
        0
 40
-0.6
 41
-30.0
 62
     5
 63
     7
 74
     2
 91
        2
 64
     7
 65
   257
 75
     2
175
     1
 42
40.0
 92
        0
 66
   257
 43
1.0
 76
     1
 77
     6
 78
     2
 67
     7
 79
     3
170
     0
171
     0
290
     0
174
     0
 93
        1
 44
0.0
173
     0
291
     0
 45
0.0
1001
ACAD
1000
AcDbSavedByObjectVersion
1070
     0
  0
VISUALSTYLE
  5
153
102
{ACAD_REACTORS
330
99
102
}
102
{ACAD_XDICTIONARY
360
633F9
102
}
330
99
100
AcDbVisualStyle
  2

 70
    20
 71
     2
 72
     2
 73
     0
 90
        0
 40
-0.6
 41
-30.0
 62
     5
 63
     7
 74
     1
 91
        4
 64
     7
 65
   257
 75
     1
175
     1
 42
1.0
 92
       10
 66
     7
 43
1.0
 76
     1
 77
     6
 78
     2
 67
     7
 79
     5
170
     0
171
     0
290
     0
174
     0
 93
        1
 44
0.0
173
     0
291
     1
 45
0.0
1001
ACAD
1000
AcDbSavedByObjectVersion
1070
     0
  0
VISUALSTYLE
  5
A7
102
{ACAD_REACTORS
330
99
102
}
102
{ACAD_XDICTIONARY
360
633FB
102
}
330
99
100
AcDbVisualStyle
  2

 70
    14
 71
     2
 72
     2
 73
     1
 90
        0
 40
-0.6
 41
-30.0
 62
     5
 63
     7
 74
     1
 91
        4
 64
     7
 65
   257
 75
     7
175
     7
 42
1.0
 92
        8
 66
     7
 43
1.0
 76
     1
 77
     6
 78
     2
 67
     7
 79
     5
170
     0
171
     0
290
     0
174
     0
 93
        1
 44
0.0
173
     0
291
     1
 45
0.0
1001
ACAD
1000
AcDbSavedByObjectVersion
1070
     0
  0
VISUALSTYLE
  5
154
102
{ACAD_REACTORS
330
99
102
}
102
{ACAD_XDICTIONARY
360
633FD
102
}
330
99
100
AcDbVisualStyle
  2

 70
    21
 71
     2
 72
     2
 73
     0
 90
        0
 40
-0.6
 41
-30.0
 62
     5
 63
     7
 74
     1
 91
        4
 64
     7
 65
   257
 75
     1
175
     1
 42
1.0
 92
        9
 66
     7
 43
1.0
 76
     1
 77
     6
 78
     2
 67
     7
 79
     5
170
     0
171
     0
290
     0
174
     0
 93
        1
 44
0.0
173
     0
291
     1
 45
0.0
1001
ACAD
1000
AcDbSavedByObjectVersion
1070
     0
  0
VISUALSTYLE
  5
A3
102
{ACAD_REACTORS
330
99
102
}
102
{ACAD_XDICTIONARY
360
633FF
102
}
330
99
100
AcDbVisualStyle
  2

 70
     8
 71
     2
 72
     2
 73
     1
 90
        0
 40
-0.6
 41
-30.0
 62
     5
 63
     7
 74
     1
 91
        0
 64
     7
 65
   257
 75
     1
175
     1
 42
1.0
 92
        8
 66
     8
 43
1.0
 76
     1
 77
     6
 78
     2
 67
     7
 79
     5
170
     0
171
     0
290
     0
174
     0
 93
       13
 44
0.0
173
     0
291
     0
 45
0.0
1001
ACAD
1000
AcDbSavedByObjectVersion
1070
     0
  0
VISUALSTYLE
  5
152
102
{ACAD_REACTORS
330
99
102
}
102
{ACAD_XDICTIONARY
360
63401
102
}
330
99
100
AcDbVisualStyle
  2

 70
    27
 71
     2
 72
     2
 73
     1
 90
        2
 40
-0.6
 41
30.0
 62
     5
 63
     7
 74
     0
 91
        4
 64
     7
 65
   257
 75
     1
175
     1
 42
1.0
 92
        8
 66
   257
 43
1.0
 76
     1
 77
     6
 78
     2
 67
     8
 79
     3
170
     0
171
     0
290
     0
174
     0
 93
        5
 44
0.0
173
     0
291
     0
 45
0.0
1001
ACAD
1000
AcDbSavedByObjectVersion
1070
     0
  0
VISUALSTYLE
  5
151
102
{ACAD_REACTORS
330
99
102
}
102
{ACAD_XDICTIONARY
360
63403
102
}
330
99
100
AcDbVisualStyle
  2

 70
    26
 71
     2
 72
     2
 73
     1
 90
        2
 40
-0.6
 41
30.0
 62
     5
 63
     7
 74
     1
 91
       10
 64
     7
 65
   257
 75
     2
175
     1
 42
1.0
 92
        8
 66
   257
 43
1.0
 76
     1
 77
     6
 78
     2
 67
     7
 79
     3
170
     0
171
     0
290
     0
174
     0
 93
        5
 44
0.0
173
     0
291
     0
 45
0.0
1001
ACAD
1000
AcDbSavedByObjectVersion
1070
     0
  0
VISUALSTYLE
  5
14E
102
{ACAD_REACTORS
330
99
102
}
102
{ACAD_XDICTIONARY
360
63405
102
}
330
99
100
AcDbVisualStyle
  2

 70
    23
 71
     2
 72
     2
 73
     3
 90
        0
 40
-0.6
 41
-30.0
 62
     5
 63
     7
 74
     2
 91
        2
 64
     7
 65
     7
 75
     1
175
     1
 42
40.0
 92
        8
 66
     7
 43
1.0
 76
     1
 77
     6
 78
     2
 67
     7
 79
     3
170
     0
171
     0
290
     0
174
     0
 93
        1
 44
0.0
173
     0
291
     0
 45
0.0
1001
ACAD
1000
AcDbSavedByObjectVersion
1070
     0
  0
VISUALSTYLE
  5
14F
102
{ACAD_REACTORS
330
99
102
}
102
{ACAD_XDICTIONARY
360
63407
102
}
330
99
100
AcDbVisualStyle
  2

 70
    24
 71
     1
 72
     2
 73
     2
 90
        0
 40
-0.6
 41
-30.0
 62
     5
 63
     7
 74
     2
 91
        2
 64
     7
 65
     7
 75
     1
175
     1
 42
40.0
 92
       11
 66
     7
 43
1.0
 76
     1
 77
     6
 78
     2
 67
     7
 79
     6
170
     0
171
     0
290
     0
174
     0
 93
        1
 44
0.0
173
     0
291
     0
 45
0.0
1001
ACAD
1000
AcDbSavedByObjectVersion
1070
     0
  0
VISUALSTYLE
  5
A6
102
{ACAD_REACTORS
330
99
102
}
102
{ACAD_XDICTIONARY
360
63409
102
}
330
99
100
AcDbVisualStyle
  2

 70
    13
 71
     2
 72
     2
 73
     1
 90
        0
 40
-0.6
 41
-30.0
 62
     5
 63
     7
 74
     1
 91
        4
 64
     7
 65
   257
 75
     1
175
     1
 42
1.0
 92
       12
 66
     7
 43
1.0
 76
     1
 77
     6
 78
     2
 67
     7
 79
     5
170
     0
171
     0
290
     0
174
     0
 93
        1
 44
0.0
173
     0
291
     1
 45
0.0
1001
ACAD
1000
AcDbSavedByObjectVersion
1070
     0
  0
VISUALSTYLE
  5
14C
102
{ACAD_REACTORS
330
99
102
}
102
{ACAD_XDICTIONARY
360
6340B
102
}
330
99
100
AcDbVisualStyle
  2

 70
     5
 71
     0
 72
     2
 73
     0
 90
        0
 40
-0.6
 41
-30.0
 62
     5
 63
     7
 74
     1
 91
        4
 64
     7
 65
   257
 75
     1
175
     1
 42
1.0
 92
        0
 66
   257
 43
1.0
 76
     1
 77
     6
 78
     2
 67
     7
 79
     3
170
     0
171
     0
290
     0
174
     0
 93
        1
 44
0.0
173
     0
291
     0
 45
0.0
1001
ACAD
1000
AcDbSavedByObjectVersion
1070
     0
  0
VISUALSTYLE
  5
150
102
{ACAD_REACTORS
330
99
102
}
102
{ACAD_XDICTIONARY
360
6340D
102
}
330
99
100
AcDbVisualStyle
  2

 70
    25
 71
     2
 72
     2
 73
     1
 90
        1
 40
0.5
 41
-30.0
 62
     5
 63
     7
 74
     1
 91
        0
 64
     7
 65
   257
 75
     1
175
     1
 42
1.0
 92
        8
 66
     7
 43
1.0
 76
     1
 77
     6
 78
     2
 67
     7
 79
     3
170
     0
171
     0
290
     0
174
     0
 93
       13
 44
0.0
173
     0
291
     0
 45
0.0
1001
ACAD
1000
AcDbSavedByObjectVersion
1070
     0
  0
XRECORD
  5
633CE
102
{ACAD_REACTORS
330
633CD
102
}
330
633CD
100
AcDbXrecord
280
     1
340
73
  0
XRECORD
  5
633CF
102
{ACAD_REACTORS
330
633CD
102
}
330
633CD
100
AcDbXrecord
280
     1
340
72
  0
DICTIONARYVAR
  5
6335C
102
{ACAD_REACTORS
330
66
102
}
330
66
100
DictionaryVariables
280
     0
  1
1:1
  0
DICTIONARYVAR
  5
248
102
{ACAD_REACTORS
330
66
102
}
330
66
100
DictionaryVariables
280
     0
  1
Standard
  0
DICTIONARYVAR
  5
89
102
{ACAD_REACTORS
330
66
102
}
330
66
100
DictionaryVariables
280
     0
  1
Standard
  0
DICTIONARYVAR
  5
67
102
{ACAD_REACTORS
330
66
102
}
330
66
100
DictionaryVariables
280
     0
  1
2
  0
DICTIONARYVAR
  5
6B
102
{ACAD_REACTORS
330
66
102
}
330
66
100
DictionaryVariables
280
     0
  1
1
  0
DICTIONARYVAR
  5
B30
102
{ACAD_REACTORS
330
66
102
}
330
66
100
DictionaryVariables
280
     0
  1
0
  0
DICTIONARYVAR
  5
24C
102
{ACAD_REACTORS
330
66
102
}
330
66
100
DictionaryVariables
280
     0
  1
1
  0
DICTIONARYVAR
  5
24D
102
{ACAD_REACTORS
330
66
102
}
330
66
100
DictionaryVariables
280
     0
  1
15
  0
DICTIONARYVAR
  5
24B
102
{ACAD_REACTORS
330
66
102
}
330
66
100
DictionaryVariables
280
     0
  1
0
  0
DICTIONARYVAR
  5
249
102
{ACAD_REACTORS
330
66
102
}
330
66
100
DictionaryVariables
280
     0
  1
0
  0
DICTIONARYVAR
  5
B2F
102
{ACAD_REACTORS
330
66
102
}
330
66
100
DictionaryVariables
280
     0
  1
127
  0
DICTIONARYVAR
  5
5C051
102
{ACAD_REACTORS
330
66
102
}
330
66
100
DictionaryVariables
280
     0
  1
2
  0
ACDBASSOCNETWORK
  5
60D00
102
{ACAD_REACTORS
330
60CFF
102
}
330
60CFF
100
AcDbAssocAction
 90
        1
 90
        0
330
6049C
360
0
 90
        2
 90
        0
 90
        0
100
AcDbAssocNetwork
 90
        0
 90
        3
 90
        3
360
60C4F
360
60C57
360
60C5F
 90
        0
  0
DICTIONARY
  5
633D3
330
97
100
AcDbDictionary
280
     1
281
     1
  3
ACAD_XREC_ROUNDTRIP
360
633D4
  0
DICTIONARY
  5
633D5
330
96
100
AcDbDictionary
280
     1
281
     1
  3
ACAD_XREC_ROUNDTRIP
360
633D6
  0
DICTIONARY
  5
633D7
330
98
100
AcDbDictionary
280
     1
281
     1
  3
ACAD_XREC_ROUNDTRIP
360
633D8
  0
DICTIONARY
  5
633D9
330
169
100
AcDbDictionary
280
     1
281
     1
  3
ACAD_XREC_ROUNDTRIP
360
633DA
  0
DICTIONARY
  5
633DB
330
9F
100
AcDbDictionary
280
     1
281
     1
  3
ACAD_XREC_ROUNDTRIP
360
633DC
  0
DICTIONARY
  5
633DD
330
A1
100
AcDbDictionary
280
     1
281
     1
  3
ACAD_XREC_ROUNDTRIP
360
633DE
  0
DICTIONARY
  5
633DF
330
A0
100
AcDbDictionary
280
     1
281
     1
  3
ACAD_XREC_ROUNDTRIP
360
633E0
  0
DICTIONARY
  5
633E1
330
9E
100
AcDbDictionary
280
     1
281
     1
  3
ACAD_XREC_ROUNDTRIP
360
633E2
  0
DICTIONARY
  5
633E3
330
A5
100
AcDbDictionary
280
     1
281
     1
  3
ACAD_XREC_ROUNDTRIP
360
633E4
  0
DICTIONARY
  5
633E5
330
A9
100
AcDbDictionary
280
     1
281
     1
  3
ACAD_XREC_ROUNDTRIP
360
633E6
  0
DICTIONARY
  5
633E7
330
A2
100
AcDbDictionary
280
     1
281
     1
  3
ACAD_XREC_ROUNDTRIP
360
633E8
  0
DICTIONARY
  5
633E9
330
A4
100
AcDbDictionary
280
     1
281
     1
  3
ACAD_XREC_ROUNDTRIP
360
633EA
  0
DICTIONARY
  5
633EB
330
155
100
AcDbDictionary
280
     1
281
     1
  3
ACAD_XREC_ROUNDTRIP
360
633EC
  0
DICTIONARY
  5
633ED
330
A8
100
AcDbDictionary
280
     1
281
     1
  3
ACAD_XREC_ROUNDTRIP
360
633EE
  0
DICTIONARY
  5
633EF
330
9A
100
AcDbDictionary
280
     1
281
     1
  3
ACAD_XREC_ROUNDTRIP
360
633F0
  0
DICTIONARY
  5
633F1
330
9B
100
AcDbDictionary
280
     1
281
     1
  3
ACAD_XREC_ROUNDTRIP
360
633F2
  0
DICTIONARY
  5
633F3
330
9C
100
AcDbDictionary
280
     1
281
     1
  3
ACAD_XREC_ROUNDTRIP
360
633F4
  0
DICTIONARY
  5
633F5
330
9D
100
AcDbDictionary
280
     1
281
     1
  3
ACAD_XREC_ROUNDTRIP
360
633F6
  0
DICTIONARY
  5
633F7
330
14D
100
AcDbDictionary
280
     1
281
     1
  3
ACAD_XREC_ROUNDTRIP
360
633F8
  0
DICTIONARY
  5
633F9
330
153
100
AcDbDictionary
280
     1
281
     1
  3
ACAD_XREC_ROUNDTRIP
360
633FA
  0
DICTIONARY
  5
633FB
330
A7
100
AcDbDictionary
280
     1
281
     1
  3
ACAD_XREC_ROUNDTRIP
360
633FC
  0
DICTIONARY
  5
633FD
330
154
100
AcDbDictionary
280
     1
281
     1
  3
ACAD_XREC_ROUNDTRIP
360
633FE
  0
DICTIONARY
  5
633FF
330
A3
100
AcDbDictionary
280
     1
281
     1
  3
ACAD_XREC_ROUNDTRIP
360
63400
  0
DICTIONARY
  5
63401
330
152
100
AcDbDictionary
280
     1
281
     1
  3
ACAD_XREC_ROUNDTRIP
360
63402
  0
DICTIONARY
  5
63403
330
151
100
AcDbDictionary
280
     1
281
     1
  3
ACAD_XREC_ROUNDTRIP
360
63404
  0
DICTIONARY
  5
63405
330
14E
100
AcDbDictionary
280
     1
281
     1
  3
ACAD_XREC_ROUNDTRIP
360
63406
  0
DICTIONARY
  5
63407
330
14F
100
AcDbDictionary
280
     1
281
     1
  3
ACAD_XREC_ROUNDTRIP
360
63408
  0
DICTIONARY
  5
63409
330
A6
100
AcDbDictionary
280
     1
281
     1
  3
ACAD_XREC_ROUNDTRIP
360
6340A
  0
DICTIONARY
  5
6340B
330
14C
100
AcDbDictionary
280
     1
281
     1
  3
ACAD_XREC_ROUNDTRIP
360
6340C
  0
DICTIONARY
  5
6340D
330
150
100
AcDbDictionary
280
     1
281
     1
  3
ACAD_XREC_ROUNDTRIP
360
6340E
  0
ACDBASSOCACTION
  5
60C4F
330
60D00
100
AcDbAssocAction
 90
        1
 90
        0
330
60D00
360
60C50
 90
        1
 90
        3
 90
        3
360
60C51
360
60C52
360
60C53
  0
ACDBASSOCACTION
  5
60C57
330
60D00
100
AcDbAssocAction
 90
        1
 90
        0
330
60D00
360
60C58
 90
        2
 90
        3
 90
        3
360
60C59
360
60C5A
360
60C5B
  0
ACDBASSOCACTION
  5
60C5F
330
60D00
100
AcDbAssocAction
 90
        1
 90
        0
330
60D00
360
60C60
 90
        3
 90
        3
 90
        3
360
60C61
360
60C62
360
60C63
  0
XRECORD
  5
633D4
102
{ACAD_REACTORS
330
633D3
102
}
330
633D3
100
AcDbXrecord
280
     1
102
MATERIAL
148
0.0
149
0.0
149
0.0
 93
        0
 94
      127
282
     0
 72
     1
 77
     1
171
     1
175
     1
179
     1
273
     0
  0
XRECORD
  5
633D6
102
{ACAD_REACTORS
330
633D5
102
}
330
633D5
100
AcDbXrecord
280
     1
102
MATERIAL
148
0.0
149
0.0
149
0.0
 93
        0
 94
      127
282
     0
 72
     1
 77
     1
171
     1
175
     1
179
     1
273
     0
  0
XRECORD
  5
633D8
102
{ACAD_REACTORS
330
633D7
102
}
330
633D7
100
AcDbXrecord
280
     1
102
MATERIAL
148
0.0
149
0.0
149
0.0
 93
        0
 94
      127
282
     0
 72
     1
 77
     1
171
     1
175
     1
179
     1
273
     0
  0
XRECORD
  5
633DA
102
{ACAD_REACTORS
330
633D9
102
}
330
633D9
100
AcDbXrecord
280
     1
102
ACAD_ROUNDTRIP_2010_MLEADER_STYLE
  0
XRECORD
  5
633DC
102
{ACAD_REACTORS
330
633DB
102
}
330
633DB
100
AcDbXrecord
280
     1
102
RTVSPropertyOp0
 70
     1
102
RTVSPropertyOp1
 70
     1
102
RTVSPropertyOp2
 70
     1
102
RTVSPropertyOp3
 70
     1
102
RTVSPropertyOp4
 70
     1
102
RTVSPropertyOp5
 70
     1
102
RTVSPropertyOp6
 70
     1
102
RTVSPropertyOp7
 70
     1
102
RTVSPropertyOp8
 70
     1
102
RTVSPropertyOp9
 70
     1
102
RTVSPropertyOp10
 70
     1
102
RTVSPropertyOp11
 70
     1
102
RTVSPropertyOp12
 70
     1
102
RTVSPropertyOp13
 70
     1
102
RTVSPropertyOp14
 70
     1
102
RTVSPropertyOp15
 70
     1
102
RTVSPropertyOp16
 70
     1
102
RTVSPropertyOp17
 70
     1
102
RTVSPropertyOp18
 70
     1
102
RTVSPropertyOp19
 70
     1
102
RTVSPropertyOp20
 70
     1
102
RTVSPropertyOp21
 70
     1
102
RTVSPropertyOp22
 70
     1
102
RTVSPropertyOp23
 70
     1
102
RTVSPropertyOp24
 70
     1
102
RTVSPropertyOp25
 70
     1
102
RTVSPropertyOp26
 70
     1
102
RTVSPropertyOp27
 70
     1
102
RTVSPropertyOp28
 70
     1
102
RTVSPropertyOp29
 70
     1
102
RTVSPropertyOp30
 70
     1
102
RTVSPropertyOp31
 70
     1
102
RTVSPropertyOp32
 70
     1
102
RTVSPropertyOp33
 70
     1
102
RTVSPropertyOp34
 70
     1
102
RTVSPropertyOp35
 70
     1
102
RTVSPropertyOp36
 70
     1
102
RTVSPropertyOp37
 70
     1
102
RTVSPropertyOp38
 70
     1
102
RTVSPropertyOp39
 70
     1
102
RTVSPropertyOp40
 70
     1
102
RTVSPropertyOp41
 70
     1
102
RTVSPropertyOp42
 70
     1
102
RTVSPropertyOp43
 70
     1
102
RTVSPropertyOp44
 70
     1
102
RTVSPropertyOp45
 70
     1
102
RTVSPropertyOp46
 70
     1
102
RTVSPropertyOp47
 70
     1
102
RTVSPropertyOp48
 70
     1
102
RTVSPropertyOp49
 70
     1
102
RTVSPropertyOp50
 70
     1
102
RTVSPropertyOp51
 70
     0
102
RTVSPropertyOp52
 70
     0
102
RTVSPropertyOp53
 70
     1
102
RTVSPropertyOp54
 70
     1
102
RTVSPropertyOp55
 70
     1
102
RTVSPropertyOp56
 70
     1
102
RTVSPropertyOp57
 70
     1
102
RTVSPost2010Prop28
280
     1
102
RTVSPost2010PropOp28
 70
     1
102
RTVSPost2010Prop29
280
     1
102
RTVSPost2010PropOp29
 70
     1
102
RTVSPost2010Prop30
280
     0
102
RTVSPost2010PropOp30
 70
     1
102
RTVSPost2010Prop31
280
     0
102
RTVSPost2010PropOp31
 70
     1
102
RTVSPost2010Prop32
280
     0
102
RTVSPost2010PropOp32
 70
     1
102
RTVSPost2010Prop33
280
     0
102
RTVSPost2010PropOp33
 70
     1
102
RTVSPost2010Prop34
280
     0
102
RTVSPost2010PropOp34
 70
     1
102
RTVSPost2010Prop35
280
     0
102
RTVSPost2010PropOp35
 70
     1
102
RTVSPost2010Prop36
280
     0
102
RTVSPost2010PropOp36
 70
     1
102
RTVSPost2010Prop37
 90
       50
102
RTVSPost2010PropOp37
 70
     1
102
RTVSPost2010Prop38
140
0.0
102
RTVSPost2010PropOp38
 70
     1
102
RTVSPost2010Prop39
140
1.0
102
RTVSPost2010PropOp39
 70
     1
102
RTVSPost2010Prop40
 90
        0
102
RTVSPost2010PropOp40
 70
     1
102
RTVSPost2010Prop41ColorIndex
 90
       18
102
RTVSPost2010Prop41ColorRGB
 90
        0
102
RTVSPost2010PropOp41
 70
     1
102
RTVSPost2010Prop42
 90
       50
102
RTVSPost2010PropOp42
 70
     1
102
RTVSPost2010Prop43
 90
        3
102
RTVSPost2010PropOp43
 70
     1
102
RTVSPost2010Prop44ColorIndex
 90
        5
102
RTVSPost2010Prop44ColorRGB
 90
      255
102
RTVSPost2010PropOp44
 70
     1
102
RTVSPost2010Prop45
280
     0
102
RTVSPost2010PropOp45
 70
     1
102
RTVSPost2010Prop46
 90
       50
102
RTVSPost2010PropOp46
 70
     1
102
RTVSPost2010Prop47
 90
       50
102
RTVSPost2010PropOp47
 70
     1
102
RTVSPost2010Prop48
 90
       50
102
RTVSPost2010PropOp48
 70
     1
102
RTVSPost2010Prop49
280
     0
102
RTVSPost2010PropOp49
 70
     1
102
RTVSPost2010Prop50
 90
       50
102
RTVSPost2010PropOp50
 70
     1
102
RTVSPost2010Prop51ColorIndex
 90
      256
102
RTVSPost2010Prop51ColorRGB
 90
-16777216
102
RTVSPost2010PropOp51
 70
     0
102
RTVSPost2010Prop52
140
1.0
102
RTVSPost2010PropOp52
 70
     0
102
RTVSPost2010Prop53
 90
        2
102
RTVSPost2010PropOp53
 70
     1
102
RTVSPost2010Prop54
  1
strokes_ogs.tif
102
RTVSPost2010PropOp54
 70
     1
102
RTVSPost2010Prop55
280
     0
102
RTVSPost2010PropOp55
 70
     1
102
RTVSPost2010Prop56
140
1.0
102
RTVSPost2010PropOp56
 70
     1
102
RTVSPost2010Prop57
140
1.0
102
RTVSPost2010PropOp57
 70
     1
  0
XRECORD
  5
633DE
102
{ACAD_REACTORS
330
633DD
102
}
330
633DD
100
AcDbXrecord
280
     1
102
RTVSPropertyOp0
 70
     1
102
RTVSPropertyOp1
 70
     1
102
RTVSPropertyOp2
 70
     1
102
RTVSPropertyOp3
 70
     1
102
RTVSPropertyOp4
 70
     1
102
RTVSPropertyOp5
 70
     1
102
RTVSPropertyOp6
 70
     1
102
RTVSPropertyOp7
 70
     1
102
RTVSPropertyOp8
 70
     1
102
RTVSPropertyOp9
 70
     1
102
RTVSPropertyOp10
 70
     1
102
RTVSPropertyOp11
 70
     1
102
RTVSPropertyOp12
 70
     1
102
RTVSPropertyOp13
 70
     1
102
RTVSPropertyOp14
 70
     1
102
RTVSPropertyOp15
 70
     1
102
RTVSPropertyOp16
 70
     1
102
RTVSPropertyOp17
 70
     1
102
RTVSPropertyOp18
 70
     1
102
RTVSPropertyOp19
 70
     1
102
RTVSPropertyOp20
 70
     1
102
RTVSPropertyOp21
 70
     1
102
RTVSPropertyOp22
 70
     1
102
RTVSPropertyOp23
 70
     1
102
RTVSPropertyOp24
 70
     1
102
RTVSPropertyOp25
 70
     1
102
RTVSPropertyOp26
 70
     1
102
RTVSPropertyOp27
 70
     1
102
RTVSPropertyOp28
 70
     1
102
RTVSPropertyOp29
 70
     1
102
RTVSPropertyOp30
 70
     1
102
RTVSPropertyOp31
 70
     1
102
RTVSPropertyOp32
 70
     1
102
RTVSPropertyOp33
 70
     1
102
RTVSPropertyOp34
 70
     1
102
RTVSPropertyOp35
 70
     1
102
RTVSPropertyOp36
 70
     1
102
RTVSPropertyOp37
 70
     1
102
RTVSPropertyOp38
 70
     1
102
RTVSPropertyOp39
 70
     1
102
RTVSPropertyOp40
 70
     1
102
RTVSPropertyOp41
 70
     1
102
RTVSPropertyOp42
 70
     1
102
RTVSPropertyOp43
 70
     1
102
RTVSPropertyOp44
 70
     1
102
RTVSPropertyOp45
 70
     1
102
RTVSPropertyOp46
 70
     1
102
RTVSPropertyOp47
 70
     1
102
RTVSPropertyOp48
 70
     1
102
RTVSPropertyOp49
 70
     1
102
RTVSPropertyOp50
 70
     1
102
RTVSPropertyOp51
 70
     0
102
RTVSPropertyOp52
 70
     0
102
RTVSPropertyOp53
 70
     1
102
RTVSPropertyOp54
 70
     1
102
RTVSPropertyOp55
 70
     1
102
RTVSPropertyOp56
 70
     1
102
RTVSPropertyOp57
 70
     1
102
RTVSPost2010Prop28
280
     0
102
RTVSPost2010PropOp28
 70
     1
102
RTVSPost2010Prop29
280
     1
102
RTVSPost2010PropOp29
 70
     1
102
RTVSPost2010Prop30
280
     1
102
RTVSPost2010PropOp30
 70
     1
102
RTVSPost2010Prop31
280
     0
102
RTVSPost2010PropOp31
 70
     1
102
RTVSPost2010Prop32
280
     0
102
RTVSPost2010PropOp32
 70
     1
102
RTVSPost2010Prop33
280
     0
102
RTVSPost2010PropOp33
 70
     1
102
RTVSPost2010Prop34
280
     0
102
RTVSPost2010PropOp34
 70
     1
102
RTVSPost2010Prop35
280
     0
102
RTVSPost2010PropOp35
 70
     1
102
RTVSPost2010Prop36
280
     0
102
RTVSPost2010PropOp36
 70
     1
102
RTVSPost2010Prop37
 90
       50
102
RTVSPost2010PropOp37
 70
     1
102
RTVSPost2010Prop38
140
0.0
102
RTVSPost2010PropOp38
 70
     1
102
RTVSPost2010Prop39
140
1.0
102
RTVSPost2010PropOp39
 70
     1
102
RTVSPost2010Prop40
 90
        0
102
RTVSPost2010PropOp40
 70
     1
102
RTVSPost2010Prop41ColorIndex
 90
       18
102
RTVSPost2010Prop41ColorRGB
 90
        0
102
RTVSPost2010PropOp41
 70
     1
102
RTVSPost2010Prop42
 90
       50
102
RTVSPost2010PropOp42
 70
     1
102
RTVSPost2010Prop43
 90
        3
102
RTVSPost2010PropOp43
 70
     1
102
RTVSPost2010Prop44ColorIndex
 90
        5
102
RTVSPost2010Prop44ColorRGB
 90
      255
102
RTVSPost2010PropOp44
 70
     1
102
RTVSPost2010Prop45
280
     0
102
RTVSPost2010PropOp45
 70
     1
102
RTVSPost2010Prop46
 90
       50
102
RTVSPost2010PropOp46
 70
     1
102
RTVSPost2010Prop47
 90
       50
102
RTVSPost2010PropOp47
 70
     1
102
RTVSPost2010Prop48
 90
       50
102
RTVSPost2010PropOp48
 70
     1
102
RTVSPost2010Prop49
280
     0
102
RTVSPost2010PropOp49
 70
     1
102
RTVSPost2010Prop50
 90
       50
102
RTVSPost2010PropOp50
 70
     1
102
RTVSPost2010Prop51ColorIndex
 90
      256
102
RTVSPost2010Prop51ColorRGB
 90
-16777216
102
RTVSPost2010PropOp51
 70
     0
102
RTVSPost2010Prop52
140
1.0
102
RTVSPost2010PropOp52
 70
     0
102
RTVSPost2010Prop53
 90
        2
102
RTVSPost2010PropOp53
 70
     1
102
RTVSPost2010Prop54
  1
strokes_ogs.tif
102
RTVSPost2010PropOp54
 70
     1
102
RTVSPost2010Prop55
280
     0
102
RTVSPost2010PropOp55
 70
     1
102
RTVSPost2010Prop56
140
1.0
102
RTVSPost2010PropOp56
 70
     1
102
RTVSPost2010Prop57
140
1.0
102
RTVSPost2010PropOp57
 70
     1
  0
XRECORD
  5
633E0
102
{ACAD_REACTORS
330
633DF
102
}
330
633DF
100
AcDbXrecord
280
     1
102
RTVSPropertyOp0
 70
     1
102
RTVSPropertyOp1
 70
     1
102
RTVSPropertyOp2
 70
     1
102
RTVSPropertyOp3
 70
     1
102
RTVSPropertyOp4
 70
     1
102
RTVSPropertyOp5
 70
     1
102
RTVSPropertyOp6
 70
     1
102
RTVSPropertyOp7
 70
     1
102
RTVSPropertyOp8
 70
     1
102
RTVSPropertyOp9
 70
     1
102
RTVSPropertyOp10
 70
     1
102
RTVSPropertyOp11
 70
     1
102
RTVSPropertyOp12
 70
     1
102
RTVSPropertyOp13
 70
     1
102
RTVSPropertyOp14
 70
     1
102
RTVSPropertyOp15
 70
     1
102
RTVSPropertyOp16
 70
     1
102
RTVSPropertyOp17
 70
     1
102
RTVSPropertyOp18
 70
     1
102
RTVSPropertyOp19
 70
     1
102
RTVSPropertyOp20
 70
     1
102
RTVSPropertyOp21
 70
     1
102
RTVSPropertyOp22
 70
     1
102
RTVSPropertyOp23
 70
     1
102
RTVSPropertyOp24
 70
     1
102
RTVSPropertyOp25
 70
     1
102
RTVSPropertyOp26
 70
     1
102
RTVSPropertyOp27
 70
     1
102
RTVSPropertyOp28
 70
     1
102
RTVSPropertyOp29
 70
     1
102
RTVSPropertyOp30
 70
     1
102
RTVSPropertyOp31
 70
     1
102
RTVSPropertyOp32
 70
     1
102
RTVSPropertyOp33
 70
     1
102
RTVSPropertyOp34
 70
     1
102
RTVSPropertyOp35
 70
     1
102
RTVSPropertyOp36
 70
     1
102
RTVSPropertyOp37
 70
     1
102
RTVSPropertyOp38
 70
     1
102
RTVSPropertyOp39
 70
     1
102
RTVSPropertyOp40
 70
     1
102
RTVSPropertyOp41
 70
     1
102
RTVSPropertyOp42
 70
     1
102
RTVSPropertyOp43
 70
     1
102
RTVSPropertyOp44
 70
     1
102
RTVSPropertyOp45
 70
     1
102
RTVSPropertyOp46
 70
     1
102
RTVSPropertyOp47
 70
     1
102
RTVSPropertyOp48
 70
     1
102
RTVSPropertyOp49
 70
     1
102
RTVSPropertyOp50
 70
     1
102
RTVSPropertyOp51
 70
     0
102
RTVSPropertyOp52
 70
     0
102
RTVSPropertyOp53
 70
     1
102
RTVSPropertyOp54
 70
     1
102
RTVSPropertyOp55
 70
     1
102
RTVSPropertyOp56
 70
     1
102
RTVSPropertyOp57
 70
     1
102
RTVSPost2010Prop28
280
     0
102
RTVSPost2010PropOp28
 70
     1
102
RTVSPost2010Prop29
280
     1
102
RTVSPost2010PropOp29
 70
     1
102
RTVSPost2010Prop30
280
     1
102
RTVSPost2010PropOp30
 70
     1
102
RTVSPost2010Prop31
280
     0
102
RTVSPost2010PropOp31
 70
     1
102
RTVSPost2010Prop32
280
     0
102
RTVSPost2010PropOp32
 70
     1
102
RTVSPost2010Prop33
280
     0
102
RTVSPost2010PropOp33
 70
     1
102
RTVSPost2010Prop34
280
     0
102
RTVSPost2010PropOp34
 70
     1
102
RTVSPost2010Prop35
280
     0
102
RTVSPost2010PropOp35
 70
     1
102
RTVSPost2010Prop36
280
     0
102
RTVSPost2010PropOp36
 70
     1
102
RTVSPost2010Prop37
 90
       50
102
RTVSPost2010PropOp37
 70
     1
102
RTVSPost2010Prop38
140
0.0
102
RTVSPost2010PropOp38
 70
     1
102
RTVSPost2010Prop39
140
1.0
102
RTVSPost2010PropOp39
 70
     1
102
RTVSPost2010Prop40
 90
        0
102
RTVSPost2010PropOp40
 70
     1
102
RTVSPost2010Prop41ColorIndex
 90
       18
102
RTVSPost2010Prop41ColorRGB
 90
        0
102
RTVSPost2010PropOp41
 70
     1
102
RTVSPost2010Prop42
 90
       50
102
RTVSPost2010PropOp42
 70
     1
102
RTVSPost2010Prop43
 90
        3
102
RTVSPost2010PropOp43
 70
     1
102
RTVSPost2010Prop44ColorIndex
 90
        5
102
RTVSPost2010Prop44ColorRGB
 90
      255
102
RTVSPost2010PropOp44
 70
     1
102
RTVSPost2010Prop45
280
     0
102
RTVSPost2010PropOp45
 70
     1
102
RTVSPost2010Prop46
 90
       50
102
RTVSPost2010PropOp46
 70
     1
102
RTVSPost2010Prop47
 90
       50
102
RTVSPost2010PropOp47
 70
     1
102
RTVSPost2010Prop48
 90
       50
102
RTVSPost2010PropOp48
 70
     1
102
RTVSPost2010Prop49
280
     0
102
RTVSPost2010PropOp49
 70
     1
102
RTVSPost2010Prop50
 90
       50
102
RTVSPost2010PropOp50
 70
     1
102
RTVSPost2010Prop51ColorIndex
 90
      256
102
RTVSPost2010Prop51ColorRGB
 90
-16777216
102
RTVSPost2010PropOp51
 70
     0
102
RTVSPost2010Prop52
140
1.0
102
RTVSPost2010PropOp52
 70
     0
102
RTVSPost2010Prop53
 90
        2
102
RTVSPost2010PropOp53
 70
     1
102
RTVSPost2010Prop54
  1
strokes_ogs.tif
102
RTVSPost2010PropOp54
 70
     1
102
RTVSPost2010Prop55
280
     0
102
RTVSPost2010PropOp55
 70
     1
102
RTVSPost2010Prop56
140
1.0
102
RTVSPost2010PropOp56
 70
     1
102
RTVSPost2010Prop57
140
1.0
102
RTVSPost2010PropOp57
 70
     1
  0
XRECORD
  5
633E2
102
{ACAD_REACTORS
330
633E1
102
}
330
633E1
100
AcDbXrecord
280
     1
102
RTVSPropertyOp0
 70
     1
102
RTVSPropertyOp1
 70
     1
102
RTVSPropertyOp2
 70
     1
102
RTVSPropertyOp3
 70
     1
102
RTVSPropertyOp4
 70
     1
102
RTVSPropertyOp5
 70
     1
102
RTVSPropertyOp6
 70
     1
102
RTVSPropertyOp7
 70
     1
102
RTVSPropertyOp8
 70
     1
102
RTVSPropertyOp9
 70
     1
102
RTVSPropertyOp10
 70
     1
102
RTVSPropertyOp11
 70
     1
102
RTVSPropertyOp12
 70
     1
102
RTVSPropertyOp13
 70
     1
102
RTVSPropertyOp14
 70
     1
102
RTVSPropertyOp15
 70
     1
102
RTVSPropertyOp16
 70
     1
102
RTVSPropertyOp17
 70
     1
102
RTVSPropertyOp18
 70
     1
102
RTVSPropertyOp19
 70
     1
102
RTVSPropertyOp20
 70
     1
102
RTVSPropertyOp21
 70
     1
102
RTVSPropertyOp22
 70
     1
102
RTVSPropertyOp23
 70
     1
102
RTVSPropertyOp24
 70
     1
102
RTVSPropertyOp25
 70
     1
102
RTVSPropertyOp26
 70
     1
102
RTVSPropertyOp27
 70
     1
102
RTVSPropertyOp28
 70
     1
102
RTVSPropertyOp29
 70
     1
102
RTVSPropertyOp30
 70
     1
102
RTVSPropertyOp31
 70
     1
102
RTVSPropertyOp32
 70
     1
102
RTVSPropertyOp33
 70
     1
102
RTVSPropertyOp34
 70
     1
102
RTVSPropertyOp35
 70
     1
102
RTVSPropertyOp36
 70
     1
102
RTVSPropertyOp37
 70
     1
102
RTVSPropertyOp38
 70
     1
102
RTVSPropertyOp39
 70
     1
102
RTVSPropertyOp40
 70
     1
102
RTVSPropertyOp41
 70
     1
102
RTVSPropertyOp42
 70
     1
102
RTVSPropertyOp43
 70
     1
102
RTVSPropertyOp44
 70
     1
102
RTVSPropertyOp45
 70
     1
102
RTVSPropertyOp46
 70
     1
102
RTVSPropertyOp47
 70
     1
102
RTVSPropertyOp48
 70
     1
102
RTVSPropertyOp49
 70
     1
102
RTVSPropertyOp50
 70
     1
102
RTVSPropertyOp51
 70
     0
102
RTVSPropertyOp52
 70
     0
102
RTVSPropertyOp53
 70
     1
102
RTVSPropertyOp54
 70
     1
102
RTVSPropertyOp55
 70
     1
102
RTVSPropertyOp56
 70
     1
102
RTVSPropertyOp57
 70
     1
102
RTVSPost2010Prop28
280
     0
102
RTVSPost2010PropOp28
 70
     1
102
RTVSPost2010Prop29
280
     1
102
RTVSPost2010PropOp29
 70
     1
102
RTVSPost2010Prop30
280
     1
102
RTVSPost2010PropOp30
 70
     1
102
RTVSPost2010Prop31
280
     0
102
RTVSPost2010PropOp31
 70
     1
102
RTVSPost2010Prop32
280
     0
102
RTVSPost2010PropOp32
 70
     1
102
RTVSPost2010Prop33
280
     0
102
RTVSPost2010PropOp33
 70
     1
102
RTVSPost2010Prop34
280
     0
102
RTVSPost2010PropOp34
 70
     1
102
RTVSPost2010Prop35
280
     0
102
RTVSPost2010PropOp35
 70
     1
102
RTVSPost2010Prop36
280
     0
102
RTVSPost2010PropOp36
 70
     1
102
RTVSPost2010Prop37
 90
       50
102
RTVSPost2010PropOp37
 70
     1
102
RTVSPost2010Prop38
140
0.0
102
RTVSPost2010PropOp38
 70
     1
102
RTVSPost2010Prop39
140
1.0
102
RTVSPost2010PropOp39
 70
     1
102
RTVSPost2010Prop40
 90
        0
102
RTVSPost2010PropOp40
 70
     1
102
RTVSPost2010Prop41ColorIndex
 90
       18
102
RTVSPost2010Prop41ColorRGB
 90
        0
102
RTVSPost2010PropOp41
 70
     1
102
RTVSPost2010Prop42
 90
       50
102
RTVSPost2010PropOp42
 70
     1
102
RTVSPost2010Prop43
 90
        3
102
RTVSPost2010PropOp43
 70
     1
102
RTVSPost2010Prop44ColorIndex
 90
        5
102
RTVSPost2010Prop44ColorRGB
 90
      255
102
RTVSPost2010PropOp44
 70
     1
102
RTVSPost2010Prop45
280
     0
102
RTVSPost2010PropOp45
 70
     1
102
RTVSPost2010Prop46
 90
       50
102
RTVSPost2010PropOp46
 70
     1
102
RTVSPost2010Prop47
 90
       50
102
RTVSPost2010PropOp47
 70
     1
102
RTVSPost2010Prop48
 90
       50
102
RTVSPost2010PropOp48
 70
     1
102
RTVSPost2010Prop49
280
     0
102
RTVSPost2010PropOp49
 70
     1
102
RTVSPost2010Prop50
 90
       50
102
RTVSPost2010PropOp50
 70
     1
102
RTVSPost2010Prop51ColorIndex
 90
      256
102
RTVSPost2010Prop51ColorRGB
 90
-16777216
102
RTVSPost2010PropOp51
 70
     0
102
RTVSPost2010Prop52
140
1.0
102
RTVSPost2010PropOp52
 70
     0
102
RTVSPost2010Prop53
 90
        2
102
RTVSPost2010PropOp53
 70
     1
102
RTVSPost2010Prop54
  1
strokes_ogs.tif
102
RTVSPost2010PropOp54
 70
     1
102
RTVSPost2010Prop55
280
     0
102
RTVSPost2010PropOp55
 70
     1
102
RTVSPost2010Prop56
140
1.0
102
RTVSPost2010PropOp56
 70
     1
102
RTVSPost2010Prop57
140
1.0
102
RTVSPost2010PropOp57
 70
     1
  0
XRECORD
  5
633E4
102
{ACAD_REACTORS
330
633E3
102
}
330
633E3
100
AcDbXrecord
280
     1
102
RTVSPropertyOp0
 70
     1
102
RTVSPropertyOp1
 70
     1
102
RTVSPropertyOp2
 70
     1
102
RTVSPropertyOp3
 70
     1
102
RTVSPropertyOp4
 70
     1
102
RTVSPropertyOp5
 70
     1
102
RTVSPropertyOp6
 70
     1
102
RTVSPropertyOp7
 70
     1
102
RTVSPropertyOp8
 70
     1
102
RTVSPropertyOp9
 70
     1
102
RTVSPropertyOp10
 70
     1
102
RTVSPropertyOp11
 70
     1
102
RTVSPropertyOp12
 70
     1
102
RTVSPropertyOp13
 70
     1
102
RTVSPropertyOp14
 70
     1
102
RTVSPropertyOp15
 70
     1
102
RTVSPropertyOp16
 70
     1
102
RTVSPropertyOp17
 70
     1
102
RTVSPropertyOp18
 70
     1
102
RTVSPropertyOp19
 70
     1
102
RTVSPropertyOp20
 70
     1
102
RTVSPropertyOp21
 70
     1
102
RTVSPropertyOp22
 70
     1
102
RTVSPropertyOp23
 70
     1
102
RTVSPropertyOp24
 70
     1
102
RTVSPropertyOp25
 70
     1
102
RTVSPropertyOp26
 70
     1
102
RTVSPropertyOp27
 70
     1
102
RTVSPropertyOp28
 70
     1
102
RTVSPropertyOp29
 70
     1
102
RTVSPropertyOp30
 70
     1
102
RTVSPropertyOp31
 70
     1
102
RTVSPropertyOp32
 70
     1
102
RTVSPropertyOp33
 70
     1
102
RTVSPropertyOp34
 70
     1
102
RTVSPropertyOp35
 70
     1
102
RTVSPropertyOp36
 70
     1
102
RTVSPropertyOp37
 70
     1
102
RTVSPropertyOp38
 70
     1
102
RTVSPropertyOp39
 70
     1
102
RTVSPropertyOp40
 70
     1
102
RTVSPropertyOp41
 70
     1
102
RTVSPropertyOp42
 70
     1
102
RTVSPropertyOp43
 70
     1
102
RTVSPropertyOp44
 70
     1
102
RTVSPropertyOp45
 70
     1
102
RTVSPropertyOp46
 70
     1
102
RTVSPropertyOp47
 70
     1
102
RTVSPropertyOp48
 70
     1
102
RTVSPropertyOp49
 70
     1
102
RTVSPropertyOp50
 70
     1
102
RTVSPropertyOp51
 70
     0
102
RTVSPropertyOp52
 70
     0
102
RTVSPropertyOp53
 70
     1
102
RTVSPropertyOp54
 70
     1
102
RTVSPropertyOp55
 70
     1
102
RTVSPropertyOp56
 70
     1
102
RTVSPropertyOp57
 70
     1
102
RTVSPost2010Prop28
280
     0
102
RTVSPost2010PropOp28
 70
     1
102
RTVSPost2010Prop29
280
     1
102
RTVSPost2010PropOp29
 70
     1
102
RTVSPost2010Prop30
280
     1
102
RTVSPost2010PropOp30
 70
     1
102
RTVSPost2010Prop31
280
     0
102
RTVSPost2010PropOp31
 70
     1
102
RTVSPost2010Prop32
280
     0
102
RTVSPost2010PropOp32
 70
     1
102
RTVSPost2010Prop33
280
     0
102
RTVSPost2010PropOp33
 70
     1
102
RTVSPost2010Prop34
280
     0
102
RTVSPost2010PropOp34
 70
     1
102
RTVSPost2010Prop35
280
     0
102
RTVSPost2010PropOp35
 70
     1
102
RTVSPost2010Prop36
280
     0
102
RTVSPost2010PropOp36
 70
     1
102
RTVSPost2010Prop37
 90
       50
102
RTVSPost2010PropOp37
 70
     1
102
RTVSPost2010Prop38
140
0.0
102
RTVSPost2010PropOp38
 70
     1
102
RTVSPost2010Prop39
140
1.0
102
RTVSPost2010PropOp39
 70
     1
102
RTVSPost2010Prop40
 90
        0
102
RTVSPost2010PropOp40
 70
     1
102
RTVSPost2010Prop41ColorIndex
 90
       18
102
RTVSPost2010Prop41ColorRGB
 90
        0
102
RTVSPost2010PropOp41
 70
     1
102
RTVSPost2010Prop42
 90
       50
102
RTVSPost2010PropOp42
 70
     1
102
RTVSPost2010Prop43
 90
        3
102
RTVSPost2010PropOp43
 70
     1
102
RTVSPost2010Prop44ColorIndex
 90
        5
102
RTVSPost2010Prop44ColorRGB
 90
      255
102
RTVSPost2010PropOp44
 70
     1
102
RTVSPost2010Prop45
280
     0
102
RTVSPost2010PropOp45
 70
     1
102
RTVSPost2010Prop46
 90
       50
102
RTVSPost2010PropOp46
 70
     1
102
RTVSPost2010Prop47
 90
       50
102
RTVSPost2010PropOp47
 70
     1
102
RTVSPost2010Prop48
 90
       50
102
RTVSPost2010PropOp48
 70
     1
102
RTVSPost2010Prop49
280
     0
102
RTVSPost2010PropOp49
 70
     1
102
RTVSPost2010Prop50
 90
       50
102
RTVSPost2010PropOp50
 70
     1
102
RTVSPost2010Prop51ColorIndex
 90
      256
102
RTVSPost2010Prop51ColorRGB
 90
-16777216
102
RTVSPost2010PropOp51
 70
     0
102
RTVSPost2010Prop52
140
1.0
102
RTVSPost2010PropOp52
 70
     0
102
RTVSPost2010Prop53
 90
        2
102
RTVSPost2010PropOp53
 70
     1
102
RTVSPost2010Prop54
  1
strokes_ogs.tif
102
RTVSPost2010PropOp54
 70
     1
102
RTVSPost2010Prop55
280
     0
102
RTVSPost2010PropOp55
 70
     1
102
RTVSPost2010Prop56
140
1.0
102
RTVSPost2010PropOp56
 70
     1
102
RTVSPost2010Prop57
140
1.0
102
RTVSPost2010PropOp57
 70
     1
  0
XRECORD
  5
633E6
102
{ACAD_REACTORS
330
633E5
102
}
330
633E5
100
AcDbXrecord
280
     1
102
RTVSPropertyOp0
 70
     1
102
RTVSPropertyOp1
 70
     1
102
RTVSPropertyOp2
 70
     1
102
RTVSPropertyOp3
 70
     1
102
RTVSPropertyOp4
 70
     1
102
RTVSPropertyOp5
 70
     1
102
RTVSPropertyOp6
 70
     1
102
RTVSPropertyOp7
 70
     1
102
RTVSPropertyOp8
 70
     1
102
RTVSPropertyOp9
 70
     1
102
RTVSPropertyOp10
 70
     1
102
RTVSPropertyOp11
 70
     1
102
RTVSPropertyOp12
 70
     1
102
RTVSPropertyOp13
 70
     1
102
RTVSPropertyOp14
 70
     1
102
RTVSPropertyOp15
 70
     1
102
RTVSPropertyOp16
 70
     1
102
RTVSPropertyOp17
 70
     1
102
RTVSPropertyOp18
 70
     1
102
RTVSPropertyOp19
 70
     1
102
RTVSPropertyOp20
 70
     1
102
RTVSPropertyOp21
 70
     1
102
RTVSPropertyOp22
 70
     1
102
RTVSPropertyOp23
 70
     1
102
RTVSPropertyOp24
 70
     1
102
RTVSPropertyOp25
 70
     1
102
RTVSPropertyOp26
 70
     1
102
RTVSPropertyOp27
 70
     1
102
RTVSPropertyOp28
 70
     1
102
RTVSPropertyOp29
 70
     1
102
RTVSPropertyOp30
 70
     1
102
RTVSPropertyOp31
 70
     1
102
RTVSPropertyOp32
 70
     1
102
RTVSPropertyOp33
 70
     1
102
RTVSPropertyOp34
 70
     1
102
RTVSPropertyOp35
 70
     1
102
RTVSPropertyOp36
 70
     1
102
RTVSPropertyOp37
 70
     1
102
RTVSPropertyOp38
 70
     1
102
RTVSPropertyOp39
 70
     1
102
RTVSPropertyOp40
 70
     1
102
RTVSPropertyOp41
 70
     1
102
RTVSPropertyOp42
 70
     1
102
RTVSPropertyOp43
 70
     1
102
RTVSPropertyOp44
 70
     1
102
RTVSPropertyOp45
 70
     1
102
RTVSPropertyOp46
 70
     1
102
RTVSPropertyOp47
 70
     1
102
RTVSPropertyOp48
 70
     1
102
RTVSPropertyOp49
 70
     1
102
RTVSPropertyOp50
 70
     1
102
RTVSPropertyOp51
 70
     0
102
RTVSPropertyOp52
 70
     0
102
RTVSPropertyOp53
 70
     1
102
RTVSPropertyOp54
 70
     1
102
RTVSPropertyOp55
 70
     1
102
RTVSPropertyOp56
 70
     1
102
RTVSPropertyOp57
 70
     1
102
RTVSPost2010Prop28
280
     0
102
RTVSPost2010PropOp28
 70
     1
102
RTVSPost2010Prop29
280
     1
102
RTVSPost2010PropOp29
 70
     1
102
RTVSPost2010Prop30
280
     1
102
RTVSPost2010PropOp30
 70
     1
102
RTVSPost2010Prop31
280
     0
102
RTVSPost2010PropOp31
 70
     1
102
RTVSPost2010Prop32
280
     0
102
RTVSPost2010PropOp32
 70
     1
102
RTVSPost2010Prop33
280
     0
102
RTVSPost2010PropOp33
 70
     1
102
RTVSPost2010Prop34
280
     0
102
RTVSPost2010PropOp34
 70
     1
102
RTVSPost2010Prop35
280
     0
102
RTVSPost2010PropOp35
 70
     1
102
RTVSPost2010Prop36
280
     0
102
RTVSPost2010PropOp36
 70
     1
102
RTVSPost2010Prop37
 90
       50
102
RTVSPost2010PropOp37
 70
     1
102
RTVSPost2010Prop38
140
0.0
102
RTVSPost2010PropOp38
 70
     1
102
RTVSPost2010Prop39
140
1.0
102
RTVSPost2010PropOp39
 70
     1
102
RTVSPost2010Prop40
 90
        0
102
RTVSPost2010PropOp40
 70
     1
102
RTVSPost2010Prop41ColorIndex
 90
       18
102
RTVSPost2010Prop41ColorRGB
 90
        0
102
RTVSPost2010PropOp41
 70
     1
102
RTVSPost2010Prop42
 90
       50
102
RTVSPost2010PropOp42
 70
     1
102
RTVSPost2010Prop43
 90
        3
102
RTVSPost2010PropOp43
 70
     1
102
RTVSPost2010Prop44ColorIndex
 90
        5
102
RTVSPost2010Prop44ColorRGB
 90
      255
102
RTVSPost2010PropOp44
 70
     1
102
RTVSPost2010Prop45
280
     0
102
RTVSPost2010PropOp45
 70
     1
102
RTVSPost2010Prop46
 90
       50
102
RTVSPost2010PropOp46
 70
     1
102
RTVSPost2010Prop47
 90
       50
102
RTVSPost2010PropOp47
 70
     1
102
RTVSPost2010Prop48
 90
       50
102
RTVSPost2010PropOp48
 70
     1
102
RTVSPost2010Prop49
280
     0
102
RTVSPost2010PropOp49
 70
     1
102
RTVSPost2010Prop50
 90
       50
102
RTVSPost2010PropOp50
 70
     1
102
RTVSPost2010Prop51ColorIndex
 90
      256
102
RTVSPost2010Prop51ColorRGB
 90
-16777216
102
RTVSPost2010PropOp51
 70
     0
102
RTVSPost2010Prop52
140
1.0
102
RTVSPost2010PropOp52
 70
     0
102
RTVSPost2010Prop53
 90
        2
102
RTVSPost2010PropOp53
 70
     1
102
RTVSPost2010Prop54
  1
strokes_ogs.tif
102
RTVSPost2010PropOp54
 70
     1
102
RTVSPost2010Prop55
280
     0
102
RTVSPost2010PropOp55
 70
     1
102
RTVSPost2010Prop56
140
1.0
102
RTVSPost2010PropOp56
 70
     1
102
RTVSPost2010Prop57
140
1.0
102
RTVSPost2010PropOp57
 70
     1
  0
XRECORD
  5
633E8
102
{ACAD_REACTORS
330
633E7
102
}
330
633E7
100
AcDbXrecord
280
     1
102
RTVSPropertyOp0
 70
     1
102
RTVSPropertyOp1
 70
     1
102
RTVSPropertyOp2
 70
     1
102
RTVSPropertyOp3
 70
     1
102
RTVSPropertyOp4
 70
     1
102
RTVSPropertyOp5
 70
     1
102
RTVSPropertyOp6
 70
     1
102
RTVSPropertyOp7
 70
     1
102
RTVSPropertyOp8
 70
     1
102
RTVSPropertyOp9
 70
     1
102
RTVSPropertyOp10
 70
     1
102
RTVSPropertyOp11
 70
     1
102
RTVSPropertyOp12
 70
     1
102
RTVSPropertyOp13
 70
     1
102
RTVSPropertyOp14
 70
     1
102
RTVSPropertyOp15
 70
     1
102
RTVSPropertyOp16
 70
     1
102
RTVSPropertyOp17
 70
     1
102
RTVSPropertyOp18
 70
     1
102
RTVSPropertyOp19
 70
     1
102
RTVSPropertyOp20
 70
     1
102
RTVSPropertyOp21
 70
     1
102
RTVSPropertyOp22
 70
     1
102
RTVSPropertyOp23
 70
     1
102
RTVSPropertyOp24
 70
     1
102
RTVSPropertyOp25
 70
     1
102
RTVSPropertyOp26
 70
     1
102
RTVSPropertyOp27
 70
     1
102
RTVSPropertyOp28
 70
     1
102
RTVSPropertyOp29
 70
     1
102
RTVSPropertyOp30
 70
     1
102
RTVSPropertyOp31
 70
     1
102
RTVSPropertyOp32
 70
     1
102
RTVSPropertyOp33
 70
     1
102
RTVSPropertyOp34
 70
     1
102
RTVSPropertyOp35
 70
     1
102
RTVSPropertyOp36
 70
     1
102
RTVSPropertyOp37
 70
     1
102
RTVSPropertyOp38
 70
     1
102
RTVSPropertyOp39
 70
     1
102
RTVSPropertyOp40
 70
     1
102
RTVSPropertyOp41
 70
     1
102
RTVSPropertyOp42
 70
     1
102
RTVSPropertyOp43
 70
     1
102
RTVSPropertyOp44
 70
     1
102
RTVSPropertyOp45
 70
     1
102
RTVSPropertyOp46
 70
     1
102
RTVSPropertyOp47
 70
     1
102
RTVSPropertyOp48
 70
     1
102
RTVSPropertyOp49
 70
     1
102
RTVSPropertyOp50
 70
     1
102
RTVSPropertyOp51
 70
     0
102
RTVSPropertyOp52
 70
     0
102
RTVSPropertyOp53
 70
     1
102
RTVSPropertyOp54
 70
     1
102
RTVSPropertyOp55
 70
     1
102
RTVSPropertyOp56
 70
     1
102
RTVSPropertyOp57
 70
     1
102
RTVSPost2010Prop28
280
     0
102
RTVSPost2010PropOp28
 70
     1
102
RTVSPost2010Prop29
280
     1
102
RTVSPost2010PropOp29
 70
     1
102
RTVSPost2010Prop30
280
     1
102
RTVSPost2010PropOp30
 70
     1
102
RTVSPost2010Prop31
280
     0
102
RTVSPost2010PropOp31
 70
     1
102
RTVSPost2010Prop32
280
     0
102
RTVSPost2010PropOp32
 70
     1
102
RTVSPost2010Prop33
280
     0
102
RTVSPost2010PropOp33
 70
     1
102
RTVSPost2010Prop34
280
     0
102
RTVSPost2010PropOp34
 70
     1
102
RTVSPost2010Prop35
280
     0
102
RTVSPost2010PropOp35
 70
     1
102
RTVSPost2010Prop36
280
     0
102
RTVSPost2010PropOp36
 70
     1
102
RTVSPost2010Prop37
 90
       50
102
RTVSPost2010PropOp37
 70
     1
102
RTVSPost2010Prop38
140
0.0
102
RTVSPost2010PropOp38
 70
     1
102
RTVSPost2010Prop39
140
1.0
102
RTVSPost2010PropOp39
 70
     1
102
RTVSPost2010Prop40
 90
        0
102
RTVSPost2010PropOp40
 70
     1
102
RTVSPost2010Prop41ColorIndex
 90
       18
102
RTVSPost2010Prop41ColorRGB
 90
        0
102
RTVSPost2010PropOp41
 70
     1
102
RTVSPost2010Prop42
 90
       50
102
RTVSPost2010PropOp42
 70
     1
102
RTVSPost2010Prop43
 90
        3
102
RTVSPost2010PropOp43
 70
     1
102
RTVSPost2010Prop44ColorIndex
 90
        5
102
RTVSPost2010Prop44ColorRGB
 90
      255
102
RTVSPost2010PropOp44
 70
     1
102
RTVSPost2010Prop45
280
     0
102
RTVSPost2010PropOp45
 70
     1
102
RTVSPost2010Prop46
 90
       50
102
RTVSPost2010PropOp46
 70
     1
102
RTVSPost2010Prop47
 90
       50
102
RTVSPost2010PropOp47
 70
     1
102
RTVSPost2010Prop48
 90
       50
102
RTVSPost2010PropOp48
 70
     1
102
RTVSPost2010Prop49
280
     0
102
RTVSPost2010PropOp49
 70
     1
102
RTVSPost2010Prop50
 90
       50
102
RTVSPost2010PropOp50
 70
     1
102
RTVSPost2010Prop51ColorIndex
 90
      256
102
RTVSPost2010Prop51ColorRGB
 90
-16777216
102
RTVSPost2010PropOp51
 70
     0
102
RTVSPost2010Prop52
140
1.0
102
RTVSPost2010PropOp52
 70
     0
102
RTVSPost2010Prop53
 90
        2
102
RTVSPost2010PropOp53
 70
     1
102
RTVSPost2010Prop54
  1
strokes_ogs.tif
102
RTVSPost2010PropOp54
 70
     1
102
RTVSPost2010Prop55
280
     0
102
RTVSPost2010PropOp55
 70
     1
102
RTVSPost2010Prop56
140
1.0
102
RTVSPost2010PropOp56
 70
     1
102
RTVSPost2010Prop57
140
1.0
102
RTVSPost2010PropOp57
 70
     1
  0
XRECORD
  5
633EA
102
{ACAD_REACTORS
330
633E9
102
}
330
633E9
100
AcDbXrecord
280
     1
102
RTVSPropertyOp0
 70
     1
102
RTVSPropertyOp1
 70
     1
102
RTVSPropertyOp2
 70
     1
102
RTVSPropertyOp3
 70
     1
102
RTVSPropertyOp4
 70
     1
102
RTVSPropertyOp5
 70
     1
102
RTVSPropertyOp6
 70
     1
102
RTVSPropertyOp7
 70
     1
102
RTVSPropertyOp8
 70
     1
102
RTVSPropertyOp9
 70
     1
102
RTVSPropertyOp10
 70
     1
102
RTVSPropertyOp11
 70
     1
102
RTVSPropertyOp12
 70
     1
102
RTVSPropertyOp13
 70
     1
102
RTVSPropertyOp14
 70
     1
102
RTVSPropertyOp15
 70
     1
102
RTVSPropertyOp16
 70
     1
102
RTVSPropertyOp17
 70
     1
102
RTVSPropertyOp18
 70
     1
102
RTVSPropertyOp19
 70
     1
102
RTVSPropertyOp20
 70
     1
102
RTVSPropertyOp21
 70
     1
102
RTVSPropertyOp22
 70
     1
102
RTVSPropertyOp23
 70
     1
102
RTVSPropertyOp24
 70
     1
102
RTVSPropertyOp25
 70
     1
102
RTVSPropertyOp26
 70
     1
102
RTVSPropertyOp27
 70
     1
102
RTVSPropertyOp28
 70
     1
102
RTVSPropertyOp29
 70
     1
102
RTVSPropertyOp30
 70
     1
102
RTVSPropertyOp31
 70
     1
102
RTVSPropertyOp32
 70
     1
102
RTVSPropertyOp33
 70
     1
102
RTVSPropertyOp34
 70
     1
102
RTVSPropertyOp35
 70
     1
102
RTVSPropertyOp36
 70
     1
102
RTVSPropertyOp37
 70
     1
102
RTVSPropertyOp38
 70
     1
102
RTVSPropertyOp39
 70
     1
102
RTVSPropertyOp40
 70
     1
102
RTVSPropertyOp41
 70
     1
102
RTVSPropertyOp42
 70
     1
102
RTVSPropertyOp43
 70
     1
102
RTVSPropertyOp44
 70
     1
102
RTVSPropertyOp45
 70
     1
102
RTVSPropertyOp46
 70
     1
102
RTVSPropertyOp47
 70
     1
102
RTVSPropertyOp48
 70
     1
102
RTVSPropertyOp49
 70
     1
102
RTVSPropertyOp50
 70
     1
102
RTVSPropertyOp51
 70
     0
102
RTVSPropertyOp52
 70
     0
102
RTVSPropertyOp53
 70
     1
102
RTVSPropertyOp54
 70
     1
102
RTVSPropertyOp55
 70
     1
102
RTVSPropertyOp56
 70
     1
102
RTVSPropertyOp57
 70
     1
102
RTVSPost2010Prop28
280
     0
102
RTVSPost2010PropOp28
 70
     1
102
RTVSPost2010Prop29
280
     1
102
RTVSPost2010PropOp29
 70
     1
102
RTVSPost2010Prop30
280
     1
102
RTVSPost2010PropOp30
 70
     1
102
RTVSPost2010Prop31
280
     0
102
RTVSPost2010PropOp31
 70
     1
102
RTVSPost2010Prop32
280
     0
102
RTVSPost2010PropOp32
 70
     1
102
RTVSPost2010Prop33
280
     0
102
RTVSPost2010PropOp33
 70
     1
102
RTVSPost2010Prop34
280
     0
102
RTVSPost2010PropOp34
 70
     1
102
RTVSPost2010Prop35
280
     0
102
RTVSPost2010PropOp35
 70
     1
102
RTVSPost2010Prop36
280
     0
102
RTVSPost2010PropOp36
 70
     1
102
RTVSPost2010Prop37
 90
       50
102
RTVSPost2010PropOp37
 70
     1
102
RTVSPost2010Prop38
140
0.0
102
RTVSPost2010PropOp38
 70
     1
102
RTVSPost2010Prop39
140
1.0
102
RTVSPost2010PropOp39
 70
     1
102
RTVSPost2010Prop40
 90
        0
102
RTVSPost2010PropOp40
 70
     1
102
RTVSPost2010Prop41ColorIndex
 90
       18
102
RTVSPost2010Prop41ColorRGB
 90
        0
102
RTVSPost2010PropOp41
 70
     1
102
RTVSPost2010Prop42
 90
       50
102
RTVSPost2010PropOp42
 70
     1
102
RTVSPost2010Prop43
 90
        3
102
RTVSPost2010PropOp43
 70
     1
102
RTVSPost2010Prop44ColorIndex
 90
        5
102
RTVSPost2010Prop44ColorRGB
 90
      255
102
RTVSPost2010PropOp44
 70
     1
102
RTVSPost2010Prop45
280
     0
102
RTVSPost2010PropOp45
 70
     1
102
RTVSPost2010Prop46
 90
       50
102
RTVSPost2010PropOp46
 70
     1
102
RTVSPost2010Prop47
 90
       50
102
RTVSPost2010PropOp47
 70
     1
102
RTVSPost2010Prop48
 90
       50
102
RTVSPost2010PropOp48
 70
     1
102
RTVSPost2010Prop49
280
     0
102
RTVSPost2010PropOp49
 70
     1
102
RTVSPost2010Prop50
 90
       50
102
RTVSPost2010PropOp50
 70
     1
102
RTVSPost2010Prop51ColorIndex
 90
      256
102
RTVSPost2010Prop51ColorRGB
 90
-16777216
102
RTVSPost2010PropOp51
 70
     0
102
RTVSPost2010Prop52
140
1.0
102
RTVSPost2010PropOp52
 70
     0
102
RTVSPost2010Prop53
 90
        2
102
RTVSPost2010PropOp53
 70
     1
102
RTVSPost2010Prop54
  1
strokes_ogs.tif
102
RTVSPost2010PropOp54
 70
     1
102
RTVSPost2010Prop55
280
     0
102
RTVSPost2010PropOp55
 70
     1
102
RTVSPost2010Prop56
140
1.0
102
RTVSPost2010PropOp56
 70
     1
102
RTVSPost2010Prop57
140
1.0
102
RTVSPost2010PropOp57
 70
     1
  0
XRECORD
  5
633EC
102
{ACAD_REACTORS
330
633EB
102
}
330
633EB
100
AcDbXrecord
280
     1
102
RTVSPropertyOp0
 70
     0
102
RTVSPropertyOp1
 70
     0
102
RTVSPropertyOp2
 70
     0
102
RTVSPropertyOp3
 70
     0
102
RTVSPropertyOp4
 70
     0
102
RTVSPropertyOp5
 70
     0
102
RTVSPropertyOp6
 70
     0
102
RTVSPropertyOp7
 70
     0
102
RTVSPropertyOp8
 70
     0
102
RTVSPropertyOp9
 70
     0
102
RTVSPropertyOp10
 70
     0
102
RTVSPropertyOp11
 70
     0
102
RTVSPropertyOp12
 70
     0
102
RTVSPropertyOp13
 70
     0
102
RTVSPropertyOp14
 70
     2
102
RTVSPropertyOp15
 70
     0
102
RTVSPropertyOp16
 70
     0
102
RTVSPropertyOp17
 70
     0
102
RTVSPropertyOp18
 70
     0
102
RTVSPropertyOp19
 70
     0
102
RTVSPropertyOp20
 70
     0
102
RTVSPropertyOp21
 70
     0
102
RTVSPropertyOp22
 70
     0
102
RTVSPropertyOp23
 70
     0
102
RTVSPropertyOp24
 70
     0
102
RTVSPropertyOp25
 70
     0
102
RTVSPropertyOp26
 70
     0
102
RTVSPropertyOp27
 70
     0
102
RTVSPropertyOp28
 70
     1
102
RTVSPropertyOp29
 70
     1
102
RTVSPropertyOp30
 70
     1
102
RTVSPropertyOp31
 70
     1
102
RTVSPropertyOp32
 70
     1
102
RTVSPropertyOp33
 70
     1
102
RTVSPropertyOp34
 70
     1
102
RTVSPropertyOp35
 70
     1
102
RTVSPropertyOp36
 70
     1
102
RTVSPropertyOp37
 70
     1
102
RTVSPropertyOp38
 70
     1
102
RTVSPropertyOp39
 70
     1
102
RTVSPropertyOp40
 70
     1
102
RTVSPropertyOp41
 70
     1
102
RTVSPropertyOp42
 70
     1
102
RTVSPropertyOp43
 70
     1
102
RTVSPropertyOp44
 70
     1
102
RTVSPropertyOp45
 70
     1
102
RTVSPropertyOp46
 70
     1
102
RTVSPropertyOp47
 70
     1
102
RTVSPropertyOp48
 70
     1
102
RTVSPropertyOp49
 70
     1
102
RTVSPropertyOp50
 70
     1
102
RTVSPropertyOp51
 70
     0
102
RTVSPropertyOp52
 70
     0
102
RTVSPropertyOp53
 70
     1
102
RTVSPropertyOp54
 70
     1
102
RTVSPropertyOp55
 70
     1
102
RTVSPropertyOp56
 70
     1
102
RTVSPropertyOp57
 70
     1
102
RTVSPost2010Prop28
280
     0
102
RTVSPost2010PropOp28
 70
     1
102
RTVSPost2010Prop29
280
     1
102
RTVSPost2010PropOp29
 70
     1
102
RTVSPost2010Prop30
280
     1
102
RTVSPost2010PropOp30
 70
     1
102
RTVSPost2010Prop31
280
     0
102
RTVSPost2010PropOp31
 70
     1
102
RTVSPost2010Prop32
280
     0
102
RTVSPost2010PropOp32
 70
     1
102
RTVSPost2010Prop33
280
     0
102
RTVSPost2010PropOp33
 70
     1
102
RTVSPost2010Prop34
280
     0
102
RTVSPost2010PropOp34
 70
     1
102
RTVSPost2010Prop35
280
     0
102
RTVSPost2010PropOp35
 70
     1
102
RTVSPost2010Prop36
280
     0
102
RTVSPost2010PropOp36
 70
     1
102
RTVSPost2010Prop37
 90
       50
102
RTVSPost2010PropOp37
 70
     1
102
RTVSPost2010Prop38
140
0.0
102
RTVSPost2010PropOp38
 70
     1
102
RTVSPost2010Prop39
140
1.0
102
RTVSPost2010PropOp39
 70
     1
102
RTVSPost2010Prop40
 90
        0
102
RTVSPost2010PropOp40
 70
     1
102
RTVSPost2010Prop41ColorIndex
 90
       18
102
RTVSPost2010Prop41ColorRGB
 90
        0
102
RTVSPost2010PropOp41
 70
     1
102
RTVSPost2010Prop42
 90
       50
102
RTVSPost2010PropOp42
 70
     1
102
RTVSPost2010Prop43
 90
        3
102
RTVSPost2010PropOp43
 70
     1
102
RTVSPost2010Prop44ColorIndex
 90
        5
102
RTVSPost2010Prop44ColorRGB
 90
      255
102
RTVSPost2010PropOp44
 70
     1
102
RTVSPost2010Prop45
280
     0
102
RTVSPost2010PropOp45
 70
     1
102
RTVSPost2010Prop46
 90
       50
102
RTVSPost2010PropOp46
 70
     1
102
RTVSPost2010Prop47
 90
       50
102
RTVSPost2010PropOp47
 70
     1
102
RTVSPost2010Prop48
 90
       50
102
RTVSPost2010PropOp48
 70
     1
102
RTVSPost2010Prop49
280
     0
102
RTVSPost2010PropOp49
 70
     1
102
RTVSPost2010Prop50
 90
       50
102
RTVSPost2010PropOp50
 70
     1
102
RTVSPost2010Prop51ColorIndex
 90
      256
102
RTVSPost2010Prop51ColorRGB
 90
-16777216
102
RTVSPost2010PropOp51
 70
     0
102
RTVSPost2010Prop52
140
1.0
102
RTVSPost2010PropOp52
 70
     0
102
RTVSPost2010Prop53
 90
        2
102
RTVSPost2010PropOp53
 70
     1
102
RTVSPost2010Prop54
  1
strokes_ogs.tif
102
RTVSPost2010PropOp54
 70
     1
102
RTVSPost2010Prop55
280
     0
102
RTVSPost2010PropOp55
 70
     1
102
RTVSPost2010Prop56
140
1.0
102
RTVSPost2010PropOp56
 70
     1
102
RTVSPost2010Prop57
140
1.0
102
RTVSPost2010PropOp57
 70
     1
  0
XRECORD
  5
633EE
102
{ACAD_REACTORS
330
633ED
102
}
330
633ED
100
AcDbXrecord
280
     1
102
RTVSPropertyOp0
 70
     1
102
RTVSPropertyOp1
 70
     1
102
RTVSPropertyOp2
 70
     1
102
RTVSPropertyOp3
 70
     1
102
RTVSPropertyOp4
 70
     1
102
RTVSPropertyOp5
 70
     1
102
RTVSPropertyOp6
 70
     1
102
RTVSPropertyOp7
 70
     1
102
RTVSPropertyOp8
 70
     1
102
RTVSPropertyOp9
 70
     1
102
RTVSPropertyOp10
 70
     1
102
RTVSPropertyOp11
 70
     1
102
RTVSPropertyOp12
 70
     1
102
RTVSPropertyOp13
 70
     1
102
RTVSPropertyOp14
 70
     1
102
RTVSPropertyOp15
 70
     1
102
RTVSPropertyOp16
 70
     1
102
RTVSPropertyOp17
 70
     1
102
RTVSPropertyOp18
 70
     1
102
RTVSPropertyOp19
 70
     1
102
RTVSPropertyOp20
 70
     1
102
RTVSPropertyOp21
 70
     1
102
RTVSPropertyOp22
 70
     1
102
RTVSPropertyOp23
 70
     1
102
RTVSPropertyOp24
 70
     1
102
RTVSPropertyOp25
 70
     1
102
RTVSPropertyOp26
 70
     1
102
RTVSPropertyOp27
 70
     1
102
RTVSPropertyOp28
 70
     1
102
RTVSPropertyOp29
 70
     1
102
RTVSPropertyOp30
 70
     1
102
RTVSPropertyOp31
 70
     1
102
RTVSPropertyOp32
 70
     1
102
RTVSPropertyOp33
 70
     1
102
RTVSPropertyOp34
 70
     1
102
RTVSPropertyOp35
 70
     1
102
RTVSPropertyOp36
 70
     1
102
RTVSPropertyOp37
 70
     1
102
RTVSPropertyOp38
 70
     1
102
RTVSPropertyOp39
 70
     1
102
RTVSPropertyOp40
 70
     1
102
RTVSPropertyOp41
 70
     1
102
RTVSPropertyOp42
 70
     1
102
RTVSPropertyOp43
 70
     1
102
RTVSPropertyOp44
 70
     1
102
RTVSPropertyOp45
 70
     1
102
RTVSPropertyOp46
 70
     1
102
RTVSPropertyOp47
 70
     1
102
RTVSPropertyOp48
 70
     1
102
RTVSPropertyOp49
 70
     1
102
RTVSPropertyOp50
 70
     1
102
RTVSPropertyOp51
 70
     0
102
RTVSPropertyOp52
 70
     0
102
RTVSPropertyOp53
 70
     1
102
RTVSPropertyOp54
 70
     1
102
RTVSPropertyOp55
 70
     1
102
RTVSPropertyOp56
 70
     1
102
RTVSPropertyOp57
 70
     1
102
RTVSPost2010Prop28
280
     0
102
RTVSPost2010PropOp28
 70
     1
102
RTVSPost2010Prop29
280
     1
102
RTVSPost2010PropOp29
 70
     1
102
RTVSPost2010Prop30
280
     1
102
RTVSPost2010PropOp30
 70
     1
102
RTVSPost2010Prop31
280
     0
102
RTVSPost2010PropOp31
 70
     1
102
RTVSPost2010Prop32
280
     0
102
RTVSPost2010PropOp32
 70
     1
102
RTVSPost2010Prop33
280
     0
102
RTVSPost2010PropOp33
 70
     1
102
RTVSPost2010Prop34
280
     0
102
RTVSPost2010PropOp34
 70
     1
102
RTVSPost2010Prop35
280
     0
102
RTVSPost2010PropOp35
 70
     1
102
RTVSPost2010Prop36
280
     0
102
RTVSPost2010PropOp36
 70
     1
102
RTVSPost2010Prop37
 90
       50
102
RTVSPost2010PropOp37
 70
     1
102
RTVSPost2010Prop38
140
0.0
102
RTVSPost2010PropOp38
 70
     1
102
RTVSPost2010Prop39
140
1.0
102
RTVSPost2010PropOp39
 70
     1
102
RTVSPost2010Prop40
 90
        0
102
RTVSPost2010PropOp40
 70
     1
102
RTVSPost2010Prop41ColorIndex
 90
       18
102
RTVSPost2010Prop41ColorRGB
 90
        0
102
RTVSPost2010PropOp41
 70
     1
102
RTVSPost2010Prop42
 90
       50
102
RTVSPost2010PropOp42
 70
     1
102
RTVSPost2010Prop43
 90
        3
102
RTVSPost2010PropOp43
 70
     1
102
RTVSPost2010Prop44ColorIndex
 90
        5
102
RTVSPost2010Prop44ColorRGB
 90
      255
102
RTVSPost2010PropOp44
 70
     1
102
RTVSPost2010Prop45
280
     0
102
RTVSPost2010PropOp45
 70
     1
102
RTVSPost2010Prop46
 90
       50
102
RTVSPost2010PropOp46
 70
     1
102
RTVSPost2010Prop47
 90
       50
102
RTVSPost2010PropOp47
 70
     1
102
RTVSPost2010Prop48
 90
       50
102
RTVSPost2010PropOp48
 70
     1
102
RTVSPost2010Prop49
280
     0
102
RTVSPost2010PropOp49
 70
     1
102
RTVSPost2010Prop50
 90
       50
102
RTVSPost2010PropOp50
 70
     1
102
RTVSPost2010Prop51ColorIndex
 90
      256
102
RTVSPost2010Prop51ColorRGB
 90
-16777216
102
RTVSPost2010PropOp51
 70
     0
102
RTVSPost2010Prop52
140
1.0
102
RTVSPost2010PropOp52
 70
     0
102
RTVSPost2010Prop53
 90
        2
102
RTVSPost2010PropOp53
 70
     1
102
RTVSPost2010Prop54
  1
strokes_ogs.tif
102
RTVSPost2010PropOp54
 70
     1
102
RTVSPost2010Prop55
280
     0
102
RTVSPost2010PropOp55
 70
     1
102
RTVSPost2010Prop56
140
1.0
102
RTVSPost2010PropOp56
 70
     1
102
RTVSPost2010Prop57
140
1.0
102
RTVSPost2010PropOp57
 70
     1
  0
XRECORD
  5
633F0
102
{ACAD_REACTORS
330
633EF
102
}
330
633EF
100
AcDbXrecord
280
     1
102
RTVSPropertyOp0
 70
     1
102
RTVSPropertyOp1
 70
     1
102
RTVSPropertyOp2
 70
     1
102
RTVSPropertyOp3
 70
     1
102
RTVSPropertyOp4
 70
     1
102
RTVSPropertyOp5
 70
     1
102
RTVSPropertyOp6
 70
     1
102
RTVSPropertyOp7
 70
     1
102
RTVSPropertyOp8
 70
     1
102
RTVSPropertyOp9
 70
     1
102
RTVSPropertyOp10
 70
     1
102
RTVSPropertyOp11
 70
     1
102
RTVSPropertyOp12
 70
     1
102
RTVSPropertyOp13
 70
     1
102
RTVSPropertyOp14
 70
     1
102
RTVSPropertyOp15
 70
     1
102
RTVSPropertyOp16
 70
     1
102
RTVSPropertyOp17
 70
     1
102
RTVSPropertyOp18
 70
     1
102
RTVSPropertyOp19
 70
     1
102
RTVSPropertyOp20
 70
     1
102
RTVSPropertyOp21
 70
     1
102
RTVSPropertyOp22
 70
     1
102
RTVSPropertyOp23
 70
     1
102
RTVSPropertyOp24
 70
     1
102
RTVSPropertyOp25
 70
     1
102
RTVSPropertyOp26
 70
     1
102
RTVSPropertyOp27
 70
     1
102
RTVSPropertyOp28
 70
     1
102
RTVSPropertyOp29
 70
     1
102
RTVSPropertyOp30
 70
     1
102
RTVSPropertyOp31
 70
     1
102
RTVSPropertyOp32
 70
     1
102
RTVSPropertyOp33
 70
     1
102
RTVSPropertyOp34
 70
     1
102
RTVSPropertyOp35
 70
     1
102
RTVSPropertyOp36
 70
     1
102
RTVSPropertyOp37
 70
     1
102
RTVSPropertyOp38
 70
     1
102
RTVSPropertyOp39
 70
     1
102
RTVSPropertyOp40
 70
     1
102
RTVSPropertyOp41
 70
     1
102
RTVSPropertyOp42
 70
     1
102
RTVSPropertyOp43
 70
     1
102
RTVSPropertyOp44
 70
     1
102
RTVSPropertyOp45
 70
     1
102
RTVSPropertyOp46
 70
     1
102
RTVSPropertyOp47
 70
     1
102
RTVSPropertyOp48
 70
     1
102
RTVSPropertyOp49
 70
     1
102
RTVSPropertyOp50
 70
     1
102
RTVSPropertyOp51
 70
     0
102
RTVSPropertyOp52
 70
     0
102
RTVSPropertyOp53
 70
     1
102
RTVSPropertyOp54
 70
     1
102
RTVSPropertyOp55
 70
     1
102
RTVSPropertyOp56
 70
     1
102
RTVSPropertyOp57
 70
     1
102
RTVSPost2010Prop28
280
     0
102
RTVSPost2010PropOp28
 70
     1
102
RTVSPost2010Prop29
280
     1
102
RTVSPost2010PropOp29
 70
     1
102
RTVSPost2010Prop30
280
     1
102
RTVSPost2010PropOp30
 70
     1
102
RTVSPost2010Prop31
280
     0
102
RTVSPost2010PropOp31
 70
     1
102
RTVSPost2010Prop32
280
     0
102
RTVSPost2010PropOp32
 70
     1
102
RTVSPost2010Prop33
280
     0
102
RTVSPost2010PropOp33
 70
     1
102
RTVSPost2010Prop34
280
     0
102
RTVSPost2010PropOp34
 70
     1
102
RTVSPost2010Prop35
280
     0
102
RTVSPost2010PropOp35
 70
     1
102
RTVSPost2010Prop36
280
     0
102
RTVSPost2010PropOp36
 70
     1
102
RTVSPost2010Prop37
 90
       50
102
RTVSPost2010PropOp37
 70
     1
102
RTVSPost2010Prop38
140
0.0
102
RTVSPost2010PropOp38
 70
     1
102
RTVSPost2010Prop39
140
1.0
102
RTVSPost2010PropOp39
 70
     1
102
RTVSPost2010Prop40
 90
        0
102
RTVSPost2010PropOp40
 70
     1
102
RTVSPost2010Prop41ColorIndex
 90
       18
102
RTVSPost2010Prop41ColorRGB
 90
        0
102
RTVSPost2010PropOp41
 70
     1
102
RTVSPost2010Prop42
 90
       50
102
RTVSPost2010PropOp42
 70
     1
102
RTVSPost2010Prop43
 90
        3
102
RTVSPost2010PropOp43
 70
     1
102
RTVSPost2010Prop44ColorIndex
 90
        5
102
RTVSPost2010Prop44ColorRGB
 90
      255
102
RTVSPost2010PropOp44
 70
     1
102
RTVSPost2010Prop45
280
     0
102
RTVSPost2010PropOp45
 70
     1
102
RTVSPost2010Prop46
 90
       50
102
RTVSPost2010PropOp46
 70
     1
102
RTVSPost2010Prop47
 90
       50
102
RTVSPost2010PropOp47
 70
     1
102
RTVSPost2010Prop48
 90
       50
102
RTVSPost2010PropOp48
 70
     1
102
RTVSPost2010Prop49
280
     0
102
RTVSPost2010PropOp49
 70
     1
102
RTVSPost2010Prop50
 90
       50
102
RTVSPost2010PropOp50
 70
     1
102
RTVSPost2010Prop51ColorIndex
 90
      256
102
RTVSPost2010Prop51ColorRGB
 90
-16777216
102
RTVSPost2010PropOp51
 70
     0
102
RTVSPost2010Prop52
140
1.0
102
RTVSPost2010PropOp52
 70
     0
102
RTVSPost2010Prop53
 90
        2
102
RTVSPost2010PropOp53
 70
     1
102
RTVSPost2010Prop54
  1
strokes_ogs.tif
102
RTVSPost2010PropOp54
 70
     1
102
RTVSPost2010Prop55
280
     0
102
RTVSPost2010PropOp55
 70
     1
102
RTVSPost2010Prop56
140
1.0
102
RTVSPost2010PropOp56
 70
     1
102
RTVSPost2010Prop57
140
1.0
102
RTVSPost2010PropOp57
 70
     1
  0
XRECORD
  5
633F2
102
{ACAD_REACTORS
330
633F1
102
}
330
633F1
100
AcDbXrecord
280
     1
102
RTVSPropertyOp0
 70
     1
102
RTVSPropertyOp1
 70
     1
102
RTVSPropertyOp2
 70
     1
102
RTVSPropertyOp3
 70
     1
102
RTVSPropertyOp4
 70
     1
102
RTVSPropertyOp5
 70
     1
102
RTVSPropertyOp6
 70
     1
102
RTVSPropertyOp7
 70
     1
102
RTVSPropertyOp8
 70
     1
102
RTVSPropertyOp9
 70
     1
102
RTVSPropertyOp10
 70
     1
102
RTVSPropertyOp11
 70
     1
102
RTVSPropertyOp12
 70
     1
102
RTVSPropertyOp13
 70
     1
102
RTVSPropertyOp14
 70
     1
102
RTVSPropertyOp15
 70
     1
102
RTVSPropertyOp16
 70
     1
102
RTVSPropertyOp17
 70
     1
102
RTVSPropertyOp18
 70
     1
102
RTVSPropertyOp19
 70
     1
102
RTVSPropertyOp20
 70
     1
102
RTVSPropertyOp21
 70
     1
102
RTVSPropertyOp22
 70
     1
102
RTVSPropertyOp23
 70
     1
102
RTVSPropertyOp24
 70
     1
102
RTVSPropertyOp25
 70
     1
102
RTVSPropertyOp26
 70
     1
102
RTVSPropertyOp27
 70
     1
102
RTVSPropertyOp28
 70
     1
102
RTVSPropertyOp29
 70
     1
102
RTVSPropertyOp30
 70
     1
102
RTVSPropertyOp31
 70
     1
102
RTVSPropertyOp32
 70
     1
102
RTVSPropertyOp33
 70
     1
102
RTVSPropertyOp34
 70
     1
102
RTVSPropertyOp35
 70
     1
102
RTVSPropertyOp36
 70
     1
102
RTVSPropertyOp37
 70
     1
102
RTVSPropertyOp38
 70
     1
102
RTVSPropertyOp39
 70
     1
102
RTVSPropertyOp40
 70
     1
102
RTVSPropertyOp41
 70
     1
102
RTVSPropertyOp42
 70
     1
102
RTVSPropertyOp43
 70
     1
102
RTVSPropertyOp44
 70
     1
102
RTVSPropertyOp45
 70
     1
102
RTVSPropertyOp46
 70
     1
102
RTVSPropertyOp47
 70
     1
102
RTVSPropertyOp48
 70
     1
102
RTVSPropertyOp49
 70
     1
102
RTVSPropertyOp50
 70
     1
102
RTVSPropertyOp51
 70
     0
102
RTVSPropertyOp52
 70
     0
102
RTVSPropertyOp53
 70
     1
102
RTVSPropertyOp54
 70
     1
102
RTVSPropertyOp55
 70
     1
102
RTVSPropertyOp56
 70
     1
102
RTVSPropertyOp57
 70
     1
102
RTVSPost2010Prop28
280
     0
102
RTVSPost2010PropOp28
 70
     1
102
RTVSPost2010Prop29
280
     1
102
RTVSPost2010PropOp29
 70
     1
102
RTVSPost2010Prop30
280
     1
102
RTVSPost2010PropOp30
 70
     1
102
RTVSPost2010Prop31
280
     0
102
RTVSPost2010PropOp31
 70
     1
102
RTVSPost2010Prop32
280
     0
102
RTVSPost2010PropOp32
 70
     1
102
RTVSPost2010Prop33
280
     0
102
RTVSPost2010PropOp33
 70
     1
102
RTVSPost2010Prop34
280
     0
102
RTVSPost2010PropOp34
 70
     1
102
RTVSPost2010Prop35
280
     0
102
RTVSPost2010PropOp35
 70
     1
102
RTVSPost2010Prop36
280
     0
102
RTVSPost2010PropOp36
 70
     1
102
RTVSPost2010Prop37
 90
       50
102
RTVSPost2010PropOp37
 70
     1
102
RTVSPost2010Prop38
140
0.0
102
RTVSPost2010PropOp38
 70
     1
102
RTVSPost2010Prop39
140
1.0
102
RTVSPost2010PropOp39
 70
     1
102
RTVSPost2010Prop40
 90
        0
102
RTVSPost2010PropOp40
 70
     1
102
RTVSPost2010Prop41ColorIndex
 90
       18
102
RTVSPost2010Prop41ColorRGB
 90
        0
102
RTVSPost2010PropOp41
 70
     1
102
RTVSPost2010Prop42
 90
       50
102
RTVSPost2010PropOp42
 70
     1
102
RTVSPost2010Prop43
 90
        3
102
RTVSPost2010PropOp43
 70
     1
102
RTVSPost2010Prop44ColorIndex
 90
        5
102
RTVSPost2010Prop44ColorRGB
 90
      255
102
RTVSPost2010PropOp44
 70
     1
102
RTVSPost2010Prop45
280
     0
102
RTVSPost2010PropOp45
 70
     1
102
RTVSPost2010Prop46
 90
       50
102
RTVSPost2010PropOp46
 70
     1
102
RTVSPost2010Prop47
 90
       50
102
RTVSPost2010PropOp47
 70
     1
102
RTVSPost2010Prop48
 90
       50
102
RTVSPost2010PropOp48
 70
     1
102
RTVSPost2010Prop49
280
     0
102
RTVSPost2010PropOp49
 70
     1
102
RTVSPost2010Prop50
 90
       50
102
RTVSPost2010PropOp50
 70
     1
102
RTVSPost2010Prop51ColorIndex
 90
      256
102
RTVSPost2010Prop51ColorRGB
 90
-16777216
102
RTVSPost2010PropOp51
 70
     0
102
RTVSPost2010Prop52
140
1.0
102
RTVSPost2010PropOp52
 70
     0
102
RTVSPost2010Prop53
 90
        2
102
RTVSPost2010PropOp53
 70
     1
102
RTVSPost2010Prop54
  1
strokes_ogs.tif
102
RTVSPost2010PropOp54
 70
     1
102
RTVSPost2010Prop55
280
     0
102
RTVSPost2010PropOp55
 70
     1
102
RTVSPost2010Prop56
140
1.0
102
RTVSPost2010PropOp56
 70
     1
102
RTVSPost2010Prop57
140
1.0
102
RTVSPost2010PropOp57
 70
     1
  0
XRECORD
  5
633F4
102
{ACAD_REACTORS
330
633F3
102
}
330
633F3
100
AcDbXrecord
280
     1
102
RTVSPropertyOp0
 70
     1
102
RTVSPropertyOp1
 70
     1
102
RTVSPropertyOp2
 70
     1
102
RTVSPropertyOp3
 70
     1
102
RTVSPropertyOp4
 70
     1
102
RTVSPropertyOp5
 70
     1
102
RTVSPropertyOp6
 70
     1
102
RTVSPropertyOp7
 70
     1
102
RTVSPropertyOp8
 70
     1
102
RTVSPropertyOp9
 70
     1
102
RTVSPropertyOp10
 70
     1
102
RTVSPropertyOp11
 70
     1
102
RTVSPropertyOp12
 70
     1
102
RTVSPropertyOp13
 70
     1
102
RTVSPropertyOp14
 70
     1
102
RTVSPropertyOp15
 70
     1
102
RTVSPropertyOp16
 70
     1
102
RTVSPropertyOp17
 70
     1
102
RTVSPropertyOp18
 70
     1
102
RTVSPropertyOp19
 70
     1
102
RTVSPropertyOp20
 70
     1
102
RTVSPropertyOp21
 70
     1
102
RTVSPropertyOp22
 70
     1
102
RTVSPropertyOp23
 70
     1
102
RTVSPropertyOp24
 70
     1
102
RTVSPropertyOp25
 70
     1
102
RTVSPropertyOp26
 70
     1
102
RTVSPropertyOp27
 70
     1
102
RTVSPropertyOp28
 70
     1
102
RTVSPropertyOp29
 70
     1
102
RTVSPropertyOp30
 70
     1
102
RTVSPropertyOp31
 70
     1
102
RTVSPropertyOp32
 70
     1
102
RTVSPropertyOp33
 70
     1
102
RTVSPropertyOp34
 70
     1
102
RTVSPropertyOp35
 70
     1
102
RTVSPropertyOp36
 70
     1
102
RTVSPropertyOp37
 70
     1
102
RTVSPropertyOp38
 70
     1
102
RTVSPropertyOp39
 70
     1
102
RTVSPropertyOp40
 70
     1
102
RTVSPropertyOp41
 70
     1
102
RTVSPropertyOp42
 70
     1
102
RTVSPropertyOp43
 70
     1
102
RTVSPropertyOp44
 70
     1
102
RTVSPropertyOp45
 70
     1
102
RTVSPropertyOp46
 70
     1
102
RTVSPropertyOp47
 70
     1
102
RTVSPropertyOp48
 70
     1
102
RTVSPropertyOp49
 70
     1
102
RTVSPropertyOp50
 70
     1
102
RTVSPropertyOp51
 70
     0
102
RTVSPropertyOp52
 70
     0
102
RTVSPropertyOp53
 70
     1
102
RTVSPropertyOp54
 70
     1
102
RTVSPropertyOp55
 70
     1
102
RTVSPropertyOp56
 70
     1
102
RTVSPropertyOp57
 70
     1
102
RTVSPost2010Prop28
280
     0
102
RTVSPost2010PropOp28
 70
     1
102
RTVSPost2010Prop29
280
     1
102
RTVSPost2010PropOp29
 70
     1
102
RTVSPost2010Prop30
280
     1
102
RTVSPost2010PropOp30
 70
     1
102
RTVSPost2010Prop31
280
     0
102
RTVSPost2010PropOp31
 70
     1
102
RTVSPost2010Prop32
280
     0
102
RTVSPost2010PropOp32
 70
     1
102
RTVSPost2010Prop33
280
     0
102
RTVSPost2010PropOp33
 70
     1
102
RTVSPost2010Prop34
280
     0
102
RTVSPost2010PropOp34
 70
     1
102
RTVSPost2010Prop35
280
     0
102
RTVSPost2010PropOp35
 70
     1
102
RTVSPost2010Prop36
280
     0
102
RTVSPost2010PropOp36
 70
     1
102
RTVSPost2010Prop37
 90
       50
102
RTVSPost2010PropOp37
 70
     1
102
RTVSPost2010Prop38
140
0.0
102
RTVSPost2010PropOp38
 70
     1
102
RTVSPost2010Prop39
140
1.0
102
RTVSPost2010PropOp39
 70
     1
102
RTVSPost2010Prop40
 90
        0
102
RTVSPost2010PropOp40
 70
     1
102
RTVSPost2010Prop41ColorIndex
 90
       18
102
RTVSPost2010Prop41ColorRGB
 90
        0
102
RTVSPost2010PropOp41
 70
     1
102
RTVSPost2010Prop42
 90
       50
102
RTVSPost2010PropOp42
 70
     1
102
RTVSPost2010Prop43
 90
        3
102
RTVSPost2010PropOp43
 70
     1
102
RTVSPost2010Prop44ColorIndex
 90
        5
102
RTVSPost2010Prop44ColorRGB
 90
      255
102
RTVSPost2010PropOp44
 70
     1
102
RTVSPost2010Prop45
280
     0
102
RTVSPost2010PropOp45
 70
     1
102
RTVSPost2010Prop46
 90
       50
102
RTVSPost2010PropOp46
 70
     1
102
RTVSPost2010Prop47
 90
       50
102
RTVSPost2010PropOp47
 70
     1
102
RTVSPost2010Prop48
 90
       50
102
RTVSPost2010PropOp48
 70
     1
102
RTVSPost2010Prop49
280
     0
102
RTVSPost2010PropOp49
 70
     1
102
RTVSPost2010Prop50
 90
       50
102
RTVSPost2010PropOp50
 70
     1
102
RTVSPost2010Prop51ColorIndex
 90
      256
102
RTVSPost2010Prop51ColorRGB
 90
-16777216
102
RTVSPost2010PropOp51
 70
     0
102
RTVSPost2010Prop52
140
1.0
102
RTVSPost2010PropOp52
 70
     0
102
RTVSPost2010Prop53
 90
        2
102
RTVSPost2010PropOp53
 70
     1
102
RTVSPost2010Prop54
  1
strokes_ogs.tif
102
RTVSPost2010PropOp54
 70
     1
102
RTVSPost2010Prop55
280
     0
102
RTVSPost2010PropOp55
 70
     1
102
RTVSPost2010Prop56
140
1.0
102
RTVSPost2010PropOp56
 70
     1
102
RTVSPost2010Prop57
140
1.0
102
RTVSPost2010PropOp57
 70
     1
  0
XRECORD
  5
633F6
102
{ACAD_REACTORS
330
633F5
102
}
330
633F5
100
AcDbXrecord
280
     1
102
RTVSPropertyOp0
 70
     1
102
RTVSPropertyOp1
 70
     1
102
RTVSPropertyOp2
 70
     1
102
RTVSPropertyOp3
 70
     1
102
RTVSPropertyOp4
 70
     1
102
RTVSPropertyOp5
 70
     1
102
RTVSPropertyOp6
 70
     1
102
RTVSPropertyOp7
 70
     1
102
RTVSPropertyOp8
 70
     1
102
RTVSPropertyOp9
 70
     1
102
RTVSPropertyOp10
 70
     1
102
RTVSPropertyOp11
 70
     1
102
RTVSPropertyOp12
 70
     1
102
RTVSPropertyOp13
 70
     1
102
RTVSPropertyOp14
 70
     1
102
RTVSPropertyOp15
 70
     1
102
RTVSPropertyOp16
 70
     1
102
RTVSPropertyOp17
 70
     1
102
RTVSPropertyOp18
 70
     1
102
RTVSPropertyOp19
 70
     1
102
RTVSPropertyOp20
 70
     1
102
RTVSPropertyOp21
 70
     1
102
RTVSPropertyOp22
 70
     1
102
RTVSPropertyOp23
 70
     1
102
RTVSPropertyOp24
 70
     1
102
RTVSPropertyOp25
 70
     1
102
RTVSPropertyOp26
 70
     1
102
RTVSPropertyOp27
 70
     1
102
RTVSPropertyOp28
 70
     1
102
RTVSPropertyOp29
 70
     1
102
RTVSPropertyOp30
 70
     1
102
RTVSPropertyOp31
 70
     1
102
RTVSPropertyOp32
 70
     1
102
RTVSPropertyOp33
 70
     1
102
RTVSPropertyOp34
 70
     1
102
RTVSPropertyOp35
 70
     1
102
RTVSPropertyOp36
 70
     1
102
RTVSPropertyOp37
 70
     1
102
RTVSPropertyOp38
 70
     1
102
RTVSPropertyOp39
 70
     1
102
RTVSPropertyOp40
 70
     1
102
RTVSPropertyOp41
 70
     1
102
RTVSPropertyOp42
 70
     1
102
RTVSPropertyOp43
 70
     1
102
RTVSPropertyOp44
 70
     1
102
RTVSPropertyOp45
 70
     1
102
RTVSPropertyOp46
 70
     1
102
RTVSPropertyOp47
 70
     1
102
RTVSPropertyOp48
 70
     1
102
RTVSPropertyOp49
 70
     1
102
RTVSPropertyOp50
 70
     1
102
RTVSPropertyOp51
 70
     0
102
RTVSPropertyOp52
 70
     0
102
RTVSPropertyOp53
 70
     1
102
RTVSPropertyOp54
 70
     1
102
RTVSPropertyOp55
 70
     1
102
RTVSPropertyOp56
 70
     1
102
RTVSPropertyOp57
 70
     1
102
RTVSPost2010Prop28
280
     0
102
RTVSPost2010PropOp28
 70
     1
102
RTVSPost2010Prop29
280
     1
102
RTVSPost2010PropOp29
 70
     1
102
RTVSPost2010Prop30
280
     1
102
RTVSPost2010PropOp30
 70
     1
102
RTVSPost2010Prop31
280
     0
102
RTVSPost2010PropOp31
 70
     1
102
RTVSPost2010Prop32
280
     0
102
RTVSPost2010PropOp32
 70
     1
102
RTVSPost2010Prop33
280
     0
102
RTVSPost2010PropOp33
 70
     1
102
RTVSPost2010Prop34
280
     0
102
RTVSPost2010PropOp34
 70
     1
102
RTVSPost2010Prop35
280
     0
102
RTVSPost2010PropOp35
 70
     1
102
RTVSPost2010Prop36
280
     0
102
RTVSPost2010PropOp36
 70
     1
102
RTVSPost2010Prop37
 90
       50
102
RTVSPost2010PropOp37
 70
     1
102
RTVSPost2010Prop38
140
0.0
102
RTVSPost2010PropOp38
 70
     1
102
RTVSPost2010Prop39
140
1.0
102
RTVSPost2010PropOp39
 70
     1
102
RTVSPost2010Prop40
 90
        0
102
RTVSPost2010PropOp40
 70
     1
102
RTVSPost2010Prop41ColorIndex
 90
       18
102
RTVSPost2010Prop41ColorRGB
 90
        0
102
RTVSPost2010PropOp41
 70
     1
102
RTVSPost2010Prop42
 90
       50
102
RTVSPost2010PropOp42
 70
     1
102
RTVSPost2010Prop43
 90
        3
102
RTVSPost2010PropOp43
 70
     1
102
RTVSPost2010Prop44ColorIndex
 90
        5
102
RTVSPost2010Prop44ColorRGB
 90
      255
102
RTVSPost2010PropOp44
 70
     1
102
RTVSPost2010Prop45
280
     0
102
RTVSPost2010PropOp45
 70
     1
102
RTVSPost2010Prop46
 90
       50
102
RTVSPost2010PropOp46
 70
     1
102
RTVSPost2010Prop47
 90
       50
102
RTVSPost2010PropOp47
 70
     1
102
RTVSPost2010Prop48
 90
       50
102
RTVSPost2010PropOp48
 70
     1
102
RTVSPost2010Prop49
280
     0
102
RTVSPost2010PropOp49
 70
     1
102
RTVSPost2010Prop50
 90
       50
102
RTVSPost2010PropOp50
 70
     1
102
RTVSPost2010Prop51ColorIndex
 90
      256
102
RTVSPost2010Prop51ColorRGB
 90
-16777216
102
RTVSPost2010PropOp51
 70
     0
102
RTVSPost2010Prop52
140
1.0
102
RTVSPost2010PropOp52
 70
     0
102
RTVSPost2010Prop53
 90
        2
102
RTVSPost2010PropOp53
 70
     1
102
RTVSPost2010Prop54
  1
strokes_ogs.tif
102
RTVSPost2010PropOp54
 70
     1
102
RTVSPost2010Prop55
280
     0
102
RTVSPost2010PropOp55
 70
     1
102
RTVSPost2010Prop56
140
1.0
102
RTVSPost2010PropOp56
 70
     1
102
RTVSPost2010Prop57
140
1.0
102
RTVSPost2010PropOp57
 70
     1
  0
XRECORD
  5
633F8
102
{ACAD_REACTORS
330
633F7
102
}
330
633F7
100
AcDbXrecord
280
     1
102
RTVSPropertyOp0
 70
     1
102
RTVSPropertyOp1
 70
     1
102
RTVSPropertyOp2
 70
     1
102
RTVSPropertyOp3
 70
     1
102
RTVSPropertyOp4
 70
     1
102
RTVSPropertyOp5
 70
     1
102
RTVSPropertyOp6
 70
     1
102
RTVSPropertyOp7
 70
     1
102
RTVSPropertyOp8
 70
     1
102
RTVSPropertyOp9
 70
     1
102
RTVSPropertyOp10
 70
     1
102
RTVSPropertyOp11
 70
     1
102
RTVSPropertyOp12
 70
     1
102
RTVSPropertyOp13
 70
     1
102
RTVSPropertyOp14
 70
     1
102
RTVSPropertyOp15
 70
     1
102
RTVSPropertyOp16
 70
     1
102
RTVSPropertyOp17
 70
     1
102
RTVSPropertyOp18
 70
     1
102
RTVSPropertyOp19
 70
     1
102
RTVSPropertyOp20
 70
     1
102
RTVSPropertyOp21
 70
     1
102
RTVSPropertyOp22
 70
     1
102
RTVSPropertyOp23
 70
     1
102
RTVSPropertyOp24
 70
     1
102
RTVSPropertyOp25
 70
     1
102
RTVSPropertyOp26
 70
     1
102
RTVSPropertyOp27
 70
     1
102
RTVSPropertyOp28
 70
     1
102
RTVSPropertyOp29
 70
     1
102
RTVSPropertyOp30
 70
     1
102
RTVSPropertyOp31
 70
     1
102
RTVSPropertyOp32
 70
     1
102
RTVSPropertyOp33
 70
     1
102
RTVSPropertyOp34
 70
     1
102
RTVSPropertyOp35
 70
     1
102
RTVSPropertyOp36
 70
     1
102
RTVSPropertyOp37
 70
     1
102
RTVSPropertyOp38
 70
     1
102
RTVSPropertyOp39
 70
     1
102
RTVSPropertyOp40
 70
     1
102
RTVSPropertyOp41
 70
     1
102
RTVSPropertyOp42
 70
     1
102
RTVSPropertyOp43
 70
     1
102
RTVSPropertyOp44
 70
     1
102
RTVSPropertyOp45
 70
     1
102
RTVSPropertyOp46
 70
     1
102
RTVSPropertyOp47
 70
     1
102
RTVSPropertyOp48
 70
     1
102
RTVSPropertyOp49
 70
     1
102
RTVSPropertyOp50
 70
     1
102
RTVSPropertyOp51
 70
     0
102
RTVSPropertyOp52
 70
     0
102
RTVSPropertyOp53
 70
     1
102
RTVSPropertyOp54
 70
     1
102
RTVSPropertyOp55
 70
     1
102
RTVSPropertyOp56
 70
     1
102
RTVSPropertyOp57
 70
     1
102
RTVSPost2010Prop28
280
     0
102
RTVSPost2010PropOp28
 70
     1
102
RTVSPost2010Prop29
280
     1
102
RTVSPost2010PropOp29
 70
     1
102
RTVSPost2010Prop30
280
     1
102
RTVSPost2010PropOp30
 70
     1
102
RTVSPost2010Prop31
280
     0
102
RTVSPost2010PropOp31
 70
     1
102
RTVSPost2010Prop32
280
     0
102
RTVSPost2010PropOp32
 70
     1
102
RTVSPost2010Prop33
280
     0
102
RTVSPost2010PropOp33
 70
     1
102
RTVSPost2010Prop34
280
     0
102
RTVSPost2010PropOp34
 70
     1
102
RTVSPost2010Prop35
280
     0
102
RTVSPost2010PropOp35
 70
     1
102
RTVSPost2010Prop36
280
     0
102
RTVSPost2010PropOp36
 70
     1
102
RTVSPost2010Prop37
 90
       50
102
RTVSPost2010PropOp37
 70
     1
102
RTVSPost2010Prop38
140
0.0
102
RTVSPost2010PropOp38
 70
     1
102
RTVSPost2010Prop39
140
1.0
102
RTVSPost2010PropOp39
 70
     1
102
RTVSPost2010Prop40
 90
        0
102
RTVSPost2010PropOp40
 70
     1
102
RTVSPost2010Prop41ColorIndex
 90
       18
102
RTVSPost2010Prop41ColorRGB
 90
        0
102
RTVSPost2010PropOp41
 70
     1
102
RTVSPost2010Prop42
 90
       50
102
RTVSPost2010PropOp42
 70
     1
102
RTVSPost2010Prop43
 90
        3
102
RTVSPost2010PropOp43
 70
     1
102
RTVSPost2010Prop44ColorIndex
 90
        5
102
RTVSPost2010Prop44ColorRGB
 90
      255
102
RTVSPost2010PropOp44
 70
     1
102
RTVSPost2010Prop45
280
     0
102
RTVSPost2010PropOp45
 70
     1
102
RTVSPost2010Prop46
 90
       50
102
RTVSPost2010PropOp46
 70
     1
102
RTVSPost2010Prop47
 90
       50
102
RTVSPost2010PropOp47
 70
     1
102
RTVSPost2010Prop48
 90
       50
102
RTVSPost2010PropOp48
 70
     1
102
RTVSPost2010Prop49
280
     0
102
RTVSPost2010PropOp49
 70
     1
102
RTVSPost2010Prop50
 90
       50
102
RTVSPost2010PropOp50
 70
     1
102
RTVSPost2010Prop51ColorIndex
 90
      256
102
RTVSPost2010Prop51ColorRGB
 90
-16777216
102
RTVSPost2010PropOp51
 70
     0
102
RTVSPost2010Prop52
140
1.0
102
RTVSPost2010PropOp52
 70
     0
102
RTVSPost2010Prop53
 90
        2
102
RTVSPost2010PropOp53
 70
     1
102
RTVSPost2010Prop54
  1
strokes_ogs.tif
102
RTVSPost2010PropOp54
 70
     1
102
RTVSPost2010Prop55
280
     0
102
RTVSPost2010PropOp55
 70
     1
102
RTVSPost2010Prop56
140
1.0
102
RTVSPost2010PropOp56
 70
     1
102
RTVSPost2010Prop57
140
1.0
102
RTVSPost2010PropOp57
 70
     1
  0
XRECORD
  5
633FA
102
{ACAD_REACTORS
330
633F9
102
}
330
633F9
100
AcDbXrecord
280
     1
102
RTVSPropertyOp0
 70
     0
102
RTVSPropertyOp1
 70
     0
102
RTVSPropertyOp2
 70
     0
102
RTVSPropertyOp3
 70
     0
102
RTVSPropertyOp4
 70
     0
102
RTVSPropertyOp5
 70
     0
102
RTVSPropertyOp6
 70
     0
102
RTVSPropertyOp7
 70
     0
102
RTVSPropertyOp8
 70
     0
102
RTVSPropertyOp9
 70
     0
102
RTVSPropertyOp10
 70
     0
102
RTVSPropertyOp11
 70
     0
102
RTVSPropertyOp12
 70
     0
102
RTVSPropertyOp13
 70
     0
102
RTVSPropertyOp14
 70
     2
102
RTVSPropertyOp15
 70
     0
102
RTVSPropertyOp16
 70
     0
102
RTVSPropertyOp17
 70
     0
102
RTVSPropertyOp18
 70
     0
102
RTVSPropertyOp19
 70
     0
102
RTVSPropertyOp20
 70
     0
102
RTVSPropertyOp21
 70
     0
102
RTVSPropertyOp22
 70
     0
102
RTVSPropertyOp23
 70
     0
102
RTVSPropertyOp24
 70
     0
102
RTVSPropertyOp25
 70
     0
102
RTVSPropertyOp26
 70
     0
102
RTVSPropertyOp27
 70
     0
102
RTVSPropertyOp28
 70
     1
102
RTVSPropertyOp29
 70
     1
102
RTVSPropertyOp30
 70
     1
102
RTVSPropertyOp31
 70
     1
102
RTVSPropertyOp32
 70
     1
102
RTVSPropertyOp33
 70
     1
102
RTVSPropertyOp34
 70
     1
102
RTVSPropertyOp35
 70
     1
102
RTVSPropertyOp36
 70
     1
102
RTVSPropertyOp37
 70
     1
102
RTVSPropertyOp38
 70
     1
102
RTVSPropertyOp39
 70
     1
102
RTVSPropertyOp40
 70
     1
102
RTVSPropertyOp41
 70
     1
102
RTVSPropertyOp42
 70
     1
102
RTVSPropertyOp43
 70
     1
102
RTVSPropertyOp44
 70
     1
102
RTVSPropertyOp45
 70
     1
102
RTVSPropertyOp46
 70
     1
102
RTVSPropertyOp47
 70
     1
102
RTVSPropertyOp48
 70
     1
102
RTVSPropertyOp49
 70
     1
102
RTVSPropertyOp50
 70
     1
102
RTVSPropertyOp51
 70
     0
102
RTVSPropertyOp52
 70
     0
102
RTVSPropertyOp53
 70
     1
102
RTVSPropertyOp54
 70
     1
102
RTVSPropertyOp55
 70
     1
102
RTVSPropertyOp56
 70
     1
102
RTVSPropertyOp57
 70
     1
102
RTVSPost2010Prop28
280
     0
102
RTVSPost2010PropOp28
 70
     1
102
RTVSPost2010Prop29
280
     1
102
RTVSPost2010PropOp29
 70
     1
102
RTVSPost2010Prop30
280
     1
102
RTVSPost2010PropOp30
 70
     1
102
RTVSPost2010Prop31
280
     0
102
RTVSPost2010PropOp31
 70
     1
102
RTVSPost2010Prop32
280
     0
102
RTVSPost2010PropOp32
 70
     1
102
RTVSPost2010Prop33
280
     0
102
RTVSPost2010PropOp33
 70
     1
102
RTVSPost2010Prop34
280
     0
102
RTVSPost2010PropOp34
 70
     1
102
RTVSPost2010Prop35
280
     0
102
RTVSPost2010PropOp35
 70
     1
102
RTVSPost2010Prop36
280
     0
102
RTVSPost2010PropOp36
 70
     1
102
RTVSPost2010Prop37
 90
       50
102
RTVSPost2010PropOp37
 70
     1
102
RTVSPost2010Prop38
140
0.0
102
RTVSPost2010PropOp38
 70
     1
102
RTVSPost2010Prop39
140
1.0
102
RTVSPost2010PropOp39
 70
     1
102
RTVSPost2010Prop40
 90
        0
102
RTVSPost2010PropOp40
 70
     1
102
RTVSPost2010Prop41ColorIndex
 90
       18
102
RTVSPost2010Prop41ColorRGB
 90
        0
102
RTVSPost2010PropOp41
 70
     1
102
RTVSPost2010Prop42
 90
       50
102
RTVSPost2010PropOp42
 70
     1
102
RTVSPost2010Prop43
 90
        3
102
RTVSPost2010PropOp43
 70
     1
102
RTVSPost2010Prop44ColorIndex
 90
        5
102
RTVSPost2010Prop44ColorRGB
 90
      255
102
RTVSPost2010PropOp44
 70
     1
102
RTVSPost2010Prop45
280
     0
102
RTVSPost2010PropOp45
 70
     1
102
RTVSPost2010Prop46
 90
       50
102
RTVSPost2010PropOp46
 70
     1
102
RTVSPost2010Prop47
 90
       50
102
RTVSPost2010PropOp47
 70
     1
102
RTVSPost2010Prop48
 90
       50
102
RTVSPost2010PropOp48
 70
     1
102
RTVSPost2010Prop49
280
     0
102
RTVSPost2010PropOp49
 70
     1
102
RTVSPost2010Prop50
 90
       50
102
RTVSPost2010PropOp50
 70
     1
102
RTVSPost2010Prop51ColorIndex
 90
      256
102
RTVSPost2010Prop51ColorRGB
 90
-16777216
102
RTVSPost2010PropOp51
 70
     0
102
RTVSPost2010Prop52
140
1.0
102
RTVSPost2010PropOp52
 70
     0
102
RTVSPost2010Prop53
 90
        2
102
RTVSPost2010PropOp53
 70
     1
102
RTVSPost2010Prop54
  1
strokes_ogs.tif
102
RTVSPost2010PropOp54
 70
     1
102
RTVSPost2010Prop55
280
     0
102
RTVSPost2010PropOp55
 70
     1
102
RTVSPost2010Prop56
140
1.0
102
RTVSPost2010PropOp56
 70
     1
102
RTVSPost2010Prop57
140
1.0
102
RTVSPost2010PropOp57
 70
     1
  0
XRECORD
  5
633FC
102
{ACAD_REACTORS
330
633FB
102
}
330
633FB
100
AcDbXrecord
280
     1
102
RTVSPropertyOp0
 70
     1
102
RTVSPropertyOp1
 70
     1
102
RTVSPropertyOp2
 70
     1
102
RTVSPropertyOp3
 70
     1
102
RTVSPropertyOp4
 70
     1
102
RTVSPropertyOp5
 70
     1
102
RTVSPropertyOp6
 70
     1
102
RTVSPropertyOp7
 70
     1
102
RTVSPropertyOp8
 70
     1
102
RTVSPropertyOp9
 70
     1
102
RTVSPropertyOp10
 70
     1
102
RTVSPropertyOp11
 70
     1
102
RTVSPropertyOp12
 70
     1
102
RTVSPropertyOp13
 70
     1
102
RTVSPropertyOp14
 70
     1
102
RTVSPropertyOp15
 70
     1
102
RTVSPropertyOp16
 70
     1
102
RTVSPropertyOp17
 70
     1
102
RTVSPropertyOp18
 70
     1
102
RTVSPropertyOp19
 70
     1
102
RTVSPropertyOp20
 70
     1
102
RTVSPropertyOp21
 70
     1
102
RTVSPropertyOp22
 70
     1
102
RTVSPropertyOp23
 70
     1
102
RTVSPropertyOp24
 70
     1
102
RTVSPropertyOp25
 70
     1
102
RTVSPropertyOp26
 70
     1
102
RTVSPropertyOp27
 70
     1
102
RTVSPropertyOp28
 70
     1
102
RTVSPropertyOp29
 70
     1
102
RTVSPropertyOp30
 70
     1
102
RTVSPropertyOp31
 70
     1
102
RTVSPropertyOp32
 70
     1
102
RTVSPropertyOp33
 70
     1
102
RTVSPropertyOp34
 70
     1
102
RTVSPropertyOp35
 70
     1
102
RTVSPropertyOp36
 70
     1
102
RTVSPropertyOp37
 70
     1
102
RTVSPropertyOp38
 70
     1
102
RTVSPropertyOp39
 70
     1
102
RTVSPropertyOp40
 70
     1
102
RTVSPropertyOp41
 70
     1
102
RTVSPropertyOp42
 70
     1
102
RTVSPropertyOp43
 70
     1
102
RTVSPropertyOp44
 70
     1
102
RTVSPropertyOp45
 70
     1
102
RTVSPropertyOp46
 70
     1
102
RTVSPropertyOp47
 70
     1
102
RTVSPropertyOp48
 70
     1
102
RTVSPropertyOp49
 70
     1
102
RTVSPropertyOp50
 70
     1
102
RTVSPropertyOp51
 70
     0
102
RTVSPropertyOp52
 70
     0
102
RTVSPropertyOp53
 70
     1
102
RTVSPropertyOp54
 70
     1
102
RTVSPropertyOp55
 70
     1
102
RTVSPropertyOp56
 70
     1
102
RTVSPropertyOp57
 70
     1
102
RTVSPost2010Prop28
280
     0
102
RTVSPost2010PropOp28
 70
     1
102
RTVSPost2010Prop29
280
     1
102
RTVSPost2010PropOp29
 70
     1
102
RTVSPost2010Prop30
280
     1
102
RTVSPost2010PropOp30
 70
     1
102
RTVSPost2010Prop31
280
     0
102
RTVSPost2010PropOp31
 70
     1
102
RTVSPost2010Prop32
280
     0
102
RTVSPost2010PropOp32
 70
     1
102
RTVSPost2010Prop33
280
     0
102
RTVSPost2010PropOp33
 70
     1
102
RTVSPost2010Prop34
280
     0
102
RTVSPost2010PropOp34
 70
     1
102
RTVSPost2010Prop35
280
     0
102
RTVSPost2010PropOp35
 70
     1
102
RTVSPost2010Prop36
280
     0
102
RTVSPost2010PropOp36
 70
     1
102
RTVSPost2010Prop37
 90
       50
102
RTVSPost2010PropOp37
 70
     1
102
RTVSPost2010Prop38
140
0.0
102
RTVSPost2010PropOp38
 70
     1
102
RTVSPost2010Prop39
140
1.0
102
RTVSPost2010PropOp39
 70
     1
102
RTVSPost2010Prop40
 90
        0
102
RTVSPost2010PropOp40
 70
     1
102
RTVSPost2010Prop41ColorIndex
 90
       18
102
RTVSPost2010Prop41ColorRGB
 90
        0
102
RTVSPost2010PropOp41
 70
     1
102
RTVSPost2010Prop42
 90
       50
102
RTVSPost2010PropOp42
 70
     1
102
RTVSPost2010Prop43
 90
        3
102
RTVSPost2010PropOp43
 70
     1
102
RTVSPost2010Prop44ColorIndex
 90
        5
102
RTVSPost2010Prop44ColorRGB
 90
      255
102
RTVSPost2010PropOp44
 70
     1
102
RTVSPost2010Prop45
280
     0
102
RTVSPost2010PropOp45
 70
     1
102
RTVSPost2010Prop46
 90
       50
102
RTVSPost2010PropOp46
 70
     1
102
RTVSPost2010Prop47
 90
       50
102
RTVSPost2010PropOp47
 70
     1
102
RTVSPost2010Prop48
 90
       50
102
RTVSPost2010PropOp48
 70
     1
102
RTVSPost2010Prop49
280
     0
102
RTVSPost2010PropOp49
 70
     1
102
RTVSPost2010Prop50
 90
       50
102
RTVSPost2010PropOp50
 70
     1
102
RTVSPost2010Prop51ColorIndex
 90
      256
102
RTVSPost2010Prop51ColorRGB
 90
-16777216
102
RTVSPost2010PropOp51
 70
     0
102
RTVSPost2010Prop52
140
1.0
102
RTVSPost2010PropOp52
 70
     0
102
RTVSPost2010Prop53
 90
        2
102
RTVSPost2010PropOp53
 70
     1
102
RTVSPost2010Prop54
  1
strokes_ogs.tif
102
RTVSPost2010PropOp54
 70
     1
102
RTVSPost2010Prop55
280
     0
102
RTVSPost2010PropOp55
 70
     1
102
RTVSPost2010Prop56
140
1.0
102
RTVSPost2010PropOp56
 70
     1
102
RTVSPost2010Prop57
140
1.0
102
RTVSPost2010PropOp57
 70
     1
  0
XRECORD
  5
633FE
102
{ACAD_REACTORS
330
633FD
102
}
330
633FD
100
AcDbXrecord
280
     1
102
RTVSPropertyOp0
 70
     0
102
RTVSPropertyOp1
 70
     0
102
RTVSPropertyOp2
 70
     0
102
RTVSPropertyOp3
 70
     0
102
RTVSPropertyOp4
 70
     0
102
RTVSPropertyOp5
 70
     0
102
RTVSPropertyOp6
 70
     0
102
RTVSPropertyOp7
 70
     0
102
RTVSPropertyOp8
 70
     0
102
RTVSPropertyOp9
 70
     0
102
RTVSPropertyOp10
 70
     0
102
RTVSPropertyOp11
 70
     0
102
RTVSPropertyOp12
 70
     0
102
RTVSPropertyOp13
 70
     0
102
RTVSPropertyOp14
 70
     2
102
RTVSPropertyOp15
 70
     0
102
RTVSPropertyOp16
 70
     0
102
RTVSPropertyOp17
 70
     0
102
RTVSPropertyOp18
 70
     0
102
RTVSPropertyOp19
 70
     0
102
RTVSPropertyOp20
 70
     0
102
RTVSPropertyOp21
 70
     0
102
RTVSPropertyOp22
 70
     0
102
RTVSPropertyOp23
 70
     0
102
RTVSPropertyOp24
 70
     0
102
RTVSPropertyOp25
 70
     0
102
RTVSPropertyOp26
 70
     0
102
RTVSPropertyOp27
 70
     0
102
RTVSPropertyOp28
 70
     1
102
RTVSPropertyOp29
 70
     1
102
RTVSPropertyOp30
 70
     1
102
RTVSPropertyOp31
 70
     1
102
RTVSPropertyOp32
 70
     1
102
RTVSPropertyOp33
 70
     1
102
RTVSPropertyOp34
 70
     1
102
RTVSPropertyOp35
 70
     1
102
RTVSPropertyOp36
 70
     1
102
RTVSPropertyOp37
 70
     1
102
RTVSPropertyOp38
 70
     1
102
RTVSPropertyOp39
 70
     1
102
RTVSPropertyOp40
 70
     1
102
RTVSPropertyOp41
 70
     1
102
RTVSPropertyOp42
 70
     1
102
RTVSPropertyOp43
 70
     1
102
RTVSPropertyOp44
 70
     1
102
RTVSPropertyOp45
 70
     1
102
RTVSPropertyOp46
 70
     1
102
RTVSPropertyOp47
 70
     1
102
RTVSPropertyOp48
 70
     1
102
RTVSPropertyOp49
 70
     1
102
RTVSPropertyOp50
 70
     1
102
RTVSPropertyOp51
 70
     0
102
RTVSPropertyOp52
 70
     0
102
RTVSPropertyOp53
 70
     1
102
RTVSPropertyOp54
 70
     1
102
RTVSPropertyOp55
 70
     1
102
RTVSPropertyOp56
 70
     1
102
RTVSPropertyOp57
 70
     1
102
RTVSPost2010Prop28
280
     0
102
RTVSPost2010PropOp28
 70
     1
102
RTVSPost2010Prop29
280
     1
102
RTVSPost2010PropOp29
 70
     1
102
RTVSPost2010Prop30
280
     1
102
RTVSPost2010PropOp30
 70
     1
102
RTVSPost2010Prop31
280
     0
102
RTVSPost2010PropOp31
 70
     1
102
RTVSPost2010Prop32
280
     0
102
RTVSPost2010PropOp32
 70
     1
102
RTVSPost2010Prop33
280
     0
102
RTVSPost2010PropOp33
 70
     1
102
RTVSPost2010Prop34
280
     0
102
RTVSPost2010PropOp34
 70
     1
102
RTVSPost2010Prop35
280
     0
102
RTVSPost2010PropOp35
 70
     1
102
RTVSPost2010Prop36
280
     0
102
RTVSPost2010PropOp36
 70
     1
102
RTVSPost2010Prop37
 90
       50
102
RTVSPost2010PropOp37
 70
     1
102
RTVSPost2010Prop38
140
0.0
102
RTVSPost2010PropOp38
 70
     1
102
RTVSPost2010Prop39
140
1.0
102
RTVSPost2010PropOp39
 70
     1
102
RTVSPost2010Prop40
 90
        0
102
RTVSPost2010PropOp40
 70
     1
102
RTVSPost2010Prop41ColorIndex
 90
       18
102
RTVSPost2010Prop41ColorRGB
 90
        0
102
RTVSPost2010PropOp41
 70
     1
102
RTVSPost2010Prop42
 90
       50
102
RTVSPost2010PropOp42
 70
     1
102
RTVSPost2010Prop43
 90
        3
102
RTVSPost2010PropOp43
 70
     1
102
RTVSPost2010Prop44ColorIndex
 90
        5
102
RTVSPost2010Prop44ColorRGB
 90
      255
102
RTVSPost2010PropOp44
 70
     1
102
RTVSPost2010Prop45
280
     0
102
RTVSPost2010PropOp45
 70
     1
102
RTVSPost2010Prop46
 90
       50
102
RTVSPost2010PropOp46
 70
     1
102
RTVSPost2010Prop47
 90
       50
102
RTVSPost2010PropOp47
 70
     1
102
RTVSPost2010Prop48
 90
       50
102
RTVSPost2010PropOp48
 70
     1
102
RTVSPost2010Prop49
280
     0
102
RTVSPost2010PropOp49
 70
     1
102
RTVSPost2010Prop50
 90
       50
102
RTVSPost2010PropOp50
 70
     1
102
RTVSPost2010Prop51ColorIndex
 90
      256
102
RTVSPost2010Prop51ColorRGB
 90
-16777216
102
RTVSPost2010PropOp51
 70
     0
102
RTVSPost2010Prop52
140
1.0
102
RTVSPost2010PropOp52
 70
     0
102
RTVSPost2010Prop53
 90
        2
102
RTVSPost2010PropOp53
 70
     1
102
RTVSPost2010Prop54
  1
strokes_ogs.tif
102
RTVSPost2010PropOp54
 70
     1
102
RTVSPost2010Prop55
280
     0
102
RTVSPost2010PropOp55
 70
     1
102
RTVSPost2010Prop56
140
1.0
102
RTVSPost2010PropOp56
 70
     1
102
RTVSPost2010Prop57
140
1.0
102
RTVSPost2010PropOp57
 70
     1
  0
XRECORD
  5
63400
102
{ACAD_REACTORS
330
633FF
102
}
330
633FF
100
AcDbXrecord
280
     1
102
RTVSPropertyOp0
 70
     1
102
RTVSPropertyOp1
 70
     1
102
RTVSPropertyOp2
 70
     1
102
RTVSPropertyOp3
 70
     1
102
RTVSPropertyOp4
 70
     1
102
RTVSPropertyOp5
 70
     1
102
RTVSPropertyOp6
 70
     1
102
RTVSPropertyOp7
 70
     1
102
RTVSPropertyOp8
 70
     1
102
RTVSPropertyOp9
 70
     1
102
RTVSPropertyOp10
 70
     1
102
RTVSPropertyOp11
 70
     1
102
RTVSPropertyOp12
 70
     1
102
RTVSPropertyOp13
 70
     1
102
RTVSPropertyOp14
 70
     1
102
RTVSPropertyOp15
 70
     1
102
RTVSPropertyOp16
 70
     1
102
RTVSPropertyOp17
 70
     1
102
RTVSPropertyOp18
 70
     1
102
RTVSPropertyOp19
 70
     1
102
RTVSPropertyOp20
 70
     1
102
RTVSPropertyOp21
 70
     1
102
RTVSPropertyOp22
 70
     1
102
RTVSPropertyOp23
 70
     1
102
RTVSPropertyOp24
 70
     1
102
RTVSPropertyOp25
 70
     1
102
RTVSPropertyOp26
 70
     1
102
RTVSPropertyOp27
 70
     1
102
RTVSPropertyOp28
 70
     1
102
RTVSPropertyOp29
 70
     1
102
RTVSPropertyOp30
 70
     1
102
RTVSPropertyOp31
 70
     1
102
RTVSPropertyOp32
 70
     1
102
RTVSPropertyOp33
 70
     1
102
RTVSPropertyOp34
 70
     1
102
RTVSPropertyOp35
 70
     1
102
RTVSPropertyOp36
 70
     1
102
RTVSPropertyOp37
 70
     1
102
RTVSPropertyOp38
 70
     1
102
RTVSPropertyOp39
 70
     1
102
RTVSPropertyOp40
 70
     1
102
RTVSPropertyOp41
 70
     1
102
RTVSPropertyOp42
 70
     1
102
RTVSPropertyOp43
 70
     1
102
RTVSPropertyOp44
 70
     1
102
RTVSPropertyOp45
 70
     1
102
RTVSPropertyOp46
 70
     1
102
RTVSPropertyOp47
 70
     1
102
RTVSPropertyOp48
 70
     1
102
RTVSPropertyOp49
 70
     1
102
RTVSPropertyOp50
 70
     1
102
RTVSPropertyOp51
 70
     0
102
RTVSPropertyOp52
 70
     0
102
RTVSPropertyOp53
 70
     1
102
RTVSPropertyOp54
 70
     1
102
RTVSPropertyOp55
 70
     1
102
RTVSPropertyOp56
 70
     1
102
RTVSPropertyOp57
 70
     1
102
RTVSPost2010Prop28
280
     0
102
RTVSPost2010PropOp28
 70
     1
102
RTVSPost2010Prop29
280
     1
102
RTVSPost2010PropOp29
 70
     1
102
RTVSPost2010Prop30
280
     1
102
RTVSPost2010PropOp30
 70
     1
102
RTVSPost2010Prop31
280
     0
102
RTVSPost2010PropOp31
 70
     1
102
RTVSPost2010Prop32
280
     0
102
RTVSPost2010PropOp32
 70
     1
102
RTVSPost2010Prop33
280
     0
102
RTVSPost2010PropOp33
 70
     1
102
RTVSPost2010Prop34
280
     0
102
RTVSPost2010PropOp34
 70
     1
102
RTVSPost2010Prop35
280
     0
102
RTVSPost2010PropOp35
 70
     1
102
RTVSPost2010Prop36
280
     0
102
RTVSPost2010PropOp36
 70
     1
102
RTVSPost2010Prop37
 90
       50
102
RTVSPost2010PropOp37
 70
     1
102
RTVSPost2010Prop38
140
0.0
102
RTVSPost2010PropOp38
 70
     1
102
RTVSPost2010Prop39
140
1.0
102
RTVSPost2010PropOp39
 70
     1
102
RTVSPost2010Prop40
 90
        0
102
RTVSPost2010PropOp40
 70
     1
102
RTVSPost2010Prop41ColorIndex
 90
       18
102
RTVSPost2010Prop41ColorRGB
 90
        0
102
RTVSPost2010PropOp41
 70
     1
102
RTVSPost2010Prop42
 90
       50
102
RTVSPost2010PropOp42
 70
     1
102
RTVSPost2010Prop43
 90
        3
102
RTVSPost2010PropOp43
 70
     1
102
RTVSPost2010Prop44ColorIndex
 90
        5
102
RTVSPost2010Prop44ColorRGB
 90
      255
102
RTVSPost2010PropOp44
 70
     1
102
RTVSPost2010Prop45
280
     0
102
RTVSPost2010PropOp45
 70
     1
102
RTVSPost2010Prop46
 90
       50
102
RTVSPost2010PropOp46
 70
     1
102
RTVSPost2010Prop47
 90
       50
102
RTVSPost2010PropOp47
 70
     1
102
RTVSPost2010Prop48
 90
       50
102
RTVSPost2010PropOp48
 70
     1
102
RTVSPost2010Prop49
280
     0
102
RTVSPost2010PropOp49
 70
     1
102
RTVSPost2010Prop50
 90
       50
102
RTVSPost2010PropOp50
 70
     1
102
RTVSPost2010Prop51ColorIndex
 90
      256
102
RTVSPost2010Prop51ColorRGB
 90
-16777216
102
RTVSPost2010PropOp51
 70
     0
102
RTVSPost2010Prop52
140
1.0
102
RTVSPost2010PropOp52
 70
     0
102
RTVSPost2010Prop53
 90
        2
102
RTVSPost2010PropOp53
 70
     1
102
RTVSPost2010Prop54
  1
strokes_ogs.tif
102
RTVSPost2010PropOp54
 70
     1
102
RTVSPost2010Prop55
280
     0
102
RTVSPost2010PropOp55
 70
     1
102
RTVSPost2010Prop56
140
1.0
102
RTVSPost2010PropOp56
 70
     1
102
RTVSPost2010Prop57
140
1.0
102
RTVSPost2010PropOp57
 70
     1
  0
XRECORD
  5
63402
102
{ACAD_REACTORS
330
63401
102
}
330
63401
100
AcDbXrecord
280
     1
102
RTVSPropertyOp0
 70
     1
102
RTVSPropertyOp1
 70
     1
102
RTVSPropertyOp2
 70
     1
102
RTVSPropertyOp3
 70
     1
102
RTVSPropertyOp4
 70
     1
102
RTVSPropertyOp5
 70
     1
102
RTVSPropertyOp6
 70
     1
102
RTVSPropertyOp7
 70
     1
102
RTVSPropertyOp8
 70
     1
102
RTVSPropertyOp9
 70
     1
102
RTVSPropertyOp10
 70
     1
102
RTVSPropertyOp11
 70
     1
102
RTVSPropertyOp12
 70
     1
102
RTVSPropertyOp13
 70
     1
102
RTVSPropertyOp14
 70
     1
102
RTVSPropertyOp15
 70
     1
102
RTVSPropertyOp16
 70
     1
102
RTVSPropertyOp17
 70
     1
102
RTVSPropertyOp18
 70
     1
102
RTVSPropertyOp19
 70
     1
102
RTVSPropertyOp20
 70
     1
102
RTVSPropertyOp21
 70
     1
102
RTVSPropertyOp22
 70
     1
102
RTVSPropertyOp23
 70
     1
102
RTVSPropertyOp24
 70
     1
102
RTVSPropertyOp25
 70
     1
102
RTVSPropertyOp26
 70
     1
102
RTVSPropertyOp27
 70
     1
102
RTVSPropertyOp28
 70
     1
102
RTVSPropertyOp29
 70
     1
102
RTVSPropertyOp30
 70
     1
102
RTVSPropertyOp31
 70
     1
102
RTVSPropertyOp32
 70
     1
102
RTVSPropertyOp33
 70
     1
102
RTVSPropertyOp34
 70
     1
102
RTVSPropertyOp35
 70
     1
102
RTVSPropertyOp36
 70
     1
102
RTVSPropertyOp37
 70
     1
102
RTVSPropertyOp38
 70
     1
102
RTVSPropertyOp39
 70
     1
102
RTVSPropertyOp40
 70
     1
102
RTVSPropertyOp41
 70
     1
102
RTVSPropertyOp42
 70
     1
102
RTVSPropertyOp43
 70
     1
102
RTVSPropertyOp44
 70
     1
102
RTVSPropertyOp45
 70
     1
102
RTVSPropertyOp46
 70
     1
102
RTVSPropertyOp47
 70
     1
102
RTVSPropertyOp48
 70
     1
102
RTVSPropertyOp49
 70
     1
102
RTVSPropertyOp50
 70
     1
102
RTVSPropertyOp51
 70
     0
102
RTVSPropertyOp52
 70
     0
102
RTVSPropertyOp53
 70
     1
102
RTVSPropertyOp54
 70
     1
102
RTVSPropertyOp55
 70
     1
102
RTVSPropertyOp56
 70
     1
102
RTVSPropertyOp57
 70
     1
102
RTVSPost2010Prop28
280
     0
102
RTVSPost2010PropOp28
 70
     1
102
RTVSPost2010Prop29
280
     1
102
RTVSPost2010PropOp29
 70
     1
102
RTVSPost2010Prop30
280
     1
102
RTVSPost2010PropOp30
 70
     1
102
RTVSPost2010Prop31
280
     0
102
RTVSPost2010PropOp31
 70
     1
102
RTVSPost2010Prop32
280
     0
102
RTVSPost2010PropOp32
 70
     1
102
RTVSPost2010Prop33
280
     0
102
RTVSPost2010PropOp33
 70
     1
102
RTVSPost2010Prop34
280
     0
102
RTVSPost2010PropOp34
 70
     1
102
RTVSPost2010Prop35
280
     0
102
RTVSPost2010PropOp35
 70
     1
102
RTVSPost2010Prop36
280
     0
102
RTVSPost2010PropOp36
 70
     1
102
RTVSPost2010Prop37
 90
       50
102
RTVSPost2010PropOp37
 70
     1
102
RTVSPost2010Prop38
140
0.0
102
RTVSPost2010PropOp38
 70
     1
102
RTVSPost2010Prop39
140
1.0
102
RTVSPost2010PropOp39
 70
     1
102
RTVSPost2010Prop40
 90
        0
102
RTVSPost2010PropOp40
 70
     1
102
RTVSPost2010Prop41ColorIndex
 90
       18
102
RTVSPost2010Prop41ColorRGB
 90
        0
102
RTVSPost2010PropOp41
 70
     1
102
RTVSPost2010Prop42
 90
       50
102
RTVSPost2010PropOp42
 70
     1
102
RTVSPost2010Prop43
 90
        3
102
RTVSPost2010PropOp43
 70
     1
102
RTVSPost2010Prop44ColorIndex
 90
        5
102
RTVSPost2010Prop44ColorRGB
 90
      255
102
RTVSPost2010PropOp44
 70
     1
102
RTVSPost2010Prop45
280
     0
102
RTVSPost2010PropOp45
 70
     1
102
RTVSPost2010Prop46
 90
       50
102
RTVSPost2010PropOp46
 70
     1
102
RTVSPost2010Prop47
 90
       50
102
RTVSPost2010PropOp47
 70
     1
102
RTVSPost2010Prop48
 90
       50
102
RTVSPost2010PropOp48
 70
     1
102
RTVSPost2010Prop49
280
     0
102
RTVSPost2010PropOp49
 70
     1
102
RTVSPost2010Prop50
 90
       50
102
RTVSPost2010PropOp50
 70
     1
102
RTVSPost2010Prop51ColorIndex
 90
      256
102
RTVSPost2010Prop51ColorRGB
 90
-16777216
102
RTVSPost2010PropOp51
 70
     0
102
RTVSPost2010Prop52
140
1.0
102
RTVSPost2010PropOp52
 70
     0
102
RTVSPost2010Prop53
 90
        2
102
RTVSPost2010PropOp53
 70
     1
102
RTVSPost2010Prop54
  1
strokes_ogs.tif
102
RTVSPost2010PropOp54
 70
     1
102
RTVSPost2010Prop55
280
     0
102
RTVSPost2010PropOp55
 70
     1
102
RTVSPost2010Prop56
140
1.0
102
RTVSPost2010PropOp56
 70
     1
102
RTVSPost2010Prop57
140
1.0
102
RTVSPost2010PropOp57
 70
     1
  0
XRECORD
  5
63404
102
{ACAD_REACTORS
330
63403
102
}
330
63403
100
AcDbXrecord
280
     1
102
RTVSPropertyOp0
 70
     1
102
RTVSPropertyOp1
 70
     1
102
RTVSPropertyOp2
 70
     1
102
RTVSPropertyOp3
 70
     1
102
RTVSPropertyOp4
 70
     1
102
RTVSPropertyOp5
 70
     1
102
RTVSPropertyOp6
 70
     1
102
RTVSPropertyOp7
 70
     1
102
RTVSPropertyOp8
 70
     1
102
RTVSPropertyOp9
 70
     1
102
RTVSPropertyOp10
 70
     1
102
RTVSPropertyOp11
 70
     1
102
RTVSPropertyOp12
 70
     1
102
RTVSPropertyOp13
 70
     1
102
RTVSPropertyOp14
 70
     1
102
RTVSPropertyOp15
 70
     1
102
RTVSPropertyOp16
 70
     1
102
RTVSPropertyOp17
 70
     1
102
RTVSPropertyOp18
 70
     1
102
RTVSPropertyOp19
 70
     1
102
RTVSPropertyOp20
 70
     1
102
RTVSPropertyOp21
 70
     1
102
RTVSPropertyOp22
 70
     1
102
RTVSPropertyOp23
 70
     1
102
RTVSPropertyOp24
 70
     1
102
RTVSPropertyOp25
 70
     1
102
RTVSPropertyOp26
 70
     1
102
RTVSPropertyOp27
 70
     1
102
RTVSPropertyOp28
 70
     1
102
RTVSPropertyOp29
 70
     1
102
RTVSPropertyOp30
 70
     1
102
RTVSPropertyOp31
 70
     1
102
RTVSPropertyOp32
 70
     1
102
RTVSPropertyOp33
 70
     1
102
RTVSPropertyOp34
 70
     1
102
RTVSPropertyOp35
 70
     1
102
RTVSPropertyOp36
 70
     1
102
RTVSPropertyOp37
 70
     1
102
RTVSPropertyOp38
 70
     1
102
RTVSPropertyOp39
 70
     1
102
RTVSPropertyOp40
 70
     1
102
RTVSPropertyOp41
 70
     1
102
RTVSPropertyOp42
 70
     1
102
RTVSPropertyOp43
 70
     1
102
RTVSPropertyOp44
 70
     1
102
RTVSPropertyOp45
 70
     1
102
RTVSPropertyOp46
 70
     1
102
RTVSPropertyOp47
 70
     1
102
RTVSPropertyOp48
 70
     1
102
RTVSPropertyOp49
 70
     1
102
RTVSPropertyOp50
 70
     1
102
RTVSPropertyOp51
 70
     0
102
RTVSPropertyOp52
 70
     0
102
RTVSPropertyOp53
 70
     1
102
RTVSPropertyOp54
 70
     1
102
RTVSPropertyOp55
 70
     1
102
RTVSPropertyOp56
 70
     1
102
RTVSPropertyOp57
 70
     1
102
RTVSPost2010Prop28
280
     0
102
RTVSPost2010PropOp28
 70
     1
102
RTVSPost2010Prop29
280
     1
102
RTVSPost2010PropOp29
 70
     1
102
RTVSPost2010Prop30
280
     1
102
RTVSPost2010PropOp30
 70
     1
102
RTVSPost2010Prop31
280
     0
102
RTVSPost2010PropOp31
 70
     1
102
RTVSPost2010Prop32
280
     0
102
RTVSPost2010PropOp32
 70
     1
102
RTVSPost2010Prop33
280
     0
102
RTVSPost2010PropOp33
 70
     1
102
RTVSPost2010Prop34
280
     0
102
RTVSPost2010PropOp34
 70
     1
102
RTVSPost2010Prop35
280
     0
102
RTVSPost2010PropOp35
 70
     1
102
RTVSPost2010Prop36
280
     0
102
RTVSPost2010PropOp36
 70
     1
102
RTVSPost2010Prop37
 90
       50
102
RTVSPost2010PropOp37
 70
     1
102
RTVSPost2010Prop38
140
0.0
102
RTVSPost2010PropOp38
 70
     1
102
RTVSPost2010Prop39
140
1.0
102
RTVSPost2010PropOp39
 70
     1
102
RTVSPost2010Prop40
 90
        0
102
RTVSPost2010PropOp40
 70
     1
102
RTVSPost2010Prop41ColorIndex
 90
       18
102
RTVSPost2010Prop41ColorRGB
 90
        0
102
RTVSPost2010PropOp41
 70
     1
102
RTVSPost2010Prop42
 90
       50
102
RTVSPost2010PropOp42
 70
     1
102
RTVSPost2010Prop43
 90
        3
102
RTVSPost2010PropOp43
 70
     1
102
RTVSPost2010Prop44ColorIndex
 90
        5
102
RTVSPost2010Prop44ColorRGB
 90
      255
102
RTVSPost2010PropOp44
 70
     1
102
RTVSPost2010Prop45
280
     0
102
RTVSPost2010PropOp45
 70
     1
102
RTVSPost2010Prop46
 90
       50
102
RTVSPost2010PropOp46
 70
     1
102
RTVSPost2010Prop47
 90
       50
102
RTVSPost2010PropOp47
 70
     1
102
RTVSPost2010Prop48
 90
       50
102
RTVSPost2010PropOp48
 70
     1
102
RTVSPost2010Prop49
280
     0
102
RTVSPost2010PropOp49
 70
     1
102
RTVSPost2010Prop50
 90
       50
102
RTVSPost2010PropOp50
 70
     1
102
RTVSPost2010Prop51ColorIndex
 90
      256
102
RTVSPost2010Prop51ColorRGB
 90
-16777216
102
RTVSPost2010PropOp51
 70
     0
102
RTVSPost2010Prop52
140
1.0
102
RTVSPost2010PropOp52
 70
     0
102
RTVSPost2010Prop53
 90
        2
102
RTVSPost2010PropOp53
 70
     1
102
RTVSPost2010Prop54
  1
strokes_ogs.tif
102
RTVSPost2010PropOp54
 70
     1
102
RTVSPost2010Prop55
280
     0
102
RTVSPost2010PropOp55
 70
     1
102
RTVSPost2010Prop56
140
1.0
102
RTVSPost2010PropOp56
 70
     1
102
RTVSPost2010Prop57
140
1.0
102
RTVSPost2010PropOp57
 70
     1
  0
XRECORD
  5
63406
102
{ACAD_REACTORS
330
63405
102
}
330
63405
100
AcDbXrecord
280
     1
102
RTVSPropertyOp0
 70
     1
102
RTVSPropertyOp1
 70
     1
102
RTVSPropertyOp2
 70
     1
102
RTVSPropertyOp3
 70
     1
102
RTVSPropertyOp4
 70
     1
102
RTVSPropertyOp5
 70
     1
102
RTVSPropertyOp6
 70
     1
102
RTVSPropertyOp7
 70
     1
102
RTVSPropertyOp8
 70
     1
102
RTVSPropertyOp9
 70
     1
102
RTVSPropertyOp10
 70
     1
102
RTVSPropertyOp11
 70
     1
102
RTVSPropertyOp12
 70
     1
102
RTVSPropertyOp13
 70
     1
102
RTVSPropertyOp14
 70
     1
102
RTVSPropertyOp15
 70
     1
102
RTVSPropertyOp16
 70
     1
102
RTVSPropertyOp17
 70
     1
102
RTVSPropertyOp18
 70
     1
102
RTVSPropertyOp19
 70
     1
102
RTVSPropertyOp20
 70
     1
102
RTVSPropertyOp21
 70
     1
102
RTVSPropertyOp22
 70
     1
102
RTVSPropertyOp23
 70
     1
102
RTVSPropertyOp24
 70
     1
102
RTVSPropertyOp25
 70
     1
102
RTVSPropertyOp26
 70
     1
102
RTVSPropertyOp27
 70
     1
102
RTVSPropertyOp28
 70
     1
102
RTVSPropertyOp29
 70
     1
102
RTVSPropertyOp30
 70
     1
102
RTVSPropertyOp31
 70
     1
102
RTVSPropertyOp32
 70
     1
102
RTVSPropertyOp33
 70
     1
102
RTVSPropertyOp34
 70
     1
102
RTVSPropertyOp35
 70
     1
102
RTVSPropertyOp36
 70
     1
102
RTVSPropertyOp37
 70
     1
102
RTVSPropertyOp38
 70
     1
102
RTVSPropertyOp39
 70
     1
102
RTVSPropertyOp40
 70
     1
102
RTVSPropertyOp41
 70
     1
102
RTVSPropertyOp42
 70
     1
102
RTVSPropertyOp43
 70
     1
102
RTVSPropertyOp44
 70
     1
102
RTVSPropertyOp45
 70
     1
102
RTVSPropertyOp46
 70
     1
102
RTVSPropertyOp47
 70
     1
102
RTVSPropertyOp48
 70
     1
102
RTVSPropertyOp49
 70
     1
102
RTVSPropertyOp50
 70
     1
102
RTVSPropertyOp51
 70
     0
102
RTVSPropertyOp52
 70
     0
102
RTVSPropertyOp53
 70
     1
102
RTVSPropertyOp54
 70
     1
102
RTVSPropertyOp55
 70
     1
102
RTVSPropertyOp56
 70
     1
102
RTVSPropertyOp57
 70
     1
102
RTVSPost2010Prop28
280
     0
102
RTVSPost2010PropOp28
 70
     1
102
RTVSPost2010Prop29
280
     1
102
RTVSPost2010PropOp29
 70
     1
102
RTVSPost2010Prop30
280
     1
102
RTVSPost2010PropOp30
 70
     1
102
RTVSPost2010Prop31
280
     0
102
RTVSPost2010PropOp31
 70
     1
102
RTVSPost2010Prop32
280
     0
102
RTVSPost2010PropOp32
 70
     1
102
RTVSPost2010Prop33
280
     0
102
RTVSPost2010PropOp33
 70
     1
102
RTVSPost2010Prop34
280
     0
102
RTVSPost2010PropOp34
 70
     1
102
RTVSPost2010Prop35
280
     0
102
RTVSPost2010PropOp35
 70
     1
102
RTVSPost2010Prop36
280
     0
102
RTVSPost2010PropOp36
 70
     1
102
RTVSPost2010Prop37
 90
       50
102
RTVSPost2010PropOp37
 70
     1
102
RTVSPost2010Prop38
140
0.0
102
RTVSPost2010PropOp38
 70
     1
102
RTVSPost2010Prop39
140
1.0
102
RTVSPost2010PropOp39
 70
     1
102
RTVSPost2010Prop40
 90
        0
102
RTVSPost2010PropOp40
 70
     1
102
RTVSPost2010Prop41ColorIndex
 90
       18
102
RTVSPost2010Prop41ColorRGB
 90
        0
102
RTVSPost2010PropOp41
 70
     1
102
RTVSPost2010Prop42
 90
       50
102
RTVSPost2010PropOp42
 70
     1
102
RTVSPost2010Prop43
 90
        3
102
RTVSPost2010PropOp43
 70
     1
102
RTVSPost2010Prop44ColorIndex
 90
        5
102
RTVSPost2010Prop44ColorRGB
 90
      255
102
RTVSPost2010PropOp44
 70
     1
102
RTVSPost2010Prop45
280
     0
102
RTVSPost2010PropOp45
 70
     1
102
RTVSPost2010Prop46
 90
       50
102
RTVSPost2010PropOp46
 70
     1
102
RTVSPost2010Prop47
 90
       50
102
RTVSPost2010PropOp47
 70
     1
102
RTVSPost2010Prop48
 90
       50
102
RTVSPost2010PropOp48
 70
     1
102
RTVSPost2010Prop49
280
     0
102
RTVSPost2010PropOp49
 70
     1
102
RTVSPost2010Prop50
 90
       50
102
RTVSPost2010PropOp50
 70
     1
102
RTVSPost2010Prop51ColorIndex
 90
      256
102
RTVSPost2010Prop51ColorRGB
 90
-16777216
102
RTVSPost2010PropOp51
 70
     0
102
RTVSPost2010Prop52
140
1.0
102
RTVSPost2010PropOp52
 70
     0
102
RTVSPost2010Prop53
 90
        2
102
RTVSPost2010PropOp53
 70
     1
102
RTVSPost2010Prop54
  1
strokes_ogs.tif
102
RTVSPost2010PropOp54
 70
     1
102
RTVSPost2010Prop55
280
     0
102
RTVSPost2010PropOp55
 70
     1
102
RTVSPost2010Prop56
140
1.0
102
RTVSPost2010PropOp56
 70
     1
102
RTVSPost2010Prop57
140
1.0
102
RTVSPost2010PropOp57
 70
     1
  0
XRECORD
  5
63408
102
{ACAD_REACTORS
330
63407
102
}
330
63407
100
AcDbXrecord
280
     1
102
RTVSPropertyOp0
 70
     1
102
RTVSPropertyOp1
 70
     1
102
RTVSPropertyOp2
 70
     1
102
RTVSPropertyOp3
 70
     1
102
RTVSPropertyOp4
 70
     1
102
RTVSPropertyOp5
 70
     1
102
RTVSPropertyOp6
 70
     1
102
RTVSPropertyOp7
 70
     1
102
RTVSPropertyOp8
 70
     1
102
RTVSPropertyOp9
 70
     1
102
RTVSPropertyOp10
 70
     1
102
RTVSPropertyOp11
 70
     1
102
RTVSPropertyOp12
 70
     1
102
RTVSPropertyOp13
 70
     1
102
RTVSPropertyOp14
 70
     1
102
RTVSPropertyOp15
 70
     1
102
RTVSPropertyOp16
 70
     1
102
RTVSPropertyOp17
 70
     1
102
RTVSPropertyOp18
 70
     1
102
RTVSPropertyOp19
 70
     1
102
RTVSPropertyOp20
 70
     1
102
RTVSPropertyOp21
 70
     1
102
RTVSPropertyOp22
 70
     1
102
RTVSPropertyOp23
 70
     1
102
RTVSPropertyOp24
 70
     1
102
RTVSPropertyOp25
 70
     1
102
RTVSPropertyOp26
 70
     1
102
RTVSPropertyOp27
 70
     1
102
RTVSPropertyOp28
 70
     1
102
RTVSPropertyOp29
 70
     1
102
RTVSPropertyOp30
 70
     1
102
RTVSPropertyOp31
 70
     1
102
RTVSPropertyOp32
 70
     1
102
RTVSPropertyOp33
 70
     1
102
RTVSPropertyOp34
 70
     1
102
RTVSPropertyOp35
 70
     1
102
RTVSPropertyOp36
 70
     1
102
RTVSPropertyOp37
 70
     1
102
RTVSPropertyOp38
 70
     1
102
RTVSPropertyOp39
 70
     1
102
RTVSPropertyOp40
 70
     1
102
RTVSPropertyOp41
 70
     1
102
RTVSPropertyOp42
 70
     1
102
RTVSPropertyOp43
 70
     1
102
RTVSPropertyOp44
 70
     1
102
RTVSPropertyOp45
 70
     1
102
RTVSPropertyOp46
 70
     1
102
RTVSPropertyOp47
 70
     1
102
RTVSPropertyOp48
 70
     1
102
RTVSPropertyOp49
 70
     1
102
RTVSPropertyOp50
 70
     1
102
RTVSPropertyOp51
 70
     0
102
RTVSPropertyOp52
 70
     0
102
RTVSPropertyOp53
 70
     1
102
RTVSPropertyOp54
 70
     1
102
RTVSPropertyOp55
 70
     1
102
RTVSPropertyOp56
 70
     1
102
RTVSPropertyOp57
 70
     1
102
RTVSPost2010Prop28
280
     0
102
RTVSPost2010PropOp28
 70
     1
102
RTVSPost2010Prop29
280
     1
102
RTVSPost2010PropOp29
 70
     1
102
RTVSPost2010Prop30
280
     1
102
RTVSPost2010PropOp30
 70
     1
102
RTVSPost2010Prop31
280
     0
102
RTVSPost2010PropOp31
 70
     1
102
RTVSPost2010Prop32
280
     0
102
RTVSPost2010PropOp32
 70
     1
102
RTVSPost2010Prop33
280
     0
102
RTVSPost2010PropOp33
 70
     1
102
RTVSPost2010Prop34
280
     0
102
RTVSPost2010PropOp34
 70
     1
102
RTVSPost2010Prop35
280
     0
102
RTVSPost2010PropOp35
 70
     1
102
RTVSPost2010Prop36
280
     0
102
RTVSPost2010PropOp36
 70
     1
102
RTVSPost2010Prop37
 90
       50
102
RTVSPost2010PropOp37
 70
     1
102
RTVSPost2010Prop38
140
0.0
102
RTVSPost2010PropOp38
 70
     1
102
RTVSPost2010Prop39
140
1.0
102
RTVSPost2010PropOp39
 70
     1
102
RTVSPost2010Prop40
 90
        0
102
RTVSPost2010PropOp40
 70
     1
102
RTVSPost2010Prop41ColorIndex
 90
       18
102
RTVSPost2010Prop41ColorRGB
 90
        0
102
RTVSPost2010PropOp41
 70
     1
102
RTVSPost2010Prop42
 90
       50
102
RTVSPost2010PropOp42
 70
     1
102
RTVSPost2010Prop43
 90
        3
102
RTVSPost2010PropOp43
 70
     1
102
RTVSPost2010Prop44ColorIndex
 90
        5
102
RTVSPost2010Prop44ColorRGB
 90
      255
102
RTVSPost2010PropOp44
 70
     1
102
RTVSPost2010Prop45
280
     0
102
RTVSPost2010PropOp45
 70
     1
102
RTVSPost2010Prop46
 90
       50
102
RTVSPost2010PropOp46
 70
     1
102
RTVSPost2010Prop47
 90
       50
102
RTVSPost2010PropOp47
 70
     1
102
RTVSPost2010Prop48
 90
       50
102
RTVSPost2010PropOp48
 70
     1
102
RTVSPost2010Prop49
280
     0
102
RTVSPost2010PropOp49
 70
     1
102
RTVSPost2010Prop50
 90
       50
102
RTVSPost2010PropOp50
 70
     1
102
RTVSPost2010Prop51ColorIndex
 90
      256
102
RTVSPost2010Prop51ColorRGB
 90
-16777216
102
RTVSPost2010PropOp51
 70
     0
102
RTVSPost2010Prop52
140
1.0
102
RTVSPost2010PropOp52
 70
     0
102
RTVSPost2010Prop53
 90
        2
102
RTVSPost2010PropOp53
 70
     1
102
RTVSPost2010Prop54
  1
strokes_ogs.tif
102
RTVSPost2010PropOp54
 70
     1
102
RTVSPost2010Prop55
280
     0
102
RTVSPost2010PropOp55
 70
     1
102
RTVSPost2010Prop56
140
1.0
102
RTVSPost2010PropOp56
 70
     1
102
RTVSPost2010Prop57
140
1.0
102
RTVSPost2010PropOp57
 70
     1
  0
XRECORD
  5
6340A
102
{ACAD_REACTORS
330
63409
102
}
330
63409
100
AcDbXrecord
280
     1
102
RTVSPropertyOp0
 70
     1
102
RTVSPropertyOp1
 70
     1
102
RTVSPropertyOp2
 70
     1
102
RTVSPropertyOp3
 70
     1
102
RTVSPropertyOp4
 70
     1
102
RTVSPropertyOp5
 70
     1
102
RTVSPropertyOp6
 70
     1
102
RTVSPropertyOp7
 70
     1
102
RTVSPropertyOp8
 70
     1
102
RTVSPropertyOp9
 70
     1
102
RTVSPropertyOp10
 70
     1
102
RTVSPropertyOp11
 70
     1
102
RTVSPropertyOp12
 70
     1
102
RTVSPropertyOp13
 70
     1
102
RTVSPropertyOp14
 70
     1
102
RTVSPropertyOp15
 70
     1
102
RTVSPropertyOp16
 70
     1
102
RTVSPropertyOp17
 70
     1
102
RTVSPropertyOp18
 70
     1
102
RTVSPropertyOp19
 70
     1
102
RTVSPropertyOp20
 70
     1
102
RTVSPropertyOp21
 70
     1
102
RTVSPropertyOp22
 70
     1
102
RTVSPropertyOp23
 70
     1
102
RTVSPropertyOp24
 70
     1
102
RTVSPropertyOp25
 70
     1
102
RTVSPropertyOp26
 70
     1
102
RTVSPropertyOp27
 70
     1
102
RTVSPropertyOp28
 70
     1
102
RTVSPropertyOp29
 70
     1
102
RTVSPropertyOp30
 70
     1
102
RTVSPropertyOp31
 70
     1
102
RTVSPropertyOp32
 70
     1
102
RTVSPropertyOp33
 70
     1
102
RTVSPropertyOp34
 70
     1
102
RTVSPropertyOp35
 70
     1
102
RTVSPropertyOp36
 70
     1
102
RTVSPropertyOp37
 70
     1
102
RTVSPropertyOp38
 70
     1
102
RTVSPropertyOp39
 70
     1
102
RTVSPropertyOp40
 70
     1
102
RTVSPropertyOp41
 70
     1
102
RTVSPropertyOp42
 70
     1
102
RTVSPropertyOp43
 70
     1
102
RTVSPropertyOp44
 70
     1
102
RTVSPropertyOp45
 70
     1
102
RTVSPropertyOp46
 70
     1
102
RTVSPropertyOp47
 70
     1
102
RTVSPropertyOp48
 70
     1
102
RTVSPropertyOp49
 70
     1
102
RTVSPropertyOp50
 70
     1
102
RTVSPropertyOp51
 70
     0
102
RTVSPropertyOp52
 70
     0
102
RTVSPropertyOp53
 70
     1
102
RTVSPropertyOp54
 70
     1
102
RTVSPropertyOp55
 70
     1
102
RTVSPropertyOp56
 70
     1
102
RTVSPropertyOp57
 70
     1
102
RTVSPost2010Prop28
280
     0
102
RTVSPost2010PropOp28
 70
     1
102
RTVSPost2010Prop29
280
     1
102
RTVSPost2010PropOp29
 70
     1
102
RTVSPost2010Prop30
280
     1
102
RTVSPost2010PropOp30
 70
     1
102
RTVSPost2010Prop31
280
     0
102
RTVSPost2010PropOp31
 70
     1
102
RTVSPost2010Prop32
280
     0
102
RTVSPost2010PropOp32
 70
     1
102
RTVSPost2010Prop33
280
     0
102
RTVSPost2010PropOp33
 70
     1
102
RTVSPost2010Prop34
280
     0
102
RTVSPost2010PropOp34
 70
     1
102
RTVSPost2010Prop35
280
     0
102
RTVSPost2010PropOp35
 70
     1
102
RTVSPost2010Prop36
280
     0
102
RTVSPost2010PropOp36
 70
     1
102
RTVSPost2010Prop37
 90
       50
102
RTVSPost2010PropOp37
 70
     1
102
RTVSPost2010Prop38
140
0.0
102
RTVSPost2010PropOp38
 70
     1
102
RTVSPost2010Prop39
140
1.0
102
RTVSPost2010PropOp39
 70
     1
102
RTVSPost2010Prop40
 90
        0
102
RTVSPost2010PropOp40
 70
     1
102
RTVSPost2010Prop41ColorIndex
 90
       18
102
RTVSPost2010Prop41ColorRGB
 90
        0
102
RTVSPost2010PropOp41
 70
     1
102
RTVSPost2010Prop42
 90
       50
102
RTVSPost2010PropOp42
 70
     1
102
RTVSPost2010Prop43
 90
        3
102
RTVSPost2010PropOp43
 70
     1
102
RTVSPost2010Prop44ColorIndex
 90
        5
102
RTVSPost2010Prop44ColorRGB
 90
      255
102
RTVSPost2010PropOp44
 70
     1
102
RTVSPost2010Prop45
280
     0
102
RTVSPost2010PropOp45
 70
     1
102
RTVSPost2010Prop46
 90
       50
102
RTVSPost2010PropOp46
 70
     1
102
RTVSPost2010Prop47
 90
       50
102
RTVSPost2010PropOp47
 70
     1
102
RTVSPost2010Prop48
 90
       50
102
RTVSPost2010PropOp48
 70
     1
102
RTVSPost2010Prop49
280
     0
102
RTVSPost2010PropOp49
 70
     1
102
RTVSPost2010Prop50
 90
       50
102
RTVSPost2010PropOp50
 70
     1
102
RTVSPost2010Prop51ColorIndex
 90
      256
102
RTVSPost2010Prop51ColorRGB
 90
-16777216
102
RTVSPost2010PropOp51
 70
     0
102
RTVSPost2010Prop52
140
1.0
102
RTVSPost2010PropOp52
 70
     0
102
RTVSPost2010Prop53
 90
        2
102
RTVSPost2010PropOp53
 70
     1
102
RTVSPost2010Prop54
  1
strokes_ogs.tif
102
RTVSPost2010PropOp54
 70
     1
102
RTVSPost2010Prop55
280
     0
102
RTVSPost2010PropOp55
 70
     1
102
RTVSPost2010Prop56
140
1.0
102
RTVSPost2010PropOp56
 70
     1
102
RTVSPost2010Prop57
140
1.0
102
RTVSPost2010PropOp57
 70
     1
  0
XRECORD
  5
6340C
102
{ACAD_REACTORS
330
6340B
102
}
330
6340B
100
AcDbXrecord
280
     1
102
RTVSPropertyOp0
 70
     1
102
RTVSPropertyOp1
 70
     1
102
RTVSPropertyOp2
 70
     1
102
RTVSPropertyOp3
 70
     1
102
RTVSPropertyOp4
 70
     1
102
RTVSPropertyOp5
 70
     1
102
RTVSPropertyOp6
 70
     1
102
RTVSPropertyOp7
 70
     1
102
RTVSPropertyOp8
 70
     1
102
RTVSPropertyOp9
 70
     1
102
RTVSPropertyOp10
 70
     1
102
RTVSPropertyOp11
 70
     1
102
RTVSPropertyOp12
 70
     1
102
RTVSPropertyOp13
 70
     1
102
RTVSPropertyOp14
 70
     1
102
RTVSPropertyOp15
 70
     1
102
RTVSPropertyOp16
 70
     1
102
RTVSPropertyOp17
 70
     1
102
RTVSPropertyOp18
 70
     1
102
RTVSPropertyOp19
 70
     1
102
RTVSPropertyOp20
 70
     1
102
RTVSPropertyOp21
 70
     1
102
RTVSPropertyOp22
 70
     1
102
RTVSPropertyOp23
 70
     1
102
RTVSPropertyOp24
 70
     1
102
RTVSPropertyOp25
 70
     1
102
RTVSPropertyOp26
 70
     1
102
RTVSPropertyOp27
 70
     1
102
RTVSPropertyOp28
 70
     1
102
RTVSPropertyOp29
 70
     1
102
RTVSPropertyOp30
 70
     1
102
RTVSPropertyOp31
 70
     1
102
RTVSPropertyOp32
 70
     1
102
RTVSPropertyOp33
 70
     1
102
RTVSPropertyOp34
 70
     1
102
RTVSPropertyOp35
 70
     1
102
RTVSPropertyOp36
 70
     1
102
RTVSPropertyOp37
 70
     1
102
RTVSPropertyOp38
 70
     1
102
RTVSPropertyOp39
 70
     1
102
RTVSPropertyOp40
 70
     1
102
RTVSPropertyOp41
 70
     1
102
RTVSPropertyOp42
 70
     1
102
RTVSPropertyOp43
 70
     1
102
RTVSPropertyOp44
 70
     1
102
RTVSPropertyOp45
 70
     1
102
RTVSPropertyOp46
 70
     1
102
RTVSPropertyOp47
 70
     1
102
RTVSPropertyOp48
 70
     1
102
RTVSPropertyOp49
 70
     1
102
RTVSPropertyOp50
 70
     1
102
RTVSPropertyOp51
 70
     0
102
RTVSPropertyOp52
 70
     0
102
RTVSPropertyOp53
 70
     1
102
RTVSPropertyOp54
 70
     1
102
RTVSPropertyOp55
 70
     1
102
RTVSPropertyOp56
 70
     1
102
RTVSPropertyOp57
 70
     1
102
RTVSPost2010Prop28
280
     0
102
RTVSPost2010PropOp28
 70
     1
102
RTVSPost2010Prop29
280
     1
102
RTVSPost2010PropOp29
 70
     1
102
RTVSPost2010Prop30
280
     1
102
RTVSPost2010PropOp30
 70
     1
102
RTVSPost2010Prop31
280
     0
102
RTVSPost2010PropOp31
 70
     1
102
RTVSPost2010Prop32
280
     0
102
RTVSPost2010PropOp32
 70
     1
102
RTVSPost2010Prop33
280
     0
102
RTVSPost2010PropOp33
 70
     1
102
RTVSPost2010Prop34
280
     0
102
RTVSPost2010PropOp34
 70
     1
102
RTVSPost2010Prop35
280
     0
102
RTVSPost2010PropOp35
 70
     1
102
RTVSPost2010Prop36
280
     0
102
RTVSPost2010PropOp36
 70
     1
102
RTVSPost2010Prop37
 90
       50
102
RTVSPost2010PropOp37
 70
     1
102
RTVSPost2010Prop38
140
0.0
102
RTVSPost2010PropOp38
 70
     1
102
RTVSPost2010Prop39
140
1.0
102
RTVSPost2010PropOp39
 70
     1
102
RTVSPost2010Prop40
 90
        0
102
RTVSPost2010PropOp40
 70
     1
102
RTVSPost2010Prop41ColorIndex
 90
       18
102
RTVSPost2010Prop41ColorRGB
 90
        0
102
RTVSPost2010PropOp41
 70
     1
102
RTVSPost2010Prop42
 90
       50
102
RTVSPost2010PropOp42
 70
     1
102
RTVSPost2010Prop43
 90
        3
102
RTVSPost2010PropOp43
 70
     1
102
RTVSPost2010Prop44ColorIndex
 90
        5
102
RTVSPost2010Prop44ColorRGB
 90
      255
102
RTVSPost2010PropOp44
 70
     1
102
RTVSPost2010Prop45
280
     0
102
RTVSPost2010PropOp45
 70
     1
102
RTVSPost2010Prop46
 90
       50
102
RTVSPost2010PropOp46
 70
     1
102
RTVSPost2010Prop47
 90
       50
102
RTVSPost2010PropOp47
 70
     1
102
RTVSPost2010Prop48
 90
       50
102
RTVSPost2010PropOp48
 70
     1
102
RTVSPost2010Prop49
280
     0
102
RTVSPost2010PropOp49
 70
     1
102
RTVSPost2010Prop50
 90
       50
102
RTVSPost2010PropOp50
 70
     1
102
RTVSPost2010Prop51ColorIndex
 90
      256
102
RTVSPost2010Prop51ColorRGB
 90
-16777216
102
RTVSPost2010PropOp51
 70
     0
102
RTVSPost2010Prop52
140
1.0
102
RTVSPost2010PropOp52
 70
     0
102
RTVSPost2010Prop53
 90
        2
102
RTVSPost2010PropOp53
 70
     1
102
RTVSPost2010Prop54
  1
strokes_ogs.tif
102
RTVSPost2010PropOp54
 70
     1
102
RTVSPost2010Prop55
280
     0
102
RTVSPost2010PropOp55
 70
     1
102
RTVSPost2010Prop56
140
1.0
102
RTVSPost2010PropOp56
 70
     1
102
RTVSPost2010Prop57
140
1.0
102
RTVSPost2010PropOp57
 70
     1
  0
XRECORD
  5
6340E
102
{ACAD_REACTORS
330
6340D
102
}
330
6340D
100
AcDbXrecord
280
     1
102
RTVSPropertyOp0
 70
     1
102
RTVSPropertyOp1
 70
     1
102
RTVSPropertyOp2
 70
     1
102
RTVSPropertyOp3
 70
     1
102
RTVSPropertyOp4
 70
     1
102
RTVSPropertyOp5
 70
     1
102
RTVSPropertyOp6
 70
     1
102
RTVSPropertyOp7
 70
     1
102
RTVSPropertyOp8
 70
     1
102
RTVSPropertyOp9
 70
     1
102
RTVSPropertyOp10
 70
     1
102
RTVSPropertyOp11
 70
     1
102
RTVSPropertyOp12
 70
     1
102
RTVSPropertyOp13
 70
     1
102
RTVSPropertyOp14
 70
     1
102
RTVSPropertyOp15
 70
     1
102
RTVSPropertyOp16
 70
     1
102
RTVSPropertyOp17
 70
     1
102
RTVSPropertyOp18
 70
     1
102
RTVSPropertyOp19
 70
     1
102
RTVSPropertyOp20
 70
     1
102
RTVSPropertyOp21
 70
     1
102
RTVSPropertyOp22
 70
     1
102
RTVSPropertyOp23
 70
     1
102
RTVSPropertyOp24
 70
     1
102
RTVSPropertyOp25
 70
     1
102
RTVSPropertyOp26
 70
     1
102
RTVSPropertyOp27
 70
     1
102
RTVSPropertyOp28
 70
     1
102
RTVSPropertyOp29
 70
     1
102
RTVSPropertyOp30
 70
     1
102
RTVSPropertyOp31
 70
     1
102
RTVSPropertyOp32
 70
     1
102
RTVSPropertyOp33
 70
     1
102
RTVSPropertyOp34
 70
     1
102
RTVSPropertyOp35
 70
     1
102
RTVSPropertyOp36
 70
     1
102
RTVSPropertyOp37
 70
     1
102
RTVSPropertyOp38
 70
     1
102
RTVSPropertyOp39
 70
     1
102
RTVSPropertyOp40
 70
     1
102
RTVSPropertyOp41
 70
     1
102
RTVSPropertyOp42
 70
     1
102
RTVSPropertyOp43
 70
     1
102
RTVSPropertyOp44
 70
     1
102
RTVSPropertyOp45
 70
     1
102
RTVSPropertyOp46
 70
     1
102
RTVSPropertyOp47
 70
     1
102
RTVSPropertyOp48
 70
     1
102
RTVSPropertyOp49
 70
     1
102
RTVSPropertyOp50
 70
     1
102
RTVSPropertyOp51
 70
     0
102
RTVSPropertyOp52
 70
     0
102
RTVSPropertyOp53
 70
     1
102
RTVSPropertyOp54
 70
     1
102
RTVSPropertyOp55
 70
     1
102
RTVSPropertyOp56
 70
     1
102
RTVSPropertyOp57
 70
     1
102
RTVSPost2010Prop28
280
     0
102
RTVSPost2010PropOp28
 70
     1
102
RTVSPost2010Prop29
280
     1
102
RTVSPost2010PropOp29
 70
     1
102
RTVSPost2010Prop30
280
     1
102
RTVSPost2010PropOp30
 70
     1
102
RTVSPost2010Prop31
280
     0
102
RTVSPost2010PropOp31
 70
     1
102
RTVSPost2010Prop32
280
     0
102
RTVSPost2010PropOp32
 70
     1
102
RTVSPost2010Prop33
280
     0
102
RTVSPost2010PropOp33
 70
     1
102
RTVSPost2010Prop34
280
     0
102
RTVSPost2010PropOp34
 70
     1
102
RTVSPost2010Prop35
280
     0
102
RTVSPost2010PropOp35
 70
     1
102
RTVSPost2010Prop36
280
     0
102
RTVSPost2010PropOp36
 70
     1
102
RTVSPost2010Prop37
 90
       50
102
RTVSPost2010PropOp37
 70
     1
102
RTVSPost2010Prop38
140
0.0
102
RTVSPost2010PropOp38
 70
     1
102
RTVSPost2010Prop39
140
1.0
102
RTVSPost2010PropOp39
 70
     1
102
RTVSPost2010Prop40
 90
        0
102
RTVSPost2010PropOp40
 70
     1
102
RTVSPost2010Prop41ColorIndex
 90
       18
102
RTVSPost2010Prop41ColorRGB
 90
        0
102
RTVSPost2010PropOp41
 70
     1
102
RTVSPost2010Prop42
 90
       50
102
RTVSPost2010PropOp42
 70
     1
102
RTVSPost2010Prop43
 90
        3
102
RTVSPost2010PropOp43
 70
     1
102
RTVSPost2010Prop44ColorIndex
 90
        5
102
RTVSPost2010Prop44ColorRGB
 90
      255
102
RTVSPost2010PropOp44
 70
     1
102
RTVSPost2010Prop45
280
     0
102
RTVSPost2010PropOp45
 70
     1
102
RTVSPost2010Prop46
 90
       50
102
RTVSPost2010PropOp46
 70
     1
102
RTVSPost2010Prop47
 90
       50
102
RTVSPost2010PropOp47
 70
     1
102
RTVSPost2010Prop48
 90
       50
102
RTVSPost2010PropOp48
 70
     1
102
RTVSPost2010Prop49
280
     0
102
RTVSPost2010PropOp49
 70
     1
102
RTVSPost2010Prop50
 90
       50
102
RTVSPost2010PropOp50
 70
     1
102
RTVSPost2010Prop51ColorIndex
 90
      256
102
RTVSPost2010Prop51ColorRGB
 90
-16777216
102
RTVSPost2010PropOp51
 70
     0
102
RTVSPost2010Prop52
140
1.0
102
RTVSPost2010PropOp52
 70
     0
102
RTVSPost2010Prop53
 90
        2
102
RTVSPost2010PropOp53
 70
     1
102
RTVSPost2010Prop54
  1
strokes_ogs.tif
102
RTVSPost2010PropOp54
 70
     1
102
RTVSPost2010Prop55
280
     0
102
RTVSPost2010PropOp55
 70
     1
102
RTVSPost2010Prop56
140
1.0
102
RTVSPost2010PropOp56
 70
     1
102
RTVSPost2010Prop57
140
1.0
102
RTVSPost2010PropOp57
 70
     1
  0
ACDBASSOCARRAYACTIONBODY
  5
60C50
330
60C4F
100
AcDbAssocActionBody
 90
        1
100
AcDbAssocParamBasedActionBody
 90
        0
 90
        0
 90
        3
360
60C54
360
60C55
360
60C56
 90
        0
 90
       10
 90
        0
  1
ItemSpacing
 90
        2
 90
        1
 40
0.7853981633974483
330
0
330
0
 90
        0
  1
RowSpacing
 90
        1
 90
        1
 40
0.28125
330
0
330
0
 90
        0
  1
LevelSpacing
 90
        1
 90
        1
 40
0.125
330
0
330
0
 90
        0
  1
Items
 90
        0
 90
        1
 90
        8
330
0
330
0
 90
        0
  1
Rows
 90
        0
 90
        1
 90
        1
330
0
330
0
 90
        0
  1
Levels
 90
        0
 90
        1
 90
        1
330
0
330
0
 90
        0
  1
RowElevation
 90
        1
 90
        1
 40
0.0
330
0
330
0
 90
        0
  1
FillAngle
 90
        2
 90
        1
 40
6.283185307179586
330
0
330
0
 90
        0
  1
StartAngle
 90
        2
 90
        1
 40
1.570796326794897
330
0
330
0
 90
        0
  1
Radius
 90
        1
 90
        1
 40
0.40625
330
0
330
0
100
AcDbAssocArrayActionBody
 90
        1
  1
AcDbAssocArrayPolarParameters
 90
        0
 90
        8
  1
AcDbAssocArrayItem
100
AcDbAssocArrayItem
 90
        0
 90
        0
 90
        0
 90
        0
 90
        8
 11
295.5376614006192
 21
-25.68087868658566
 31
0.0
330
0
100
AcDbAssocArrayItem
 90
        0
 90
        1
 90
        0
 90
        0
 90
       12
 40
0.7071067811865476
 40
-0.7071067811865476
 40
0.0
 40
295.2503992707622
 40
0.7071067811865476
 40
0.7071067811865476
 40
0.0
 40
-25.79986655672863
 40
0.0
 40
0.0
 40
1.0
 40
0.0
 40
0.0
 40
0.0
 40
0.0
 40
1.0
330
0
100
AcDbAssocArrayItem
 90
        0
 90
        2
 90
        0
 90
        0
 90
       12
 40
0.0000000000000001
 40
-1.0
 40
0.0
 40
295.1314114006192
 40
1.0
 40
0.0000000000000001
 40
0.0
 40
-26.08712868658566
 40
0.0
 40
0.0
 40
1.0
 40
0.0
 40
0.0
 40
0.0
 40
0.0
 40
1.0
330
0
100
AcDbAssocArrayItem
 90
        0
 90
        3
 90
        0
 90
        0
 90
       12
 40
-0.7071067811865475
 40
-0.7071067811865476
 40
0.0
 40
295.2503992707622
 40
0.7071067811865476
 40
-0.7071067811865475
 40
0.0
 40
-26.37439081644269
 40
0.0
 40
0.0
 40
1.0
 40
0.0
 40
0.0
 40
0.0
 40
0.0
 40
1.0
330
0
100
AcDbAssocArrayItem
 90
        0
 90
        4
 90
        0
 90
        0
 90
       12
 40
-1.0
 40
-0.0000000000000006
 40
0.0
 40
295.5376614006192
 40
0.0000000000000006
 40
-1.0
 40
0.0
 40
-26.49337868658566
 40
0.0
 40
0.0
 40
1.0
 40
0.0
 40
0.0
 40
0.0
 40
0.0
 40
1.0
330
0
100
AcDbAssocArrayItem
 90
        0
 90
        5
 90
        0
 90
        0
 90
       12
 40
-0.7071067811865474
 40
0.7071067811865477
 40
0.0
 40
295.8249235304762
 40
-0.7071067811865477
 40
-0.7071067811865474
 40
0.0
 40
-26.37439081644269
 40
0.0
 40
0.0
 40
1.0
 40
0.0
 40
0.0
 40
0.0
 40
0.0
 40
1.0
330
0
100
AcDbAssocArrayItem
 90
        0
 90
        6
 90
        0
 90
        0
 90
       12
 40
-0.0000000000000002
 40
1.0
 40
0.0
 40
295.9439114006192
 40
-1.0
 40
-0.0000000000000002
 40
0.0
 40
-26.08712868658566
 40
0.0
 40
0.0
 40
1.0
 40
0.0
 40
0.0
 40
0.0
 40
0.0
 40
1.0
330
0
100
AcDbAssocArrayItem
 90
        0
 90
        7
 90
        0
 90
        0
 90
       12
 40
0.707106781186548
 40
0.707106781186547
 40
0.0
 40
295.8249235304762
 40
-0.707106781186547
 40
0.707106781186548
 40
0.0
 40
-25.79986655672863
 40
0.0
 40
0.0
 40
1.0
 40
0.0
 40
0.0
 40
0.0
 40
0.0
 40
1.0
330
0
 40
1.6
 40
0.0
 40
0.0
 40
-470.64209652145
 40
0.0
 40
1.6
 40
0.0
 40
-167.07032954896
 40
0.0
 40
0.0
 40
1.6
 40
0.0
 40
0.0
 40
0.0
 40
0.0
 40
1.0
  0
ACDBASSOCDEPENDENCY
  5
60C51
330
60C4F
100
AcDbAssocDependency
 90
        2
 90
        5
290
     0
290
     1
290
     1
290
     1
 90
        0
330
0
290
     0
330
0
330
0
360
0
 90
        1
  0
ACDBASSOCDEPENDENCY
  5
60C52
330
60C4F
100
AcDbAssocDependency
 90
        2
 90
        1
290
     1
290
     0
290
     1
290
     1
 90
        0
330
60C72
290
     0
330
0
330
0
360
0
 90
        2
  0
ACDBASSOCDEPENDENCY
  5
60C53
330
60C4F
100
AcDbAssocDependency
 90
        2
 90
        5
290
     1
290
     1
290
     1
290
     1
 90
-2147483648
330
0
290
     0
330
0
330
0
360
0
 90
        3
  0
ACDBASSOCARRAYACTIONBODY
  5
60C58
330
60C57
100
AcDbAssocActionBody
 90
        1
100
AcDbAssocParamBasedActionBody
 90
        0
 90
        0
 90
        3
360
60C5C
360
60C5D
360
60C5E
 90
        0
 90
       10
 90
        0
  1
ItemSpacing
 90
        2
 90
        1
 40
0.7853981633974483
330
0
330
0
 90
        0
  1
RowSpacing
 90
        1
 90
        1
 40
0.28125
330
0
330
0
 90
        0
  1
LevelSpacing
 90
        1
 90
        1
 40
0.125
330
0
330
0
 90
        0
  1
Items
 90
        0
 90
        1
 90
        8
330
0
330
0
 90
        0
  1
Rows
 90
        0
 90
        1
 90
        1
330
0
330
0
 90
        0
  1
Levels
 90
        0
 90
        1
 90
        1
330
0
330
0
 90
        0
  1
RowElevation
 90
        1
 90
        1
 40
0.0
330
0
330
0
 90
        0
  1
FillAngle
 90
        2
 90
        1
 40
6.283185307179586
330
0
330
0
 90
        0
  1
StartAngle
 90
        2
 90
        1
 40
1.570796326794897
330
0
330
0
 90
        0
  1
Radius
 90
        1
 90
        1
 40
0.40625
330
0
330
0
100
AcDbAssocArrayActionBody
 90
        1
  1
AcDbAssocArrayPolarParameters
 90
        0
 90
        8
  1
AcDbAssocArrayItem
100
AcDbAssocArrayItem
 90
        0
 90
        0
 90
        0
 90
        0
 90
        8
 11
295.5376614006192
 21
-25.68087868658566
 31
0.0
330
0
100
AcDbAssocArrayItem
 90
        0
 90
        1
 90
        0
 90
        0
 90
       12
 40
0.7071067811865476
 40
-0.7071067811865476
 40
0.0
 40
295.2503992707622
 40
0.7071067811865476
 40
0.7071067811865476
 40
0.0
 40
-25.79986655672863
 40
0.0
 40
0.0
 40
1.0
 40
0.0
 40
0.0
 40
0.0
 40
0.0
 40
1.0
330
0
100
AcDbAssocArrayItem
 90
        0
 90
        2
 90
        0
 90
        0
 90
       12
 40
0.0000000000000001
 40
-1.0
 40
0.0
 40
295.1314114006192
 40
1.0
 40
0.0000000000000001
 40
0.0
 40
-26.08712868658566
 40
0.0
 40
0.0
 40
1.0
 40
0.0
 40
0.0
 40
0.0
 40
0.0
 40
1.0
330
0
100
AcDbAssocArrayItem
 90
        0
 90
        3
 90
        0
 90
        0
 90
       12
 40
-0.7071067811865475
 40
-0.7071067811865476
 40
0.0
 40
295.2503992707622
 40
0.7071067811865476
 40
-0.7071067811865475
 40
0.0
 40
-26.37439081644269
 40
0.0
 40
0.0
 40
1.0
 40
0.0
 40
0.0
 40
0.0
 40
0.0
 40
1.0
330
0
100
AcDbAssocArrayItem
 90
        0
 90
        4
 90
        0
 90
        0
 90
       12
 40
-1.0
 40
-0.0000000000000006
 40
0.0
 40
295.5376614006192
 40
0.0000000000000006
 40
-1.0
 40
0.0
 40
-26.49337868658566
 40
0.0
 40
0.0
 40
1.0
 40
0.0
 40
0.0
 40
0.0
 40
0.0
 40
1.0
330
0
100
AcDbAssocArrayItem
 90
        0
 90
        5
 90
        0
 90
        0
 90
       12
 40
-0.7071067811865474
 40
0.7071067811865477
 40
0.0
 40
295.8249235304762
 40
-0.7071067811865477
 40
-0.7071067811865474
 40
0.0
 40
-26.37439081644269
 40
0.0
 40
0.0
 40
1.0
 40
0.0
 40
0.0
 40
0.0
 40
0.0
 40
1.0
330
0
100
AcDbAssocArrayItem
 90
        0
 90
        6
 90
        0
 90
        0
 90
       12
 40
-0.0000000000000002
 40
1.0
 40
0.0
 40
295.9439114006192
 40
-1.0
 40
-0.0000000000000002
 40
0.0
 40
-26.08712868658566
 40
0.0
 40
0.0
 40
1.0
 40
0.0
 40
0.0
 40
0.0
 40
0.0
 40
1.0
330
0
100
AcDbAssocArrayItem
 90
        0
 90
        7
 90
        0
 90
        0
 90
       12
 40
0.707106781186548
 40
0.707106781186547
 40
0.0
 40
295.8249235304762
 40
-0.707106781186547
 40
0.707106781186548
 40
0.0
 40
-25.79986655672863
 40
0.0
 40
0.0
 40
1.0
 40
0.0
 40
0.0
 40
0.0
 40
0.0
 40
1.0
330
0
 40
1.6
 40
0.0
 40
0.0
 40
-412.5058378601373
 40
0.0
 40
1.6
 40
0.0
 40
-167.0703295489602
 40
0.0
 40
0.0
 40
1.6
 40
0.0
 40
0.0
 40
0.0
 40
0.0
 40
1.0
  0
ACDBASSOCDEPENDENCY
  5
60C59
330
60C57
100
AcDbAssocDependency
 90
        2
 90
        5
290
     0
290
     1
290
     1
290
     1
 90
        0
330
0
290
     0
330
0
330
0
360
0
 90
        1
  0
ACDBASSOCDEPENDENCY
  5
60C5A
330
60C57
100
AcDbAssocDependency
 90
        2
 90
        1
290
     1
290
     0
290
     1
290
     1
 90
        0
330
60C84
290
     0
330
0
330
0
360
0
 90
        2
  0
ACDBASSOCDEPENDENCY
  5
60C5B
330
60C57
100
AcDbAssocDependency
 90
        2
 90
        5
290
     1
290
     1
290
     1
290
     1
 90
-2147483648
330
0
290
     0
330
0
330
0
360
0
 90
        3
  0
ACDBASSOCARRAYACTIONBODY
  5
60C60
330
60C5F
100
AcDbAssocActionBody
 90
        1
100
AcDbAssocParamBasedActionBody
 90
        0
 90
        0
 90
        3
360
60C64
360
60C65
360
60C66
 90
        0
 90
       10
 90
        0
  1
ItemSpacing
 90
        2
 90
        1
 40
2.094395102393195
330
0
330
0
 90
        0
  1
RowSpacing
 90
        1
 90
        1
 40
5.039999999999987
330
0
330
0
 90
        0
  1
LevelSpacing
 90
        1
 90
        1
 40
0.2
330
0
330
0
 90
        0
  1
Items
 90
        0
 90
        1
 90
        3
330
0
330
0
 90
        0
  1
Rows
 90
        0
 90
        1
 90
        1
330
0
330
0
 90
        0
  1
Levels
 90
        0
 90
        1
 90
        1
330
0
330
0
 90
        0
  1
RowElevation
 90
        1
 90
        1
 40
0.0
330
0
330
0
 90
        0
  1
FillAngle
 90
        2
 90
        1
 40
6.283185307179586
330
0
330
0
 90
        0
  1
StartAngle
 90
        2
 90
        1
 40
4.712382132178653
330
0
330
0
 90
        0
  1
Radius
 90
        1
 90
        1
 40
5.236282578420837
330
0
330
0
100
AcDbAssocArrayActionBody
 90
        1
  1
AcDbAssocArrayPolarParameters
 90
        0
 90
        3
  1
AcDbAssocArrayItem
100
AcDbAssocArrayItem
 90
        0
 90
        0
 90
        0
 90
        0
 90
        8
 11
298.7263395091985
 21
126.5999796471336
 31
0.0
330
0
100
AcDbAssocArrayItem
 90
        0
 90
        1
 90
        0
 90
        0
 90
       12
 40
-0.4999999999999994
 40
-0.866025403784439
 40
0.0
 40
303.2611470321115
 40
0.866025403784439
 40
-0.4999999999999994
 40
0.0
 40
134.4543724596527
 40
0.0
 40
0.0
 40
1.0
 40
0.0
 40
0.0
 40
0.0
 40
0.0
 40
1.0
330
0
100
AcDbAssocArrayItem
 90
        0
 90
        2
 90
        0
 90
        0
 90
       12
 40
-0.5000000000000004
 40
0.8660254037844385
 40
0.0
 40
294.1916395637115
 40
-0.8660254037844385
 40
-0.5000000000000004
 40
0.0
 40
134.4544345695085
 40
0.0
 40
0.0
 40
1.0
 40
0.0
 40
0.0
 40
0.0
 40
0.0
 40
1.0
330
0
 40
1.0
 40
0.0
 40
0.0
 40
-295.254793143954
 40
0.0
 40
1.0
 40
0.0
 40
-264.9209461013664
 40
0.0
 40
0.0
 40
1.0
 40
0.0
 40
0.0
 40
0.0
 40
0.0
 40
1.0
  0
ACDBASSOCDEPENDENCY
  5
60C61
330
60C5F
100
AcDbAssocDependency
 90
        2
 90
        5
290
     0
290
     1
290
     1
290
     1
 90
        0
330
0
290
     0
330
0
330
0
360
0
 90
        1
  0
ACDBASSOCDEPENDENCY
  5
60C62
330
60C5F
100
AcDbAssocDependency
 90
        2
 90
        1
290
     1
290
     0
290
     1
290
     1
 90
        0
330
60C91
290
     0
330
0
330
0
360
0
 90
        2
  0
ACDBASSOCDEPENDENCY
  5
60C63
330
60C5F
100
AcDbAssocDependency
 90
        2
 90
        5
290
     1
290
     1
290
     1
290
     1
 90
-2147483648
330
0
290
     0
330
0
330
0
360
0
 90
        3
  0
ACDBASSOCVERTEXACTIONPARAM
  5
60C54
330
60C4F
100
AcDbAssocActionParam
 90
        0
  1
Origin
100
AcDbAssocSingleDependencyActionParam
 90
        0
330
0
100
AcDbAssocVertexActionParam
 90
        0
 10
295.5376614006192
 20
-26.08712868658566
 30
0.0
  0
ACDBASSOCVERTEXACTIONPARAM
  5
60C55
330
60C4F
100
AcDbAssocActionParam
 90
        0
  1
BaseNormal
100
AcDbAssocSingleDependencyActionParam
 90
        0
330
0
100
AcDbAssocVertexActionParam
 90
        0
 10
0.0
 20
0.0
 30
0.125
  0
ACDBASSOCVERTEXACTIONPARAM
  5
60C56
330
60C4F
100
AcDbAssocActionParam
 90
        0
  1
basePoint
100
AcDbAssocSingleDependencyActionParam
 90
        0
330
0
100
AcDbAssocVertexActionParam
 90
        0
 10
0.0
 20
0.0
 30
0.0
  0
ACDBASSOCVERTEXACTIONPARAM
  5
60C5C
330
60C57
100
AcDbAssocActionParam
 90
        0
  1
Origin
100
AcDbAssocSingleDependencyActionParam
 90
        0
330
0
100
AcDbAssocVertexActionParam
 90
        0
 10
295.5376614006192
 20
-26.08712868658566
 30
0.0
  0
ACDBASSOCVERTEXACTIONPARAM
  5
60C5D
330
60C57
100
AcDbAssocActionParam
 90
        0
  1
BaseNormal
100
AcDbAssocSingleDependencyActionParam
 90
        0
330
0
100
AcDbAssocVertexActionParam
 90
        0
 10
0.0
 20
0.0
 30
0.125
  0
ACDBASSOCVERTEXACTIONPARAM
  5
60C5E
330
60C57
100
AcDbAssocActionParam
 90
        0
  1
basePoint
100
AcDbAssocSingleDependencyActionParam
 90
        0
330
0
100
AcDbAssocVertexActionParam
 90
        0
 10
0.0
 20
0.0
 30
0.0
  0
ACDBASSOCVERTEXACTIONPARAM
  5
60C64
330
60C5F
100
AcDbAssocActionParam
 90
        0
  1
Origin
100
AcDbAssocSingleDependencyActionParam
 90
        0
330
0
100
AcDbAssocVertexActionParam
 90
        0
 10
298.7263753683405
 20
131.8362622254316
 30
0.0
  0
ACDBASSOCVERTEXACTIONPARAM
  5
60C65
330
60C5F
100
AcDbAssocActionParam
 90
        0
  1
BaseNormal
100
AcDbAssocSingleDependencyActionParam
 90
        0
330
0
100
AcDbAssocVertexActionParam
 90
        0
 10
0.0
 20
0.0
 30
0.2
  0
ACDBASSOCVERTEXACTIONPARAM
  5
60C66
330
60C5F
100
AcDbAssocActionParam
 90
        0
  1
basePoint
100
AcDbAssocSingleDependencyActionParam
 90
        0
330
0
100
AcDbAssocVertexActionParam
 90
        0
 10
0.0
 20
0.0
 30
0.0
  0
ENDSEC
  0
EOF
