  0
SECTION
  2
HEADER
  9
$ACADVER
  1
AC1015
  9
$ACADMAINTVER
 70
    20
  9
$DWGCODEPAGE
  3
ANSI_932
  9
$INSBASE
 10
0.0
 20
0.0
 30
0.0
  9
$EXTMIN
 10
-234.613077
 20
-112.46397
 30
0.0
  9
$EXTMAX
 10
358.0996452911811
 20
164.53603
 30
0.0
  9
$LIMMIN
 10
-234.614083
 20
-112.464974
  9
$LIMMAX
 10
170.413781
 20
164.537026
  9
$ORTHOMODE
 70
     0
  9
$REGENMODE
 70
     1
  9
$FILLMODE
 70
     1
  9
$QTEXTMODE
 70
     0
  9
$MIRRTEXT
 70
     0
  9
$LTSCALE
 40
6.750430999999997
  9
$ATTMODE
 70
     1
  9
$TEXTSIZE
 40
3.2
  9
$TRACEWID
 40
0.05
  9
$TEXTSTYLE
  7
高3.2
  9
$CLAYER
  8
0
  9
$CELTYPE
  6
ByLayer
  9
$CECOLOR
 62
   256
  9
$CELTSCALE
 40
1.0
  9
$DISPSILH
 70
     0
  9
$DIMSCALE
 40
1.0
  9
$DIMASZ
 40
2.5
  9
$DIMEXO
 40
0.25
  9
$DIMDLI
 40
0.2
  9
$DIMRND
 40
0.0
  9
$DIMDLE
 40
0.0
  9
$DIMEXE
 40
1.25
  9
$DIMTP
 40
0.0
  9
$DIMTM
 40
0.0
  9
$DIMTXT
 40
3.0
  9
$DIMCEN
 40
0.0
  9
$DIMTSZ
 40
0.0
  9
$DIMTOL
 70
     0
  9
$DIMLIM
 70
     0
  9
$DIMTIH
 70
     0
  9
$DIMTOH
 70
     0
  9
$DIMSE1
 70
     0
  9
$DIMSE2
 70
     0
  9
$DIMTAD
 70
     3
  9
$DIMZIN
 70
     8
  9
$DIMBLK
  1
Open30
  9
$DIMASO
 70
     1
  9
$DIMSHO
 70
     1
  9
$DIMPOST
  1

  9
$DIMAPOST
  1

  9
$DIMALT
 70
     0
  9
$DIMALTD
 70
     3
  9
$DIMALTF
 40
0.03937007874016
  9
$DIMLFAC
 40
1.0
  9
$DIMTOFL
 70
     1
  9
$DIMTVP
 40
0.0
  9
$DIMTIX
 70
     0
  9
$DIMSOXD
 70
     0
  9
$DIMSAH
 70
     0
  9
$DIMBLK1
  1

  9
$DIMBLK2
  1

  9
$DIMSTYLE
  2
FREE
  9
$DIMCLRD
 70
     0
  9
$DIMCLRE
 70
     0
  9
$DIMCLRT
 70
     4
  9
$DIMTFAC
 40
1.0
  9
$DIMGAP
 40
0.625
  9
$DIMJUST
 70
     0
  9
$DIMSD1
 70
     0
  9
$DIMSD2
 70
     0
  9
$DIMTOLJ
 70
     0
  9
$DIMTZIN
 70
     8
  9
$DIMALTZ
 70
     0
  9
$DIMALTTZ
 70
     0
  9
$DIMUPT
 70
     1
  9
$DIMDEC
 70
     2
  9
$DIMTDEC
 70
     2
  9
$DIMALTU
 70
     2
  9
$DIMALTTD
 70
     3
  9
$DIMTXSTY
  7
STANDARD
  9
$DIMAUNIT
 70
     0
  9
$DIMADEC
 70
     1
  9
$DIMALTRND
 40
0.0
  9
$DIMAZIN
 70
     2
  9
$DIMDSEP
 70
    46
  9
$DIMATFIT
 70
     0
  9
$DIMFRAC
 70
     0
  9
$DIMLDRBLK
  1
Open30
  9
$DIMLUNIT
 70
     2
  9
$DIMLWD
 70
    -2
  9
$DIMLWE
 70
    -2
  9
$DIMTMOVE
 70
     0
  9
$LUNITS
 70
     2
  9
$LUPREC
 70
     4
  9
$SKETCHINC
 40
0.1
  9
$FILLETRAD
 40
0.0
  9
$AUNITS
 70
     0
  9
$AUPREC
 70
     0
  9
$MENU
  1
.
  9
$ELEVATION
 40
0.0
  9
$PELEVATION
 40
0.0
  9
$THICKNESS
 40
0.0
  9
$LIMCHECK
 70
     0
  9
$CHAMFERA
 40
0.0
  9
$CHAMFERB
 40
0.0
  9
$CHAMFERC
 40
0.0
  9
$CHAMFERD
 40
0.0
  9
$SKPOLY
 70
     0
  9
$TDCREATE
 40
2455439.617600903
  9
$TDUCREATE
 40
2455439.242600903
  9
$TDUPDATE
 40
2460251.678059815
  9
$TDUUPDATE
 40
2460251.303059815
  9
$TDINDWG
 40
0.2608230787
  9
$TDUSRTIMER
 40
0.2608178935
  9
$USRTIMER
 70
     1
  9
$ANGBASE
 50
0.0
  9
$ANGDIR
 70
     0
  9
$PDMODE
 70
     0
  9
$PDSIZE
 40
0.0
  9
$PLINEWID
 40
0.0
  9
$SPLFRAME
 70
     0
  9
$SPLINETYPE
 70
     6
  9
$SPLINESEGS
 70
     8
  9
$HANDSEED
  5
12D9
  9
$SURFTAB1
 70
     6
  9
$SURFTAB2
 70
     6
  9
$SURFTYPE
 70
     6
  9
$SURFU
 70
     6
  9
$SURFV
 70
     6
  9
$UCSBASE
  2

  9
$UCSNAME
  2

  9
$UCSORG
 10
0.0
 20
0.0
 30
0.0
  9
$UCSXDIR
 10
1.0
 20
0.0
 30
0.0
  9
$UCSYDIR
 10
0.0
 20
1.0
 30
0.0
  9
$UCSORTHOREF
  2

  9
$UCSORTHOVIEW
 70
     0
  9
$UCSORGTOP
 10
0.0
 20
0.0
 30
0.0
  9
$UCSORGBOTTOM
 10
0.0
 20
0.0
 30
0.0
  9
$UCSORGLEFT
 10
0.0
 20
0.0
 30
0.0
  9
$UCSORGRIGHT
 10
0.0
 20
0.0
 30
0.0
  9
$UCSORGFRONT
 10
0.0
 20
0.0
 30
0.0
  9
$UCSORGBACK
 10
0.0
 20
0.0
 30
0.0
  9
$PUCSBASE
  2

  9
$PUCSNAME
  2

  9
$PUCSORG
 10
0.0
 20
0.0
 30
0.0
  9
$PUCSXDIR
 10
1.0
 20
0.0
 30
0.0
  9
$PUCSYDIR
 10
0.0
 20
1.0
 30
0.0
  9
$PUCSORTHOREF
  2

  9
$PUCSORTHOVIEW
 70
     0
  9
$PUCSORGTOP
 10
0.0
 20
0.0
 30
0.0
  9
$PUCSORGBOTTOM
 10
0.0
 20
0.0
 30
0.0
  9
$PUCSORGLEFT
 10
0.0
 20
0.0
 30
0.0
  9
$PUCSORGRIGHT
 10
0.0
 20
0.0
 30
0.0
  9
$PUCSORGFRONT
 10
0.0
 20
0.0
 30
0.0
  9
$PUCSORGBACK
 10
0.0
 20
0.0
 30
0.0
  9
$USERI1
 70
     0
  9
$USERI2
 70
     0
  9
$USERI3
 70
     0
  9
$USERI4
 70
     0
  9
$USERI5
 70
     0
  9
$USERR1
 40
0.0
  9
$USERR2
 40
0.0
  9
$USERR3
 40
0.0
  9
$USERR4
 40
0.0
  9
$USERR5
 40
0.0
  9
$WORLDVIEW
 70
     1
  9
$SHADEDGE
 70
     3
  9
$SHADEDIF
 70
    70
  9
$TILEMODE
 70
     1
  9
$MAXACTVP
 70
    64
  9
$PINSBASE
 10
0.0
 20
0.0
 30
0.0
  9
$PLIMCHECK
 70
     0
  9
$PEXTMIN
 10
1.000000000000000E+20
 20
1.000000000000000E+20
 30
1.000000000000000E+20
  9
$PEXTMAX
 10
-1.000000000000000E+20
 20
-1.000000000000000E+20
 30
-1.000000000000000E+20
  9
$PLIMMIN
 10
0.0
 20
0.0
  9
$PLIMMAX
 10
12.0
 20
9.0
  9
$UNITMODE
 70
     0
  9
$VISRETAIN
 70
     1
  9
$PLINEGEN
 70
     0
  9
$PSLTSCALE
 70
     1
  9
$TREEDEPTH
 70
  3020
  9
$CMLSTYLE
  2
Standard
  9
$CMLJUST
 70
     0
  9
$CMLSCALE
 40
1.0
  9
$PROXYGRAPHICS
 70
     1
  9
$MEASUREMENT
 70
     0
  9
$CELWEIGHT
370
    -1
  9
$ENDCAPS
280
     0
  9
$JOINSTYLE
280
     0
  9
$LWDISPLAY
290
     0
  9
$INSUNITS
 70
     0
  9
$HYPERLINKBASE
  1

  9
$STYLESHEET
  1
N-PLOT.CTB
  9
$XEDIT
290
     1
  9
$CEPSNTYPE
380
     0
  9
$PSTYLEMODE
290
     1
  9
$FINGERPRINTGUID
  2
{DBA5E3AE-851E-47E5-8757-941303FE75F5}
  9
$VERSIONGUID
  2
{277A09C2-827D-47E8-837C-8350DFB06DED}
  9
$EXTNAMES
290
     1
  9
$PSVPSCALE
 40
0.0
  9
$OLESTARTUP
290
     0
  0
ENDSEC
  0
SECTION
  2
CLASSES
  0
CLASS
  1
ACDBDICTIONARYWDFLT
  2
AcDbDictionaryWithDefault
  3
ObjectDBX Classes
 90
        0
280
     0
281
     0
  0
CLASS
  1
MATERIAL
  2
AcDbMaterial
  3
ObjectDBX Classes
 90
     1153
280
     0
281
     0
  0
CLASS
  1
VISUALSTYLE
  2
AcDbVisualStyle
  3
ObjectDBX Classes
 90
     4095
280
     0
281
     0
  0
CLASS
  1
TABLESTYLE
  2
AcDbTableStyle
  3
ObjectDBX Classes
 90
     4095
280
     0
281
     0
  0
CLASS
  1
SORTENTSTABLE
  2
AcDbSortentsTable
  3
ObjectDBX Classes
 90
        0
280
     0
281
     0
  0
CLASS
  1
DICTIONARYVAR
  2
AcDbDictionaryVar
  3
ObjectDBX Classes
 90
        0
280
     0
281
     0
  0
CLASS
  1
ACDBPLACEHOLDER
  2
AcDbPlaceHolder
  3
ObjectDBX Classes
 90
        0
280
     0
281
     0
  0
CLASS
  1
LAYOUT
  2
AcDbLayout
  3
ObjectDBX Classes
 90
        0
280
     0
281
     0
  0
CLASS
  1
SCALE
  2
AcDbScale
  3
ObjectDBX Classes
 90
     1153
280
     0
281
     0
  0
CLASS
  1
MLEADERSTYLE
  2
AcDbMLeaderStyle
  3
ACDB_MLEADERSTYLE_CLASS
 90
     4095
280
     0
281
     0
  0
CLASS
  1
CELLSTYLEMAP
  2
AcDbCellStyleMap
  3
ObjectDBX Classes
 90
     1152
280
     0
281
     0
  0
CLASS
  1
AEC_REFEDIT_STATUS_TRACKER
  2
AecDbRefEditStatusTracker
  3
AecArchBase60|Product Desc: Autodesk Architectural Desktop 2007 |Company: Autodesk,Inc. |WEB Address: www.autodesk.com
 90
      129
280
     0
281
     0
  0
CLASS
  1
NPOCOLLECTION
  2
AcDbImpNonPersistentObjectsCollection
  3
ObjectDBX Classes
 90
     1153
280
     0
281
     0
  0
ENDSEC
  0
SECTION
  2
TABLES
  0
TABLE
  2
VPORT
  5
8
330
0
100
AcDbSymbolTable
 70
     1
  0
VPORT
  5
56
330
8
100
AcDbSymbolTableRecord
100
AcDbViewportTableRecord
  2
*Active
 70
     0
 10
0.0
 20
0.0
 11
1.0
 21
1.0
 12
-0.4967027390263184
 22
-36.92034447852433
 13
0.0
 23
0.0
 14
1.0
 24
1.0
 15
0.0
 25
0.0
 16
0.0
 26
0.0
 36
1.0
 17
0.0
 27
0.0
 37
0.0
 40
700.8987372469583
 41
1.570561456752655
 42
50.0
 43
0.0
 44
0.0
 50
0.0
 51
0.0
 71
     0
 72
   100
 73
     1
 74
     1
 75
     0
 76
     0
 77
     0
 78
     0
281
     0
 65
     1
110
0.0
120
0.0
130
0.0
111
1.0
121
0.0
131
0.0
112
0.0
122
1.0
132
0.0
 79
     0
146
0.0
  0
ENDTAB
  0
TABLE
  2
LTYPE
  5
5
330
0
100
AcDbSymbolTable
 70
     1
  0
LTYPE
  5
28
330
5
100
AcDbSymbolTableRecord
100
AcDbLinetypeTableRecord
  2
ByBlock
 70
     0
  3

 72
    65
 73
     0
 40
0.0
  0
LTYPE
  5
29
330
5
100
AcDbSymbolTableRecord
100
AcDbLinetypeTableRecord
  2
ByLayer
 70
     0
  3

 72
    65
 73
     0
 40
0.0
  0
LTYPE
  5
2A
330
5
100
AcDbSymbolTableRecord
100
AcDbLinetypeTableRecord
  2
CONTINUOUS
 70
     0
  3
Solid-line
 72
    65
 73
     0
 40
0.0
  0
ENDTAB
  0
TABLE
  2
LAYER
  5
2
102
{ACAD_XDICTIONARY
360
47E
102
}
330
0
100
AcDbSymbolTable
 70
     2
  0
LAYER
  5
25
102
{ACAD_XDICTIONARY
360
952
102
}
330
2
100
AcDbSymbolTableRecord
100
AcDbLayerTableRecord
  2
0
 70
     0
 62
     7
  6
CONTINUOUS
370
    -3
390
F
  0
LAYER
  5
470
330
2
100
AcDbSymbolTableRecord
100
AcDbLayerTableRecord
  2
Defpoints
 70
     0
 62
     7
  6
CONTINUOUS
290
     0
370
    -3
390
F
  0
ENDTAB
  0
TABLE
  2
STYLE
  5
3
330
0
100
AcDbSymbolTable
 70
     6
  0
STYLE
  5
26
330
3
100
AcDbSymbolTableRecord
100
AcDbTextStyleTableRecord
  2
STANDARD
 70
     0
 40
0.0
 41
1.0
 50
0.0
 71
     0
 42
0.2
  3
TXT
  4
BIGFONT
  0
STYLE
  5
471
330
3
100
AcDbSymbolTableRecord
100
AcDbTextStyleTableRecord
  2
高3.2
 70
     0
 40
3.2
 41
1.0
 50
0.0
 71
     0
 42
3.2
  3
txt.shx
  4
bigfont.shx
  0
STYLE
  5
472
330
3
100
AcDbSymbolTableRecord
100
AcDbTextStyleTableRecord
  2
高6.3
 70
     0
 40
6.299999999999998
 41
1.0
 50
0.0
 71
     0
 42
6.299999999999998
  3
txt.shx
  4
bigfont.shx
  0
STYLE
  5
474
330
3
100
AcDbSymbolTableRecord
100
AcDbTextStyleTableRecord
  2
高4.5
 70
     0
 40
4.5
 41
1.0
 50
0.0
 71
     0
 42
6.299999999999998
  3
txt.shx
  4
bigfont.shx
  0
STYLE
  5
78E
330
3
100
AcDbSymbolTableRecord
100
AcDbTextStyleTableRecord
  2
高2
 70
     0
 40
2.0
 41
1.0
 50
0.0
 71
     0
 42
2.0
  3
txt.shx
  4
bigfont.shx
  0
STYLE
  5
CD5
330
3
100
AcDbSymbolTableRecord
100
AcDbTextStyleTableRecord
  2
高2.5
 70
     0
 40
2.5
 41
1.0
 50
0.0
 71
     0
 42
0.2
  3
txt.shx
  4
bigfont.shx
  0
ENDTAB
  0
TABLE
  2
VIEW
  5
6
330
0
100
AcDbSymbolTable
 70
     0
  0
ENDTAB
  0
TABLE
  2
UCS
  5
7
330
0
100
AcDbSymbolTable
 70
     0
  0
ENDTAB
  0
TABLE
  2
APPID
  5
9
330
0
100
AcDbSymbolTable
 70
    10
  0
APPID
  5
27
330
9
100
AcDbSymbolTableRecord
100
AcDbRegAppTableRecord
  2
ACAD
 70
     0
  0
APPID
  5
47D
330
9
100
AcDbSymbolTableRecord
100
AcDbRegAppTableRecord
  2
ACAD_DSTYLE_DIMJOGGED_JOGANGLE_SYMBOL
 70
     0
  0
APPID
  5
5F1
330
9
100
AcDbSymbolTableRecord
100
AcDbRegAppTableRecord
  2
ACAD_EXEMPT_FROM_CAD_STANDARDS
 70
     0
  0
APPID
  5
622
330
9
100
AcDbSymbolTableRecord
100
AcDbRegAppTableRecord
  2
ACAD_DSTYLE_DIMARC_LENGTH_SYMBOL
 70
     0
  0
APPID
  5
623
330
9
100
AcDbSymbolTableRecord
100
AcDbRegAppTableRecord
  2
ACAD_DSTYLE_DIMEXT_LENGTH
 70
     0
  0
APPID
  5
791
330
9
100
AcDbSymbolTableRecord
100
AcDbRegAppTableRecord
  2
ACAD_DSTYLE_DIMJAG
 70
     0
  0
APPID
  5
792
330
9
100
AcDbSymbolTableRecord
100
AcDbRegAppTableRecord
  2
ACAD_DSTYLE_DIMBREAK
 70
     0
  0
APPID
  5
793
330
9
100
AcDbSymbolTableRecord
100
AcDbRegAppTableRecord
  2
ACAD_DSTYLE_DIMTALN
 70
     0
  0
APPID
  5
999
330
9
100
AcDbSymbolTableRecord
100
AcDbRegAppTableRecord
  2
ACAD_PSEXT
 70
     0
  0
APPID
  5
9E3
330
9
100
AcDbSymbolTableRecord
100
AcDbRegAppTableRecord
  2
ACAD_MLEADERVER
 70
     0
  0
ENDTAB
  0
TABLE
  2
DIMSTYLE
  5
A
330
0
100
AcDbSymbolTable
 70
    11
100
AcDbDimStyleTable
 71
     3
340
790
340
475
340
479
  0
DIMSTYLE
105
3F8
330
A
100
AcDbSymbolTableRecord
100
AcDbDimStyleTableRecord
  2
Standard
 70
     0
340
26
  0
DIMSTYLE
105
475
330
A
100
AcDbSymbolTableRecord
100
AcDbDimStyleTableRecord
  2
1：1
 70
     0
 41
2.5
 42
0.25
 43
0.2
 44
1.25
 73
     0
 74
     0
 77
     3
 78
     8
 79
     2
140
3.0
141
0.0
143
0.03937007874016
147
0.625
171
     3
172
     1
178
     4
179
     1
271
     2
272
     2
274
     3
283
     0
284
     8
288
     1
289
     0
340
26
341
3FA
342
3FA
1001
ACAD_DSTYLE_DIMARC_LENGTH_SYMBOL
1070
   379
1070
     2
1001
ACAD_DSTYLE_DIMEXT_LENGTH
1070
   378
1040
1.25
1001
ACAD_DSTYLE_DIMJOGGED_JOGANGLE_SYMBOL
1070
   384
1040
1.570796326794896
  0
DIMSTYLE
105
479
330
A
100
AcDbSymbolTableRecord
100
AcDbDimStyleTableRecord
  2
1／2
 70
     0
 41
2.5
 42
0.25
 43
0.2
 44
1.25
 73
     0
 74
     0
 77
     3
 78
     8
 79
     2
140
3.0
141
0.0
143
0.03937007874016
144
2.0
147
0.625
171
     3
172
     1
178
     4
179
     1
271
     2
272
     2
274
     3
283
     0
284
     8
288
     1
289
     0
340
26
341
3FA
342
3FA
1001
ACAD_DSTYLE_DIMARC_LENGTH_SYMBOL
1070
   379
1070
     2
1001
ACAD_DSTYLE_DIMEXT_LENGTH
1070
   378
1040
1.25
1001
ACAD_DSTYLE_DIMJOGGED_JOGANGLE_SYMBOL
1070
   384
1040
1.570796326794896
  0
DIMSTYLE
105
790
330
A
100
AcDbSymbolTableRecord
100
AcDbDimStyleTableRecord
  2
FREE
 70
     0
 41
2.5
 42
0.25
 43
0.2
 44
1.25
 73
     0
 74
     0
 77
     3
 78
     8
 79
     2
140
3.0
141
0.0
143
0.03937007874016
147
0.625
171
     3
172
     1
178
     4
179
     1
271
     2
272
     2
274
     3
283
     0
284
     8
288
     1
289
     0
340
26
341
3FA
342
3FA
1001
ACAD_DSTYLE_DIMBREAK
1070
   391
1040
3.75
1001
ACAD_DSTYLE_DIMJAG
1070
   388
1040
1.5
1001
ACAD_DSTYLE_DIMTALN
1070
   392
1070
     0
1001
ACAD_DSTYLE_DIMARC_LENGTH_SYMBOL
1070
   379
1070
     2
1001
ACAD_DSTYLE_DIMEXT_LENGTH
1070
   378
1040
1.25
1001
ACAD_DSTYLE_DIMJOGGED_JOGANGLE_SYMBOL
1070
   384
1040
1.570796326794896
  0
DIMSTYLE
105
CD6
330
A
100
AcDbSymbolTableRecord
100
AcDbDimStyleTableRecord
  2
2：1
 70
     0
 41
2.5
 42
0.25
 43
0.2
 44
1.25
 73
     0
 74
     0
 77
     3
 78
     8
 79
     2
140
3.0
141
0.0
143
0.03937007874016
144
0.5
147
0.625
171
     3
172
     1
178
     4
179
     1
271
     2
272
     2
274
     3
283
     0
284
     8
288
     1
289
     0
340
26
341
3FA
342
3FA
1001
ACAD_DSTYLE_DIMARC_LENGTH_SYMBOL
1070
   379
1070
     2
1001
ACAD_DSTYLE_DIMEXT_LENGTH
1070
   378
1040
1.25
1001
ACAD_DSTYLE_DIMJOGGED_JOGANGLE_SYMBOL
1070
   384
1040
1.570796326794896
  0
DIMSTYLE
105
CD7
330
A
100
AcDbSymbolTableRecord
100
AcDbDimStyleTableRecord
  2
5：1
 70
     0
 41
2.5
 42
0.25
 43
0.2
 44
1.25
 73
     0
 74
     0
 77
     3
 78
     8
 79
     2
140
3.0
141
0.0
143
0.03937007874016
144
0.2
147
0.625
171
     3
172
     1
178
     4
179
     1
271
     2
272
     2
274
     3
283
     0
284
     8
288
     1
289
     0
340
26
341
3FA
342
3FA
1001
ACAD_DSTYLE_DIMARC_LENGTH_SYMBOL
1070
   379
1070
     2
1001
ACAD_DSTYLE_DIMEXT_LENGTH
1070
   378
1040
1.25
1001
ACAD_DSTYLE_DIMJOGGED_JOGANGLE_SYMBOL
1070
   384
1040
1.570796326794896
  0
DIMSTYLE
105
CD8
330
A
100
AcDbSymbolTableRecord
100
AcDbDimStyleTableRecord
  2
10：1
 70
     0
 41
2.5
 42
0.25
 43
0.2
 44
1.25
 73
     0
 74
     0
 77
     3
 78
     8
 79
     2
140
3.0
141
0.0
143
0.03937007874016
144
0.1
147
0.625
171
     3
172
     1
178
     4
179
     1
271
     2
272
     2
274
     3
283
     0
284
     8
288
     1
289
     0
340
26
341
3FA
342
3FA
1001
ACAD_DSTYLE_DIMARC_LENGTH_SYMBOL
1070
   379
1070
     2
1001
ACAD_DSTYLE_DIMEXT_LENGTH
1070
   378
1040
1.25
1001
ACAD_DSTYLE_DIMJOGGED_JOGANGLE_SYMBOL
1070
   384
1040
1.570796326794896
  0
DIMSTYLE
105
CD9
330
A
100
AcDbSymbolTableRecord
100
AcDbDimStyleTableRecord
  2
1／5
 70
     0
 41
2.5
 42
0.25
 43
0.2
 44
1.25
 73
     0
 74
     0
 77
     3
 78
     8
 79
     2
140
3.0
141
0.0
143
0.03937007874016
144
5.0
147
0.625
171
     3
172
     1
178
     4
179
     1
271
     2
272
     2
274
     3
283
     0
284
     8
288
     1
289
     0
340
26
341
3FA
342
3FA
1001
ACAD_DSTYLE_DIMARC_LENGTH_SYMBOL
1070
   379
1070
     2
1001
ACAD_DSTYLE_DIMEXT_LENGTH
1070
   378
1040
1.25
1001
ACAD_DSTYLE_DIMJOGGED_JOGANGLE_SYMBOL
1070
   384
1040
1.570796326794896
  0
DIMSTYLE
105
CDA
330
A
100
AcDbSymbolTableRecord
100
AcDbDimStyleTableRecord
  2
1／10
 70
     0
 41
2.5
 42
0.25
 43
0.2
 44
1.25
 73
     0
 74
     0
 77
     3
 78
     8
 79
     2
140
3.0
141
0.0
143
0.03937007874016
144
10.0
147
0.625
171
     3
172
     1
178
     4
179
     1
271
     2
272
     2
274
     3
283
     0
284
     8
288
     1
289
     0
340
26
341
3FA
342
3FA
1001
ACAD_DSTYLE_DIMARC_LENGTH_SYMBOL
1070
   379
1070
     2
1001
ACAD_DSTYLE_DIMEXT_LENGTH
1070
   378
1040
1.25
1001
ACAD_DSTYLE_DIMJOGGED_JOGANGLE_SYMBOL
1070
   384
1040
1.570796326794896
  0
DIMSTYLE
105
CDB
330
A
100
AcDbSymbolTableRecord
100
AcDbDimStyleTableRecord
  2
1／4
 70
     0
 41
2.5
 42
0.25
 43
0.2
 44
1.25
 73
     0
 74
     0
 77
     3
 78
     8
 79
     2
140
3.0
141
0.0
143
0.03937007874016
144
4.0
147
0.625
171
     3
172
     1
178
     4
179
     1
271
     2
272
     2
274
     3
283
     0
284
     8
288
     1
289
     0
340
26
341
3FA
342
3FA
1001
ACAD_DSTYLE_DIMARC_LENGTH_SYMBOL
1070
   379
1070
     2
1001
ACAD_DSTYLE_DIMEXT_LENGTH
1070
   378
1040
1.25
1001
ACAD_DSTYLE_DIMJOGGED_JOGANGLE_SYMBOL
1070
   384
1040
1.570796326794896
  0
DIMSTYLE
105
CDC
330
A
100
AcDbSymbolTableRecord
100
AcDbDimStyleTableRecord
  2
1／3
 70
     0
 41
2.5
 42
0.25
 43
0.2
 44
1.25
 73
     0
 74
     0
 77
     3
 78
     8
 79
     2
140
3.0
141
0.0
143
0.03937007874016
144
3.0
147
0.625
171
     3
172
     1
178
     4
179
     1
271
     2
272
     2
274
     3
283
     0
284
     8
288
     1
289
     0
340
26
341
3FA
342
3FA
1001
ACAD_DSTYLE_DIMARC_LENGTH_SYMBOL
1070
   379
1070
     2
1001
ACAD_DSTYLE_DIMEXT_LENGTH
1070
   378
1040
1.25
1001
ACAD_DSTYLE_DIMJOGGED_JOGANGLE_SYMBOL
1070
   384
1040
1.570796326794896
  0
ENDTAB
  0
TABLE
  2
BLOCK_RECORD
  5
1
330
0
100
AcDbSymbolTable
 70
    28
  0
BLOCK_RECORD
  5
36
102
{ACAD_XDICTIONARY
360
5E1
102
}
330
1
100
AcDbSymbolTableRecord
100
AcDbBlockTableRecord
  2
*Model_Space
340
39
  0
BLOCK_RECORD
  5
32
330
1
100
AcDbSymbolTableRecord
100
AcDbBlockTableRecord
  2
*Paper_Space
340
35
  0
BLOCK_RECORD
  5
3FA
330
1
100
AcDbSymbolTableRecord
100
AcDbBlockTableRecord
  2
_Open30
340
0
102
{BLKREFS
331
E3C
331
E3D
331
E45
331
E46
331
E4E
331
E4F
331
E57
331
E58
102
}
  0
BLOCK_RECORD
  5
55C
330
1
100
AcDbSymbolTableRecord
100
AcDbBlockTableRecord
  2
*D1
340
0
  0
BLOCK_RECORD
  5
571
330
1
100
AcDbSymbolTableRecord
100
AcDbBlockTableRecord
  2
*D2
340
0
  0
BLOCK_RECORD
  5
58F
330
1
100
AcDbSymbolTableRecord
100
AcDbBlockTableRecord
  2
*D3
340
0
  0
BLOCK_RECORD
  5
5C2
330
1
100
AcDbSymbolTableRecord
100
AcDbBlockTableRecord
  2
*D4
340
0
  0
BLOCK_RECORD
  5
8E0
330
1
100
AcDbSymbolTableRecord
100
AcDbBlockTableRecord
  2
_DotSmall
340
0
  0
ENDTAB
  0
ENDSEC
  0
SECTION
  2
BLOCKS
  0
BLOCK
  5
37
330
36
100
AcDbEntity
  8
0
100
AcDbBlockBegin
  2
*Model_Space
 70
     0
 10
0.0
 20
0.0
 30
0.0
  3
*Model_Space
  1

  0
ENDBLK
  5
38
330
36
100
AcDbEntity
  8
0
100
AcDbBlockEnd
  0
BLOCK
  5
33
330
32
100
AcDbEntity
 67
     1
  8
0
100
AcDbBlockBegin
  2
*Paper_Space
 70
     0
 10
0.0
 20
0.0
 30
0.0
  3
*Paper_Space
  1

  0
ENDBLK
  5
34
330
32
100
AcDbEntity
 67
     1
  8
0
100
AcDbBlockEnd
  0
BLOCK
  5
3FB
330
3FA
100
AcDbEntity
  8
0
100
AcDbBlockBegin
  2
_Open30
 70
     0
 10
0.0
 20
0.0
 30
0.0
  3
_Open30
  1

  0
LINE
  5
3FC
330
3FA
100
AcDbEntity
  8
0
  6
ByBlock
 62
     0
370
    -2
100
AcDbLine
 10
-1.0
 20
0.267949
 30
0.0
 11
0.0
 21
0.0
 31
0.0
  0
LINE
  5
3FD
330
3FA
100
AcDbEntity
  8
0
  6
ByBlock
 62
     0
370
    -2
100
AcDbLine
 10
0.0
 20
0.0
 30
0.0
 11
-1.0
 21
-0.267949
 31
0.0
  0
LINE
  5
3FE
330
3FA
100
AcDbEntity
  8
0
  6
ByBlock
 62
     0
370
    -2
100
AcDbLine
 10
0.0
 20
0.0
 30
0.0
 11
-1.0
 21
0.0
 31
0.0
  0
ENDBLK
  5
3FF
330
3FA
100
AcDbEntity
  8
0
100
AcDbBlockEnd
  0
BLOCK
  5
566
330
55C
100
AcDbEntity
  8
0
100
AcDbBlockBegin
  2
*D1
 70
     1
 10
0.0
 20
0.0
 30
0.0
  3
*D1
  1

  0
LINE
  5
E39
330
55C
100
AcDbEntity
  8
0
 62
     0
370
    -2
100
AcDbLine
 10
-171.153666
 20
30.700126
 30
0.0
 11
-171.153666
 21
11.643591
 31
0.0
  0
LINE
  5
E3A
330
55C
100
AcDbEntity
  8
0
 62
     0
370
    -2
100
AcDbLine
 10
-91.15366599999999
 20
25.700126
 30
0.0
 11
-91.15366599999999
 21
11.643591
 31
0.0
  0
LINE
  5
E3B
330
55C
100
AcDbEntity
  8
0
 62
     0
370
    -2
100
AcDbLine
 10
-168.6536659999999
 20
12.893591
 30
0.0
 11
-93.65366599999999
 21
12.893591
 31
0.0
  0
INSERT
  5
E3C
330
55C
100
AcDbEntity
  8
0
 62
     0
370
    -2
100
AcDbBlockReference
  2
_Open30
 10
-171.153666
 20
12.893591
 30
0.0
 41
2.5
 42
2.5
 43
2.5
 50
180.0
  0
INSERT
  5
E3D
330
55C
100
AcDbEntity
  8
0
 62
     0
370
    -2
100
AcDbBlockReference
  2
_Open30
 10
-91.15366599999999
 20
12.893591
 30
0.0
 41
2.5
 42
2.5
 43
2.5
  0
MTEXT
  5
E3E
330
55C
100
AcDbEntity
  8
0
 62
     4
100
AcDbMText
 10
-131.153666
 20
15.018591
 30
0.0
 40
3.0
 41
0.0
 71
     5
 72
     1
  1
160
 73
     1
 44
1.0
1001
ACAD
1000
MTEXTBEGIN
1070
    73
1070
     1
1070
    44
1040
1.0
1070
    74
1070
     0
1000
MTEXTEND
  0
POINT
  5
E3F
330
55C
100
AcDbEntity
  8
Defpoints
 62
     0
100
AcDbPoint
 10
-171.153666
 20
30.950126
 30
0.0
  0
POINT
  5
E40
330
55C
100
AcDbEntity
  8
Defpoints
 62
     0
100
AcDbPoint
 10
-91.15366599999999
 20
25.950126
 30
0.0
  0
POINT
  5
E41
330
55C
100
AcDbEntity
  8
Defpoints
 62
     0
100
AcDbPoint
 10
-91.15366599999999
 20
12.893591
 30
0.0
  0
ENDBLK
  5
567
330
55C
100
AcDbEntity
  8
0
100
AcDbBlockEnd
  0
BLOCK
  5
57B
330
571
100
AcDbEntity
  8
0
100
AcDbBlockBegin
  2
*D2
 70
     1
 10
0.0
 20
0.0
 30
0.0
  3
*D2
  1

  0
LINE
  5
E42
330
571
100
AcDbEntity
  8
0
 62
     0
370
    -2
100
AcDbLine
 10
-102.153666
 20
19.950126
 30
0.0
 11
-79.33375400000002
 21
19.950126
 31
0.0
  0
LINE
  5
E43
330
571
100
AcDbEntity
  8
0
 62
     0
370
    -2
100
AcDbLine
 10
-130.903666
 20
125.950126
 30
0.0
 11
-79.333754
 21
125.950126
 31
0.0
  0
LINE
  5
E44
330
571
100
AcDbEntity
  8
0
 62
     0
370
    -2
100
AcDbLine
 10
-80.58375400000002
 20
22.450126
 30
0.0
 11
-80.583754
 21
123.450126
 31
0.0
  0
INSERT
  5
E45
330
571
100
AcDbEntity
  8
0
 62
     0
370
    -2
100
AcDbBlockReference
  2
_Open30
 10
-80.58375400000002
 20
19.950126
 30
0.0
 41
2.5
 42
2.5
 43
2.5
 50
270.0
  0
INSERT
  5
E46
330
571
100
AcDbEntity
  8
0
 62
     0
370
    -2
100
AcDbBlockReference
  2
_Open30
 10
-80.583754
 20
125.950126
 30
0.0
 41
2.5
 42
2.5
 43
2.5
 50
90.0
  0
MTEXT
  5
E47
330
571
100
AcDbEntity
  8
0
 62
     4
100
AcDbMText
 10
-82.70875400000003
 20
72.95012599999997
 30
0.0
 40
3.0
 41
0.0
 71
     5
 72
     1
  1
220
 11
0.0000000000000001
 21
1.0
 31
0.0
 73
     1
 44
1.0
1001
ACAD
1000
MTEXTBEGIN
1070
    73
1070
     1
1070
    44
1040
1.0
1070
    74
1070
     0
1000
MTEXTEND
  0
POINT
  5
E48
330
571
100
AcDbEntity
  8
Defpoints
 62
     0
100
AcDbPoint
 10
-102.403666
 20
19.950126
 30
0.0
  0
POINT
  5
E49
330
571
100
AcDbEntity
  8
Defpoints
 62
     0
100
AcDbPoint
 10
-131.153666
 20
125.950126
 30
0.0
  0
POINT
  5
E4A
330
571
100
AcDbEntity
  8
Defpoints
 62
     0
100
AcDbPoint
 10
-80.583754
 20
125.950126
 30
0.0
  0
ENDBLK
  5
57C
330
571
100
AcDbEntity
  8
0
100
AcDbBlockEnd
  0
BLOCK
  5
599
330
58F
100
AcDbEntity
  8
0
100
AcDbBlockBegin
  2
*D3
 70
     1
 10
0.0
 20
0.0
 30
0.0
  3
*D3
  1

  0
LINE
  5
E4B
330
58F
100
AcDbEntity
  8
0
 62
     0
370
    -2
100
AcDbLine
 10
-45.661158
 20
25.950126
 30
0.0
 11
-58.90628100000002
 21
25.950126
 31
0.0
  0
LINE
  5
E4C
330
58F
100
AcDbEntity
  8
0
 62
     0
370
    -2
100
AcDbLine
 10
-48.161158
 20
105.950126
 30
0.0
 11
-58.906281
 21
105.950126
 31
0.0
  0
LINE
  5
E4D
330
58F
100
AcDbEntity
  8
0
 62
     0
370
    -2
100
AcDbLine
 10
-57.65628100000002
 20
28.450126
 30
0.0
 11
-57.656281
 21
103.450126
 31
0.0
  0
INSERT
  5
E4E
330
58F
100
AcDbEntity
  8
0
 62
     0
370
    -2
100
AcDbBlockReference
  2
_Open30
 10
-57.65628100000002
 20
25.950126
 30
0.0
 41
2.5
 42
2.5
 43
2.5
 50
270.0
  0
INSERT
  5
E4F
330
58F
100
AcDbEntity
  8
0
 62
     0
370
    -2
100
AcDbBlockReference
  2
_Open30
 10
-57.656281
 20
105.950126
 30
0.0
 41
2.5
 42
2.5
 43
2.5
 50
90.0
  0
MTEXT
  5
E50
330
58F
100
AcDbEntity
  8
0
 62
     4
100
AcDbMText
 10
-59.78128100000002
 20
65.95012599999998
 30
0.0
 40
3.0
 41
0.0
 71
     5
 72
     1
  1
170
 11
0.0000000000000001
 21
1.0
 31
0.0
 73
     1
 44
1.0
1001
ACAD
1000
MTEXTBEGIN
1070
    73
1070
     1
1070
    44
1040
1.0
1070
    74
1070
     0
1000
MTEXTEND
  0
POINT
  5
E51
330
58F
100
AcDbEntity
  8
Defpoints
 62
     0
100
AcDbPoint
 10
-45.411158
 20
25.950126
 30
0.0
  0
POINT
  5
E52
330
58F
100
AcDbEntity
  8
Defpoints
 62
     0
100
AcDbPoint
 10
-47.911158
 20
105.950126
 30
0.0
  0
POINT
  5
E53
330
58F
100
AcDbEntity
  8
Defpoints
 62
     0
100
AcDbPoint
 10
-57.656281
 20
105.950126
 30
0.0
  0
ENDBLK
  5
59A
330
58F
100
AcDbEntity
  8
0
100
AcDbBlockEnd
  0
BLOCK
  5
5CC
330
5C2
100
AcDbEntity
  8
0
100
AcDbBlockBegin
  2
*D4
 70
     1
 10
0.0
 20
0.0
 30
0.0
  3
*D4
  1

  0
LINE
  5
E54
330
5C2
100
AcDbEntity
  8
0
 62
     0
370
    -2
100
AcDbLine
 10
-47.911158
 20
28.200126
 30
0.0
 11
-47.911158
 21
11.643591
 31
0.0
  0
LINE
  5
E55
330
5C2
100
AcDbEntity
  8
0
 62
     0
370
    -2
100
AcDbLine
 10
82.08884199999998
 20
66.70012599999999
 30
0.0
 11
82.08884199999998
 21
11.643591
 31
0.0
  0
LINE
  5
E56
330
5C2
100
AcDbEntity
  8
0
 62
     0
370
    -2
100
AcDbLine
 10
-45.411158
 20
12.893591
 30
0.0
 11
79.58884199999999
 21
12.893591
 31
0.0
  0
INSERT
  5
E57
330
5C2
100
AcDbEntity
  8
0
 62
     0
370
    -2
100
AcDbBlockReference
  2
_Open30
 10
-47.911158
 20
12.893591
 30
0.0
 41
2.5
 42
2.5
 43
2.5
 50
180.0
  0
INSERT
  5
E58
330
5C2
100
AcDbEntity
  8
0
 62
     0
370
    -2
100
AcDbBlockReference
  2
_Open30
 10
82.08884199999998
 20
12.893591
 30
0.0
 41
2.5
 42
2.5
 43
2.5
  0
MTEXT
  5
E59
330
5C2
100
AcDbEntity
  8
0
 62
     4
100
AcDbMText
 10
17.08884199999999
 20
15.018591
 30
0.0
 40
3.0
 41
0.0
 71
     5
 72
     1
  1
273
 73
     1
 44
1.0
1001
ACAD
1000
MTEXTBEGIN
1070
    73
1070
     1
1070
    44
1040
1.0
1070
    74
1070
     0
1000
MTEXTEND
  0
POINT
  5
E5A
330
5C2
100
AcDbEntity
  8
Defpoints
 62
     0
100
AcDbPoint
 10
-47.911158
 20
28.450126
 30
0.0
  0
POINT
  5
E5B
330
5C2
100
AcDbEntity
  8
Defpoints
 62
     0
100
AcDbPoint
 10
82.08884199999998
 20
66.950126
 30
0.0
  0
POINT
  5
E5C
330
5C2
100
AcDbEntity
  8
Defpoints
 62
     0
100
AcDbPoint
 10
82.08884199999998
 20
12.893591
 30
0.0
  0
ENDBLK
  5
5CD
330
5C2
100
AcDbEntity
  8
0
100
AcDbBlockEnd
  0
BLOCK
  5
8E2
330
8E0
100
AcDbEntity
  8
0
100
AcDbBlockBegin
  2
_DotSmall
 70
     0
 10
0.0
 20
0.0
 30
0.0
  3
_DotSmall
  1

  0
LWPOLYLINE
  5
8E1
330
8E0
100
AcDbEntity
  8
0
  6
ByBlock
 62
     0
100
AcDbPolyline
 90
        2
 70
     1
 43
0.5
 10
-0.0625
 20
0.0
 42
1.0
 10
0.0625
 20
0.0
 42
1.0
  0
ENDBLK
  5
8E3
330
8E0
100
AcDbEntity
  8
0
100
AcDbBlockEnd
  0
ENDSEC
  0
SECTION
  2
ENTITIES
  0
LINE
  5
93
330
36
100
AcDbEntity
  8
0
 62
     3
100
AcDbLine
 10
69.58884199999999
 20
25.950126
 30
0.0
 11
68.588842
 21
19.950126
 31
0.0
  0
TEXT
  5
94
330
36
100
AcDbEntity
  8
0
 62
     3
100
AcDbText
 10
104.617454
 20
-101.298048
 30
0.0
 40
3.2
  1
FREE
  7
高3.2
100
AcDbText
  0
CIRCLE
  5
95
330
36
100
AcDbEntity
  8
0
 62
     3
100
AcDbCircle
 10
10.107483
 20
-28.989949
 30
0.0
 40
8.96
  0
LINE
  5
97
330
36
100
AcDbEntity
  8
0
 62
     3
100
AcDbLine
 10
82.08884199999998
 20
105.950126
 30
0.0
 11
-47.911158
 21
105.950126
 31
0.0
  0
LINE
  5
98
330
36
100
AcDbEntity
  8
0
 62
     3
100
AcDbLine
 10
-91.15366599999999
 20
25.950126
 30
0.0
 11
-171.153666
 21
25.950126
 31
0.0
  0
LINE
  5
99
330
36
100
AcDbEntity
  8
0
 62
     3
100
AcDbLine
 10
-109.153666
 20
25.950126
 30
0.0
 11
-108.153666
 21
19.950126
 31
0.0
  0
LINE
  5
9A
330
36
100
AcDbEntity
  8
0
 62
     3
100
AcDbLine
 10
-108.153666
 20
19.950126
 30
0.0
 11
-100.153666
 21
19.950126
 31
0.0
  0
LINE
  5
9B
330
36
100
AcDbEntity
  8
0
 62
     3
100
AcDbLine
 10
-153.153666
 20
25.950126
 30
0.0
 11
-154.153666
 21
19.950126
 31
0.0
  0
LINE
  5
9C
330
36
100
AcDbEntity
  8
0
 62
     3
100
AcDbLine
 10
-154.153666
 20
19.950126
 30
0.0
 11
-162.153666
 21
19.950126
 31
0.0
  0
LINE
  5
9D
330
36
100
AcDbEntity
  8
0
 62
     3
100
AcDbLine
 10
-99.153666
 20
25.950126
 30
0.0
 11
-100.153666
 21
19.950126
 31
0.0
  0
LINE
  5
9E
330
36
100
AcDbEntity
  8
0
 62
     3
100
AcDbLine
 10
-163.153666
 20
25.950126
 30
0.0
 11
-162.153666
 21
19.950126
 31
0.0
  0
LINE
  5
9F
330
36
100
AcDbEntity
  8
0
 62
     3
100
AcDbLine
 10
-35.411158
 20
25.950126
 30
0.0
 11
-34.411158
 21
19.950126
 31
0.0
  0
LINE
  5
A0
330
36
100
AcDbEntity
  8
0
 62
     3
100
AcDbLine
 10
-34.411158
 20
19.950126
 30
0.0
 11
-26.411158
 21
19.950126
 31
0.0
  0
LINE
  5
A1
330
36
100
AcDbEntity
  8
0
 62
     3
100
AcDbLine
 10
-25.411158
 20
25.950126
 30
0.0
 11
-26.411158
 21
19.950126
 31
0.0
  0
LINE
  5
A2
330
36
100
AcDbEntity
  8
0
 62
     3
100
AcDbLine
 10
-45.411158
 20
25.950126
 30
0.0
 11
80.088842
 21
25.950126
 31
0.0
  0
LINE
  5
A3
330
36
100
AcDbEntity
  8
0
 62
     3
100
AcDbLine
 10
59.588842
 20
25.950126
 30
0.0
 11
60.58884200000001
 21
19.950126
 31
0.0
  0
LINE
  5
A4
330
36
100
AcDbEntity
  8
0
 62
     3
100
AcDbLine
 10
68.588842
 20
19.950126
 30
0.0
 11
60.58884200000001
 21
19.950126
 31
0.0
  0
LINE
  5
A5
330
36
100
AcDbEntity
  8
0
 62
     3
100
AcDbLine
 10
-171.153666
 20
105.150126
 30
0.0
 11
-171.153666
 21
25.950126
 31
0.0
  0
LINE
  5
A6
330
36
100
AcDbEntity
  8
0
 62
     3
100
AcDbLine
 10
-96.95366599999999
 20
110.950126
 30
0.0
 11
-165.353666
 21
110.950126
 31
0.0
  0
LINE
  5
A7
330
36
100
AcDbEntity
  8
0
 62
     3
100
AcDbLine
 10
-91.15366599999999
 20
105.150126
 30
0.0
 11
-91.15366599999999
 21
25.950126
 31
0.0
  0
LINE
  5
AD
330
36
100
AcDbEntity
  8
0
 62
     3
100
AcDbLine
 10
140.5541077968434
 20
-14.799848
 30
0.0
 11
140.5541077968434
 21
-54.716648
 31
0.0
  0
TEXT
  5
AE
330
36
100
AcDbEntity
  8
0
 62
     3
100
AcDbText
 10
132.782284
 20
-101.390648
 30
0.0
 40
3.2
  1
1998.12.2
  7
高3.2
100
AcDbText
  0
TEXT
  5
B0
330
36
100
AcDbEntity
  8
0
 62
     3
100
AcDbText
 10
124.413885
 20
-111.415614
 30
0.0
 40
6.299999999999998
  1
F-300D
  7
高6.3
100
AcDbText
  0
ARC
  5
B1
330
36
100
AcDbEntity
  8
0
 62
     3
100
AcDbCircle
 10
80.088842
 20
27.950126
 30
0.0
 40
2.0
100
AcDbArc
 50
270.0
 51
0.0
  0
LINE
  5
B2
330
36
100
AcDbEntity
  8
0
 62
     3
100
AcDbLine
 10
82.08884199999998
 20
27.950126
 30
0.0
 11
82.08884199999998
 21
105.950126
 31
0.0
  0
CIRCLE
  5
D9
330
36
100
AcDbEntity
  8
0
100
AcDbCircle
 10
59.08884200000001
 20
30.950126
 30
0.0
 40
2.0
  0
CIRCLE
  5
DA
330
36
100
AcDbEntity
  8
0
100
AcDbCircle
 10
-20.911158
 20
30.950126
 30
0.0
 40
2.0
  0
LINE
  5
DB
330
36
100
AcDbEntity
  8
0
100
AcDbLine
 10
-91.95366599999999
 20
105.150126
 30
0.0
 11
-91.95366599999999
 21
25.950126
 31
0.0
  0
LINE
  5
DC
330
36
100
AcDbEntity
  8
0
100
AcDbLine
 10
-165.353666
 20
110.150126
 30
0.0
 11
-96.95366599999999
 21
110.150126
 31
0.0
  0
LINE
  5
DD
330
36
100
AcDbEntity
  8
0
100
AcDbLine
 10
-170.353666
 20
105.150126
 30
0.0
 11
-170.353666
 21
25.950126
 31
0.0
  0
LINE
  5
DF
330
36
100
AcDbEntity
  8
0
100
AcDbLine
 10
10.668001
 20
-6.987846
 30
0.0
 11
41.668001
 21
-6.987846
 31
0.0
  0
LINE
  5
E0
330
36
100
AcDbEntity
  8
0
100
AcDbLine
 10
10.107483
 20
-22.845949
 30
0.0
 11
10.107483
 21
-16.218064
 31
0.0
  0
LINE
  5
E1
330
36
100
AcDbEntity
  8
0
100
AcDbLine
 10
7.675482999999998
 20
-24.509949
 30
0.0
 11
12.539483
 21
-24.509949
 31
0.0
  0
LINE
  5
E2
330
36
100
AcDbEntity
  8
0
100
AcDbLine
 10
7.675482999999998
 20
-22.717949
 30
0.0
 11
12.539483
 21
-22.717949
 31
0.0
  0
LINE
  5
E3
330
36
100
AcDbEntity
  8
0
100
AcDbLine
 10
7.675482999999998
 20
-22.717949
 30
0.0
 11
7.675482999999998
 21
-24.509949
 31
0.0
  0
LINE
  5
E4
330
36
100
AcDbEntity
  8
0
100
AcDbLine
 10
5.627482999999998
 20
-26.557949
 30
0.0
 11
5.627482999999998
 21
-31.421949
 31
0.0
  0
LINE
  5
E5
330
36
100
AcDbEntity
  8
0
100
AcDbLine
 10
3.963483
 20
-26.557949
 30
0.0
 11
3.963483
 21
-31.421949
 31
0.0
  0
LINE
  5
E6
330
36
100
AcDbEntity
  8
0
100
AcDbLine
 10
3.963483
 20
-31.421949
 30
0.0
 11
5.627482999999998
 21
-31.421949
 31
0.0
  0
LINE
  5
E7
330
36
100
AcDbEntity
  8
0
100
AcDbLine
 10
3.963483
 20
-26.557949
 30
0.0
 11
5.627482999999998
 21
-26.557949
 31
0.0
  0
LINE
  5
E8
330
36
100
AcDbEntity
  8
0
100
AcDbLine
 10
10.939483
 20
-31.421949
 30
0.0
 11
10.939483
 21
-36.285949
 31
0.0
  0
LINE
  5
E9
330
36
100
AcDbEntity
  8
0
100
AcDbLine
 10
9.275482999999999
 20
-31.421949
 30
0.0
 11
10.939483
 21
-31.421949
 31
0.0
  0
LINE
  5
EA
330
36
100
AcDbEntity
  8
0
100
AcDbLine
 10
9.275482999999999
 20
-31.421949
 30
0.0
 11
9.275482999999999
 21
-36.285949
 31
0.0
  0
LINE
  5
EB
330
36
100
AcDbEntity
  8
0
100
AcDbLine
 10
14.587483
 20
-31.421949
 30
0.0
 11
16.251483
 21
-31.421949
 31
0.0
  0
LINE
  5
EC
330
36
100
AcDbEntity
  8
0
100
AcDbLine
 10
14.587483
 20
-26.557949
 30
0.0
 11
14.587483
 21
-31.421949
 31
0.0
  0
LINE
  5
ED
330
36
100
AcDbEntity
  8
0
100
AcDbLine
 10
14.587483
 20
-26.557949
 30
0.0
 11
16.251483
 21
-26.557949
 31
0.0
  0
LINE
  5
EE
330
36
100
AcDbEntity
  8
0
100
AcDbLine
 10
16.251483
 20
-26.557949
 30
0.0
 11
16.251483
 21
-31.421949
 31
0.0
  0
LINE
  5
EF
330
36
100
AcDbEntity
  8
0
100
AcDbLine
 10
9.339482999999999
 20
-36.285949
 30
0.0
 11
10.939483
 21
-36.285949
 31
0.0
  0
LINE
  5
F0
330
36
100
AcDbEntity
  8
0
100
AcDbLine
 10
12.539483
 20
-22.717949
 30
0.0
 11
12.539483
 21
-24.509949
 31
0.0
  0
LINE
  5
F1
330
36
100
AcDbEntity
  8
0
100
AcDbLine
 10
51.693569
 20
-28.989949
 30
0.0
 11
16.251483
 21
-28.989949
 31
0.0
  0
LINE
  5
F2
330
36
100
AcDbEntity
  8
0
100
AcDbLine
 10
86.52133735133002
 20
-13.34784261235074
 30
0.0
 11
123.5846822650469
 21
-13.34784261235074
 31
0.0
  0
LINE
  5
F3
330
36
100
AcDbEntity
  8
0
100
AcDbLine
 10
-141.04038
 20
29.354775
 30
0.0
 11
-141.04038
 21
27.462423
 31
0.0
  0
LINE
  5
F4
330
36
100
AcDbEntity
  8
0
100
AcDbLine
 10
-141.04038
 20
27.462423
 30
0.0
 11
-139.865977
 21
29.243099
 31
0.0
  0
LINE
  5
F5
330
36
100
AcDbEntity
  8
0
100
AcDbLine
 10
-141.04038
 20
29.354775
 30
0.0
 11
-142.196717
 21
27.613643
 31
0.0
  0
LINE
  5
F6
330
36
100
AcDbEntity
  8
0
100
AcDbLine
 10
90.02675629708916
 20
-14.799848
 30
0.0
 11
90.02675629708916
 21
-54.716648
 31
0.0
  0
LINE
  5
F9
330
36
100
AcDbEntity
  8
0
 62
     3
100
AcDbLine
 10
144.687559
 20
-95.798248
 30
0.0
 11
144.687559
 21
-72.798248
 31
0.0
  0
LINE
  5
FB
330
36
100
AcDbEntity
  8
0
 62
     3
100
AcDbLine
 10
91.63394999999999
 20
-102.798248
 30
0.0
 11
91.63394999999999
 21
-88.79824799999999
 31
0.0
  0
TEXT
  5
FD
330
36
100
AcDbEntity
  8
0
 62
     3
100
AcDbText
 10
120.697877
 20
-76.59313199999998
 30
0.0
 40
2.0
  1
A
 41
0.7
100
AcDbText
  0
TEXT
  5
FE
330
36
100
AcDbEntity
  8
0
 62
     3
100
AcDbText
 10
123.233164
 20
-76.59313199999998
 30
0.0
 40
2.0
  1
P
 41
0.7
100
AcDbText
  0
TEXT
  5
FF
330
36
100
AcDbEntity
  8
0
 62
     3
100
AcDbText
 10
125.76845
 20
-76.59313199999998
 30
0.0
 40
2.0
  1
P
 41
0.7
100
AcDbText
  0
TEXT
  5
100
330
36
100
AcDbEntity
  8
0
 62
     3
100
AcDbText
 10
128.303736
 20
-76.59313199999998
 30
0.0
 40
2.0
  1
D
 41
0.7
100
AcDbText
  0
TEXT
  5
101
330
36
100
AcDbEntity
  8
0
 62
     3
100
AcDbText
 10
133.672419
 20
-76.59313199999998
 30
0.0
 40
2.0
  1
C
 41
0.7
100
AcDbText
  0
TEXT
  5
102
330
36
100
AcDbEntity
  8
0
 62
     3
100
AcDbText
 10
136.207705
 20
-76.59313199999998
 30
0.0
 40
2.0
  1
H
 41
0.7
100
AcDbText
  0
TEXT
  5
103
330
36
100
AcDbEntity
  8
0
 62
     3
100
AcDbText
 10
138.742992
 20
-76.59313199999998
 30
0.0
 40
2.0
  1
C
 41
0.7
100
AcDbText
  0
TEXT
  5
104
330
36
100
AcDbEntity
  8
0
 62
     3
100
AcDbText
 10
141.278278
 20
-76.59313199999998
 30
0.0
 40
2.0
  1
K
 41
0.7
100
AcDbText
  0
TEXT
  5
105
330
36
100
AcDbEntity
  8
0
 62
     3
100
AcDbText
 10
146.952244
 20
-76.59313199999998
 30
0.0
 40
2.0
  1
DESN
 41
1.216762999999998
100
AcDbText
  0
TEXT
  5
106
330
36
100
AcDbEntity
  8
0
 62
     3
100
AcDbText
 10
61.945886
 20
-105.939629
 30
0.0
 40
2.0
  1
NICHIDO IND.CO.LTD
 41
1.274876
100
AcDbText
  0
LINE
  5
107
330
36
100
AcDbEntity
  8
0
 62
     3
100
AcDbLine
 10
72.328915
 20
-72.798248
 30
0.0
 11
72.328915
 21
-95.798248
 31
0.0
  0
LINE
  5
108
330
36
100
AcDbEntity
  8
0
 62
     3
100
AcDbLine
 10
118.687559
 20
-72.79824799999999
 30
0.0
 11
118.687559
 21
-112.46397
 31
0.0
  0
LINE
  5
10D
330
36
100
AcDbEntity
  8
0
 62
     3
100
AcDbLine
 10
131.687559
 20
-72.798248
 30
0.0
 11
131.687559
 21
-102.798248
 31
0.0
  0
TEXT
  5
10E
330
36
100
AcDbEntity
  8
0
 62
     3
100
AcDbText
 10
119.800004
 20
-101.933561
 30
0.0
 40
3.2
  1
作成日
 41
1.017225999999997
100
AcDbText
  0
LINE
  5
10F
330
36
100
AcDbEntity
  8
0
 62
     3
100
AcDbLine
 10
170.386923
 20
-72.798248
 30
0.0
 11
59.08348
 21
-72.798248
 31
0.0
  0
LINE
  5
110
330
36
100
AcDbEntity
  8
0
 62
     3
100
AcDbLine
 10
157.687559
 20
-95.798248
 30
0.0
 11
157.687559
 21
-72.798248
 31
0.0
  0
TEXT
  5
111
330
36
100
AcDbEntity
  8
0
 62
     3
100
AcDbText
 10
161.011363
 20
-76.507313
 30
0.0
 40
1.8
  1
D
 41
0.666667
100
AcDbText
  0
TEXT
  5
112
330
36
100
AcDbEntity
  8
0
 62
     3
100
AcDbText
 10
163.827991
 20
-76.507313
 30
0.0
 40
1.8
  1
E
 41
0.666667
100
AcDbText
  0
TEXT
  5
113
330
36
100
AcDbEntity
  8
0
 62
     3
100
AcDbText
 10
166.644619
 20
-76.507313
 30
0.0
 40
1.8
  1
F
 41
0.666667
100
AcDbText
  0
TEXT
  5
114
330
36
100
AcDbEntity
  8
0
 62
     3
100
AcDbText
 10
161.011363
 20
-80.499866
 30
0.0
 40
3.2
  1
製図
 41
1.076369
100
AcDbText
  0
LINE
  5
115
330
36
100
AcDbEntity
  8
0
 62
     3
100
AcDbLine
 10
59.08348
 20
-72.798248
 30
0.0
 11
59.08348
 21
-112.46397
 31
0.0
  0
TEXT
  5
116
330
36
100
AcDbEntity
  8
0
 62
     3
100
AcDbText
 10
60.460133
 20
-112.131505
 30
0.0
 40
5.0
  1
日動工業株式会社
 41
0.833333
100
AcDbText
  0
LINE
  5
117
330
36
100
AcDbEntity
  8
0
 62
     3
100
AcDbLine
 10
101.965884
 20
-88.79824799999999
 30
0.0
 11
101.965884
 21
-112.46397
 31
0.0
  0
LINE
  5
118
330
36
100
AcDbEntity
  8
0
 62
     3
100
AcDbLine
 10
101.965884
 20
-107.631109
 30
0.0
 11
118.687559
 21
-107.631109
 31
0.0
  0
TEXT
  5
119
330
36
100
AcDbEntity
  8
0
 62
     3
100
AcDbText
 10
102.552486
 20
-106.814678
 30
0.0
 40
3.2
  1
出図コード
 41
0.8356860000000001
100
AcDbText
  0
LINE
  5
11B
330
36
100
AcDbEntity
  8
0
 62
     3
100
AcDbLine
 10
59.08348000000001
 20
-102.798248
 30
0.0
 11
170.386923
 21
-102.798248
 31
0.0
  0
LINE
  5
11D
330
36
100
AcDbEntity
  8
0
 62
     3
100
AcDbLine
 10
59.08348
 20
-81.798248
 30
0.0
 11
170.386923
 21
-81.798248
 31
0.0
  0
LINE
  5
123
330
36
100
AcDbEntity
  8
0
 62
     3
100
AcDbLine
 10
59.08348000000001
 20
-88.79824799999999
 30
0.0
 11
118.687559
 21
-88.79824799999999
 31
0.0
  0
LINE
  5
129
330
36
100
AcDbEntity
  8
0
 62
     3
100
AcDbLine
 10
59.08348000000001
 20
-95.798248
 30
0.0
 11
170.386923
 21
-95.798248
 31
0.0
  0
TEXT
  5
12A
330
36
100
AcDbEntity
  8
0
 62
     3
100
AcDbText
 10
102.251904
 20
-112.012379
 30
0.0
 40
3.2
  1
ZK-A3X
 41
0.8112849999999999
100
AcDbText
  0
TEXT
  5
12B
330
36
100
AcDbEntity
  8
0
 62
     3
100
AcDbText
 10
60.900877
 20
-76.62872199999998
 30
0.0
 40
2.0
  1
CONPONENTS
 41
0.5331600000000001
100
AcDbText
  0
TEXT
  5
12C
330
36
100
AcDbEntity
  8
0
 62
     3
100
AcDbText
 10
60.551151
 20
-95.56089900000001
 30
0.0
 40
3.0
  1
材
 41
0.833333
100
AcDbText
  0
TEXT
  5
12D
330
36
100
AcDbEntity
  8
0
 62
     3
100
AcDbText
 10
68.086793
 20
-95.56089900000001
 30
0.0
 40
3.0
  1
質
 41
0.833333
100
AcDbText
  0
TEXT
  5
12E
330
36
100
AcDbEntity
  8
0
 62
     3
100
AcDbText
 10
60.639221
 20
-84.936374
 30
0.0
 40
2.0
  1
MODEL
 41
1.031072999999999
100
AcDbText
  0
TEXT
  5
12F
330
36
100
AcDbEntity
  8
0
 62
     3
100
AcDbText
 10
60.551151
 20
-91.87859000000001
 30
0.0
 40
2.0
  1
MATERIAL
 41
0.659278
100
AcDbText
  0
TEXT
  5
130
330
36
100
AcDbEntity
  8
0
 62
     3
100
AcDbText
 10
91.85843099999999
 20
-95.56089900000001
 30
0.0
 40
3.0
  1
備
 41
0.833333
100
AcDbText
  0
TEXT
  5
131
330
36
100
AcDbEntity
  8
0
 62
     3
100
AcDbText
 10
98.59143299999999
 20
-95.56089900000001
 30
0.0
 40
3.0
  1
考
 41
0.833333
100
AcDbText
  0
TEXT
  5
132
330
36
100
AcDbEntity
  8
0
 62
     3
100
AcDbText
 10
92.20943250519828
 20
-91.87859000000001
 30
0.0
 40
2.0
  1
REMARKS
 41
0.675794
100
AcDbText
  0
TEXT
  5
133
330
36
100
AcDbEntity
  8
0
 62
     3
100
AcDbText
 10
62.14088
 20
-98.798711
 30
0.0
 40
2.0
  1
3AD
 41
1.42614
100
AcDbText
  0
TEXT
  5
134
330
36
100
AcDbEntity
  8
0
 62
     3
100
AcDbText
 10
71.451859
 20
-98.632977
 30
0.0
 40
2.0
  1
ANGLE
 41
1.669883999999995
100
AcDbText
  0
TEXT
  5
135
330
36
100
AcDbEntity
  8
0
 62
     3
100
AcDbText
 10
92.38574599999999
 20
-99.00981800000003
 30
0.0
 40
2.0
  1
SCALE
 41
0.7719630000000001
100
AcDbText
  0
TEXT
  5
136
330
36
100
AcDbEntity
  8
0
 62
     3
100
AcDbText
 10
61.827009
 20
-102.798248
 30
0.0
 40
3.0
  1
第
 41
0.833333
100
AcDbText
  0
TEXT
  5
137
330
36
100
AcDbEntity
  8
0
 62
     3
100
AcDbText
 10
69.61385899999999
 20
-102.798248
 30
0.0
 40
3.0
  1
三
 41
0.833333
100
AcDbText
  0
TEXT
  5
138
330
36
100
AcDbEntity
  8
0
 62
     3
100
AcDbText
 10
77.40070899999998
 20
-102.798248
 30
0.0
 40
3.0
  1
角
 41
0.833333
100
AcDbText
  0
TEXT
  5
139
330
36
100
AcDbEntity
  8
0
 62
     3
100
AcDbText
 10
85.187559
 20
-102.798248
 30
0.0
 40
3.0
  1
法
 41
0.833333
100
AcDbText
  0
TEXT
  5
13A
330
36
100
AcDbEntity
  8
0
 62
     3
100
AcDbText
 10
92.24895100000001
 20
-102.509818
 30
0.0
 40
3.0
  1
尺
 41
0.833333
100
AcDbText
  0
TEXT
  5
13B
330
36
100
AcDbEntity
  8
0
 62
     3
100
AcDbText
 10
98.98195300000001
 20
-102.509818
 30
0.0
 40
3.0
  1
度
 41
0.833333
100
AcDbText
  0
TEXT
  5
13C
330
36
100
AcDbEntity
  8
0
 62
     3
100
AcDbText
 10
121.565224
 20
-80.34051899999999
 30
0.0
 40
3.0
  1
承認
 41
1.089472999999999
100
AcDbText
  0
TEXT
  5
13D
330
36
100
AcDbEntity
  8
0
 62
     3
100
AcDbText
 10
134.808104
 20
-80.39824799999998
 30
0.0
 40
3.0
  1
検図
 41
0.931761
100
AcDbText
  0
TEXT
  5
13E
330
36
100
AcDbEntity
  8
0
 62
     3
100
AcDbText
 10
147.808501
 20
-80.39824799999998
 30
0.0
 40
3.0
  1
設
 41
0.833333
100
AcDbText
  0
TEXT
  5
13F
330
36
100
AcDbEntity
  8
0
 62
     3
100
AcDbText
 10
152.298369
 20
-80.39824799999998
 30
0.0
 40
3.0
  1
計
 41
0.833333
100
AcDbText
  0
TEXT
  5
140
330
36
100
AcDbEntity
  8
0
 62
     3
100
AcDbText
 10
60.970984
 20
-80.22569500000001
 30
0.0
 40
3.0
  1
品
 41
0.833333
100
AcDbText
  0
TEXT
  5
141
330
36
100
AcDbEntity
  8
0
 62
     3
100
AcDbText
 10
68.50662599999999
 20
-80.22569500000001
 30
0.0
 40
3.0
  1
名
 41
0.833333
100
AcDbText
  0
TEXT
  5
142
330
36
100
AcDbEntity
  8
0
 62
     3
100
AcDbText
 10
60.639221
 20
-88.40325748258242
 30
0.0
 40
3.0
  1
型
 41
0.833333
100
AcDbText
  0
TEXT
  5
143
330
36
100
AcDbEntity
  8
0
 62
     3
100
AcDbText
 10
68.18731200000001
 20
-88.40325748258242
 30
0.0
 40
3.0
  1
式
 41
0.833333
100
AcDbText
  0
LINE
  5
164
330
36
100
AcDbEntity
  8
0
 62
     3
100
AcDbLine
 10
-232.015001
 20
26.03603
 30
0.0
 11
-234.613077
 21
24.53603
 31
0.0
  0
LINE
  5
165
330
36
100
AcDbEntity
  8
0
 62
     3
100
AcDbLine
 10
-232.015001
 20
26.03603
 30
0.0
 11
-234.613077
 21
27.53603
 31
0.0
  0
LINE
  5
166
330
36
100
AcDbEntity
  8
0
 62
     3
100
AcDbLine
 10
-234.613077
 20
24.53603
 30
0.0
 11
-234.613077
 21
27.53603
 31
0.0
  0
LINE
  5
167
330
36
100
AcDbEntity
  8
0
 62
     3
100
AcDbLine
 10
-47.911158
 20
28.450126
 30
0.0
 11
-47.911158
 21
105.950126
 31
0.0
  0
ARC
  5
168
330
36
100
AcDbEntity
  8
0
 62
     3
100
AcDbCircle
 10
-45.411158
 20
28.450126
 30
0.0
 40
2.5
100
AcDbArc
 50
180.0
 51
270.0
  0
LINE
  5
169
330
36
100
AcDbEntity
  8
0
 62
     3
100
AcDbLine
 10
-128.153666
 20
81.400126
 30
0.0
 11
-129.528666
 21
81.400126
 31
0.0
  0
LINE
  5
16A
330
36
100
AcDbEntity
  8
0
 62
     3
100
AcDbLine
 10
-132.778666
 20
81.400126
 30
0.0
 11
-134.153666
 21
81.400126
 31
0.0
  0
TEXT
  5
16B
330
36
100
AcDbEntity
  8
0
 62
     3
100
AcDbText
 10
-125.085612
 20
103.876876
 30
0.0
 40
3.839999999999998
  1
TORAPACK
100
AcDbText
  0
TEXT
  5
16C
330
36
100
AcDbEntity
  8
0
 62
     3
100
AcDbText
 10
-137.650208469086
 20
42.950126
 30
0.0
 40
3.839999999999998
  1
AC出力
 41
0.833333
100
AcDbText
  0
TEXT
  5
16D
330
36
100
AcDbEntity
  8
0
 62
     3
100
AcDbText
 10
-116.643207
 20
53.84841
 30
0.0
 40
3.839999999999998
  1
115V
 41
1.090908999999999
100
AcDbText
  0
TEXT
  5
16E
330
36
100
AcDbEntity
  8
0
 62
     3
100
AcDbText
 10
-160.484126
 20
53.84841
 30
0.0
 40
3.839999999999998
  1
100V
 41
1.090908999999999
100
AcDbText
  0
CIRCLE
  5
175
330
36
100
AcDbEntity
  8
0
100
AcDbCircle
 10
-185.295175
 20
102.9701886765443
 30
0.0
 40
5.0
  0
TEXT
  5
176
330
36
100
AcDbEntity
  8
0
 62
     4
100
AcDbText
 10
-187.5183373836686
 20
100.845850143316
 30
0.0
 40
4.5
  1
11
  7
高4.5
100
AcDbText
  0
ARC
  5
177
330
36
100
AcDbEntity
  8
0
 62
     3
100
AcDbCircle
 10
-165.353666
 20
105.150126
 30
0.0
 40
5.799999999999998
100
AcDbArc
 50
90.0
 51
180.0
  0
ARC
  5
178
330
36
100
AcDbEntity
  8
0
 62
     3
100
AcDbCircle
 10
-96.95366599999999
 20
105.150126
 30
0.0
 40
5.799999999999998
100
AcDbArc
 50
0.0
 51
90.0
  0
LINE
  5
179
330
36
100
AcDbEntity
  8
0
 62
     3
100
AcDbLine
 10
-128.153666
 20
68.900126
 30
0.0
 11
-134.153666
 21
68.900126
 31
0.0
  0
LINE
  5
17A
330
36
100
AcDbEntity
  8
0
100
AcDbLine
 10
35.588842
 20
98.32512600000001
 30
0.0
 11
35.588842
 21
87.07512599999999
 31
0.0
  0
LINE
  5
17B
330
36
100
AcDbEntity
  8
0
100
AcDbLine
 10
36.838842
 20
98.32512600000001
 30
0.0
 11
36.838842
 21
87.07512599999999
 31
0.0
  0
ARC
  5
17C
330
36
100
AcDbEntity
  8
0
100
AcDbCircle
 10
36.213842
 20
98.32512600000001
 30
0.0
 40
0.625
100
AcDbArc
 50
0.0
 51
180.0
  0
ARC
  5
17D
330
36
100
AcDbEntity
  8
0
100
AcDbCircle
 10
36.213842
 20
87.07512599999999
 30
0.0
 40
0.625
100
AcDbArc
 50
180.0
 51
0.0
  0
LINE
  5
17E
330
36
100
AcDbEntity
  8
0
100
AcDbLine
 10
39.588842
 20
98.32512600000001
 30
0.0
 11
39.588842
 21
87.07512599999999
 31
0.0
  0
LINE
  5
17F
330
36
100
AcDbEntity
  8
0
100
AcDbLine
 10
38.338842
 20
98.32512600000001
 30
0.0
 11
38.338842
 21
87.07512599999999
 31
0.0
  0
ARC
  5
180
330
36
100
AcDbEntity
  8
0
100
AcDbCircle
 10
38.963842
 20
98.32512600000001
 30
0.0
 40
0.625
100
AcDbArc
 50
0.0
 51
180.0
  0
ARC
  5
181
330
36
100
AcDbEntity
  8
0
100
AcDbCircle
 10
38.963842
 20
87.07512599999999
 30
0.0
 40
0.625
100
AcDbArc
 50
180.0
 51
0.0
  0
LINE
  5
182
330
36
100
AcDbEntity
  8
0
100
AcDbLine
 10
41.088842
 20
98.32512600000001
 30
0.0
 11
41.088842
 21
87.07512599999999
 31
0.0
  0
LINE
  5
183
330
36
100
AcDbEntity
  8
0
100
AcDbLine
 10
42.338842
 20
98.32512600000001
 30
0.0
 11
42.338842
 21
87.07512599999999
 31
0.0
  0
ARC
  5
184
330
36
100
AcDbEntity
  8
0
100
AcDbCircle
 10
41.713842
 20
98.32512600000001
 30
0.0
 40
0.625
100
AcDbArc
 50
0.0
 51
180.0
  0
ARC
  5
185
330
36
100
AcDbEntity
  8
0
100
AcDbCircle
 10
41.713842
 20
87.07512599999999
 30
0.0
 40
0.625
100
AcDbArc
 50
180.0
 51
0.0
  0
LINE
  5
186
330
36
100
AcDbEntity
  8
0
100
AcDbLine
 10
45.08884199999999
 20
98.32512600000001
 30
0.0
 11
45.08884199999999
 21
87.07512599999999
 31
0.0
  0
LINE
  5
187
330
36
100
AcDbEntity
  8
0
100
AcDbLine
 10
43.83884199999999
 20
98.32512600000001
 30
0.0
 11
43.83884199999999
 21
87.07512599999999
 31
0.0
  0
ARC
  5
188
330
36
100
AcDbEntity
  8
0
100
AcDbCircle
 10
44.46384199999999
 20
98.32512600000001
 30
0.0
 40
0.625
100
AcDbArc
 50
0.0
 51
180.0
  0
ARC
  5
189
330
36
100
AcDbEntity
  8
0
100
AcDbCircle
 10
44.46384199999999
 20
87.07512599999999
 30
0.0
 40
0.625
100
AcDbArc
 50
180.0
 51
0.0
  0
LINE
  5
18A
330
36
100
AcDbEntity
  8
0
100
AcDbLine
 10
46.588842
 20
98.32512600000001
 30
0.0
 11
46.588842
 21
87.07512599999999
 31
0.0
  0
LINE
  5
18B
330
36
100
AcDbEntity
  8
0
100
AcDbLine
 10
47.838842
 20
98.32512600000001
 30
0.0
 11
47.838842
 21
87.07512599999999
 31
0.0
  0
ARC
  5
18C
330
36
100
AcDbEntity
  8
0
100
AcDbCircle
 10
47.213842
 20
98.32512600000001
 30
0.0
 40
0.625
100
AcDbArc
 50
0.0
 51
180.0
  0
ARC
  5
18D
330
36
100
AcDbEntity
  8
0
100
AcDbCircle
 10
47.213842
 20
87.07512599999999
 30
0.0
 40
0.625
100
AcDbArc
 50
180.0
 51
0.0
  0
LINE
  5
18E
330
36
100
AcDbEntity
  8
0
100
AcDbLine
 10
50.588842
 20
98.32512600000001
 30
0.0
 11
50.588842
 21
87.07512599999999
 31
0.0
  0
LINE
  5
18F
330
36
100
AcDbEntity
  8
0
100
AcDbLine
 10
49.338842
 20
98.32512600000001
 30
0.0
 11
49.338842
 21
87.07512599999999
 31
0.0
  0
ARC
  5
190
330
36
100
AcDbEntity
  8
0
100
AcDbCircle
 10
49.963842
 20
98.32512600000001
 30
0.0
 40
0.625
100
AcDbArc
 50
0.0
 51
180.0
  0
ARC
  5
191
330
36
100
AcDbEntity
  8
0
100
AcDbCircle
 10
49.963842
 20
87.07512599999999
 30
0.0
 40
0.625
100
AcDbArc
 50
180.0
 51
0.0
  0
LINE
  5
192
330
36
100
AcDbEntity
  8
0
100
AcDbLine
 10
52.08884199999999
 20
98.32512600000001
 30
0.0
 11
52.08884199999999
 21
87.07512599999999
 31
0.0
  0
LINE
  5
193
330
36
100
AcDbEntity
  8
0
100
AcDbLine
 10
53.338842
 20
98.32512600000001
 30
0.0
 11
53.338842
 21
87.07512599999999
 31
0.0
  0
ARC
  5
194
330
36
100
AcDbEntity
  8
0
100
AcDbCircle
 10
52.713842
 20
98.32512600000001
 30
0.0
 40
0.625
100
AcDbArc
 50
0.0
 51
180.0
  0
ARC
  5
195
330
36
100
AcDbEntity
  8
0
100
AcDbCircle
 10
52.713842
 20
87.07512599999999
 30
0.0
 40
0.625
100
AcDbArc
 50
180.0
 51
0.0
  0
LINE
  5
196
330
36
100
AcDbEntity
  8
0
100
AcDbLine
 10
56.08884200000001
 20
98.32512600000001
 30
0.0
 11
56.08884200000001
 21
87.07512599999999
 31
0.0
  0
LINE
  5
197
330
36
100
AcDbEntity
  8
0
100
AcDbLine
 10
54.83884200000001
 20
98.32512600000001
 30
0.0
 11
54.83884200000001
 21
87.07512599999999
 31
0.0
  0
ARC
  5
198
330
36
100
AcDbEntity
  8
0
100
AcDbCircle
 10
55.46384200000001
 20
98.32512600000001
 30
0.0
 40
0.625
100
AcDbArc
 50
0.0
 51
180.0
  0
ARC
  5
199
330
36
100
AcDbEntity
  8
0
100
AcDbCircle
 10
55.46384200000001
 20
87.07512599999999
 30
0.0
 40
0.625
100
AcDbArc
 50
180.0
 51
0.0
  0
LINE
  5
19A
330
36
100
AcDbEntity
  8
0
100
AcDbLine
 10
-1.411157999999999
 20
98.32512600000001
 30
0.0
 11
-1.411157999999999
 21
87.07512599999999
 31
0.0
  0
LINE
  5
19B
330
36
100
AcDbEntity
  8
0
100
AcDbLine
 10
-2.661158
 20
98.32512600000001
 30
0.0
 11
-2.661158
 21
87.07512599999999
 31
0.0
  0
ARC
  5
19C
330
36
100
AcDbEntity
  8
0
100
AcDbCircle
 10
-2.036158
 20
98.32512600000001
 30
0.0
 40
0.625
100
AcDbArc
 50
0.0
 51
180.0
  0
ARC
  5
19D
330
36
100
AcDbEntity
  8
0
100
AcDbCircle
 10
-2.036158
 20
87.07512599999999
 30
0.0
 40
0.625
100
AcDbArc
 50
180.0
 51
0.0
  0
LINE
  5
19E
330
36
100
AcDbEntity
  8
0
100
AcDbLine
 10
-5.411158
 20
98.32512600000001
 30
0.0
 11
-5.411158
 21
87.07512599999999
 31
0.0
  0
LINE
  5
19F
330
36
100
AcDbEntity
  8
0
100
AcDbLine
 10
-4.161158
 20
98.32512600000001
 30
0.0
 11
-4.161158
 21
87.07512599999999
 31
0.0
  0
ARC
  5
1A0
330
36
100
AcDbEntity
  8
0
100
AcDbCircle
 10
-4.786158
 20
98.32512600000001
 30
0.0
 40
0.625
100
AcDbArc
 50
0.0
 51
180.0
  0
ARC
  5
1A1
330
36
100
AcDbEntity
  8
0
100
AcDbCircle
 10
-4.786158
 20
87.07512599999999
 30
0.0
 40
0.625
100
AcDbArc
 50
180.0
 51
0.0
  0
LINE
  5
1A2
330
36
100
AcDbEntity
  8
0
100
AcDbLine
 10
-6.911158
 20
98.32512600000001
 30
0.0
 11
-6.911158
 21
87.07512599999999
 31
0.0
  0
LINE
  5
1A3
330
36
100
AcDbEntity
  8
0
100
AcDbLine
 10
-8.161158
 20
98.32512600000001
 30
0.0
 11
-8.161158
 21
87.07512599999999
 31
0.0
  0
ARC
  5
1A4
330
36
100
AcDbEntity
  8
0
100
AcDbCircle
 10
-7.536158
 20
98.32512600000001
 30
0.0
 40
0.625
100
AcDbArc
 50
0.0
 51
180.0
  0
ARC
  5
1A5
330
36
100
AcDbEntity
  8
0
100
AcDbCircle
 10
-7.536158
 20
87.07512599999999
 30
0.0
 40
0.625
100
AcDbArc
 50
180.0
 51
0.0
  0
LINE
  5
1A6
330
36
100
AcDbEntity
  8
0
100
AcDbLine
 10
-10.911158
 20
98.32512600000001
 30
0.0
 11
-10.911158
 21
87.07512599999999
 31
0.0
  0
LINE
  5
1A7
330
36
100
AcDbEntity
  8
0
100
AcDbLine
 10
-9.661158
 20
98.32512600000001
 30
0.0
 11
-9.661158
 21
87.07512599999999
 31
0.0
  0
ARC
  5
1A8
330
36
100
AcDbEntity
  8
0
100
AcDbCircle
 10
-10.286158
 20
98.32512600000001
 30
0.0
 40
0.625
100
AcDbArc
 50
0.0
 51
180.0
  0
ARC
  5
1A9
330
36
100
AcDbEntity
  8
0
100
AcDbCircle
 10
-10.286158
 20
87.07512599999999
 30
0.0
 40
0.625
100
AcDbArc
 50
180.0
 51
0.0
  0
LINE
  5
1AA
330
36
100
AcDbEntity
  8
0
100
AcDbLine
 10
-12.411158
 20
98.32512600000001
 30
0.0
 11
-12.411158
 21
87.07512599999999
 31
0.0
  0
LINE
  5
1AB
330
36
100
AcDbEntity
  8
0
100
AcDbLine
 10
-13.661158
 20
98.32512600000001
 30
0.0
 11
-13.661158
 21
87.07512599999999
 31
0.0
  0
ARC
  5
1AC
330
36
100
AcDbEntity
  8
0
100
AcDbCircle
 10
-13.036158
 20
98.32512600000001
 30
0.0
 40
0.625
100
AcDbArc
 50
0.0
 51
180.0
  0
ARC
  5
1AD
330
36
100
AcDbEntity
  8
0
100
AcDbCircle
 10
-13.036158
 20
87.07512599999999
 30
0.0
 40
0.625
100
AcDbArc
 50
180.0
 51
0.0
  0
LINE
  5
1AE
330
36
100
AcDbEntity
  8
0
100
AcDbLine
 10
-16.411158
 20
98.32512600000001
 30
0.0
 11
-16.411158
 21
87.07512599999999
 31
0.0
  0
LINE
  5
1AF
330
36
100
AcDbEntity
  8
0
100
AcDbLine
 10
-15.161158
 20
98.32512600000001
 30
0.0
 11
-15.161158
 21
87.07512599999999
 31
0.0
  0
ARC
  5
1B0
330
36
100
AcDbEntity
  8
0
100
AcDbCircle
 10
-15.786158
 20
98.32512600000001
 30
0.0
 40
0.625
100
AcDbArc
 50
0.0
 51
180.0
  0
ARC
  5
1B1
330
36
100
AcDbEntity
  8
0
100
AcDbCircle
 10
-15.786158
 20
87.07512599999999
 30
0.0
 40
0.625
100
AcDbArc
 50
180.0
 51
0.0
  0
LINE
  5
1B2
330
36
100
AcDbEntity
  8
0
100
AcDbLine
 10
-17.911158
 20
98.32512600000001
 30
0.0
 11
-17.911158
 21
87.07512599999999
 31
0.0
  0
LINE
  5
1B3
330
36
100
AcDbEntity
  8
0
100
AcDbLine
 10
-19.161158
 20
98.32512600000001
 30
0.0
 11
-19.161158
 21
87.07512599999999
 31
0.0
  0
ARC
  5
1B4
330
36
100
AcDbEntity
  8
0
100
AcDbCircle
 10
-18.536158
 20
98.32512600000001
 30
0.0
 40
0.625
100
AcDbArc
 50
0.0
 51
180.0
  0
ARC
  5
1B5
330
36
100
AcDbEntity
  8
0
100
AcDbCircle
 10
-18.536158
 20
87.07512599999999
 30
0.0
 40
0.625
100
AcDbArc
 50
180.0
 51
0.0
  0
LINE
  5
1B6
330
36
100
AcDbEntity
  8
0
100
AcDbLine
 10
-21.911158
 20
98.32512600000001
 30
0.0
 11
-21.911158
 21
87.07512599999999
 31
0.0
  0
LINE
  5
1B7
330
36
100
AcDbEntity
  8
0
100
AcDbLine
 10
-20.661158
 20
98.32512600000001
 30
0.0
 11
-20.661158
 21
87.07512599999999
 31
0.0
  0
ARC
  5
1B8
330
36
100
AcDbEntity
  8
0
100
AcDbCircle
 10
-21.286158
 20
98.32512600000001
 30
0.0
 40
0.625
100
AcDbArc
 50
0.0
 51
180.0
  0
ARC
  5
1B9
330
36
100
AcDbEntity
  8
0
100
AcDbCircle
 10
-21.286158
 20
87.07512599999999
 30
0.0
 40
0.625
100
AcDbArc
 50
180.0
 51
0.0
  0
ARC
  5
1EA
330
36
100
AcDbEntity
  8
0
100
AcDbCircle
 10
-96.95366599999999
 20
105.150126
 30
0.0
 40
5.0
100
AcDbArc
 50
0.0
 51
90.0
  0
ARC
  5
1EB
330
36
100
AcDbEntity
  8
0
100
AcDbCircle
 10
-165.353666
 20
105.150126
 30
0.0
 40
5.0
100
AcDbArc
 50
90.0
 51
180.0
  0
LINE
  5
1EC
330
36
100
AcDbEntity
  8
0
100
AcDbLine
 10
-91.95366599999999
 20
30.950126
 30
0.0
 11
-170.353666
 21
30.950126
 31
0.0
  0
LINE
  5
1ED
330
36
100
AcDbEntity
  8
0
100
AcDbLine
 10
-129.528666
 20
82.15012599999999
 30
0.0
 11
-129.528666
 21
71.400126
 31
0.0
  0
LINE
  5
1EE
330
36
100
AcDbEntity
  8
0
100
AcDbLine
 10
-129.528666
 20
71.400126
 30
0.0
 11
-132.778666
 21
71.400126
 31
0.0
  0
LINE
  5
1EF
330
36
100
AcDbEntity
  8
0
100
AcDbLine
 10
-132.778666
 20
82.15012599999999
 30
0.0
 11
-132.778666
 21
71.400126
 31
0.0
  0
CIRCLE
  5
1F0
330
36
100
AcDbEntity
  8
0
 62
     3
100
AcDbCircle
 10
-131.153666
 20
101.150126
 30
0.0
 40
3.0
  0
LINE
  5
1F1
330
36
100
AcDbEntity
  8
0
 62
     3
100
AcDbLine
 10
83.588842
 20
35.950126
 30
0.0
 11
83.588842
 21
45.950126
 31
0.0
  0
LINE
  5
1F2
330
36
100
AcDbEntity
  8
0
 62
     3
100
AcDbLine
 10
82.08884199999998
 20
34.95012600000001
 30
0.0
 11
83.588842
 21
35.950126
 31
0.0
  0
LINE
  5
1F3
330
36
100
AcDbEntity
  8
0
 62
     3
100
AcDbLine
 10
82.08884199999998
 20
46.950126
 30
0.0
 11
83.588842
 21
45.950126
 31
0.0
  0
CIRCLE
  5
1FA
330
36
100
AcDbEntity
  8
0
100
AcDbCircle
 10
-185.295175
 20
129.433911
 30
0.0
 40
5.0
  0
TEXT
  5
1FB
330
36
100
AcDbEntity
  8
0
 62
     4
100
AcDbText
 10
-188.0094661807991
 20
127.1646406081115
 30
0.0
 40
4.5
  1
10
  7
高4.5
100
AcDbText
  0
CIRCLE
  5
20A
330
36
100
AcDbEntity
  8
0
100
AcDbCircle
 10
-185.295175
 20
25.417243
 30
0.0
 40
5.0
  0
TEXT
  5
20B
330
36
100
AcDbEntity
  8
0
 62
     4
100
AcDbText
 10
-187.5124822301118
 20
22.23912355784739
 30
0.0
 40
6.299999999999998
  1
6
  7
高6.3
100
AcDbText
  0
CIRCLE
  5
212
330
36
100
AcDbEntity
  8
0
100
AcDbCircle
 10
-185.295175
 20
84.7083651284567
 30
0.0
 40
5.0
  0
TEXT
  5
213
330
36
100
AcDbEntity
  8
0
 62
     4
100
AcDbText
 10
-187.5124822301118
 20
81.53024668630408
 30
0.0
 40
6.299999999999998
  1
7
  7
高6.3
100
AcDbText
  0
CIRCLE
  5
21A
330
36
100
AcDbEntity
  8
0
100
AcDbCircle
 10
-185.295175
 20
71.19244000000001
 30
0.0
 40
5.0
  0
TEXT
  5
21B
330
36
100
AcDbEntity
  8
0
 62
     4
100
AcDbText
 10
-187.5124822301118
 20
68.0143205578474
 30
0.0
 40
6.299999999999998
  1
8
  7
高6.3
100
AcDbText
  0
LINE
  5
224
330
36
100
AcDbEntity
  8
0
 62
     3
100
AcDbLine
 10
41.275306
 20
118.415188
 30
0.0
 11
48.33884199999999
 21
105.950126
 31
0.0
  0
ARC
  5
225
330
36
100
AcDbEntity
  8
0
 62
     3
100
AcDbCircle
 10
36.925195
 20
115.950126
 30
0.0
 40
5.0
100
AcDbArc
 50
29.538782
 51
90.0
  0
LINE
  5
226
330
36
100
AcDbEntity
  8
0
 62
     3
100
AcDbLine
 10
-6.476842999999997
 20
120.950126
 30
0.0
 11
36.925195
 21
120.950126
 31
0.0
  0
ARC
  5
227
330
36
100
AcDbEntity
  8
0
 62
     3
100
AcDbCircle
 10
-6.476842999999997
 20
115.950126
 30
0.0
 40
5.0
100
AcDbArc
 50
90.0
 51
154.983107
  0
LINE
  5
228
330
36
100
AcDbEntity
  8
0
 62
     3
100
AcDbLine
 10
-11.007759
 20
118.064553
 30
0.0
 11
-16.661158
 21
105.950126
 31
0.0
  0
ARC
  5
229
330
36
100
AcDbEntity
  8
0
 62
     3
100
AcDbCircle
 10
-1.161157999999999
 20
114.450126
 30
0.0
 40
2.5
100
AcDbArc
 50
90.0
 51
180.0
  0
ARC
  5
22A
330
36
100
AcDbEntity
  8
0
 62
     3
100
AcDbCircle
 10
15.838842
 20
403.2001259999998
 30
0.0
 40
286.75
100
AcDbArc
 50
266.630631
 51
273.369369
  0
ARC
  5
22B
330
36
100
AcDbEntity
  8
0
 62
     3
100
AcDbCircle
 10
32.838842
 20
114.450126
 30
0.0
 40
2.5
100
AcDbArc
 50
0.0
 51
90.0
  0
LINE
  5
22C
330
36
100
AcDbEntity
  8
0
 62
     3
100
AcDbLine
 10
35.338842
 20
114.450126
 30
0.0
 11
35.338842
 21
105.950126
 31
0.0
  0
LINE
  5
22D
330
36
100
AcDbEntity
  8
0
 62
     3
100
AcDbLine
 10
-3.661158
 20
114.450126
 30
0.0
 11
-3.661158
 21
105.950126
 31
0.0
  0
LINE
  5
22E
330
36
100
AcDbEntity
  8
0
 62
     3
100
AcDbLine
 10
-128.614074
 20
125.493297
 30
0.0
 11
-127.353666
 21
110.950126
 31
0.0
  0
LINE
  5
22F
330
36
100
AcDbEntity
  8
0
 62
     3
100
AcDbLine
 10
-133.693258
 20
125.493297
 30
0.0
 11
-134.953666
 21
110.950126
 31
0.0
  0
LINE
  5
230
330
36
100
AcDbEntity
  8
0
 62
     3
100
AcDbLine
 10
-133.195125
 20
125.950126
 30
0.0
 11
-129.112207
 21
125.950126
 31
0.0
  0
LINE
  5
235
330
36
100
AcDbEntity
  8
0
 62
     3
100
AcDbLine
 10
-106.153666
 20
31.283836
 30
0.0
 11
-106.153666
 21
38.95012600000001
 31
0.0
  0
LINE
  5
236
330
36
100
AcDbEntity
  8
0
 62
     3
100
AcDbLine
 10
-112.153666
 20
31.200126
 30
0.0
 11
-112.153666
 21
38.95012600000001
 31
0.0
  0
LINE
  5
237
330
36
100
AcDbEntity
  8
0
 62
     3
100
AcDbLine
 10
-104.331841
 20
38.95012600000001
 30
0.0
 11
-113.975491
 21
38.95012600000001
 31
0.0
  0
ARC
  5
238
330
36
100
AcDbEntity
  8
0
 62
     3
100
AcDbCircle
 10
-109.153666
 20
45.950126
 30
0.0
 40
8.5
100
AcDbArc
 50
124.560322
 51
235.439678
  0
LINE
  5
239
330
36
100
AcDbEntity
  8
0
 62
     3
100
AcDbLine
 10
-104.331841
 20
52.950126
 30
0.0
 11
-113.975491
 21
52.950126
 31
0.0
  0
ARC
  5
23A
330
36
100
AcDbEntity
  8
0
 62
     3
100
AcDbCircle
 10
-109.153666
 20
45.950126
 30
0.0
 40
8.5
100
AcDbArc
 50
304.560322
 51
55.439678
  0
LINE
  5
23B
330
36
100
AcDbEntity
  8
0
 62
     3
100
AcDbLine
 10
-104.331841
 20
58.450126
 30
0.0
 11
-113.975491
 21
58.450126
 31
0.0
  0
ARC
  5
23C
330
36
100
AcDbEntity
  8
0
 62
     3
100
AcDbCircle
 10
-109.153666
 20
65.45012599999999
 30
0.0
 40
8.5
100
AcDbArc
 50
304.560322
 51
55.439678
  0
LINE
  5
23D
330
36
100
AcDbEntity
  8
0
 62
     3
100
AcDbLine
 10
-104.331841
 20
72.45012599999999
 30
0.0
 11
-113.975491
 21
72.45012599999999
 31
0.0
  0
ARC
  5
23E
330
36
100
AcDbEntity
  8
0
 62
     3
100
AcDbCircle
 10
-109.153666
 20
65.45012599999999
 30
0.0
 40
8.5
100
AcDbArc
 50
124.560322
 51
235.439678
  0
ARC
  5
23F
330
36
100
AcDbEntity
  8
0
 62
     3
100
AcDbCircle
 10
-153.153666
 20
65.45012599999999
 30
0.0
 40
8.5
100
AcDbArc
 50
304.560322
 51
55.439678
  0
LINE
  5
240
330
36
100
AcDbEntity
  8
0
 62
     3
100
AcDbLine
 10
-148.331841
 20
72.45012599999999
 30
0.0
 11
-157.975491
 21
72.45012599999999
 31
0.0
  0
ARC
  5
241
330
36
100
AcDbEntity
  8
0
 62
     3
100
AcDbCircle
 10
-153.153666
 20
65.45012599999999
 30
0.0
 40
8.5
100
AcDbArc
 50
124.560322
 51
235.439678
  0
LINE
  5
242
330
36
100
AcDbEntity
  8
0
 62
     3
100
AcDbLine
 10
-148.331841
 20
58.450126
 30
0.0
 11
-157.975491
 21
58.450126
 31
0.0
  0
LINE
  5
243
330
36
100
AcDbEntity
  8
0
 62
     3
100
AcDbLine
 10
-148.331841
 20
52.950126
 30
0.0
 11
-157.975491
 21
52.950126
 31
0.0
  0
ARC
  5
244
330
36
100
AcDbEntity
  8
0
 62
     3
100
AcDbCircle
 10
-153.153666
 20
45.950126
 30
0.0
 40
8.5
100
AcDbArc
 50
124.560322
 51
235.439678
  0
LINE
  5
245
330
36
100
AcDbEntity
  8
0
 62
     3
100
AcDbLine
 10
-148.331841
 20
38.95012600000001
 30
0.0
 11
-157.975491
 21
38.95012600000001
 31
0.0
  0
LINE
  5
246
330
36
100
AcDbEntity
  8
0
 62
     3
100
AcDbLine
 10
-156.1536659999999
 20
31.200126
 30
0.0
 11
-156.1536659999999
 21
38.95012600000001
 31
0.0
  0
LINE
  5
247
330
36
100
AcDbEntity
  8
0
 62
     3
100
AcDbLine
 10
-150.153666
 20
31.283836
 30
0.0
 11
-150.153666
 21
38.95012600000001
 31
0.0
  0
ARC
  5
248
330
36
100
AcDbEntity
  8
0
 62
     3
100
AcDbCircle
 10
-153.153666
 20
45.950126
 30
0.0
 40
8.5
100
AcDbArc
 50
304.560322
 51
55.439678
  0
CIRCLE
  5
24F
330
36
100
AcDbEntity
  8
0
100
AcDbCircle
 10
-184.940199
 20
57.39448199999999
 30
0.0
 40
5.0
  0
TEXT
  5
250
330
36
100
AcDbEntity
  8
0
 62
     4
100
AcDbText
 10
-187.1575062301118
 20
54.21636355784739
 30
0.0
 40
6.299999999999998
  1
9
  7
高6.3
100
AcDbText
  0
LINE
  5
251
330
36
100
AcDbEntity
  8
0
 62
     3
100
AcDbLine
 10
-106.153666
 20
31.200126
 30
0.0
 11
-112.153666
 21
31.200126
 31
0.0
  0
ARC
  5
252
330
36
100
AcDbEntity
  8
0
 62
     3
100
AcDbCircle
 10
-133.195125
 20
125.450126
 30
0.0
 40
0.5
100
AcDbArc
 50
90.0
 51
175.046743
  0
ARC
  5
253
330
36
100
AcDbEntity
  8
0
 62
     3
100
AcDbCircle
 10
-129.112207
 20
125.450126
 30
0.0
 40
0.5
100
AcDbArc
 50
4.953256999999998
 51
90.0
  0
ARC
  5
254
330
36
100
AcDbEntity
  8
0
100
AcDbCircle
 10
-104.603666
 20
50.600126
 30
0.0
 40
0.5
100
AcDbArc
 50
0.0
 51
90.0
  0
LINE
  5
255
330
36
100
AcDbEntity
  8
0
100
AcDbLine
 10
-104.103666
 20
50.600126
 30
0.0
 11
-104.103666
 21
44.450126
 31
0.0
  0
ARC
  5
256
330
36
100
AcDbEntity
  8
0
100
AcDbCircle
 10
-104.603666
 20
44.450126
 30
0.0
 40
0.5
100
AcDbArc
 50
270.0
 51
0.0
  0
ARC
  5
257
330
36
100
AcDbEntity
  8
0
100
AcDbCircle
 10
-113.703666
 20
44.875126
 30
0.0
 40
0.5
100
AcDbArc
 50
180.0
 51
270.0
  0
LINE
  5
258
330
36
100
AcDbEntity
  8
0
100
AcDbLine
 10
-114.203666
 20
50.17512599999999
 30
0.0
 11
-114.203666
 21
44.875126
 31
0.0
  0
ARC
  5
259
330
36
100
AcDbEntity
  8
0
100
AcDbCircle
 10
-113.703666
 20
50.17512599999999
 30
0.0
 40
0.5
100
AcDbArc
 50
90.0
 51
180.0
  0
ARC
  5
25A
330
36
100
AcDbEntity
  8
0
100
AcDbCircle
 10
-110.503666
 20
40.025126
 30
0.0
 40
0.5
100
AcDbArc
 50
180.0
 51
270.0
  0
LINE
  5
25B
330
36
100
AcDbEntity
  8
0
100
AcDbLine
 10
-110.503666
 20
39.525126
 30
0.0
 11
-109.903666
 21
39.525126
 31
0.0
  0
LINE
  5
25C
330
36
100
AcDbEntity
  8
0
100
AcDbLine
 10
-108.403666
 20
39.525126
 30
0.0
 11
-109.903666
 21
39.525126
 31
0.0
  0
LINE
  5
25D
330
36
100
AcDbEntity
  8
0
100
AcDbLine
 10
-108.403666
 20
39.525126
 30
0.0
 11
-107.803666
 21
39.525126
 31
0.0
  0
ARC
  5
25E
330
36
100
AcDbEntity
  8
0
100
AcDbCircle
 10
-107.803666
 20
40.025126
 30
0.0
 40
0.5
100
AcDbArc
 50
270.0
 51
0.0
  0
LINE
  5
25F
330
36
100
AcDbEntity
  8
0
100
AcDbLine
 10
-104.103666
 20
70.100126
 30
0.0
 11
-104.103666
 21
63.95012600000001
 31
0.0
  0
ARC
  5
260
330
36
100
AcDbEntity
  8
0
100
AcDbCircle
 10
-104.603666
 20
63.95012600000001
 30
0.0
 40
0.5
100
AcDbArc
 50
270.0
 51
0.0
  0
ARC
  5
261
330
36
100
AcDbEntity
  8
0
100
AcDbCircle
 10
-113.703666
 20
64.37512599999999
 30
0.0
 40
0.5
100
AcDbArc
 50
180.0
 51
270.0
  0
LINE
  5
262
330
36
100
AcDbEntity
  8
0
100
AcDbLine
 10
-114.203666
 20
69.675126
 30
0.0
 11
-114.203666
 21
64.37512599999999
 31
0.0
  0
ARC
  5
263
330
36
100
AcDbEntity
  8
0
100
AcDbCircle
 10
-110.503666
 20
59.525126
 30
0.0
 40
0.5
100
AcDbArc
 50
180.0
 51
270.0
  0
LINE
  5
264
330
36
100
AcDbEntity
  8
0
100
AcDbLine
 10
-110.503666
 20
59.025126
 30
0.0
 11
-109.903666
 21
59.025126
 31
0.0
  0
LINE
  5
265
330
36
100
AcDbEntity
  8
0
100
AcDbLine
 10
-108.403666
 20
59.025126
 30
0.0
 11
-107.803666
 21
59.025126
 31
0.0
  0
LINE
  5
266
330
36
100
AcDbEntity
  8
0
100
AcDbLine
 10
-108.403666
 20
59.025126
 30
0.0
 11
-109.903666
 21
59.025126
 31
0.0
  0
ARC
  5
267
330
36
100
AcDbEntity
  8
0
100
AcDbCircle
 10
-107.803666
 20
59.525126
 30
0.0
 40
0.5
100
AcDbArc
 50
270.0
 51
0.0
  0
ARC
  5
268
330
36
100
AcDbEntity
  8
0
100
AcDbCircle
 10
-104.603666
 20
70.100126
 30
0.0
 40
0.5
100
AcDbArc
 50
0.0
 51
90.0
  0
ARC
  5
269
330
36
100
AcDbEntity
  8
0
100
AcDbCircle
 10
-113.703666
 20
69.675126
 30
0.0
 40
0.5
100
AcDbArc
 50
90.0
 51
180.0
  0
LINE
  5
26A
330
36
100
AcDbEntity
  8
0
100
AcDbLine
 10
-148.103666
 20
50.600126
 30
0.0
 11
-148.103666
 21
44.450126
 31
0.0
  0
ARC
  5
26B
330
36
100
AcDbEntity
  8
0
100
AcDbCircle
 10
-157.703666
 20
44.875126
 30
0.0
 40
0.5
100
AcDbArc
 50
180.0
 51
270.0
  0
LINE
  5
26C
330
36
100
AcDbEntity
  8
0
100
AcDbLine
 10
-158.203666
 20
50.17512599999999
 30
0.0
 11
-158.203666
 21
44.875126
 31
0.0
  0
ARC
  5
26D
330
36
100
AcDbEntity
  8
0
100
AcDbCircle
 10
-157.703666
 20
50.17512599999999
 30
0.0
 40
0.5
100
AcDbArc
 50
90.0
 51
180.0
  0
ARC
  5
26E
330
36
100
AcDbEntity
  8
0
100
AcDbCircle
 10
-154.503666
 20
40.025126
 30
0.0
 40
0.5
100
AcDbArc
 50
180.0
 51
270.0
  0
LINE
  5
26F
330
36
100
AcDbEntity
  8
0
100
AcDbLine
 10
-154.503666
 20
39.525126
 30
0.0
 11
-153.903666
 21
39.525126
 31
0.0
  0
LINE
  5
270
330
36
100
AcDbEntity
  8
0
100
AcDbLine
 10
-152.403666
 20
39.525126
 30
0.0
 11
-153.903666
 21
39.525126
 31
0.0
  0
LINE
  5
271
330
36
100
AcDbEntity
  8
0
100
AcDbLine
 10
-152.403666
 20
39.525126
 30
0.0
 11
-151.803666
 21
39.525126
 31
0.0
  0
ARC
  5
272
330
36
100
AcDbEntity
  8
0
100
AcDbCircle
 10
-151.803666
 20
40.025126
 30
0.0
 40
0.5
100
AcDbArc
 50
270.0
 51
0.0
  0
LINE
  5
273
330
36
100
AcDbEntity
  8
0
100
AcDbLine
 10
-148.103666
 20
70.100126
 30
0.0
 11
-148.103666
 21
63.95012600000001
 31
0.0
  0
LINE
  5
274
330
36
100
AcDbEntity
  8
0
100
AcDbLine
 10
-158.203666
 20
69.675126
 30
0.0
 11
-158.203666
 21
64.37512599999999
 31
0.0
  0
ARC
  5
275
330
36
100
AcDbEntity
  8
0
100
AcDbCircle
 10
-154.503666
 20
59.525126
 30
0.0
 40
0.5
100
AcDbArc
 50
180.0
 51
270.0
  0
LINE
  5
276
330
36
100
AcDbEntity
  8
0
100
AcDbLine
 10
-154.503666
 20
59.025126
 30
0.0
 11
-153.903666
 21
59.025126
 31
0.0
  0
LINE
  5
277
330
36
100
AcDbEntity
  8
0
100
AcDbLine
 10
-152.403666
 20
59.025126
 30
0.0
 11
-151.803666
 21
59.025126
 31
0.0
  0
LINE
  5
278
330
36
100
AcDbEntity
  8
0
100
AcDbLine
 10
-152.403666
 20
59.025126
 30
0.0
 11
-153.903666
 21
59.025126
 31
0.0
  0
ARC
  5
279
330
36
100
AcDbEntity
  8
0
100
AcDbCircle
 10
-151.803666
 20
59.525126
 30
0.0
 40
0.5
100
AcDbArc
 50
270.0
 51
0.0
  0
LINE
  5
27A
330
36
100
AcDbEntity
  8
0
100
AcDbLine
 10
-150.153666
 20
32.10012600000001
 30
0.0
 11
-156.1536659999999
 21
32.10012600000001
 31
0.0
  0
LINE
  5
27B
330
36
100
AcDbEntity
  8
0
100
AcDbLine
 10
-150.153666
 20
31.200126
 30
0.0
 11
-156.1536659999999
 21
31.200126
 31
0.0
  0
LINE
  5
27C
330
36
100
AcDbEntity
  8
0
100
AcDbLine
 10
-106.153666
 20
32.10012600000001
 30
0.0
 11
-112.153666
 21
32.10012600000001
 31
0.0
  0
CIRCLE
  5
27D
330
36
100
AcDbEntity
  8
0
100
AcDbCircle
 10
-109.153666
 20
34.700126
 30
0.0
 40
2.0
  0
CIRCLE
  5
27E
330
36
100
AcDbEntity
  8
0
100
AcDbCircle
 10
-153.153666
 20
34.700126
 30
0.0
 40
2.0
  0
CIRCLE
  5
27F
330
36
100
AcDbEntity
  8
0
100
AcDbCircle
 10
-153.153666
 20
76.70012599999998
 30
0.0
 40
2.0
  0
CIRCLE
  5
280
330
36
100
AcDbEntity
  8
0
100
AcDbCircle
 10
-109.153666
 20
76.70012599999998
 30
0.0
 40
2.0
  0
ARC
  5
281
330
36
100
AcDbEntity
  8
0
100
AcDbCircle
 10
-109.153666
 20
61.260311
 30
0.0
 40
0.764815
100
AcDbArc
 50
11.295648
 51
168.704352
  0
LINE
  5
282
330
36
100
AcDbEntity
  8
0
100
AcDbLine
 10
-105.503666
 20
68.775126
 30
0.0
 11
-105.503666
 21
65.275126
 31
0.0
  0
LINE
  5
283
330
36
100
AcDbEntity
  8
0
100
AcDbLine
 10
-106.453666
 20
68.775126
 30
0.0
 11
-106.453666
 21
65.275126
 31
0.0
  0
LINE
  5
284
330
36
100
AcDbEntity
  8
0
100
AcDbLine
 10
-105.503666
 20
65.275126
 30
0.0
 11
-106.453666
 21
65.275126
 31
0.0
  0
LINE
  5
285
330
36
100
AcDbEntity
  8
0
100
AcDbLine
 10
-111.853666
 20
64.85012600000001
 30
0.0
 11
-112.803666
 21
64.85012600000001
 31
0.0
  0
LINE
  5
286
330
36
100
AcDbEntity
  8
0
100
AcDbLine
 10
-111.853666
 20
69.20012599999999
 30
0.0
 11
-111.853666
 21
64.85012600000001
 31
0.0
  0
LINE
  5
287
330
36
100
AcDbEntity
  8
0
100
AcDbLine
 10
-112.803666
 20
69.20012599999999
 30
0.0
 11
-112.803666
 21
64.85012600000001
 31
0.0
  0
LINE
  5
288
330
36
100
AcDbEntity
  8
0
100
AcDbLine
 10
-108.403666
 20
60.125126
 30
0.0
 11
-108.403666
 21
61.410116
 31
0.0
  0
LINE
  5
289
330
36
100
AcDbEntity
  8
0
100
AcDbLine
 10
-109.903666
 20
60.125126
 30
0.0
 11
-109.903666
 21
61.410116
 31
0.0
  0
LINE
  5
28A
330
36
100
AcDbEntity
  8
0
100
AcDbLine
 10
-109.903666
 20
60.125126
 30
0.0
 11
-108.403666
 21
60.125126
 31
0.0
  0
LINE
  5
28B
330
36
100
AcDbEntity
  8
0
100
AcDbLine
 10
-107.353666
 20
70.100126
 30
0.0
 11
-107.353666
 21
63.95012600000001
 31
0.0
  0
ARC
  5
28C
330
36
100
AcDbEntity
  8
0
100
AcDbCircle
 10
-106.853666
 20
63.95012600000001
 30
0.0
 40
0.5
100
AcDbArc
 50
180.0
 51
270.0
  0
LINE
  5
28D
330
36
100
AcDbEntity
  8
0
100
AcDbLine
 10
-106.853666
 20
63.450126
 30
0.0
 11
-104.603666
 21
63.450126
 31
0.0
  0
LINE
  5
28E
330
36
100
AcDbEntity
  8
0
100
AcDbLine
 10
-110.953666
 20
69.675126
 30
0.0
 11
-110.953666
 21
64.37512599999999
 31
0.0
  0
ARC
  5
28F
330
36
100
AcDbEntity
  8
0
100
AcDbCircle
 10
-111.453666
 20
64.37512599999999
 30
0.0
 40
0.5
100
AcDbArc
 50
270.0
 51
0.0
  0
LINE
  5
290
330
36
100
AcDbEntity
  8
0
100
AcDbLine
 10
-113.703666
 20
63.875126
 30
0.0
 11
-111.453666
 21
63.875126
 31
0.0
  0
LINE
  5
291
330
36
100
AcDbEntity
  8
0
100
AcDbLine
 10
-107.303666
 20
59.525126
 30
0.0
 11
-107.303666
 21
61.494905
 31
0.0
  0
ARC
  5
292
330
36
100
AcDbEntity
  8
0
100
AcDbCircle
 10
-109.153666
 20
61.260311
 30
0.0
 40
1.864815
100
AcDbArc
 50
7.226963
 51
172.773037
  0
LINE
  5
293
330
36
100
AcDbEntity
  8
0
100
AcDbLine
 10
-111.003666
 20
59.525126
 30
0.0
 11
-111.003666
 21
61.494905
 31
0.0
  0
LINE
  5
294
330
36
100
AcDbEntity
  8
0
100
AcDbLine
 10
-105.503666
 20
68.775126
 30
0.0
 11
-106.453666
 21
68.775126
 31
0.0
  0
LINE
  5
295
330
36
100
AcDbEntity
  8
0
100
AcDbLine
 10
-111.853666
 20
69.20012599999999
 30
0.0
 11
-112.803666
 21
69.20012599999999
 31
0.0
  0
LINE
  5
296
330
36
100
AcDbEntity
  8
0
100
AcDbLine
 10
-106.853666
 20
70.600126
 30
0.0
 11
-104.603666
 21
70.600126
 31
0.0
  0
ARC
  5
297
330
36
100
AcDbEntity
  8
0
100
AcDbCircle
 10
-106.853666
 20
70.100126
 30
0.0
 40
0.5
100
AcDbArc
 50
90.0
 51
180.0
  0
LINE
  5
298
330
36
100
AcDbEntity
  8
0
100
AcDbLine
 10
-113.703666
 20
70.175126
 30
0.0
 11
-111.453666
 21
70.175126
 31
0.0
  0
ARC
  5
299
330
36
100
AcDbEntity
  8
0
100
AcDbCircle
 10
-111.453666
 20
69.675126
 30
0.0
 40
0.5
100
AcDbArc
 50
0.0
 51
90.0
  0
LINE
  5
29A
330
36
100
AcDbEntity
  8
0
100
AcDbLine
 10
-111.853666
 20
49.700126
 30
0.0
 11
-111.853666
 21
45.350126
 31
0.0
  0
LINE
  5
29B
330
36
100
AcDbEntity
  8
0
100
AcDbLine
 10
-112.803666
 20
49.700126
 30
0.0
 11
-112.803666
 21
45.350126
 31
0.0
  0
LINE
  5
29C
330
36
100
AcDbEntity
  8
0
100
AcDbLine
 10
-111.853666
 20
49.700126
 30
0.0
 11
-112.803666
 21
49.700126
 31
0.0
  0
LINE
  5
29D
330
36
100
AcDbEntity
  8
0
100
AcDbLine
 10
-111.853666
 20
45.350126
 30
0.0
 11
-112.803666
 21
45.350126
 31
0.0
  0
LINE
  5
29E
330
36
100
AcDbEntity
  8
0
100
AcDbLine
 10
-109.903666
 20
40.625126
 30
0.0
 11
-109.903666
 21
41.91011599999995
 31
0.0
  0
ARC
  5
29F
330
36
100
AcDbEntity
  8
0
100
AcDbCircle
 10
-109.153666
 20
41.760311
 30
0.0
 40
0.764815
100
AcDbArc
 50
11.295648
 51
168.704352
  0
LINE
  5
2A0
330
36
100
AcDbEntity
  8
0
100
AcDbLine
 10
-108.403666
 20
40.625126
 30
0.0
 11
-108.403666
 21
41.91011599999995
 31
0.0
  0
LINE
  5
2A1
330
36
100
AcDbEntity
  8
0
100
AcDbLine
 10
-109.903666
 20
40.625126
 30
0.0
 11
-108.403666
 21
40.625126
 31
0.0
  0
LINE
  5
2A2
330
36
100
AcDbEntity
  8
0
100
AcDbLine
 10
-105.503666
 20
49.275126
 30
0.0
 11
-106.453666
 21
49.275126
 31
0.0
  0
LINE
  5
2A3
330
36
100
AcDbEntity
  8
0
100
AcDbLine
 10
-105.503666
 20
49.275126
 30
0.0
 11
-105.503666
 21
45.775126
 31
0.0
  0
LINE
  5
2A4
330
36
100
AcDbEntity
  8
0
100
AcDbLine
 10
-106.453666
 20
49.275126
 30
0.0
 11
-106.453666
 21
45.775126
 31
0.0
  0
LINE
  5
2A5
330
36
100
AcDbEntity
  8
0
100
AcDbLine
 10
-105.503666
 20
45.775126
 30
0.0
 11
-106.453666
 21
45.775126
 31
0.0
  0
LINE
  5
2A6
330
36
100
AcDbEntity
  8
0
100
AcDbLine
 10
-106.853666
 20
51.10012600000001
 30
0.0
 11
-104.603666
 21
51.10012600000001
 31
0.0
  0
ARC
  5
2A7
330
36
100
AcDbEntity
  8
0
100
AcDbCircle
 10
-106.853666
 20
50.600126
 30
0.0
 40
0.5
100
AcDbArc
 50
90.0
 51
180.0
  0
LINE
  5
2A8
330
36
100
AcDbEntity
  8
0
100
AcDbLine
 10
-107.353666
 20
50.600126
 30
0.0
 11
-107.353666
 21
44.450126
 31
0.0
  0
LINE
  5
2A9
330
36
100
AcDbEntity
  8
0
100
AcDbLine
 10
-106.853666
 20
43.950126
 30
0.0
 11
-104.603666
 21
43.950126
 31
0.0
  0
ARC
  5
2AA
330
36
100
AcDbEntity
  8
0
100
AcDbCircle
 10
-106.853666
 20
44.450126
 30
0.0
 40
0.5
100
AcDbArc
 50
180.0
 51
270.0
  0
ARC
  5
2AB
330
36
100
AcDbEntity
  8
0
100
AcDbCircle
 10
-111.453666
 20
44.875126
 30
0.0
 40
0.5
100
AcDbArc
 50
270.0
 51
0.0
  0
LINE
  5
2AC
330
36
100
AcDbEntity
  8
0
100
AcDbLine
 10
-113.703666
 20
44.375126
 30
0.0
 11
-111.453666
 21
44.375126
 31
0.0
  0
LINE
  5
2AD
330
36
100
AcDbEntity
  8
0
100
AcDbLine
 10
-113.703666
 20
50.675126
 30
0.0
 11
-111.453666
 21
50.675126
 31
0.0
  0
ARC
  5
2AE
330
36
100
AcDbEntity
  8
0
100
AcDbCircle
 10
-111.453666
 20
50.17512599999999
 30
0.0
 40
0.5
100
AcDbArc
 50
0.0
 51
90.0
  0
LINE
  5
2AF
330
36
100
AcDbEntity
  8
0
100
AcDbLine
 10
-110.953666
 20
50.17512599999999
 30
0.0
 11
-110.953666
 21
44.875126
 31
0.0
  0
LINE
  5
2B0
330
36
100
AcDbEntity
  8
0
100
AcDbLine
 10
-107.303666
 20
40.025126
 30
0.0
 11
-107.303666
 21
41.945496
 31
0.0
  0
ARC
  5
2B1
330
36
100
AcDbEntity
  8
0
100
AcDbCircle
 10
-109.153666
 20
41.760311
 30
0.0
 40
1.864815
100
AcDbArc
 50
9.147842999999999
 51
171.550276
  0
LINE
  5
2B2
330
36
100
AcDbEntity
  8
0
100
AcDbLine
 10
-111.003666
 20
40.025126
 30
0.0
 11
-111.003666
 21
41.96085899999999
 31
0.0
  0
LINE
  5
2B3
330
36
100
AcDbEntity
  8
0
100
AcDbLine
 10
-155.853666
 20
49.700126
 30
0.0
 11
-155.853666
 21
45.350126
 31
0.0
  0
LINE
  5
2B4
330
36
100
AcDbEntity
  8
0
100
AcDbLine
 10
-156.803666
 20
49.700126
 30
0.0
 11
-156.803666
 21
45.350126
 31
0.0
  0
LINE
  5
2B5
330
36
100
AcDbEntity
  8
0
100
AcDbLine
 10
-155.853666
 20
49.700126
 30
0.0
 11
-156.803666
 21
49.700126
 31
0.0
  0
LINE
  5
2B6
330
36
100
AcDbEntity
  8
0
100
AcDbLine
 10
-155.853666
 20
45.350126
 30
0.0
 11
-156.803666
 21
45.350126
 31
0.0
  0
LINE
  5
2B7
330
36
100
AcDbEntity
  8
0
100
AcDbLine
 10
-153.903666
 20
40.625126
 30
0.0
 11
-153.903666
 21
41.91011599999995
 31
0.0
  0
ARC
  5
2B8
330
36
100
AcDbEntity
  8
0
100
AcDbCircle
 10
-153.153666
 20
41.760311
 30
0.0
 40
0.764815
100
AcDbArc
 50
11.295648
 51
168.704352
  0
LINE
  5
2B9
330
36
100
AcDbEntity
  8
0
100
AcDbLine
 10
-152.403666
 20
40.625126
 30
0.0
 11
-152.403666
 21
41.91011599999995
 31
0.0
  0
LINE
  5
2BA
330
36
100
AcDbEntity
  8
0
100
AcDbLine
 10
-153.903666
 20
40.625126
 30
0.0
 11
-152.403666
 21
40.625126
 31
0.0
  0
LINE
  5
2BB
330
36
100
AcDbEntity
  8
0
100
AcDbLine
 10
-149.503666
 20
49.275126
 30
0.0
 11
-150.453666
 21
49.275126
 31
0.0
  0
LINE
  5
2BC
330
36
100
AcDbEntity
  8
0
100
AcDbLine
 10
-149.503666
 20
49.275126
 30
0.0
 11
-149.503666
 21
45.775126
 31
0.0
  0
LINE
  5
2BD
330
36
100
AcDbEntity
  8
0
100
AcDbLine
 10
-150.453666
 20
49.275126
 30
0.0
 11
-150.453666
 21
45.775126
 31
0.0
  0
LINE
  5
2BE
330
36
100
AcDbEntity
  8
0
100
AcDbLine
 10
-149.503666
 20
45.775126
 30
0.0
 11
-150.453666
 21
45.775126
 31
0.0
  0
ARC
  5
2BF
330
36
100
AcDbEntity
  8
0
100
AcDbCircle
 10
-148.603666
 20
50.600126
 30
0.0
 40
0.5
100
AcDbArc
 50
0.0
 51
90.0
  0
LINE
  5
2C0
330
36
100
AcDbEntity
  8
0
100
AcDbLine
 10
-150.853666
 20
51.10012600000001
 30
0.0
 11
-148.603666
 21
51.10012600000001
 31
0.0
  0
ARC
  5
2C1
330
36
100
AcDbEntity
  8
0
100
AcDbCircle
 10
-150.853666
 20
50.600126
 30
0.0
 40
0.5
100
AcDbArc
 50
90.0
 51
180.0
  0
LINE
  5
2C2
330
36
100
AcDbEntity
  8
0
100
AcDbLine
 10
-151.353666
 20
50.600126
 30
0.0
 11
-151.353666
 21
44.450126
 31
0.0
  0
ARC
  5
2C3
330
36
100
AcDbEntity
  8
0
100
AcDbCircle
 10
-148.603666
 20
44.450126
 30
0.0
 40
0.5
100
AcDbArc
 50
270.0
 51
0.0
  0
LINE
  5
2C4
330
36
100
AcDbEntity
  8
0
100
AcDbLine
 10
-150.853666
 20
43.950126
 30
0.0
 11
-148.603666
 21
43.950126
 31
0.0
  0
ARC
  5
2C5
330
36
100
AcDbEntity
  8
0
100
AcDbCircle
 10
-150.853666
 20
44.450126
 30
0.0
 40
0.5
100
AcDbArc
 50
180.0
 51
270.0
  0
ARC
  5
2C6
330
36
100
AcDbEntity
  8
0
100
AcDbCircle
 10
-155.453666
 20
44.875126
 30
0.0
 40
0.5
100
AcDbArc
 50
270.0
 51
0.0
  0
LINE
  5
2C7
330
36
100
AcDbEntity
  8
0
100
AcDbLine
 10
-157.703666
 20
44.375126
 30
0.0
 11
-155.453666
 21
44.375126
 31
0.0
  0
LINE
  5
2C8
330
36
100
AcDbEntity
  8
0
100
AcDbLine
 10
-157.703666
 20
50.675126
 30
0.0
 11
-155.453666
 21
50.675126
 31
0.0
  0
ARC
  5
2C9
330
36
100
AcDbEntity
  8
0
100
AcDbCircle
 10
-155.453666
 20
50.17512599999999
 30
0.0
 40
0.5
100
AcDbArc
 50
0.0
 51
90.0
  0
LINE
  5
2CA
330
36
100
AcDbEntity
  8
0
100
AcDbLine
 10
-154.953666
 20
50.17512599999999
 30
0.0
 11
-154.953666
 21
44.875126
 31
0.0
  0
LINE
  5
2CB
330
36
100
AcDbEntity
  8
0
100
AcDbLine
 10
-151.303666
 20
40.025126
 30
0.0
 11
-151.303666
 21
41.945496
 31
0.0
  0
ARC
  5
2CC
330
36
100
AcDbEntity
  8
0
100
AcDbCircle
 10
-153.153666
 20
41.760311
 30
0.0
 40
1.864815
100
AcDbArc
 50
9.147842999999999
 51
171.550276
  0
LINE
  5
2CD
330
36
100
AcDbEntity
  8
0
100
AcDbLine
 10
-155.003666
 20
40.025126
 30
0.0
 11
-155.003666
 21
41.96085899999999
 31
0.0
  0
ARC
  5
2CE
330
36
100
AcDbEntity
  8
0
100
AcDbCircle
 10
-153.153666
 20
61.260311
 30
0.0
 40
0.764815
100
AcDbArc
 50
11.295648
 51
168.704352
  0
LINE
  5
2CF
330
36
100
AcDbEntity
  8
0
100
AcDbLine
 10
-149.503666
 20
68.775126
 30
0.0
 11
-149.503666
 21
65.275126
 31
0.0
  0
LINE
  5
2D0
330
36
100
AcDbEntity
  8
0
100
AcDbLine
 10
-150.453666
 20
68.775126
 30
0.0
 11
-150.453666
 21
65.275126
 31
0.0
  0
LINE
  5
2D1
330
36
100
AcDbEntity
  8
0
100
AcDbLine
 10
-149.503666
 20
65.275126
 30
0.0
 11
-150.453666
 21
65.275126
 31
0.0
  0
LINE
  5
2D2
330
36
100
AcDbEntity
  8
0
100
AcDbLine
 10
-155.853666
 20
64.85012600000001
 30
0.0
 11
-156.803666
 21
64.85012600000001
 31
0.0
  0
LINE
  5
2D3
330
36
100
AcDbEntity
  8
0
100
AcDbLine
 10
-155.853666
 20
69.20012599999999
 30
0.0
 11
-155.853666
 21
64.85012600000001
 31
0.0
  0
LINE
  5
2D4
330
36
100
AcDbEntity
  8
0
100
AcDbLine
 10
-156.803666
 20
69.20012599999999
 30
0.0
 11
-156.803666
 21
64.85012600000001
 31
0.0
  0
LINE
  5
2D5
330
36
100
AcDbEntity
  8
0
100
AcDbLine
 10
-152.403666
 20
60.125126
 30
0.0
 11
-152.403666
 21
61.410116
 31
0.0
  0
LINE
  5
2D6
330
36
100
AcDbEntity
  8
0
100
AcDbLine
 10
-153.903666
 20
60.125126
 30
0.0
 11
-153.903666
 21
61.410116
 31
0.0
  0
LINE
  5
2D7
330
36
100
AcDbEntity
  8
0
100
AcDbLine
 10
-153.903666
 20
60.125126
 30
0.0
 11
-152.403666
 21
60.125126
 31
0.0
  0
LINE
  5
2D8
330
36
100
AcDbEntity
  8
0
100
AcDbLine
 10
-151.353666
 20
70.100126
 30
0.0
 11
-151.353666
 21
63.95012600000001
 31
0.0
  0
ARC
  5
2D9
330
36
100
AcDbEntity
  8
0
100
AcDbCircle
 10
-150.853666
 20
63.95012600000001
 30
0.0
 40
0.5
100
AcDbArc
 50
180.0
 51
270.0
  0
LINE
  5
2DA
330
36
100
AcDbEntity
  8
0
100
AcDbLine
 10
-150.853666
 20
63.450126
 30
0.0
 11
-148.603666
 21
63.450126
 31
0.0
  0
ARC
  5
2DB
330
36
100
AcDbEntity
  8
0
100
AcDbCircle
 10
-148.603666
 20
63.95012600000001
 30
0.0
 40
0.5
100
AcDbArc
 50
270.0
 51
0.0
  0
ARC
  5
2DC
330
36
100
AcDbEntity
  8
0
100
AcDbCircle
 10
-157.703666
 20
64.37512599999999
 30
0.0
 40
0.5
100
AcDbArc
 50
180.0
 51
270.0
  0
LINE
  5
2DD
330
36
100
AcDbEntity
  8
0
100
AcDbLine
 10
-154.953666
 20
69.675126
 30
0.0
 11
-154.953666
 21
64.37512599999999
 31
0.0
  0
ARC
  5
2DE
330
36
100
AcDbEntity
  8
0
100
AcDbCircle
 10
-155.453666
 20
64.37512599999999
 30
0.0
 40
0.5
100
AcDbArc
 50
270.0
 51
0.0
  0
LINE
  5
2DF
330
36
100
AcDbEntity
  8
0
100
AcDbLine
 10
-157.703666
 20
63.875126
 30
0.0
 11
-155.453666
 21
63.875126
 31
0.0
  0
LINE
  5
2E0
330
36
100
AcDbEntity
  8
0
100
AcDbLine
 10
-151.303666
 20
59.525126
 30
0.0
 11
-151.303666
 21
61.494905
 31
0.0
  0
ARC
  5
2E1
330
36
100
AcDbEntity
  8
0
100
AcDbCircle
 10
-153.153666
 20
61.260311
 30
0.0
 40
1.864815
100
AcDbArc
 50
7.226963
 51
172.773037
  0
LINE
  5
2E2
330
36
100
AcDbEntity
  8
0
100
AcDbLine
 10
-155.003666
 20
59.525126
 30
0.0
 11
-155.003666
 21
61.494905
 31
0.0
  0
LINE
  5
2E3
330
36
100
AcDbEntity
  8
0
100
AcDbLine
 10
-149.503666
 20
68.775126
 30
0.0
 11
-150.453666
 21
68.775126
 31
0.0
  0
LINE
  5
2E4
330
36
100
AcDbEntity
  8
0
100
AcDbLine
 10
-155.853666
 20
69.20012599999999
 30
0.0
 11
-156.803666
 21
69.20012599999999
 31
0.0
  0
LINE
  5
2E5
330
36
100
AcDbEntity
  8
0
100
AcDbLine
 10
-150.853666
 20
70.600126
 30
0.0
 11
-148.603666
 21
70.600126
 31
0.0
  0
ARC
  5
2E6
330
36
100
AcDbEntity
  8
0
100
AcDbCircle
 10
-148.603666
 20
70.100126
 30
0.0
 40
0.5
100
AcDbArc
 50
0.0
 51
90.0
  0
ARC
  5
2E7
330
36
100
AcDbEntity
  8
0
100
AcDbCircle
 10
-150.853666
 20
70.100126
 30
0.0
 40
0.5
100
AcDbArc
 50
90.0
 51
180.0
  0
ARC
  5
2E8
330
36
100
AcDbEntity
  8
0
100
AcDbCircle
 10
-157.703666
 20
69.675126
 30
0.0
 40
0.5
100
AcDbArc
 50
90.0
 51
180.0
  0
LINE
  5
2E9
330
36
100
AcDbEntity
  8
0
100
AcDbLine
 10
-157.703666
 20
70.175126
 30
0.0
 11
-155.453666
 21
70.175126
 31
0.0
  0
ARC
  5
2EA
330
36
100
AcDbEntity
  8
0
100
AcDbCircle
 10
-155.453666
 20
69.675126
 30
0.0
 40
0.5
100
AcDbArc
 50
0.0
 51
90.0
  0
CIRCLE
  5
2F1
330
36
100
AcDbEntity
  8
0
100
AcDbCircle
 10
50.636865
 20
126.890693
 30
0.0
 40
5.0
  0
TEXT
  5
2F2
330
36
100
AcDbEntity
  8
0
 62
     4
100
AcDbText
 10
49.46386460869371
 20
123.8487601232302
 30
0.0
 40
6.299999999999998
  1
1
  7
高6.3
100
AcDbText
  0
CIRCLE
  5
2F9
330
36
100
AcDbEntity
  8
0
100
AcDbCircle
 10
80.910191
 20
126.333195
 30
0.0
 40
5.0
  0
TEXT
  5
2FA
330
36
100
AcDbEntity
  8
0
 62
     4
100
AcDbText
 10
78.69288376988816
 20
123.1550765578474
 30
0.0
 40
6.299999999999998
  1
3
  7
高6.3
100
AcDbText
  0
LINE
  5
2FB
330
36
100
AcDbEntity
  8
0
 62
     3
100
AcDbLine
 10
-142.053687
 20
82.750126
 30
0.0
 11
-142.053687
 21
103.950126
 31
0.0
  0
LINE
  5
2FC
330
36
100
AcDbEntity
  8
0
 62
     3
100
AcDbLine
 10
-164.253687
 20
82.750126
 30
0.0
 11
-164.253687
 21
103.950126
 31
0.0
  0
LINE
  5
2FD
330
36
100
AcDbEntity
  8
0
 62
     3
100
AcDbLine
 10
-163.753687
 20
104.450126
 30
0.0
 11
-142.553687
 21
104.450126
 31
0.0
  0
LINE
  5
2FE
330
36
100
AcDbEntity
  8
0
 62
     3
100
AcDbLine
 10
-142.553687
 20
82.25012599999997
 30
0.0
 11
-163.753687
 21
82.25012599999997
 31
0.0
  0
ARC
  5
2FF
330
36
100
AcDbEntity
  8
0
 62
     3
100
AcDbCircle
 10
-142.553687
 20
103.950126
 30
0.0
 40
0.5
100
AcDbArc
 50
0.0
 51
90.0
  0
ARC
  5
300
330
36
100
AcDbEntity
  8
0
 62
     3
100
AcDbCircle
 10
-163.753687
 20
103.950126
 30
0.0
 40
0.5
100
AcDbArc
 50
90.0
 51
180.0
  0
ARC
  5
301
330
36
100
AcDbEntity
  8
0
 62
     3
100
AcDbCircle
 10
-163.753687
 20
82.750126
 30
0.0
 40
0.5
100
AcDbArc
 50
180.0
 51
270.0
  0
ARC
  5
302
330
36
100
AcDbEntity
  8
0
 62
     3
100
AcDbCircle
 10
-142.553687
 20
82.750126
 30
0.0
 40
0.5
100
AcDbArc
 50
270.0
 51
0.0
  0
LINE
  5
303
330
36
100
AcDbEntity
  8
0
 62
     3
100
AcDbLine
 10
-128.153666
 20
81.400126
 30
0.0
 11
-128.153666
 21
68.900126
 31
0.0
  0
LINE
  5
304
330
36
100
AcDbEntity
  8
0
 62
     3
100
AcDbLine
 10
-134.153666
 20
68.900126
 30
0.0
 11
-134.153666
 21
81.400126
 31
0.0
  0
CIRCLE
  5
305
330
36
100
AcDbEntity
  8
0
 62
     3
100
AcDbCircle
 10
-153.153687
 20
89.75017599999999
 30
0.0
 40
0.5
  0
LINE
  5
306
330
36
100
AcDbEntity
  8
0
 62
     3
100
AcDbLine
 10
170.386923
 20
-112.46397
 30
0.0
 11
170.386923
 21
164.53603
 31
0.0
  0
LINE
  5
307
330
36
100
AcDbEntity
  8
0
 62
     3
100
AcDbLine
 10
-219.613077
 20
164.53603
 30
0.0
 11
170.386923
 21
164.53603
 31
0.0
  0
LINE
  5
308
330
36
100
AcDbEntity
  8
0
 62
     3
100
AcDbLine
 10
-141.505011
 20
41.46227399999999
 30
0.0
 11
-120.985011
 21
41.46227399999999
 31
0.0
  0
LINE
  5
309
330
36
100
AcDbEntity
  8
0
 62
     3
100
AcDbLine
 10
-120.985011
 20
34.982274
 30
0.0
 11
-141.505011
 21
34.982274
 31
0.0
  0
LINE
  5
30A
330
36
100
AcDbEntity
  8
0
 62
     3
100
AcDbLine
 10
-120.445011
 20
35.522274
 30
0.0
 11
-120.445011
 21
40.922274
 31
0.0
  0
LINE
  5
30B
330
36
100
AcDbEntity
  8
0
 62
     3
100
AcDbLine
 10
-142.045011
 20
35.522274
 30
0.0
 11
-142.045011
 21
40.922274
 31
0.0
  0
ARC
  5
30C
330
36
100
AcDbEntity
  8
0
 62
     3
100
AcDbCircle
 10
-120.985011
 20
40.922274
 30
0.0
 40
0.5400000000000002
100
AcDbArc
 50
0.0
 51
90.0
  0
ARC
  5
30D
330
36
100
AcDbEntity
  8
0
 62
     3
100
AcDbCircle
 10
-141.505011
 20
40.922274
 30
0.0
 40
0.5400000000000002
100
AcDbArc
 50
90.0
 51
180.0
  0
ARC
  5
30E
330
36
100
AcDbEntity
  8
0
 62
     3
100
AcDbCircle
 10
-141.505011
 20
35.522274
 30
0.0
 40
0.5400000000000002
100
AcDbArc
 50
180.0
 51
270.0
  0
ARC
  5
30F
330
36
100
AcDbEntity
  8
0
 62
     3
100
AcDbCircle
 10
-120.985011
 20
35.522274
 30
0.0
 40
0.5400000000000002
100
AcDbArc
 50
270.0
 51
0.0
  0
LINE
  5
310
330
36
100
AcDbEntity
  8
0
100
AcDbLine
 10
-92.41200595309022
 20
-112.46397
 30
0.0
 11
-92.41200595309022
 21
-52.46396999999998
 31
0.0
  0
LINE
  5
311
330
36
100
AcDbEntity
  8
0
 62
     3
100
AcDbLine
 10
170.386923
 20
-112.46397
 30
0.0
 11
-219.613077
 21
-112.46397
 31
0.0
  0
TEXT
  5
314
330
36
100
AcDbEntity
  8
0
 62
     3
100
AcDbText
 10
-116.640974
 20
93.193081
 30
0.0
 40
3.2
  1
入力電圧
 41
0.833333
100
AcDbText
  0
TEXT
  5
315
330
36
100
AcDbEntity
  8
0
 62
     3
100
AcDbText
 10
-116.628595
 20
85.167493
 30
0.0
 40
3.2
  1
出力電圧
 41
0.833333
100
AcDbText
  0
TEXT
  5
316
330
36
100
AcDbEntity
  8
0
 62
     3
100
AcDbText
 10
-118.9041840886045
 20
99.188354
 30
0.0
 40
3.149999999999999
  1
F-300D
 41
0.9305979999999999
100
AcDbText
  0
TEXT
  5
317
330
36
100
AcDbEntity
  8
0
 62
     3
100
AcDbText
 10
-139.884795
 20
36.602274
 30
0.0
 40
3.455999999999998
  1
3KVA
 41
1.274038999999999
100
AcDbText
  0
LINE
  5
318
330
36
100
AcDbEntity
  8
0
100
AcDbLine
 10
-143.053687
 20
103.450126
 30
0.0
 11
-163.253687
 21
103.450126
 31
0.0
  0
LINE
  5
319
330
36
100
AcDbEntity
  8
0
100
AcDbLine
 10
-143.053687
 20
103.450126
 30
0.0
 11
-143.053687
 21
83.25012599999999
 31
0.0
  0
LINE
  5
31A
330
36
100
AcDbEntity
  8
0
100
AcDbLine
 10
-143.053687
 20
83.25012599999999
 30
0.0
 11
-163.253687
 21
83.25012599999999
 31
0.0
  0
LINE
  5
31B
330
36
100
AcDbEntity
  8
0
100
AcDbLine
 10
-163.253687
 20
83.25012599999999
 30
0.0
 11
-163.253687
 21
103.450126
 31
0.0
  0
LINE
  5
31C
330
36
100
AcDbEntity
  8
0
100
AcDbLine
 10
-143.053687
 20
90.75012599999999
 30
0.0
 11
-163.253687
 21
90.75012599999999
 31
0.0
  0
LINE
  5
31D
330
36
100
AcDbEntity
  8
0
100
AcDbLine
 10
-143.053687
 20
90.00012599999998
 30
0.0
 11
-163.253687
 21
90.00012599999998
 31
0.0
  0
LINE
  5
31E
330
36
100
AcDbEntity
  8
0
100
AcDbLine
 10
-143.053687
 20
89.250126
 30
0.0
 11
-163.253687
 21
89.250126
 31
0.0
  0
LINE
  5
31F
330
36
100
AcDbEntity
  8
0
100
AcDbLine
 10
-143.053687
 20
88.50012599999997
 30
0.0
 11
-163.253687
 21
88.50012599999997
 31
0.0
  0
LINE
  5
320
330
36
100
AcDbEntity
  8
0
100
AcDbLine
 10
-143.053687
 20
87.750126
 30
0.0
 11
-163.253687
 21
87.750126
 31
0.0
  0
LINE
  5
321
330
36
100
AcDbEntity
  8
0
100
AcDbLine
 10
-143.053687
 20
87.00012599999999
 30
0.0
 11
-163.253687
 21
87.00012599999999
 31
0.0
  0
LINE
  5
322
330
36
100
AcDbEntity
  8
0
100
AcDbLine
 10
-143.053687
 20
86.25012599999998
 30
0.0
 11
-163.253687
 21
86.25012599999998
 31
0.0
  0
LINE
  5
323
330
36
100
AcDbEntity
  8
0
100
AcDbLine
 10
-143.053687
 20
85.500126
 30
0.0
 11
-163.253687
 21
85.500126
 31
0.0
  0
LINE
  5
324
330
36
100
AcDbEntity
  8
0
100
AcDbLine
 10
-143.053687
 20
84.75012599999997
 30
0.0
 11
-163.253687
 21
84.75012599999997
 31
0.0
  0
LINE
  5
325
330
36
100
AcDbEntity
  8
0
100
AcDbLine
 10
-143.053687
 20
84.000126
 30
0.0
 11
-163.253687
 21
84.000126
 31
0.0
  0
CIRCLE
  5
326
330
36
100
AcDbEntity
  8
0
100
AcDbCircle
 10
-131.153666
 20
60.150126
 30
0.0
 40
2.0
  0
CIRCLE
  5
327
330
36
100
AcDbEntity
  8
0
100
AcDbCircle
 10
-131.153666
 20
90.150126
 30
0.0
 40
2.0
  0
LINE
  5
328
330
36
100
AcDbEntity
  8
0
100
AcDbLine
 10
-129.528666
 20
74.650126
 30
0.0
 11
-132.778666
 21
74.650126
 31
0.0
  0
LINE
  5
329
330
36
100
AcDbEntity
  8
0
100
AcDbLine
 10
-129.528666
 20
80.65012600000001
 30
0.0
 11
-132.778666
 21
80.65012600000001
 31
0.0
  0
LINE
  5
32A
330
36
100
AcDbEntity
  8
0
100
AcDbLine
 10
-132.778666
 20
82.15012599999999
 30
0.0
 11
-129.528666
 21
82.15012599999999
 31
0.0
  0
ARC
  5
32B
330
36
100
AcDbEntity
  8
0
100
AcDbCircle
 10
-153.153687
 20
89.75017599999999
 30
0.0
 40
2.5
100
AcDbArc
 50
23.576928
 51
156.423072
  0
TEXT
  5
32C
330
36
100
AcDbEntity
  8
0
100
AcDbText
 10
-121.60338
 20
90.93879599999999
 30
0.0
 40
1.6
  1
AC200V 50/60HZ
 41
1.234654
100
AcDbText
  0
TEXT
  5
32D
330
36
100
AcDbEntity
  8
0
100
AcDbText
 10
-118.8049207340787
 20
82.618802
 30
0.0
 40
1.6
  1
AC100V・115V
 41
0.9523419999999999
100
AcDbText
  0
TEXT
  5
32E
330
36
100
AcDbEntity
  8
0
100
AcDbText
 10
-131.911955
 20
75.712986
 30
0.0
 40
1.6
  1
入
 41
0.833333
100
AcDbText
  0
TEXT
  5
32F
330
36
100
AcDbEntity
  8
0
100
AcDbText
 10
-132.432711
 20
80.781828
 30
0.0
 40
1.28
  1
15
 41
1.199999999999999
100
AcDbText
  0
LINE
  5
330
330
36
100
AcDbEntity
  8
0
100
AcDbLine
 10
-148.913431
 20
101.400064
 30
0.0
 11
-153.153666
 21
89.750113
 31
0.0
  0
LINE
  5
331
330
36
100
AcDbEntity
  8
0
100
AcDbLine
 10
-144.661755
 20
98.242107
 30
0.0
 11
-146.084074
 21
96.81978800000001
 31
0.0
  0
LINE
  5
332
330
36
100
AcDbEntity
  8
0
100
AcDbLine
 10
-148.149715
 20
100.481116
 30
0.0
 11
-148.573188
 21
99.57297699999999
 31
0.0
  0
LINE
  5
333
330
36
100
AcDbEntity
  8
0
100
AcDbLine
 10
-147.267534
 20
99.94518600000001
 30
0.0
 11
-147.76895
 21
99.07670799999999
 31
0.0
  0
LINE
  5
334
330
36
100
AcDbEntity
  8
0
100
AcDbLine
 10
-146.446572
 20
99.328827
 30
0.0
 11
-147.022289
 21
98.50661800000001
 31
0.0
  0
LINE
  5
335
330
36
100
AcDbEntity
  8
0
100
AcDbLine
 10
-145.694281
 20
98.639849
 30
0.0
 11
-146.340086
 21
97.87020900000001
 31
0.0
  0
LINE
  5
336
330
36
100
AcDbEntity
  8
0
100
AcDbLine
 10
-157.393899
 20
101.400082
 30
0.0
 11
-156.880221
 21
99.98876500000001
 31
0.0
  0
LINE
  5
337
330
36
100
AcDbEntity
  8
0
100
AcDbLine
 10
-156.244419
 20
101.284984
 30
0.0
 11
-155.985405
 21
100.318327
 31
0.0
  0
LINE
  5
338
330
36
100
AcDbEntity
  8
0
100
AcDbLine
 10
-155.232934
 20
101.542247
 30
0.0
 11
-155.059227
 21
100.557104
 31
0.0
  0
LINE
  5
339
330
36
100
AcDbEntity
  8
0
100
AcDbLine
 10
-154.198971
 20
101.698016
 30
0.0
 11
-154.111808
 21
100.701736
 31
0.0
  0
LINE
  5
33A
330
36
100
AcDbEntity
  8
0
100
AcDbLine
 10
-152.108361
 20
101.698012
 30
0.0
 11
-152.195524
 21
100.701732
 31
0.0
  0
LINE
  5
33B
330
36
100
AcDbEntity
  8
0
100
AcDbLine
 10
-151.074397
 20
101.542238
 30
0.0
 11
-151.248105
 21
100.557095
 31
0.0
  0
LINE
  5
33C
330
36
100
AcDbEntity
  8
0
100
AcDbLine
 10
-150.062911
 20
101.28497
 30
0.0
 11
-150.321926
 21
100.318314
 31
0.0
  0
LINE
  5
33D
330
36
100
AcDbEntity
  8
0
100
AcDbLine
 10
-160.613047
 20
98.639895
 30
0.0
 11
-159.967242
 21
97.870255
 31
0.0
  0
LINE
  5
33E
330
36
100
AcDbEntity
  8
0
100
AcDbLine
 10
-159.860756
 20
99.32886500000002
 30
0.0
 11
-159.285039
 21
98.50665600000001
 31
0.0
  0
LINE
  5
33F
330
36
100
AcDbEntity
  8
0
100
AcDbLine
 10
-159.039794
 20
99.94521699999999
 30
0.0
 11
-158.538378
 21
99.076739
 31
0.0
  0
LINE
  5
340
330
36
100
AcDbEntity
  8
0
100
AcDbLine
 10
-158.157613
 20
100.481141
 30
0.0
 11
-157.734141
 21
99.573002
 31
0.0
  0
LINE
  5
341
330
36
100
AcDbEntity
  8
0
100
AcDbLine
 10
-161.645663
 20
98.24205200000001
 30
0.0
 11
-160.579246
 21
97.175635
 31
0.0
  0
TEXT
  5
342
330
36
100
AcDbEntity
  8
0
100
AcDbText
 10
-134.059436
 20
104.985045
 30
0.0
 40
2.5
  1
電　源
 41
0.5
100
AcDbText
  0
TEXT
  5
343
330
36
100
AcDbEntity
  8
0
100
AcDbText
 10
-157.830458
 20
105.212686
 30
0.0
 40
2.5
  1
出力電圧計
 41
0.666667
100
AcDbText
  0
TEXT
  5
344
330
36
100
AcDbEntity
  8
0
100
AcDbText
 10
-139.202632
 20
27.099291
 30
0.0
 40
2.4192
  1
日動工業株式会社
 41
0.833333
100
AcDbText
  0
CIRCLE
  5
345
330
36
100
AcDbEntity
  8
0
100
AcDbCircle
 10
-141.04038
 20
28.408599
 30
0.0
 40
0.9461759999999999
  0
CIRCLE
  5
346
330
36
100
AcDbEntity
  8
0
 62
     3
100
AcDbCircle
 10
52.653569
 20
-28.989949
 30
0.0
 40
0.9599999999999999
  0
CIRCLE
  5
347
330
36
100
AcDbEntity
  8
0
 62
     3
100
AcDbCircle
 10
52.653569
 20
-41.789949
 30
0.0
 40
0.9599999999999999
  0
LINE
  5
348
330
36
100
AcDbEntity
  8
0
 62
     3
100
AcDbLine
 10
69.322108
 20
-14.799848
 30
0.0
 11
69.322108
 21
-54.716648
 31
0.0
  0
LINE
  5
36A
330
36
100
AcDbEntity
  8
0
 62
     3
100
AcDbLine
 10
69.322108
 20
-54.716648
 30
0.0
 11
140.5541077968434
 21
-54.716648
 31
0.0
  0
CIRCLE
  5
36B
330
36
100
AcDbEntity
  8
0
 62
     3
100
AcDbCircle
 10
52.653569
 20
-16.189949
 30
0.0
 40
0.9599999999999999
  0
TEXT
  5
36D
330
36
100
AcDbEntity
  8
0
 62
     3
100
AcDbText
 10
71.22290799999998
 20
-20.502248
 30
0.0
 40
3.2
  1
型　　式
  7
高3.2
100
AcDbText
  0
TEXT
  5
36E
330
36
100
AcDbEntity
  8
0
 62
     3
100
AcDbText
 10
71.22290799999998
 20
-27.155048
 30
0.0
 40
3.2
  1
入力電圧
  7
高3.2
100
AcDbText
  0
TEXT
  5
36F
330
36
100
AcDbEntity
  8
0
 62
     3
100
AcDbText
 10
71.22290799999998
 20
-33.807848
 30
0.0
 40
3.2
  1
出力電圧
  7
高3.2
100
AcDbText
  0
TEXT
  5
370
330
36
100
AcDbEntity
  8
0
 62
     3
100
AcDbText
 10
71.22290799999998
 20
-40.46064799999999
 30
0.0
 40
3.2
  1
容　　量
  7
高3.2
100
AcDbText
  0
TEXT
  5
371
330
36
100
AcDbEntity
  8
0
 62
     3
100
AcDbText
 10
71.22290799999998
 20
-47.11344799999999
 30
0.0
 40
3.2
  1
質　　量
  7
高3.2
100
AcDbText
  0
TEXT
  5
372
330
36
100
AcDbEntity
  8
0
 62
     3
100
AcDbText
 10
71.22290799999998
 20
-53.766248
 30
0.0
 40
3.2
  1
絶縁種類
  7
高3.2
100
AcDbText
  0
TEXT
  5
373
330
36
100
AcDbEntity
  8
0
 62
     3
100
AcDbText
 10
94.22520293074571
 20
-27.073351
 30
0.0
 40
3.2
  1
AC200V 50/60Hz
  7
高3.2
100
AcDbText
  0
TEXT
  5
374
330
36
100
AcDbEntity
  8
0
 62
     3
100
AcDbText
 10
94.22520293074571
 20
-33.726151
 30
0.0
 40
3.2
  1
AC100V、AC115V
  7
高3.2
100
AcDbText
  0
TEXT
  5
375
330
36
100
AcDbEntity
  8
0
 62
     3
100
AcDbText
 10
109.5173539307457
 20
-53.569549
 30
0.0
 40
3.2
  1
F種絶縁
  7
高3.2
100
AcDbText
  0
TEXT
  5
376
330
36
100
AcDbEntity
  8
0
 62
     3
100
AcDbText
 10
82.6148
 20
-79.51946600000002
 30
0.0
 40
4.5
  1
降圧トランス
  7
高4.5
100
AcDbText
  0
TEXT
  5
377
330
36
100
AcDbEntity
  8
0
 62
     3
100
AcDbText
 10
86.52133735133002
 20
-12.681917
 30
0.0
 40
4.5
  1
主　　仕　　様
  7
高4.5
100
AcDbText
  0
TEXT
  5
378
330
36
100
AcDbEntity
  8
0
 62
     4
100
AcDbText
 10
10.668001
 20
-6.987846
 30
0.0
 40
4.5
  1
入力プラグ結線
 41
0.833333
100
AcDbText
  0
TEXT
  5
379
330
36
100
AcDbEntity
  8
0
 62
     3
100
AcDbText
 10
105.6339679307457
 20
-20.501962
 30
0.0
 40
3.2
  1
F-300D
  7
高3.2
100
AcDbText
  0
TEXT
  5
37A
330
36
100
AcDbEntity
  8
0
 62
     3
100
AcDbText
 10
104.6432359307457
 20
-40.18263199999998
 30
0.0
 40
3.2
  1
3KVA　連続
  7
高3.2
100
AcDbText
  0
TEXT
  5
37B
330
36
100
AcDbEntity
  8
0
 62
     3
100
AcDbText
 10
109.5173539307457
 20
-46.91674899999997
 30
0.0
 40
3.2
  1
約14kg
  7
高3.2
100
AcDbText
  0
TEXT
  5
37C
330
36
100
AcDbEntity
  8
0
 62
     3
100
AcDbText
 10
82.564972
 20
-87.51015
 30
0.0
 40
4.5
  1
F-300D
  7
高4.5
100
AcDbText
  0
LINE
  5
39A
330
36
100
AcDbEntity
  8
0
100
AcDbLine
 10
51.693569
 20
-16.189949
 30
0.0
 11
10.107483
 21
-16.189949
 31
0.0
  0
LINE
  5
39B
330
36
100
AcDbEntity
  8
0
100
AcDbLine
 10
51.693569
 20
-41.789949
 30
0.0
 11
10.107483
 21
-41.789949
 31
0.0
  0
LINE
  5
39C
330
36
100
AcDbEntity
  8
0
100
AcDbLine
 10
10.107483
 20
-41.789949
 30
0.0
 11
10.107483
 21
-36.285949
 31
0.0
  0
LINE
  5
39D
330
36
100
AcDbEntity
  8
0
100
AcDbLine
 10
69.322108
 20
-28.105448
 30
0.0
 11
140.5541077968434
 21
-28.105448
 31
0.0
  0
LINE
  5
39E
330
36
100
AcDbEntity
  8
0
100
AcDbLine
 10
69.322108
 20
-34.758248
 30
0.0
 11
140.5541077968434
 21
-34.758248
 31
0.0
  0
LINE
  5
39F
330
36
100
AcDbEntity
  8
0
100
AcDbLine
 10
69.322108
 20
-41.41104799999999
 30
0.0
 11
140.5541077968434
 21
-41.41104799999999
 31
0.0
  0
LINE
  5
3A0
330
36
100
AcDbEntity
  8
0
100
AcDbLine
 10
69.322108
 20
-48.063848
 30
0.0
 11
140.5541077968434
 21
-48.063848
 31
0.0
  0
LINE
  5
3A1
330
36
100
AcDbEntity
  8
0
100
AcDbLine
 10
69.322108
 20
-21.452648
 30
0.0
 11
140.5541077968434
 21
-21.452648
 31
0.0
  0
LINE
  5
3A2
330
36
100
AcDbEntity
  8
0
 62
     3
100
AcDbLine
 10
69.322108
 20
-14.799848
 30
0.0
 11
140.5541077968434
 21
-14.799848
 31
0.0
  0
LINE
  5
3A3
330
36
100
AcDbEntity
  8
0
100
AcDbLine
 10
52.84994399999999
 20
-43.02273099999999
 30
0.0
 11
52.84994399999999
 21
-44.489012
 31
0.0
  0
LINE
  5
3A4
330
36
100
AcDbEntity
  8
0
100
AcDbLine
 10
49.650264
 20
-44.489012
 30
0.0
 11
56.05026399999999
 21
-44.489012
 31
0.0
  0
LINE
  5
3A5
330
36
100
AcDbEntity
  8
0
100
AcDbLine
 10
50.290264
 20
-45.129012
 30
0.0
 11
55.41026399999999
 21
-45.129012
 31
0.0
  0
LINE
  5
3A6
330
36
100
AcDbEntity
  8
0
100
AcDbLine
 10
50.930264
 20
-45.769012
 30
0.0
 11
54.770264
 21
-45.769012
 31
0.0
  0
LINE
  5
3A7
330
36
100
AcDbEntity
  8
0
100
AcDbLine
 10
51.570264
 20
-46.409012
 30
0.0
 11
54.130264
 21
-46.409012
 31
0.0
  0
TEXT
  5
3A8
330
36
100
AcDbEntity
  8
0
 62
     3
100
AcDbText
 10
77.255256
 20
-95.34665600000002
 30
0.0
 40
3.2
  1
別　掲
 41
0.833333
100
AcDbText
  0
TEXT
  5
3A9
330
36
100
AcDbEntity
  8
0
100
AcDbText
 10
29.209602
 20
-15.483331
 30
0.0
 40
3.2
  1
白線
 41
0.833333
100
AcDbText
  0
TEXT
  5
3AA
330
36
100
AcDbEntity
  8
0
100
AcDbText
 10
28.846355
 20
-28.156864
 30
0.0
 40
3.2
  1
黒線
 41
0.833333
100
AcDbText
  0
TEXT
  5
3AB
330
36
100
AcDbEntity
  8
0
100
AcDbText
 10
28.616728
 20
-40.792807
 30
0.0
 40
3.2
  1
緑線（アース）
 41
0.833333
100
AcDbText
  0
LINE
  5
3AC
330
36
100
AcDbEntity
  8
0
100
AcDbLine
 10
-101.4024169412054
 20
-112.46397
 30
0.0
 11
-101.4024169412054
 21
-52.46396999999998
 31
0.0
  0
LINE
  5
3AD
330
36
100
AcDbEntity
  8
0
100
AcDbLine
 10
-154.9923920091996
 20
-112.46397
 30
0.0
 11
-154.9923920091995
 21
-52.46396999999998
 31
0.0
  0
LINE
  5
3AE
330
36
100
AcDbEntity
  8
0
100
AcDbLine
 10
-177.9453906537159
 20
-112.46397
 30
0.0
 11
-177.9453906537158
 21
-52.46396999999998
 31
0.0
  0
LINE
  5
3AF
330
36
100
AcDbEntity
  8
0
100
AcDbLine
 10
-212.1344445
 20
-112.46397
 30
0.0
 11
-212.1344445
 21
-52.46396999999998
 31
0.0
  0
TEXT
  5
3B0
330
36
100
AcDbEntity
  8
0
 62
     3
100
AcDbText
 10
-99.90241694120545
 20
-106.96397
 30
0.0
 40
3.2
  1
1
 41
0.8
  7
高3.2
100
AcDbText
  0
TEXT
  5
3B1
330
36
100
AcDbEntity
  8
0
 62
     3
100
AcDbText
 10
-99.90241694120545
 20
-86.96396999999995
 30
0.0
 40
3.2
  1
1
 41
0.8
  7
高3.2
100
AcDbText
  0
TEXT
  5
3B3
330
36
100
AcDbEntity
  8
0
 62
     3
100
AcDbText
 10
-99.90241694120545
 20
-56.96396999999997
 30
0.0
 40
3.2
  1
1
 41
0.8
  7
高3.2
100
AcDbText
  0
TEXT
  5
3B4
330
36
100
AcDbEntity
  8
0
 62
     3
100
AcDbText
 10
-99.90241694120545
 20
-76.96396999999993
 30
0.0
 40
3.2
  1
1
 41
0.8
  7
高3.2
100
AcDbText
  0
TEXT
  5
3B5
330
36
100
AcDbEntity
  8
0
 62
     3
100
AcDbText
 10
-99.90241694120545
 20
-71.96396999999993
 30
0.0
 40
3.2
  1
1
 41
0.8
  7
高3.2
100
AcDbText
  0
TEXT
  5
3B6
330
36
100
AcDbEntity
  8
0
 62
     3
100
AcDbText
 10
-99.90241694120545
 20
-66.96396999999996
 30
0.0
 40
3.2
  1
1
 41
0.8
  7
高3.2
100
AcDbText
  0
TEXT
  5
3B7
330
36
100
AcDbEntity
  8
0
 62
     3
100
AcDbText
 10
-99.90241694120545
 20
-61.96396999999997
 30
0.0
 40
3.2
  1
1
 41
0.8
  7
高3.2
100
AcDbText
  0
TEXT
  5
3B8
330
36
100
AcDbEntity
  8
0
 62
     3
100
AcDbText
 10
-99.90241694120545
 20
-96.96396999999997
 30
0.0
 40
3.2
  1
1
 41
0.8
  7
高3.2
100
AcDbText
  0
TEXT
  5
3B9
330
36
100
AcDbEntity
  8
0
 62
     3
100
AcDbText
 10
-99.90241694120545
 20
-81.96396999999995
 30
0.0
 40
3.2
  1
5
 41
0.8
  7
高3.2
100
AcDbText
  0
TEXT
  5
3BA
330
36
100
AcDbEntity
  8
0
 62
     3
100
AcDbText
 10
-153.4923920091995
 20
-76.96396999999993
 30
0.0
 40
3.2
  1
220V/110V　15A(一次側取付)
 41
0.8
  7
高3.2
100
AcDbText
  0
TEXT
  5
3BB
330
36
100
AcDbEntity
  8
0
 62
     3
100
AcDbText
 10
-176.4453906537159
 20
-96.96396999999997
 30
0.0
 40
3.2
  1
SPCC
 41
0.8
  7
高3.2
100
AcDbText
  0
TEXT
  5
3BC
330
36
100
AcDbEntity
  8
0
 62
     3
100
AcDbText
 10
-210.6344445
 20
-106.96397
 30
0.0
 40
3.2
  1
取手
 41
0.8
  7
高3.2
100
AcDbText
  0
TEXT
  5
3BD
330
36
100
AcDbEntity
  8
0
 62
     3
100
AcDbText
 10
-210.6344445
 20
-96.96396999999997
 30
0.0
 40
3.2
  1
上カバー
 41
0.8
  7
高3.2
100
AcDbText
  0
TEXT
  5
3BE
330
36
100
AcDbEntity
  8
0
 62
     3
100
AcDbText
 10
-153.4923920091996
 20
-106.96397
 30
0.0
 40
3.2
  1
M6取付ピッチ100
 41
0.8
  7
高3.2
100
AcDbText
  0
TEXT
  5
3BF
330
36
100
AcDbEntity
  8
0
 62
     3
100
AcDbText
 10
-210.6344445
 20
-86.96396999999995
 30
0.0
 40
3.2
  1
電線
 41
0.8
  7
高3.2
100
AcDbText
  0
TEXT
  5
3C0
330
36
100
AcDbEntity
  8
0
 62
     3
100
AcDbText
 10
-176.4453906537159
 20
-86.96396999999995
 30
0.0
 40
3.2
  1
VCT
 41
0.8
  7
高3.2
100
AcDbText
  0
TEXT
  5
3C1
330
36
100
AcDbEntity
  8
0
 62
     3
100
AcDbText
 10
-210.6344445
 20
-81.96396999999995
 30
0.0
 40
3.2
  1
ゴム脚
 41
0.8
  7
高3.2
100
AcDbText
  0
TEXT
  5
3C2
330
36
100
AcDbEntity
  8
0
 62
     3
100
AcDbText
 10
-153.4923920091996
 20
-81.96396999999995
 30
0.0
 40
3.2
  1
-
 41
0.8
  7
高3.2
100
AcDbText
  0
TEXT
  5
3C3
330
36
100
AcDbEntity
  8
0
 62
     3
100
AcDbText
 10
-210.6344445
 20
-76.96396999999993
 30
0.0
 40
3.2
  1
安全ブレーカー
 41
0.8
  7
高3.2
100
AcDbText
  0
TEXT
  5
3C4
330
36
100
AcDbEntity
  8
0
 62
     3
100
AcDbText
 10
-210.6344445
 20
-71.96396999999993
 30
0.0
 40
3.2
  1
E付Wコンセント(白)
 41
0.8
  7
高3.2
100
AcDbText
  0
TEXT
  5
3C5
330
36
100
AcDbEntity
  8
0
 62
     3
100
AcDbText
 10
-210.6344445
 20
-66.96396999999996
 30
0.0
 40
3.2
  1
E付Wコンセント(黒)
 41
0.8
  7
高3.2
100
AcDbText
  0
TEXT
  5
3C8
330
36
100
AcDbEntity
  8
0
 62
     3
100
AcDbText
 10
-210.6344445
 20
-61.96396999999997
 30
0.0
 40
3.2
  1
電源ランプ
 41
0.8
  7
高3.2
100
AcDbText
  0
TEXT
  5
3C9
330
36
100
AcDbEntity
  8
0
 62
     3
100
AcDbText
 10
-153.4923920091995
 20
-61.96396999999997
 30
0.0
 40
3.2
  1
-
 41
0.8
  7
高3.2
100
AcDbText
  0
TEXT
  5
3CA
330
36
100
AcDbEntity
  8
0
 62
     3
100
AcDbText
 10
-210.6344445
 20
-56.96396999999997
 30
0.0
 40
3.2
  1
電圧計
 41
0.8
  7
高3.2
100
AcDbText
  0
TEXT
  5
3CB
330
36
100
AcDbEntity
  8
0
 62
     3
100
AcDbText
 10
-176.4453906537158
 20
-56.96396999999997
 30
0.0
 40
3.2
  1
-
 41
0.8
  7
高3.2
100
AcDbText
  0
TEXT
  5
3CC
330
36
100
AcDbEntity
  8
0
 62
     3
100
AcDbText
 10
-153.4923920091995
 20
-56.96396999999997
 30
0.0
 40
3.2
  1
AC150V計
 41
0.8
  7
高3.2
100
AcDbText
  0
TEXT
  5
3CD
330
36
100
AcDbEntity
  8
0
 62
     3
100
AcDbText
 10
-176.4453906537159
 20
-106.96397
 30
0.0
 40
3.2
  1
PA樹脂
 41
0.8
  7
高3.2
100
AcDbText
  0
TEXT
  5
3CE
330
36
100
AcDbEntity
  8
0
 62
     3
100
AcDbText
 10
-176.4453906537159
 20
-81.96396999999995
 30
0.0
 40
3.2
  1
PVC樹脂
 41
0.8
  7
高3.2
100
AcDbText
  0
TEXT
  5
3CF
330
36
100
AcDbEntity
  8
0
 62
     3
100
AcDbText
 10
-176.4453906537159
 20
-76.96396999999993
 30
0.0
 40
3.2
  1
PF樹脂
 41
0.8
  7
高3.2
100
AcDbText
  0
TEXT
  5
3D0
330
36
100
AcDbEntity
  8
0
 62
     3
100
AcDbText
 10
-176.4453906537158
 20
-61.96396999999997
 30
0.0
 40
3.2
  1
ネオン球
 41
0.8
  7
高3.2
100
AcDbText
  0
TEXT
  5
3D1
330
36
100
AcDbEntity
  8
0
 62
     3
100
AcDbText
 10
-176.4453906537158
 20
-66.96396999999996
 30
0.0
 40
3.2
  1
耐熱ABS樹脂
 41
0.8
  7
高3.2
100
AcDbText
  0
TEXT
  5
3D2
330
36
100
AcDbEntity
  8
0
 62
     3
100
AcDbText
 10
-176.4453906537158
 20
-71.96396999999993
 30
0.0
 40
3.2
  1
耐熱ABS樹脂
 41
0.8
  7
高3.2
100
AcDbText
  0
TEXT
  5
3D3
330
36
100
AcDbEntity
  8
0
 62
     3
100
AcDbText
 10
-218.113077
 20
-106.96397
 30
0.0
 40
3.2
  1
1
 41
0.8
  7
高3.2
100
AcDbText
  0
TEXT
  5
3D4
330
36
100
AcDbEntity
  8
0
 62
     3
100
AcDbText
 10
-218.113077
 20
-101.96397
 30
0.0
 40
3.2
  1
2
 41
0.8
  7
高3.2
100
AcDbText
  0
TEXT
  5
3D5
330
36
100
AcDbEntity
  8
0
 62
     3
100
AcDbText
 10
-218.113077
 20
-96.96397000000001
 30
0.0
 40
3.2
  1
3
 41
0.8
  7
高3.2
100
AcDbText
  0
TEXT
  5
3D6
330
36
100
AcDbEntity
  8
0
 62
     3
100
AcDbText
 10
-218.113077
 20
-86.96396999999995
 30
0.0
 40
3.2
  1
5
 41
0.8
  7
高3.2
100
AcDbText
  0
TEXT
  5
3D7
330
36
100
AcDbEntity
  8
0
 62
     3
100
AcDbText
 10
-218.113077
 20
-91.96396999999995
 30
0.0
 40
3.2
  1
4
 41
0.8
  7
高3.2
100
AcDbText
  0
TEXT
  5
3D8
330
36
100
AcDbEntity
  8
0
 62
     3
100
AcDbText
 10
-218.113077
 20
-81.96396999999997
 30
0.0
 40
3.2
  1
6
 41
0.8
  7
高3.2
100
AcDbText
  0
TEXT
  5
3D9
330
36
100
AcDbEntity
  8
0
 62
     3
100
AcDbText
 10
-218.113077
 20
-76.96396999999997
 30
0.0
 40
3.2
  1
7
 41
0.8
  7
高3.2
100
AcDbText
  0
TEXT
  5
3DA
330
36
100
AcDbEntity
  8
0
 62
     3
100
AcDbText
 10
-218.113077
 20
-71.96396999999997
 30
0.0
 40
3.2
  1
8
 41
0.8
  7
高3.2
100
AcDbText
  0
TEXT
  5
3DB
330
36
100
AcDbEntity
  8
0
 62
     3
100
AcDbText
 10
-218.113077
 20
-66.96397000000001
 30
0.0
 40
3.2
  1
9
 41
0.8
  7
高3.2
100
AcDbText
  0
TEXT
  5
3DC
330
36
100
AcDbEntity
  8
0
 62
     3
100
AcDbText
 10
-218.113077
 20
-61.96396999999999
 30
0.0
 40
3.2
  1
10
 41
0.8
  7
高3.2
100
AcDbText
  0
TEXT
  5
3DE
330
36
100
AcDbEntity
  8
0
 62
     3
100
AcDbText
 10
-153.4923920091995
 20
-66.96396999999996
 30
0.0
 40
3.2
  1
2PE-BK　黒　115V出力用
 41
0.8
  7
高3.2
100
AcDbText
  0
TEXT
  5
3DF
330
36
100
AcDbEntity
  8
0
 62
     3
100
AcDbText
 10
-153.4923920091995
 20
-71.96396999999993
 30
0.0
 40
3.2
  1
2PE-WK　白　100V出力用
 41
0.8
  7
高3.2
100
AcDbText
  0
TEXT
  5
3E0
330
36
100
AcDbEntity
  8
0
 62
     3
100
AcDbText
 10
-153.4923920091996
 20
-96.96396999999997
 30
0.0
 40
3.2
  1
青塗装
 41
0.8
  7
高3.2
100
AcDbText
  0
TEXT
  5
3E1
330
36
100
AcDbEntity
  8
0
 62
     3
100
AcDbText
 10
-153.4923920091996
 20
-86.96396999999995
 30
0.0
 40
3.2
  1
2.0sqx3芯x2m
 41
0.8
  7
高3.2
100
AcDbText
  0
TEXT
  5
3E2
330
36
100
AcDbEntity
  8
0
 62
     3
100
AcDbText
 10
-99.90241694120545
 20
-111.96397
 30
0.0
 40
3.2
  1
個数
 41
0.8
  7
高3.2
100
AcDbText
  0
TEXT
  5
3E3
330
36
100
AcDbEntity
  8
0
 62
     3
100
AcDbText
 10
-153.4923920091996
 20
-111.96397
 30
0.0
 40
3.2
  1
備　　　　考
 41
0.8
  7
高3.2
100
AcDbText
  0
TEXT
  5
3E4
330
36
100
AcDbEntity
  8
0
 62
     3
100
AcDbText
 10
-176.4453906537159
 20
-111.96397
 30
0.0
 40
3.2
  1
材　　　　質
 41
0.8
  7
高3.2
100
AcDbText
  0
TEXT
  5
3E5
330
36
100
AcDbEntity
  8
0
 62
     3
100
AcDbText
 10
-210.6344445
 20
-111.96397
 30
0.0
 40
3.2
  1
部　　品　　名
 41
0.8
  7
高3.2
100
AcDbText
  0
LINE
  5
3E6
330
36
100
AcDbEntity
  8
0
 62
     3
100
AcDbLine
 10
-219.613077
 20
164.53603
 30
0.0
 11
-219.613077
 21
-112.46397
 31
0.0
  0
TEXT
  5
3E7
330
36
100
AcDbEntity
  8
0
 62
     3
100
AcDbText
 10
-218.113077
 20
-111.96397
 30
0.0
 40
3.2
  1
No
 41
0.8
  7
高3.2
100
AcDbText
  0
LINE
  5
3E8
330
36
100
AcDbEntity
  8
0
 62
     3
100
AcDbLine
 10
170.286887
 20
-66.798248
 30
0.0
 11
118.687523
 21
-66.798248
 31
0.0
  0
TEXT
  5
3E9
330
36
100
AcDbEntity
  8
0
 62
     3
100
AcDbText
 10
124.06256810379
 20
-72.24216199999998
 30
0.0
 40
4.5
  1
コード
  7
高4.5
100
AcDbText
  0
LINE
  5
3EA
330
36
100
AcDbEntity
  8
0
 62
     3
100
AcDbLine
 10
144.687523
 20
-72.798248
 30
0.0
 11
144.687523
 21
-66.798248
 31
0.0
  0
LINE
  5
3EB
330
36
100
AcDbEntity
  8
0
 62
     3
100
AcDbLine
 10
118.687523
 20
-72.798248
 30
0.0
 11
118.687523
 21
-66.798248
 31
0.0
  0
TEXT
  5
3F7
330
36
100
AcDbEntity
  8
0
 62
     3
100
AcDbText
 10
149.0402093028369
 20
-72.299891
 30
0.0
 40
4.5
  1
5575
  7
高4.5
100
AcDbText
  0
LINE
  5
5F7
330
36
100
AcDbEntity
  8
0
 62
     3
100
AcDbLine
 10
-0.0379711939626774
 20
-107.46397
 30
0.0
 11
-219.613077
 21
-107.46397
 31
0.0
  0
LINE
  5
5F8
330
36
100
AcDbEntity
  8
0
100
AcDbLine
 10
-0.0379711939626778
 20
-97.46396999999998
 30
0.0
 11
-219.613077
 21
-97.46396999999998
 31
0.0
  0
LINE
  5
5F9
330
36
100
AcDbEntity
  8
0
100
AcDbLine
 10
-0.0379711939626775
 20
-92.46396999999996
 30
0.0
 11
-219.613077
 21
-92.46396999999999
 31
0.0
  0
LINE
  5
5FA
330
36
100
AcDbEntity
  8
0
100
AcDbLine
 10
-0.0379711939626772
 20
-87.46396999999996
 30
0.0
 11
-219.613077
 21
-87.46396999999996
 31
0.0
  0
LINE
  5
5FB
330
36
100
AcDbEntity
  8
0
100
AcDbLine
 10
-0.0379711939626769
 20
-82.46396999999992
 30
0.0
 11
-219.613077
 21
-82.46396999999992
 31
0.0
  0
LINE
  5
5FC
330
36
100
AcDbEntity
  8
0
100
AcDbLine
 10
-0.0379711939626766
 20
-77.46396999999993
 30
0.0
 11
-219.613077
 21
-77.46396999999993
 31
0.0
  0
LINE
  5
5FD
330
36
100
AcDbEntity
  8
0
100
AcDbLine
 10
-0.0379711939626763
 20
-72.46396999999993
 30
0.0
 11
-219.613077
 21
-72.46396999999993
 31
0.0
  0
LINE
  5
5FE
330
36
100
AcDbEntity
  8
0
100
AcDbLine
 10
-0.037971193962676
 20
-67.46396999999996
 30
0.0
 11
-219.613077
 21
-67.46396999999996
 31
0.0
  0
LINE
  5
5FF
330
36
100
AcDbEntity
  8
0
100
AcDbLine
 10
-0.0379711939626757
 20
-62.46396999999996
 30
0.0
 11
-219.613077
 21
-62.46396999999998
 31
0.0
  0
LINE
  5
600
330
36
100
AcDbEntity
  8
0
100
AcDbLine
 10
-0.0379711939626754
 20
-57.46396999999998
 30
0.0
 11
-219.613077
 21
-57.46396999999998
 31
0.0
  0
LINE
  5
601
330
36
100
AcDbEntity
  8
0
 62
     3
100
AcDbLine
 10
-0.0379711939626751
 20
-52.46396999999998
 30
0.0
 11
-219.613077
 21
-52.46396999999998
 31
0.0
  0
TEXT
  5
602
330
36
100
AcDbEntity
  8
0
 62
     3
100
AcDbText
 10
-90.91200595309018
 20
-106.96397
 30
0.0
 40
3.2
  1
54268
 41
0.8
  7
高3.2
100
AcDbText
  0
TEXT
  5
603
330
36
100
AcDbEntity
  8
0
 62
     3
100
AcDbText
 10
-90.91200595309018
 20
-111.96397
 30
0.0
 40
3.2
  1
コード
 41
0.8
  7
高3.2
100
AcDbText
  0
LINE
  5
604
330
36
100
AcDbEntity
  8
0
 62
     3
100
AcDbLine
 10
-0.0379711939626777
 20
-112.46397
 30
0.0
 11
-0.0379711939626751
 21
-52.46396999999998
 31
0.0
  0
TEXT
  5
605
330
36
100
AcDbEntity
  8
0
 62
     3
100
AcDbText
 10
-90.91200595309018
 20
-96.96396999999997
 30
0.0
 40
3.2
  1
54267
 41
0.8
  7
高3.2
100
AcDbText
  0
TEXT
  5
606
330
36
100
AcDbEntity
  8
0
 62
     3
100
AcDbText
 10
-90.91200595309018
 20
-86.96396999999995
 30
0.0
 40
3.2
  1
51322
 41
0.8
  7
高3.2
100
AcDbText
  0
TEXT
  5
607
330
36
100
AcDbEntity
  8
0
 62
     3
100
AcDbText
 10
-90.91200595309018
 20
-81.96396999999995
 30
0.0
 40
3.2
  1
53815
 41
0.8
  7
高3.2
100
AcDbText
  0
TEXT
  5
608
330
36
100
AcDbEntity
  8
0
 62
     3
100
AcDbText
 10
-90.91200595309018
 20
-76.96396999999993
 30
0.0
 40
3.2
  1
51762
 41
0.8
  7
高3.2
100
AcDbText
  0
TEXT
  5
609
330
36
100
AcDbEntity
  8
0
 62
     3
100
AcDbText
 10
-90.91200595309018
 20
-71.96396999999993
 30
0.0
 40
3.2
  1
51411
 41
0.8
  7
高3.2
100
AcDbText
  0
TEXT
  5
60A
330
36
100
AcDbEntity
  8
0
 62
     3
100
AcDbText
 10
-90.91200595309018
 20
-66.96396999999996
 30
0.0
 40
3.2
  1
51420
 41
0.8
  7
高3.2
100
AcDbText
  0
TEXT
  5
60C
330
36
100
AcDbEntity
  8
0
 62
     3
100
AcDbText
 10
-90.91200595309018
 20
-61.96396999999997
 30
0.0
 40
3.2
  1
53816
 41
0.8
  7
高3.2
100
AcDbText
  0
TEXT
  5
60D
330
36
100
AcDbEntity
  8
0
 62
     3
100
AcDbText
 10
-90.91200595309018
 20
-56.96396999999997
 30
0.0
 40
3.2
  1
53584
 41
0.8
  7
高3.2
100
AcDbText
  0
TEXT
  5
6AF
330
36
100
AcDbEntity
  8
0
 62
     3
100
AcDbText
 10
20.4058542232776
 20
-28.84170226043517
 30
0.0
 40
3.2
  1
X
  7
高3.2
100
AcDbText
  0
TEXT
  5
6B0
330
36
100
AcDbEntity
  8
0
 62
     3
100
AcDbText
 10
7.364689326521982
 20
-19.7125129736591
 30
0.0
 40
3.2
  1
Y
  7
高3.2
100
AcDbText
  0
TEXT
  5
6B1
330
36
100
AcDbEntity
  8
0
 62
     3
100
AcDbText
 10
-1.56533772614287
 20
-30.5131133476886
 30
0.0
 40
3.2
  1
Z
  7
高3.2
100
AcDbText
  0
TEXT
  5
7C7
330
36
100
AcDbEntity
  8
0
 62
     3
100
AcDbText
 10
157.886923
 20
155.03603
 30
0.0
 40
3.2
  1
担　当
  7
高3.2
100
AcDbText
  0
TEXT
  5
7C8
330
36
100
AcDbEntity
  8
0
 62
     3
100
AcDbText
 10
113.8869229999999
 20
155.03603
 30
0.0
 40
3.2
  1
変更・追記内容
  7
高3.2
100
AcDbText
  0
TEXT
  5
7C9
330
36
100
AcDbEntity
  8
0
 62
     3
100
AcDbText
 10
89.0004380003392
 20
150.3654914900917
 30
0.0
 40
2.0
  1
1
  7
高2
100
AcDbText
  0
TEXT
  5
7CA
330
36
100
AcDbEntity
  8
0
 62
     3
100
AcDbText
 10
88.69192652358192
 20
145.1956747778188
 30
0.0
 40
2.0
  1
2
  7
高2
100
AcDbText
  0
TEXT
  5
7CB
330
36
100
AcDbEntity
  8
0
 62
     3
100
AcDbText
 10
95.88692299999996
 20
155.03603
 30
0.0
 40
3.2
  1
日　付
  7
高3.2
100
AcDbText
  0
TEXT
  5
7CC
330
36
100
AcDbEntity
  8
0
 62
     3
100
AcDbText
 10
95.88692299999996
 20
160.03603
 30
0.0
 40
3.2
  1
図　　　　面　　　　略　　　　歴
  7
高3.2
100
AcDbText
  0
TEXT
  5
7CD
330
36
100
AcDbEntity
  8
0
 62
     3
100
AcDbText
 10
85.88692299999996
 20
155.03603
 30
0.0
 40
3.2
  1
記号
  7
高3.2
100
AcDbText
  0
LINE
  5
7CE
330
36
100
AcDbEntity
  8
0
100
AcDbLine
 10
89.38692299999997
 20
148.3269260000001
 30
0.0
 11
87.486923
 21
145.03603
 31
0.0
  0
LINE
  5
7CF
330
36
100
AcDbEntity
  8
0
100
AcDbLine
 10
89.38692299999997
 20
148.3269260000001
 30
0.0
 11
91.28692299999995
 21
145.03603
 31
0.0
  0
LINE
  5
7D0
330
36
100
AcDbEntity
  8
0
100
AcDbLine
 10
87.486923
 20
145.03603
 30
0.0
 11
91.28692299999995
 21
145.03603
 31
0.0
  0
LINE
  5
7D1
330
36
100
AcDbEntity
  8
0
100
AcDbLine
 10
89.38692299999997
 20
153.3269270000001
 30
0.0
 11
87.486923
 21
150.03603
 31
0.0
  0
LINE
  5
7D2
330
36
100
AcDbEntity
  8
0
100
AcDbLine
 10
89.38692299999997
 20
153.3269270000001
 30
0.0
 11
91.28692299999995
 21
150.03603
 31
0.0
  0
LINE
  5
7D3
330
36
100
AcDbEntity
  8
0
100
AcDbLine
 10
87.486923
 20
150.03603
 30
0.0
 11
91.28692299999995
 21
150.03603
 31
0.0
  0
LINE
  5
7D4
330
36
100
AcDbEntity
  8
0
 62
     3
100
AcDbLine
 10
84.38692299999997
 20
159.53603
 30
0.0
 11
170.386923
 21
159.53603
 31
0.0
  0
LINE
  5
7D5
330
36
100
AcDbEntity
  8
0
 62
     3
100
AcDbLine
 10
84.38692299999997
 20
154.53603
 30
0.0
 11
170.386923
 21
154.53603
 31
0.0
  0
LINE
  5
7D6
330
36
100
AcDbEntity
  8
0
 62
     7
100
AcDbLine
 10
84.38692299999997
 20
149.53603
 30
0.0
 11
170.386923
 21
149.53603
 31
0.0
  0
LINE
  5
7D7
330
36
100
AcDbEntity
  8
0
 62
     3
100
AcDbLine
 10
84.38692299999997
 20
144.53603
 30
0.0
 11
170.386923
 21
144.53603
 31
0.0
  0
LINE
  5
7D8
330
36
100
AcDbEntity
  8
0
 62
     7
100
AcDbLine
 10
156.3869229999998
 20
144.53603
 30
0.0
 11
156.386923
 21
159.53603
 31
0.0
  0
LINE
  5
7D9
330
36
100
AcDbEntity
  8
0
 62
     7
100
AcDbLine
 10
112.3869229999999
 20
144.53603
 30
0.0
 11
112.3869229999999
 21
159.53603
 31
0.0
  0
LINE
  5
7DA
330
36
100
AcDbEntity
  8
0
 62
     7
100
AcDbLine
 10
94.38692299999997
 20
144.53603
 30
0.0
 11
94.38692299999997
 21
159.53603
 31
0.0
  0
LINE
  5
7DB
330
36
100
AcDbEntity
  8
0
 62
     3
100
AcDbLine
 10
84.38692299999997
 20
144.53603
 30
0.0
 11
84.38692299999997
 21
164.53603
 31
0.0
  0
CIRCLE
  5
8D8
330
36
100
AcDbEntity
  8
0
100
AcDbCircle
 10
-185.295175
 20
116.5684830033173
 30
0.0
 40
5.0
  0
TEXT
  5
8D9
330
36
100
AcDbEntity
  8
0
 62
     4
100
AcDbText
 10
-187.5124822301118
 20
113.3903645611647
 30
0.0
 40
6.299999999999998
  1
4
  7
高6.3
100
AcDbText
  0
TEXT
  5
90E
330
36
100
AcDbEntity
  8
0
 62
     3
100
AcDbText
 10
-99.90241694120545
 20
-91.96397000000001
 30
0.0
 40
3.2
  1
1
 41
0.8
  7
高3.2
100
AcDbText
  0
TEXT
  5
90F
330
36
100
AcDbEntity
  8
0
 62
     3
100
AcDbText
 10
-176.4453906537159
 20
-91.96397000000001
 30
0.0
 40
3.2
  1
SPCC
 41
0.8
  7
高3.2
100
AcDbText
  0
TEXT
  5
910
330
36
100
AcDbEntity
  8
0
 62
     3
100
AcDbText
 10
-210.6344445
 20
-91.96397000000001
 30
0.0
 40
3.2
  1
フロントパネル
 41
0.8
  7
高3.2
100
AcDbText
  0
TEXT
  5
911
330
36
100
AcDbEntity
  8
0
 62
     3
100
AcDbText
 10
-153.4923920091996
 20
-91.96397000000001
 30
0.0
 40
3.2
  1
-
 41
0.8
  7
高3.2
100
AcDbText
  0
TEXT
  5
912
330
36
100
AcDbEntity
  8
0
 62
     3
100
AcDbText
 10
-90.91200595309018
 20
-91.96397000000001
 30
0.0
 40
3.2
  1
55319
 41
0.8
  7
高3.2
100
AcDbText
  0
LINE
  5
91B
330
36
100
AcDbEntity
  8
0
100
AcDbLine
 10
-77.35588839436272
 20
-112.46397
 30
0.0
 11
-77.35588839436272
 21
-52.46396999999998
 31
0.0
  0
TEXT
  5
91C
330
36
100
AcDbEntity
  8
0
 62
     3
100
AcDbText
 10
-75.85588839436272
 20
-106.96397
 30
0.0
 40
3.2
  1
F-200/300D用　取手
 41
0.6
  7
高3.2
100
AcDbText
  0
TEXT
  5
91D
330
36
100
AcDbEntity
  8
0
 62
     3
100
AcDbText
 10
-75.85588839436272
 20
-111.96397
 30
0.0
 40
3.2
  1
コード番号名称
 41
0.6
  7
高3.2
100
AcDbText
  0
TEXT
  5
91E
330
36
100
AcDbEntity
  8
0
 62
     3
100
AcDbText
 10
-75.85588839436272
 20
-96.96396999999997
 30
0.0
 40
3.2
  1
F-300D用　上カバー
 41
0.6
  7
高3.2
100
AcDbText
  0
TEXT
  5
91F
330
36
100
AcDbEntity
  8
0
 62
     3
100
AcDbText
 10
-75.85588839436272
 20
-86.96396999999995
 30
0.0
 40
3.2
  1
VCT2x3x2.5M防雨型4Pプラグ付
 41
0.6
  7
高3.2
100
AcDbText
  0
TEXT
  5
920
330
36
100
AcDbEntity
  8
0
 62
     3
100
AcDbText
 10
-75.85588839436272
 20
-81.96396999999995
 30
0.0
 40
3.2
  1
TB,FB(200,300,500),Fタイプ,NA-180DS兼用　脚ゴム(1/5)
 41
0.6
  7
高3.2
100
AcDbText
  0
TEXT
  5
921
330
36
100
AcDbEntity
  8
0
 62
     3
100
AcDbText
 10
-75.85588839436272
 20
-76.96396999999993
 30
0.0
 40
3.2
  1
B-2EA-15A　(安全ブレーカー)
 41
0.6
  7
高3.2
100
AcDbText
  0
TEXT
  5
922
330
36
100
AcDbEntity
  8
0
 62
     3
100
AcDbText
 10
-75.85588839436272
 20
-71.96396999999993
 30
0.0
 40
3.2
  1
2PE-WK(金具付コンセント白)
 41
0.6
  7
高3.2
100
AcDbText
  0
TEXT
  5
923
330
36
100
AcDbEntity
  8
0
 62
     3
100
AcDbText
 10
-75.85588839436272
 20
-66.96396999999996
 30
0.0
 40
3.2
  1
2PE-BK(金具付コンセント黒)
 41
0.6
  7
高3.2
100
AcDbText
  0
TEXT
  5
925
330
36
100
AcDbEntity
  8
0
 62
     3
100
AcDbText
 10
-75.85588839436272
 20
-61.96396999999997
 30
0.0
 40
3.2
  1
TB,FB(200,300,500)兼用　電源ランプ
 41
0.6
  7
高3.2
100
AcDbText
  0
TEXT
  5
926
330
36
100
AcDbEntity
  8
0
 62
     3
100
AcDbText
 10
-75.85588839436272
 20
-56.96396999999997
 30
0.0
 40
3.2
  1
新150V電圧メーター
 41
0.6
  7
高3.2
100
AcDbText
  0
TEXT
  5
927
330
36
100
AcDbEntity
  8
0
 62
     3
100
AcDbText
 10
-75.85588839436272
 20
-91.96397000000001
 30
0.0
 40
3.2
  1
F-300D用　フロントパネル
 41
0.6
  7
高3.2
100
AcDbText
  0
LINE
  5
B4F
330
36
100
AcDbEntity
  8
0
100
AcDbLine
 10
-0.0379711939626778
 20
-102.46397
 30
0.0
 11
-219.613077
 21
-102.46397
 31
0.0
  0
TEXT
  5
B50
330
36
100
AcDbEntity
  8
0
 62
     3
100
AcDbText
 10
-99.90241694120545
 20
-101.96397
 30
0.0
 40
3.2
  1
1
 41
0.8
  7
高3.2
100
AcDbText
  0
TEXT
  5
B51
330
36
100
AcDbEntity
  8
0
 62
     3
100
AcDbText
 10
-176.4453906537159
 20
-101.96397
 30
0.0
 40
3.2
  1
SPCC
 41
0.8
  7
高3.2
100
AcDbText
  0
TEXT
  5
B52
330
36
100
AcDbEntity
  8
0
 62
     3
100
AcDbText
 10
-210.6344445
 20
-101.96397
 30
0.0
 40
3.2
  1
シャーシ
 41
0.8
  7
高3.2
100
AcDbText
  0
TEXT
  5
B53
330
36
100
AcDbEntity
  8
0
 62
     3
100
AcDbText
 10
-153.4923920091996
 20
-101.96397
 30
0.0
 40
3.2
  1
-
 41
0.8
  7
高3.2
100
AcDbText
  0
TEXT
  5
B54
330
36
100
AcDbEntity
  8
0
 62
     3
100
AcDbText
 10
-90.91200595309018
 20
-101.96397
 30
0.0
 40
3.2
  1
56189
 41
0.8
  7
高3.2
100
AcDbText
  0
TEXT
  5
B55
330
36
100
AcDbEntity
  8
0
 62
     3
100
AcDbText
 10
-75.85588839436272
 20
-101.96397
 30
0.0
 40
3.2
  1
F-300D用　シャーシ
 41
0.6
  7
高3.2
100
AcDbText
  0
TEXT
  5
B58
330
36
100
AcDbEntity
  8
0
 62
     3
100
AcDbText
 10
-218.113077
 20
-56.96397
 30
0.0
 40
3.2
  1
11
 41
0.8
  7
高3.2
100
AcDbText
  0
CIRCLE
  5
B5A
330
36
100
AcDbEntity
  8
0
100
AcDbCircle
 10
-185.295175
 20
5.80190069966683
 30
0.0
 40
5.0
  0
TEXT
  5
B5B
330
36
100
AcDbEntity
  8
0
 62
     4
100
AcDbText
 10
-187.5124822301118
 20
2.62378125751422
 30
0.0
 40
6.299999999999998
  1
2
  7
高6.3
100
AcDbText
  0
LINE
  5
C37
330
36
100
AcDbEntity
  8
0
 62
     3
100
AcDbLine
 10
-126.153666
 20
25.950126
 30
0.0
 11
-127.153666
 21
19.950126
 31
0.0
  0
LINE
  5
C38
330
36
100
AcDbEntity
  8
0
 62
     3
100
AcDbLine
 10
-127.153666
 20
19.950126
 30
0.0
 11
-135.153666
 21
19.950126
 31
0.0
  0
LINE
  5
C39
330
36
100
AcDbEntity
  8
0
 62
     3
100
AcDbLine
 10
-136.153666
 20
25.950126
 30
0.0
 11
-135.153666
 21
19.950126
 31
0.0
  0
LINE
  5
C46
330
36
100
AcDbEntity
  8
0
 62
     3
100
AcDbLine
 10
22.08884199999999
 20
25.950126
 30
0.0
 11
21.088842
 21
19.950126
 31
0.0
  0
LINE
  5
C47
330
36
100
AcDbEntity
  8
0
 62
     3
100
AcDbLine
 10
12.08884200000001
 20
25.950126
 30
0.0
 11
13.088842
 21
19.950126
 31
0.0
  0
LINE
  5
C48
330
36
100
AcDbEntity
  8
0
 62
     3
100
AcDbLine
 10
21.088842
 20
19.950126
 30
0.0
 11
13.088842
 21
19.950126
 31
0.0
  0
TEXT
  5
C4A
330
36
100
AcDbEntity
  8
0
100
AcDbText
 10
95.88692299999996
 20
150.03603
 30
0.0
 40
2.5
  1
'20.12.17
  7
高2.5
100
AcDbText
  0
TEXT
  5
DF0
330
36
100
AcDbEntity
  8
0
100
AcDbText
 10
113.8869229999999
 20
150.03603
 30
0.0
 40
2.5
  1
脚ゴム数誤記修正4→5
  7
高2.5
100
AcDbText
  0
TEXT
  5
DF1
330
36
100
AcDbEntity
  8
0
100
AcDbText
 10
157.8869229999998
 20
150.03603
 30
0.0
 40
2.5
  1
今村
  7
高2.5
100
AcDbText
  0
CIRCLE
  5
105A
330
36
100
AcDbEntity
  8
0
100
AcDbCircle
 10
146.8841029669702
 20
42.3725736204258
 30
0.0
 40
5.0
  0
TEXT
  5
105B
330
36
100
AcDbEntity
  8
0
 62
     4
100
AcDbText
 10
144.6896412764706
 20
39.47687883031982
 30
0.0
 40
6.299999999999998
  1
5
  7
高6.3
100
AcDbText
  0
ARC
  5
105D
330
36
100
AcDbEntity
  8
0
 62
     3
100
AcDbCircle
 10
114.8390456084029
 20
83.49649159164778
 30
0.0
 40
2.0
100
AcDbArc
 50
90.0
 51
270.0
  0
ARC
  5
105E
330
36
100
AcDbEntity
  8
0
 62
     3
100
AcDbCircle
 10
141.3390456084029
 20
83.49649159164778
 30
0.0
 40
2.0
100
AcDbArc
 50
270.0
 51
90.0
  0
LINE
  5
105F
330
36
100
AcDbEntity
  8
0
 62
     3
100
AcDbLine
 10
114.8390456084029
 20
81.49649159164779
 30
0.0
 11
114.8390456084029
 21
78.99649159164778
 31
0.0
  0
LINE
  5
1060
330
36
100
AcDbEntity
  8
0
 62
     3
100
AcDbLine
 10
141.3390456084029
 20
78.99649159164778
 30
0.0
 11
141.3390456084029
 21
81.49649159164779
 31
0.0
  0
LINE
  5
1061
330
36
100
AcDbEntity
  8
0
 62
     3
100
AcDbLine
 10
114.8390456084029
 20
78.99649159164778
 30
0.0
 11
115.5890456084029
 21
77.49649159164789
 31
0.0
  0
LINE
  5
1062
330
36
100
AcDbEntity
  8
0
 62
     3
100
AcDbLine
 10
140.5890456084029
 20
77.49649159164789
 30
0.0
 11
141.3390456084029
 21
78.99649159164778
 31
0.0
  0
LINE
  5
1063
330
36
100
AcDbEntity
  8
0
 62
     3
100
AcDbLine
 10
114.8390456084029
 20
86.99649159164778
 30
0.0
 11
114.8390456084029
 21
85.49649159164777
 31
0.0
  0
LINE
  5
1064
330
36
100
AcDbEntity
  8
0
 62
     3
100
AcDbLine
 10
141.3390456084029
 20
85.49649159164777
 30
0.0
 11
141.3390456084029
 21
86.99649159164778
 31
0.0
  0
ARC
  5
1065
330
36
100
AcDbEntity
  8
0
 62
     3
100
AcDbCircle
 10
128.0890456084029
 20
73.4964915916479
 30
0.0
 40
12.50000000000002
100
AcDbArc
 50
306.6531750701011
 51
334.1582287284891
  0
ARC
  5
1066
330
36
100
AcDbEntity
  8
0
 62
     3
100
AcDbCircle
 10
128.0890456084029
 20
73.4964915916479
 30
0.0
 40
12.50000000000001
100
AcDbArc
 50
205.8417712364031
 51
233.3468249299153
  0
ARC
  5
1067
330
36
100
AcDbEntity
  8
0
 62
     3
100
AcDbCircle
 10
118.239045608403
 20
60.25913913732381
 30
0.0
 40
4.0
100
AcDbArc
 50
0.0
 51
53.34682492991525
  0
ARC
  5
1068
330
36
100
AcDbEntity
  8
0
 62
     3
100
AcDbCircle
 10
137.9390456084028
 20
60.25913913732381
 30
0.0
 40
4.0
100
AcDbArc
 50
126.6531750700847
 51
180.0
  0
ARC
  5
1069
330
36
100
AcDbEntity
  8
0
 62
     3
100
AcDbCircle
 10
123.0134851088263
 20
51.96463761038193
 30
0.0
 40
2.174439500423603
100
AcDbArc
 50
110.8643046745889
 51
244.8405244688164
  0
ARC
  5
106A
330
36
100
AcDbEntity
  8
0
 62
     3
100
AcDbCircle
 10
133.1646061079792
 20
51.96463761038193
 30
0.0
 40
2.174439500423597
100
AcDbArc
 50
295.1594755311836
 51
69.13569532541105
  0
LINE
  5
106B
330
36
100
AcDbEntity
  8
0
 62
     3
100
AcDbLine
 10
122.0890456084029
 20
49.99649159164778
 30
0.0
 11
122.0890456084029
 21
48.49649159164789
 31
0.0
  0
LINE
  5
106C
330
36
100
AcDbEntity
  8
0
 62
     3
100
AcDbLine
 10
134.0890456084029
 20
48.49649159164789
 30
0.0
 11
134.0890456084029
 21
49.99649159164778
 31
0.0
  0
LINE
  5
106D
330
36
100
AcDbEntity
  8
0
 62
     3
100
AcDbLine
 10
122.239045608403
 20
60.25913913732381
 30
0.0
 11
122.239045608403
 21
53.99649159164777
 31
0.0
  0
LINE
  5
106E
330
36
100
AcDbEntity
  8
0
 62
     3
100
AcDbLine
 10
133.9390456084028
 20
53.99649159164777
 30
0.0
 11
133.9390456084028
 21
60.25913913732381
 31
0.0
  0
LINE
  5
106F
330
36
100
AcDbEntity
  8
0
 62
     3
100
AcDbLine
 10
123.2140456084029
 20
48.49649159164789
 30
0.0
 11
123.5760113598816
 21
34.98310353643784
 31
0.0
  0
LINE
  5
1070
330
36
100
AcDbEntity
  8
0
 62
     3
100
AcDbLine
 10
132.602079856924
 20
34.98310353643784
 30
0.0
 11
132.9640456084029
 21
48.49649159164789
 31
0.0
  0
ARC
  5
1071
330
36
100
AcDbEntity
  8
0
 62
     3
100
AcDbCircle
 10
132.1022591290847
 20
34.99649159164778
 30
0.0
 40
0.5
100
AcDbArc
 50
270.0
 51
358.4656585003048
  0
ARC
  5
1072
330
36
100
AcDbEntity
  8
0
 62
     3
100
AcDbCircle
 10
124.0758320877208
 20
34.99649159164778
 30
0.0
 40
0.5
100
AcDbArc
 50
181.5343414996952
 51
270.0
  0
LINE
  5
1073
330
36
100
AcDbEntity
  8
0
 62
     3
100
AcDbLine
 10
141.3390456084029
 20
85.49649159164777
 30
0.0
 11
114.8390456084029
 21
85.49649159164777
 31
0.0
  0
LINE
  5
1074
330
36
100
AcDbEntity
  8
0
 62
     3
100
AcDbLine
 10
114.8390456084029
 20
81.49649159164779
 30
0.0
 11
141.3390456084029
 21
81.49649159164779
 31
0.0
  0
LINE
  5
1075
330
36
100
AcDbEntity
  8
0
 62
     3
100
AcDbLine
 10
114.8390456084029
 20
78.99649159164778
 30
0.0
 11
141.3390456084029
 21
78.99649159164778
 31
0.0
  0
LINE
  5
1076
330
36
100
AcDbEntity
  8
0
 62
     3
100
AcDbLine
 10
115.5890456084029
 20
77.49649159164789
 30
0.0
 11
140.5890456084029
 21
77.49649159164789
 31
0.0
  0
LINE
  5
1077
330
36
100
AcDbEntity
  8
0
 62
     3
100
AcDbLine
 10
141.3390456084029
 20
86.99649159164778
 30
0.0
 11
114.8390456084029
 21
86.99649159164778
 31
0.0
  0
LINE
  5
1078
330
36
100
AcDbEntity
  8
0
 62
     3
100
AcDbLine
 10
122.239045608403
 20
53.99649159164777
 30
0.0
 11
133.9390456084025
 21
53.99649159164777
 31
0.0
  0
LINE
  5
1079
330
36
100
AcDbEntity
  8
0
 62
     3
100
AcDbLine
 10
122.0890456084029
 20
49.99649159164778
 30
0.0
 11
134.0890456084026
 21
49.99649159164771
 31
0.0
  0
LINE
  5
107A
330
36
100
AcDbEntity
  8
0
 62
     3
100
AcDbLine
 10
128.5890456084029
 20
97.49649159164778
 30
0.0
 11
128.4390456084028
 21
98.49649159164778
 31
0.0
  0
LINE
  5
107B
330
36
100
AcDbEntity
  8
0
 62
     3
100
AcDbLine
 10
127.739045608403
 20
98.49649159164778
 30
0.0
 11
127.5890456084029
 21
97.49649159164778
 31
0.0
  0
LINE
  5
107C
330
36
100
AcDbEntity
  8
0
 62
     3
100
AcDbLine
 10
127.739045608403
 20
98.49649159164778
 30
0.0
 11
128.4390456084028
 21
98.49649159164778
 31
0.0
  0
LINE
  5
107D
330
36
100
AcDbEntity
  8
0
 62
     3
100
AcDbLine
 10
127.5890456084029
 20
86.99649159164778
 30
0.0
 11
127.5890456084029
 21
97.49649159164778
 31
0.0
  0
LINE
  5
107E
330
36
100
AcDbEntity
  8
0
 62
     3
100
AcDbLine
 10
128.5890456084029
 20
97.49649159164778
 30
0.0
 11
128.5890456084029
 21
86.99649159164778
 31
0.0
  0
LINE
  5
107F
330
36
100
AcDbEntity
  8
0
 62
     3
100
AcDbLine
 10
122.0890456084029
 20
48.49649159164789
 30
0.0
 11
134.0890456084029
 21
48.49649159164789
 31
0.0
  0
LINE
  5
1080
330
36
100
AcDbEntity
  8
0
 62
     3
100
AcDbLine
 10
127.3390456084029
 20
39.19649159164782
 30
0.0
 11
123.5243567114718
 21
39.19649159164782
 31
0.0
  0
LINE
  5
1081
330
36
100
AcDbEntity
  8
0
 62
     3
100
AcDbLine
 10
123.5677939721389
 20
37.5964915916478
 30
0.0
 11
123.5243567114718
 21
39.19649159164782
 31
0.0
  0
LINE
  5
1082
330
36
100
AcDbEntity
  8
0
 62
     3
100
AcDbLine
 10
123.5677939721389
 20
37.5964915916478
 30
0.0
 11
127.3390456084029
 21
37.59649159164791
 31
0.0
  0
LINE
  5
1083
330
36
100
AcDbEntity
  8
0
 62
     3
100
AcDbLine
 10
127.3390456084029
 20
37.59649159164791
 30
0.0
 11
127.3390456084029
 21
39.19649159164782
 31
0.0
  0
LINE
  5
1084
330
36
100
AcDbEntity
  8
0
 62
     3
100
AcDbLine
 10
128.8390456084029
 20
40.69649159164781
 30
0.0
 11
132.6944470650113
 21
40.69649159164781
 31
0.0
  0
LINE
  5
1085
330
36
100
AcDbEntity
  8
0
 62
     3
100
AcDbLine
 10
132.7378635539474
 20
42.29649159164784
 30
0.0
 11
132.6944470650113
 21
40.69649159164781
 31
0.0
  0
LINE
  5
1086
330
36
100
AcDbEntity
  8
0
 62
     3
100
AcDbLine
 10
132.7378635539474
 20
42.29649159164784
 30
0.0
 11
128.8390456084029
 21
42.29649159164784
 31
0.0
  0
LINE
  5
1087
330
36
100
AcDbEntity
  8
0
 62
     3
100
AcDbLine
 10
128.8390456084029
 20
42.29649159164784
 30
0.0
 11
128.8390456084029
 21
40.69649159164781
 31
0.0
  0
LINE
  5
1088
330
36
100
AcDbEntity
  8
0
 62
     3
100
AcDbLine
 10
128.8390456084029
 20
37.59649159164791
 30
0.0
 11
132.6102972446666
 21
37.5964915916478
 31
0.0
  0
LINE
  5
1089
330
36
100
AcDbEntity
  8
0
 62
     3
100
AcDbLine
 10
132.6537345053337
 20
39.19649159164782
 30
0.0
 11
132.6102972446666
 21
37.5964915916478
 31
0.0
  0
LINE
  5
108A
330
36
100
AcDbEntity
  8
0
 62
     3
100
AcDbLine
 10
132.6537345053337
 20
39.19649159164782
 30
0.0
 11
128.8390456084029
 21
39.19649159164782
 31
0.0
  0
LINE
  5
108B
330
36
100
AcDbEntity
  8
0
 62
     3
100
AcDbLine
 10
128.8390456084029
 20
39.19649159164782
 30
0.0
 11
128.8390456084029
 21
37.59649159164791
 31
0.0
  0
LINE
  5
108C
330
36
100
AcDbEntity
  8
0
 62
     3
100
AcDbLine
 10
128.8390456084029
 20
48.49649159164789
 30
0.0
 11
128.8390456084029
 21
46.89649159164786
 31
0.0
  0
LINE
  5
108D
330
36
100
AcDbEntity
  8
0
 62
     3
100
AcDbLine
 10
128.8390456084029
 20
46.89649159164786
 30
0.0
 11
132.8626296489154
 21
46.89649159164786
 31
0.0
  0
LINE
  5
108E
330
36
100
AcDbEntity
  8
0
 62
     3
100
AcDbLine
 10
132.8626296489154
 20
46.89649159164786
 30
0.0
 11
132.9060078254023
 21
48.49649159164789
 31
0.0
  0
LINE
  5
108F
330
36
100
AcDbEntity
  8
0
 62
     3
100
AcDbLine
 10
123.3154615678903
 20
46.89649159164786
 30
0.0
 11
123.2720833914035
 21
48.49649159164789
 31
0.0
  0
LINE
  5
1090
330
36
100
AcDbEntity
  8
0
 62
     3
100
AcDbLine
 10
123.3154615678903
 20
46.89649159164786
 30
0.0
 11
127.3390456084029
 21
46.89649159164786
 31
0.0
  0
LINE
  5
1091
330
36
100
AcDbEntity
  8
0
 62
     3
100
AcDbLine
 10
127.3390456084029
 20
46.89649159164786
 30
0.0
 11
127.3390456084029
 21
48.49649159164789
 31
0.0
  0
LINE
  5
1092
330
36
100
AcDbEntity
  8
0
 62
     3
100
AcDbLine
 10
127.3390456084029
 20
43.79649159164784
 30
0.0
 11
127.3390456084029
 21
45.39649159164786
 31
0.0
  0
LINE
  5
1093
330
36
100
AcDbEntity
  8
0
 62
     3
100
AcDbLine
 10
127.3390456084029
 20
45.39649159164786
 30
0.0
 11
123.3561372302951
 21
45.39649159164786
 31
0.0
  0
LINE
  5
1094
330
36
100
AcDbEntity
  8
0
 62
     3
100
AcDbLine
 10
123.3995340502193
 20
43.79649159164784
 30
0.0
 11
123.3561372302951
 21
45.39649159164786
 31
0.0
  0
LINE
  5
1095
330
36
100
AcDbEntity
  8
0
 62
     3
100
AcDbLine
 10
123.3995340502193
 20
43.79649159164784
 30
0.0
 11
127.3390456084029
 21
43.79649159164784
 31
0.0
  0
LINE
  5
1096
330
36
100
AcDbEntity
  8
0
 62
     3
100
AcDbLine
 10
128.8390456084029
 20
43.79649159164784
 30
0.0
 11
132.7785571665862
 21
43.79649159164784
 31
0.0
  0
LINE
  5
1097
330
36
100
AcDbEntity
  8
0
 62
     3
100
AcDbLine
 10
132.8219539865105
 20
45.39649159164786
 30
0.0
 11
132.7785571665862
 21
43.79649159164784
 31
0.0
  0
LINE
  5
1098
330
36
100
AcDbEntity
  8
0
 62
     3
100
AcDbLine
 10
132.8219539865105
 20
45.39649159164786
 30
0.0
 11
128.8390456084029
 21
45.39649159164786
 31
0.0
  0
LINE
  5
1099
330
36
100
AcDbEntity
  8
0
 62
     3
100
AcDbLine
 10
128.8390456084029
 20
45.39649159164786
 30
0.0
 11
128.8390456084029
 21
43.79649159164784
 31
0.0
  0
LINE
  5
109A
330
36
100
AcDbEntity
  8
0
 62
     3
100
AcDbLine
 10
127.3390456084029
 20
42.29649159164784
 30
0.0
 11
123.4402276628583
 21
42.29649159164784
 31
0.0
  0
LINE
  5
109B
330
36
100
AcDbEntity
  8
0
 62
     3
100
AcDbLine
 10
123.4836441517944
 20
40.69649159164781
 30
0.0
 11
123.4402276628583
 21
42.29649159164784
 31
0.0
  0
LINE
  5
109C
330
36
100
AcDbEntity
  8
0
 62
     3
100
AcDbLine
 10
123.4836441517944
 20
40.69649159164781
 30
0.0
 11
127.3390456084029
 21
40.69649159164781
 31
0.0
  0
LINE
  5
109D
330
36
100
AcDbEntity
  8
0
 62
     3
100
AcDbLine
 10
127.3390456084029
 20
40.69649159164781
 30
0.0
 11
127.3390456084029
 21
42.29649159164784
 31
0.0
  0
LINE
  5
109E
330
36
100
AcDbEntity
  8
0
 62
     3
100
AcDbLine
 10
132.1022591290847
 20
34.49649159164778
 30
0.0
 11
124.0758320877208
 21
34.49649159164778
 31
0.0
  0
LINE
  5
109F
330
36
100
AcDbEntity
  8
0
 62
     3
100
AcDbLine
 10
125.2359770848656
 20
39.19649159164782
 30
0.0
 11
125.2359770848656
 21
37.5964915916478
 31
0.0
  0
LINE
  5
10A0
330
36
100
AcDbEntity
  8
0
 62
     3
100
AcDbLine
 10
130.9421141319402
 20
40.69649159164781
 30
0.0
 11
130.9421141319402
 21
42.29649159164784
 31
0.0
  0
LINE
  5
10A1
330
36
100
AcDbEntity
  8
0
 62
     3
100
AcDbLine
 10
130.9421141319402
 20
37.5964915916478
 30
0.0
 11
130.9421141319402
 21
39.19649159164782
 31
0.0
  0
LINE
  5
10A2
330
36
100
AcDbEntity
  8
0
 62
     3
100
AcDbLine
 10
125.2359770848656
 20
48.49649159164789
 30
0.0
 11
125.2359770848656
 21
46.89649159164786
 31
0.0
  0
LINE
  5
10A3
330
36
100
AcDbEntity
  8
0
 62
     3
100
AcDbLine
 10
125.2359770848656
 20
45.39649159164786
 30
0.0
 11
125.2359770848656
 21
43.79649159164784
 31
0.0
  0
LINE
  5
10A4
330
36
100
AcDbEntity
  8
0
 62
     3
100
AcDbLine
 10
130.9421141319402
 20
43.79649159164784
 30
0.0
 11
130.9421141319402
 21
45.39649159164786
 31
0.0
  0
LINE
  5
10A5
330
36
100
AcDbEntity
  8
0
 62
     3
100
AcDbLine
 10
125.2359770848656
 20
42.29649159164784
 30
0.0
 11
125.2359770848656
 21
40.69649159164781
 31
0.0
  0
LINE
  5
10A6
330
36
100
AcDbEntity
  8
0
 62
     3
100
AcDbLine
 10
130.9421141319402
 20
48.49649159164789
 30
0.0
 11
130.9421141319402
 21
46.89649159164786
 31
0.0
  0
LINE
  5
10A7
330
36
100
AcDbEntity
  8
0
 62
     3
100
AcDbLine
 10
132.739045608403
 20
95.49649159164777
 30
0.0
 11
132.739045608403
 21
87.04649159164773
 31
0.0
  0
LINE
  5
10A8
330
36
100
AcDbEntity
  8
0
 62
     3
100
AcDbLine
 10
133.739045608403
 20
95.49649159164777
 30
0.0
 11
132.739045608403
 21
95.49649159164777
 31
0.0
  0
LINE
  5
10A9
330
36
100
AcDbEntity
  8
0
 62
     3
100
AcDbLine
 10
133.739045608403
 20
95.49649159164777
 30
0.0
 11
133.739045608403
 21
86.9964915916479
 31
0.0
  0
LINE
  5
10AA
330
36
100
AcDbEntity
  8
0
 62
     3
100
AcDbLine
 10
133.739045608403
 20
95.99649159164778
 30
0.0
 11
133.5890456084029
 21
96.99649159164778
 31
0.0
  0
LINE
  5
10AB
330
36
100
AcDbEntity
  8
0
 62
     3
100
AcDbLine
 10
132.8890456084028
 20
96.99649159164778
 30
0.0
 11
132.739045608403
 21
95.99649159164778
 31
0.0
  0
LINE
  5
10AC
330
36
100
AcDbEntity
  8
0
 62
     3
100
AcDbLine
 10
132.8890456084028
 20
96.99649159164778
 30
0.0
 11
133.5890456084029
 21
96.99649159164778
 31
0.0
  0
LINE
  5
10AD
330
36
100
AcDbEntity
  8
0
 62
     3
100
AcDbLine
 10
132.739045608403
 20
95.49649159164777
 30
0.0
 11
132.739045608403
 21
95.99649159164778
 31
0.0
  0
LINE
  5
10AE
330
36
100
AcDbEntity
  8
0
 62
     3
100
AcDbLine
 10
133.739045608403
 20
95.99649159164778
 30
0.0
 11
133.739045608403
 21
95.49649159164777
 31
0.0
  0
LINE
  5
10AF
330
36
100
AcDbEntity
  8
0
 62
     3
100
AcDbLine
 10
122.4390456084028
 20
95.49649159164777
 30
0.0
 11
122.4390456084028
 21
86.9964915916479
 31
0.0
  0
LINE
  5
10B0
330
36
100
AcDbEntity
  8
0
 62
     3
100
AcDbLine
 10
123.4390456084028
 20
95.49649159164777
 30
0.0
 11
122.4390456084028
 21
95.49649159164777
 31
0.0
  0
LINE
  5
10B1
330
36
100
AcDbEntity
  8
0
 62
     3
100
AcDbLine
 10
123.4390456084028
 20
95.49649159164777
 30
0.0
 11
123.4390456084028
 21
87.04649159164773
 31
0.0
  0
LINE
  5
10B2
330
36
100
AcDbEntity
  8
0
 62
     3
100
AcDbLine
 10
123.4390456084028
 20
95.99649159164778
 30
0.0
 11
123.2890456084027
 21
96.99649159164778
 31
0.0
  0
LINE
  5
10B3
330
36
100
AcDbEntity
  8
0
 62
     3
100
AcDbLine
 10
122.5890456084029
 20
96.99649159164778
 30
0.0
 11
122.4390456084028
 21
95.99649159164778
 31
0.0
  0
LINE
  5
10B4
330
36
100
AcDbEntity
  8
0
 62
     3
100
AcDbLine
 10
122.5890456084029
 20
96.99649159164778
 30
0.0
 11
123.2890456084027
 21
96.99649159164778
 31
0.0
  0
LINE
  5
10B5
330
36
100
AcDbEntity
  8
0
 62
     3
100
AcDbLine
 10
122.4390456084028
 20
95.49649159164777
 30
0.0
 11
122.4390456084028
 21
95.99649159164778
 31
0.0
  0
LINE
  5
10B6
330
36
100
AcDbEntity
  8
0
 62
     3
100
AcDbLine
 10
123.4390456084028
 20
95.99649159164778
 30
0.0
 11
123.4390456084028
 21
95.49649159164777
 31
0.0
  0
LINE
  5
10B7
330
36
100
AcDbEntity
  8
0
 62
     3
100
AcDbLine
 10
130.0890456084029
 20
95.49649159164777
 30
0.0
 11
130.0890456084029
 21
87.04649159164796
 31
0.0
  0
LINE
  5
10B8
330
36
100
AcDbEntity
  8
0
 62
     3
100
AcDbLine
 10
126.0890456084029
 20
95.49649159164777
 30
0.0
 11
126.0890456084029
 21
87.04649159164796
 31
0.0
  0
LINE
  5
10B9
330
36
100
AcDbEntity
  8
0
 62
     3
100
AcDbLine
 10
126.3390456084029
 20
95.99649159164778
 30
0.0
 11
126.0890456084029
 21
95.49649159164777
 31
0.0
  0
LINE
  5
10BA
330
36
100
AcDbEntity
  8
0
 62
     3
100
AcDbLine
 10
129.8390456084029
 20
95.99649159164778
 30
0.0
 11
128.5890456084029
 21
95.99649159164778
 31
0.0
  0
LINE
  5
10BB
330
36
100
AcDbEntity
  8
0
 62
     3
100
AcDbLine
 10
127.5890456084029
 20
95.99649159164778
 30
0.0
 11
126.3390456084029
 21
95.99649159164778
 31
0.0
  0
LINE
  5
10BC
330
36
100
AcDbEntity
  8
0
 62
     3
100
AcDbLine
 10
130.0890456084029
 20
95.49649159164777
 30
0.0
 11
129.8390456084029
 21
95.99649159164778
 31
0.0
  0
LINE
  5
10BD
330
36
100
AcDbEntity
  8
0
 62
     3
100
AcDbLine
 10
126.8390456084029
 20
96.99649159164778
 30
0.0
 11
127.5890456084029
 21
96.99649159164778
 31
0.0
  0
LINE
  5
10BE
330
36
100
AcDbEntity
  8
0
 62
     3
100
AcDbLine
 10
128.5890456084029
 20
96.99649159164778
 30
0.0
 11
129.3390456084029
 21
96.99649159164778
 31
0.0
  0
LINE
  5
10BF
330
36
100
AcDbEntity
  8
0
 62
     3
100
AcDbLine
 10
126.3390456084029
 20
95.99649159164778
 30
0.0
 11
126.8390456084029
 21
96.99649159164778
 31
0.0
  0
LINE
  5
10C0
330
36
100
AcDbEntity
  8
0
 62
     3
100
AcDbLine
 10
129.3390456084029
 20
96.99649159164778
 30
0.0
 11
129.8390456084029
 21
95.99649159164778
 31
0.0
  0
LINE
  5
10C1
330
36
100
AcDbEntity
  8
0
 62
     3
100
AcDbLine
 10
116.8390302478307
 20
68.04789962794908
 30
0.0
 11
116.8390302478307
 21
77.49649159164789
 31
0.0
  0
LINE
  5
10C2
330
36
100
AcDbEntity
  8
0
 62
     3
100
AcDbLine
 10
139.3390609656363
 20
68.0478996210563
 30
0.0
 11
139.3390609656368
 21
77.49649159164789
 31
0.0
  0
LINE
  5
10C3
330
36
100
AcDbEntity
  8
0
 62
     7
100
AcDbLine
 10
133.7390456084027
 20
113.7412200621753
 30
0.0
 11
132.7390456084027
 21
113.7412200621753
 31
0.0
  0
LINE
  5
10C4
330
36
100
AcDbEntity
  8
0
 62
     7
100
AcDbLine
 10
133.5890456084038
 20
113.8912200621753
 30
0.0
 11
132.8890456084037
 21
113.8912200621753
 31
0.0
  0
LINE
  5
10C5
330
36
100
AcDbEntity
  8
0
 62
     7
100
AcDbLine
 10
123.4390456084028
 20
113.7412200621753
 30
0.0
 11
122.4390456084028
 21
113.7412200621753
 31
0.0
  0
LINE
  5
10C6
330
36
100
AcDbEntity
  8
0
 62
     7
100
AcDbLine
 10
123.2890456084027
 20
113.8912200621753
 30
0.0
 11
122.5890456084029
 21
113.8912200621753
 31
0.0
  0
LINE
  5
10C7
330
36
100
AcDbEntity
  8
0
 62
     7
100
AcDbLine
 10
133.7390456084027
 20
117.7412200621753
 30
0.0
 11
132.7390456084027
 21
117.7412200621753
 31
0.0
  0
LINE
  5
10C8
330
36
100
AcDbEntity
  8
0
 62
     7
100
AcDbLine
 10
133.5890456084038
 20
117.5912200621753
 30
0.0
 11
132.8890456084037
 21
117.5912200621753
 31
0.0
  0
LINE
  5
10C9
330
36
100
AcDbEntity
  8
0
 62
     7
100
AcDbLine
 10
123.4390456084028
 20
117.7412200621753
 30
0.0
 11
122.4390456084028
 21
117.7412200621753
 31
0.0
  0
LINE
  5
10CA
330
36
100
AcDbEntity
  8
0
 62
     7
100
AcDbLine
 10
123.2890456084027
 20
117.5912200621753
 30
0.0
 11
122.5890456084029
 21
117.5912200621753
 31
0.0
  0
LINE
  5
10CB
330
36
100
AcDbEntity
  8
0
 62
     7
100
AcDbLine
 10
130.0890456084029
 20
120.3912200621753
 30
0.0
 11
126.0890456084029
 21
120.3912200621753
 31
0.0
  0
LINE
  5
10CC
330
36
100
AcDbEntity
  8
0
 62
     7
100
AcDbLine
 10
129.9390456084028
 20
120.5412200621752
 30
0.0
 11
126.2390456084027
 21
120.5412200621752
 31
0.0
  0
LINE
  5
10CD
330
36
100
AcDbEntity
  8
0
 62
     7
100
AcDbLine
 10
130.0890456084029
 20
121.3912200621753
 30
0.0
 11
126.0890456084029
 21
121.3912200621753
 31
0.0
  0
LINE
  5
10CE
330
36
100
AcDbEntity
  8
0
 62
     7
100
AcDbLine
 10
129.9390456084028
 20
121.2412200621753
 30
0.0
 11
126.2390456084027
 21
121.2412200621753
 31
0.0
  0
LINE
  5
10CF
330
36
100
AcDbEntity
  8
0
 62
     7
100
AcDbLine
 10
128.5890456084029
 20
108.9912200621752
 30
0.0
 11
127.5890456084029
 21
108.9912200621752
 31
0.0
  0
LINE
  5
10D0
330
36
100
AcDbEntity
  8
0
 62
     7
100
AcDbLine
 10
128.4390456084028
 20
109.1412200621753
 30
0.0
 11
127.7390456084027
 21
109.1412200621753
 31
0.0
  0
LINE
  5
10D1
330
36
100
AcDbEntity
  8
0
 62
     7
100
AcDbLine
 10
128.5890456084029
 20
112.9912200621753
 30
0.0
 11
127.5890456084029
 21
112.9912200621753
 31
0.0
  0
LINE
  5
10D2
330
36
100
AcDbEntity
  8
0
 62
     7
100
AcDbLine
 10
128.4390456084028
 20
112.8412200621752
 30
0.0
 11
127.7390456084027
 21
112.8412200621752
 31
0.0
  0
LINE
  5
10D3
330
36
100
AcDbEntity
  8
0
 62
     7
100
AcDbLine
 10
126.0890456084029
 20
120.3912200621753
 30
0.0
 11
126.0890456084029
 21
121.3912200621753
 31
0.0
  0
LINE
  5
10D4
330
36
100
AcDbEntity
  8
0
 62
     7
100
AcDbLine
 10
126.2390456084027
 20
120.5412200621752
 30
0.0
 11
126.2390456084027
 21
121.2412200621753
 31
0.0
  0
LINE
  5
10D5
330
36
100
AcDbEntity
  8
0
 62
     7
100
AcDbLine
 10
130.0890456084029
 20
120.3912200621753
 30
0.0
 11
130.0890456084029
 21
121.3912200621753
 31
0.0
  0
LINE
  5
10D6
330
36
100
AcDbEntity
  8
0
 62
     7
100
AcDbLine
 10
129.9390456084028
 20
120.5412200621752
 30
0.0
 11
129.9390456084028
 21
121.2412200621753
 31
0.0
  0
LINE
  5
10D7
330
36
100
AcDbEntity
  8
0
 62
     7
100
AcDbLine
 10
127.5890456084029
 20
108.9912200621752
 30
0.0
 11
127.5890456084029
 21
112.9912200621753
 31
0.0
  0
LINE
  5
10D8
330
36
100
AcDbEntity
  8
0
 62
     7
100
AcDbLine
 10
127.7390456084027
 20
109.1412200621753
 30
0.0
 11
127.7390456084027
 21
112.8412200621752
 31
0.0
  0
LINE
  5
10D9
330
36
100
AcDbEntity
  8
0
 62
     7
100
AcDbLine
 10
128.5890456084029
 20
108.9912200621752
 30
0.0
 11
128.5890456084029
 21
112.9912200621753
 31
0.0
  0
LINE
  5
10DA
330
36
100
AcDbEntity
  8
0
 62
     7
100
AcDbLine
 10
128.4390456084028
 20
109.1412200621753
 30
0.0
 11
128.4390456084028
 21
112.8412200621752
 31
0.0
  0
LINE
  5
10DB
330
36
100
AcDbEntity
  8
0
 62
     7
100
AcDbLine
 10
122.4390456084028
 20
113.7412200621753
 30
0.0
 11
122.4390456084028
 21
117.7412200621753
 31
0.0
  0
LINE
  5
10DC
330
36
100
AcDbEntity
  8
0
 62
     7
100
AcDbLine
 10
122.5890456084029
 20
113.8912200621753
 30
0.0
 11
122.5890456084029
 21
117.5912200621753
 31
0.0
  0
LINE
  5
10DD
330
36
100
AcDbEntity
  8
0
 62
     7
100
AcDbLine
 10
123.4390456084028
 20
113.7412200621753
 30
0.0
 11
123.4390456084028
 21
117.7412200621753
 31
0.0
  0
LINE
  5
10DE
330
36
100
AcDbEntity
  8
0
 62
     7
100
AcDbLine
 10
123.2890456084027
 20
113.8912200621753
 30
0.0
 11
123.2890456084027
 21
117.5912200621753
 31
0.0
  0
LINE
  5
10DF
330
36
100
AcDbEntity
  8
0
 62
     7
100
AcDbLine
 10
132.7390456084027
 20
113.7412200621753
 30
0.0
 11
132.7390456084027
 21
117.7412200621753
 31
0.0
  0
LINE
  5
10E0
330
36
100
AcDbEntity
  8
0
 62
     7
100
AcDbLine
 10
132.8890456084037
 20
113.8912200621753
 30
0.0
 11
132.8890456084037
 21
117.5912200621753
 31
0.0
  0
LINE
  5
10E1
330
36
100
AcDbEntity
  8
0
 62
     7
100
AcDbLine
 10
133.7390456084027
 20
113.7412200621753
 30
0.0
 11
133.7390456084027
 21
117.7412200621753
 31
0.0
  0
LINE
  5
10E2
330
36
100
AcDbEntity
  8
0
 62
     7
100
AcDbLine
 10
133.5890456084038
 20
113.8912200621753
 30
0.0
 11
133.5890456084029
 21
117.5912200621753
 31
0.0
  0
LINE
  5
10E3
330
36
100
AcDbEntity
  8
0
 62
     7
100
AcDbLine
 10
123.2890456084027
 20
117.5912200621753
 30
0.0
 11
123.4390456084028
 21
117.7412200621753
 31
0.0
  0
LINE
  5
10E4
330
36
100
AcDbEntity
  8
0
 62
     7
100
AcDbLine
 10
122.5890456084029
 20
117.5912200621753
 30
0.0
 11
122.4390456084028
 21
117.7412200621753
 31
0.0
  0
LINE
  5
10E5
330
36
100
AcDbEntity
  8
0
 62
     7
100
AcDbLine
 10
122.5890456084029
 20
113.8912200621753
 30
0.0
 11
122.4390456084028
 21
113.7412200621753
 31
0.0
  0
LINE
  5
10E6
330
36
100
AcDbEntity
  8
0
 62
     7
100
AcDbLine
 10
123.2890456084027
 20
113.8912200621753
 30
0.0
 11
123.4390456084028
 21
113.7412200621753
 31
0.0
  0
LINE
  5
10E7
330
36
100
AcDbEntity
  8
0
 62
     7
100
AcDbLine
 10
127.7390456084027
 20
112.8412200621752
 30
0.0
 11
127.5890456084029
 21
112.9912200621753
 31
0.0
  0
LINE
  5
10E8
330
36
100
AcDbEntity
  8
0
 62
     7
100
AcDbLine
 10
128.4390456084028
 20
112.8412200621752
 30
0.0
 11
128.5890456084029
 21
112.9912200621753
 31
0.0
  0
LINE
  5
10E9
330
36
100
AcDbEntity
  8
0
 62
     7
100
AcDbLine
 10
127.7390456084027
 20
109.1412200621753
 30
0.0
 11
127.5890456084029
 21
108.9912200621752
 31
0.0
  0
LINE
  5
10EA
330
36
100
AcDbEntity
  8
0
 62
     7
100
AcDbLine
 10
128.4390456084028
 20
109.1412200621753
 30
0.0
 11
128.5890456084029
 21
108.9912200621752
 31
0.0
  0
LINE
  5
10EB
330
36
100
AcDbEntity
  8
0
 62
     7
100
AcDbLine
 10
132.8890456084037
 20
113.8912200621753
 30
0.0
 11
132.7390456084027
 21
113.7412200621753
 31
0.0
  0
LINE
  5
10EC
330
36
100
AcDbEntity
  8
0
 62
     7
100
AcDbLine
 10
133.5890456084038
 20
113.8912200621753
 30
0.0
 11
133.7390456084027
 21
113.7412200621753
 31
0.0
  0
LINE
  5
10ED
330
36
100
AcDbEntity
  8
0
 62
     7
100
AcDbLine
 10
133.5890456084038
 20
117.5912200621753
 30
0.0
 11
133.7390456084027
 21
117.7412200621753
 31
0.0
  0
LINE
  5
10EE
330
36
100
AcDbEntity
  8
0
 62
     7
100
AcDbLine
 10
132.8890456084037
 20
117.5912200621753
 30
0.0
 11
132.7390456084027
 21
117.7412200621753
 31
0.0
  0
LINE
  5
10EF
330
36
100
AcDbEntity
  8
0
 62
     7
100
AcDbLine
 10
129.9390456084028
 20
121.2412200621753
 30
0.0
 11
130.0890456084029
 21
121.3912200621753
 31
0.0
  0
LINE
  5
10F0
330
36
100
AcDbEntity
  8
0
 62
     7
100
AcDbLine
 10
129.9390456084028
 20
120.5412200621752
 30
0.0
 11
130.0890456084029
 21
120.3912200621753
 31
0.0
  0
LINE
  5
10F1
330
36
100
AcDbEntity
  8
0
 62
     7
100
AcDbLine
 10
126.2390456084027
 20
121.2412200621753
 30
0.0
 11
126.0890456084029
 21
121.3912200621753
 31
0.0
  0
LINE
  5
10F2
330
36
100
AcDbEntity
  8
0
 62
     7
100
AcDbLine
 10
126.2390456084027
 20
120.5412200621752
 30
0.0
 11
126.0890456084029
 21
120.3912200621753
 31
0.0
  0
CIRCLE
  5
10F3
330
36
100
AcDbEntity
  8
0
 62
     3
100
AcDbCircle
 10
128.0890456084029
 20
115.7412200621753
 30
0.0
 40
13.25
  0
CIRCLE
  5
10F4
330
36
100
AcDbEntity
  8
0
 62
     3
100
AcDbCircle
 10
128.0890456084029
 20
115.7412200621753
 30
0.0
 40
15.25
  0
TEXT
  5
10F5
330
36
100
AcDbEntity
  8
0
 62
     4
100
AcDbText
 10
135.3423444021708
 20
114.0317244796727
 30
0.0
 40
3.2
  1
X
  7
高3.2
100
AcDbText
  0
TEXT
  5
10F6
330
36
100
AcDbEntity
  8
0
 62
     4
100
AcDbText
 10
118.7882266638665
 20
113.9831677228751
 30
0.0
 40
3.2
  1
Z
  7
高3.2
100
AcDbText
  0
TEXT
  5
10F7
330
36
100
AcDbEntity
  8
0
 62
     4
100
AcDbText
 10
127.1200531503776
 20
122.4307745970211
 30
0.0
 40
3.2
  1
Y
  7
高3.2
100
AcDbText
  0
LINE
  5
10F8
330
36
100
AcDbEntity
  8
0
 62
     3
100
AcDbLine
 10
125.3640456084027
 20
28.07527229069539
 30
0.0
 11
125.3640456084027
 21
34.49649159164778
 31
0.0
  0
LINE
  5
10F9
330
36
100
AcDbEntity
  8
0
 62
     3
100
AcDbLine
 10
130.8140456084028
 20
28.07527229069539
 30
0.0
 11
130.8140456084028
 21
34.49649159164778
 31
0.0
  0
ARC
  5
10FA
330
36
100
AcDbEntity
  8
0
100
AcDbCircle
 10
129.4515456084027
 20
29.50589729069537
 30
0.0
 40
1.975625000000008
100
AcDbArc
 50
226.3971810272972
 51
313.6028189727053
  0
ARC
  5
10FB
330
36
100
AcDbEntity
  8
0
100
AcDbCircle
 10
129.4515456084027
 20
26.64464729069539
 30
0.0
 40
1.975625000000008
100
AcDbArc
 50
46.39718102729715
 51
133.6028189727053
  0
ARC
  5
10FC
330
36
100
AcDbEntity
  8
0
100
AcDbCircle
 10
126.7265456084027
 20
29.50589729069534
 30
0.0
 40
1.975625000000008
100
AcDbArc
 50
226.3971810272972
 51
313.6028189727027
  0
LINE
  5
10FD
330
36
100
AcDbEntity
  8
0
 62
     3
100
AcDbLine
 10
83.588842
 20
43.675126
 30
0.0
 11
91.55076363353897
 21
43.675126
 31
0.0
  0
LINE
  5
10FE
330
36
100
AcDbEntity
  8
0
 62
     3
100
AcDbLine
 10
83.588842
 20
38.22512599999999
 30
0.0
 11
91.55076363353897
 21
38.22512599999999
 31
0.0
  0
LINE
  5
10FF
330
36
100
AcDbEntity
  8
0
 62
     3
100
AcDbLine
 10
104.275763633539
 20
30.950126
 30
0.0
 11
104.275763633539
 21
21.17072031767295
 31
0.0
  0
LINE
  5
1100
330
36
100
AcDbEntity
  8
0
 62
     3
100
AcDbLine
 10
98.82576363353894
 20
30.950126
 30
0.0
 11
98.82576363353894
 21
21.17072031767295
 31
0.0
  0
ARC
  5
1101
330
36
100
AcDbEntity
  8
0
 62
     3
100
AcDbCircle
 10
91.55076363353897
 20
30.950126
 30
0.0
 40
7.275
100
AcDbArc
 50
0.0
 51
90.0
  0
ARC
  5
1102
330
36
100
AcDbEntity
  8
0
 62
     3
100
AcDbCircle
 10
91.55076363353897
 20
30.950126
 30
0.0
 40
12.725
100
AcDbArc
 50
0.0
 51
90.0
  0
LINE
  5
1103
330
36
100
AcDbEntity
  8
0
 62
     3
100
AcDbLine
 10
111.5507636335389
 20
8.44572031767295
 30
0.0
 11
118.0890456084028
 21
8.44572031767295
 31
0.0
  0
LINE
  5
1104
330
36
100
AcDbEntity
  8
0
 62
     3
100
AcDbLine
 10
111.5507636335389
 20
13.89572031767295
 30
0.0
 11
118.0890456084028
 21
13.89572031767295
 31
0.0
  0
ARC
  5
1105
330
36
100
AcDbEntity
  8
0
 62
     3
100
AcDbCircle
 10
118.0890456084028
 20
21.17072031767295
 30
0.0
 40
7.275
100
AcDbArc
 50
270.0
 51
0.0
  0
ARC
  5
1106
330
36
100
AcDbEntity
  8
0
 62
     3
100
AcDbCircle
 10
118.0890456084028
 20
21.17072031767295
 30
0.0
 40
12.725
100
AcDbArc
 50
270.0
 51
0.0
  0
ARC
  5
1107
330
36
100
AcDbEntity
  8
0
 62
     3
100
AcDbCircle
 10
111.5507636335389
 20
21.17072031767295
 30
0.0
 40
7.275
100
AcDbArc
 50
180.0
 51
270.0
  0
ARC
  5
1108
330
36
100
AcDbEntity
  8
0
 62
     3
100
AcDbCircle
 10
111.5507636335389
 20
21.17072031767295
 30
0.0
 40
12.725
100
AcDbArc
 50
180.0
 51
270.0
  0
LINE
  5
1109
330
36
100
AcDbEntity
  8
0
 62
     3
100
AcDbLine
 10
130.8140456084028
 20
24.836791205963
 30
0.0
 11
130.8140456084028
 21
21.17072031767295
 31
0.0
  0
LINE
  5
110A
330
36
100
AcDbEntity
  8
0
 62
     3
100
AcDbLine
 10
125.3640456084027
 20
24.836791205963
 30
0.0
 11
125.3640456084027
 21
21.17072031767295
 31
0.0
  0
ARC
  5
110B
330
36
100
AcDbEntity
  8
0
100
AcDbCircle
 10
126.7265456084028
 20
23.40616620596298
 30
0.0
 40
1.97562500000002
100
AcDbArc
 50
46.39718102729726
 51
133.6028189727027
  0
ARC
  5
110C
330
36
100
AcDbEntity
  8
0
100
AcDbCircle
 10
126.7265456084028
 20
26.26741620596302
 30
0.0
 40
1.97562500000002
100
AcDbArc
 50
226.3971810272972
 51
313.6028189727027
  0
ARC
  5
110D
330
36
100
AcDbEntity
  8
0
100
AcDbCircle
 10
129.4515456084028
 20
23.40616620596298
 30
0.0
 40
1.97562500000002
100
AcDbArc
 50
46.39718102729743
 51
133.6028189727026
  0
TEXT
  5
1114
330
36
100
AcDbEntity
  8
0
 62
     4
100
AcDbText
 10
138.573757287808
 20
97.39655024059018
 30
0.0
 40
3.2
  1
20A 250V
  7
高3.2
100
AcDbText
  0
LINE
  5
1115
330
36
100
AcDbEntity
  8
0
 62
     7
100
AcDbLine
 10
138.5750251745872
 20
96.54052153582597
 30
0.0
 11
162.5771026892311
 21
96.54052153582597
 31
0.0
  0
TEXT
  5
121F
330
36
100
AcDbEntity
  8
0
 62
     4
100
AcDbText
 10
-193.4039554643783
 20
37.63559116077658
 30
0.0
 40
3.0
  1
アース金具
100
AcDbText
1001
ACAD
1000
MTEXTBEGIN
1070
    73
1070
     1
1070
    44
1040
1.0
1070
    74
1070
     0
1000
MTEXTEND
  0
LINE
  5
1234
330
36
100
AcDbEntity
  8
0
100
AcDbLine
 10
-102.153666
 20
19.950126
 30
0.0
 11
-79.33375400000002
 21
19.950126
 31
0.0
  0
LINE
  5
1235
330
36
100
AcDbEntity
  8
0
100
AcDbLine
 10
-130.903666
 20
125.950126
 30
0.0
 11
-79.333754
 21
125.950126
 31
0.0
  0
LINE
  5
1236
330
36
100
AcDbEntity
  8
0
100
AcDbLine
 10
-80.58375400000002
 20
22.450126
 30
0.0
 11
-80.583754
 21
123.450126
 31
0.0
  0
LINE
  5
123A
330
36
100
AcDbEntity
  8
0
100
AcDbLine
 10
-171.153666
 20
30.700126
 30
0.0
 11
-171.153666
 21
11.643591
 31
0.0
  0
LINE
  5
123B
330
36
100
AcDbEntity
  8
0
100
AcDbLine
 10
-91.15366599999999
 20
25.700126
 30
0.0
 11
-91.15366599999999
 21
11.643591
 31
0.0
  0
LINE
  5
123C
330
36
100
AcDbEntity
  8
0
100
AcDbLine
 10
-168.6536659999999
 20
12.893591
 30
0.0
 11
-93.65366599999999
 21
12.893591
 31
0.0
  0
LINE
  5
1240
330
36
100
AcDbEntity
  8
0
100
AcDbLine
 10
-47.911158
 20
28.200126
 30
0.0
 11
-47.911158
 21
11.643591
 31
0.0
  0
LINE
  5
1241
330
36
100
AcDbEntity
  8
0
100
AcDbLine
 10
82.08884199999998
 20
66.70012599999999
 30
0.0
 11
82.08884199999998
 21
11.643591
 31
0.0
  0
LINE
  5
1242
330
36
100
AcDbEntity
  8
0
100
AcDbLine
 10
-45.411158
 20
12.893591
 30
0.0
 11
79.58884199999999
 21
12.893591
 31
0.0
  0
LINE
  5
1246
330
36
100
AcDbEntity
  8
0
100
AcDbLine
 10
-45.661158
 20
25.950126
 30
0.0
 11
-58.90628100000002
 21
25.950126
 31
0.0
  0
LINE
  5
1247
330
36
100
AcDbEntity
  8
0
100
AcDbLine
 10
-48.161158
 20
105.950126
 30
0.0
 11
-58.906281
 21
105.950126
 31
0.0
  0
LINE
  5
1248
330
36
100
AcDbEntity
  8
0
100
AcDbLine
 10
-57.65628100000002
 20
28.450126
 30
0.0
 11
-57.656281
 21
103.450126
 31
0.0
  0
LINE
  5
124C
330
36
100
AcDbEntity
  8
0
100
AcDbLine
 10
132.800901628569
 20
31.617195643543
 30
0.0
 11
142.9103909266378
 21
39.33783926293795
 31
0.0
1001
ACAD
1000
DSTYLE
1002
{
1070
   147
1040
0.625
1070
    77
1070
     0
1002
}
  0
LINE
  5
124D
330
36
100
AcDbEntity
  8
0
  6
ByBlock
 62
     0
370
    -2
100
AcDbLine
 10
133.2074786467462
 20
31.08481955979549
 30
0.0
 11
130.8140456084028
 21
30.09982846479906
 31
0.0
  0
LINE
  5
124E
330
36
100
AcDbEntity
  8
0
  6
ByBlock
 62
     0
370
    -2
100
AcDbLine
 10
130.8140456084028
 20
30.09982846479906
 30
0.0
 11
132.3943246103917
 21
32.14957172729051
 31
0.0
  0
LINE
  5
124F
330
36
100
AcDbEntity
  8
0
  6
ByBlock
 62
     0
370
    -2
100
AcDbLine
 10
130.8140456084028
 20
30.09982846479906
 30
0.0
 11
132.800901628569
 21
31.617195643543
 31
0.0
  0
LINE
  5
1250
330
36
100
AcDbEntity
  8
0
100
AcDbLine
 10
-141.9890769575136
 20
24.92424126070741
 30
0.0
 11
-180.6091378148963
 21
7.545762936148058
 31
0.0
1001
ACAD
1000
DSTYLE
1002
{
1070
   147
1040
0.625
1070
    77
1070
     0
1002
}
  0
LINE
  5
1251
330
36
100
AcDbEntity
  8
0
  6
ByBlock
 62
     0
370
    -2
100
AcDbLine
 10
-142.2639617475223
 20
25.53511564916883
 30
0.0
 11
-139.7092610654542
 21
25.950126
 31
0.0
  0
LINE
  5
1252
330
36
100
AcDbEntity
  8
0
  6
ByBlock
 62
     0
370
    -2
100
AcDbLine
 10
-139.7092610654542
 20
25.950126
 30
0.0
 11
-141.7141921675048
 21
24.31336687224599
 31
0.0
  0
LINE
  5
1253
330
36
100
AcDbEntity
  8
0
  6
ByBlock
 62
     0
370
    -2
100
AcDbLine
 10
-139.7092610654542
 20
25.950126
 30
0.0
 11
-141.9890769575136
 21
24.92424126070741
 31
0.0
  0
LINE
  5
1254
330
36
100
AcDbEntity
  8
0
100
AcDbLine
 10
-158.4621680429184
 20
33.0597187875099
 30
0.0
 11
-173.0789554643784
 21
39.13559116077658
 31
0.0
1001
ACAD
1000
DSTYLE
1002
{
1070
   147
1040
0.625
1070
    77
1070
     0
1002
}
  0
LINE
  5
1255
330
36
100
AcDbEntity
  8
0
100
AcDbLine
 10
-173.0789554643784
 20
39.13559116077658
 30
0.0
 11
-175.5789554643784
 21
39.13559116077658
 31
0.0
1001
ACAD
1000
DSTYLE
1002
{
1070
   147
1040
0.625
1070
    77
1070
     0
1002
}
  0
LINE
  5
1256
330
36
100
AcDbEntity
  8
0
  6
ByBlock
 62
     0
370
    -2
100
AcDbLine
 10
-158.2050461150979
 20
33.67827960140788
 30
0.0
 11
-156.1536659999999
 21
32.10012600000001
 31
0.0
  0
LINE
  5
1257
330
36
100
AcDbEntity
  8
0
  6
ByBlock
 62
     0
370
    -2
100
AcDbLine
 10
-156.1536659999999
 20
32.10012600000001
 30
0.0
 11
-158.7192899707389
 21
32.44115797361193
 31
0.0
  0
LINE
  5
1258
330
36
100
AcDbEntity
  8
0
  6
ByBlock
 62
     0
370
    -2
100
AcDbLine
 10
-156.1536659999999
 20
32.10012600000001
 30
0.0
 11
-158.4621680429184
 21
33.0597187875099
 31
0.0
  0
LINE
  5
1259
330
36
100
AcDbEntity
  8
0
100
AcDbLine
 10
-165.1389553352229
 20
23.22093390281458
 30
0.0
 11
-180.324596329554
 21
24.87562719437085
 31
0.0
1001
ACAD
1000
DSTYLE
1002
{
1070
   147
1040
0.625
1070
    77
1070
     0
1002
}
  0
LINE
  5
125A
330
36
100
AcDbEntity
  8
0
  6
ByBlock
 62
     0
370
    -2
100
AcDbLine
 10
-165.0663926284717
 20
23.88686469489825
 30
0.0
 11
-162.653666
 21
22.950126
 31
0.0
  0
LINE
  5
125B
330
36
100
AcDbEntity
  8
0
  6
ByBlock
 62
     0
370
    -2
100
AcDbLine
 10
-162.653666
 20
22.950126
 30
0.0
 11
-165.2115180419742
 21
22.55500311073091
 31
0.0
  0
LINE
  5
125C
330
36
100
AcDbEntity
  8
0
  6
ByBlock
 62
     0
370
    -2
100
AcDbLine
 10
-162.653666
 20
22.950126
 30
0.0
 11
-165.1389553352229
 21
23.22093390281458
 31
0.0
  0
LINE
  5
125D
330
36
100
AcDbEntity
  8
0
100
AcDbLine
 10
-120.1182714428881
 20
46.36931570751471
 30
0.0
 11
-180.0109881142238
 21
56.55610258497056
 31
0.0
1001
ACAD
1000
DSTYLE
1002
{
1070
   147
1040
0.625
1070
    77
1070
     0
1002
}
  0
LINE
  5
125E
330
36
100
AcDbEntity
  8
0
  6
ByBlock
 62
     0
370
    -2
100
AcDbLine
 10
-120.0059499799492
 20
47.02970427133115
 30
0.0
 11
-117.653666
 21
45.950126
 31
0.0
  0
LINE
  5
125F
330
36
100
AcDbEntity
  8
0
  6
ByBlock
 62
     0
370
    -2
100
AcDbLine
 10
-117.653666
 20
45.950126
 30
0.0
 11
-120.2305929058269
 21
45.70892714369828
 31
0.0
  0
LINE
  5
1260
330
36
100
AcDbEntity
  8
0
  6
ByBlock
 62
     0
370
    -2
100
AcDbLine
 10
-117.653666
 20
45.950126
 30
0.0
 11
-120.1182714428881
 21
46.36931570751472
 31
0.0
  0
LINE
  5
1261
330
36
100
AcDbEntity
  8
0
100
AcDbLine
 10
-164.0830312959351
 20
66.04019740153204
 30
0.0
 11
-180.4364444081297
 21
70.01229719693592
 31
0.0
1001
ACAD
1000
DSTYLE
1002
{
1070
   147
1040
0.625
1070
    77
1070
     0
1002
}
  0
LINE
  5
1262
330
36
100
AcDbEntity
  8
0
  6
ByBlock
 62
     0
370
    -2
100
AcDbLine
 10
-163.924922253966
 20
66.69114340321256
 30
0.0
 11
-161.653666
 21
65.45012599999999
 31
0.0
  0
LINE
  5
1263
330
36
100
AcDbEntity
  8
0
  6
ByBlock
 62
     0
370
    -2
100
AcDbLine
 10
-161.653666
 20
65.45012599999999
 30
0.0
 11
-164.2411403379042
 21
65.38925139985152
 31
0.0
  0
LINE
  5
1264
330
36
100
AcDbEntity
  8
0
  6
ByBlock
 62
     0
370
    -2
100
AcDbLine
 10
-161.653666
 20
65.45012599999999
 30
0.0
 11
-164.0830312959351
 21
66.04019740153204
 31
0.0
  0
LINE
  5
1265
330
36
100
AcDbEntity
  8
0
100
AcDbLine
 10
-135.2506204996686
 20
77.14854393150294
 30
0.0
 11
-180.3512660006627
 21
83.96152926545079
 31
0.0
1001
ACAD
1000
DSTYLE
1002
{
1070
   147
1040
0.625
1070
    77
1070
     0
1002
}
  0
LINE
  5
1266
330
36
100
AcDbEntity
  8
0
  6
ByBlock
 62
     0
370
    -2
100
AcDbLine
 10
-135.1505635383403
 20
77.81090166773466
 30
0.0
 11
-132.778666
 21
76.775126
 31
0.0
  0
LINE
  5
1267
330
36
100
AcDbEntity
  8
0
  6
ByBlock
 62
     0
370
    -2
100
AcDbLine
 10
-132.778666
 20
76.775126
 30
0.0
 11
-135.3506774609969
 21
76.48618619527123
 31
0.0
  0
LINE
  5
1268
330
36
100
AcDbEntity
  8
0
  6
ByBlock
 62
     0
370
    -2
100
AcDbLine
 10
-132.778666
 20
76.775126
 30
0.0
 11
-135.2506204996686
 21
77.14854393150294
 31
0.0
  0
LINE
  5
1269
330
36
100
AcDbEntity
  8
0
100
AcDbLine
 10
-166.5273283763642
 20
94.38962342264458
 30
0.0
 11
-180.7478922472716
 21
100.891193831255
 31
0.0
1001
ACAD
1000
DSTYLE
1002
{
1070
   147
1040
0.625
1070
    77
1070
     0
1002
}
  0
LINE
  5
126A
330
36
100
AcDbEntity
  8
0
  6
ByBlock
 62
     0
370
    -2
100
AcDbLine
 10
-166.248796081464
 20
94.99884335579999
 30
0.0
 11
-164.253687
 21
93.35012599999997
 31
0.0
  0
LINE
  5
126B
330
36
100
AcDbEntity
  8
0
  6
ByBlock
 62
     0
370
    -2
100
AcDbLine
 10
-164.253687
 20
93.35012599999997
 30
0.0
 11
-166.8058606712644
 21
93.78040348948919
 31
0.0
  0
LINE
  5
126C
330
36
100
AcDbEntity
  8
0
  6
ByBlock
 62
     0
370
    -2
100
AcDbLine
 10
-164.253687
 20
93.35012599999997
 30
0.0
 11
-166.5273283763642
 21
94.38962342264458
 31
0.0
  0
LINE
  5
126D
330
36
100
AcDbEntity
  8
0
100
AcDbLine
 10
-166.4651867451907
 20
105.9215228978196
 30
0.0
 11
-180.9427493193238
 21
114.1075094776186
 31
0.0
1001
ACAD
1000
DSTYLE
1002
{
1070
   341
1005
8E0
1070
   147
1040
0.625
1070
    77
1070
     0
1002
}
  0
LINE
  5
126F
330
36
100
AcDbEntity
  8
0
100
AcDbLine
 10
-136.0285511432743
 20
103.6967894720518
 30
0.0
 11
-180.8634612333869
 21
127.1187623890438
 31
0.0
1001
ACAD
1000
DSTYLE
1002
{
1070
   147
1040
0.625
1070
    77
1070
     0
1002
}
  0
LINE
  5
1270
330
36
100
AcDbEntity
  8
0
  6
ByBlock
 62
     0
370
    -2
100
AcDbLine
 10
-135.7183802656958
 20
104.2905261080769
 30
0.0
 11
-133.8126942599678
 21
102.5392151665737
 31
0.0
  0
LINE
  5
1271
330
36
100
AcDbEntity
  8
0
  6
ByBlock
 62
     0
370
    -2
100
AcDbLine
 10
-133.8126942599678
 20
102.5392151665737
 30
0.0
 11
-136.3387220208528
 21
103.1030528360267
 31
0.0
  0
LINE
  5
1272
330
36
100
AcDbEntity
  8
0
  6
ByBlock
 62
     0
370
    -2
100
AcDbLine
 10
-133.8126942599678
 20
102.5392151665737
 30
0.0
 11
-136.0285511432743
 21
103.6967894720518
 31
0.0
  0
LINE
  5
1273
330
36
100
AcDbEntity
  8
0
100
AcDbLine
 10
74.14080571590993
 20
108.2908001746684
 30
0.0
 11
79.15378056044973
 21
121.6518466506631
 31
0.0
1001
ACAD
1000
DSTYLE
1002
{
1070
   147
1040
0.625
1070
    77
1070
     0
1002
}
  0
LINE
  5
1274
330
36
100
AcDbEntity
  8
0
  6
ByBlock
 62
     0
370
    -2
100
AcDbLine
 10
74.76798702033817
 20
108.0554859642349
 30
0.0
 11
73.26260049613479
 21
105.950126
 31
0.0
  0
LINE
  5
1275
330
36
100
AcDbEntity
  8
0
  6
ByBlock
 62
     0
370
    -2
100
AcDbLine
 10
73.26260049613479
 20
105.950126
 30
0.0
 11
73.5136244114817
 21
108.5261143851019
 31
0.0
  0
LINE
  5
1276
330
36
100
AcDbEntity
  8
0
  6
ByBlock
 62
     0
370
    -2
100
AcDbLine
 10
73.26260049613479
 20
105.950126
 30
0.0
 11
74.14080571590993
 21
108.2908001746684
 31
0.0
  0
LINE
  5
1277
330
36
100
AcDbEntity
  8
0
100
AcDbLine
 10
45.54314332595066
 20
114.9106378322668
 30
0.0
 11
48.68044668823011
 21
122.2893423950828
 31
0.0
1001
ACAD
1000
DSTYLE
1002
{
1070
   147
1040
0.625
1070
    77
1070
     0
1002
}
  0
LINE
  5
1278
330
36
100
AcDbEntity
  8
0
  6
ByBlock
 62
     0
370
    -2
100
AcDbLine
 10
46.15960697256913
 20
114.6485276671566
 30
0.0
 11
44.56493417006572
 21
112.6099625298083
 31
0.0
  0
LINE
  5
1279
330
36
100
AcDbEntity
  8
0
  6
ByBlock
 62
     0
370
    -2
100
AcDbLine
 10
44.56493417006572
 20
112.6099625298083
 30
0.0
 11
44.92667967933218
 21
115.172747997377
 31
0.0
  0
LINE
  5
127A
330
36
100
AcDbEntity
  8
0
  6
ByBlock
 62
     0
370
    -2
100
AcDbLine
 10
44.56493417006572
 20
112.6099625298083
 30
0.0
 11
45.54314332595066
 21
114.9106378322668
 31
0.0
  0
TEXT
  5
127B
330
36
100
AcDbEntity
  8
0
 62
     4
100
AcDbText
 10
-81.20875400000002
 20
69.20012599999997
 30
0.0
 40
3.0
  1
220
 50
90.0
100
AcDbText
  0
LINE
  5
127C
330
36
100
AcDbEntity
  8
0
  6
ByBlock
 62
     0
370
    -2
100
AcDbLine
 10
-81.25362649999999
 20
123.450126
 30
0.0
 11
-80.583754
 21
125.950126
 31
0.0
  0
LINE
  5
127D
330
36
100
AcDbEntity
  8
0
  6
ByBlock
 62
     0
370
    -2
100
AcDbLine
 10
-80.583754
 20
125.950126
 30
0.0
 11
-79.9138815
 21
123.450126
 31
0.0
  0
LINE
  5
127E
330
36
100
AcDbEntity
  8
0
  6
ByBlock
 62
     0
370
    -2
100
AcDbLine
 10
-80.583754
 20
125.950126
 30
0.0
 11
-80.583754
 21
123.450126
 31
0.0
  0
LINE
  5
127F
330
36
100
AcDbEntity
  8
0
  6
ByBlock
 62
     0
370
    -2
100
AcDbLine
 10
-79.91388150000003
 20
22.450126
 30
0.0
 11
-80.58375400000002
 21
19.950126
 31
0.0
  0
LINE
  5
1280
330
36
100
AcDbEntity
  8
0
  6
ByBlock
 62
     0
370
    -2
100
AcDbLine
 10
-80.58375400000002
 20
19.950126
 30
0.0
 11
-81.25362650000003
 21
22.450126
 31
0.0
  0
LINE
  5
1281
330
36
100
AcDbEntity
  8
0
  6
ByBlock
 62
     0
370
    -2
100
AcDbLine
 10
-80.58375400000002
 20
19.950126
 30
0.0
 11
-80.58375400000002
 21
22.450126
 31
0.0
  0
TEXT
  5
1282
330
36
100
AcDbEntity
  8
0
 62
     4
100
AcDbText
 10
-134.403666
 20
13.518591
 30
0.0
 40
3.0
  1
160
100
AcDbText
  0
LINE
  5
1283
330
36
100
AcDbEntity
  8
0
  6
ByBlock
 62
     0
370
    -2
100
AcDbLine
 10
-93.65366599999999
 20
13.5634635
 30
0.0
 11
-91.15366599999999
 21
12.893591
 31
0.0
  0
LINE
  5
1284
330
36
100
AcDbEntity
  8
0
  6
ByBlock
 62
     0
370
    -2
100
AcDbLine
 10
-91.15366599999999
 20
12.893591
 30
0.0
 11
-93.65366599999999
 21
12.2237185
 31
0.0
  0
LINE
  5
1285
330
36
100
AcDbEntity
  8
0
  6
ByBlock
 62
     0
370
    -2
100
AcDbLine
 10
-91.15366599999999
 20
12.893591
 30
0.0
 11
-93.65366599999999
 21
12.893591
 31
0.0
  0
LINE
  5
1286
330
36
100
AcDbEntity
  8
0
  6
ByBlock
 62
     0
370
    -2
100
AcDbLine
 10
-168.6536659999999
 20
12.2237185
 30
0.0
 11
-171.153666
 21
12.893591
 31
0.0
  0
LINE
  5
1287
330
36
100
AcDbEntity
  8
0
  6
ByBlock
 62
     0
370
    -2
100
AcDbLine
 10
-171.153666
 20
12.893591
 30
0.0
 11
-168.6536659999999
 21
13.5634635
 31
0.0
  0
LINE
  5
1288
330
36
100
AcDbEntity
  8
0
  6
ByBlock
 62
     0
370
    -2
100
AcDbLine
 10
-171.153666
 20
12.893591
 30
0.0
 11
-168.6536659999999
 21
12.893591
 31
0.0
  0
TEXT
  5
1289
330
36
100
AcDbEntity
  8
0
 62
     4
100
AcDbText
 10
13.08884199999999
 20
13.518591
 30
0.0
 40
3.0
  1
273
100
AcDbText
  0
LINE
  5
128A
330
36
100
AcDbEntity
  8
0
  6
ByBlock
 62
     0
370
    -2
100
AcDbLine
 10
79.58884199999999
 20
13.5634635
 30
0.0
 11
82.08884199999998
 21
12.893591
 31
0.0
  0
LINE
  5
128B
330
36
100
AcDbEntity
  8
0
  6
ByBlock
 62
     0
370
    -2
100
AcDbLine
 10
82.08884199999998
 20
12.893591
 30
0.0
 11
79.58884199999999
 21
12.2237185
 31
0.0
  0
LINE
  5
128C
330
36
100
AcDbEntity
  8
0
  6
ByBlock
 62
     0
370
    -2
100
AcDbLine
 10
82.08884199999998
 20
12.893591
 30
0.0
 11
79.58884199999999
 21
12.893591
 31
0.0
  0
LINE
  5
128D
330
36
100
AcDbEntity
  8
0
  6
ByBlock
 62
     0
370
    -2
100
AcDbLine
 10
-45.411158
 20
12.2237185
 30
0.0
 11
-47.911158
 21
12.893591
 31
0.0
  0
LINE
  5
128E
330
36
100
AcDbEntity
  8
0
  6
ByBlock
 62
     0
370
    -2
100
AcDbLine
 10
-47.911158
 20
12.893591
 30
0.0
 11
-45.411158
 21
13.5634635
 31
0.0
  0
LINE
  5
128F
330
36
100
AcDbEntity
  8
0
  6
ByBlock
 62
     0
370
    -2
100
AcDbLine
 10
-47.911158
 20
12.893591
 30
0.0
 11
-45.411158
 21
12.893591
 31
0.0
  0
TEXT
  5
1290
330
36
100
AcDbEntity
  8
0
 62
     4
100
AcDbText
 10
-58.28128100000002
 20
62.70012599999998
 30
0.0
 40
3.0
  1
170
 50
90.0
100
AcDbText
  0
LINE
  5
1291
330
36
100
AcDbEntity
  8
0
  6
ByBlock
 62
     0
370
    -2
100
AcDbLine
 10
-58.32615350000001
 20
103.450126
 30
0.0
 11
-57.656281
 21
105.950126
 31
0.0
  0
LINE
  5
1292
330
36
100
AcDbEntity
  8
0
  6
ByBlock
 62
     0
370
    -2
100
AcDbLine
 10
-57.656281
 20
105.950126
 30
0.0
 11
-56.98640850000001
 21
103.450126
 31
0.0
  0
LINE
  5
1293
330
36
100
AcDbEntity
  8
0
  6
ByBlock
 62
     0
370
    -2
100
AcDbLine
 10
-57.656281
 20
105.950126
 30
0.0
 11
-57.656281
 21
103.450126
 31
0.0
  0
LINE
  5
1294
330
36
100
AcDbEntity
  8
0
  6
ByBlock
 62
     0
370
    -2
100
AcDbLine
 10
-56.98640850000002
 20
28.450126
 30
0.0
 11
-57.65628100000002
 21
25.950126
 31
0.0
  0
LINE
  5
1295
330
36
100
AcDbEntity
  8
0
  6
ByBlock
 62
     0
370
    -2
100
AcDbLine
 10
-57.65628100000002
 20
25.950126
 30
0.0
 11
-58.32615350000001
 21
28.450126
 31
0.0
  0
LINE
  5
1296
330
36
100
AcDbEntity
  8
0
  6
ByBlock
 62
     0
370
    -2
100
AcDbLine
 10
-57.65628100000002
 20
25.950126
 30
0.0
 11
-57.65628100000002
 21
28.450126
 31
0.0
  0
ARC
  5
1297
330
36
100
AcDbEntity
  8
0
  6
ByBlock
 62
     0
100
AcDbCircle
 10
-166.4651867451907
 20
105.9215228978196
 30
0.0
 40
0.1562499999999882
100
AcDbArc
 50
150.5150644714027
 51
330.5150644714028
  0
ARC
  5
1298
330
36
100
AcDbEntity
  8
0
  6
ByBlock
 62
     0
100
AcDbCircle
 10
-166.4651867451907
 20
105.9215228978196
 30
0.0
 40
0.1562499999999882
100
AcDbArc
 50
330.5150644714028
 51
150.5150644714027
  0
ENDSEC
  0
SECTION
  2
OBJECTS
  0
DICTIONARY
  5
C
330
0
100
AcDbDictionary
281
     1
  3
ACAD_2007HEADERVARS_RT
350
129C
  3
ACAD_COLOR
350
2F
  3
ACAD_GROUP
350
D
  3
ACAD_LAYOUT
350
2E
  3
ACAD_MATERIAL
350
10
  3
ACAD_MLEADERSTYLE
350
6DD
  3
ACAD_MLINESTYLE
350
2B
  3
ACAD_PLOTSETTINGS
350
2D
  3
ACAD_PLOTSTYLENAME
350
E
  3
ACAD_SCALELIST
350
6CB
  3
ACAD_TABLESTYLE
350
30
  3
ACAD_VISUALSTYLE
350
14
  3
ACDB_RECOMPOSE_DATA
350
129A
  3
AcDbVariableDictionary
350
5EE
  3
AEC_PROPERTY_SET_DEFS
350
CEE
  3
DWGPROPS
350
129B
  0
DICTIONARY
  5
47E
330
2
100
AcDbDictionary
280
     1
281
     1
  3
ACAD_LAYERSTATES
360
47F
  0
DICTIONARY
  5
952
330
25
100
AcDbDictionary
280
     1
281
     1
  3
ADSK_XREC_LAYER_RECONCILED
360
953
  0
DICTIONARY
  5
5E1
330
36
100
AcDbDictionary
280
     1
281
     1
  3
ACAD_SORTENTS
360
5E2
  0
DICTIONARY
  5
129C
102
{ACAD_REACTORS
330
C
102
}
330
C
100
AcDbDictionary
281
     1
  3
DIMARCSYM
350
129E
  3
DIMFXL
350
129D
  3
DIMJOGANG
350
129F
  0
DICTIONARY
  5
2F
102
{ACAD_REACTORS
330
C
102
}
330
C
100
AcDbDictionary
281
     1
  0
DICTIONARY
  5
D
102
{ACAD_REACTORS
330
C
102
}
330
C
100
AcDbDictionary
281
     1
  0
DICTIONARY
  5
2E
102
{ACAD_REACTORS
330
C
102
}
330
C
100
AcDbDictionary
281
     1
  3
Model
350
39
  3
レイアウト1
350
35
  0
DICTIONARY
  5
10
102
{ACAD_REACTORS
330
C
102
}
330
C
100
AcDbDictionary
281
     1
  3
ByBlock
350
12
  3
ByLayer
350
11
  3
Global
350
13
  0
DICTIONARY
  5
6DD
102
{ACAD_REACTORS
330
C
102
}
330
C
100
AcDbDictionary
281
     1
  3
Standard
350
6DE
  0
DICTIONARY
  5
2B
102
{ACAD_REACTORS
330
C
102
}
330
C
100
AcDbDictionary
281
     1
  3
Standard
350
2C
  0
DICTIONARY
  5
2D
102
{ACAD_REACTORS
330
C
102
}
330
C
100
AcDbDictionary
281
     1
  0
ACDBDICTIONARYWDFLT
  5
E
102
{ACAD_REACTORS
330
C
102
}
330
C
100
AcDbDictionary
281
     1
  3
Normal
350
F
100
AcDbDictionaryWithDefault
340
F
  0
DICTIONARY
  5
6CB
102
{ACAD_REACTORS
330
C
102
}
330
C
100
AcDbDictionary
281
     1
  3
A0
350
6CC
  3
A1
350
6CD
  3
A2
350
6CE
  3
A3
350
6CF
  3
A4
350
6D0
  3
A5
350
6D1
  3
A6
350
6D2
  3
A7
350
6D3
  3
A8
350
6D4
  3
A9
350
6D5
  3
B0
350
6D6
  3
B1
350
6D7
  3
B2
350
6D8
  3
B3
350
6D9
  3
B4
350
6DA
  3
B5
350
6DB
  3
B6
350
6DC
  0
DICTIONARY
  5
30
102
{ACAD_REACTORS
330
C
102
}
330
C
100
AcDbDictionary
281
     1
  3
Standard
350
31
  0
DICTIONARY
  5
14
102
{ACAD_REACTORS
330
C
102
}
330
C
100
AcDbDictionary
281
     1
  3
2dWireframe
350
1A
  3
3D Hidden
350
1C
  3
3dWireframe
350
1B
  3
Basic
350
19
  3
Brighten
350
20
  3
ColorChange
350
24
  3
Conceptual
350
1D
  3
Dim
350
1F
  3
EdgeColorOff
350
6CA
  3
Facepattern
350
23
  3
Flat
350
15
  3
FlatWithEdges
350
16
  3
Gouraud
350
17
  3
GouraudWithEdges
350
18
  3
Hidden
350
6C2
  3
JitterOff
350
6C8
  3
Linepattern
350
22
  3
OverhangOff
350
6C9
  3
Realistic
350
1E
  3
Shaded
350
6C7
  3
Shaded with edges
350
6C6
  3
Shades of Gray
350
6C3
  3
Sketchy
350
6C4
  3
Thicken
350
21
  3
Wireframe
350
6C1
  3
X-Ray
350
6C5
  0
XRECORD
  5
129A
102
{ACAD_REACTORS
330
C
102
}
330
C
100
AcDbXrecord
280
     1
 90
        1
330
31
  0
DICTIONARY
  5
5EE
102
{ACAD_REACTORS
330
C
102
}
330
C
100
AcDbDictionary
281
     1
  3
CANNOSCALE
350
955
  3
CMLEADERSTYLE
350
954
  3
CTABLESTYLE
350
5EF
  3
DIMASSOC
350
610
  3
INDEXCTL
350
60F
  3
SORTENTS
350
60E
  3
XCLIPFRAME
350
1116
  0
DICTIONARY
  5
CEE
102
{ACAD_REACTORS
330
C
102
}
330
C
100
AcDbDictionary
281
     1
  0
XRECORD
  5
129B
102
{ACAD_REACTORS
330
C
102
}
330
C
100
AcDbXrecord
280
     1
  1
DWGPROPS COOKIE
  2

  3

  4

  6

  7

  8
imamura
  9

300
=
301
=
302
=
303
=
304
=
305
=
306
=
307
=
308
=
309
=
 40
0.2608229282407407
 41
2455439.617600903
 42
2460251.678059815
  1

 90
        0
  0
DICTIONARY
  5
47F
102
{ACAD_REACTORS
330
47E
102
}
330
47E
100
AcDbDictionary
281
     1
  0
XRECORD
  5
953
102
{ACAD_REACTORS
330
952
102
}
330
952
100
AcDbXrecord
280
     1
290
     1
  0
SORTENTSTABLE
  5
5E2
102
{ACAD_REACTORS
330
5E1
102
}
330
5E1
100
AcDbSortentsTable
330
36
331
10F9
  5
1282
331
10BA
  5
1243
331
1083
  5
1101
331
10F5
  5
127E
331
10B6
  5
123F
331
107F
  5
10FD
331
10F1
  5
127A
331
10B2
  5
123B
331
107B
  5
10F9
331
6AF
  5
1063
331
10D
  5
16D
331
3CF
  5
7D0
331
60A
  5
B55
331
3CB
  5
7CC
331
31E
  5
38B
331
2DF
  5
32D
331
606
  5
B51
331
105
  5
169
331
31A
  5
387
331
2DB
  5
327
331
2A4
  5
2D8
331
265
  5
299
331
22E
  5
26C
331
602
  5
926
331
101
  5
165
331
3C3
  5
6B1
331
316
  5
382
331
2D7
  5
323
331
2A0
  5
2D4
331
261
  5
295
331
22A
  5
268
331
19C
  5
228
331
2D3
  5
31F
331
29C
  5
2D0
331
25D
  5
291
331
C48
  5
10D1
331
226
  5
264
331
198
  5
224
331
141
  5
19B
331
298
  5
2CC
331
259
  5
28D
331
194
  5
212
331
13D
  5
197
331
190
  5
1FA
331
139
  5
193
331
1266
  5
1097
331
1262
  5
109B
331
121F
  5
10BD
331
125E
  5
109F
331
1295
  5
9B
331
125A
  5
10A3
331
1291
  5
A0
331
B58
  5
10C5
331
B54
  5
10C3
331
B50
  5
10BF
331
8D9
  5
107E
331
10ED
  5
1276
331
10AE
  5
1237
331
1077
  5
10F5
331
10E9
  5
1272
331
10AA
  5
1233
331
1073
  5
10F1
331
10E5
  5
126E
331
10A6
  5
122F
331
106F
  5
10ED
331
10E1
  5
126A
331
10A2
  5
122B
331
106B
  5
10E9
331
3BF
  5
60C
331
5FE
  5
35B
331
FD
  5
141
331
F9
  5
13F
331
3BB
  5
607
331
5FA
  5
357
331
B2
  5
115
331
345
  5
3D0
331
30E
  5
350
331
2CF
  5
30F
331
F5
  5
13D
331
3B7
  5
603
331
AE
  5
112
331
341
  5
3CC
331
30A
  5
34C
331
2CB
  5
30B
331
294
  5
2C8
331
255
  5
289
331
3B3
  5
5F7
331
F1
  5
139
331
37C
  5
3E7
331
33D
  5
3C7
331
306
  5
348
331
2C7
  5
307
331
290
  5
2C4
331
251
  5
285
331
21A
  5
260
331
18C
  5
1F0
331
135
  5
18F
331
378
  5
3E3
331
339
  5
3C3
331
302
  5
344
331
2C3
  5
303
331
28C
  5
2C0
331
188
  5
1EC
331
131
  5
18B
331
288
  5
2BC
331
212
  5
25E
331
184
  5
1B8
331
12D
  5
187
331
180
  5
1B4
331
129
  5
183
331
1256
  5
10B8
331
128D
  5
D9
331
1252
  5
10C9
331
1289
  5
E0
331
124E
  5
10D8
331
1285
  5
E9
331
1281
  5
F0
331
7D9
  5
107A
331
7D5
  5
1076
331
7D1
  5
1070
331
10DD
  5
1266
331
109E
  5
1227
331
1067
  5
10E5
331
10D9
  5
1262
331
109A
  5
1223
331
1063
  5
10E1
331
10D5
  5
125E
331
1096
  5
121F
331
105F
  5
10DD
331
10D1
  5
125A
331
1092
  5
121B
331
1115
  5
1298
331
105B
  5
10D6
331
110D
  5
1296
331
1109
  5
1292
331
ED
  5
135
331
3AF
  5
5EB
331
A6
  5
10F
331
E9
  5
131
331
3EA
  5
922
331
A2
  5
107
331
3AB
  5
5E7
331
374
  5
3DF
331
335
  5
3BF
331
2FE
  5
340
331
2BF
  5
2FF
331
E5
  5
12D
331
3E6
  5
91E
331
9E
  5
103
331
3A7
  5
5E3
331
370
  5
3D9
331
331
  5
3BB
331
2FA
  5
33C
331
2BB
  5
2FB
331
284
  5
2B8
331
245
  5
27F
331
1B7
  5
247
331
E1
  5
129
331
3E2
  5
912
331
9A
  5
FF
331
3A3
  5
490
331
32D
  5
3B7
331
2B7
  5
2F1
331
280
  5
2B4
331
241
  5
27B
331
20A
  5
25C
331
1B3
  5
243
331
17C
  5
1B0
331
97
  5
FB
331
329
  5
3B3
331
2F2
  5
33A
331
2B3
  5
2E7
331
27C
  5
2B0
331
23D
  5
277
331
1AF
  5
23F
331
178
  5
1AC
331
93
  5
F5
331
278
  5
2AC
331
239
  5
273
331
1FA
  5
25A
331
1AB
  5
23B
331
11D
  5
181
331
119
  5
17F
331
127D
  5
F2
331
1246
  5
93
331
1279
  5
1082
331
1242
  5
B2
331
1275
  5
1086
331
1271
  5
108A
331
123A
  5
E1
331
7CD
  5
106C
331
C47
  5
10D0
331
920
  5
10B1
331
7C9
  5
1068
331
91C
  5
10AD
331
10CD
  5
1256
331
10C9
  5
1252
331
1104
  5
128D
331
10C5
  5
124E
331
108E
  5
110C
331
1100
  5
1289
331
10C1
  5
124A
331
108A
  5
1108
331
3DE
  5
90E
331
DD
  5
11B
331
3DA
  5
7DB
331
D9
  5
116
331
3D6
  5
7D7
331
114
  5
17A
331
39F
  5
48C
331
2EA
  5
338
331
274
  5
2A8
331
3D2
  5
7D3
331
110
  5
176
331
39B
  5
3E9
331
325
  5
392
331
2E6
  5
334
331
2AF
  5
2E3
331
270
  5
2A4
331
1F2
  5
258
331
16C
  5
1A6
331
321
  5
38E
331
2E2
  5
330
331
2AB
  5
2DF
331
26C
  5
2A0
331
235
  5
26F
331
1EE
  5
254
331
1A7
  5
237
331
168
  5
1A2
331
268
  5
29C
331
1EA
  5
250
331
1A3
  5
22F
331
164
  5
19E
331
1236
  5
ED
331
126D
  5
1092
331
1269
  5
1096
331
910
  5
10A9
331
10FC
  5
1285
331
10BD
  5
1246
331
1086
  5
1104
331
10F8
  5
1281
331
10B9
  5
1242
331
1082
  5
1100
331
10F4
  5
127D
331
10B5
  5
123E
331
107E
  5
10FC
331
10F0
  5
1279
331
10B1
  5
123A
331
107A
  5
10F8
331
60D
  5
1062
331
C37
  5
10CC
331
3CE
  5
7CF
331
609
  5
B54
331
108
  5
16C
331
3CA
  5
7CB
331
31D
  5
38A
331
2DE
  5
32C
331
2A7
  5
2DB
331
605
  5
B50
331
104
  5
168
331
319
  5
386
331
2DA
  5
326
331
2A3
  5
2D7
331
264
  5
298
331
22D
  5
26B
331
19F
  5
22B
331
3C2
  5
6B0
331
601
  5
35E
331
100
  5
164
331
315
  5
381
331
2D6
  5
322
331
29F
  5
2D3
331
260
  5
294
331
229
  5
267
331
19B
  5
227
331
348
  5
3D3
331
311
  5
353
331
2D2
  5
31E
331
29B
  5
2CF
331
25C
  5
290
331
225
  5
263
331
197
  5
21B
331
140
  5
19A
331
258
  5
28C
331
193
  5
20B
331
13C
  5
196
331
138
  5
192
331
1265
  5
109A
331
1261
  5
109E
331
1298
  5
1091
331
125D
  5
10A2
331
1294
  5
9A
331
1259
  5
10A6
331
1290
  5
A6
331
B5B
  5
10C7
331
B53
  5
10C2
331
8D8
  5
107D
331
10EC
  5
1275
331
10AD
  5
1236
331
1076
  5
10F4
331
10E8
  5
1271
331
10A9
  5
1232
331
1072
  5
10F0
331
10E4
  5
126D
331
10A5
  5
122E
331
106E
  5
10EC
331
10E0
  5
1269
331
10A1
  5
122A
331
106A
  5
10E8
331
3BE
  5
60A
331
5FD
  5
35A
331
3BA
  5
606
331
5F9
  5
356
331
B1
  5
114
331
344
  5
3CF
331
30D
  5
34F
331
2CE
  5
30E
331
297
  5
2CB
331
F4
  5
13C
331
3B6
  5
602
331
AD
  5
111
331
340
  5
3CB
331
309
  5
34B
331
2CA
  5
30A
331
293
  5
2C7
331
254
  5
288
331
18F
  5
1F3
331
37B
  5
3E6
331
F0
  5
138
331
33C
  5
3C6
331
305
  5
347
331
2C6
  5
306
331
28F
  5
2C3
331
250
  5
284
331
18B
  5
1EF
331
134
  5
18E
331
338
  5
3C2
331
301
  5
343
331
2C2
  5
302
331
28B
  5
2BF
331
187
  5
1EB
331
130
  5
18A
331
248
  5
282
331
183
  5
1B7
331
12C
  5
186
331
1255
  5
10BC
331
128C
  5
DF
331
1251
  5
10C8
331
1288
  5
E6
331
124D
  5
10D7
331
1284
  5
E8
331
1280
  5
EF
331
B4F
  5
10BE
331
7D8
  5
1079
331
7D4
  5
1075
331
7D0
  5
106F
331
10DC
  5
1265
331
109D
  5
1226
331
1066
  5
10E4
331
10D8
  5
1261
331
1099
  5
1222
331
1062
  5
10E0
331
10D4
  5
125D
331
1095
  5
121E
331
105E
  5
10DC
331
10D0
  5
1259
331
1091
  5
1115
331
1114
  5
1297
331
105A
  5
10D5
331
110C
  5
1295
331
1108
  5
1291
331
EC
  5
134
331
3AE
  5
5EA
331
A5
  5
10E
331
377
  5
3E2
331
E8
  5
130
331
3E9
  5
921
331
A1
  5
106
331
3AA
  5
5E6
331
373
  5
3DC
331
334
  5
3BE
331
2FD
  5
33F
331
2BE
  5
2FE
331
287
  5
2BB
331
E4
  5
12C
331
3E5
  5
91D
331
9D
  5
102
331
3A6
  5
5E0
331
36F
  5
3D8
331
330
  5
3BA
331
2F9
  5
33B
331
2BA
  5
2FA
331
283
  5
2B7
331
244
  5
27E
331
1B6
  5
246
331
17F
  5
1B3
331
E0
  5
123
331
3E1
  5
911
331
99
  5
FE
331
3A2
  5
48F
331
36B
  5
3D5
331
32C
  5
3B6
331
2B6
  5
2EA
331
27F
  5
2B3
331
240
  5
27A
331
1B2
  5
242
331
17B
  5
1AF
331
328
  5
3B2
331
2F1
  5
339
331
2B2
  5
2E6
331
27B
  5
2AF
331
23C
  5
276
331
1AE
  5
23E
331
177
  5
1AB
331
238
  5
272
331
1AA
  5
23A
331
118
  5
17E
331
127C
  5
F1
331
1278
  5
1081
331
1241
  5
AD
331
1274
  5
1085
331
1270
  5
1089
331
927
  5
10B7
331
923
  5
10B4
331
7CC
  5
106B
331
C46
  5
10CF
331
91F
  5
10B0
331
7C8
  5
1067
331
91B
  5
10AC
331
10CC
  5
1255
331
1107
  5
1290
331
10C8
  5
1251
331
1103
  5
128C
331
10C4
  5
124D
331
108D
  5
110B
331
10C0
  5
1249
331
1089
  5
1107
331
DC
  5
119
331
3D9
  5
7DA
331
117
  5
17D
331
277
  5
2AB
331
3D5
  5
7D6
331
113
  5
179
331
39E
  5
3F7
331
2E9
  5
337
331
273
  5
2A7
331
6B1
  5
1065
331
3D1
  5
7D2
331
39A
  5
3E8
331
324
  5
391
331
2E5
  5
333
331
2AE
  5
2E2
331
26F
  5
2A3
331
1F1
  5
257
331
16B
  5
1A5
331
320
  5
38D
331
2E1
  5
32F
331
2AA
  5
2DE
331
26B
  5
29F
331
1ED
  5
253
331
1A6
  5
236
331
167
  5
1A1
331
230
  5
26E
331
1A2
  5
22E
331
1235
  5
EC
331
126C
  5
1095
331
1268
  5
1099
331
90F
  5
10A8
331
10FF
  5
1288
331
10FB
  5
1284
331
10BC
  5
1245
331
1085
  5
1103
331
10F7
  5
1280
331
10B8
  5
1241
331
1081
  5
10FF
331
10F3
  5
127C
331
10B4
  5
123D
331
107D
  5
10FB
331
10B0
  5
1239
331
1079
  5
10F7
331
10F
  5
175
331
60C
  5
1061
331
3CD
  5
7CE
331
608
  5
B53
331
107
  5
16B
331
3C9
  5
7CA
331
31C
  5
389
331
2DD
  5
32B
331
2A6
  5
2DA
331
267
  5
29B
331
604
  5
B4F
331
103
  5
167
331
3C5
  5
7C8
331
318
  5
385
331
2D9
  5
325
331
2A2
  5
2D6
331
263
  5
297
331
22C
  5
26A
331
19E
  5
22A
331
3C1
  5
6AF
331
600
  5
35D
331
314
  5
35F
331
2D5
  5
321
331
29E
  5
2D2
331
25F
  5
293
331
C4A
  5
10D2
331
228
  5
266
331
19A
  5
226
331
143
  5
19D
331
310
  5
352
331
2D1
  5
311
331
29A
  5
2CE
331
25B
  5
28F
331
224
  5
262
331
5F7
  5
354
331
196
  5
21A
331
13F
  5
199
331
192
  5
20A
331
13B
  5
195
331
1264
  5
109D
331
1260
  5
10A1
331
1297
  5
1090
331
125C
  5
10A5
331
1293
  5
A2
331
1258
  5
10BA
331
B5A
  5
10C6
331
B52
  5
10C1
331
10EF
  5
1278
331
10EB
  5
1274
331
10AC
  5
1235
331
1075
  5
10F3
331
10E7
  5
1270
331
10A8
  5
1231
331
1071
  5
10EF
331
10E3
  5
126C
331
10A4
  5
122D
331
106D
  5
10EB
331
10A0
  5
1229
331
1069
  5
10E7
331
FF
  5
143
331
3BD
  5
609
331
5FC
  5
359
331
FB
  5
140
331
347
  5
3D2
331
3B9
  5
605
331
5F8
  5
355
331
B0
  5
113
331
343
  5
3CE
331
30C
  5
34E
331
2CD
  5
30D
331
296
  5
2CA
331
257
  5
28B
331
3B5
  5
5F9
331
F3
  5
13B
331
33F
  5
3CA
331
308
  5
34A
331
2C9
  5
309
331
292
  5
2C6
331
253
  5
287
331
18E
  5
1F2
331
137
  5
191
331
3B1
  5
5ED
331
37A
  5
3E5
331
33B
  5
3C5
331
304
  5
346
331
2C5
  5
305
331
28E
  5
2C2
331
24F
  5
283
331
18A
  5
1EE
331
133
  5
18D
331
300
  5
342
331
2C1
  5
301
331
28A
  5
2BE
331
186
  5
1EA
331
12F
  5
189
331
1B9
  5
24F
331
182
  5
1B6
331
12B
  5
185
331
128F
  5
DB
331
1254
  5
10BB
331
128B
  5
DD
331
1250
  5
10CB
331
1287
  5
E5
331
124C
  5
10DA
331
1283
  5
E7
331
1248
  5
95
331
7DB
  5
107C
331
7D7
  5
1078
331
7D3
  5
1074
331
10DF
  5
1268
331
10DB
  5
1264
331
109C
  5
1225
331
1065
  5
10E3
331
10D7
  5
1260
331
1098
  5
1221
331
1061
  5
10DF
331
10D3
  5
125C
331
1094
  5
121D
331
105D
  5
10DB
331
1090
  5
1114
331
110B
  5
1294
331
EF
  5
137
331
EB
  5
133
331
3AD
  5
5E9
331
A4
  5
10D
331
376
  5
3E1
331
337
  5
3C1
331
E7
  5
12F
331
3E8
  5
920
331
A0
  5
105
331
3A9
  5
5E5
331
372
  5
3DB
331
333
  5
3BD
331
2FC
  5
33E
331
2BD
  5
2FD
331
286
  5
2BA
331
247
  5
281
331
E3
  5
12B
331
3E4
  5
91C
331
9C
  5
101
331
3A5
  5
492
331
36E
  5
3D7
331
32F
  5
3B9
331
2B9
  5
2F9
331
282
  5
2B6
331
243
  5
27D
331
1B5
  5
245
331
17E
  5
1B2
331
3E0
  5
910
331
98
  5
FD
331
3A1
  5
48E
331
36A
  5
3D4
331
32B
  5
3B5
331
2B5
  5
2E9
331
27E
  5
2B2
331
23F
  5
279
331
1B1
  5
241
331
17A
  5
1AE
331
123
  5
182
331
95
  5
F9
331
2B1
  5
2E5
331
27A
  5
2AE
331
23B
  5
275
331
1AD
  5
23D
331
176
  5
1AA
331
1A9
  5
239
331
11B
  5
180
331
127F
  5
EE
331
127B
  5
F4
331
1277
  5
1084
331
1240
  5
A7
331
1273
  5
1088
331
123C
  5
E3
331
926
  5
10B6
331
7CF
  5
106E
331
DF1
  5
10D4
331
922
  5
10B3
331
7CB
  5
106A
331
91E
  5
10AF
331
7C7
  5
1066
331
10CF
  5
1258
331
10CB
  5
1254
331
1106
  5
128F
331
10C7
  5
1250
331
1102
  5
128B
331
10C3
  5
124C
331
108C
  5
110A
331
1088
  5
1106
331
DF
  5
11D
331
3DC
  5
8D9
331
DB
  5
118
331
3D8
  5
7D9
331
116
  5
17C
331
276
  5
2AA
331
3D4
  5
7D5
331
112
  5
178
331
39D
  5
3EB
331
327
  5
3B1
331
2E8
  5
336
331
272
  5
2A6
331
16E
  5
1A8
331
6B0
  5
1064
331
3D0
  5
7D1
331
323
  5
390
331
2E4
  5
332
331
2AD
  5
2E1
331
26E
  5
2A2
331
237
  5
271
331
1F0
  5
256
331
16A
  5
1A4
331
2E0
  5
32E
331
2A9
  5
2DD
331
26A
  5
29E
331
1EC
  5
252
331
1A5
  5
235
331
166
  5
1A0
331
1A1
  5
22D
331
1234
  5
EB
331
126F
  5
108E
331
126B
  5
1094
331
912
  5
10AB
331
90E
  5
10A7
331
C39
  5
10CE
331
10FE
  5
1287
331
10BF
  5
1248
331
10FA
  5
1283
331
10BB
  5
1244
331
1084
  5
1102
331
10F6
  5
127F
331
10B7
  5
1240
331
1080
  5
10FE
331
10F2
  5
127B
331
10B3
  5
123C
331
107C
  5
10FA
331
1078
  5
10F6
331
10E
  5
16E
331
3CC
  5
7CD
331
31F
  5
38C
331
607
  5
B52
331
106
  5
16A
331
3C8
  5
7C9
331
31B
  5
388
331
2DC
  5
328
331
2A5
  5
2D9
331
266
  5
29A
331
22F
  5
26D
331
603
  5
927
331
102
  5
166
331
3C4
  5
7C7
331
317
  5
384
331
2D8
  5
324
331
2A1
  5
2D5
331
262
  5
296
331
22B
  5
269
331
19D
  5
229
331
3C0
  5
60D
331
2D4
  5
320
331
29D
  5
2D1
331
25E
  5
292
331
227
  5
265
331
199
  5
225
331
142
  5
19C
331
2D0
  5
310
331
299
  5
2CD
331
25A
  5
28E
331
195
  5
213
331
13E
  5
198
331
191
  5
1FB
331
13A
  5
194
331
1267
  5
1098
331
1263
  5
109C
331
125F
  5
10A0
331
1296
  5
9C
331
125B
  5
10A4
331
1292
  5
A1
331
B55
  5
10C4
331
B51
  5
10C0
331
10EE
  5
1277
331
10AF
  5
1238
331
10EA
  5
1273
331
10AB
  5
1234
331
1074
  5
10F2
331
10E6
  5
126F
331
10A7
  5
1230
331
1070
  5
10EE
331
10E2
  5
126B
331
10A3
  5
122C
331
106C
  5
10EA
331
1068
  5
10E6
331
5FF
  5
35C
331
FE
  5
142
331
3BC
  5
608
331
5FB
  5
358
331
346
  5
3D1
331
30F
  5
351
331
3F7
  5
925
331
F6
  5
13E
331
3B8
  5
604
331
342
  5
3CD
331
30B
  5
34D
331
2CC
  5
30C
331
295
  5
2C9
331
256
  5
28A
331
3B4
  5
5F8
331
F2
  5
13A
331
33E
  5
3C8
331
307
  5
349
331
2C8
  5
308
331
291
  5
2C5
331
252
  5
286
331
21B
  5
261
331
18D
  5
1F1
331
136
  5
190
331
3B0
  5
5EC
331
379
  5
3E4
331
33A
  5
3C4
331
303
  5
345
331
2C4
  5
304
331
28D
  5
2C1
331
189
  5
1ED
331
132
  5
18C
331
2C0
  5
300
331
289
  5
2BD
331
213
  5
25F
331
185
  5
1B9
331
12E
  5
188
331
1B8
  5
248
331
181
  5
1B5
331
12A
  5
184
331
1257
  5
10B9
331
128E
  5
DA
331
1253
  5
10CA
331
128A
  5
DC
331
124F
  5
10D9
331
1286
  5
E4
331
1282
  5
EA
331
7DA
  5
107B
331
7D6
  5
1077
331
7D2
  5
1071
331
10DE
  5
1267
331
109F
  5
1228
331
10DA
  5
1263
331
109B
  5
1224
331
1064
  5
10E2
331
10D6
  5
125F
331
1097
  5
1220
331
1060
  5
10DE
331
10D2
  5
125B
331
1093
  5
121C
331
110A
  5
1293
331
EE
  5
136
331
A7
  5
110
331
EA
  5
132
331
3EB
  5
923
331
A3
  5
108
331
3AC
  5
5E8
331
375
  5
3E0
331
336
  5
3C0
331
2FF
  5
341
331
E6
  5
12E
331
3E7
  5
91F
331
9F
  5
104
331
3A8
  5
5E4
331
371
  5
3DA
331
332
  5
3BC
331
2FB
  5
33D
331
2BC
  5
2FC
331
285
  5
2B9
331
246
  5
280
331
E2
  5
12A
331
3E3
  5
91B
331
9B
  5
100
331
3A4
  5
491
331
36D
  5
3D6
331
32E
  5
3B8
331
2B8
  5
2F2
331
281
  5
2B5
331
242
  5
27C
331
20B
  5
25D
331
1B4
  5
244
331
17D
  5
1B1
331
3A0
  5
48D
331
32A
  5
3B4
331
2B4
  5
2E8
331
27D
  5
2B1
331
23E
  5
278
331
1B0
  5
240
331
179
  5
1AD
331
94
  5
F6
331
2B0
  5
2E4
331
279
  5
2AD
331
23A
  5
274
331
1FB
  5
25B
331
1AC
  5
23C
331
175
  5
1A9
331
1A8
  5
238
331
127E
  5
F3
331
1247
  5
94
331
127A
  5
1083
331
1276
  5
1087
331
1272
  5
108B
331
123B
  5
E2
331
925
  5
10B5
331
7CE
  5
106D
331
DF0
  5
10D3
331
921
  5
10B2
331
7CA
  5
1069
331
91D
  5
10AE
331
10CE
  5
1257
331
10CA
  5
1253
331
1105
  5
128E
331
10C6
  5
124F
331
108F
  5
110D
331
1101
  5
128A
331
10C2
  5
124B
331
108B
  5
1109
331
3DF
  5
90F
331
3DB
  5
8D8
331
DA
  5
117
331
3D7
  5
7D8
331
115
  5
17B
331
275
  5
2A9
331
3D3
  5
7D4
331
111
  5
177
331
39C
  5
3EA
331
326
  5
393
331
2E7
  5
335
331
271
  5
2A5
331
1F3
  5
259
331
16D
  5
1A7
331
322
  5
38F
331
2E3
  5
331
331
2AC
  5
2E0
331
26D
  5
2A1
331
236
  5
270
331
1EF
  5
255
331
169
  5
1A3
331
2A8
  5
2DC
331
269
  5
29D
331
1EB
  5
251
331
1A4
  5
230
331
165
  5
19F
331
1A0
  5
22C
331
126A
  5
1093
331
911
  5
10AA
331
C38
  5
10CD
331
10FD
  5
1286
331
10BE
  5
1247
331
1087
  5
1105
  0
XRECORD
  5
129E
102
{ACAD_REACTORS
330
129C
102
}
330
129C
100
AcDbXrecord
280
     1
 70
     2
  0
XRECORD
  5
129D
102
{ACAD_REACTORS
330
129C
102
}
330
129C
100
AcDbXrecord
280
     1
 40
1.25
  0
XRECORD
  5
129F
102
{ACAD_REACTORS
330
129C
102
}
330
129C
100
AcDbXrecord
280
     1
 40
1.570796326794896
  0
LAYOUT
  5
39
102
{ACAD_XDICTIONARY
360
12C3
102
}
102
{ACAD_REACTORS
330
2E
102
}
330
2E
100
AcDbPlotSettings
  1

  2
none_device
  4
Letter_(8.50_x_11.00_Inches)
  6

 40
6.349999904632567
 41
6.349999904632567
 42
6.350006103515625
 43
6.350006103515625
 44
215.8999938964844
 45
279.3999938964844
 46
0.0
 47
0.0
 48
0.0
 49
0.0
140
0.0
141
0.0
142
1.0
143
72.75933196723214
 70
 11952
 72
     0
 73
     1
 74
     0
  7

 75
     0
147
0.0137439414706331
148
10485.60413031026
149
5856.248972337033
100
AcDbLayout
  1
Model
 70
     1
 71
     0
 10
0.0
 20
0.0
 11
12.0
 21
9.0
 12
0.0
 22
0.0
 32
0.0
 14
0.0
 24
0.0
 34
0.0
 15
0.0
 25
0.0
 35
0.0
146
0.0
 13
0.0
 23
0.0
 33
0.0
 16
1.0
 26
0.0
 36
0.0
 17
0.0
 27
1.0
 37
0.0
 76
     0
330
36
331
56
1001
ACAD_PSEXT
1000
なし
1000
なし
1000
適切ではありません
1000
新しいプロッタ環境設定名を選択しない限り、レイアウトは印刷されません。
1070
     0
  0
LAYOUT
  5
35
102
{ACAD_XDICTIONARY
360
12C1
102
}
102
{ACAD_REACTORS
330
2E
102
}
330
2E
100
AcDbPlotSettings
  1

  2
DocuPrint 305
  4

  6

 40
0.0
 41
0.0
 42
0.0
 43
0.0
 44
0.0
 45
0.0
 46
0.0
 47
0.0
 48
0.0
 49
0.0
140
0.0
141
0.0
142
1.0
143
1.0
 70
   688
 72
     0
 73
     0
 74
     5
  7

 75
    16
147
1.0
148
0.0
149
0.0
100
AcDbLayout
  1
レイアウト1
 70
     1
 71
     1
 10
0.0
 20
0.0
 11
12.0
 21
9.0
 12
0.0
 22
0.0
 32
0.0
 14
1.000000000000000E+20
 24
1.000000000000000E+20
 34
1.000000000000000E+20
 15
-1.000000000000000E+20
 25
-1.000000000000000E+20
 35
-1.000000000000000E+20
146
0.0
 13
0.0
 23
0.0
 33
0.0
 16
1.0
 26
0.0
 36
0.0
 17
0.0
 27
1.0
 37
0.0
 76
     0
330
32
  0
MATERIAL
  5
12
102
{ACAD_XDICTIONARY
360
618
102
}
102
{ACAD_REACTORS
330
10
102
}
330
10
100
AcDbMaterial
  1
ByBlock
  0
MATERIAL
  5
11
102
{ACAD_XDICTIONARY
360
616
102
}
102
{ACAD_REACTORS
330
10
102
}
330
10
100
AcDbMaterial
  1
ByLayer
  0
MATERIAL
  5
13
102
{ACAD_XDICTIONARY
360
61A
102
}
102
{ACAD_REACTORS
330
10
102
}
330
10
100
AcDbMaterial
  1
Global
  0
MLEADERSTYLE
  5
6DE
102
{ACAD_REACTORS
330
6DD
102
}
330
6DD
100
AcDbMLeaderStyle
170
     2
171
     1
172
     0
 90
        2
 40
0.0
 41
0.0
173
     1
 91
-1056964608
340
28
 92
       -2
290
     1
 42
0.09
291
     1
 43
0.36
  3
Standard
 44
0.18
300

342
26
174
     1
178
     6
175
     1
176
     0
 93
-1056964608
 45
0.18
292
     0
297
     0
 46
0.18
 94
-1056964608
 47
1.0
 49
1.0
140
1.0
293
     1
141
0.0
294
     1
177
     0
142
1.0
295
     0
296
     0
143
0.125
1001
ACAD_MLEADERVER
1070
     2
  0
MLINESTYLE
  5
2C
102
{ACAD_REACTORS
330
2B
102
}
330
2B
100
AcDbMlineStyle
  2
STANDARD
 70
     0
  3

 62
   256
 51
90.0
 52
90.0
 71
     2
 49
0.5
 62
   256
  6
BYLAYER
 49
-0.5
 62
   256
  6
BYLAYER
  0
ACDBPLACEHOLDER
  5
F
102
{ACAD_REACTORS
330
E
102
}
330
E
  0
SCALE
  5
6CC
102
{ACAD_REACTORS
330
6CB
102
}
330
6CB
100
AcDbScale
 70
     0
300
1:1
140
1.0
141
1.0
290
     1
  0
SCALE
  5
6CD
102
{ACAD_REACTORS
330
6CB
102
}
330
6CB
100
AcDbScale
 70
     0
300
1/128" = 1'-0"
140
0.0078125
141
12.0
290
     0
  0
SCALE
  5
6CE
102
{ACAD_REACTORS
330
6CB
102
}
330
6CB
100
AcDbScale
 70
     0
300
1/64" = 1'-0"
140
0.015625
141
12.0
290
     0
  0
SCALE
  5
6CF
102
{ACAD_REACTORS
330
6CB
102
}
330
6CB
100
AcDbScale
 70
     0
300
1/32" = 1'-0"
140
0.03125
141
12.0
290
     0
  0
SCALE
  5
6D0
102
{ACAD_REACTORS
330
6CB
102
}
330
6CB
100
AcDbScale
 70
     0
300
1/16" = 1'-0"
140
0.0625
141
12.0
290
     0
  0
SCALE
  5
6D1
102
{ACAD_REACTORS
330
6CB
102
}
330
6CB
100
AcDbScale
 70
     0
300
3/32" = 1'-0"
140
0.09375
141
12.0
290
     0
  0
SCALE
  5
6D2
102
{ACAD_REACTORS
330
6CB
102
}
330
6CB
100
AcDbScale
 70
     0
300
1/8" = 1'-0"
140
0.125
141
12.0
290
     0
  0
SCALE
  5
6D3
102
{ACAD_REACTORS
330
6CB
102
}
330
6CB
100
AcDbScale
 70
     0
300
3/16" = 1'-0"
140
0.1875
141
12.0
290
     0
  0
SCALE
  5
6D4
102
{ACAD_REACTORS
330
6CB
102
}
330
6CB
100
AcDbScale
 70
     0
300
1/4" = 1'-0"
140
0.25
141
12.0
290
     0
  0
SCALE
  5
6D5
102
{ACAD_REACTORS
330
6CB
102
}
330
6CB
100
AcDbScale
 70
     0
300
3/8" = 1'-0"
140
0.375
141
12.0
290
     0
  0
SCALE
  5
6D6
102
{ACAD_REACTORS
330
6CB
102
}
330
6CB
100
AcDbScale
 70
     0
300
1/2" = 1'-0"
140
0.5
141
12.0
290
     0
  0
SCALE
  5
6D7
102
{ACAD_REACTORS
330
6CB
102
}
330
6CB
100
AcDbScale
 70
     0
300
3/4" = 1'-0"
140
0.75
141
12.0
290
     0
  0
SCALE
  5
6D8
102
{ACAD_REACTORS
330
6CB
102
}
330
6CB
100
AcDbScale
 70
     0
300
1" = 1'-0"
140
1.0
141
12.0
290
     0
  0
SCALE
  5
6D9
102
{ACAD_REACTORS
330
6CB
102
}
330
6CB
100
AcDbScale
 70
     0
300
1-1/2" = 1'-0"
140
1.5
141
12.0
290
     0
  0
SCALE
  5
6DA
102
{ACAD_REACTORS
330
6CB
102
}
330
6CB
100
AcDbScale
 70
     0
300
3" = 1'-0"
140
3.0
141
12.0
290
     0
  0
SCALE
  5
6DB
102
{ACAD_REACTORS
330
6CB
102
}
330
6CB
100
AcDbScale
 70
     0
300
6" = 1'-0"
140
6.0
141
12.0
290
     0
  0
SCALE
  5
6DC
102
{ACAD_REACTORS
330
6CB
102
}
330
6CB
100
AcDbScale
 70
     0
300
1'-0" = 1'-0"
140
12.0
141
12.0
290
     0
  0
TABLESTYLE
  5
31
102
{ACAD_XDICTIONARY
360
9A2
102
}
102
{ACAD_REACTORS
330
30
102
}
330
30
100
AcDbTableStyle
  3
Standard
 70
     0
 71
     0
 40
0.06
 41
0.06
280
     0
281
     0
  7
STANDARD
140
0.18
170
     2
 62
     0
 63
     7
283
     0
274
    -2
284
     1
 64
     0
275
    -2
285
     1
 65
     0
276
    -2
286
     1
 66
     0
277
    -2
287
     1
 67
     0
278
    -2
288
     1
 68
     0
279
    -2
289
     1
 69
     0
  7
STANDARD
140
0.25
170
     5
 62
     0
 63
     7
283
     0
274
    -2
284
     1
 64
     0
275
    -2
285
     1
 65
     0
276
    -2
286
     1
 66
     0
277
    -2
287
     1
 67
     0
278
    -2
288
     1
 68
     0
279
    -2
289
     1
 69
     0
  7
STANDARD
140
0.18
170
     5
 62
     0
 63
     7
283
     0
274
    -2
284
     1
 64
     0
275
    -2
285
     1
 65
     0
276
    -2
286
     1
 66
     0
277
    -2
287
     1
 67
     0
278
    -2
288
     1
 68
     0
279
    -2
289
     1
 69
     0
  0
VISUALSTYLE
  5
1A
102
{ACAD_XDICTIONARY
360
12AA
102
}
102
{ACAD_REACTORS
330
14
102
}
330
14
100
AcDbVisualStyle
  2

 70
     4
 71
     0
 72
     2
 73
     0
 90
        0
 40
-0.6
 41
-30.0
 62
     5
 63
     7
 74
     1
 91
        4
 64
     7
 65
   257
 75
     1
175
     1
 42
1.0
 92
        0
 66
   257
 43
1.0
 76
     1
 77
     6
 78
     2
 67
     7
 79
     5
170
     0
171
     0
290
     0
174
     0
 93
        1
 44
0.0
173
     0
291
     0
 45
0.0
1001
ACAD
1000
AcDbSavedByObjectVersion
1070
     0
  0
VISUALSTYLE
  5
1C
102
{ACAD_XDICTIONARY
360
12AE
102
}
102
{ACAD_REACTORS
330
14
102
}
330
14
100
AcDbVisualStyle
  2

 70
     6
 71
     1
 72
     2
 73
     2
 90
        0
 40
-0.6
 41
-30.0
 62
     5
 63
     7
 74
     2
 91
        2
 64
     7
 65
   257
 75
     2
175
     1
 42
40.0
 92
        0
 66
   257
 43
1.0
 76
     1
 77
     6
 78
     2
 67
     7
 79
     3
170
     0
171
     0
290
     0
174
     0
 93
        1
 44
0.0
173
     0
291
     0
 45
0.0
1001
ACAD
1000
AcDbSavedByObjectVersion
1070
     0
  0
VISUALSTYLE
  5
1B
102
{ACAD_XDICTIONARY
360
12AC
102
}
102
{ACAD_REACTORS
330
14
102
}
330
14
100
AcDbVisualStyle
  2

 70
     5
 71
     0
 72
     2
 73
     0
 90
        0
 40
-0.6
 41
-30.0
 62
     5
 63
     7
 74
     1
 91
        4
 64
     7
 65
   257
 75
     1
175
     1
 42
1.0
 92
        0
 66
   257
 43
1.0
 76
     1
 77
     6
 78
     2
 67
     7
 79
     5
170
     0
171
     0
290
     0
174
     0
 93
        1
 44
0.0
173
     0
291
     0
 45
0.0
1001
ACAD
1000
AcDbSavedByObjectVersion
1070
     0
  0
VISUALSTYLE
  5
19
102
{ACAD_XDICTIONARY
360
12A8
102
}
102
{ACAD_REACTORS
330
14
102
}
330
14
100
AcDbVisualStyle
  2

 70
     7
 71
     1
 72
     0
 73
     1
 90
        0
 40
-0.6
 41
-30.0
 62
     5
 63
     7
 74
     0
 91
        4
 64
     7
 65
   257
 75
     1
175
     1
 42
1.0
 92
        8
 66
     7
 43
1.0
 76
     1
 77
     6
 78
     2
 67
     7
 79
     5
170
     0
171
     0
290
     0
174
     0
 93
        1
 44
0.0
173
     0
291
     1
 45
0.0
1001
ACAD
1000
AcDbSavedByObjectVersion
1070
     0
  0
VISUALSTYLE
  5
20
102
{ACAD_XDICTIONARY
360
12B6
102
}
102
{ACAD_REACTORS
330
14
102
}
330
14
100
AcDbVisualStyle
  2

 70
    12
 71
     2
 72
     2
 73
     0
 90
        0
 40
-0.6
 41
-30.0
 62
     5
 63
     7
 74
     1
 91
        4
 64
     7
 65
   257
 75
     1
175
     1
 42
1.0
 92
        8
 66
     7
 43
1.0
 76
     1
 77
     6
 78
     2
 67
     7
 79
     5
170
     0
171
     0
290
     0
174
     0
 93
        1
 44
50.0
173
     0
291
     1
 45
0.0
1001
ACAD
1000
AcDbSavedByObjectVersion
1070
     0
  0
VISUALSTYLE
  5
24
102
{ACAD_XDICTIONARY
360
12BE
102
}
102
{ACAD_REACTORS
330
14
102
}
330
14
100
AcDbVisualStyle
  2

 70
    16
 71
     2
 72
     2
 73
     3
 90
        0
 40
-0.6
 41
-30.0
 62
     5
 63
     8
 74
     1
 91
        4
 64
     7
 65
   257
 75
     1
175
     1
 42
1.0
 92
        8
 66
     8
 43
1.0
 76
     1
 77
     6
 78
     2
 67
     7
 79
     5
170
     0
171
     0
290
     0
174
     0
 93
        1
 44
0.0
173
     0
291
     1
 45
0.0
1001
ACAD
1000
AcDbSavedByObjectVersion
1070
     0
  0
VISUALSTYLE
  5
1D
102
{ACAD_XDICTIONARY
360
12B0
102
}
102
{ACAD_REACTORS
330
14
102
}
330
14
100
AcDbVisualStyle
  2

 70
     9
 71
     3
 72
     2
 73
     0
 90
        0
 40
-0.6
 41
-30.0
 62
     5
 63
     7
 74
     2
 91
        2
 64
     7
 65
   257
 75
     1
175
     1
 42
40.0
 92
        8
 66
     7
 43
1.0
 76
     1
 77
     6
 78
     2
 67
     7
 79
     3
170
     0
171
     0
290
     0
174
     0
 93
        1
 44
0.0
173
     0
291
     0
 45
0.0
1001
ACAD
1000
AcDbSavedByObjectVersion
1070
     0
  0
VISUALSTYLE
  5
1F
102
{ACAD_XDICTIONARY
360
12B4
102
}
102
{ACAD_REACTORS
330
14
102
}
330
14
100
AcDbVisualStyle
  2

 70
    11
 71
     2
 72
     2
 73
     0
 90
        0
 40
-0.6
 41
-30.0
 62
     5
 63
     7
 74
     1
 91
        4
 64
     7
 65
   257
 75
     1
175
     1
 42
1.0
 92
        8
 66
     7
 43
1.0
 76
     1
 77
     6
 78
     2
 67
     7
 79
     5
170
     0
171
     0
290
     0
174
     0
 93
        1
 44
-50.0
173
     0
291
     1
 45
0.0
1001
ACAD
1000
AcDbSavedByObjectVersion
1070
     0
  0
VISUALSTYLE
  5
6CA
102
{ACAD_XDICTIONARY
360
12D7
102
}
102
{ACAD_REACTORS
330
14
102
}
330
14
100
AcDbVisualStyle
  2

 70
    22
 71
     2
 72
     2
 73
     0
 90
        0
 40
-0.6
 41
-30.0
 62
     5
 63
     7
 74
     1
 91
        4
 64
     7
 65
   257
 75
     1
175
     1
 42
1.0
 92
        8
 66
     7
 43
1.0
 76
     1
 77
     6
 78
     2
 67
     7
 79
     5
170
     0
171
     0
290
     0
174
     0
 93
        1
 44
0.0
173
     0
291
     1
 45
0.0
1001
ACAD
1000
AcDbSavedByObjectVersion
1070
     0
  0
VISUALSTYLE
  5
23
102
{ACAD_XDICTIONARY
360
12BC
102
}
102
{ACAD_REACTORS
330
14
102
}
330
14
100
AcDbVisualStyle
  2

 70
    15
 71
     2
 72
     2
 73
     0
 90
        0
 40
-0.6
 41
-30.0
 62
     5
 63
     7
 74
     1
 91
        4
 64
     7
 65
   257
 75
     1
175
     1
 42
1.0
 92
        8
 66
     7
 43
1.0
 76
     1
 77
     6
 78
     2
 67
     7
 79
     5
170
     0
171
     0
290
     0
174
     0
 93
        1
 44
0.0
173
     0
291
     1
 45
0.0
1001
ACAD
1000
AcDbSavedByObjectVersion
1070
     0
  0
VISUALSTYLE
  5
15
102
{ACAD_XDICTIONARY
360
12A0
102
}
102
{ACAD_REACTORS
330
14
102
}
330
14
100
AcDbVisualStyle
  2

 70
     0
 71
     2
 72
     1
 73
     1
 90
        2
 40
-0.6
 41
30.0
 62
     5
 63
     7
 74
     0
 91
        4
 64
     7
 65
   257
 75
     1
175
     1
 42
1.0
 92
        8
 66
     7
 43
1.0
 76
     1
 77
     6
 78
     2
 67
     7
 79
     5
170
     0
171
     0
290
     0
174
     0
 93
       13
 44
0.0
173
     0
291
     1
 45
0.0
1001
ACAD
1000
AcDbSavedByObjectVersion
1070
     0
  0
VISUALSTYLE
  5
16
102
{ACAD_XDICTIONARY
360
12A2
102
}
102
{ACAD_REACTORS
330
14
102
}
330
14
100
AcDbVisualStyle
  2

 70
     1
 71
     2
 72
     1
 73
     1
 90
        2
 40
-0.6
 41
30.0
 62
     5
 63
     7
 74
     1
 91
        4
 64
     7
 65
   257
 75
     1
175
     1
 42
1.0
 92
        0
 66
   257
 43
1.0
 76
     1
 77
     6
 78
     2
 67
     7
 79
     5
170
     0
171
     0
290
     0
174
     0
 93
       13
 44
0.0
173
     0
291
     1
 45
0.0
1001
ACAD
1000
AcDbSavedByObjectVersion
1070
     0
  0
VISUALSTYLE
  5
17
102
{ACAD_XDICTIONARY
360
12A4
102
}
102
{ACAD_REACTORS
330
14
102
}
330
14
100
AcDbVisualStyle
  2

 70
     2
 71
     2
 72
     2
 73
     1
 90
        2
 40
-0.6
 41
30.0
 62
     5
 63
     7
 74
     0
 91
        4
 64
     7
 65
   257
 75
     1
175
     1
 42
1.0
 92
        0
 66
     7
 43
1.0
 76
     1
 77
     6
 78
     2
 67
     7
 79
     5
170
     0
171
     0
290
     0
174
     0
 93
       13
 44
0.0
173
     0
291
     1
 45
0.0
1001
ACAD
1000
AcDbSavedByObjectVersion
1070
     0
  0
VISUALSTYLE
  5
18
102
{ACAD_XDICTIONARY
360
12A6
102
}
102
{ACAD_REACTORS
330
14
102
}
330
14
100
AcDbVisualStyle
  2

 70
     3
 71
     2
 72
     2
 73
     1
 90
        2
 40
-0.6
 41
30.0
 62
     5
 63
     7
 74
     1
 91
        4
 64
     7
 65
   257
 75
     1
175
     1
 42
1.0
 92
        0
 66
   257
 43
1.0
 76
     1
 77
     6
 78
     2
 67
     7
 79
     5
170
     0
171
     0
290
     0
174
     0
 93
       13
 44
0.0
173
     0
291
     1
 45
0.0
1001
ACAD
1000
AcDbSavedByObjectVersion
1070
     0
  0
VISUALSTYLE
  5
6C2
102
{ACAD_XDICTIONARY
360
12C7
102
}
102
{ACAD_REACTORS
330
14
102
}
330
14
100
AcDbVisualStyle
  2

 70
     6
 71
     1
 72
     2
 73
     2
 90
        0
 40
-0.6
 41
-30.0
 62
     5
 63
     7
 74
     2
 91
        2
 64
     7
 65
   257
 75
     2
175
     1
 42
40.0
 92
        0
 66
   257
 43
1.0
 76
     1
 77
     6
 78
     2
 67
     7
 79
     3
170
     0
171
     0
290
     0
174
     0
 93
        1
 44
0.0
173
     0
291
     0
 45
0.0
1001
ACAD
1000
AcDbSavedByObjectVersion
1070
     0
  0
VISUALSTYLE
  5
6C8
102
{ACAD_XDICTIONARY
360
12D3
102
}
102
{ACAD_REACTORS
330
14
102
}
330
14
100
AcDbVisualStyle
  2

 70
    20
 71
     2
 72
     2
 73
     0
 90
        0
 40
-0.6
 41
-30.0
 62
     5
 63
     7
 74
     1
 91
        4
 64
     7
 65
   257
 75
     1
175
     1
 42
1.0
 92
       10
 66
     7
 43
1.0
 76
     1
 77
     6
 78
     2
 67
     7
 79
     5
170
     0
171
     0
290
     0
174
     0
 93
        1
 44
0.0
173
     0
291
     1
 45
0.0
1001
ACAD
1000
AcDbSavedByObjectVersion
1070
     0
  0
VISUALSTYLE
  5
22
102
{ACAD_XDICTIONARY
360
12BA
102
}
102
{ACAD_REACTORS
330
14
102
}
330
14
100
AcDbVisualStyle
  2

 70
    14
 71
     2
 72
     2
 73
     0
 90
        0
 40
-0.6
 41
-30.0
 62
     5
 63
     7
 74
     1
 91
        4
 64
     7
 65
   257
 75
     7
175
     7
 42
1.0
 92
        8
 66
     7
 43
1.0
 76
     1
 77
     6
 78
     2
 67
     7
 79
     5
170
     0
171
     0
290
     0
174
     0
 93
        1
 44
0.0
173
     0
291
     1
 45
0.0
1001
ACAD
1000
AcDbSavedByObjectVersion
1070
     0
  0
VISUALSTYLE
  5
6C9
102
{ACAD_XDICTIONARY
360
12D5
102
}
102
{ACAD_REACTORS
330
14
102
}
330
14
100
AcDbVisualStyle
  2

 70
    21
 71
     2
 72
     2
 73
     0
 90
        0
 40
-0.6
 41
-30.0
 62
     5
 63
     7
 74
     1
 91
        4
 64
     7
 65
   257
 75
     1
175
     1
 42
1.0
 92
        9
 66
     7
 43
1.0
 76
     1
 77
     6
 78
     2
 67
     7
 79
     5
170
     0
171
     0
290
     0
174
     0
 93
        1
 44
0.0
173
     0
291
     1
 45
0.0
1001
ACAD
1000
AcDbSavedByObjectVersion
1070
     0
  0
VISUALSTYLE
  5
1E
102
{ACAD_XDICTIONARY
360
12B2
102
}
102
{ACAD_REACTORS
330
14
102
}
330
14
100
AcDbVisualStyle
  2

 70
     8
 71
     2
 72
     2
 73
     0
 90
        0
 40
-0.6
 41
-30.0
 62
     5
 63
     7
 74
     1
 91
        0
 64
     7
 65
   257
 75
     1
175
     1
 42
1.0
 92
        8
 66
     8
 43
1.0
 76
     1
 77
     6
 78
     2
 67
     7
 79
     5
170
     0
171
     0
290
     0
174
     0
 93
       13
 44
0.0
173
     0
291
     0
 45
0.0
1001
ACAD
1000
AcDbSavedByObjectVersion
1070
     0
  0
VISUALSTYLE
  5
6C7
102
{ACAD_XDICTIONARY
360
12D1
102
}
102
{ACAD_REACTORS
330
14
102
}
330
14
100
AcDbVisualStyle
  2

 70
    27
 71
     2
 72
     2
 73
     1
 90
        2
 40
-0.6
 41
30.0
 62
     5
 63
     7
 74
     0
 91
        4
 64
     7
 65
   257
 75
     1
175
     1
 42
1.0
 92
        8
 66
   257
 43
1.0
 76
     1
 77
     6
 78
     2
 67
     8
 79
     3
170
     0
171
     0
290
     0
174
     0
 93
        5
 44
0.0
173
     0
291
     0
 45
0.0
1001
ACAD
1000
AcDbSavedByObjectVersion
1070
     0
  0
VISUALSTYLE
  5
6C6
102
{ACAD_XDICTIONARY
360
12CF
102
}
102
{ACAD_REACTORS
330
14
102
}
330
14
100
AcDbVisualStyle
  2

 70
    26
 71
     2
 72
     2
 73
     1
 90
        2
 40
-0.6
 41
30.0
 62
     5
 63
     7
 74
     1
 91
       10
 64
     7
 65
   257
 75
     2
175
     1
 42
1.0
 92
        8
 66
   257
 43
1.0
 76
     1
 77
     6
 78
     2
 67
     7
 79
     3
170
     0
171
     0
290
     0
174
     0
 93
        5
 44
0.0
173
     0
291
     0
 45
0.0
1001
ACAD
1000
AcDbSavedByObjectVersion
1070
     0
  0
VISUALSTYLE
  5
6C3
102
{ACAD_XDICTIONARY
360
12C9
102
}
102
{ACAD_REACTORS
330
14
102
}
330
14
100
AcDbVisualStyle
  2

 70
    23
 71
     2
 72
     2
 73
     3
 90
        0
 40
-0.6
 41
-30.0
 62
     5
 63
     7
 74
     2
 91
        2
 64
     7
 65
     7
 75
     1
175
     1
 42
40.0
 92
        8
 66
     7
 43
1.0
 76
     1
 77
     6
 78
     2
 67
     7
 79
     3
170
     0
171
     0
290
     0
174
     0
 93
        1
 44
0.0
173
     0
291
     0
 45
0.0
1001
ACAD
1000
AcDbSavedByObjectVersion
1070
     0
  0
VISUALSTYLE
  5
6C4
102
{ACAD_XDICTIONARY
360
12CB
102
}
102
{ACAD_REACTORS
330
14
102
}
330
14
100
AcDbVisualStyle
  2

 70
    24
 71
     1
 72
     2
 73
     2
 90
        0
 40
-0.6
 41
-30.0
 62
     5
 63
     7
 74
     2
 91
        2
 64
     7
 65
     7
 75
     1
175
     1
 42
40.0
 92
       11
 66
     7
 43
1.0
 76
     1
 77
     6
 78
     2
 67
     7
 79
     6
170
     0
171
     0
290
     0
174
     0
 93
        1
 44
0.0
173
     0
291
     0
 45
0.0
1001
ACAD
1000
AcDbSavedByObjectVersion
1070
     0
  0
VISUALSTYLE
  5
21
102
{ACAD_XDICTIONARY
360
12B8
102
}
102
{ACAD_REACTORS
330
14
102
}
330
14
100
AcDbVisualStyle
  2

 70
    13
 71
     2
 72
     2
 73
     0
 90
        0
 40
-0.6
 41
-30.0
 62
     5
 63
     7
 74
     1
 91
        4
 64
     7
 65
   257
 75
     1
175
     1
 42
1.0
 92
       12
 66
     7
 43
1.0
 76
     1
 77
     6
 78
     2
 67
     7
 79
     5
170
     0
171
     0
290
     0
174
     0
 93
        1
 44
0.0
173
     0
291
     1
 45
0.0
1001
ACAD
1000
AcDbSavedByObjectVersion
1070
     0
  0
VISUALSTYLE
  5
6C1
102
{ACAD_XDICTIONARY
360
12C5
102
}
102
{ACAD_REACTORS
330
14
102
}
330
14
100
AcDbVisualStyle
  2

 70
     5
 71
     0
 72
     2
 73
     0
 90
        0
 40
-0.6
 41
-30.0
 62
     5
 63
     7
 74
     1
 91
        4
 64
     7
 65
   257
 75
     1
175
     1
 42
1.0
 92
        0
 66
   257
 43
1.0
 76
     1
 77
     6
 78
     2
 67
     7
 79
     3
170
     0
171
     0
290
     0
174
     0
 93
        1
 44
0.0
173
     0
291
     0
 45
0.0
1001
ACAD
1000
AcDbSavedByObjectVersion
1070
     0
  0
VISUALSTYLE
  5
6C5
102
{ACAD_XDICTIONARY
360
12CD
102
}
102
{ACAD_REACTORS
330
14
102
}
330
14
100
AcDbVisualStyle
  2

 70
    25
 71
     2
 72
     2
 73
     1
 90
        1
 40
0.5
 41
-30.0
 62
     5
 63
     7
 74
     1
 91
        0
 64
     7
 65
   257
 75
     1
175
     1
 42
1.0
 92
        8
 66
     7
 43
1.0
 76
     1
 77
     6
 78
     2
 67
     7
 79
     3
170
     0
171
     0
290
     0
174
     0
 93
       13
 44
0.0
173
     0
291
     0
 45
0.0
1001
ACAD
1000
AcDbSavedByObjectVersion
1070
     0
  0
DICTIONARYVAR
  5
955
102
{ACAD_REACTORS
330
5EE
102
}
330
5EE
100
DictionaryVariables
280
     0
  1
1:1
  0
DICTIONARYVAR
  5
954
102
{ACAD_REACTORS
330
5EE
102
}
330
5EE
100
DictionaryVariables
280
     0
  1
STANDARD
  0
DICTIONARYVAR
  5
5EF
102
{ACAD_REACTORS
330
5EE
102
}
330
5EE
100
DictionaryVariables
280
     0
  1
STANDARD
  0
DICTIONARYVAR
  5
610
102
{ACAD_REACTORS
330
5EE
102
}
330
5EE
100
DictionaryVariables
280
     0
  1
1
  0
DICTIONARYVAR
  5
60F
102
{ACAD_REACTORS
330
5EE
102
}
330
5EE
100
DictionaryVariables
280
     0
  1
0
  0
DICTIONARYVAR
  5
60E
102
{ACAD_REACTORS
330
5EE
102
}
330
5EE
100
DictionaryVariables
280
     0
  1
127
  0
DICTIONARYVAR
  5
1116
102
{ACAD_REACTORS
330
5EE
102
}
330
5EE
100
DictionaryVariables
280
     0
  1
2
  0
DICTIONARY
  5
12C3
330
39
100
AcDbDictionary
280
     1
281
     1
  3
ACAD_XREC_ROUNDTRIP
360
12C4
  0
DICTIONARY
  5
12C1
330
35
100
AcDbDictionary
280
     1
281
     1
  3
ACAD_XREC_ROUNDTRIP
360
12C2
  0
DICTIONARY
  5
618
330
12
100
AcDbDictionary
280
     1
281
     1
  3
ACAD_XREC_ROUNDTRIP
360
619
  0
DICTIONARY
  5
616
330
11
100
AcDbDictionary
280
     1
281
     1
  3
ACAD_XREC_ROUNDTRIP
360
617
  0
DICTIONARY
  5
61A
330
13
100
AcDbDictionary
280
     1
281
     1
  3
ACAD_XREC_ROUNDTRIP
360
61B
  0
DICTIONARY
  5
9A2
330
31
100
AcDbDictionary
280
     1
281
     1
  3
ACAD_ROUNDTRIP_2008_TABLESTYLE_CELLSTYLEMAP
360
1299
  3
ACAD_XREC_ROUNDTRIP
360
12C0
  0
DICTIONARY
  5
12AA
330
1A
100
AcDbDictionary
280
     1
281
     1
  3
ACAD_XREC_ROUNDTRIP
360
12AB
  0
DICTIONARY
  5
12AE
330
1C
100
AcDbDictionary
280
     1
281
     1
  3
ACAD_XREC_ROUNDTRIP
360
12AF
  0
DICTIONARY
  5
12AC
330
1B
100
AcDbDictionary
280
     1
281
     1
  3
ACAD_XREC_ROUNDTRIP
360
12AD
  0
DICTIONARY
  5
12A8
330
19
100
AcDbDictionary
280
     1
281
     1
  3
ACAD_XREC_ROUNDTRIP
360
12A9
  0
DICTIONARY
  5
12B6
330
20
100
AcDbDictionary
280
     1
281
     1
  3
ACAD_XREC_ROUNDTRIP
360
12B7
  0
DICTIONARY
  5
12BE
330
24
100
AcDbDictionary
280
     1
281
     1
  3
ACAD_XREC_ROUNDTRIP
360
12BF
  0
DICTIONARY
  5
12B0
330
1D
100
AcDbDictionary
280
     1
281
     1
  3
ACAD_XREC_ROUNDTRIP
360
12B1
  0
DICTIONARY
  5
12B4
330
1F
100
AcDbDictionary
280
     1
281
     1
  3
ACAD_XREC_ROUNDTRIP
360
12B5
  0
DICTIONARY
  5
12D7
330
6CA
100
AcDbDictionary
280
     1
281
     1
  3
ACAD_XREC_ROUNDTRIP
360
12D8
  0
DICTIONARY
  5
12BC
330
23
100
AcDbDictionary
280
     1
281
     1
  3
ACAD_XREC_ROUNDTRIP
360
12BD
  0
DICTIONARY
  5
12A0
330
15
100
AcDbDictionary
280
     1
281
     1
  3
ACAD_XREC_ROUNDTRIP
360
12A1
  0
DICTIONARY
  5
12A2
330
16
100
AcDbDictionary
280
     1
281
     1
  3
ACAD_XREC_ROUNDTRIP
360
12A3
  0
DICTIONARY
  5
12A4
330
17
100
AcDbDictionary
280
     1
281
     1
  3
ACAD_XREC_ROUNDTRIP
360
12A5
  0
DICTIONARY
  5
12A6
330
18
100
AcDbDictionary
280
     1
281
     1
  3
ACAD_XREC_ROUNDTRIP
360
12A7
  0
DICTIONARY
  5
12C7
330
6C2
100
AcDbDictionary
280
     1
281
     1
  3
ACAD_XREC_ROUNDTRIP
360
12C8
  0
DICTIONARY
  5
12D3
330
6C8
100
AcDbDictionary
280
     1
281
     1
  3
ACAD_XREC_ROUNDTRIP
360
12D4
  0
DICTIONARY
  5
12BA
330
22
100
AcDbDictionary
280
     1
281
     1
  3
ACAD_XREC_ROUNDTRIP
360
12BB
  0
DICTIONARY
  5
12D5
330
6C9
100
AcDbDictionary
280
     1
281
     1
  3
ACAD_XREC_ROUNDTRIP
360
12D6
  0
DICTIONARY
  5
12B2
330
1E
100
AcDbDictionary
280
     1
281
     1
  3
ACAD_XREC_ROUNDTRIP
360
12B3
  0
DICTIONARY
  5
12D1
330
6C7
100
AcDbDictionary
280
     1
281
     1
  3
ACAD_XREC_ROUNDTRIP
360
12D2
  0
DICTIONARY
  5
12CF
330
6C6
100
AcDbDictionary
280
     1
281
     1
  3
ACAD_XREC_ROUNDTRIP
360
12D0
  0
DICTIONARY
  5
12C9
330
6C3
100
AcDbDictionary
280
     1
281
     1
  3
ACAD_XREC_ROUNDTRIP
360
12CA
  0
DICTIONARY
  5
12CB
330
6C4
100
AcDbDictionary
280
     1
281
     1
  3
ACAD_XREC_ROUNDTRIP
360
12CC
  0
DICTIONARY
  5
12B8
330
21
100
AcDbDictionary
280
     1
281
     1
  3
ACAD_XREC_ROUNDTRIP
360
12B9
  0
DICTIONARY
  5
12C5
330
6C1
100
AcDbDictionary
280
     1
281
     1
  3
ACAD_XREC_ROUNDTRIP
360
12C6
  0
DICTIONARY
  5
12CD
330
6C5
100
AcDbDictionary
280
     1
281
     1
  3
ACAD_XREC_ROUNDTRIP
360
12CE
  0
XRECORD
  5
12C4
102
{ACAD_REACTORS
330
12C3
102
}
330
12C3
100
AcDbXrecord
280
     1
102
SHADEPLOT
 70
     0
102
SHADEPLOTRESLEVEL
 70
     2
102
SHADEPLOTCUSTOMDPI
 70
   300
  0
XRECORD
  5
12C2
102
{ACAD_REACTORS
330
12C1
102
}
330
12C1
100
AcDbXrecord
280
     1
102
SHADEPLOT
 70
     0
102
SHADEPLOTRESLEVEL
 70
     2
102
SHADEPLOTCUSTOMDPI
 70
   300
  0
XRECORD
  5
619
102
{ACAD_REACTORS
330
618
102
}
330
618
100
AcDbXrecord
280
     1
102
MATERIAL
148
0.0
149
0.0
149
0.0
 93
        0
 94
      127
282
     0
 72
     1
 77
     1
171
     1
175
     1
179
     1
273
     0
  0
XRECORD
  5
617
102
{ACAD_REACTORS
330
616
102
}
330
616
100
AcDbXrecord
280
     1
102
MATERIAL
148
0.0
149
0.0
149
0.0
 93
        0
 94
      127
282
     0
 72
     1
 77
     1
171
     1
175
     1
179
     1
273
     0
  0
XRECORD
  5
61B
102
{ACAD_REACTORS
330
61A
102
}
330
61A
100
AcDbXrecord
280
     1
102
MATERIAL
148
0.0
149
0.0
149
0.0
 93
        0
 94
      127
282
     0
 72
     1
 77
     1
171
     1
175
     1
179
     1
273
     0
  0
CELLSTYLEMAP
  5
1299
102
{ACAD_REACTORS
330
9A2
102
}
330
9A2
100
AcDbCellStyleMap
 90
        3
300
CELLSTYLE
  1
TABLEFORMAT_BEGIN
 90
        5
170
     1
 91
        0
 92
    32768
 62
   257
 93
        1
300
CONTENTFORMAT
  1
CONTENTFORMAT_BEGIN
 90
        0
 91
        0
 92
      512
 93
        0
300

 40
0.0
140
1.0
 94
        5
 62
     0
340
26
144
0.25
309
CONTENTFORMAT_END
171
     1
301
MARGIN
  1
CELLMARGIN_BEGIN
 40
0.06
 40
0.06
 40
0.06
 40
0.06
 40
0.18
 40
0.18
309
CELLMARGIN_END
 94
        6
 95
        1
302
GRIDFORMAT
  1
GRIDFORMAT_BEGIN
 90
        0
 91
        1
 62
     0
 92
       -2
340
0
 93
        0
 40
0.045
309
GRIDFORMAT_END
 95
        2
302
GRIDFORMAT
  1
GRIDFORMAT_BEGIN
 90
        0
 91
        1
 62
     0
 92
       -2
340
0
 93
        0
 40
0.045
309
GRIDFORMAT_END
 95
        4
302
GRIDFORMAT
  1
GRIDFORMAT_BEGIN
 90
        0
 91
        1
 62
     0
 92
       -2
340
0
 93
        0
 40
0.045
309
GRIDFORMAT_END
 95
        8
302
GRIDFORMAT
  1
GRIDFORMAT_BEGIN
 90
        0
 91
        1
 62
     0
 92
       -2
340
0
 93
        0
 40
0.045
309
GRIDFORMAT_END
 95
       16
302
GRIDFORMAT
  1
GRIDFORMAT_BEGIN
 90
        0
 91
        1
 62
     0
 92
       -2
340
0
 93
        0
 40
0.045
309
GRIDFORMAT_END
 95
       32
302
GRIDFORMAT
  1
GRIDFORMAT_BEGIN
 90
        0
 91
        1
 62
     0
 92
       -2
340
0
 93
        0
 40
0.045
309
GRIDFORMAT_END
309
TABLEFORMAT_END
  1
CELLSTYLE_BEGIN
 90
        1
 91
        1
300
_TITLE
309
CELLSTYLE_END
300
CELLSTYLE
  1
TABLEFORMAT_BEGIN
 90
        5
170
     1
 91
        0
 92
        0
 62
   257
 93
        1
300
CONTENTFORMAT
  1
CONTENTFORMAT_BEGIN
 90
        0
 91
        0
 92
      512
 93
        0
300

 40
0.0
140
1.0
 94
        5
 62
     0
340
26
144
0.18
309
CONTENTFORMAT_END
171
     1
301
MARGIN
  1
CELLMARGIN_BEGIN
 40
0.06
 40
0.06
 40
0.06
 40
0.06
 40
0.18
 40
0.18
309
CELLMARGIN_END
 94
        6
 95
        1
302
GRIDFORMAT
  1
GRIDFORMAT_BEGIN
 90
        0
 91
        1
 62
     0
 92
       -2
340
0
 93
        0
 40
0.045
309
GRIDFORMAT_END
 95
        2
302
GRIDFORMAT
  1
GRIDFORMAT_BEGIN
 90
        0
 91
        1
 62
     0
 92
       -2
340
0
 93
        0
 40
0.045
309
GRIDFORMAT_END
 95
        4
302
GRIDFORMAT
  1
GRIDFORMAT_BEGIN
 90
        0
 91
        1
 62
     0
 92
       -2
340
0
 93
        0
 40
0.045
309
GRIDFORMAT_END
 95
        8
302
GRIDFORMAT
  1
GRIDFORMAT_BEGIN
 90
        0
 91
        1
 62
     0
 92
       -2
340
0
 93
        0
 40
0.045
309
GRIDFORMAT_END
 95
       16
302
GRIDFORMAT
  1
GRIDFORMAT_BEGIN
 90
        0
 91
        1
 62
     0
 92
       -2
340
0
 93
        0
 40
0.045
309
GRIDFORMAT_END
 95
       32
302
GRIDFORMAT
  1
GRIDFORMAT_BEGIN
 90
        0
 91
        1
 62
     0
 92
       -2
340
0
 93
        0
 40
0.045
309
GRIDFORMAT_END
309
TABLEFORMAT_END
  1
CELLSTYLE_BEGIN
 90
        2
 91
        1
300
_HEADER
309
CELLSTYLE_END
300
CELLSTYLE
  1
TABLEFORMAT_BEGIN
 90
        5
170
     1
 91
        0
 92
        0
 62
   257
 93
        1
300
CONTENTFORMAT
  1
CONTENTFORMAT_BEGIN
 90
        0
 91
        0
 92
      512
 93
        0
300

 40
0.0
140
1.0
 94
        2
 62
     0
340
26
144
0.18
309
CONTENTFORMAT_END
171
     1
301
MARGIN
  1
CELLMARGIN_BEGIN
 40
0.06
 40
0.06
 40
0.06
 40
0.06
 40
0.18
 40
0.18
309
CELLMARGIN_END
 94
        6
 95
        1
302
GRIDFORMAT
  1
GRIDFORMAT_BEGIN
 90
        0
 91
        1
 62
     0
 92
       -2
340
0
 93
        0
 40
0.045
309
GRIDFORMAT_END
 95
        2
302
GRIDFORMAT
  1
GRIDFORMAT_BEGIN
 90
        0
 91
        1
 62
     0
 92
       -2
340
0
 93
        0
 40
0.045
309
GRIDFORMAT_END
 95
        4
302
GRIDFORMAT
  1
GRIDFORMAT_BEGIN
 90
        0
 91
        1
 62
     0
 92
       -2
340
0
 93
        0
 40
0.045
309
GRIDFORMAT_END
 95
        8
302
GRIDFORMAT
  1
GRIDFORMAT_BEGIN
 90
        0
 91
        1
 62
     0
 92
       -2
340
0
 93
        0
 40
0.045
309
GRIDFORMAT_END
 95
       16
302
GRIDFORMAT
  1
GRIDFORMAT_BEGIN
 90
        0
 91
        1
 62
     0
 92
       -2
340
0
 93
        0
 40
0.045
309
GRIDFORMAT_END
 95
       32
302
GRIDFORMAT
  1
GRIDFORMAT_BEGIN
 90
        0
 91
        1
 62
     0
 92
       -2
340
0
 93
        0
 40
0.045
309
GRIDFORMAT_END
309
TABLEFORMAT_END
  1
CELLSTYLE_BEGIN
 90
        3
 91
        2
300
_DATA
309
CELLSTYLE_END
  0
XRECORD
  5
12C0
102
{ACAD_REACTORS
330
9A2
102
}
330
9A2
100
AcDbXrecord
280
     1
102
ACAD_ROUNDTRIP_PRE2007_TABLESTYLE
 90
      512
 91
        0
  1

 92
      512
 93
        0
  2

 94
      512
 95
        0
  3

  0
XRECORD
  5
12AB
102
{ACAD_REACTORS
330
12AA
102
}
330
12AA
100
AcDbXrecord
280
     1
102
RTVSPropertyOp0
 70
     1
102
RTVSPropertyOp1
 70
     1
102
RTVSPropertyOp2
 70
     1
102
RTVSPropertyOp3
 70
     1
102
RTVSPropertyOp4
 70
     1
102
RTVSPropertyOp5
 70
     1
102
RTVSPropertyOp6
 70
     1
102
RTVSPropertyOp7
 70
     1
102
RTVSPropertyOp8
 70
     1
102
RTVSPropertyOp9
 70
     1
102
RTVSPropertyOp10
 70
     1
102
RTVSPropertyOp11
 70
     1
102
RTVSPropertyOp12
 70
     1
102
RTVSPropertyOp13
 70
     1
102
RTVSPropertyOp14
 70
     1
102
RTVSPropertyOp15
 70
     1
102
RTVSPropertyOp16
 70
     1
102
RTVSPropertyOp17
 70
     1
102
RTVSPropertyOp18
 70
     1
102
RTVSPropertyOp19
 70
     1
102
RTVSPropertyOp20
 70
     1
102
RTVSPropertyOp21
 70
     1
102
RTVSPropertyOp22
 70
     1
102
RTVSPropertyOp23
 70
     1
102
RTVSPropertyOp24
 70
     1
102
RTVSPropertyOp25
 70
     1
102
RTVSPropertyOp26
 70
     1
102
RTVSPropertyOp27
 70
     1
102
RTVSPropertyOp28
 70
     1
102
RTVSPropertyOp29
 70
     1
102
RTVSPropertyOp30
 70
     1
102
RTVSPropertyOp31
 70
     1
102
RTVSPropertyOp32
 70
     1
  0
XRECORD
  5
12AF
102
{ACAD_REACTORS
330
12AE
102
}
330
12AE
100
AcDbXrecord
280
     1
102
RTVSPropertyOp0
 70
     1
102
RTVSPropertyOp1
 70
     1
102
RTVSPropertyOp2
 70
     1
102
RTVSPropertyOp3
 70
     1
102
RTVSPropertyOp4
 70
     1
102
RTVSPropertyOp5
 70
     1
102
RTVSPropertyOp6
 70
     1
102
RTVSPropertyOp7
 70
     1
102
RTVSPropertyOp8
 70
     1
102
RTVSPropertyOp9
 70
     1
102
RTVSPropertyOp10
 70
     1
102
RTVSPropertyOp11
 70
     1
102
RTVSPropertyOp12
 70
     1
102
RTVSPropertyOp13
 70
     1
102
RTVSPropertyOp14
 70
     1
102
RTVSPropertyOp15
 70
     1
102
RTVSPropertyOp16
 70
     1
102
RTVSPropertyOp17
 70
     1
102
RTVSPropertyOp18
 70
     1
102
RTVSPropertyOp19
 70
     1
102
RTVSPropertyOp20
 70
     1
102
RTVSPropertyOp21
 70
     1
102
RTVSPropertyOp22
 70
     1
102
RTVSPropertyOp23
 70
     1
102
RTVSPropertyOp24
 70
     1
102
RTVSPropertyOp25
 70
     1
102
RTVSPropertyOp26
 70
     1
102
RTVSPropertyOp27
 70
     1
102
RTVSPropertyOp28
 70
     1
102
RTVSPropertyOp29
 70
     1
102
RTVSPropertyOp30
 70
     1
102
RTVSPropertyOp31
 70
     1
102
RTVSPropertyOp32
 70
     1
  0
XRECORD
  5
12AD
102
{ACAD_REACTORS
330
12AC
102
}
330
12AC
100
AcDbXrecord
280
     1
102
RTVSPropertyOp0
 70
     1
102
RTVSPropertyOp1
 70
     1
102
RTVSPropertyOp2
 70
     1
102
RTVSPropertyOp3
 70
     1
102
RTVSPropertyOp4
 70
     1
102
RTVSPropertyOp5
 70
     1
102
RTVSPropertyOp6
 70
     1
102
RTVSPropertyOp7
 70
     1
102
RTVSPropertyOp8
 70
     1
102
RTVSPropertyOp9
 70
     1
102
RTVSPropertyOp10
 70
     1
102
RTVSPropertyOp11
 70
     1
102
RTVSPropertyOp12
 70
     1
102
RTVSPropertyOp13
 70
     1
102
RTVSPropertyOp14
 70
     1
102
RTVSPropertyOp15
 70
     1
102
RTVSPropertyOp16
 70
     1
102
RTVSPropertyOp17
 70
     1
102
RTVSPropertyOp18
 70
     1
102
RTVSPropertyOp19
 70
     1
102
RTVSPropertyOp20
 70
     1
102
RTVSPropertyOp21
 70
     1
102
RTVSPropertyOp22
 70
     1
102
RTVSPropertyOp23
 70
     1
102
RTVSPropertyOp24
 70
     1
102
RTVSPropertyOp25
 70
     1
102
RTVSPropertyOp26
 70
     1
102
RTVSPropertyOp27
 70
     1
102
RTVSPropertyOp28
 70
     1
102
RTVSPropertyOp29
 70
     1
102
RTVSPropertyOp30
 70
     1
102
RTVSPropertyOp31
 70
     1
102
RTVSPropertyOp32
 70
     1
  0
XRECORD
  5
12A9
102
{ACAD_REACTORS
330
12A8
102
}
330
12A8
100
AcDbXrecord
280
     1
102
RTVSPropertyOp0
 70
     1
102
RTVSPropertyOp1
 70
     1
102
RTVSPropertyOp2
 70
     1
102
RTVSPropertyOp3
 70
     1
102
RTVSPropertyOp4
 70
     1
102
RTVSPropertyOp5
 70
     1
102
RTVSPropertyOp6
 70
     1
102
RTVSPropertyOp7
 70
     1
102
RTVSPropertyOp8
 70
     1
102
RTVSPropertyOp9
 70
     1
102
RTVSPropertyOp10
 70
     1
102
RTVSPropertyOp11
 70
     1
102
RTVSPropertyOp12
 70
     1
102
RTVSPropertyOp13
 70
     1
102
RTVSPropertyOp14
 70
     1
102
RTVSPropertyOp15
 70
     1
102
RTVSPropertyOp16
 70
     1
102
RTVSPropertyOp17
 70
     1
102
RTVSPropertyOp18
 70
     1
102
RTVSPropertyOp19
 70
     1
102
RTVSPropertyOp20
 70
     1
102
RTVSPropertyOp21
 70
     1
102
RTVSPropertyOp22
 70
     1
102
RTVSPropertyOp23
 70
     1
102
RTVSPropertyOp24
 70
     1
102
RTVSPropertyOp25
 70
     1
102
RTVSPropertyOp26
 70
     1
102
RTVSPropertyOp27
 70
     1
102
RTVSPropertyOp28
 70
     1
102
RTVSPropertyOp29
 70
     1
102
RTVSPropertyOp30
 70
     1
102
RTVSPropertyOp31
 70
     1
102
RTVSPropertyOp32
 70
     1
  0
XRECORD
  5
12B7
102
{ACAD_REACTORS
330
12B6
102
}
330
12B6
100
AcDbXrecord
280
     1
102
RTVSPropertyOp0
 70
     1
102
RTVSPropertyOp1
 70
     1
102
RTVSPropertyOp2
 70
     1
102
RTVSPropertyOp3
 70
     1
102
RTVSPropertyOp4
 70
     1
102
RTVSPropertyOp5
 70
     1
102
RTVSPropertyOp6
 70
     1
102
RTVSPropertyOp7
 70
     1
102
RTVSPropertyOp8
 70
     1
102
RTVSPropertyOp9
 70
     1
102
RTVSPropertyOp10
 70
     1
102
RTVSPropertyOp11
 70
     1
102
RTVSPropertyOp12
 70
     1
102
RTVSPropertyOp13
 70
     1
102
RTVSPropertyOp14
 70
     1
102
RTVSPropertyOp15
 70
     1
102
RTVSPropertyOp16
 70
     1
102
RTVSPropertyOp17
 70
     1
102
RTVSPropertyOp18
 70
     1
102
RTVSPropertyOp19
 70
     1
102
RTVSPropertyOp20
 70
     1
102
RTVSPropertyOp21
 70
     1
102
RTVSPropertyOp22
 70
     1
102
RTVSPropertyOp23
 70
     1
102
RTVSPropertyOp24
 70
     1
102
RTVSPropertyOp25
 70
     1
102
RTVSPropertyOp26
 70
     1
102
RTVSPropertyOp27
 70
     1
102
RTVSPropertyOp28
 70
     1
102
RTVSPropertyOp29
 70
     1
102
RTVSPropertyOp30
 70
     1
102
RTVSPropertyOp31
 70
     1
102
RTVSPropertyOp32
 70
     1
  0
XRECORD
  5
12BF
102
{ACAD_REACTORS
330
12BE
102
}
330
12BE
100
AcDbXrecord
280
     1
102
RTVSPropertyOp0
 70
     1
102
RTVSPropertyOp1
 70
     1
102
RTVSPropertyOp2
 70
     1
102
RTVSPropertyOp3
 70
     1
102
RTVSPropertyOp4
 70
     1
102
RTVSPropertyOp5
 70
     1
102
RTVSPropertyOp6
 70
     1
102
RTVSPropertyOp7
 70
     1
102
RTVSPropertyOp8
 70
     1
102
RTVSPropertyOp9
 70
     1
102
RTVSPropertyOp10
 70
     1
102
RTVSPropertyOp11
 70
     1
102
RTVSPropertyOp12
 70
     1
102
RTVSPropertyOp13
 70
     1
102
RTVSPropertyOp14
 70
     1
102
RTVSPropertyOp15
 70
     1
102
RTVSPropertyOp16
 70
     1
102
RTVSPropertyOp17
 70
     1
102
RTVSPropertyOp18
 70
     1
102
RTVSPropertyOp19
 70
     1
102
RTVSPropertyOp20
 70
     1
102
RTVSPropertyOp21
 70
     1
102
RTVSPropertyOp22
 70
     1
102
RTVSPropertyOp23
 70
     1
102
RTVSPropertyOp24
 70
     1
102
RTVSPropertyOp25
 70
     1
102
RTVSPropertyOp26
 70
     1
102
RTVSPropertyOp27
 70
     1
102
RTVSPropertyOp28
 70
     1
102
RTVSPropertyOp29
 70
     1
102
RTVSPropertyOp30
 70
     1
102
RTVSPropertyOp31
 70
     1
102
RTVSPropertyOp32
 70
     1
  0
XRECORD
  5
12B1
102
{ACAD_REACTORS
330
12B0
102
}
330
12B0
100
AcDbXrecord
280
     1
102
RTVSPropertyOp0
 70
     1
102
RTVSPropertyOp1
 70
     1
102
RTVSPropertyOp2
 70
     1
102
RTVSPropertyOp3
 70
     1
102
RTVSPropertyOp4
 70
     1
102
RTVSPropertyOp5
 70
     1
102
RTVSPropertyOp6
 70
     1
102
RTVSPropertyOp7
 70
     1
102
RTVSPropertyOp8
 70
     1
102
RTVSPropertyOp9
 70
     1
102
RTVSPropertyOp10
 70
     1
102
RTVSPropertyOp11
 70
     1
102
RTVSPropertyOp12
 70
     1
102
RTVSPropertyOp13
 70
     1
102
RTVSPropertyOp14
 70
     1
102
RTVSPropertyOp15
 70
     1
102
RTVSPropertyOp16
 70
     1
102
RTVSPropertyOp17
 70
     1
102
RTVSPropertyOp18
 70
     1
102
RTVSPropertyOp19
 70
     1
102
RTVSPropertyOp20
 70
     1
102
RTVSPropertyOp21
 70
     1
102
RTVSPropertyOp22
 70
     1
102
RTVSPropertyOp23
 70
     1
102
RTVSPropertyOp24
 70
     1
102
RTVSPropertyOp25
 70
     1
102
RTVSPropertyOp26
 70
     1
102
RTVSPropertyOp27
 70
     1
102
RTVSPropertyOp28
 70
     1
102
RTVSPropertyOp29
 70
     1
102
RTVSPropertyOp30
 70
     1
102
RTVSPropertyOp31
 70
     1
102
RTVSPropertyOp32
 70
     1
  0
XRECORD
  5
12B5
102
{ACAD_REACTORS
330
12B4
102
}
330
12B4
100
AcDbXrecord
280
     1
102
RTVSPropertyOp0
 70
     1
102
RTVSPropertyOp1
 70
     1
102
RTVSPropertyOp2
 70
     1
102
RTVSPropertyOp3
 70
     1
102
RTVSPropertyOp4
 70
     1
102
RTVSPropertyOp5
 70
     1
102
RTVSPropertyOp6
 70
     1
102
RTVSPropertyOp7
 70
     1
102
RTVSPropertyOp8
 70
     1
102
RTVSPropertyOp9
 70
     1
102
RTVSPropertyOp10
 70
     1
102
RTVSPropertyOp11
 70
     1
102
RTVSPropertyOp12
 70
     1
102
RTVSPropertyOp13
 70
     1
102
RTVSPropertyOp14
 70
     1
102
RTVSPropertyOp15
 70
     1
102
RTVSPropertyOp16
 70
     1
102
RTVSPropertyOp17
 70
     1
102
RTVSPropertyOp18
 70
     1
102
RTVSPropertyOp19
 70
     1
102
RTVSPropertyOp20
 70
     1
102
RTVSPropertyOp21
 70
     1
102
RTVSPropertyOp22
 70
     1
102
RTVSPropertyOp23
 70
     1
102
RTVSPropertyOp24
 70
     1
102
RTVSPropertyOp25
 70
     1
102
RTVSPropertyOp26
 70
     1
102
RTVSPropertyOp27
 70
     1
102
RTVSPropertyOp28
 70
     1
102
RTVSPropertyOp29
 70
     1
102
RTVSPropertyOp30
 70
     1
102
RTVSPropertyOp31
 70
     1
102
RTVSPropertyOp32
 70
     1
  0
XRECORD
  5
12D8
102
{ACAD_REACTORS
330
12D7
102
}
330
12D7
100
AcDbXrecord
280
     1
102
RTVSPropertyOp0
 70
     0
102
RTVSPropertyOp1
 70
     0
102
RTVSPropertyOp2
 70
     0
102
RTVSPropertyOp3
 70
     0
102
RTVSPropertyOp4
 70
     0
102
RTVSPropertyOp5
 70
     0
102
RTVSPropertyOp6
 70
     0
102
RTVSPropertyOp7
 70
     0
102
RTVSPropertyOp8
 70
     0
102
RTVSPropertyOp9
 70
     0
102
RTVSPropertyOp10
 70
     0
102
RTVSPropertyOp11
 70
     0
102
RTVSPropertyOp12
 70
     0
102
RTVSPropertyOp13
 70
     0
102
RTVSPropertyOp14
 70
     2
102
RTVSPropertyOp15
 70
     0
102
RTVSPropertyOp16
 70
     0
102
RTVSPropertyOp17
 70
     0
102
RTVSPropertyOp18
 70
     0
102
RTVSPropertyOp19
 70
     0
102
RTVSPropertyOp20
 70
     0
102
RTVSPropertyOp21
 70
     0
102
RTVSPropertyOp22
 70
     0
102
RTVSPropertyOp23
 70
     0
102
RTVSPropertyOp24
 70
     0
102
RTVSPropertyOp25
 70
     0
102
RTVSPropertyOp26
 70
     0
102
RTVSPropertyOp27
 70
     0
102
RTVSPropertyOp28
 70
     0
102
RTVSPropertyOp29
 70
     0
102
RTVSPropertyOp30
 70
     0
102
RTVSPropertyOp31
 70
     0
102
RTVSPropertyOp32
 70
     0
  0
XRECORD
  5
12BD
102
{ACAD_REACTORS
330
12BC
102
}
330
12BC
100
AcDbXrecord
280
     1
102
RTVSPropertyOp0
 70
     1
102
RTVSPropertyOp1
 70
     1
102
RTVSPropertyOp2
 70
     1
102
RTVSPropertyOp3
 70
     1
102
RTVSPropertyOp4
 70
     1
102
RTVSPropertyOp5
 70
     1
102
RTVSPropertyOp6
 70
     1
102
RTVSPropertyOp7
 70
     1
102
RTVSPropertyOp8
 70
     1
102
RTVSPropertyOp9
 70
     1
102
RTVSPropertyOp10
 70
     1
102
RTVSPropertyOp11
 70
     1
102
RTVSPropertyOp12
 70
     1
102
RTVSPropertyOp13
 70
     1
102
RTVSPropertyOp14
 70
     1
102
RTVSPropertyOp15
 70
     1
102
RTVSPropertyOp16
 70
     1
102
RTVSPropertyOp17
 70
     1
102
RTVSPropertyOp18
 70
     1
102
RTVSPropertyOp19
 70
     1
102
RTVSPropertyOp20
 70
     1
102
RTVSPropertyOp21
 70
     1
102
RTVSPropertyOp22
 70
     1
102
RTVSPropertyOp23
 70
     1
102
RTVSPropertyOp24
 70
     1
102
RTVSPropertyOp25
 70
     1
102
RTVSPropertyOp26
 70
     1
102
RTVSPropertyOp27
 70
     1
102
RTVSPropertyOp28
 70
     1
102
RTVSPropertyOp29
 70
     1
102
RTVSPropertyOp30
 70
     1
102
RTVSPropertyOp31
 70
     1
102
RTVSPropertyOp32
 70
     1
  0
XRECORD
  5
12A1
102
{ACAD_REACTORS
330
12A0
102
}
330
12A0
100
AcDbXrecord
280
     1
102
RTVSPropertyOp0
 70
     1
102
RTVSPropertyOp1
 70
     1
102
RTVSPropertyOp2
 70
     1
102
RTVSPropertyOp3
 70
     1
102
RTVSPropertyOp4
 70
     1
102
RTVSPropertyOp5
 70
     1
102
RTVSPropertyOp6
 70
     1
102
RTVSPropertyOp7
 70
     1
102
RTVSPropertyOp8
 70
     1
102
RTVSPropertyOp9
 70
     1
102
RTVSPropertyOp10
 70
     1
102
RTVSPropertyOp11
 70
     1
102
RTVSPropertyOp12
 70
     1
102
RTVSPropertyOp13
 70
     1
102
RTVSPropertyOp14
 70
     1
102
RTVSPropertyOp15
 70
     1
102
RTVSPropertyOp16
 70
     1
102
RTVSPropertyOp17
 70
     1
102
RTVSPropertyOp18
 70
     1
102
RTVSPropertyOp19
 70
     1
102
RTVSPropertyOp20
 70
     1
102
RTVSPropertyOp21
 70
     1
102
RTVSPropertyOp22
 70
     1
102
RTVSPropertyOp23
 70
     1
102
RTVSPropertyOp24
 70
     1
102
RTVSPropertyOp25
 70
     1
102
RTVSPropertyOp26
 70
     1
102
RTVSPropertyOp27
 70
     1
102
RTVSPropertyOp28
 70
     1
102
RTVSPropertyOp29
 70
     1
102
RTVSPropertyOp30
 70
     1
102
RTVSPropertyOp31
 70
     1
102
RTVSPropertyOp32
 70
     1
  0
XRECORD
  5
12A3
102
{ACAD_REACTORS
330
12A2
102
}
330
12A2
100
AcDbXrecord
280
     1
102
RTVSPropertyOp0
 70
     1
102
RTVSPropertyOp1
 70
     1
102
RTVSPropertyOp2
 70
     1
102
RTVSPropertyOp3
 70
     1
102
RTVSPropertyOp4
 70
     1
102
RTVSPropertyOp5
 70
     1
102
RTVSPropertyOp6
 70
     1
102
RTVSPropertyOp7
 70
     1
102
RTVSPropertyOp8
 70
     1
102
RTVSPropertyOp9
 70
     1
102
RTVSPropertyOp10
 70
     1
102
RTVSPropertyOp11
 70
     1
102
RTVSPropertyOp12
 70
     1
102
RTVSPropertyOp13
 70
     1
102
RTVSPropertyOp14
 70
     1
102
RTVSPropertyOp15
 70
     1
102
RTVSPropertyOp16
 70
     1
102
RTVSPropertyOp17
 70
     1
102
RTVSPropertyOp18
 70
     1
102
RTVSPropertyOp19
 70
     1
102
RTVSPropertyOp20
 70
     1
102
RTVSPropertyOp21
 70
     1
102
RTVSPropertyOp22
 70
     1
102
RTVSPropertyOp23
 70
     1
102
RTVSPropertyOp24
 70
     1
102
RTVSPropertyOp25
 70
     1
102
RTVSPropertyOp26
 70
     1
102
RTVSPropertyOp27
 70
     1
102
RTVSPropertyOp28
 70
     1
102
RTVSPropertyOp29
 70
     1
102
RTVSPropertyOp30
 70
     1
102
RTVSPropertyOp31
 70
     1
102
RTVSPropertyOp32
 70
     1
  0
XRECORD
  5
12A5
102
{ACAD_REACTORS
330
12A4
102
}
330
12A4
100
AcDbXrecord
280
     1
102
RTVSPropertyOp0
 70
     1
102
RTVSPropertyOp1
 70
     1
102
RTVSPropertyOp2
 70
     1
102
RTVSPropertyOp3
 70
     1
102
RTVSPropertyOp4
 70
     1
102
RTVSPropertyOp5
 70
     1
102
RTVSPropertyOp6
 70
     1
102
RTVSPropertyOp7
 70
     1
102
RTVSPropertyOp8
 70
     1
102
RTVSPropertyOp9
 70
     1
102
RTVSPropertyOp10
 70
     1
102
RTVSPropertyOp11
 70
     1
102
RTVSPropertyOp12
 70
     1
102
RTVSPropertyOp13
 70
     1
102
RTVSPropertyOp14
 70
     1
102
RTVSPropertyOp15
 70
     1
102
RTVSPropertyOp16
 70
     1
102
RTVSPropertyOp17
 70
     1
102
RTVSPropertyOp18
 70
     1
102
RTVSPropertyOp19
 70
     1
102
RTVSPropertyOp20
 70
     1
102
RTVSPropertyOp21
 70
     1
102
RTVSPropertyOp22
 70
     1
102
RTVSPropertyOp23
 70
     1
102
RTVSPropertyOp24
 70
     1
102
RTVSPropertyOp25
 70
     1
102
RTVSPropertyOp26
 70
     1
102
RTVSPropertyOp27
 70
     1
102
RTVSPropertyOp28
 70
     1
102
RTVSPropertyOp29
 70
     1
102
RTVSPropertyOp30
 70
     1
102
RTVSPropertyOp31
 70
     1
102
RTVSPropertyOp32
 70
     1
  0
XRECORD
  5
12A7
102
{ACAD_REACTORS
330
12A6
102
}
330
12A6
100
AcDbXrecord
280
     1
102
RTVSPropertyOp0
 70
     1
102
RTVSPropertyOp1
 70
     1
102
RTVSPropertyOp2
 70
     1
102
RTVSPropertyOp3
 70
     1
102
RTVSPropertyOp4
 70
     1
102
RTVSPropertyOp5
 70
     1
102
RTVSPropertyOp6
 70
     1
102
RTVSPropertyOp7
 70
     1
102
RTVSPropertyOp8
 70
     1
102
RTVSPropertyOp9
 70
     1
102
RTVSPropertyOp10
 70
     1
102
RTVSPropertyOp11
 70
     1
102
RTVSPropertyOp12
 70
     1
102
RTVSPropertyOp13
 70
     1
102
RTVSPropertyOp14
 70
     1
102
RTVSPropertyOp15
 70
     1
102
RTVSPropertyOp16
 70
     1
102
RTVSPropertyOp17
 70
     1
102
RTVSPropertyOp18
 70
     1
102
RTVSPropertyOp19
 70
     1
102
RTVSPropertyOp20
 70
     1
102
RTVSPropertyOp21
 70
     1
102
RTVSPropertyOp22
 70
     1
102
RTVSPropertyOp23
 70
     1
102
RTVSPropertyOp24
 70
     1
102
RTVSPropertyOp25
 70
     1
102
RTVSPropertyOp26
 70
     1
102
RTVSPropertyOp27
 70
     1
102
RTVSPropertyOp28
 70
     1
102
RTVSPropertyOp29
 70
     1
102
RTVSPropertyOp30
 70
     1
102
RTVSPropertyOp31
 70
     1
102
RTVSPropertyOp32
 70
     1
  0
XRECORD
  5
12C8
102
{ACAD_REACTORS
330
12C7
102
}
330
12C7
100
AcDbXrecord
280
     1
102
RTVSPropertyOp0
 70
     1
102
RTVSPropertyOp1
 70
     1
102
RTVSPropertyOp2
 70
     1
102
RTVSPropertyOp3
 70
     1
102
RTVSPropertyOp4
 70
     1
102
RTVSPropertyOp5
 70
     1
102
RTVSPropertyOp6
 70
     1
102
RTVSPropertyOp7
 70
     1
102
RTVSPropertyOp8
 70
     1
102
RTVSPropertyOp9
 70
     1
102
RTVSPropertyOp10
 70
     1
102
RTVSPropertyOp11
 70
     1
102
RTVSPropertyOp12
 70
     1
102
RTVSPropertyOp13
 70
     1
102
RTVSPropertyOp14
 70
     1
102
RTVSPropertyOp15
 70
     1
102
RTVSPropertyOp16
 70
     1
102
RTVSPropertyOp17
 70
     1
102
RTVSPropertyOp18
 70
     1
102
RTVSPropertyOp19
 70
     1
102
RTVSPropertyOp20
 70
     1
102
RTVSPropertyOp21
 70
     1
102
RTVSPropertyOp22
 70
     1
102
RTVSPropertyOp23
 70
     1
102
RTVSPropertyOp24
 70
     1
102
RTVSPropertyOp25
 70
     1
102
RTVSPropertyOp26
 70
     1
102
RTVSPropertyOp27
 70
     1
102
RTVSPropertyOp28
 70
     1
102
RTVSPropertyOp29
 70
     1
102
RTVSPropertyOp30
 70
     1
102
RTVSPropertyOp31
 70
     1
102
RTVSPropertyOp32
 70
     1
  0
XRECORD
  5
12D4
102
{ACAD_REACTORS
330
12D3
102
}
330
12D3
100
AcDbXrecord
280
     1
102
RTVSPropertyOp0
 70
     0
102
RTVSPropertyOp1
 70
     0
102
RTVSPropertyOp2
 70
     0
102
RTVSPropertyOp3
 70
     0
102
RTVSPropertyOp4
 70
     0
102
RTVSPropertyOp5
 70
     0
102
RTVSPropertyOp6
 70
     0
102
RTVSPropertyOp7
 70
     0
102
RTVSPropertyOp8
 70
     0
102
RTVSPropertyOp9
 70
     0
102
RTVSPropertyOp10
 70
     0
102
RTVSPropertyOp11
 70
     0
102
RTVSPropertyOp12
 70
     0
102
RTVSPropertyOp13
 70
     0
102
RTVSPropertyOp14
 70
     2
102
RTVSPropertyOp15
 70
     0
102
RTVSPropertyOp16
 70
     0
102
RTVSPropertyOp17
 70
     0
102
RTVSPropertyOp18
 70
     0
102
RTVSPropertyOp19
 70
     0
102
RTVSPropertyOp20
 70
     0
102
RTVSPropertyOp21
 70
     0
102
RTVSPropertyOp22
 70
     0
102
RTVSPropertyOp23
 70
     0
102
RTVSPropertyOp24
 70
     0
102
RTVSPropertyOp25
 70
     0
102
RTVSPropertyOp26
 70
     0
102
RTVSPropertyOp27
 70
     0
102
RTVSPropertyOp28
 70
     0
102
RTVSPropertyOp29
 70
     0
102
RTVSPropertyOp30
 70
     0
102
RTVSPropertyOp31
 70
     0
102
RTVSPropertyOp32
 70
     0
  0
XRECORD
  5
12BB
102
{ACAD_REACTORS
330
12BA
102
}
330
12BA
100
AcDbXrecord
280
     1
102
RTVSPropertyOp0
 70
     1
102
RTVSPropertyOp1
 70
     1
102
RTVSPropertyOp2
 70
     1
102
RTVSPropertyOp3
 70
     1
102
RTVSPropertyOp4
 70
     1
102
RTVSPropertyOp5
 70
     1
102
RTVSPropertyOp6
 70
     1
102
RTVSPropertyOp7
 70
     1
102
RTVSPropertyOp8
 70
     1
102
RTVSPropertyOp9
 70
     1
102
RTVSPropertyOp10
 70
     1
102
RTVSPropertyOp11
 70
     1
102
RTVSPropertyOp12
 70
     1
102
RTVSPropertyOp13
 70
     1
102
RTVSPropertyOp14
 70
     1
102
RTVSPropertyOp15
 70
     1
102
RTVSPropertyOp16
 70
     1
102
RTVSPropertyOp17
 70
     1
102
RTVSPropertyOp18
 70
     1
102
RTVSPropertyOp19
 70
     1
102
RTVSPropertyOp20
 70
     1
102
RTVSPropertyOp21
 70
     1
102
RTVSPropertyOp22
 70
     1
102
RTVSPropertyOp23
 70
     1
102
RTVSPropertyOp24
 70
     1
102
RTVSPropertyOp25
 70
     1
102
RTVSPropertyOp26
 70
     1
102
RTVSPropertyOp27
 70
     1
102
RTVSPropertyOp28
 70
     1
102
RTVSPropertyOp29
 70
     1
102
RTVSPropertyOp30
 70
     1
102
RTVSPropertyOp31
 70
     1
102
RTVSPropertyOp32
 70
     1
  0
XRECORD
  5
12D6
102
{ACAD_REACTORS
330
12D5
102
}
330
12D5
100
AcDbXrecord
280
     1
102
RTVSPropertyOp0
 70
     0
102
RTVSPropertyOp1
 70
     0
102
RTVSPropertyOp2
 70
     0
102
RTVSPropertyOp3
 70
     0
102
RTVSPropertyOp4
 70
     0
102
RTVSPropertyOp5
 70
     0
102
RTVSPropertyOp6
 70
     0
102
RTVSPropertyOp7
 70
     0
102
RTVSPropertyOp8
 70
     0
102
RTVSPropertyOp9
 70
     0
102
RTVSPropertyOp10
 70
     0
102
RTVSPropertyOp11
 70
     0
102
RTVSPropertyOp12
 70
     0
102
RTVSPropertyOp13
 70
     0
102
RTVSPropertyOp14
 70
     2
102
RTVSPropertyOp15
 70
     0
102
RTVSPropertyOp16
 70
     0
102
RTVSPropertyOp17
 70
     0
102
RTVSPropertyOp18
 70
     0
102
RTVSPropertyOp19
 70
     0
102
RTVSPropertyOp20
 70
     0
102
RTVSPropertyOp21
 70
     0
102
RTVSPropertyOp22
 70
     0
102
RTVSPropertyOp23
 70
     0
102
RTVSPropertyOp24
 70
     0
102
RTVSPropertyOp25
 70
     0
102
RTVSPropertyOp26
 70
     0
102
RTVSPropertyOp27
 70
     0
102
RTVSPropertyOp28
 70
     0
102
RTVSPropertyOp29
 70
     0
102
RTVSPropertyOp30
 70
     0
102
RTVSPropertyOp31
 70
     0
102
RTVSPropertyOp32
 70
     0
  0
XRECORD
  5
12B3
102
{ACAD_REACTORS
330
12B2
102
}
330
12B2
100
AcDbXrecord
280
     1
102
RTVSPropertyOp0
 70
     1
102
RTVSPropertyOp1
 70
     1
102
RTVSPropertyOp2
 70
     1
102
RTVSPropertyOp3
 70
     1
102
RTVSPropertyOp4
 70
     1
102
RTVSPropertyOp5
 70
     1
102
RTVSPropertyOp6
 70
     1
102
RTVSPropertyOp7
 70
     1
102
RTVSPropertyOp8
 70
     1
102
RTVSPropertyOp9
 70
     1
102
RTVSPropertyOp10
 70
     1
102
RTVSPropertyOp11
 70
     1
102
RTVSPropertyOp12
 70
     1
102
RTVSPropertyOp13
 70
     1
102
RTVSPropertyOp14
 70
     1
102
RTVSPropertyOp15
 70
     1
102
RTVSPropertyOp16
 70
     1
102
RTVSPropertyOp17
 70
     1
102
RTVSPropertyOp18
 70
     1
102
RTVSPropertyOp19
 70
     1
102
RTVSPropertyOp20
 70
     1
102
RTVSPropertyOp21
 70
     1
102
RTVSPropertyOp22
 70
     1
102
RTVSPropertyOp23
 70
     1
102
RTVSPropertyOp24
 70
     1
102
RTVSPropertyOp25
 70
     1
102
RTVSPropertyOp26
 70
     1
102
RTVSPropertyOp27
 70
     1
102
RTVSPropertyOp28
 70
     1
102
RTVSPropertyOp29
 70
     1
102
RTVSPropertyOp30
 70
     1
102
RTVSPropertyOp31
 70
     1
102
RTVSPropertyOp32
 70
     1
  0
XRECORD
  5
12D2
102
{ACAD_REACTORS
330
12D1
102
}
330
12D1
100
AcDbXrecord
280
     1
102
RTVSPropertyOp0
 70
     1
102
RTVSPropertyOp1
 70
     1
102
RTVSPropertyOp2
 70
     1
102
RTVSPropertyOp3
 70
     1
102
RTVSPropertyOp4
 70
     1
102
RTVSPropertyOp5
 70
     1
102
RTVSPropertyOp6
 70
     1
102
RTVSPropertyOp7
 70
     1
102
RTVSPropertyOp8
 70
     1
102
RTVSPropertyOp9
 70
     1
102
RTVSPropertyOp10
 70
     1
102
RTVSPropertyOp11
 70
     1
102
RTVSPropertyOp12
 70
     1
102
RTVSPropertyOp13
 70
     1
102
RTVSPropertyOp14
 70
     1
102
RTVSPropertyOp15
 70
     1
102
RTVSPropertyOp16
 70
     1
102
RTVSPropertyOp17
 70
     1
102
RTVSPropertyOp18
 70
     1
102
RTVSPropertyOp19
 70
     1
102
RTVSPropertyOp20
 70
     1
102
RTVSPropertyOp21
 70
     1
102
RTVSPropertyOp22
 70
     1
102
RTVSPropertyOp23
 70
     1
102
RTVSPropertyOp24
 70
     1
102
RTVSPropertyOp25
 70
     1
102
RTVSPropertyOp26
 70
     1
102
RTVSPropertyOp27
 70
     1
102
RTVSPropertyOp28
 70
     1
102
RTVSPropertyOp29
 70
     1
102
RTVSPropertyOp30
 70
     1
102
RTVSPropertyOp31
 70
     1
102
RTVSPropertyOp32
 70
     1
  0
XRECORD
  5
12D0
102
{ACAD_REACTORS
330
12CF
102
}
330
12CF
100
AcDbXrecord
280
     1
102
RTVSPropertyOp0
 70
     1
102
RTVSPropertyOp1
 70
     1
102
RTVSPropertyOp2
 70
     1
102
RTVSPropertyOp3
 70
     1
102
RTVSPropertyOp4
 70
     1
102
RTVSPropertyOp5
 70
     1
102
RTVSPropertyOp6
 70
     1
102
RTVSPropertyOp7
 70
     1
102
RTVSPropertyOp8
 70
     1
102
RTVSPropertyOp9
 70
     1
102
RTVSPropertyOp10
 70
     1
102
RTVSPropertyOp11
 70
     1
102
RTVSPropertyOp12
 70
     1
102
RTVSPropertyOp13
 70
     1
102
RTVSPropertyOp14
 70
     1
102
RTVSPropertyOp15
 70
     1
102
RTVSPropertyOp16
 70
     1
102
RTVSPropertyOp17
 70
     1
102
RTVSPropertyOp18
 70
     1
102
RTVSPropertyOp19
 70
     1
102
RTVSPropertyOp20
 70
     1
102
RTVSPropertyOp21
 70
     1
102
RTVSPropertyOp22
 70
     1
102
RTVSPropertyOp23
 70
     1
102
RTVSPropertyOp24
 70
     1
102
RTVSPropertyOp25
 70
     1
102
RTVSPropertyOp26
 70
     1
102
RTVSPropertyOp27
 70
     1
102
RTVSPropertyOp28
 70
     1
102
RTVSPropertyOp29
 70
     1
102
RTVSPropertyOp30
 70
     1
102
RTVSPropertyOp31
 70
     1
102
RTVSPropertyOp32
 70
     1
  0
XRECORD
  5
12CA
102
{ACAD_REACTORS
330
12C9
102
}
330
12C9
100
AcDbXrecord
280
     1
102
RTVSPropertyOp0
 70
     1
102
RTVSPropertyOp1
 70
     1
102
RTVSPropertyOp2
 70
     1
102
RTVSPropertyOp3
 70
     1
102
RTVSPropertyOp4
 70
     1
102
RTVSPropertyOp5
 70
     1
102
RTVSPropertyOp6
 70
     1
102
RTVSPropertyOp7
 70
     1
102
RTVSPropertyOp8
 70
     1
102
RTVSPropertyOp9
 70
     1
102
RTVSPropertyOp10
 70
     1
102
RTVSPropertyOp11
 70
     1
102
RTVSPropertyOp12
 70
     1
102
RTVSPropertyOp13
 70
     1
102
RTVSPropertyOp14
 70
     1
102
RTVSPropertyOp15
 70
     1
102
RTVSPropertyOp16
 70
     1
102
RTVSPropertyOp17
 70
     1
102
RTVSPropertyOp18
 70
     1
102
RTVSPropertyOp19
 70
     1
102
RTVSPropertyOp20
 70
     1
102
RTVSPropertyOp21
 70
     1
102
RTVSPropertyOp22
 70
     1
102
RTVSPropertyOp23
 70
     1
102
RTVSPropertyOp24
 70
     1
102
RTVSPropertyOp25
 70
     1
102
RTVSPropertyOp26
 70
     1
102
RTVSPropertyOp27
 70
     1
102
RTVSPropertyOp28
 70
     1
102
RTVSPropertyOp29
 70
     1
102
RTVSPropertyOp30
 70
     1
102
RTVSPropertyOp31
 70
     1
102
RTVSPropertyOp32
 70
     1
  0
XRECORD
  5
12CC
102
{ACAD_REACTORS
330
12CB
102
}
330
12CB
100
AcDbXrecord
280
     1
102
RTVSPropertyOp0
 70
     1
102
RTVSPropertyOp1
 70
     1
102
RTVSPropertyOp2
 70
     1
102
RTVSPropertyOp3
 70
     1
102
RTVSPropertyOp4
 70
     1
102
RTVSPropertyOp5
 70
     1
102
RTVSPropertyOp6
 70
     1
102
RTVSPropertyOp7
 70
     1
102
RTVSPropertyOp8
 70
     1
102
RTVSPropertyOp9
 70
     1
102
RTVSPropertyOp10
 70
     1
102
RTVSPropertyOp11
 70
     1
102
RTVSPropertyOp12
 70
     1
102
RTVSPropertyOp13
 70
     1
102
RTVSPropertyOp14
 70
     1
102
RTVSPropertyOp15
 70
     1
102
RTVSPropertyOp16
 70
     1
102
RTVSPropertyOp17
 70
     1
102
RTVSPropertyOp18
 70
     1
102
RTVSPropertyOp19
 70
     1
102
RTVSPropertyOp20
 70
     1
102
RTVSPropertyOp21
 70
     1
102
RTVSPropertyOp22
 70
     1
102
RTVSPropertyOp23
 70
     1
102
RTVSPropertyOp24
 70
     1
102
RTVSPropertyOp25
 70
     1
102
RTVSPropertyOp26
 70
     1
102
RTVSPropertyOp27
 70
     1
102
RTVSPropertyOp28
 70
     1
102
RTVSPropertyOp29
 70
     1
102
RTVSPropertyOp30
 70
     1
102
RTVSPropertyOp31
 70
     1
102
RTVSPropertyOp32
 70
     1
  0
XRECORD
  5
12B9
102
{ACAD_REACTORS
330
12B8
102
}
330
12B8
100
AcDbXrecord
280
     1
102
RTVSPropertyOp0
 70
     1
102
RTVSPropertyOp1
 70
     1
102
RTVSPropertyOp2
 70
     1
102
RTVSPropertyOp3
 70
     1
102
RTVSPropertyOp4
 70
     1
102
RTVSPropertyOp5
 70
     1
102
RTVSPropertyOp6
 70
     1
102
RTVSPropertyOp7
 70
     1
102
RTVSPropertyOp8
 70
     1
102
RTVSPropertyOp9
 70
     1
102
RTVSPropertyOp10
 70
     1
102
RTVSPropertyOp11
 70
     1
102
RTVSPropertyOp12
 70
     1
102
RTVSPropertyOp13
 70
     1
102
RTVSPropertyOp14
 70
     1
102
RTVSPropertyOp15
 70
     1
102
RTVSPropertyOp16
 70
     1
102
RTVSPropertyOp17
 70
     1
102
RTVSPropertyOp18
 70
     1
102
RTVSPropertyOp19
 70
     1
102
RTVSPropertyOp20
 70
     1
102
RTVSPropertyOp21
 70
     1
102
RTVSPropertyOp22
 70
     1
102
RTVSPropertyOp23
 70
     1
102
RTVSPropertyOp24
 70
     1
102
RTVSPropertyOp25
 70
     1
102
RTVSPropertyOp26
 70
     1
102
RTVSPropertyOp27
 70
     1
102
RTVSPropertyOp28
 70
     1
102
RTVSPropertyOp29
 70
     1
102
RTVSPropertyOp30
 70
     1
102
RTVSPropertyOp31
 70
     1
102
RTVSPropertyOp32
 70
     1
  0
XRECORD
  5
12C6
102
{ACAD_REACTORS
330
12C5
102
}
330
12C5
100
AcDbXrecord
280
     1
102
RTVSPropertyOp0
 70
     1
102
RTVSPropertyOp1
 70
     1
102
RTVSPropertyOp2
 70
     1
102
RTVSPropertyOp3
 70
     1
102
RTVSPropertyOp4
 70
     1
102
RTVSPropertyOp5
 70
     1
102
RTVSPropertyOp6
 70
     1
102
RTVSPropertyOp7
 70
     1
102
RTVSPropertyOp8
 70
     1
102
RTVSPropertyOp9
 70
     1
102
RTVSPropertyOp10
 70
     1
102
RTVSPropertyOp11
 70
     1
102
RTVSPropertyOp12
 70
     1
102
RTVSPropertyOp13
 70
     1
102
RTVSPropertyOp14
 70
     1
102
RTVSPropertyOp15
 70
     1
102
RTVSPropertyOp16
 70
     1
102
RTVSPropertyOp17
 70
     1
102
RTVSPropertyOp18
 70
     1
102
RTVSPropertyOp19
 70
     1
102
RTVSPropertyOp20
 70
     1
102
RTVSPropertyOp21
 70
     1
102
RTVSPropertyOp22
 70
     1
102
RTVSPropertyOp23
 70
     1
102
RTVSPropertyOp24
 70
     1
102
RTVSPropertyOp25
 70
     1
102
RTVSPropertyOp26
 70
     1
102
RTVSPropertyOp27
 70
     1
102
RTVSPropertyOp28
 70
     1
102
RTVSPropertyOp29
 70
     1
102
RTVSPropertyOp30
 70
     1
102
RTVSPropertyOp31
 70
     1
102
RTVSPropertyOp32
 70
     1
  0
XRECORD
  5
12CE
102
{ACAD_REACTORS
330
12CD
102
}
330
12CD
100
AcDbXrecord
280
     1
102
RTVSPropertyOp0
 70
     1
102
RTVSPropertyOp1
 70
     1
102
RTVSPropertyOp2
 70
     1
102
RTVSPropertyOp3
 70
     1
102
RTVSPropertyOp4
 70
     1
102
RTVSPropertyOp5
 70
     1
102
RTVSPropertyOp6
 70
     1
102
RTVSPropertyOp7
 70
     1
102
RTVSPropertyOp8
 70
     1
102
RTVSPropertyOp9
 70
     1
102
RTVSPropertyOp10
 70
     1
102
RTVSPropertyOp11
 70
     1
102
RTVSPropertyOp12
 70
     1
102
RTVSPropertyOp13
 70
     1
102
RTVSPropertyOp14
 70
     1
102
RTVSPropertyOp15
 70
     1
102
RTVSPropertyOp16
 70
     1
102
RTVSPropertyOp17
 70
     1
102
RTVSPropertyOp18
 70
     1
102
RTVSPropertyOp19
 70
     1
102
RTVSPropertyOp20
 70
     1
102
RTVSPropertyOp21
 70
     1
102
RTVSPropertyOp22
 70
     1
102
RTVSPropertyOp23
 70
     1
102
RTVSPropertyOp24
 70
     1
102
RTVSPropertyOp25
 70
     1
102
RTVSPropertyOp26
 70
     1
102
RTVSPropertyOp27
 70
     1
102
RTVSPropertyOp28
 70
     1
102
RTVSPropertyOp29
 70
     1
102
RTVSPropertyOp30
 70
     1
102
RTVSPropertyOp31
 70
     1
102
RTVSPropertyOp32
 70
     1
  0
ENDSEC
  0
EOF
