  0
SECTION
  2
HEADER
  9
$ACADVER
  1
AC1015
  9
$ACADMAINTVER
 70
    20
  9
$DWGCODEPAGE
  3
ANSI_932
  9
$INSBASE
 10
0.0
 20
0.0
 30
0.0
  9
$EXTMIN
 10
-433.4128734277968
 20
-380.3078699634649
 30
0.0
  9
$EXTMAX
 10
-156.4128734277969
 20
-191.8352526634648
 30
0.0
  9
$LIMMIN
 10
-131.901101
 20
-379.480492
  9
$LIMMAX
 10
145.110314
 20
-191.005882
  9
$ORTHOMODE
 70
     1
  9
$REGENMODE
 70
     1
  9
$FILLMODE
 70
     1
  9
$QTEXTMODE
 70
     0
  9
$MIRRTEXT
 70
     0
  9
$LTSCALE
 40
4.616823999999998
  9
$ATTMODE
 70
     1
  9
$TEXTSIZE
 40
3.2
  9
$TRACEWID
 40
0.05
  9
$TEXTSTYLE
  7
高3.2
  9
$CLAYER
  8
0
  9
$CELTYPE
  6
CONTINUOUS
  9
$CECOLOR
 62
   256
  9
$CELTSCALE
 40
1.0
  9
$DISPSILH
 70
     0
  9
$DIMSCALE
 40
1.0
  9
$DIMASZ
 40
2.5
  9
$DIMEXO
 40
0.25
  9
$DIMDLI
 40
0.2
  9
$DIMRND
 40
0.0
  9
$DIMDLE
 40
0.0
  9
$DIMEXE
 40
1.25
  9
$DIMTP
 40
0.0
  9
$DIMTM
 40
0.0
  9
$DIMTXT
 40
3.0
  9
$DIMCEN
 40
0.0
  9
$DIMTSZ
 40
0.0
  9
$DIMTOL
 70
     0
  9
$DIMLIM
 70
     0
  9
$DIMTIH
 70
     0
  9
$DIMTOH
 70
     0
  9
$DIMSE1
 70
     0
  9
$DIMSE2
 70
     0
  9
$DIMTAD
 70
     3
  9
$DIMZIN
 70
     8
  9
$DIMBLK
  1
Open30
  9
$DIMASO
 70
     1
  9
$DIMSHO
 70
     1
  9
$DIMPOST
  1

  9
$DIMAPOST
  1

  9
$DIMALT
 70
     0
  9
$DIMALTD
 70
     3
  9
$DIMALTF
 40
0.03937007874016
  9
$DIMLFAC
 40
1.0
  9
$DIMTOFL
 70
     1
  9
$DIMTVP
 40
0.0
  9
$DIMTIX
 70
     0
  9
$DIMSOXD
 70
     0
  9
$DIMSAH
 70
     0
  9
$DIMBLK1
  1

  9
$DIMBLK2
  1

  9
$DIMSTYLE
  2
1：1
  9
$DIMCLRD
 70
     0
  9
$DIMCLRE
 70
     0
  9
$DIMCLRT
 70
     4
  9
$DIMTFAC
 40
1.0
  9
$DIMGAP
 40
0.625
  9
$DIMJUST
 70
     0
  9
$DIMSD1
 70
     0
  9
$DIMSD2
 70
     0
  9
$DIMTOLJ
 70
     0
  9
$DIMTZIN
 70
     8
  9
$DIMALTZ
 70
     0
  9
$DIMALTTZ
 70
     0
  9
$DIMUPT
 70
     1
  9
$DIMDEC
 70
     2
  9
$DIMTDEC
 70
     2
  9
$DIMALTU
 70
     2
  9
$DIMALTTD
 70
     3
  9
$DIMTXSTY
  7
STANDARD
  9
$DIMAUNIT
 70
     0
  9
$DIMADEC
 70
     1
  9
$DIMALTRND
 40
0.0
  9
$DIMAZIN
 70
     2
  9
$DIMDSEP
 70
    46
  9
$DIMATFIT
 70
     0
  9
$DIMFRAC
 70
     0
  9
$DIMLDRBLK
  1
Open30
  9
$DIMLUNIT
 70
     2
  9
$DIMLWD
 70
    -2
  9
$DIMLWE
 70
    -2
  9
$DIMTMOVE
 70
     0
  9
$LUNITS
 70
     2
  9
$LUPREC
 70
     4
  9
$SKETCHINC
 40
0.1
  9
$FILLETRAD
 40
0.0
  9
$AUNITS
 70
     0
  9
$AUPREC
 70
     0
  9
$MENU
  1
.
  9
$ELEVATION
 40
0.0
  9
$PELEVATION
 40
0.0
  9
$THICKNESS
 40
0.0
  9
$LIMCHECK
 70
     0
  9
$CHAMFERA
 40
0.0
  9
$CHAMFERB
 40
0.0
  9
$CHAMFERC
 40
0.0
  9
$CHAMFERD
 40
0.0
  9
$SKPOLY
 70
     0
  9
$TDCREATE
 40
2457240.399584248
  9
$TDUCREATE
 40
2457240.024584248
  9
$TDUPDATE
 40
2457240.471952419
  9
$TDUUPDATE
 40
2457240.096952419
  9
$TDINDWG
 40
0.0213425116
  9
$TDUSRTIMER
 40
0.0213423380
  9
$USRTIMER
 70
     1
  9
$ANGBASE
 50
0.0
  9
$ANGDIR
 70
     0
  9
$PDMODE
 70
     0
  9
$PDSIZE
 40
0.0
  9
$PLINEWID
 40
0.0
  9
$SPLFRAME
 70
     0
  9
$SPLINETYPE
 70
     6
  9
$SPLINESEGS
 70
     8
  9
$HANDSEED
  5
113F
  9
$SURFTAB1
 70
     6
  9
$SURFTAB2
 70
     6
  9
$SURFTYPE
 70
     6
  9
$SURFU
 70
     6
  9
$SURFV
 70
     6
  9
$UCSBASE
  2

  9
$UCSNAME
  2

  9
$UCSORG
 10
0.0
 20
0.0
 30
0.0
  9
$UCSXDIR
 10
1.0
 20
0.0
 30
0.0
  9
$UCSYDIR
 10
0.0
 20
1.0
 30
0.0
  9
$UCSORTHOREF
  2

  9
$UCSORTHOVIEW
 70
     0
  9
$UCSORGTOP
 10
0.0
 20
0.0
 30
0.0
  9
$UCSORGBOTTOM
 10
0.0
 20
0.0
 30
0.0
  9
$UCSORGLEFT
 10
0.0
 20
0.0
 30
0.0
  9
$UCSORGRIGHT
 10
0.0
 20
0.0
 30
0.0
  9
$UCSORGFRONT
 10
0.0
 20
0.0
 30
0.0
  9
$UCSORGBACK
 10
0.0
 20
0.0
 30
0.0
  9
$PUCSBASE
  2

  9
$PUCSNAME
  2

  9
$PUCSORG
 10
0.0
 20
0.0
 30
0.0
  9
$PUCSXDIR
 10
1.0
 20
0.0
 30
0.0
  9
$PUCSYDIR
 10
0.0
 20
1.0
 30
0.0
  9
$PUCSORTHOREF
  2

  9
$PUCSORTHOVIEW
 70
     0
  9
$PUCSORGTOP
 10
0.0
 20
0.0
 30
0.0
  9
$PUCSORGBOTTOM
 10
0.0
 20
0.0
 30
0.0
  9
$PUCSORGLEFT
 10
0.0
 20
0.0
 30
0.0
  9
$PUCSORGRIGHT
 10
0.0
 20
0.0
 30
0.0
  9
$PUCSORGFRONT
 10
0.0
 20
0.0
 30
0.0
  9
$PUCSORGBACK
 10
0.0
 20
0.0
 30
0.0
  9
$USERI1
 70
     0
  9
$USERI2
 70
     0
  9
$USERI3
 70
     0
  9
$USERI4
 70
     0
  9
$USERI5
 70
     0
  9
$USERR1
 40
0.0
  9
$USERR2
 40
0.0
  9
$USERR3
 40
0.0
  9
$USERR4
 40
0.0
  9
$USERR5
 40
0.0
  9
$WORLDVIEW
 70
     1
  9
$SHADEDGE
 70
     3
  9
$SHADEDIF
 70
    70
  9
$TILEMODE
 70
     1
  9
$MAXACTVP
 70
    64
  9
$PINSBASE
 10
0.0
 20
0.0
 30
0.0
  9
$PLIMCHECK
 70
     0
  9
$PEXTMIN
 10
1.000000000000000E+20
 20
1.000000000000000E+20
 30
1.000000000000000E+20
  9
$PEXTMAX
 10
-1.000000000000000E+20
 20
-1.000000000000000E+20
 30
-1.000000000000000E+20
  9
$PLIMMIN
 10
0.0
 20
0.0
  9
$PLIMMAX
 10
12.0
 20
9.0
  9
$UNITMODE
 70
     0
  9
$VISRETAIN
 70
     1
  9
$PLINEGEN
 70
     0
  9
$PSLTSCALE
 70
     1
  9
$TREEDEPTH
 70
  3020
  9
$CMLSTYLE
  2
Standard
  9
$CMLJUST
 70
     0
  9
$CMLSCALE
 40
1.0
  9
$PROXYGRAPHICS
 70
     1
  9
$MEASUREMENT
 70
     0
  9
$CELWEIGHT
370
    -1
  9
$ENDCAPS
280
     0
  9
$JOINSTYLE
280
     0
  9
$LWDISPLAY
290
     0
  9
$INSUNITS
 70
     0
  9
$HYPERLINKBASE
  1

  9
$STYLESHEET
  1

  9
$XEDIT
290
     1
  9
$CEPSNTYPE
380
     0
  9
$PSTYLEMODE
290
     1
  9
$FINGERPRINTGUID
  2
{E69A00F4-EED7-469C-A4FC-DD0687224BE0}
  9
$VERSIONGUID
  2
{68AB7C6E-1D03-49EC-8D23-25C73EB1063B}
  9
$EXTNAMES
290
     1
  9
$PSVPSCALE
 40
0.0
  9
$OLESTARTUP
290
     0
  0
ENDSEC
  0
SECTION
  2
CLASSES
  0
CLASS
  1
ACDBDICTIONARYWDFLT
  2
AcDbDictionaryWithDefault
  3
ObjectDBX Classes
 90
        0
280
     0
281
     0
  0
CLASS
  1
MATERIAL
  2
AcDbMaterial
  3
ObjectDBX Classes
 90
     1153
280
     0
281
     0
  0
CLASS
  1
VISUALSTYLE
  2
AcDbVisualStyle
  3
ObjectDBX Classes
 90
     4095
280
     0
281
     0
  0
CLASS
  1
SCALE
  2
AcDbScale
  3
ObjectDBX Classes
 90
     1153
280
     0
281
     0
  0
CLASS
  1
TABLESTYLE
  2
AcDbTableStyle
  3
ObjectDBX Classes
 90
     4095
280
     0
281
     0
  0
CLASS
  1
MLEADERSTYLE
  2
AcDbMLeaderStyle
  3
ACDB_MLEADERSTYLE_CLASS
 90
     4095
280
     0
281
     0
  0
CLASS
  1
SORTENTSTABLE
  2
AcDbSortentsTable
  3
ObjectDBX Classes
 90
        0
280
     0
281
     0
  0
CLASS
  1
AEC_REFEDIT_STATUS_TRACKER
  2
AecDbRefEditStatusTracker
  3
AecArchBase60|Product Desc: Autodesk Architectural Desktop 2007 |Company: Autodesk,Inc. |WEB Address: www.autodesk.com
 90
      129
280
     0
281
     0
  0
CLASS
  1
NPOCOLLECTION
  2
AcDbImpNonPersistentObjectsCollection
  3
ObjectDBX Classes
 90
     1153
280
     0
281
     0
  0
CLASS
  1
DICTIONARYVAR
  2
AcDbDictionaryVar
  3
ObjectDBX Classes
 90
        0
280
     0
281
     0
  0
CLASS
  1
CELLSTYLEMAP
  2
AcDbCellStyleMap
  3
ObjectDBX Classes
 90
     1152
280
     0
281
     0
  0
CLASS
  1
ACDBPLACEHOLDER
  2
AcDbPlaceHolder
  3
ObjectDBX Classes
 90
        0
280
     0
281
     0
  0
CLASS
  1
LAYOUT
  2
AcDbLayout
  3
ObjectDBX Classes
 90
        0
280
     0
281
     0
  0
ENDSEC
  0
SECTION
  2
TABLES
  0
TABLE
  2
VPORT
  5
8
330
0
100
AcDbSymbolTable
 70
     1
  0
VPORT
  5
8B
330
8
100
AcDbSymbolTableRecord
100
AcDbViewportTableRecord
  2
*Active
 70
     0
 10
0.0
 20
0.0
 11
1.0
 21
1.0
 12
-208.3410294981284
 22
-333.0630719110827
 13
0.0
 23
0.0
 14
1.0
 24
1.0
 15
0.0
 25
0.0
 16
0.0
 26
0.0
 36
1.0
 17
0.0
 27
0.0
 37
0.0
 40
582.6145215831481
 41
1.647482014388489
 42
50.0
 43
0.0
 44
0.0
 50
0.0
 51
0.0
 71
     0
 72
   100
 73
     1
 74
     1
 75
     0
 76
     0
 77
     0
 78
     0
281
     0
 65
     1
110
0.0
120
0.0
130
0.0
111
1.0
121
0.0
131
0.0
112
0.0
122
1.0
132
0.0
 79
     0
146
0.0
  0
ENDTAB
  0
TABLE
  2
LTYPE
  5
5
330
0
100
AcDbSymbolTable
 70
     1
  0
LTYPE
  5
5A
330
5
100
AcDbSymbolTableRecord
100
AcDbLinetypeTableRecord
  2
ByBlock
 70
     0
  3

 72
    65
 73
     0
 40
0.0
  0
LTYPE
  5
5B
330
5
100
AcDbSymbolTableRecord
100
AcDbLinetypeTableRecord
  2
ByLayer
 70
     0
  3

 72
    65
 73
     0
 40
0.0
  0
LTYPE
  5
5C
330
5
100
AcDbSymbolTableRecord
100
AcDbLinetypeTableRecord
  2
CONTINUOUS
 70
     0
  3
Solid-line
 72
    65
 73
     0
 40
0.0
  0
ENDTAB
  0
TABLE
  2
LAYER
  5
2
102
{ACAD_XDICTIONARY
360
542
102
}
330
0
100
AcDbSymbolTable
 70
     2
  0
LAYER
  5
54
102
{ACAD_XDICTIONARY
360
FAB
102
}
330
2
100
AcDbSymbolTableRecord
100
AcDbLayerTableRecord
  2
0
 70
     0
 62
     7
  6
CONTINUOUS
370
    -3
390
F
  0
LAYER
  5
5D9
330
2
100
AcDbSymbolTableRecord
100
AcDbLayerTableRecord
  2
Defpoints
 70
     0
 62
     7
  6
CONTINUOUS
290
     0
370
    -3
390
F
  0
ENDTAB
  0
TABLE
  2
STYLE
  5
3
330
0
100
AcDbSymbolTable
 70
     6
  0
STYLE
  5
55
330
3
100
AcDbSymbolTableRecord
100
AcDbTextStyleTableRecord
  2
STANDARD
 70
     0
 40
0.0
 41
1.0
 50
0.0
 71
     0
 42
0.2
  3
TXT
  4
BIGFONT
  0
STYLE
  5
53B
330
3
100
AcDbSymbolTableRecord
100
AcDbTextStyleTableRecord
  2
高3.2
 70
     0
 40
3.2
 41
1.0
 50
0.0
 71
     0
 42
3.2
  3
txt.shx
  4
bigfont.shx
  0
STYLE
  5
53C
330
3
100
AcDbSymbolTableRecord
100
AcDbTextStyleTableRecord
  2
高6.3
 70
     0
 40
6.299999999999998
 41
1.0
 50
0.0
 71
     0
 42
6.299999999999998
  3
txt.shx
  4
bigfont.shx
  0
STYLE
  5
53D
330
3
100
AcDbSymbolTableRecord
100
AcDbTextStyleTableRecord
  2
高2.5
 70
     0
 40
2.5
 41
1.0
 50
0.0
 71
     0
 42
0.2
  3
txt.shx
  4
bigfont.shx
  0
STYLE
  5
53E
330
3
100
AcDbSymbolTableRecord
100
AcDbTextStyleTableRecord
  2
高4.5
 70
     0
 40
4.5
 41
1.0
 50
0.0
 71
     0
 42
6.299999999999998
  3
txt.shx
  4
bigfont.shx
  0
STYLE
  5
53F
330
3
100
AcDbSymbolTableRecord
100
AcDbTextStyleTableRecord
  2
高2
 70
     0
 40
2.0
 41
1.0
 50
0.0
 71
     0
 42
6.299999999999998
  3
txt.shx
  4
bigfont.shx
  0
ENDTAB
  0
TABLE
  2
VIEW
  5
6
330
0
100
AcDbSymbolTable
 70
     0
  0
ENDTAB
  0
TABLE
  2
UCS
  5
7
330
0
100
AcDbSymbolTable
 70
     0
  0
ENDTAB
  0
TABLE
  2
APPID
  5
9
330
0
100
AcDbSymbolTable
 70
    10
  0
APPID
  5
56
330
9
100
AcDbSymbolTableRecord
100
AcDbRegAppTableRecord
  2
ACAD
 70
     0
  0
APPID
  5
5D
330
9
100
AcDbSymbolTableRecord
100
AcDbRegAppTableRecord
  2
AcadAnnotative
 70
     0
  0
APPID
  5
541
330
9
100
AcDbSymbolTableRecord
100
AcDbRegAppTableRecord
  2
ACAD_DSTYLE_DIMJOGGED_JOGANGLE_SYMBOL
 70
     0
  0
APPID
  5
5E3
330
9
100
AcDbSymbolTableRecord
100
AcDbRegAppTableRecord
  2
ACAD_DSTYLE_DIMJAG
 70
     0
  0
APPID
  5
5E4
330
9
100
AcDbSymbolTableRecord
100
AcDbRegAppTableRecord
  2
ACAD_DSTYLE_DIMBREAK
 70
     0
  0
APPID
  5
5E5
330
9
100
AcDbSymbolTableRecord
100
AcDbRegAppTableRecord
  2
ACAD_DSTYLE_DIMTALN
 70
     0
  0
APPID
  5
985
330
9
100
AcDbSymbolTableRecord
100
AcDbRegAppTableRecord
  2
ACAD_EXEMPT_FROM_CAD_STANDARDS
 70
     0
  0
APPID
  5
FF1
330
9
100
AcDbSymbolTableRecord
100
AcDbRegAppTableRecord
  2
ACAD_MLEADERVER
 70
     0
  0
APPID
  5
FF6
330
9
100
AcDbSymbolTableRecord
100
AcDbRegAppTableRecord
  2
ACAD_DSTYLE_DIMARC_LENGTH_SYMBOL
 70
     0
  0
APPID
  5
FF7
330
9
100
AcDbSymbolTableRecord
100
AcDbRegAppTableRecord
  2
ACAD_DSTYLE_DIMEXT_LENGTH
 70
     0
  0
ENDTAB
  0
TABLE
  2
DIMSTYLE
  5
A
330
0
100
AcDbSymbolTable
 70
    11
100
AcDbDimStyleTable
 71
     1
340
540
  0
DIMSTYLE
105
57
330
A
100
AcDbSymbolTableRecord
100
AcDbDimStyleTableRecord
  2
Standard
 70
     0
340
55
  0
DIMSTYLE
105
540
330
A
100
AcDbSymbolTableRecord
100
AcDbDimStyleTableRecord
  2
1：1
 70
     0
 41
2.5
 42
0.25
 43
0.2
 44
1.25
 73
     0
 74
     0
 77
     3
 78
     8
 79
     2
140
3.0
141
0.0
143
0.03937007874016
147
0.625
171
     3
172
     1
178
     4
179
     1
271
     2
272
     2
274
     3
283
     0
284
     8
288
     1
289
     0
340
55
341
465
342
465
1001
ACAD_DSTYLE_DIMARC_LENGTH_SYMBOL
1070
   379
1070
     2
1001
ACAD_DSTYLE_DIMEXT_LENGTH
1070
   378
1040
1.25
1001
ACAD_DSTYLE_DIMJOGGED_JOGANGLE_SYMBOL
1070
   384
1040
1.570796326794896
  0
DIMSTYLE
105
5DA
330
A
100
AcDbSymbolTableRecord
100
AcDbDimStyleTableRecord
  2
2：1
 70
     0
 41
2.5
 42
0.25
 43
0.2
 44
1.25
 73
     0
 74
     0
 77
     3
 78
     8
 79
     2
140
3.0
141
0.0
143
0.03937007874016
144
0.5
147
0.625
171
     3
172
     1
178
     4
179
     1
271
     2
272
     2
274
     3
283
     0
284
     8
288
     1
289
     0
340
55
341
465
342
465
1001
ACAD_DSTYLE_DIMARC_LENGTH_SYMBOL
1070
   379
1070
     2
1001
ACAD_DSTYLE_DIMEXT_LENGTH
1070
   378
1040
1.25
1001
ACAD_DSTYLE_DIMJOGGED_JOGANGLE_SYMBOL
1070
   384
1040
1.570796326794896
  0
DIMSTYLE
105
5DB
330
A
100
AcDbSymbolTableRecord
100
AcDbDimStyleTableRecord
  2
5：1
 70
     0
 41
2.5
 42
0.25
 43
0.2
 44
1.25
 73
     0
 74
     0
 77
     3
 78
     8
 79
     2
140
3.0
141
0.0
143
0.03937007874016
144
0.2
147
0.625
171
     3
172
     1
178
     4
179
     1
271
     2
272
     2
274
     3
283
     0
284
     8
288
     1
289
     0
340
55
341
465
342
465
1001
ACAD_DSTYLE_DIMARC_LENGTH_SYMBOL
1070
   379
1070
     2
1001
ACAD_DSTYLE_DIMEXT_LENGTH
1070
   378
1040
1.25
1001
ACAD_DSTYLE_DIMJOGGED_JOGANGLE_SYMBOL
1070
   384
1040
1.570796326794896
  0
DIMSTYLE
105
5DC
330
A
100
AcDbSymbolTableRecord
100
AcDbDimStyleTableRecord
  2
10：1
 70
     0
 41
2.5
 42
0.25
 43
0.2
 44
1.25
 73
     0
 74
     0
 77
     3
 78
     8
 79
     2
140
3.0
141
0.0
143
0.03937007874016
144
0.1
147
0.625
171
     3
172
     1
178
     4
179
     1
271
     2
272
     2
274
     3
283
     0
284
     8
288
     1
289
     0
340
55
341
465
342
465
1001
ACAD_DSTYLE_DIMARC_LENGTH_SYMBOL
1070
   379
1070
     2
1001
ACAD_DSTYLE_DIMEXT_LENGTH
1070
   378
1040
1.25
1001
ACAD_DSTYLE_DIMJOGGED_JOGANGLE_SYMBOL
1070
   384
1040
1.570796326794896
  0
DIMSTYLE
105
5DD
330
A
100
AcDbSymbolTableRecord
100
AcDbDimStyleTableRecord
  2
1／2
 70
     0
 41
2.5
 42
0.25
 43
0.2
 44
1.25
 73
     0
 74
     0
 77
     3
 78
     8
 79
     2
140
3.0
141
0.0
143
0.03937007874016
144
2.0
147
0.625
171
     3
172
     1
178
     4
179
     1
271
     2
272
     2
274
     3
283
     0
284
     8
288
     1
289
     0
340
55
341
465
342
465
1001
ACAD_DSTYLE_DIMARC_LENGTH_SYMBOL
1070
   379
1070
     2
1001
ACAD_DSTYLE_DIMEXT_LENGTH
1070
   378
1040
1.25
1001
ACAD_DSTYLE_DIMJOGGED_JOGANGLE_SYMBOL
1070
   384
1040
1.570796326794896
  0
DIMSTYLE
105
5DE
330
A
100
AcDbSymbolTableRecord
100
AcDbDimStyleTableRecord
  2
1／5
 70
     0
 41
2.5
 42
0.25
 43
0.2
 44
1.25
 73
     0
 74
     0
 77
     3
 78
     8
 79
     2
140
3.0
141
0.0
143
0.03937007874016
144
5.0
147
0.625
171
     3
172
     1
178
     4
179
     1
271
     2
272
     2
274
     3
283
     0
284
     8
288
     1
289
     0
340
55
341
465
342
465
1001
ACAD_DSTYLE_DIMARC_LENGTH_SYMBOL
1070
   379
1070
     2
1001
ACAD_DSTYLE_DIMEXT_LENGTH
1070
   378
1040
1.25
1001
ACAD_DSTYLE_DIMJOGGED_JOGANGLE_SYMBOL
1070
   384
1040
1.570796326794896
  0
DIMSTYLE
105
5DF
330
A
100
AcDbSymbolTableRecord
100
AcDbDimStyleTableRecord
  2
1／10
 70
     0
 41
2.5
 42
0.25
 43
0.2
 44
1.25
 73
     0
 74
     0
 77
     3
 78
     8
 79
     2
140
3.0
141
0.0
143
0.03937007874016
144
10.0
147
0.625
171
     3
172
     1
178
     4
179
     1
271
     2
272
     2
274
     3
283
     0
284
     8
288
     1
289
     0
340
55
341
465
342
465
1001
ACAD_DSTYLE_DIMARC_LENGTH_SYMBOL
1070
   379
1070
     2
1001
ACAD_DSTYLE_DIMEXT_LENGTH
1070
   378
1040
1.25
1001
ACAD_DSTYLE_DIMJOGGED_JOGANGLE_SYMBOL
1070
   384
1040
1.570796326794896
  0
DIMSTYLE
105
5E0
330
A
100
AcDbSymbolTableRecord
100
AcDbDimStyleTableRecord
  2
1／4
 70
     0
 41
2.5
 42
0.25
 43
0.2
 44
1.25
 73
     0
 74
     0
 77
     3
 78
     8
 79
     2
140
3.0
141
0.0
143
0.03937007874016
144
4.0
147
0.625
171
     3
172
     1
178
     4
179
     1
271
     2
272
     2
274
     3
283
     0
284
     8
288
     1
289
     0
340
55
341
465
342
465
1001
ACAD_DSTYLE_DIMARC_LENGTH_SYMBOL
1070
   379
1070
     2
1001
ACAD_DSTYLE_DIMEXT_LENGTH
1070
   378
1040
1.25
1001
ACAD_DSTYLE_DIMJOGGED_JOGANGLE_SYMBOL
1070
   384
1040
1.570796326794896
  0
DIMSTYLE
105
5E1
330
A
100
AcDbSymbolTableRecord
100
AcDbDimStyleTableRecord
  2
1／3
 70
     0
 41
2.5
 42
0.25
 43
0.2
 44
1.25
 73
     0
 74
     0
 77
     3
 78
     8
 79
     2
140
3.0
141
0.0
143
0.03937007874016
144
3.0
147
0.625
171
     3
172
     1
178
     4
179
     1
271
     2
272
     2
274
     3
283
     0
284
     8
288
     1
289
     0
340
55
341
465
342
465
1001
ACAD_DSTYLE_DIMARC_LENGTH_SYMBOL
1070
   379
1070
     2
1001
ACAD_DSTYLE_DIMEXT_LENGTH
1070
   378
1040
1.25
1001
ACAD_DSTYLE_DIMJOGGED_JOGANGLE_SYMBOL
1070
   384
1040
1.570796326794896
  0
DIMSTYLE
105
5E2
330
A
100
AcDbSymbolTableRecord
100
AcDbDimStyleTableRecord
  2
FREE
 70
     0
 41
2.5
 42
0.25
 43
0.2
 44
1.25
 73
     0
 74
     0
 77
     3
 78
     8
 79
     2
140
3.0
141
0.0
143
0.03937007874016
147
0.625
171
     3
172
     1
178
     4
179
     1
271
     2
272
     2
274
     3
283
     0
284
     8
288
     1
289
     0
340
55
341
465
342
465
1001
ACAD_DSTYLE_DIMBREAK
1070
   391
1040
3.75
1001
ACAD_DSTYLE_DIMJAG
1070
   388
1040
1.5
1001
ACAD_DSTYLE_DIMTALN
1070
   392
1070
     0
1001
ACAD_DSTYLE_DIMARC_LENGTH_SYMBOL
1070
   379
1070
     2
1001
ACAD_DSTYLE_DIMEXT_LENGTH
1070
   378
1040
1.25
1001
ACAD_DSTYLE_DIMJOGGED_JOGANGLE_SYMBOL
1070
   384
1040
1.570796326794896
  0
ENDTAB
  0
TABLE
  2
BLOCK_RECORD
  5
1
330
0
100
AcDbSymbolTable
 70
    17
  0
BLOCK_RECORD
  5
6B
102
{ACAD_XDICTIONARY
360
982
102
}
330
1
100
AcDbSymbolTableRecord
100
AcDbBlockTableRecord
  2
*Model_Space
340
6E
  0
BLOCK_RECORD
  5
67
330
1
100
AcDbSymbolTableRecord
100
AcDbBlockTableRecord
  2
*Paper_Space
340
6A
  0
BLOCK_RECORD
  5
465
330
1
100
AcDbSymbolTableRecord
100
AcDbBlockTableRecord
  2
_Open30
340
0
102
{BLKREFS
331
692
331
693
331
69D
331
69E
331
6A8
331
6A9
331
6B3
331
6B4
331
6BE
331
6BF
331
6C9
331
6CA
331
6D4
331
6D5
331
6DF
331
6E0
331
6EA
331
6EB
331
6F3
331
6F4
331
1037
331
1038
331
1040
331
1041
331
1049
331
104A
331
1052
331
1053
331
105B
331
105C
331
1064
331
1065
102
}
  0
BLOCK_RECORD
  5
603
330
1
100
AcDbSymbolTableRecord
100
AcDbBlockTableRecord
  2
*D1
340
0
  0
BLOCK_RECORD
  5
611
330
1
100
AcDbSymbolTableRecord
100
AcDbBlockTableRecord
  2
*D2
340
0
  0
BLOCK_RECORD
  5
61F
330
1
100
AcDbSymbolTableRecord
100
AcDbBlockTableRecord
  2
*D3
340
0
  0
BLOCK_RECORD
  5
62D
330
1
100
AcDbSymbolTableRecord
100
AcDbBlockTableRecord
  2
*D4
340
0
  0
BLOCK_RECORD
  5
63B
330
1
100
AcDbSymbolTableRecord
100
AcDbBlockTableRecord
  2
*D5
340
0
  0
BLOCK_RECORD
  5
649
330
1
100
AcDbSymbolTableRecord
100
AcDbBlockTableRecord
  2
*D6
340
0
  0
BLOCK_RECORD
  5
657
330
1
100
AcDbSymbolTableRecord
100
AcDbBlockTableRecord
  2
*D7
340
0
  0
BLOCK_RECORD
  5
665
330
1
100
AcDbSymbolTableRecord
100
AcDbBlockTableRecord
  2
*D8
340
0
  0
BLOCK_RECORD
  5
673
330
1
100
AcDbSymbolTableRecord
100
AcDbBlockTableRecord
  2
*D9
340
0
  0
BLOCK_RECORD
  5
681
330
1
100
AcDbSymbolTableRecord
100
AcDbBlockTableRecord
  2
*D10
340
0
  0
BLOCK_RECORD
  5
DBF
330
1
100
AcDbSymbolTableRecord
100
AcDbBlockTableRecord
  2
*D11
340
0
  0
BLOCK_RECORD
  5
DDE
330
1
100
AcDbSymbolTableRecord
100
AcDbBlockTableRecord
  2
*D12
340
0
  0
BLOCK_RECORD
  5
DEB
330
1
100
AcDbSymbolTableRecord
100
AcDbBlockTableRecord
  2
*D13
340
0
  0
BLOCK_RECORD
  5
E0A
330
1
100
AcDbSymbolTableRecord
100
AcDbBlockTableRecord
  2
*D14
340
0
  0
BLOCK_RECORD
  5
E17
330
1
100
AcDbSymbolTableRecord
100
AcDbBlockTableRecord
  2
*D15
340
0
  0
BLOCK_RECORD
  5
E24
330
1
100
AcDbSymbolTableRecord
100
AcDbBlockTableRecord
  2
*D16
340
0
  0
ENDTAB
  0
ENDSEC
  0
SECTION
  2
BLOCKS
  0
BLOCK
  5
6C
330
6B
100
AcDbEntity
  8
0
100
AcDbBlockBegin
  2
*Model_Space
 70
     0
 10
0.0
 20
0.0
 30
0.0
  3
*Model_Space
  1

  0
ENDBLK
  5
6D
330
6B
100
AcDbEntity
  8
0
100
AcDbBlockEnd
  0
BLOCK
  5
68
330
67
100
AcDbEntity
 67
     1
  8
0
100
AcDbBlockBegin
  2
*Paper_Space
 70
     0
 10
0.0
 20
0.0
 30
0.0
  3
*Paper_Space
  1

  0
ENDBLK
  5
69
330
67
100
AcDbEntity
 67
     1
  8
0
100
AcDbBlockEnd
  0
BLOCK
  5
466
330
465
100
AcDbEntity
  8
0
100
AcDbBlockBegin
  2
_Open30
 70
     0
 10
0.0
 20
0.0
 30
0.0
  3
_Open30
  1

  0
LINE
  5
467
330
465
100
AcDbEntity
  8
0
  6
ByBlock
 62
     0
370
    -2
100
AcDbLine
 10
-1.0
 20
0.267949
 30
0.0
 11
0.0
 21
0.0
 31
0.0
  0
LINE
  5
468
330
465
100
AcDbEntity
  8
0
  6
ByBlock
 62
     0
370
    -2
100
AcDbLine
 10
0.0
 20
0.0
 30
0.0
 11
-1.0
 21
-0.267949
 31
0.0
  0
LINE
  5
469
330
465
100
AcDbEntity
  8
0
  6
ByBlock
 62
     0
370
    -2
100
AcDbLine
 10
0.0
 20
0.0
 30
0.0
 11
-1.0
 21
0.0
 31
0.0
  0
ENDBLK
  5
46A
330
465
100
AcDbEntity
  8
0
100
AcDbBlockEnd
  0
BLOCK
  5
604
330
603
100
AcDbEntity
  8
0
100
AcDbBlockBegin
  2
*D1
 70
     1
 10
0.0
 20
0.0
 30
0.0
  3
*D1
  1

  0
LINE
  5
68D
330
603
100
AcDbEntity
  8
0
 62
     0
370
    -2
100
AcDbLine
 10
-111.2755299059317
 20
-124.2135904058837
 30
0.0
 11
-111.2755299059317
 21
-127.1232218278925
 31
0.0
  0
LINE
  5
68E
330
603
100
AcDbEntity
  8
0
 62
     0
370
    -2
100
AcDbLine
 10
-113.732716960052
 20
-124.2135904058837
 30
0.0
 11
-113.732716960052
 21
-127.1232218278925
 31
0.0
  0
LINE
  5
68F
330
603
100
AcDbEntity
  8
0
 62
     0
370
    -2
100
AcDbLine
 10
-108.7755299059317
 20
-125.8732218278925
 30
0.0
 11
-106.2755299059317
 21
-125.8732218278925
 31
0.0
  0
LINE
  5
690
330
603
100
AcDbEntity
  8
0
 62
     0
370
    -2
100
AcDbLine
 10
-116.232716960052
 20
-125.8732218278925
 30
0.0
 11
-128.982716960052
 21
-125.8732218278925
 31
0.0
  0
LINE
  5
691
330
603
100
AcDbEntity
  8
0
 62
     0
370
    -2
100
AcDbLine
 10
-111.2755299059317
 20
-125.8732218278925
 30
0.0
 11
-113.732716960052
 21
-125.8732218278925
 31
0.0
  0
INSERT
  5
692
330
603
100
AcDbEntity
  8
0
 62
     0
370
    -2
100
AcDbBlockReference
  2
_Open30
 10
-111.2755299059317
 20
-125.8732218278925
 30
0.0
 41
2.5
 42
2.5
 43
2.5
 50
180.0
  0
INSERT
  5
693
330
603
100
AcDbEntity
  8
0
 62
     0
370
    -2
100
AcDbBlockReference
  2
_Open30
 10
-113.732716960052
 20
-125.8732218278925
 30
0.0
 41
2.5
 42
2.5
 43
2.5
  0
MTEXT
  5
694
330
603
100
AcDbEntity
  8
0
 62
     4
100
AcDbMText
 10
-123.857716960052
 20
-123.7482218278925
 30
0.0
 40
3.0
 41
0.0
 71
     5
 72
     1
  1
2.46
 73
     1
 44
1.0
1001
ACAD
1000
MTEXTBEGIN
1070
    73
1070
     1
1070
    44
1040
1.0
1070
    74
1070
     0
1000
MTEXTEND
  0
POINT
  5
695
330
603
100
AcDbEntity
  8
Defpoints
 62
     0
100
AcDbPoint
 10
-111.2755299059317
 20
-123.9635904058836
 30
0.0
  0
POINT
  5
696
330
603
100
AcDbEntity
  8
Defpoints
 62
     0
100
AcDbPoint
 10
-113.732716960052
 20
-123.9635904058836
 30
0.0
  0
POINT
  5
697
330
603
100
AcDbEntity
  8
Defpoints
 62
     0
100
AcDbPoint
 10
-113.732716960052
 20
-125.8732218278925
 30
0.0
  0
ENDBLK
  5
605
330
603
100
AcDbEntity
  8
0
100
AcDbBlockEnd
  0
BLOCK
  5
612
330
611
100
AcDbEntity
  8
0
100
AcDbBlockBegin
  2
*D2
 70
     1
 10
0.0
 20
0.0
 30
0.0
  3
*D2
  1

  0
LINE
  5
698
330
611
100
AcDbEntity
  8
0
 62
     0
370
    -2
100
AcDbLine
 10
-109.6374049998585
 20
-129.669679978646
 30
0.0
 11
-109.6374049998585
 21
-132.2155720481094
 31
0.0
  0
LINE
  5
699
330
611
100
AcDbEntity
  8
0
 62
     0
370
    -2
100
AcDbLine
 10
-112.7316407980014
 20
-129.669679978646
 30
0.0
 11
-112.7316407980014
 21
-132.2155720481094
 31
0.0
  0
LINE
  5
69A
330
611
100
AcDbEntity
  8
0
 62
     0
370
    -2
100
AcDbLine
 10
-107.1374049998585
 20
-130.9655720481094
 30
0.0
 11
-104.6374049998585
 21
-130.9655720481094
 31
0.0
  0
LINE
  5
69B
330
611
100
AcDbEntity
  8
0
 62
     0
370
    -2
100
AcDbLine
 10
-115.2316407980014
 20
-130.9655720481094
 30
0.0
 11
-129.0649741313347
 21
-130.9655720481094
 31
0.0
  0
LINE
  5
69C
330
611
100
AcDbEntity
  8
0
 62
     0
370
    -2
100
AcDbLine
 10
-109.6374049998585
 20
-130.9655720481094
 30
0.0
 11
-112.7316407980014
 21
-130.9655720481094
 31
0.0
  0
INSERT
  5
69D
330
611
100
AcDbEntity
  8
0
 62
     0
370
    -2
100
AcDbBlockReference
  2
_Open30
 10
-109.6374049998585
 20
-130.9655720481094
 30
0.0
 41
2.5
 42
2.5
 43
2.5
 50
180.0
  0
INSERT
  5
69E
330
611
100
AcDbEntity
  8
0
 62
     0
370
    -2
100
AcDbBlockReference
  2
_Open30
 10
-112.7316407980014
 20
-130.9655720481094
 30
0.0
 41
2.5
 42
2.5
 43
2.5
  0
MTEXT
  5
69F
330
611
100
AcDbEntity
  8
0
 62
     4
100
AcDbMText
 10
-123.8566407980014
 20
-129.0905720481094
 30
0.0
 40
2.5
 41
0.0
 71
     5
 72
     1
  1
15.47
  7
高2.5
 73
     1
 44
1.0
1001
ACAD
1000
MTEXTBEGIN
1070
    73
1070
     1
1070
    44
1040
1.0
1070
    74
1070
     0
1000
MTEXTEND
  0
POINT
  5
6A0
330
611
100
AcDbEntity
  8
Defpoints
 62
     0
100
AcDbPoint
 10
-109.6374049998585
 20
-129.419679978646
 30
0.0
  0
POINT
  5
6A1
330
611
100
AcDbEntity
  8
Defpoints
 62
     0
100
AcDbPoint
 10
-112.7316407980014
 20
-129.419679978646
 30
0.0
  0
POINT
  5
6A2
330
611
100
AcDbEntity
  8
Defpoints
 62
     0
100
AcDbPoint
 10
-112.7316407980014
 20
-130.9655720481094
 30
0.0
  0
ENDBLK
  5
613
330
611
100
AcDbEntity
  8
0
100
AcDbBlockEnd
  0
BLOCK
  5
620
330
61F
100
AcDbEntity
  8
0
100
AcDbBlockBegin
  2
*D3
 70
     1
 10
0.0
 20
0.0
 30
0.0
  3
*D3
  1

  0
LINE
  5
6A3
330
61F
100
AcDbEntity
  8
0
 62
     0
370
    -2
100
AcDbLine
 10
-107.908273391773
 20
-135.1257696944925
 30
0.0
 11
-107.908273391773
 21
-137.3988573568598
 31
0.0
  0
LINE
  5
6A4
330
61F
100
AcDbEntity
  8
0
 62
     0
370
    -2
100
AcDbLine
 10
-111.9125783449648
 20
-135.1257696944925
 30
0.0
 11
-111.9125783449648
 21
-137.3988573568598
 31
0.0
  0
LINE
  5
6A5
330
61F
100
AcDbEntity
  8
0
 62
     0
370
    -2
100
AcDbLine
 10
-105.408273391773
 20
-136.1488573568598
 30
0.0
 11
-102.908273391773
 21
-136.1488573568598
 31
0.0
  0
LINE
  5
6A6
330
61F
100
AcDbEntity
  8
0
 62
     0
370
    -2
100
AcDbLine
 10
-114.4125783449648
 20
-136.1488573568598
 30
0.0
 11
-126.1625783449648
 21
-136.1488573568598
 31
0.0
  0
LINE
  5
6A7
330
61F
100
AcDbEntity
  8
0
 62
     0
370
    -2
100
AcDbLine
 10
-107.908273391773
 20
-136.1488573568598
 30
0.0
 11
-111.9125783449648
 21
-136.1488573568598
 31
0.0
  0
INSERT
  5
6A8
330
61F
100
AcDbEntity
  8
0
 62
     0
370
    -2
100
AcDbBlockReference
  2
_Open30
 10
-107.908273391773
 20
-136.1488573568598
 30
0.0
 41
2.5
 42
2.5
 43
2.5
 50
180.0
  0
INSERT
  5
6A9
330
61F
100
AcDbEntity
  8
0
 62
     0
370
    -2
100
AcDbBlockReference
  2
_Open30
 10
-111.9125783449648
 20
-136.1488573568598
 30
0.0
 41
2.5
 42
2.5
 43
2.5
  0
MTEXT
  5
6AA
330
61F
100
AcDbEntity
  8
0
 62
     4
100
AcDbMText
 10
-121.5375783449648
 20
-133.9238573568598
 30
0.0
 40
3.2
 41
0.0
 71
     5
 72
     1
  1
8.01
  7
高3.2
 73
     1
 44
1.0
1001
ACAD
1000
MTEXTBEGIN
1070
    73
1070
     1
1070
    44
1040
1.0
1070
    74
1070
     0
1000
MTEXTEND
  0
POINT
  5
6AB
330
61F
100
AcDbEntity
  8
Defpoints
 62
     0
100
AcDbPoint
 10
-107.908273391773
 20
-134.8757696944925
 30
0.0
  0
POINT
  5
6AC
330
61F
100
AcDbEntity
  8
Defpoints
 62
     0
100
AcDbPoint
 10
-111.9125783449648
 20
-134.8757696944925
 30
0.0
  0
POINT
  5
6AD
330
61F
100
AcDbEntity
  8
Defpoints
 62
     0
100
AcDbPoint
 10
-111.9125783449648
 20
-136.1488573568598
 30
0.0
  0
ENDBLK
  5
621
330
61F
100
AcDbEntity
  8
0
100
AcDbBlockEnd
  0
BLOCK
  5
62E
330
62D
100
AcDbEntity
  8
0
100
AcDbBlockBegin
  2
*D4
 70
     1
 10
0.0
 20
0.0
 30
0.0
  3
*D4
  1

  0
LINE
  5
6AE
330
62D
100
AcDbEntity
  8
0
 62
     0
370
    -2
100
AcDbLine
 10
-107.9992800937853
 20
-140.3999896625241
 30
0.0
 11
-107.9992800937853
 21
-142.2184031699805
 31
0.0
  0
LINE
  5
6AF
330
62D
100
AcDbEntity
  8
0
 62
     0
370
    -2
100
AcDbLine
 10
-112.7316407980014
 20
-140.3999896625241
 30
0.0
 11
-112.7316407980014
 21
-142.2184031699805
 31
0.0
  0
LINE
  5
6B0
330
62D
100
AcDbEntity
  8
0
 62
     0
370
    -2
100
AcDbLine
 10
-105.4992800937853
 20
-140.9684031699805
 30
0.0
 11
-102.9992800937853
 21
-140.9684031699805
 31
0.0
  0
LINE
  5
6B1
330
62D
100
AcDbEntity
  8
0
 62
     0
370
    -2
100
AcDbLine
 10
-115.2316407980014
 20
-140.9684031699805
 30
0.0
 11
-136.9816407980014
 21
-140.9684031699805
 31
0.0
  0
LINE
  5
6B2
330
62D
100
AcDbEntity
  8
0
 62
     0
370
    -2
100
AcDbLine
 10
-107.9992800937853
 20
-140.9684031699805
 30
0.0
 11
-112.7316407980014
 21
-140.9684031699805
 31
0.0
  0
INSERT
  5
6B3
330
62D
100
AcDbEntity
  8
0
 62
     0
370
    -2
100
AcDbBlockReference
  2
_Open30
 10
-107.9992800937853
 20
-140.9684031699805
 30
0.0
 41
2.5
 42
2.5
 43
2.5
 50
180.0
  0
INSERT
  5
6B4
330
62D
100
AcDbEntity
  8
0
 62
     0
370
    -2
100
AcDbBlockReference
  2
_Open30
 10
-112.7316407980014
 20
-140.9684031699805
 30
0.0
 41
2.5
 42
2.5
 43
2.5
  0
MTEXT
  5
6B5
330
62D
100
AcDbEntity
  8
0
 62
     4
100
AcDbMText
 10
-127.3566407980014
 20
-138.0934031699805
 30
0.0
 40
4.5
 41
0.0
 71
     5
 72
     1
  1
47.32
  7
高4.5
 73
     1
 44
1.0
1001
ACAD
1000
MTEXTBEGIN
1070
    73
1070
     1
1070
    44
1040
1.0
1070
    74
1070
     0
1000
MTEXTEND
  0
POINT
  5
6B6
330
62D
100
AcDbEntity
  8
Defpoints
 62
     0
100
AcDbPoint
 10
-107.9992800937853
 20
-140.1499896625241
 30
0.0
  0
POINT
  5
6B7
330
62D
100
AcDbEntity
  8
Defpoints
 62
     0
100
AcDbPoint
 10
-112.7316407980014
 20
-140.1499896625241
 30
0.0
  0
POINT
  5
6B8
330
62D
100
AcDbEntity
  8
Defpoints
 62
     0
100
AcDbPoint
 10
-112.7316407980014
 20
-140.9684031699805
 30
0.0
  0
ENDBLK
  5
62F
330
62D
100
AcDbEntity
  8
0
100
AcDbBlockEnd
  0
BLOCK
  5
63C
330
63B
100
AcDbEntity
  8
0
100
AcDbBlockBegin
  2
*D5
 70
     1
 10
0.0
 20
0.0
 30
0.0
  3
*D5
  1

  0
LINE
  5
6B9
330
63B
100
AcDbEntity
  8
0
 62
     0
370
    -2
100
AcDbLine
 10
-86.52164382577783
 20
-124.2135904058837
 30
0.0
 11
-86.52164382577783
 21
-127.1232218278925
 31
0.0
  0
LINE
  5
6BA
330
63B
100
AcDbEntity
  8
0
 62
     0
370
    -2
100
AcDbLine
 10
-88.97883087989816
 20
-124.2135904058837
 30
0.0
 11
-88.97883087989816
 21
-127.1232218278925
 31
0.0
  0
LINE
  5
6BB
330
63B
100
AcDbEntity
  8
0
 62
     0
370
    -2
100
AcDbLine
 10
-84.02164382577785
 20
-125.8732218278925
 30
0.0
 11
-81.52164382577785
 21
-125.8732218278925
 31
0.0
  0
LINE
  5
6BC
330
63B
100
AcDbEntity
  8
0
 62
     0
370
    -2
100
AcDbLine
 10
-91.47883087989816
 20
-125.8732218278925
 30
0.0
 11
-113.0788308798982
 21
-125.8732218278925
 31
0.0
  0
LINE
  5
6BD
330
63B
100
AcDbEntity
  8
0
 62
     0
370
    -2
100
AcDbLine
 10
-86.52164382577783
 20
-125.8732218278925
 30
0.0
 11
-88.97883087989816
 21
-125.8732218278925
 31
0.0
  0
INSERT
  5
6BE
330
63B
100
AcDbEntity
  8
0
 62
     0
370
    -2
100
AcDbBlockReference
  2
_Open30
 10
-86.52164382577783
 20
-125.8732218278925
 30
0.0
 41
2.5
 42
2.5
 43
2.5
 50
180.0
  0
INSERT
  5
6BF
330
63B
100
AcDbEntity
  8
0
 62
     0
370
    -2
100
AcDbBlockReference
  2
_Open30
 10
-88.97883087989816
 20
-125.8732218278925
 30
0.0
 41
2.5
 42
2.5
 43
2.5
  0
MTEXT
  5
6C0
330
63B
100
AcDbEntity
  8
0
 62
     4
100
AcDbMText
 10
-103.5288308798982
 20
-122.0982218278925
 30
0.0
 40
6.299999999999998
 41
0.0
 71
     5
 72
     1
  1
0.25
  7
高6.3
 73
     1
 44
1.0
1001
ACAD
1000
MTEXTBEGIN
1070
    73
1070
     1
1070
    44
1040
1.0
1070
    74
1070
     0
1000
MTEXTEND
  0
POINT
  5
6C1
330
63B
100
AcDbEntity
  8
Defpoints
 62
     0
100
AcDbPoint
 10
-86.52164382577783
 20
-123.9635904058836
 30
0.0
  0
POINT
  5
6C2
330
63B
100
AcDbEntity
  8
Defpoints
 62
     0
100
AcDbPoint
 10
-88.97883087989816
 20
-123.9635904058836
 30
0.0
  0
POINT
  5
6C3
330
63B
100
AcDbEntity
  8
Defpoints
 62
     0
100
AcDbPoint
 10
-88.97883087989816
 20
-125.8732218278925
 30
0.0
  0
ENDBLK
  5
63D
330
63B
100
AcDbEntity
  8
0
100
AcDbBlockEnd
  0
BLOCK
  5
64A
330
649
100
AcDbEntity
  8
0
100
AcDbBlockBegin
  2
*D6
 70
     1
 10
0.0
 20
0.0
 30
0.0
  3
*D6
  1

  0
LINE
  5
6C4
330
649
100
AcDbEntity
  8
0
 62
     0
370
    -2
100
AcDbLine
 10
-84.88351891970467
 20
-129.669679978646
 30
0.0
 11
-84.88351891970467
 21
-132.2155720481094
 31
0.0
  0
LINE
  5
6C5
330
649
100
AcDbEntity
  8
0
 62
     0
370
    -2
100
AcDbLine
 10
-87.97775471784758
 20
-129.669679978646
 30
0.0
 11
-87.97775471784758
 21
-132.2155720481094
 31
0.0
  0
LINE
  5
6C6
330
649
100
AcDbEntity
  8
0
 62
     0
370
    -2
100
AcDbLine
 10
-82.38351891970467
 20
-130.9655720481094
 30
0.0
 11
-79.88351891970467
 21
-130.9655720481094
 31
0.0
  0
LINE
  5
6C7
330
649
100
AcDbEntity
  8
0
 62
     0
370
    -2
100
AcDbLine
 10
-90.47775471784758
 20
-130.9655720481094
 30
0.0
 11
-102.4777547178475
 21
-130.9655720481094
 31
0.0
  0
LINE
  5
6C8
330
649
100
AcDbEntity
  8
0
 62
     0
370
    -2
100
AcDbLine
 10
-84.88351891970467
 20
-130.9655720481094
 30
0.0
 11
-87.97775471784758
 21
-130.9655720481094
 31
0.0
  0
INSERT
  5
6C9
330
649
100
AcDbEntity
  8
0
 62
     0
370
    -2
100
AcDbBlockReference
  2
_Open30
 10
-84.88351891970467
 20
-130.9655720481094
 30
0.0
 41
2.5
 42
2.5
 43
2.5
 50
180.0
  0
INSERT
  5
6CA
330
649
100
AcDbEntity
  8
0
 62
     0
370
    -2
100
AcDbBlockReference
  2
_Open30
 10
-87.97775471784758
 20
-130.9655720481094
 30
0.0
 41
2.5
 42
2.5
 43
2.5
  0
MTEXT
  5
6CB
330
649
100
AcDbEntity
  8
0
 62
     4
100
AcDbMText
 10
-97.85275471784757
 20
-128.8405720481094
 30
0.0
 40
3.0
 41
0.0
 71
     5
 72
     1
  1
1.55
 73
     1
 44
1.0
1001
ACAD
1000
MTEXTBEGIN
1070
    73
1070
     1
1070
    44
1040
1.0
1070
    74
1070
     0
1000
MTEXTEND
  0
POINT
  5
6CC
330
649
100
AcDbEntity
  8
Defpoints
 62
     0
100
AcDbPoint
 10
-84.88351891970467
 20
-129.419679978646
 30
0.0
  0
POINT
  5
6CD
330
649
100
AcDbEntity
  8
Defpoints
 62
     0
100
AcDbPoint
 10
-87.97775471784758
 20
-129.419679978646
 30
0.0
  0
POINT
  5
6CE
330
649
100
AcDbEntity
  8
Defpoints
 62
     0
100
AcDbPoint
 10
-87.97775471784758
 20
-130.9655720481094
 30
0.0
  0
ENDBLK
  5
64B
330
649
100
AcDbEntity
  8
0
100
AcDbBlockEnd
  0
BLOCK
  5
658
330
657
100
AcDbEntity
  8
0
100
AcDbBlockBegin
  2
*D7
 70
     1
 10
0.0
 20
0.0
 30
0.0
  3
*D7
  1

  0
LINE
  5
6CF
330
657
100
AcDbEntity
  8
0
 62
     0
370
    -2
100
AcDbLine
 10
-83.15438731161918
 20
-135.1257696944925
 30
0.0
 11
-83.15438731161918
 21
-137.3988573568598
 31
0.0
  0
LINE
  5
6D0
330
657
100
AcDbEntity
  8
0
 62
     0
370
    -2
100
AcDbLine
 10
-87.15869226481101
 20
-135.1257696944925
 30
0.0
 11
-87.15869226481101
 21
-137.3988573568598
 31
0.0
  0
LINE
  5
6D1
330
657
100
AcDbEntity
  8
0
 62
     0
370
    -2
100
AcDbLine
 10
-80.65438731161918
 20
-136.1488573568598
 30
0.0
 11
-78.15438731161918
 21
-136.1488573568598
 31
0.0
  0
LINE
  5
6D2
330
657
100
AcDbEntity
  8
0
 62
     0
370
    -2
100
AcDbLine
 10
-89.65869226481101
 20
-136.1488573568598
 30
0.0
 11
-97.99202559814437
 21
-136.1488573568598
 31
0.0
  0
LINE
  5
6D3
330
657
100
AcDbEntity
  8
0
 62
     0
370
    -2
100
AcDbLine
 10
-83.15438731161918
 20
-136.1488573568598
 30
0.0
 11
-87.15869226481101
 21
-136.1488573568598
 31
0.0
  0
INSERT
  5
6D4
330
657
100
AcDbEntity
  8
0
 62
     0
370
    -2
100
AcDbBlockReference
  2
_Open30
 10
-83.15438731161918
 20
-136.1488573568598
 30
0.0
 41
2.5
 42
2.5
 43
2.5
 50
180.0
  0
INSERT
  5
6D5
330
657
100
AcDbEntity
  8
0
 62
     0
370
    -2
100
AcDbBlockReference
  2
_Open30
 10
-87.15869226481101
 20
-136.1488573568598
 30
0.0
 41
2.5
 42
2.5
 43
2.5
  0
MTEXT
  5
6D6
330
657
100
AcDbEntity
  8
0
 62
     4
100
AcDbMText
 10
-95.533692264811
 20
-134.5238573568598
 30
0.0
 40
2.0
 41
0.0
 71
     5
 72
     1
  1
0.8
  7
高2
 73
     1
 44
1.0
1001
ACAD
1000
MTEXTBEGIN
1070
    73
1070
     1
1070
    44
1040
1.0
1070
    74
1070
     0
1000
MTEXTEND
  0
POINT
  5
6D7
330
657
100
AcDbEntity
  8
Defpoints
 62
     0
100
AcDbPoint
 10
-83.15438731161918
 20
-134.8757696944925
 30
0.0
  0
POINT
  5
6D8
330
657
100
AcDbEntity
  8
Defpoints
 62
     0
100
AcDbPoint
 10
-87.15869226481101
 20
-134.8757696944925
 30
0.0
  0
POINT
  5
6D9
330
657
100
AcDbEntity
  8
Defpoints
 62
     0
100
AcDbPoint
 10
-87.15869226481101
 20
-136.1488573568598
 30
0.0
  0
ENDBLK
  5
659
330
657
100
AcDbEntity
  8
0
100
AcDbBlockEnd
  0
BLOCK
  5
666
330
665
100
AcDbEntity
  8
0
100
AcDbBlockBegin
  2
*D8
 70
     1
 10
0.0
 20
0.0
 30
0.0
  3
*D8
  1

  0
LINE
  5
6DA
330
665
100
AcDbEntity
  8
0
 62
     0
370
    -2
100
AcDbLine
 10
-83.24539401363148
 20
-140.3999896625241
 30
0.0
 11
-83.24539401363148
 21
-142.2184031699805
 31
0.0
  0
LINE
  5
6DB
330
665
100
AcDbEntity
  8
0
 62
     0
370
    -2
100
AcDbLine
 10
-87.97775471784758
 20
-140.3999896625241
 30
0.0
 11
-87.97775471784758
 21
-142.2184031699805
 31
0.0
  0
LINE
  5
6DC
330
665
100
AcDbEntity
  8
0
 62
     0
370
    -2
100
AcDbLine
 10
-80.74539401363148
 20
-140.9684031699805
 30
0.0
 11
-78.24539401363148
 21
-140.9684031699805
 31
0.0
  0
LINE
  5
6DD
330
665
100
AcDbEntity
  8
0
 62
     0
370
    -2
100
AcDbLine
 10
-90.47775471784758
 20
-140.9684031699805
 30
0.0
 11
-105.2277547178475
 21
-140.9684031699805
 31
0.0
  0
LINE
  5
6DE
330
665
100
AcDbEntity
  8
0
 62
     0
370
    -2
100
AcDbLine
 10
-83.24539401363148
 20
-140.9684031699805
 30
0.0
 11
-87.97775471784758
 21
-140.9684031699805
 31
0.0
  0
INSERT
  5
6DF
330
665
100
AcDbEntity
  8
0
 62
     0
370
    -2
100
AcDbBlockReference
  2
_Open30
 10
-83.24539401363148
 20
-140.9684031699805
 30
0.0
 41
2.5
 42
2.5
 43
2.5
 50
180.0
  0
INSERT
  5
6E0
330
665
100
AcDbEntity
  8
0
 62
     0
370
    -2
100
AcDbBlockReference
  2
_Open30
 10
-87.97775471784758
 20
-140.9684031699805
 30
0.0
 41
2.5
 42
2.5
 43
2.5
  0
MTEXT
  5
6E1
330
665
100
AcDbEntity
  8
0
 62
     4
100
AcDbMText
 10
-99.10275471784757
 20
-138.8434031699805
 30
0.0
 40
3.0
 41
0.0
 71
     5
 72
     1
  1
18.93
 73
     1
 44
1.0
1001
ACAD
1000
MTEXTBEGIN
1070
    73
1070
     1
1070
    44
1040
1.0
1070
    74
1070
     0
1000
MTEXTEND
  0
POINT
  5
6E2
330
665
100
AcDbEntity
  8
Defpoints
 62
     0
100
AcDbPoint
 10
-83.24539401363148
 20
-140.1499896625241
 30
0.0
  0
POINT
  5
6E3
330
665
100
AcDbEntity
  8
Defpoints
 62
     0
100
AcDbPoint
 10
-87.97775471784758
 20
-140.1499896625241
 30
0.0
  0
POINT
  5
6E4
330
665
100
AcDbEntity
  8
Defpoints
 62
     0
100
AcDbPoint
 10
-87.97775471784758
 20
-140.9684031699805
 30
0.0
  0
ENDBLK
  5
667
330
665
100
AcDbEntity
  8
0
100
AcDbBlockEnd
  0
BLOCK
  5
674
330
673
100
AcDbEntity
  8
0
100
AcDbBlockBegin
  2
*D9
 70
     1
 10
0.0
 20
0.0
 30
0.0
  3
*D9
  1

  0
LINE
  5
6E5
330
673
100
AcDbEntity
  8
0
 62
     0
370
    -2
100
AcDbLine
 10
-86.04982086476979
 20
-145.4558298691139
 30
0.0
 11
-86.04982086476979
 21
-147.7657509459894
 31
0.0
  0
LINE
  5
6E6
330
673
100
AcDbEntity
  8
0
 62
     0
370
    -2
100
AcDbLine
 10
-90.63849606691768
 20
-145.4558298691139
 30
0.0
 11
-90.63849606691768
 21
-147.7657509459894
 31
0.0
  0
LINE
  5
6E7
330
673
100
AcDbEntity
  8
0
 62
     0
370
    -2
100
AcDbLine
 10
-83.54982086476979
 20
-146.5157509459894
 30
0.0
 11
-81.04982086476979
 21
-146.5157509459894
 31
0.0
  0
LINE
  5
6E8
330
673
100
AcDbEntity
  8
0
 62
     0
370
    -2
100
AcDbLine
 10
-93.13849606691768
 20
-146.5157509459894
 30
0.0
 11
-107.8884960669177
 21
-146.5157509459894
 31
0.0
  0
LINE
  5
6E9
330
673
100
AcDbEntity
  8
0
 62
     0
370
    -2
100
AcDbLine
 10
-86.04982086476979
 20
-146.5157509459894
 30
0.0
 11
-90.63849606691768
 21
-146.5157509459894
 31
0.0
  0
INSERT
  5
6EA
330
673
100
AcDbEntity
  8
0
 62
     0
370
    -2
100
AcDbBlockReference
  2
_Open30
 10
-86.04982086476979
 20
-146.5157509459894
 30
0.0
 41
2.5
 42
2.5
 43
2.5
 50
180.0
  0
INSERT
  5
6EB
330
673
100
AcDbEntity
  8
0
 62
     0
370
    -2
100
AcDbBlockReference
  2
_Open30
 10
-90.63849606691768
 20
-146.5157509459894
 30
0.0
 41
2.5
 42
2.5
 43
2.5
  0
MTEXT
  5
6EC
330
673
100
AcDbEntity
  8
0
 62
     4
100
AcDbMText
 10
-101.7634960669177
 20
-144.3907509459894
 30
0.0
 40
3.0
 41
0.0
 71
     5
 72
     1
  1
13.77
 73
     1
 44
1.0
1001
ACAD
1000
MTEXTBEGIN
1070
    73
1070
     1
1070
    44
1040
1.0
1070
    74
1070
     0
1000
MTEXTEND
  0
POINT
  5
6ED
330
673
100
AcDbEntity
  8
Defpoints
 62
     0
100
AcDbPoint
 10
-86.04982086476979
 20
-145.2058298691139
 30
0.0
  0
POINT
  5
6EE
330
673
100
AcDbEntity
  8
Defpoints
 62
     0
100
AcDbPoint
 10
-90.63849606691768
 20
-145.2058298691139
 30
0.0
  0
POINT
  5
6EF
330
673
100
AcDbEntity
  8
Defpoints
 62
     0
100
AcDbPoint
 10
-90.63849606691768
 20
-146.5157509459894
 30
0.0
  0
ENDBLK
  5
675
330
673
100
AcDbEntity
  8
0
100
AcDbBlockEnd
  0
BLOCK
  5
682
330
681
100
AcDbEntity
  8
0
100
AcDbBlockBegin
  2
*D10
 70
     1
 10
0.0
 20
0.0
 30
0.0
  3
*D10
  1

  0
LINE
  5
6F0
330
681
100
AcDbEntity
  8
0
 62
     0
370
    -2
100
AcDbLine
 10
-93.14610369792012
 20
-114.5263385508396
 30
0.0
 11
-93.14610369792012
 21
-107.1298050729018
 31
0.0
  0
LINE
  5
6F1
330
681
100
AcDbEntity
  8
0
 62
     0
370
    -2
100
AcDbLine
 10
-103.0845780674101
 20
-114.5263385508396
 30
0.0
 11
-103.0845780674101
 21
-107.1298050729018
 31
0.0
  0
LINE
  5
6F2
330
681
100
AcDbEntity
  8
0
 62
     0
370
    -2
100
AcDbLine
 10
-95.64610369792012
 20
-108.3798050729018
 30
0.0
 11
-100.5845780674101
 21
-108.3798050729018
 31
0.0
  0
INSERT
  5
6F3
330
681
100
AcDbEntity
  8
0
 62
     0
370
    -2
100
AcDbBlockReference
  2
_Open30
 10
-93.14610369792012
 20
-108.3798050729018
 30
0.0
 41
2.5
 42
2.5
 43
2.5
  0
INSERT
  5
6F4
330
681
100
AcDbEntity
  8
0
 62
     0
370
    -2
100
AcDbBlockReference
  2
_Open30
 10
-103.0845780674101
 20
-108.3798050729018
 30
0.0
 41
2.5
 42
2.5
 43
2.5
 50
180.0
  0
MTEXT
  5
6F5
330
681
100
AcDbEntity
  8
0
 62
     4
100
AcDbMText
 10
-98.11534088266512
 20
-105.3048050729018
 30
0.0
 40
3.0
 41
0.0
 71
     5
 72
     1
  1
9.94\H0.7X;\S+0^ -0.02;
 73
     1
 44
1.0
1001
ACAD
1000
MTEXTBEGIN
1070
    73
1070
     1
1070
    44
1040
1.0
1070
    74
1070
     0
1000
MTEXTEND
  0
POINT
  5
6F6
330
681
100
AcDbEntity
  8
Defpoints
 62
     0
100
AcDbPoint
 10
-93.14610369792012
 20
-114.7763385508395
 30
0.0
  0
POINT
  5
6F7
330
681
100
AcDbEntity
  8
Defpoints
 62
     0
100
AcDbPoint
 10
-103.0845780674101
 20
-114.7763385508395
 30
0.0
  0
POINT
  5
6F8
330
681
100
AcDbEntity
  8
Defpoints
 62
     0
100
AcDbPoint
 10
-103.0845780674101
 20
-108.3798050729018
 30
0.0
  0
ENDBLK
  5
683
330
681
100
AcDbEntity
  8
0
100
AcDbBlockEnd
  0
BLOCK
  5
DC0
330
DBF
100
AcDbEntity
  8
0
100
AcDbBlockBegin
  2
*D11
 70
     1
 10
0.0
 20
0.0
 30
0.0
  3
*D11
  1

  0
LINE
  5
1034
330
DBF
100
AcDbEntity
  8
0
  6
Continuous
 62
     0
370
    -2
100
AcDbLine
 10
-371.0935039738472
 20
-236.8536497180873
 30
0.0
 11
-399.3867845980791
 21
-236.8536497180873
 31
0.0
  0
LINE
  5
1035
330
DBF
100
AcDbEntity
  8
0
  6
Continuous
 62
     0
370
    -2
100
AcDbLine
 10
-371.0935039738472
 20
-307.8536497180873
 30
0.0
 11
-399.3867845980791
 21
-307.8536497180873
 31
0.0
  0
LINE
  5
1036
330
DBF
100
AcDbEntity
  8
0
  6
Continuous
 62
     0
370
    -2
100
AcDbLine
 10
-398.136784598079
 20
-239.3536497180873
 30
0.0
 11
-398.136784598079
 21
-305.3536497180872
 31
0.0
  0
INSERT
  5
1037
330
DBF
100
AcDbEntity
  8
0
  6
Continuous
 62
     0
370
    -2
100
AcDbBlockReference
  2
_Open30
 10
-398.136784598079
 20
-236.8536497180873
 30
0.0
 41
2.5
 42
2.5
 43
2.5
 50
90.0
  0
INSERT
  5
1038
330
DBF
100
AcDbEntity
  8
0
  6
Continuous
 62
     0
370
    -2
100
AcDbBlockReference
  2
_Open30
 10
-398.136784598079
 20
-307.8536497180873
 30
0.0
 41
2.5
 42
2.5
 43
2.5
 50
270.0
  0
MTEXT
  5
1039
330
DBF
100
AcDbEntity
  8
0
  6
Continuous
 62
     4
100
AcDbMText
 10
-400.261784598079
 20
-274.5562736755451
 30
0.0
 40
3.0
 41
0.0
 71
     5
 72
     1
  1
71
 11
0.0000000000000001
 21
1.0
 31
0.0
 73
     1
 44
1.0
1001
ACAD
1000
MTEXTBEGIN
1070
    73
1070
     1
1070
    44
1040
1.0
1070
    74
1070
     0
1000
MTEXTEND
  0
POINT
  5
103A
330
DBF
100
AcDbEntity
  8
Defpoints
  6
Continuous
 62
     0
100
AcDbPoint
 10
-370.8435039738472
 20
-236.8536497180873
 30
0.0
  0
POINT
  5
103B
330
DBF
100
AcDbEntity
  8
Defpoints
  6
Continuous
 62
     0
100
AcDbPoint
 10
-370.8435039738472
 20
-307.8536497180873
 30
0.0
  0
POINT
  5
103C
330
DBF
100
AcDbEntity
  8
Defpoints
  6
Continuous
 62
     0
100
AcDbPoint
 10
-398.136784598079
 20
-307.8536497180873
 30
0.0
  0
ENDBLK
  5
DC1
330
DBF
100
AcDbEntity
  8
0
100
AcDbBlockEnd
  0
BLOCK
  5
DDF
330
DDE
100
AcDbEntity
  8
0
100
AcDbBlockBegin
  2
*D12
 70
     1
 10
0.0
 20
0.0
 30
0.0
  3
*D12
  1

  0
LINE
  5
103D
330
DDE
100
AcDbEntity
  8
0
  6
Continuous
 62
     0
370
    -2
100
AcDbLine
 10
-308.63924121435
 20
-239.2249714260512
 30
0.0
 11
-308.63924121435
 21
-224.5693533078067
 31
0.0
  0
LINE
  5
103E
330
DDE
100
AcDbEntity
  8
0
  6
Continuous
 62
     0
370
    -2
100
AcDbLine
 10
-286.1392411919983
 20
-246.8036497180873
 30
0.0
 11
-286.1392411919983
 21
-224.5693533078067
 31
0.0
  0
LINE
  5
103F
330
DDE
100
AcDbEntity
  8
0
  6
Continuous
 62
     0
370
    -2
100
AcDbLine
 10
-306.13924121435
 20
-225.8193533078067
 30
0.0
 11
-288.6392411919983
 21
-225.8193533078067
 31
0.0
  0
INSERT
  5
1040
330
DDE
100
AcDbEntity
  8
0
  6
Continuous
 62
     0
370
    -2
100
AcDbBlockReference
  2
_Open30
 10
-308.63924121435
 20
-225.8193533078067
 30
0.0
 41
2.5
 42
2.5
 43
2.5
 50
180.0
  0
INSERT
  5
1041
330
DDE
100
AcDbEntity
  8
0
  6
Continuous
 62
     0
370
    -2
100
AcDbBlockReference
  2
_Open30
 10
-286.1392411919983
 20
-225.8193533078067
 30
0.0
 41
2.5
 42
2.5
 43
2.5
  0
MTEXT
  5
1042
330
DDE
100
AcDbEntity
  8
0
  6
Continuous
 62
     4
100
AcDbMText
 10
-296.6679067838068
 20
-223.6943533078067
 30
0.0
 40
3.0
 41
0.0
 71
     5
 72
     1
  1
22.5
 73
     1
 44
1.0
1001
ACAD
1000
MTEXTBEGIN
1070
    73
1070
     1
1070
    44
1040
1.0
1070
    74
1070
     0
1000
MTEXTEND
  0
POINT
  5
1043
330
DDE
100
AcDbEntity
  8
Defpoints
  6
Continuous
 62
     0
100
AcDbPoint
 10
-308.63924121435
 20
-239.4749714260512
 30
0.0
  0
POINT
  5
1044
330
DDE
100
AcDbEntity
  8
Defpoints
  6
Continuous
 62
     0
100
AcDbPoint
 10
-286.1392411919983
 20
-247.0536497180873
 30
0.0
  0
POINT
  5
1045
330
DDE
100
AcDbEntity
  8
Defpoints
  6
Continuous
 62
     0
100
AcDbPoint
 10
-286.1392411919983
 20
-225.8193533078067
 30
0.0
  0
ENDBLK
  5
DE0
330
DDE
100
AcDbEntity
  8
0
100
AcDbBlockEnd
  0
BLOCK
  5
DEC
330
DEB
100
AcDbEntity
  8
0
100
AcDbBlockBegin
  2
*D13
 70
     1
 10
0.0
 20
0.0
 30
0.0
  3
*D13
  1

  0
LINE
  5
1046
330
DEB
100
AcDbEntity
  8
0
  6
Continuous
 62
     0
370
    -2
100
AcDbLine
 10
-303.6392413261087
 20
-236.6036485557967
 30
0.0
 11
-303.6392413261087
 21
-229.99945155559
 31
0.0
  0
LINE
  5
1047
330
DEB
100
AcDbEntity
  8
0
  6
Continuous
 62
     0
370
    -2
100
AcDbLine
 10
-286.1392411919983
 20
-246.8036497180873
 30
0.0
 11
-286.1392411919983
 21
-229.99945155559
 31
0.0
  0
LINE
  5
1048
330
DEB
100
AcDbEntity
  8
0
  6
Continuous
 62
     0
370
    -2
100
AcDbLine
 10
-301.1392413261087
 20
-231.24945155559
 30
0.0
 11
-288.6392411919983
 21
-231.24945155559
 31
0.0
  0
INSERT
  5
1049
330
DEB
100
AcDbEntity
  8
0
  6
Continuous
 62
     0
370
    -2
100
AcDbBlockReference
  2
_Open30
 10
-303.6392413261087
 20
-231.24945155559
 30
0.0
 41
2.5
 42
2.5
 43
2.5
 50
180.0
  0
INSERT
  5
104A
330
DEB
100
AcDbEntity
  8
0
  6
Continuous
 62
     0
370
    -2
100
AcDbBlockReference
  2
_Open30
 10
-286.1392411919983
 20
-231.24945155559
 30
0.0
 41
2.5
 42
2.5
 43
2.5
  0
MTEXT
  5
104B
330
DEB
100
AcDbEntity
  8
0
  6
Continuous
 62
     4
100
AcDbMText
 10
-295.1652784681382
 20
-229.12445155559
 30
0.0
 40
3.0
 41
0.0
 71
     5
 72
     1
  1
17.5
 73
     1
 44
1.0
1001
ACAD
1000
MTEXTBEGIN
1070
    73
1070
     1
1070
    44
1040
1.0
1070
    74
1070
     0
1000
MTEXTEND
  0
POINT
  5
104C
330
DEB
100
AcDbEntity
  8
Defpoints
  6
Continuous
 62
     0
100
AcDbPoint
 10
-303.6392413261087
 20
-236.8536485557967
 30
0.0
  0
POINT
  5
104D
330
DEB
100
AcDbEntity
  8
Defpoints
  6
Continuous
 62
     0
100
AcDbPoint
 10
-286.1392411919983
 20
-247.0536497180873
 30
0.0
  0
POINT
  5
104E
330
DEB
100
AcDbEntity
  8
Defpoints
  6
Continuous
 62
     0
100
AcDbPoint
 10
-286.1392411919983
 20
-231.24945155559
 30
0.0
  0
ENDBLK
  5
DED
330
DEB
100
AcDbEntity
  8
0
100
AcDbBlockEnd
  0
BLOCK
  5
E0B
330
E0A
100
AcDbEntity
  8
0
100
AcDbBlockBegin
  2
*D14
 70
     1
 10
0.0
 20
0.0
 30
0.0
  3
*D14
  1

  0
LINE
  5
104F
330
E0A
100
AcDbEntity
  8
0
  6
Continuous
 62
     0
370
    -2
100
AcDbLine
 10
-387.6435033748204
 20
-246.3660027509147
 30
0.0
 11
-387.6435033748204
 21
-226.1677582447567
 31
0.0
  0
LINE
  5
1050
330
E0A
100
AcDbEntity
  8
0
  6
Continuous
 62
     0
370
    -2
100
AcDbLine
 10
-354.0435045728738
 20
-246.3660027509147
 30
0.0
 11
-354.0435045728738
 21
-226.1677582447567
 31
0.0
  0
LINE
  5
1051
330
E0A
100
AcDbEntity
  8
0
  6
Continuous
 62
     0
370
    -2
100
AcDbLine
 10
-385.1435033748204
 20
-227.4177582447567
 30
0.0
 11
-356.5435045728738
 21
-227.4177582447567
 31
0.0
  0
INSERT
  5
1052
330
E0A
100
AcDbEntity
  8
0
  6
Continuous
 62
     0
370
    -2
100
AcDbBlockReference
  2
_Open30
 10
-387.6435033748204
 20
-227.4177582447567
 30
0.0
 41
2.5
 42
2.5
 43
2.5
 50
180.0
  0
INSERT
  5
1053
330
E0A
100
AcDbEntity
  8
0
  6
Continuous
 62
     0
370
    -2
100
AcDbBlockReference
  2
_Open30
 10
-354.0435045728738
 20
-227.4177582447567
 30
0.0
 41
2.5
 42
2.5
 43
2.5
  0
MTEXT
  5
1054
330
E0A
100
AcDbEntity
  8
0
  6
Continuous
 62
     4
100
AcDbMText
 10
-370.6799595554912
 20
-225.2927582447567
 30
0.0
 40
3.0
 41
0.0
 71
     5
 72
     1
  1
33.6
 73
     1
 44
1.0
1001
ACAD
1000
MTEXTBEGIN
1070
    73
1070
     1
1070
    44
1040
1.0
1070
    74
1070
     0
1000
MTEXTEND
  0
POINT
  5
1055
330
E0A
100
AcDbEntity
  8
Defpoints
  6
Continuous
 62
     0
100
AcDbPoint
 10
-387.6435033748204
 20
-246.6160027509147
 30
0.0
  0
POINT
  5
1056
330
E0A
100
AcDbEntity
  8
Defpoints
  6
Continuous
 62
     0
100
AcDbPoint
 10
-354.0435045728738
 20
-246.6160027509147
 30
0.0
  0
POINT
  5
1057
330
E0A
100
AcDbEntity
  8
Defpoints
  6
Continuous
 62
     0
100
AcDbPoint
 10
-354.0435045728738
 20
-227.4177582447567
 30
0.0
  0
ENDBLK
  5
E0C
330
E0A
100
AcDbEntity
  8
0
100
AcDbBlockEnd
  0
BLOCK
  5
E18
330
E17
100
AcDbEntity
  8
0
100
AcDbBlockBegin
  2
*D15
 70
     1
 10
0.0
 20
0.0
 30
0.0
  3
*D15
  1

  0
LINE
  5
1058
330
E17
100
AcDbEntity
  8
0
  6
Continuous
 62
     0
370
    -2
100
AcDbLine
 10
-210.7164682646208
 20
-247.1983499502355
 30
0.0
 11
-210.7164682646208
 21
-231.7005090228833
 31
0.0
  0
LINE
  5
1059
330
E17
100
AcDbEntity
  8
0
  6
Continuous
 62
     0
370
    -2
100
AcDbLine
 10
-242.7164697845393
 20
-247.1983499502355
 30
0.0
 11
-242.7164697845393
 21
-231.7005090228833
 31
0.0
  0
LINE
  5
105A
330
E17
100
AcDbEntity
  8
0
  6
Continuous
 62
     0
370
    -2
100
AcDbLine
 10
-213.2164682646208
 20
-232.9505090228833
 30
0.0
 11
-240.2164697845393
 21
-232.9505090228833
 31
0.0
  0
INSERT
  5
105B
330
E17
100
AcDbEntity
  8
0
  6
Continuous
 62
     0
370
    -2
100
AcDbBlockReference
  2
_Open30
 10
-210.7164682646208
 20
-232.9505090228833
 30
0.0
 41
2.5
 42
2.5
 43
2.5
  0
INSERT
  5
105C
330
E17
100
AcDbEntity
  8
0
  6
Continuous
 62
     0
370
    -2
100
AcDbBlockReference
  2
_Open30
 10
-242.7164697845393
 20
-232.9505090228833
 30
0.0
 41
2.5
 42
2.5
 43
2.5
 50
180.0
  0
MTEXT
  5
105D
330
E17
100
AcDbEntity
  8
0
  6
Continuous
 62
     4
100
AcDbMText
 10
-227.1964675111249
 20
-230.8255090228833
 30
0.0
 40
3.0
 41
0.0
 71
     5
 72
     1
  1
32
 73
     1
 44
1.0
1001
ACAD
1000
MTEXTBEGIN
1070
    73
1070
     1
1070
    44
1040
1.0
1070
    74
1070
     0
1000
MTEXTEND
  0
POINT
  5
105E
330
E17
100
AcDbEntity
  8
Defpoints
  6
Continuous
 62
     0
100
AcDbPoint
 10
-210.7164682646208
 20
-247.4483499502355
 30
0.0
  0
POINT
  5
105F
330
E17
100
AcDbEntity
  8
Defpoints
  6
Continuous
 62
     0
100
AcDbPoint
 10
-242.7164697845393
 20
-247.4483499502355
 30
0.0
  0
POINT
  5
1060
330
E17
100
AcDbEntity
  8
Defpoints
  6
Continuous
 62
     0
100
AcDbPoint
 10
-242.7164697845393
 20
-232.9505090228833
 30
0.0
  0
ENDBLK
  5
E19
330
E17
100
AcDbEntity
  8
0
100
AcDbBlockEnd
  0
BLOCK
  5
E25
330
E24
100
AcDbEntity
  8
0
100
AcDbBlockBegin
  2
*D16
 70
     1
 10
0.0
 20
0.0
 30
0.0
  3
*D16
  1

  0
LINE
  5
1061
330
E24
100
AcDbEntity
  8
0
  6
Continuous
 62
     0
370
    -2
100
AcDbLine
 10
-241.7664690290504
 20
-246.3536491816455
 30
0.0
 11
-250.1987541977578
 21
-246.3536491816455
 31
0.0
  0
LINE
  5
1062
330
E24
100
AcDbEntity
  8
0
  6
Continuous
 62
     0
370
    -2
100
AcDbLine
 10
-241.7664690290504
 20
-298.3536502545291
 30
0.0
 11
-250.1987541977578
 21
-298.3536502545291
 31
0.0
  0
LINE
  5
1063
330
E24
100
AcDbEntity
  8
0
  6
Continuous
 62
     0
370
    -2
100
AcDbLine
 10
-248.9487541977578
 20
-248.8536491816455
 30
0.0
 11
-248.9487541977578
 21
-295.8536502545291
 31
0.0
  0
INSERT
  5
1064
330
E24
100
AcDbEntity
  8
0
  6
Continuous
 62
     0
370
    -2
100
AcDbBlockReference
  2
_Open30
 10
-248.9487541977578
 20
-246.3536491816455
 30
0.0
 41
2.5
 42
2.5
 43
2.5
 50
90.0
  0
INSERT
  5
1065
330
E24
100
AcDbEntity
  8
0
  6
Continuous
 62
     0
370
    -2
100
AcDbBlockReference
  2
_Open30
 10
-248.9487541977578
 20
-298.3536502545291
 30
0.0
 41
2.5
 42
2.5
 43
2.5
 50
270.0
  0
MTEXT
  5
1066
330
E24
100
AcDbEntity
  8
0
  6
Continuous
 62
     4
100
AcDbMText
 10
-251.0737541977578
 20
-272.3536497180874
 30
0.0
 40
3.0
 41
0.0
 71
     5
 72
     1
  1
52
 11
0.0000000000000001
 21
1.0
 31
0.0
 73
     1
 44
1.0
1001
ACAD
1000
MTEXTBEGIN
1070
    73
1070
     1
1070
    44
1040
1.0
1070
    74
1070
     0
1000
MTEXTEND
  0
POINT
  5
1067
330
E24
100
AcDbEntity
  8
Defpoints
  6
Continuous
 62
     0
100
AcDbPoint
 10
-241.5164690290504
 20
-246.3536491816455
 30
0.0
  0
POINT
  5
1068
330
E24
100
AcDbEntity
  8
Defpoints
  6
Continuous
 62
     0
100
AcDbPoint
 10
-241.5164690290504
 20
-298.3536502545291
 30
0.0
  0
POINT
  5
1069
330
E24
100
AcDbEntity
  8
Defpoints
  6
Continuous
 62
     0
100
AcDbPoint
 10
-248.9487541977578
 20
-298.3536502545291
 30
0.0
  0
ENDBLK
  5
E26
330
E24
100
AcDbEntity
  8
0
100
AcDbBlockEnd
  0
ENDSEC
  0
SECTION
  2
ENTITIES
  0
LINE
  5
1EA
330
6B
100
AcDbEntity
  8
0
 62
     3
100
AcDbLine
 10
-357.3312964277969
 20
-367.774689
 30
0.0
 11
-277.699802427797
 21
-367.774689
 31
0.0
  0
LINE
  5
1EB
330
6B
100
AcDbEntity
  8
0
 62
     3
100
AcDbLine
 10
-357.3312964277969
 20
-338.774689
 30
0.0
 11
-357.3312964277969
 21
-367.774689
 31
0.0
  0
LINE
  5
1EC
330
6B
100
AcDbEntity
  8
0
 62
     7
100
AcDbLine
 10
-357.3312964277969
 20
-346.774689
 30
0.0
 11
-277.699802427797
 21
-346.774689
 31
0.0
  0
LINE
  5
1ED
330
6B
100
AcDbEntity
  8
0
 62
     7
100
AcDbLine
 10
-357.3312964277969
 20
-353.774689
 30
0.0
 11
-277.699802427797
 21
-353.774689
 31
0.0
  0
LINE
  5
1EE
330
6B
100
AcDbEntity
  8
0
 62
     7
100
AcDbLine
 10
-357.3312964277969
 20
-360.774689
 30
0.0
 11
-277.699802427797
 21
-360.774689
 31
0.0
  0
LINE
  5
1EF
330
6B
100
AcDbEntity
  8
0
 62
     7
100
AcDbLine
 10
-327.3312964277969
 20
-346.774689
 30
0.0
 11
-327.3312964277969
 21
-367.774689
 31
0.0
  0
ARC
  5
1F0
330
6B
100
AcDbEntity
  8
0
 62
     3
100
AcDbCircle
 10
-283.0978724277969
 20
-364.727211
 30
0.0
 40
2.0
100
AcDbArc
 50
206.802293
 51
24.26083000000062
  0
ARC
  5
1F1
330
6B
100
AcDbEntity
  8
0
 62
     3
100
AcDbCircle
 10
-283.0978724277969
 20
-364.727211
 30
0.0
 40
2.0
100
AcDbArc
 50
26.80229100000031
 51
204.2608300000006
  0
LINE
  5
1F2
330
6B
100
AcDbEntity
  8
0
 62
     3
100
AcDbLine
 10
-282.8978724277969
 20
-362.938357
 30
0.0
 11
-282.8978724277969
 21
-365.727211
 31
0.0
  0
LINE
  5
1F3
330
6B
100
AcDbEntity
  8
0
 62
     3
100
AcDbLine
 10
-283.297872427797
 20
-363.727211
 30
0.0
 11
-283.297872427797
 21
-366.516065
 31
0.0
  0
LINE
  5
1F4
330
6B
100
AcDbEntity
  8
0
 62
     3
100
AcDbLine
 10
-283.297872427797
 20
-363.727211
 30
0.0
 11
-284.742014427797
 21
-365.459875
 31
0.0
  0
LINE
  5
1F5
330
6B
100
AcDbEntity
  8
0
 62
     3
100
AcDbLine
 10
-284.8830084277969
 20
-365.629038
 30
0.0
 11
-285.157808427797
 21
-365.95874
 31
0.0
  0
LINE
  5
1F6
330
6B
100
AcDbEntity
  8
0
 62
     3
100
AcDbLine
 10
-285.157808427797
 20
-365.95874
 30
0.0
 11
-284.9212414277969
 21
-365.548993
 31
0.0
  0
LINE
  5
1F7
330
6B
100
AcDbEntity
  8
0
 62
     3
100
AcDbLine
 10
-284.7942704277969
 20
-365.329072
 30
0.0
 11
-283.4248444277969
 21
-362.957158
 31
0.0
  0
ARC
  5
1F8
330
6B
100
AcDbEntity
  8
0
 62
     3
100
AcDbCircle
 10
-283.0978724277969
 20
-364.727211
 30
0.0
 40
1.8
100
AcDbArc
 50
204.0187569999996
 51
263.6206300000004
  0
ARC
  5
1F9
330
6B
100
AcDbEntity
  8
0
 62
     3
100
AcDbCircle
 10
-283.0978724277969
 20
-364.727211
 30
0.0
 40
1.8
100
AcDbArc
 50
100.4659349999994
 51
199.5340650000004
  0
ARC
  5
1FA
330
6B
100
AcDbEntity
  8
0
 62
     3
100
AcDbCircle
 10
-283.0978724277969
 20
-364.727211
 30
0.0
 40
1.8
100
AcDbArc
 50
280.4659349999994
 51
19.53406500000044
  0
ARC
  5
1FB
330
6B
100
AcDbEntity
  8
0
 62
     3
100
AcDbCircle
 10
-283.0978724277969
 20
-364.727211
 30
0.0
 40
1.8
100
AcDbArc
 50
24.01875699999958
 51
83.62063000000043
  0
LINE
  5
1FC
330
6B
100
AcDbEntity
  8
0
 62
     3
100
AcDbLine
 10
-284.5379364277969
 20
-363.495682
 30
0.0
 11
-284.7745044277969
 21
-363.905429
 31
0.0
  0
LINE
  5
1FD
330
6B
100
AcDbEntity
  8
0
 62
     3
100
AcDbLine
 10
-281.4014754277969
 20
-364.12535
 30
0.0
 11
-282.7709014277969
 21
-366.497265
 31
0.0
  0
LINE
  5
1FE
330
6B
100
AcDbEntity
  8
0
 62
     3
100
AcDbLine
 10
-282.8978724277969
 20
-365.727211
 30
0.0
 11
-281.4537304277969
 21
-363.994547
 31
0.0
  0
LINE
  5
1FF
330
6B
100
AcDbEntity
  8
0
 62
     3
100
AcDbLine
 10
-284.8127374277968
 20
-363.825385
 30
0.0
 11
-284.5379364277969
 21
-363.495682
 31
0.0
  0
LINE
  5
200
330
6B
100
AcDbEntity
  8
0
 62
     3
100
AcDbLine
 10
-357.3312964277969
 20
-338.774689
 30
0.0
 11
-277.699802427797
 21
-338.774689
 31
0.0
  0
TEXT
  5
201
330
6B
100
AcDbEntity
  8
0
 62
     3
100
AcDbText
 10
-299.9077104277969
 20
-367.135216
 30
0.0
 40
4.5
  1
JET
  7
高4.5
100
AcDbText
  0
TEXT
  5
202
330
6B
100
AcDbEntity
  8
0
 62
     3
100
AcDbText
 10
-305.837080427797
 20
-366.98912
 30
0.0
 40
4.5
  1
E
  7
高4.5
100
AcDbText
  0
TEXT
  5
203
330
6B
100
AcDbEntity
  8
0
 62
     3
100
AcDbText
 10
-355.545303427797
 20
-366.6932720000001
 30
0.0
 40
4.5
  1
型式認可番号
 41
0.8
  7
高4.5
100
AcDbText
  0
TEXT
  5
204
330
6B
100
AcDbEntity
  8
0
 62
     3
100
AcDbText
 10
-355.5252834277969
 20
-352.893555
 30
0.0
 40
4.5
  1
定格電圧
  7
高4.5
100
AcDbText
  0
TEXT
  5
208
330
6B
100
AcDbEntity
  8
0
 62
     3
100
AcDbText
 10
-355.5252834277969
 20
-359.893555
 30
0.0
 40
4.5
  1
定格電流
  7
高4.5
100
AcDbText
  0
TEXT
  5
20C
330
6B
100
AcDbEntity
  8
0
 62
     3
100
AcDbText
 10
-323.9651654277969
 20
-366.873961
 30
0.0
 40
4.5
  1
<PS>
  7
高4.5
100
AcDbText
  0
LINE
  5
20D
330
6B
100
AcDbEntity
  8
0
 62
     3
100
AcDbLine
 10
-277.699802427797
 20
-367.774689
 30
0.0
 11
-277.699802427797
 21
-338.774689
 31
0.0
  0
TEXT
  5
20E
330
6B
100
AcDbEntity
  8
0
 62
     3
100
AcDbText
 10
-340.7683694277969
 20
-345.342077
 30
0.0
 40
4.5
  1
仕　　様（屋内型）
  7
高4.5
100
AcDbText
  0
TEXT
  5
424
330
6B
100
AcDbEntity
  8
0
 62
     3
100
AcDbText
 10
-311.4455014277969
 20
-359.587181
 30
0.0
 40
4.5
  1
15A
  7
高4.5
100
AcDbText
  0
TEXT
  5
425
330
6B
100
AcDbEntity
  8
0
 62
     3
100
AcDbText
 10
-314.413707427797
 20
-352.737841
 30
0.0
 40
4.5
  1
125V
  7
高4.5
100
AcDbText
  0
LINE
  5
45F
330
6B
100
AcDbEntity
  8
0
 62
     3
100
AcDbLine
 10
-182.4128734277969
 20
-340.3078699634647
 30
0.0
 11
-182.4128734277969
 21
-334.3078699634647
 31
0.0
  0
LINE
  5
460
330
6B
100
AcDbEntity
  8
0
 62
     3
100
AcDbLine
 10
-208.4128734277969
 20
-340.3078699634647
 30
0.0
 11
-208.4128734277969
 21
-334.3078699634647
 31
0.0
  0
LINE
  5
461
330
6B
100
AcDbEntity
  8
0
 62
     3
100
AcDbLine
 10
-156.4128734277969
 20
-334.3078699634647
 30
0.0
 11
-208.4128734277969
 21
-334.3078699634647
 31
0.0
  0
TEXT
  5
462
330
6B
100
AcDbEntity
  8
0
 62
     3
100
AcDbText
 10
-203.0684774520962
 20
-339.6432631822646
 30
0.0
 40
4.5
  1
コード
  7
高4.5
100
AcDbText
  0
TEXT
  5
463
330
6B
100
AcDbEntity
  8
0
 62
     7
100
AcDbText
 10
-179.9996404277969
 20
-339.7925059634647
 30
0.0
 40
4.5
  1
51398
  7
高4.5
100
AcDbText
  0
LINE
  5
BB6
330
6B
100
AcDbEntity
  8
0
 62
     3
100
AcDbLine
 10
-377.5070578562374
 20
-295.3536497627908
 30
0.0
 11
-377.5070578562374
 21
-288.3536504780466
 31
0.0
  0
LINE
  5
BB7
330
6B
100
AcDbEntity
  8
0
 62
     3
100
AcDbLine
 10
-377.5070578562374
 20
-256.3536489581281
 30
0.0
 11
-377.5070578562374
 21
-249.3536496733838
 31
0.0
  0
LINE
  5
BB8
330
6B
100
AcDbEntity
  8
0
 62
     3
100
AcDbLine
 10
-376.879949937975
 20
-288.3536504780466
 30
0.0
 11
-376.879949937975
 21
-295.3536497627908
 31
0.0
  0
LINE
  5
BB9
330
6B
100
AcDbEntity
  8
0
 62
     3
100
AcDbLine
 10
-376.879949937975
 20
-249.3536496733838
 30
0.0
 11
-376.879949937975
 21
-256.3536489581281
 31
0.0
  0
ARC
  5
BBA
330
6B
100
AcDbEntity
  8
0
 62
     3
100
AcDbCircle
 10
-380.0982891066979
 20
-252.8536497180873
 30
0.0
 40
2.599999999999966
100
AcDbArc
 50
355.2930409772563
 51
4.706959022743705
  0
ARC
  5
BBB
330
6B
100
AcDbEntity
  8
0
 62
     3
100
AcDbCircle
 10
-380.0982891066979
 20
-291.8536497180873
 30
0.0
 40
2.599999999999969
100
AcDbArc
 50
355.2930409772563
 51
4.706959022743705
  0
LINE
  5
BBC
330
6B
100
AcDbEntity
  8
0
 62
     3
100
AcDbLine
 10
-364.8070580097194
 20
-295.3536497627908
 30
0.0
 11
-364.8070580097194
 21
-288.3536504780466
 31
0.0
  0
LINE
  5
BBD
330
6B
100
AcDbEntity
  8
0
 62
     3
100
AcDbLine
 10
-364.1799500914569
 20
-288.3536504780466
 30
0.0
 11
-364.1799500914569
 21
-295.3536497627908
 31
0.0
  0
LINE
  5
BBE
330
6B
100
AcDbEntity
  8
0
 62
     3
100
AcDbLine
 10
-364.1799500914569
 20
-249.3536496733838
 30
0.0
 11
-364.1799500914569
 21
-256.3536489581281
 31
0.0
  0
LINE
  5
BBF
330
6B
100
AcDbEntity
  8
0
 62
     3
100
AcDbLine
 10
-364.8070580097194
 20
-256.3536489581281
 30
0.0
 11
-364.8070580097194
 21
-249.3536496733838
 31
0.0
  0
LINE
  5
BC2
330
6B
100
AcDbEntity
  8
0
 62
     7
100
AcDbLine
 10
-379.6935038412268
 20
-247.8536503588372
 30
0.0
 11
-379.6935038412268
 21
-257.8536501353199
 31
0.0
  0
LINE
  5
BC3
330
6B
100
AcDbEntity
  8
0
 62
     7
100
AcDbLine
 10
-376.6935038151498
 20
-245.8536500310117
 30
0.0
 11
-377.6935039790627
 21
-245.8536500310117
 31
0.0
  0
LINE
  5
BC4
330
6B
100
AcDbEntity
  8
0
 62
     7
100
AcDbLine
 10
-377.6935039790627
 20
-259.8536495318228
 30
0.0
 11
-376.6935038151498
 21
-259.8536495318228
 31
0.0
  0
LINE
  5
BC5
330
6B
100
AcDbEntity
  8
0
 62
     7
100
AcDbLine
 10
-374.6935039529855
 20
-257.8536501353199
 30
0.0
 11
-374.6935039529855
 21
-247.8536503588372
 31
0.0
  0
SPLINE
  5
BC6
330
6B
100
AcDbEntity
  8
0
 62
     7
100
AcDbSpline
210
0.0
220
0.0
230
1.0
 70
     8
 71
     3
 72
    16
 73
    12
 74
     0
 42
0.0000000001
 43
0.0000000001
 40
0.0
 40
0.0
 40
0.0
 40
0.0
 40
0.1074000985055109
 40
0.2148000842401073
 40
0.3222003333667452
 40
0.4296001200975562
 40
0.5370004218126621
 40
0.6444005081245084
 40
0.7518005069895645
 40
0.8592003923915253
 40
1.0
 40
1.0
 40
1.0
 40
1.0
 10
-363.9935039686319
 20
-245.8536500310117
 30
0.0
 10
-363.8810705630332
 20
-245.859252909839
 30
0.0
 10
-363.656203869892
 20
-245.8704586616107
 30
0.0
 10
-363.328279327242
 20
-245.9579315430089
 30
0.0
 10
-363.0196348029619
 20
-246.096168882774
 30
0.0
 10
-362.7380412458764
 20
-246.2843799471662
 30
0.0
 10
-362.4929084547731
 20
-246.5177617581993
 30
0.0
 10
-362.2891755144033
 20
-246.7883553373091
 30
0.0
 10
-362.1360041017787
 20
-247.0898148328215
 30
0.0
 10
-362.0190789252765
 20
-247.4458730526556
 30
0.0
 10
-362.0027610030703
 20
-247.7060539129569
 30
0.0
 10
-361.9935041064675
 20
-247.8536503588372
 30
0.0
  0
SPLINE
  5
BC7
330
6B
100
AcDbEntity
  8
0
 62
     7
100
AcDbSpline
210
0.0
220
0.0
230
1.0
 70
     8
 71
     3
 72
    16
 73
    12
 74
     0
 42
0.0000000001
 43
0.0000000001
 40
0.0
 40
0.0
 40
0.0
 40
0.0
 40
0.107400246395408
 40
0.2148004377524664
 40
0.3222004361217338
 40
0.4296004768077994
 40
0.5370004781641295
 40
0.6444005113608493
 40
0.7518006519533829
 40
0.8592008266881199
 40
1.0
 40
1.0
 40
1.0
 40
1.0
 10
-366.9935039947088
 20
-247.8536503588372
 30
0.0
 10
-366.987901309311
 20
-247.7412167649029
 30
0.0
 10
-366.9766959413865
 20
-247.5163496346518
 30
0.0
 10
-366.8892216290923
 20
-247.1884254725619
 30
0.0
 10
-366.7509860729367
 20
-246.8797798238181
 30
0.0
 10
-366.5627727359991
 20
-246.5981882499925
 30
0.0
 10
-366.3293931844863
 20
-246.3530535071433
 30
0.0
 10
-366.0587980413922
 20
-246.1493229410515
 30
0.0
 10
-365.7573393074914
 20
-245.9961494961078
 30
0.0
 10
-365.4012806631549
 20
-245.8792252894066
 30
0.0
 10
-365.1411000622294
 20
-245.8629070719553
 30
0.0
 10
-364.9935041325445
 20
-245.8536500310117
 30
0.0
  0
SPLINE
  5
BC8
330
6B
100
AcDbEntity
  8
0
 62
     7
100
AcDbSpline
210
0.0
220
0.0
230
1.0
 70
     8
 71
     3
 72
    16
 73
    12
 74
     0
 42
0.0000000001
 43
0.0000000001
 40
0.0
 40
0.0
 40
0.0
 40
0.0
 40
0.1073999476625295
 40
0.2148001734888019
 40
0.3222001877920374
 40
0.4296003269654118
 40
0.5370002420375961
 40
0.6444005880365232
 40
0.7518006091316988
 40
0.8592006582820836
 40
1.0
 40
1.0
 40
1.0
 40
1.0
 10
-361.9935041064675
 20
-257.8536501353199
 30
0.0
 10
-361.9991064938289
 20
-257.966083429388
 30
0.0
 10
-362.0103112830616
 20
-258.1909503087242
 30
0.0
 10
-362.0977861604631
 20
-258.5188740257052
 30
0.0
 10
-362.2360214379177
 20
-258.8275199067763
 30
0.0
 10
-362.4242354209791
 20
-259.1091110564322
 30
0.0
 10
-362.6576147749028
 20
-259.3542462321384
 30
0.0
 10
-362.928209465095
 20
-259.5579777044048
 30
0.0
 10
-363.2296689573412
 20
-259.7111497211671
 30
0.0
 10
-363.5857271958104
 20
-259.8280745034984
 30
0.0
 10
-363.8459078548877
 20
-259.8443925681084
 30
0.0
 10
-363.9935039686319
 20
-259.8536495318228
 30
0.0
  0
SPLINE
  5
BC9
330
6B
100
AcDbEntity
  8
0
 62
     7
100
AcDbSpline
210
0.0
220
0.0
230
1.0
 70
     8
 71
     3
 72
    16
 73
    12
 74
     0
 42
0.0000000001
 43
0.0000000001
 40
0.0
 40
0.0
 40
0.0
 40
0.0
 40
0.1074001046273294
 40
0.2148001958078063
 40
0.3222002191861204
 40
0.4296004907831121
 40
0.5370004149303666
 40
0.6444006809345627
 40
0.7518007111048175
 40
0.8592009332231436
 40
1.0
 40
1.0
 40
1.0
 40
1.0
 10
-364.9935041325445
 20
-259.8536495318228
 30
0.0
 10
-365.1059375859016
 20
-259.8480471698056
 30
0.0
 10
-365.3308044785386
 20
-259.8368424464726
 30
0.0
 10
-365.6587281655756
 20
-259.7493674041679
 30
0.0
 10
-365.9673739760178
 20
-259.6111320776334
 30
0.0
 10
-366.2489654436823
 20
-259.4229183549075
 30
0.0
 10
-366.4941007254814
 20
-259.1895389931001
 30
0.0
 10
-366.6978316492723
 20
-258.9189440189082
 30
0.0
 10
-366.8510037986181
 20
-258.6174845363564
 30
0.0
 10
-366.9679285925075
 20
-258.2614264331969
 30
0.0
 10
-366.9842469047755
 20
-258.001245931954
 30
0.0
 10
-366.9935039947088
 20
-257.8536501353199
 30
0.0
  0
SPLINE
  5
BCA
330
6B
100
AcDbEntity
  8
0
 62
     7
100
AcDbSpline
210
0.0
220
0.0
230
1.0
 70
     8
 71
     3
 72
    16
 73
    12
 74
     0
 42
0.0000000001
 43
0.0000000001
 40
0.0
 40
0.0
 40
0.0
 40
0.0
 40
0.1073999777958891
 40
0.2148001963328242
 40
0.3222002218819195
 40
0.4296002897478237
 40
0.5370003182839822
 40
0.6444005568002829
 40
0.7518005891413189
 40
0.8592007910559285
 40
1.0
 40
1.0
 40
1.0
 40
1.0
 10
-374.6935039529855
 20
-257.8536501353199
 30
0.0
 10
-374.699106661576
 20
-257.9660834156367
 30
0.0
 10
-374.7103120913157
 20
-258.1909502282937
 30
0.0
 10
-374.7977863136295
 20
-258.5188740958678
 30
0.0
 10
-374.9360218899417
 20
-258.8275197175583
 30
0.0
 10
-375.1242351559323
 20
-259.1091113930791
 30
0.0
 10
-375.3576151001081
 20
-259.3542458917323
 30
0.0
 10
-375.6282093263569
 20
-259.5579778677074
 30
0.0
 10
-375.9296689508399
 20
-259.7111497962387
 30
0.0
 10
-376.285727224601
 20
-259.8280743813047
 30
0.0
 10
-376.5459078637702
 20
-259.8443925299255
 30
0.0
 10
-376.6935038151498
 20
-259.8536495318228
 30
0.0
  0
SPLINE
  5
BCB
330
6B
100
AcDbEntity
  8
0
 62
     7
100
AcDbSpline
210
0.0
220
0.0
230
1.0
 70
     8
 71
     3
 72
    16
 73
    12
 74
     0
 42
0.0000000001
 43
0.0000000001
 40
0.0
 40
0.0
 40
0.0
 40
0.0
 40
0.1074001060810805
 40
0.2148000993912385
 40
0.3222002207085276
 40
0.4296001383637666
 40
0.5370004476544565
 40
0.6444004524718567
 40
0.7518004589124756
 40
0.8592003742645463
 40
1.0
 40
1.0
 40
1.0
 40
1.0
 10
-376.6935038151498
 20
-245.8536500310117
 30
0.0
 10
-376.581070413233
 20
-245.8592529174297
 30
0.0
 10
-376.3562037274553
 20
-245.8704586843826
 30
0.0
 10
-376.0282792673698
 20
-245.9579314151659
 30
0.0
 10
-375.7196349523245
 20
-246.0961691504386
 30
0.0
 10
-375.4380411599573
 20
-246.2843797917196
 30
0.0
 10
-375.1929082756033
 20
-246.517761634042
 30
0.0
 10
-374.9891758679335
 20
-246.7883554872194
 30
0.0
 10
-374.8360044402641
 20
-247.0898148569581
 30
0.0
 10
-374.7190789629085
 20
-247.4458730186876
 30
0.0
 10
-374.7027609183789
 20
-247.7060539067795
 30
0.0
 10
-374.6935039529855
 20
-247.8536503588372
 30
0.0
  0
SPLINE
  5
BCC
330
6B
100
AcDbEntity
  8
0
 62
     7
100
AcDbSpline
210
0.0
220
0.0
230
1.0
 70
     8
 71
     3
 72
    16
 73
    12
 74
     0
 42
0.0000000001
 43
0.0000000001
 40
0.0
 40
0.0
 40
0.0
 40
0.0
 40
0.1074002162620532
 40
0.2148004149084231
 40
0.3222004020318097
 40
0.4296005140253035
 40
0.5370004019176641
 40
0.6444005425971751
 40
0.751800671943813
 40
0.8592006939143399
 40
1.0
 40
1.0
 40
1.0
 40
1.0
 10
-379.6935038412268
 20
-247.8536503588372
 30
0.0
 10
-379.6879014770584
 20
-247.7412167511515
 30
0.0
 10
-379.6766967496404
 20
-247.5163495542213
 30
0.0
 10
-379.5892217822589
 20
-247.1884255427245
 30
0.0
 10
-379.4509865249604
 20
-246.8797796346001
 30
0.0
 10
-379.2627724709524
 20
-246.5981885866395
 30
0.0
 10
-379.0293935096908
 20
-246.3530531667375
 30
0.0
 10
-378.7587979026541
 20
-246.1493231043548
 30
0.0
 10
-378.4573393009897
 20
-245.9961495711799
 30
0.0
 10
-378.1012806919455
 20
-245.8792251672131
 30
0.0
 10
-377.8411000711118
 20
-245.8629070337725
 30
0.0
 10
-377.6935039790627
 20
-245.8536500310117
 30
0.0
  0
LINE
  5
BCD
330
6B
100
AcDbEntity
  8
0
 62
     7
100
AcDbLine
 10
-364.9935041325445
 20
-259.8536495318228
 30
0.0
 11
-363.9935039686319
 21
-259.8536495318228
 31
0.0
  0
LINE
  5
BCE
330
6B
100
AcDbEntity
  8
0
 62
     7
100
AcDbLine
 10
-361.9935041064675
 20
-257.8536501353199
 30
0.0
 11
-361.9935041064675
 21
-247.8536503588372
 31
0.0
  0
LINE
  5
BCF
330
6B
100
AcDbEntity
  8
0
 62
     7
100
AcDbLine
 10
-363.9935039686319
 20
-245.8536500310117
 30
0.0
 11
-364.9935041325445
 21
-245.8536500310117
 31
0.0
  0
LINE
  5
BD0
330
6B
100
AcDbEntity
  8
0
 62
     7
100
AcDbLine
 10
-366.9935039947088
 20
-247.8536503588372
 30
0.0
 11
-366.9935039947088
 21
-257.8536501353199
 31
0.0
  0
SPLINE
  5
BD1
330
6B
100
AcDbEntity
  8
0
 62
     7
100
AcDbSpline
210
0.0
220
0.0
230
1.0
 70
     8
 71
     3
 72
    16
 73
    12
 74
     0
 42
0.0000000001
 43
0.0000000001
 40
0.0
 40
0.0
 40
0.0
 40
0.0
 40
0.1074000970517195
 40
0.2148001806565875
 40
0.3222003318444002
 40
0.4296004725172506
 40
0.5370003890889082
 40
0.6444007365873139
 40
0.7518007591819642
 40
0.8592009513501722
 40
1.0
 40
1.0
 40
1.0
 40
1.0
 10
-377.6935039790627
 20
-259.8536495318228
 30
0.0
 10
-377.8059374361013
 20
-259.8480471773962
 30
0.0
 10
-378.0308043361018
 20
-259.8368424692445
 30
0.0
 10
-378.3587281057035
 20
-259.7493672763243
 30
0.0
 10
-378.6673741253813
 20
-259.6111323452983
 30
0.0
 10
-378.9489653577632
 20
-259.4229181994621
 30
0.0
 10
-379.1941005463123
 20
-259.1895388689442
 30
0.0
 10
-379.3978320028027
 20
-258.9189441688181
 30
0.0
 10
-379.5510041371032
 20
-258.6174845604928
 30
0.0
 10
-379.6679286301404
 20
-258.2614263992293
 30
0.0
 10
-379.6842468200844
 20
-258.0012459257769
 30
0.0
 10
-379.6935038412268
 20
-257.8536501353199
 30
0.0
  0
LINE
  5
BD2
330
6B
100
AcDbEntity
  8
0
 62
     7
100
AcDbLine
 10
-361.9935041064675
 20
-296.8536490773374
 30
0.0
 11
-361.9935041064675
 21
-286.8536493008548
 31
0.0
  0
LINE
  5
BD3
330
6B
100
AcDbEntity
  8
0
 62
     7
100
AcDbLine
 10
-364.9935041325445
 20
-298.8536494051629
 30
0.0
 11
-363.9935039686319
 21
-298.8536494051629
 31
0.0
  0
LINE
  5
BD4
330
6B
100
AcDbEntity
  8
0
 62
     7
100
AcDbLine
 10
-363.9935039686319
 20
-284.8536499043519
 30
0.0
 11
-364.9935041325445
 21
-284.8536499043519
 31
0.0
  0
LINE
  5
BD5
330
6B
100
AcDbEntity
  8
0
 62
     7
100
AcDbLine
 10
-366.9935039947088
 20
-286.8536493008548
 30
0.0
 11
-366.9935039947088
 21
-296.8536490773374
 31
0.0
  0
SPLINE
  5
BD6
330
6B
100
AcDbEntity
  8
0
 62
     7
100
AcDbSpline
210
0.0
220
0.0
230
1.0
 70
     8
 71
     3
 72
    16
 73
    12
 74
     0
 42
0.0000000001
 43
0.0000000001
 40
0.0
 40
0.0
 40
0.0
 40
0.0
 40
0.1074000970517195
 40
0.2148001806565875
 40
0.3222003318444002
 40
0.4296004725172506
 40
0.5370003890889082
 40
0.6444007365873139
 40
0.7518007591819642
 40
0.8592009513501722
 40
1.0
 40
1.0
 40
1.0
 40
1.0
 10
-363.9935039686319
 20
-284.8536499043519
 30
0.0
 10
-363.8810705115931
 20
-284.8592522587784
 30
0.0
 10
-363.6562036115927
 20
-284.8704569669301
 30
0.0
 10
-363.3282798419909
 20
-284.9579321598503
 30
0.0
 10
-363.0196338223131
 20
-285.0961670908763
 30
0.0
 10
-362.7380425899314
 20
-285.2843812367126
 30
0.0
 10
-362.4929074013821
 20
-285.5177605672306
 30
0.0
 10
-362.2891759448918
 20
-285.7883552673566
 30
0.0
 10
-362.1360038105912
 20
-286.0898148756819
 30
0.0
 10
-362.019079317554
 20
-286.4458730369453
 30
0.0
 10
-362.00276112761
 20
-286.7060535103977
 30
0.0
 10
-361.9935041064675
 20
-286.8536493008548
 30
0.0
  0
LINE
  5
BD7
330
6B
100
AcDbEntity
  8
0
 62
     7
100
AcDbLine
 10
-374.6935039529855
 20
-296.8536490773374
 30
0.0
 11
-374.6935039529855
 21
-286.8536493008548
 31
0.0
  0
LINE
  5
BD8
330
6B
100
AcDbEntity
  8
0
 62
     7
100
AcDbLine
 10
-376.6935038151498
 20
-284.8536499043519
 30
0.0
 11
-377.6935039790627
 21
-284.8536499043519
 31
0.0
  0
LINE
  5
BD9
330
6B
100
AcDbEntity
  8
0
 62
     7
100
AcDbLine
 10
-379.6935038412268
 20
-286.8536493008548
 30
0.0
 11
-379.6935038412268
 21
-296.8536490773374
 31
0.0
  0
SPLINE
  5
BDA
330
6B
100
AcDbEntity
  8
0
 62
     7
100
AcDbSpline
210
0.0
220
0.0
230
1.0
 70
     8
 71
     3
 72
    16
 73
    12
 74
     0
 42
0.0000000001
 43
0.0000000001
 40
0.0
 40
0.0
 40
0.0
 40
0.0
 40
0.1074001046273294
 40
0.2148001958078063
 40
0.3222002191861204
 40
0.4296004907831121
 40
0.5370004149303666
 40
0.6444006809345627
 40
0.7518007111048175
 40
0.8592009332231436
 40
1.0
 40
1.0
 40
1.0
 40
1.0
 10
-376.6935038151498
 20
-284.8536499043519
 30
0.0
 10
-376.5810703617928
 20
-284.859252266369
 30
0.0
 10
-376.3562034691557
 20
-284.870456989702
 30
0.0
 10
-376.0282797821188
 20
-284.9579320320067
 30
0.0
 10
-375.7196339716766
 20
-285.0961673585412
 30
0.0
 10
-375.4380425040122
 20
-285.2843810812672
 30
0.0
 10
-375.1929072222131
 20
-285.5177604430745
 30
0.0
 10
-374.9891762984221
 20
-285.7883554172664
 30
0.0
 10
-374.8360041490764
 20
-286.0898148998182
 30
0.0
 10
-374.7190793551869
 20
-286.4458730029777
 30
0.0
 10
-374.7027610429189
 20
-286.7060535042206
 30
0.0
 10
-374.6935039529855
 20
-286.8536493008548
 30
0.0
  0
SPLINE
  5
BDB
330
6B
100
AcDbEntity
  8
0
 62
     7
100
AcDbSpline
210
0.0
220
0.0
230
1.0
 70
     8
 71
     3
 72
    16
 73
    12
 74
     0
 42
0.0000000001
 43
0.0000000001
 40
0.0
 40
0.0
 40
0.0
 40
0.0
 40
0.1073999476625295
 40
0.2148001734888019
 40
0.3222001877920374
 40
0.4296003269654118
 40
0.5370002420375961
 40
0.6444005880365232
 40
0.7518006091316988
 40
0.8592006582820836
 40
1.0
 40
1.0
 40
1.0
 40
1.0
 10
-379.6935038412268
 20
-286.8536493008548
 30
0.0
 10
-379.6879014538657
 20
-286.7412160067867
 30
0.0
 10
-379.6766966646328
 20
-286.5163491274503
 30
0.0
 10
-379.5892217872312
 20
-286.1884254104694
 30
0.0
 10
-379.4509865097767
 20
-285.8797795293983
 30
0.0
 10
-379.2627725267154
 20
-285.5981883797424
 30
0.0
 10
-379.0293931727916
 20
-285.3530532040362
 30
0.0
 10
-378.7587984825993
 20
-285.1493217317699
 30
0.0
 10
-378.4573389903532
 20
-284.9961497150076
 30
0.0
 10
-378.101280751884
 20
-284.8792249326763
 30
0.0
 10
-377.8411000928068
 20
-284.8629068680663
 30
0.0
 10
-377.6935039790627
 20
-284.8536499043519
 30
0.0
  0
SPLINE
  5
BDC
330
6B
100
AcDbEntity
  8
0
 62
     7
100
AcDbSpline
210
0.0
220
0.0
230
1.0
 70
     8
 71
     3
 72
    16
 73
    12
 74
     0
 42
0.0000000001
 43
0.0000000001
 40
0.0
 40
0.0
 40
0.0
 40
0.0
 40
0.1074000985055109
 40
0.2148000842401073
 40
0.3222003333667452
 40
0.4296001200975562
 40
0.5370004218126621
 40
0.6444005081245084
 40
0.7518005069895645
 40
0.8592003923915253
 40
1.0
 40
1.0
 40
1.0
 40
1.0
 10
-377.6935039790627
 20
-298.8536494051629
 30
0.0
 10
-377.8059373846612
 20
-298.8480465263356
 30
0.0
 10
-378.0308040778024
 20
-298.836840774564
 30
0.0
 10
-378.3587286204527
 20
-298.7493678931657
 30
0.0
 10
-378.6673731447324
 20
-298.6111305534006
 30
0.0
 10
-378.9489667018179
 20
-298.4229194890083
 30
0.0
 10
-379.1940994929213
 20
-298.1895376779753
 30
0.0
 10
-379.3978324332911
 20
-297.9189440988656
 30
0.0
 10
-379.5510038459158
 20
-297.6174846033531
 30
0.0
 10
-379.6679290224179
 20
-297.2614263835191
 30
0.0
 10
-379.6842469446242
 20
-297.0012455232178
 30
0.0
 10
-379.6935038412268
 20
-296.8536490773374
 30
0.0
  0
SPLINE
  5
BDD
330
6B
100
AcDbEntity
  8
0
 62
     7
100
AcDbSpline
210
0.0
220
0.0
230
1.0
 70
     8
 71
     3
 72
    16
 73
    12
 74
     0
 42
0.0000000001
 43
0.0000000001
 40
0.0
 40
0.0
 40
0.0
 40
0.0
 40
0.1073999777958891
 40
0.2148001963328242
 40
0.3222002218819195
 40
0.4296002897478237
 40
0.5370003182839822
 40
0.6444005568002829
 40
0.7518005891413189
 40
0.8592007910559285
 40
1.0
 40
1.0
 40
1.0
 40
1.0
 10
-366.9935039947088
 20
-286.8536493008548
 30
0.0
 10
-366.9879012861184
 20
-286.741216020538
 30
0.0
 10
-366.9766958563787
 20
-286.5163492078809
 30
0.0
 10
-366.8892216340648
 20
-286.1884253403068
 30
0.0
 10
-366.7509860577527
 20
-285.8797797186163
 30
0.0
 10
-366.562772791762
 20
-285.5981880430956
 30
0.0
 10
-366.3293928475864
 20
-285.3530535444424
 30
0.0
 10
-366.0587986213375
 20
-285.1493215684673
 30
0.0
 10
-365.7573389968545
 20
-284.9961496399359
 30
0.0
 10
-365.4012807230933
 20
-284.8792250548698
 30
0.0
 10
-365.1411000839244
 20
-284.8629069062491
 30
0.0
 10
-364.9935041325445
 20
-284.8536499043519
 30
0.0
  0
SPLINE
  5
BDE
330
6B
100
AcDbEntity
  8
0
 62
     7
100
AcDbSpline
210
0.0
220
0.0
230
1.0
 70
     8
 71
     3
 72
    16
 73
    12
 74
     0
 42
0.0000000001
 43
0.0000000001
 40
0.0
 40
0.0
 40
0.0
 40
0.0
 40
0.1074002162620532
 40
0.2148004149084231
 40
0.3222004020318097
 40
0.4296005140253035
 40
0.5370004019176641
 40
0.6444005425971751
 40
0.751800671943813
 40
0.8592006939143399
 40
1.0
 40
1.0
 40
1.0
 40
1.0
 10
-361.9935041064675
 20
-296.8536490773374
 30
0.0
 10
-361.999106470636
 20
-296.9660826850232
 30
0.0
 10
-362.0103111980541
 20
-297.1909498819533
 30
0.0
 10
-362.0977861654357
 20
-297.5188738934502
 30
0.0
 10
-362.2360214227338
 20
-297.8275198015745
 30
0.0
 10
-362.424235476742
 20
-298.1091108495352
 30
0.0
 10
-362.6576144380039
 20
-298.3542462694371
 30
0.0
 10
-362.9282100450403
 20
-298.5579763318198
 30
0.0
 10
-363.2296686467047
 20
-298.7111498649946
 30
0.0
 10
-363.5857272557489
 20
-298.8280742689616
 30
0.0
 10
-363.8459078765827
 20
-298.8443924024021
 30
0.0
 10
-363.9935039686319
 20
-298.8536494051629
 30
0.0
  0
SPLINE
  5
BDF
330
6B
100
AcDbEntity
  8
0
 62
     7
100
AcDbSpline
210
0.0
220
0.0
230
1.0
 70
     8
 71
     3
 72
    16
 73
    12
 74
     0
 42
0.0000000001
 43
0.0000000001
 40
0.0
 40
0.0
 40
0.0
 40
0.0
 40
0.1074001060810805
 40
0.2148000993912385
 40
0.3222002207085276
 40
0.4296001383637666
 40
0.5370004476544565
 40
0.6444004524718567
 40
0.7518004589124756
 40
0.8592003742645463
 40
1.0
 40
1.0
 40
1.0
 40
1.0
 10
-364.9935041325445
 20
-298.8536494051629
 30
0.0
 10
-365.1059375344614
 20
-298.848046518745
 30
0.0
 10
-365.3308042202393
 20
-298.836840751792
 30
0.0
 10
-365.6587286803246
 20
-298.7493680210087
 30
0.0
 10
-365.9673729953698
 20
-298.611130285736
 30
0.0
 10
-366.2489667877372
 20
-298.4229196444551
 30
0.0
 10
-366.4940996720911
 20
-298.1895378021326
 30
0.0
 10
-366.6978320797609
 20
-297.9189439489552
 30
0.0
 10
-366.8510035074303
 20
-297.6174845792165
 30
0.0
 10
-366.967928984786
 20
-297.261426417487
 30
0.0
 10
-366.9842470293155
 20
-297.001245529395
 30
0.0
 10
-366.9935039947088
 20
-296.8536490773374
 30
0.0
  0
SPLINE
  5
BE0
330
6B
100
AcDbEntity
  8
0
 62
     7
100
AcDbSpline
210
0.0
220
0.0
230
1.0
 70
     8
 71
     3
 72
    16
 73
    12
 74
     0
 42
0.0000000001
 43
0.0000000001
 40
0.0
 40
0.0
 40
0.0
 40
0.0
 40
0.107400246395408
 40
0.2148004377524664
 40
0.3222004361217338
 40
0.4296004768077994
 40
0.5370004781641295
 40
0.6444005113608493
 40
0.7518006519533829
 40
0.8592008266881199
 40
1.0
 40
1.0
 40
1.0
 40
1.0
 10
-374.6935039529855
 20
-296.8536490773374
 30
0.0
 10
-374.6991066383835
 20
-296.9660826712718
 30
0.0
 10
-374.7103120063079
 20
-297.1909498015228
 30
0.0
 10
-374.7977863186022
 20
-297.5188739636127
 30
0.0
 10
-374.9360218747578
 20
-297.8275196123565
 30
0.0
 10
-375.1242352116952
 20
-298.1091111861821
 30
0.0
 10
-375.3576147632082
 20
-298.3542459290313
 30
0.0
 10
-375.6282099063022
 20
-298.5579764951232
 30
0.0
 10
-375.9296686402031
 20
-298.7111499400668
 30
0.0
 10
-376.2857272845395
 20
-298.8280741467681
 30
0.0
 10
-376.545907885465
 20
-298.8443923642194
 30
0.0
 10
-376.6935038151498
 20
-298.8536494051629
 30
0.0
  0
LINE
  5
BE1
330
6B
100
AcDbEntity
  8
0
 62
     7
100
AcDbLine
 10
-377.6935039790627
 20
-298.8536494051629
 30
0.0
 11
-376.6935038151498
 21
-298.8536494051629
 31
0.0
  0
LINE
  5
BE2
330
6B
100
AcDbEntity
  8
0
 62
     3
100
AcDbLine
 10
-387.2435580710228
 20
-261.0178306897694
 30
0.0
 11
-387.6435033748204
 21
-260.4785977130348
 31
0.0
  0
SPLINE
  5
BE3
330
6B
100
AcDbEntity
  8
0
 62
     3
100
AcDbSpline
210
0.0
220
0.0
230
1.0
 70
    24
 71
     3
 72
    10
 73
     6
 74
     0
 42
0.0000000001
 43
0.0000000001
 40
0.0
 40
0.0
 40
0.0
 40
0.0
 40
0.3645483857187548
 40
0.7380469515163203
 40
1.0
 40
1.0
 40
1.0
 40
1.0
 10
-387.6435033748204
 20
-260.4785977130348
 30
0.0
 10
-387.6435033748204
 20
-260.2464389600369
 30
0.0
 10
-387.6435033748204
 20
-259.776421627276
 30
0.0
 10
-387.6435033748204
 20
-259.0931086268374
 30
0.0
 10
-387.6435033748204
 20
-258.651010314543
 30
0.0
 10
-387.6435033748204
 20
-258.4687635501439
 30
0.0
  0
LINE
  5
BE4
330
6B
100
AcDbEntity
  8
0
 62
     3
100
AcDbLine
 10
-354.4434498766716
 20
-283.6894687464053
 30
0.0
 11
-354.0435045728738
 21
-284.2287017231399
 31
0.0
  0
SPLINE
  5
BE5
330
6B
100
AcDbEntity
  8
0
 62
     3
100
AcDbSpline
210
0.0
220
0.0
230
1.0
 70
    24
 71
     3
 72
    10
 73
     6
 74
     0
 42
0.0000000001
 43
0.0000000001
 40
0.0
 40
0.0
 40
0.0
 40
0.0
 40
0.3645483857187548
 40
0.7380469515163203
 40
1.0
 40
1.0
 40
1.0
 40
1.0
 10
-354.0435045728738
 20
-284.2287017231399
 30
0.0
 10
-354.0435045728738
 20
-284.4608604761377
 30
0.0
 10
-354.0435045728738
 20
-284.9308778088986
 30
0.0
 10
-354.0435045728738
 20
-285.6141908093373
 30
0.0
 10
-354.0435045728738
 20
-286.0562891216316
 30
0.0
 10
-354.0435045728738
 20
-286.2385358860308
 30
0.0
  0
SPLINE
  5
BE6
330
6B
100
AcDbEntity
  8
0
 62
     3
100
AcDbSpline
210
0.0
220
0.0
230
1.0
 70
    24
 71
     3
 72
    10
 73
     6
 74
     0
 42
0.0000000001
 43
0.0000000001
 40
0.0
 40
0.0
 40
0.0
 40
0.0
 40
0.3627487998391373
 40
0.7377359219012396
 40
1.0
 40
1.0
 40
1.0
 40
1.0
 10
-387.6435033748204
 20
-286.2385358860308
 30
0.0
 10
-387.6435033748204
 20
-285.9860419596683
 30
0.0
 10
-387.6435033748204
 20
-285.4725355342245
 30
0.0
 10
-387.6435033748204
 20
-284.7983344935885
 30
0.0
 10
-387.6435033748204
 20
-284.3947847425251
 30
0.0
 10
-387.6435033748204
 20
-284.2287017231399
 30
0.0
  0
LINE
  5
BE7
330
6B
100
AcDbEntity
  8
0
 62
     3
100
AcDbLine
 10
-387.6435033748204
 20
-284.2287017231399
 30
0.0
 11
-387.2435580710228
 21
-283.6894687464053
 31
0.0
  0
SPLINE
  5
BE8
330
6B
100
AcDbEntity
  8
0
 62
     3
100
AcDbSpline
210
0.0
220
0.0
230
1.0
 70
    24
 71
     3
 72
    10
 73
     6
 74
     0
 42
0.0000000001
 43
0.0000000001
 40
0.0
 40
0.0
 40
0.0
 40
0.0
 40
0.2804984190833073
 40
0.5668375344961367
 40
1.0
 40
1.0
 40
1.0
 40
1.0
 10
-354.0435045728738
 20
-258.4687635501439
 30
0.0
 10
-354.0435045728738
 20
-258.6639382122476
 30
0.0
 10
-354.0435045728738
 20
-259.0583515733803
 30
0.0
 10
-354.0435045728738
 20
-259.7417083090496
 30
0.0
 10
-354.0435045728738
 20
-260.2016802260834
 30
0.0
 10
-354.0435045728738
 20
-260.4785977130348
 30
0.0
  0
LINE
  5
BE9
330
6B
100
AcDbEntity
  8
0
 62
     3
100
AcDbLine
 10
-354.0435045728738
 20
-260.4785977130348
 30
0.0
 11
-354.4434498766716
 21
-261.0178306897694
 31
0.0
  0
ARC
  5
BEA
330
6B
100
AcDbEntity
  8
0
 62
     3
100
AcDbCircle
 10
-370.8435039738472
 20
-298.3536497180873
 30
0.0
 40
22.0
100
AcDbArc
 50
41.80163044465629
 51
138.1983695553437
  0
ARC
  5
BEB
330
6B
100
AcDbEntity
  8
0
 62
     3
100
AcDbCircle
 10
-370.8435039738472
 20
-246.3536497180873
 30
0.0
 40
22.0
100
AcDbArc
 50
221.8016304446563
 51
318.1983695553437
  0
LINE
  5
BEC
330
6B
100
AcDbEntity
  8
0
 62
     3
100
AcDbLine
 10
-354.0435045728738
 20
-286.2385358860308
 30
0.0
 11
-354.0435045728738
 21
-298.0912966852599
 31
0.0
  0
ARC
  5
BED
330
6B
100
AcDbEntity
  8
0
 62
     3
100
AcDbCircle
 10
-359.0435039738472
 20
-298.09129655071
 30
0.0
 40
5.000000000000015
100
AcDbArc
 50
313.9569467237699
 51
0.0
  0
LINE
  5
BEE
330
6B
100
AcDbEntity
  8
0
 62
     3
100
AcDbLine
 10
-387.6435033748204
 20
-298.0912966852599
 30
0.0
 11
-387.6435033748204
 21
-286.2385358860308
 31
0.0
  0
ARC
  5
BEF
330
6B
100
AcDbEntity
  8
0
 62
     3
100
AcDbCircle
 10
-382.6435039738472
 20
-298.09129655071
 30
0.0
 40
5.000000000000013
100
AcDbArc
 50
180.0
 51
226.0430532762301
  0
ARC
  5
BF0
330
6B
100
AcDbEntity
  8
0
 62
     3
100
AcDbCircle
 10
-382.6435039738472
 20
-246.6160028854647
 30
0.0
 40
5.000000000000013
100
AcDbArc
 50
133.9569467237699
 51
180.0
  0
ARC
  5
BF1
330
6B
100
AcDbEntity
  8
0
 62
     3
100
AcDbCircle
 10
-370.8435039738472
 20
-285.8536497180874
 30
0.0
 40
22.0
100
AcDbArc
 50
226.0430532762301
 51
313.9569467237699
  0
ARC
  5
BF2
330
6B
100
AcDbEntity
  8
0
 62
     3
100
AcDbCircle
 10
-370.8435039738472
 20
-258.8536497180873
 30
0.0
 40
21.99999999999999
100
AcDbArc
 50
46.04305327623006
 51
133.9569467237699
  0
LINE
  5
BF3
330
6B
100
AcDbEntity
  8
0
 62
     3
100
AcDbLine
 10
-387.6435033748204
 20
-258.4687635501439
 30
0.0
 11
-387.6435033748204
 21
-246.6160027509147
 31
0.0
  0
ARC
  5
BF4
330
6B
100
AcDbEntity
  8
0
 62
     3
100
AcDbCircle
 10
-359.0435039738472
 20
-246.6160028854647
 30
0.0
 40
5.000000000000006
100
AcDbArc
 50
0.0
 51
46.04305327623006
  0
LINE
  5
BF5
330
6B
100
AcDbEntity
  8
0
 62
     3
100
AcDbLine
 10
-354.0435045728738
 20
-246.6160027509147
 30
0.0
 11
-354.0435045728738
 21
-258.4687635501439
 31
0.0
  0
LINE
  5
BF6
330
6B
100
AcDbEntity
  8
0
 62
     7
100
AcDbLine
 10
-376.0935039030667
 20
-287.5036500593239
 30
0.0
 11
-375.1068509886319
 21
-285.636056793254
 31
0.0
  0
LINE
  5
BF7
330
6B
100
AcDbEntity
  8
0
 62
     3
100
AcDbLine
 10
-378.2935038911457
 20
-287.5036500593239
 30
0.0
 11
-376.0935039030667
 21
-287.5036500593239
 31
0.0
  0
LINE
  5
BF8
330
6B
100
AcDbEntity
  8
0
 62
     7
100
AcDbLine
 10
-378.2935038911457
 20
-287.5036500593239
 30
0.0
 11
-379.2801568055804
 21
-285.636056793254
 31
0.0
  0
LINE
  5
BF9
330
6B
100
AcDbEntity
  8
0
 62
     7
100
AcDbLine
 10
-376.0935039030667
 20
-248.5036501859838
 30
0.0
 11
-375.1068509886319
 21
-246.6360559885913
 31
0.0
  0
LINE
  5
BFA
330
6B
100
AcDbEntity
  8
0
 62
     3
100
AcDbLine
 10
-376.0935039030667
 20
-248.5036501859838
 30
0.0
 11
-378.2935038911457
 21
-248.5036501859838
 31
0.0
  0
LINE
  5
BFB
330
6B
100
AcDbEntity
  8
0
 62
     7
100
AcDbLine
 10
-378.2935038911457
 20
-248.5036501859838
 30
0.0
 11
-379.2801568055804
 21
-246.6360559885913
 31
0.0
  0
LINE
  5
BFC
330
6B
100
AcDbEntity
  8
0
 62
     3
100
AcDbLine
 10
-376.0935039030667
 20
-296.2036492501908
 30
0.0
 11
-378.2935038911457
 21
-296.2036492501908
 31
0.0
  0
LINE
  5
BFD
330
6B
100
AcDbEntity
  8
0
 62
     7
100
AcDbLine
 10
-376.0935039030667
 20
-296.2036492501908
 30
0.0
 11
-375.1068509886319
 21
-298.0712434475833
 31
0.0
  0
LINE
  5
BFE
330
6B
100
AcDbEntity
  8
0
 62
     7
100
AcDbLine
 10
-378.2935038911457
 20
-296.2036492501908
 30
0.0
 11
-379.2801568055804
 21
-298.0712434475833
 31
0.0
  0
LINE
  5
BFF
330
6B
100
AcDbEntity
  8
0
 62
     3
100
AcDbLine
 10
-378.2935038911457
 20
-257.2036493768508
 30
0.0
 11
-376.0935039030667
 21
-257.2036493768508
 31
0.0
  0
LINE
  5
C00
330
6B
100
AcDbEntity
  8
0
 62
     7
100
AcDbLine
 10
-376.0935039030667
 20
-257.2036493768508
 30
0.0
 11
-375.1068509886319
 21
-259.0712426429206
 31
0.0
  0
LINE
  5
C01
330
6B
100
AcDbEntity
  8
0
 62
     7
100
AcDbLine
 10
-378.2935038911457
 20
-257.2036493768508
 30
0.0
 11
-379.2801568055804
 21
-259.0712426429206
 31
0.0
  0
LINE
  5
C02
330
6B
100
AcDbEntity
  8
0
 62
     7
100
AcDbLine
 10
-365.5935040446277
 20
-295.3536497627908
 30
0.0
 11
-366.6448331209178
 21
-297.9819724535161
 31
0.0
  0
LINE
  5
C03
330
6B
100
AcDbEntity
  8
0
 62
     3
100
AcDbLine
 10
-363.3935040565486
 20
-295.3536497627908
 30
0.0
 11
-365.5935040446277
 21
-295.3536497627908
 31
0.0
  0
LINE
  5
C04
330
6B
100
AcDbEntity
  8
0
 62
     7
100
AcDbLine
 10
-363.3935040565486
 20
-295.3536497627908
 30
0.0
 11
-362.3421745145972
 21
-297.9819724535161
 31
0.0
  0
LINE
  5
C05
330
6B
100
AcDbEntity
  8
0
 62
     3
100
AcDbLine
 10
-365.5935040446277
 20
-256.3536489581281
 30
0.0
 11
-363.3935040565486
 21
-256.3536489581281
 31
0.0
  0
LINE
  5
C06
330
6B
100
AcDbEntity
  8
0
 62
     7
100
AcDbLine
 10
-363.3935040565486
 20
-256.3536489581281
 30
0.0
 11
-362.3421745145972
 21
-258.981972580176
 31
0.0
  0
LINE
  5
C07
330
6B
100
AcDbEntity
  8
0
 62
     7
100
AcDbLine
 10
-365.5935040446277
 20
-256.3536489581281
 30
0.0
 11
-366.6448331209178
 21
-258.981972580176
 31
0.0
  0
LINE
  5
C08
330
6B
100
AcDbEntity
  8
0
 62
     7
100
AcDbLine
 10
-363.3935040565486
 20
-249.3536496733838
 30
0.0
 11
-362.3421745145972
 21
-246.7253269826585
 31
0.0
  0
LINE
  5
C09
330
6B
100
AcDbEntity
  8
0
 62
     3
100
AcDbLine
 10
-363.3935040565486
 20
-249.3536496733838
 30
0.0
 11
-365.5935040446277
 21
-249.3536496733838
 31
0.0
  0
LINE
  5
C0A
330
6B
100
AcDbEntity
  8
0
 62
     7
100
AcDbLine
 10
-365.5935040446277
 20
-249.3536496733838
 30
0.0
 11
-366.6448331209178
 21
-246.7253269826585
 31
0.0
  0
LINE
  5
C0B
330
6B
100
AcDbEntity
  8
0
 62
     7
100
AcDbLine
 10
-363.3935040565486
 20
-288.3536504780466
 30
0.0
 11
-362.3421745145972
 21
-285.7253268559987
 31
0.0
  0
LINE
  5
C0C
330
6B
100
AcDbEntity
  8
0
 62
     3
100
AcDbLine
 10
-365.5935040446277
 20
-288.3536504780466
 30
0.0
 11
-363.3935040565486
 21
-288.3536504780466
 31
0.0
  0
LINE
  5
C0D
330
6B
100
AcDbEntity
  8
0
 62
     7
100
AcDbLine
 10
-365.5935040446277
 20
-288.3536504780466
 30
0.0
 11
-366.6448331209178
 21
-285.7253268559987
 31
0.0
  0
LINE
  5
C0E
330
6B
100
AcDbEntity
  8
0
 62
     3
100
AcDbLine
 10
-363.3935040565486
 20
-288.3536504780466
 30
0.0
 11
-363.3935040565486
 21
-295.3536497627908
 31
0.0
  0
LINE
  5
C0F
330
6B
100
AcDbEntity
  8
0
 62
     3
100
AcDbLine
 10
-363.3935040565486
 20
-256.3536489581281
 30
0.0
 11
-363.3935040565486
 21
-249.3536496733838
 31
0.0
  0
LINE
  5
C10
330
6B
100
AcDbEntity
  8
0
 62
     3
100
AcDbLine
 10
-365.5935040446277
 20
-295.3536497627908
 30
0.0
 11
-365.5935040446277
 21
-288.3536504780466
 31
0.0
  0
LINE
  5
C11
330
6B
100
AcDbEntity
  8
0
 62
     3
100
AcDbLine
 10
-365.5935040446277
 20
-249.3536496733838
 30
0.0
 11
-365.5935040446277
 21
-256.3536489581281
 31
0.0
  0
LINE
  5
C12
330
6B
100
AcDbEntity
  8
0
 62
     3
100
AcDbLine
 10
-378.2935038911457
 20
-248.5036501859838
 30
0.0
 11
-378.2935038911457
 21
-257.2036493768508
 31
0.0
  0
LINE
  5
C13
330
6B
100
AcDbEntity
  8
0
 62
     3
100
AcDbLine
 10
-376.0935039030667
 20
-287.5036500593239
 30
0.0
 11
-376.0935039030667
 21
-296.2036492501908
 31
0.0
  0
LINE
  5
C14
330
6B
100
AcDbEntity
  8
0
 62
     3
100
AcDbLine
 10
-376.0935039030667
 20
-257.2036493768508
 30
0.0
 11
-376.0935039030667
 21
-248.5036501859838
 31
0.0
  0
LINE
  5
C15
330
6B
100
AcDbEntity
  8
0
 62
     3
100
AcDbLine
 10
-378.2935038911457
 20
-296.2036492501908
 30
0.0
 11
-378.2935038911457
 21
-287.5036500593239
 31
0.0
  0
LINE
  5
C16
330
6B
100
AcDbEntity
  8
0
 62
     7
100
AcDbLine
 10
-357.5435042152459
 20
-278.3536497702414
 30
0.0
 11
-357.5435042152459
 21
-266.3536496659333
 31
0.0
  0
ARC
  5
C17
330
6B
100
AcDbEntity
  8
0
 62
     7
100
AcDbCircle
 10
-362.5435039738472
 20
-269.3536497180874
 30
0.0
 40
1.0
100
AcDbArc
 50
0.0
 51
180.0
  0
LINE
  5
C18
330
6B
100
AcDbEntity
  8
0
 62
     7
100
AcDbLine
 10
-378.1435041459557
 20
-275.3536497441644
 30
0.0
 11
-378.1435041459557
 21
-269.3536496920103
 31
0.0
  0
LINE
  5
C19
330
6B
100
AcDbEntity
  8
0
 62
     7
100
AcDbLine
 10
-364.5435039656515
 20
-269.8536497739667
 30
0.0
 11
-364.5435039656515
 21
-274.853649662208
 31
0.0
  0
ARC
  5
C1A
330
6B
100
AcDbEntity
  8
0
 62
     7
100
AcDbCircle
 10
-365.5435039738472
 20
-269.8536497180874
 30
0.0
 40
1.0
100
AcDbArc
 50
0.0
 51
180.0
  0
ARC
  5
C1B
330
6B
100
AcDbEntity
  8
0
 62
     7
100
AcDbCircle
 10
-356.5435039738472
 20
-278.3536497180874
 30
0.0
 40
1.0
100
AcDbArc
 50
180.0
 51
0.0
  0
LINE
  5
C1C
330
6B
100
AcDbEntity
  8
0
 62
     7
100
AcDbLine
 10
-380.1435040081198
 20
-269.3536496920103
 30
0.0
 11
-380.1435040081198
 21
-275.3536497441644
 31
0.0
  0
ARC
  5
C1D
330
6B
100
AcDbEntity
  8
0
 62
     7
100
AcDbCircle
 10
-359.5435039738472
 20
-276.3536497180874
 30
0.0
 40
1.0
100
AcDbArc
 50
180.0
 51
0.0
  0
LINE
  5
C1E
330
6B
100
AcDbEntity
  8
0
 62
     7
100
AcDbLine
 10
-366.5435038278157
 20
-274.853649662208
 30
0.0
 11
-366.5435038278157
 21
-269.8536497739667
 31
0.0
  0
ARC
  5
C1F
330
6B
100
AcDbEntity
  8
0
 62
     7
100
AcDbCircle
 10
-382.1435039738472
 20
-268.3536497180873
 30
0.0
 40
1.0
100
AcDbArc
 50
0.0
 51
180.0
  0
LINE
  5
C20
330
6B
100
AcDbEntity
  8
0
 62
     7
100
AcDbLine
 10
-383.1435035685356
 20
-268.3536495280975
 30
0.0
 11
-383.1435035685356
 21
-276.3536499080772
 31
0.0
  0
LINE
  5
C21
330
6B
100
AcDbEntity
  8
0
 62
     7
100
AcDbLine
 10
-381.1435041720326
 20
-276.3536499080772
 30
0.0
 11
-381.1435041720326
 21
-268.3536495280975
 31
0.0
  0
ARC
  5
C22
330
6B
100
AcDbEntity
  8
0
 62
     7
100
AcDbCircle
 10
-379.1435039738472
 20
-269.3536497180874
 30
0.0
 40
1.0
100
AcDbArc
 50
0.0
 51
180.0
  0
ARC
  5
C23
330
6B
100
AcDbEntity
  8
0
 62
     7
100
AcDbCircle
 10
-385.1435039738472
 20
-266.3536497180873
 30
0.0
 40
1.0
100
AcDbArc
 50
0.0
 51
180.0
  0
LINE
  5
C24
330
6B
100
AcDbEntity
  8
0
 62
     7
100
AcDbLine
 10
-386.143504060274
 20
-266.3536496659333
 30
0.0
 11
-386.143504060274
 21
-278.3536497702414
 31
0.0
  0
ARC
  5
C25
330
6B
100
AcDbEntity
  8
0
 62
     7
100
AcDbCircle
 10
-379.1435039738472
 20
-275.3536497180874
 30
0.0
 40
1.0
100
AcDbArc
 50
180.0
 51
0.0
  0
ARC
  5
C26
330
6B
100
AcDbEntity
  8
0
 62
     7
100
AcDbCircle
 10
-385.1435039738472
 20
-278.3536497180874
 30
0.0
 40
1.0
100
AcDbArc
 50
180.0
 51
0.0
  0
ARC
  5
C27
330
6B
100
AcDbEntity
  8
0
 62
     7
100
AcDbCircle
 10
-376.1435039738472
 20
-269.8536497180874
 30
0.0
 40
1.0
100
AcDbArc
 50
0.0
 51
180.0
  0
LINE
  5
C28
330
6B
100
AcDbEntity
  8
0
 62
     7
100
AcDbLine
 10
-375.1435041198786
 20
-274.853649662208
 30
0.0
 11
-375.1435041198786
 21
-269.8536497739667
 31
0.0
  0
ARC
  5
C29
330
6B
100
AcDbEntity
  8
0
 62
     7
100
AcDbCircle
 10
-376.1435039738472
 20
-274.8536497180873
 30
0.0
 40
1.0
100
AcDbArc
 50
180.0
 51
0.0
  0
LINE
  5
C2A
330
6B
100
AcDbEntity
  8
0
 62
     7
100
AcDbLine
 10
-377.1435039820428
 20
-269.8536497739667
 30
0.0
 11
-377.1435039820428
 21
-274.853649662208
 31
0.0
  0
ARC
  5
C2B
330
6B
100
AcDbEntity
  8
0
 62
     7
100
AcDbCircle
 10
-359.5435039738472
 20
-268.3536497180873
 30
0.0
 40
1.0
100
AcDbArc
 50
0.0
 51
180.0
  0
LINE
  5
C2C
330
6B
100
AcDbEntity
  8
0
 62
     7
100
AcDbLine
 10
-360.5435037756617
 20
-276.3536499080772
 30
0.0
 11
-360.5435037756617
 21
-268.3536495280975
 31
0.0
  0
LINE
  5
C2D
330
6B
100
AcDbEntity
  8
0
 62
     7
100
AcDbLine
 10
-358.5435043791588
 20
-268.3536495280975
 30
0.0
 11
-358.5435043791588
 21
-276.3536499080772
 31
0.0
  0
LINE
  5
C2E
330
6B
100
AcDbEntity
  8
0
 62
     7
100
AcDbLine
 10
-361.5435039395745
 20
-269.3536496920103
 30
0.0
 11
-361.5435039395745
 21
-275.3536497441644
 31
0.0
  0
ARC
  5
C2F
330
6B
100
AcDbEntity
  8
0
 62
     7
100
AcDbCircle
 10
-362.5435039738472
 20
-275.3536497180874
 30
0.0
 40
1.0
100
AcDbArc
 50
180.0
 51
0.0
  0
ARC
  5
C30
330
6B
100
AcDbEntity
  8
0
 62
     7
100
AcDbCircle
 10
-382.1435039738472
 20
-276.3536497180874
 30
0.0
 40
1.0
100
AcDbArc
 50
180.0
 51
0.0
  0
LINE
  5
C31
330
6B
100
AcDbEntity
  8
0
 62
     7
100
AcDbLine
 10
-355.5435038874203
 20
-266.3536496659333
 30
0.0
 11
-355.5435038874203
 21
-278.3536497702414
 31
0.0
  0
ARC
  5
C32
330
6B
100
AcDbEntity
  8
0
 62
     7
100
AcDbCircle
 10
-356.5435039738472
 20
-266.3536497180873
 30
0.0
 40
1.0
100
AcDbArc
 50
0.0
 51
180.0
  0
ARC
  5
C33
330
6B
100
AcDbEntity
  8
0
 62
     7
100
AcDbCircle
 10
-365.5435039738472
 20
-274.8536497180873
 30
0.0
 40
1.0
100
AcDbArc
 50
180.0
 51
0.0
  0
LINE
  5
C34
330
6B
100
AcDbEntity
  8
0
 62
     7
100
AcDbLine
 10
-384.1435037324483
 20
-278.3536497702414
 30
0.0
 11
-384.1435037324483
 21
-266.3536496659333
 31
0.0
  0
LINE
  5
C35
330
6B
100
AcDbEntity
  8
0
 62
     7
100
AcDbLine
 10
-363.5435038017388
 20
-275.3536497441644
 30
0.0
 11
-363.5435038017388
 21
-269.3536496920103
 31
0.0
  0
CIRCLE
  5
C36
330
6B
100
AcDbEntity
  8
0
 62
     3
100
AcDbCircle
 10
-370.8435039738472
 20
-272.3536497180873
 30
0.0
 40
3.75
  0
LINE
  5
C37
330
6B
100
AcDbEntity
  8
0
 62
     3
100
AcDbLine
 10
-354.0435045728738
 20
-284.2287017231399
 30
0.0
 11
-354.0435045728738
 21
-260.4785977130348
 31
0.0
  0
LINE
  5
C38
330
6B
100
AcDbEntity
  8
0
 62
     3
100
AcDbLine
 10
-387.6435033748204
 20
-260.4785977130348
 30
0.0
 11
-387.6435033748204
 21
-284.2287017231399
 31
0.0
  0
LINE
  5
C3A
330
6B
100
AcDbEntity
  8
0
 62
     3
100
AcDbLine
 10
-378.2935038911457
 20
-288.3536504780466
 30
0.0
 11
-377.7120829331037
 21
-288.3536504780466
 31
0.0
  0
LINE
  5
C3B
330
6B
100
AcDbEntity
  8
0
 62
     3
100
AcDbLine
 10
-378.2935038911457
 20
-295.3536497627908
 30
0.0
 11
-377.7120829331037
 21
-295.3536497627908
 31
0.0
  0
LINE
  5
C3C
330
6B
100
AcDbEntity
  8
0
 62
     3
100
AcDbLine
 10
-376.6749248611088
 20
-295.3536497627908
 30
0.0
 11
-376.0935039030667
 21
-295.3536497627908
 31
0.0
  0
LINE
  5
C3D
330
6B
100
AcDbEntity
  8
0
 62
     3
100
AcDbLine
 10
-376.6749248611088
 20
-288.3536504780466
 30
0.0
 11
-376.0935039030667
 21
-288.3536504780466
 31
0.0
  0
LINE
  5
C3E
330
6B
100
AcDbEntity
  8
0
 62
     3
100
AcDbLine
 10
-377.7120829331037
 20
-256.3536489581281
 30
0.0
 11
-378.2935038911457
 21
-256.3536489581281
 31
0.0
  0
LINE
  5
C3F
330
6B
100
AcDbEntity
  8
0
 62
     3
100
AcDbLine
 10
-378.2935038911457
 20
-249.3536496733838
 30
0.0
 11
-377.7120829331037
 21
-249.3536496733838
 31
0.0
  0
LINE
  5
C40
330
6B
100
AcDbEntity
  8
0
 62
     3
100
AcDbLine
 10
-376.6749248611088
 20
-249.3536496733838
 30
0.0
 11
-376.0935039030667
 21
-249.3536496733838
 31
0.0
  0
LINE
  5
C41
330
6B
100
AcDbEntity
  8
0
 62
     3
100
AcDbLine
 10
-376.0935039030667
 20
-256.3536489581281
 30
0.0
 11
-376.6749248611088
 21
-256.3536489581281
 31
0.0
  0
LINE
  5
C42
330
6B
100
AcDbEntity
  8
0
 62
     3
100
AcDbLine
 10
-377.7120829331037
 20
-288.3536504780466
 30
0.0
 11
-377.5070578562374
 21
-288.3536504780466
 31
0.0
  0
LINE
  5
C43
330
6B
100
AcDbEntity
  8
0
 62
     3
100
AcDbLine
 10
-377.5070578562374
 20
-295.3536497627908
 30
0.0
 11
-377.7120829331037
 21
-295.3536497627908
 31
0.0
  0
LINE
  5
C44
330
6B
100
AcDbEntity
  8
0
 62
     3
100
AcDbLine
 10
-377.5070578562374
 20
-256.3536489581281
 30
0.0
 11
-377.7120829331037
 21
-256.3536489581281
 31
0.0
  0
LINE
  5
C45
330
6B
100
AcDbEntity
  8
0
 62
     3
100
AcDbLine
 10
-377.7120829331037
 20
-249.3536496733838
 30
0.0
 11
-377.5070578562374
 21
-249.3536496733838
 31
0.0
  0
LINE
  5
C46
330
6B
100
AcDbEntity
  8
0
 62
     3
100
AcDbLine
 10
-376.6749248611088
 20
-295.3536497627908
 30
0.0
 11
-376.879949937975
 21
-295.3536497627908
 31
0.0
  0
LINE
  5
C47
330
6B
100
AcDbEntity
  8
0
 62
     3
100
AcDbLine
 10
-376.879949937975
 20
-288.3536504780466
 30
0.0
 11
-376.6749248611088
 21
-288.3536504780466
 31
0.0
  0
LINE
  5
C48
330
6B
100
AcDbEntity
  8
0
 62
     3
100
AcDbLine
 10
-376.879949937975
 20
-249.3536496733838
 30
0.0
 11
-376.6749248611088
 21
-249.3536496733838
 31
0.0
  0
LINE
  5
C49
330
6B
100
AcDbEntity
  8
0
 62
     3
100
AcDbLine
 10
-376.6749248611088
 20
-256.3536489581281
 30
0.0
 11
-376.879949937975
 21
-256.3536489581281
 31
0.0
  0
LINE
  5
C4A
330
6B
100
AcDbEntity
  8
0
 62
     3
100
AcDbLine
 10
-377.5070578562374
 20
-249.3536496733838
 30
0.0
 11
-376.879949937975
 21
-249.3536496733838
 31
0.0
  0
LINE
  5
C4B
330
6B
100
AcDbEntity
  8
0
 62
     3
100
AcDbLine
 10
-377.5070578562374
 20
-295.3536497627908
 30
0.0
 11
-376.879949937975
 21
-295.3536497627908
 31
0.0
  0
LINE
  5
C4C
330
6B
100
AcDbEntity
  8
0
 62
     3
100
AcDbLine
 10
-381.3435038322861
 20
-305.3536495392734
 30
0.0
 11
-381.0292783895786
 21
-305.3536495392734
 31
0.0
  0
LINE
  5
C4D
330
6B
100
AcDbEntity
  8
0
 62
     3
100
AcDbLine
 10
-381.3435038322861
 20
-305.3536495392734
 30
0.0
 11
-381.3435038322861
 21
-305.1862647955829
 31
0.0
  0
LINE
  5
C4E
330
6B
100
AcDbEntity
  8
0
 62
     3
100
AcDbLine
 10
-360.3435041154082
 20
-305.3536495392734
 30
0.0
 11
-360.6577295581157
 21
-305.3536495392734
 31
0.0
  0
LINE
  5
C4F
330
6B
100
AcDbEntity
  8
0
 62
     3
100
AcDbLine
 10
-360.3435041154082
 20
-305.3536495392734
 30
0.0
 11
-360.3435041154082
 21
-305.1862647955829
 31
0.0
  0
LINE
  5
C50
330
6B
100
AcDbEntity
  8
0
 62
     3
100
AcDbLine
 10
-381.3435038322861
 20
-239.3536498969012
 30
0.0
 11
-381.0292783895786
 21
-239.3536498969012
 31
0.0
  0
LINE
  5
C51
330
6B
100
AcDbEntity
  8
0
 62
     3
100
AcDbLine
 10
-381.3435038322861
 20
-239.3536498969012
 30
0.0
 11
-381.3435038322861
 21
-239.5210346405917
 31
0.0
  0
LINE
  5
C52
330
6B
100
AcDbEntity
  8
0
 62
     3
100
AcDbLine
 10
-360.3435041154082
 20
-239.3536498969012
 30
0.0
 11
-360.6577295581157
 21
-239.3536498969012
 31
0.0
  0
LINE
  5
C53
330
6B
100
AcDbEntity
  8
0
 62
     3
100
AcDbLine
 10
-360.3435041154082
 20
-239.3536498969012
 30
0.0
 11
-360.3435041154082
 21
-239.5210346405917
 31
0.0
  0
LINE
  5
C54
330
6B
100
AcDbEntity
  8
0
 62
     3
100
AcDbLine
 10
-378.2935038911457
 20
-249.0536501830035
 30
0.0
 11
-376.0935039030667
 21
-249.0536501830035
 31
0.0
  0
LINE
  5
C56
330
6B
100
AcDbEntity
  8
0
 62
     3
100
AcDbLine
 10
-376.0935039030667
 20
-295.6536492531711
 30
0.0
 11
-378.2935038911457
 21
-295.6536492531711
 31
0.0
  0
LINE
  5
C57
330
6B
100
AcDbEntity
  8
0
 62
     3
100
AcDbLine
 10
-307.1392409684809
 20
-277.3536496063286
 30
0.0
 11
-308.1999009656461
 21
-278.4143100691551
 31
0.0
  0
LINE
  5
C58
330
6B
100
AcDbEntity
  8
0
 62
     3
100
AcDbLine
 10
-308.1999009656461
 20
-266.2929893670196
 30
0.0
 11
-307.1392409684809
 21
-267.3536498298461
 31
0.0
  0
LINE
  5
C59
330
6B
100
AcDbEntity
  8
0
 62
     3
100
AcDbLine
 10
-297.4607742281837
 20
-298.0204323505574
 30
0.0
 11
-297.1392411919983
 21
-297.703069282096
 31
0.0
  0
LINE
  5
C5A
330
6B
100
AcDbEntity
  8
0
 62
     3
100
AcDbLine
 10
-297.1392411919983
 20
-247.0042301540786
 30
0.0
 11
-297.4607742281837
 21
-246.6868670856172
 31
0.0
  0
ARC
  5
C5B
330
6B
100
AcDbEntity
  8
0
 62
     3
100
AcDbCircle
 10
-306.1392411919984
 20
-278.3536497180874
 30
0.0
 40
1.0
100
AcDbArc
 50
180.0
 51
270.0
  0
ARC
  5
C5C
330
6B
100
AcDbEntity
  8
0
 62
     3
100
AcDbCircle
 10
-306.1392411919984
 20
-266.3536497180873
 30
0.0
 40
1.0
100
AcDbArc
 50
90.0
 51
180.0
  0
LINE
  5
C5D
330
6B
100
AcDbEntity
  8
0
 62
     3
100
AcDbLine
 10
-306.6392408865245
 20
-307.8536508803779
 30
0.0
 11
-303.6392413261087
 21
-307.8536508803779
 31
0.0
  0
LINE
  5
C5E
330
6B
100
AcDbEntity
  8
0
 62
     3
100
AcDbLine
 10
-308.1999009656461
 20
-306.2929889386111
 30
0.0
 11
-306.6392408865245
 21
-307.8536508803779
 31
0.0
  0
LINE
  5
C5F
330
6B
100
AcDbEntity
  8
0
 62
     3
100
AcDbLine
 10
-303.6392413261087
 20
-236.8536485557967
 30
0.0
 11
-306.6392408865245
 21
-236.8536485557967
 31
0.0
  0
LINE
  5
C60
330
6B
100
AcDbEntity
  8
0
 62
     3
100
AcDbLine
 10
-306.6392408865245
 20
-236.8536485557967
 30
0.0
 11
-308.1999009656461
 21
-238.4143104975635
 31
0.0
  0
ARC
  5
C61
330
6B
100
AcDbEntity
  8
0
 62
     3
100
AcDbCircle
 10
-307.1392411919983
 20
-279.474970061647
 30
0.0
 40
1.5
100
AcDbArc
 50
135.0000000000002
 51
180.0
  0
ARC
  5
C62
330
6B
100
AcDbEntity
  8
0
 62
     3
100
AcDbCircle
 10
-307.1392411919983
 20
-265.2323293745276
 30
0.0
 40
1.500000000000011
100
AcDbArc
 50
180.0
 51
224.9999999999998
  0
ARC
  5
C63
330
6B
100
AcDbEntity
  8
0
 62
     3
100
AcDbCircle
 10
-307.1392411919983
 20
-305.2323293745276
 30
0.0
 40
1.5
100
AcDbArc
 50
180.0
 51
224.9999999999998
  0
ARC
  5
C64
330
6B
100
AcDbEntity
  8
0
 62
     3
100
AcDbCircle
 10
-307.1392411919983
 20
-239.474970061647
 30
0.0
 40
1.5
100
AcDbArc
 50
135.0000000000002
 51
180.0
  0
LINE
  5
C65
330
6B
100
AcDbEntity
  8
0
 62
     3
100
AcDbLine
 10
-286.1392412516029
 20
-278.3536497702414
 30
0.0
 11
-284.1392409237774
 21
-278.3536497702414
 31
0.0
  0
LINE
  5
C66
330
6B
100
AcDbEntity
  8
0
 62
     3
100
AcDbLine
 10
-284.1392409237774
 20
-266.3536496659333
 30
0.0
 11
-286.1392412516029
 21
-266.3536496659333
 31
0.0
  0
SPLINE
  5
C6B
330
6B
100
AcDbEntity
  8
0
 62
     7
100
AcDbSpline
210
0.0
220
0.0
230
1.0
 70
     8
 71
     3
 72
    10
 73
     6
 74
     0
 42
0.0000000001
 43
0.0000000001
 40
0.0
 40
0.0
 40
0.0
 40
0.0
 40
0.3645483857187548
 40
0.7380469515163203
 40
1.0
 40
1.0
 40
1.0
 40
1.0
 10
-306.1392408045681
 20
-284.2287017231399
 30
0.0
 10
-306.2419473001273
 20
-284.4608604761377
 30
0.0
 10
-306.4498818814283
 20
-284.9308778088986
 30
0.0
 10
-306.6118470638808
 20
-285.6141908093373
 30
0.0
 10
-306.6312446105424
 20
-286.0562891216316
 30
0.0
 10
-306.6392408865245
 20
-286.2385358860308
 30
0.0
  0
LINE
  5
C6C
330
6B
100
AcDbEntity
  8
0
 62
     7
100
AcDbLine
 10
-306.1392408045681
 20
-284.2287017231399
 30
0.0
 11
-306.1392408045681
 21
-260.4785977130348
 31
0.0
  0
SPLINE
  5
C6D
330
6B
100
AcDbEntity
  8
0
 62
     7
100
AcDbSpline
210
0.0
220
0.0
230
1.0
 70
     8
 71
     3
 72
    10
 73
     6
 74
     0
 42
0.0000000001
 43
0.0000000001
 40
0.0
 40
0.0
 40
0.0
 40
0.0
 40
0.2804984190833073
 40
0.5668375344961367
 40
1.0
 40
1.0
 40
1.0
 40
1.0
 10
-306.6392408865245
 20
-258.4687635501439
 30
0.0
 10
-306.6302436575373
 20
-258.6639382122476
 30
0.0
 10
-306.6120618541853
 20
-259.0583515733803
 30
0.0
 10
-306.4597368817346
 20
-259.7417083090496
 30
0.0
 10
-306.2596808160362
 20
-260.2016802260834
 30
0.0
 10
-306.1392408045681
 20
-260.4785977130348
 30
0.0
  0
LINE
  5
C6E
330
6B
100
AcDbEntity
  8
0
 62
     3
100
AcDbLine
 10
-303.6392413261087
 20
-307.8536508803779
 30
0.0
 11
-303.6392413261087
 21
-236.8536485557967
 31
0.0
  0
LINE
  5
C71
330
6B
100
AcDbEntity
  8
0
 62
     3
100
AcDbLine
 10
-297.1392411919983
 20
-267.9536497419292
 30
0.0
 11
-297.1392411920951
 21
-276.7536496942455
 31
0.0
  0
LINE
  5
C72
330
6B
100
AcDbEntity
  8
0
 62
     3
100
AcDbLine
 10
-297.4564189272673
 20
-276.7536496942455
 30
0.0
 11
-297.1392411920951
 21
-276.7536496942455
 31
0.0
  0
LINE
  5
C73
330
6B
100
AcDbEntity
  8
0
 62
     3
100
AcDbLine
 10
-297.4564189272673
 20
-297.0214287017995
 30
0.0
 11
-297.4564189272673
 21
-276.7536496942455
 31
0.0
  0
LINE
  5
C74
330
6B
100
AcDbEntity
  8
0
 62
     3
100
AcDbLine
 10
-297.4564189272673
 20
-267.9536497419292
 30
0.0
 11
-297.4564189272673
 21
-247.6858707343751
 31
0.0
  0
LINE
  5
C75
330
6B
100
AcDbEntity
  8
0
 62
     3
100
AcDbLine
 10
-297.1392411919983
 20
-267.9536497419292
 30
0.0
 11
-297.4564189272673
 21
-267.9536497419292
 31
0.0
  0
SPLINE
  5
C76
330
6B
100
AcDbEntity
  8
0
 62
     3
100
AcDbSpline
210
0.0
220
0.0
230
1.0
 70
     8
 71
     3
 72
    12
 73
     8
 74
     0
 42
0.0000000001
 43
0.0000000001
 40
0.0
 40
0.0
 40
0.0
 40
0.0
 40
0.1309048201953523
 40
0.2602324264465985
 40
0.5129313944344324
 40
0.7594999338548977
 40
1.0
 40
1.0
 40
1.0
 40
1.0
 10
-297.4614030455446
 20
-298.0202814763003
 30
0.0
 10
-297.4602915746885
 20
-298.0161713725575
 30
0.0
 10
-297.4580820245941
 20
-298.0080006858833
 30
0.0
 10
-297.454411658476
 20
-297.9243965440522
 30
0.0
 10
-297.4517594621423
 20
-297.7343050266341
 30
0.0
 10
-297.4524420020321
 20
-297.4021034312691
 30
0.0
 10
-297.4551043423775
 20
-297.1472619065222
 30
0.0
 10
-297.4564189272673
 20
-297.0214287017995
 30
0.0
  0
LINE
  5
C77
330
6B
100
AcDbEntity
  8
0
 62
     3
100
AcDbLine
 10
-297.4614030455446
 20
-298.0202814763003
 30
0.0
 11
-303.6392413261087
 21
-298.2576085453445
 31
0.0
  0
LINE
  5
C78
330
6B
100
AcDbEntity
  8
0
 62
     3
100
AcDbLine
 10
-303.6392413261087
 20
-246.4496908908301
 30
0.0
 11
-297.4614030455446
 21
-246.6870179598743
 31
0.0
  0
SPLINE
  5
C79
330
6B
100
AcDbEntity
  8
0
 62
     3
100
AcDbSpline
210
0.0
220
0.0
230
1.0
 70
     8
 71
     3
 72
    12
 73
     8
 74
     0
 42
0.0000000001
 43
0.0000000001
 40
0.0
 40
0.0
 40
0.0
 40
0.0
 40
0.2405000661451023
 40
0.4870686055655677
 40
0.7397675735534017
 40
0.8690951798046475
 40
1.0
 40
1.0
 40
1.0
 40
1.0
 10
-297.4564189272673
 20
-247.6858707343751
 30
0.0
 10
-297.4551043423775
 20
-247.5600375296524
 30
0.0
 10
-297.4524420020321
 20
-247.3051960049055
 30
0.0
 10
-297.4517594621423
 20
-246.9729944095405
 30
0.0
 10
-297.454411658476
 20
-246.7829028921225
 30
0.0
 10
-297.4580820245941
 20
-246.6992987502914
 30
0.0
 10
-297.4602915746885
 20
-246.6911280636172
 30
0.0
 10
-297.4614030455446
 20
-246.6870179598743
 30
0.0
  0
LINE
  5
C7A
330
6B
100
AcDbEntity
  8
0
 62
     3
100
AcDbLine
 10
-297.1392411919983
 20
-297.7028718417102
 30
0.0
 11
-297.4614030455446
 21
-298.0202814763003
 31
0.0
  0
LINE
  5
C7B
330
6B
100
AcDbEntity
  8
0
 62
     3
100
AcDbLine
 10
-297.1392411919983
 20
-297.0214287017995
 30
0.0
 11
-297.4564189272673
 21
-297.0214287017995
 31
0.0
  0
LINE
  5
C7C
330
6B
100
AcDbEntity
  8
0
 62
     3
100
AcDbLine
 10
-297.1392411919983
 20
-247.6858707343751
 30
0.0
 11
-297.4564189272673
 21
-247.6858707343751
 31
0.0
  0
LINE
  5
C7D
330
6B
100
AcDbEntity
  8
0
 62
     3
100
AcDbLine
 10
-297.1392411919983
 20
-247.0044275944644
 30
0.0
 11
-297.4614030455446
 21
-246.6870179598743
 31
0.0
  0
LINE
  5
C7E
330
6B
100
AcDbEntity
  8
0
 62
     3
100
AcDbLine
 10
-297.1392411919983
 20
-276.7536496942455
 30
0.0
 11
-297.1392411919983
 21
-276.8536495243723
 31
0.0
  0
LINE
  5
C7F
330
6B
100
AcDbEntity
  8
0
 62
     3
100
AcDbLine
 10
-297.1392411919983
 20
-267.8536499118024
 30
0.0
 11
-297.1392411919983
 21
-267.9536497419292
 31
0.0
  0
LINE
  5
C80
330
6B
100
AcDbEntity
  8
0
 62
     7
100
AcDbLine
 10
-290.8392411838026
 20
-273.3536497655848
 30
0.0
 11
-292.139241303757
 21
-273.3536497655848
 31
0.0
  0
LINE
  5
C81
330
6B
100
AcDbEntity
  8
0
 62
     7
100
AcDbLine
 10
-292.139241303757
 20
-273.3536497655848
 30
0.0
 11
-294.6392412478776
 21
-274.5536497061664
 31
0.0
  0
LINE
  5
C82
330
6B
100
AcDbEntity
  8
0
 62
     7
100
AcDbLine
 10
-294.6392412478776
 20
-274.5536497061664
 30
0.0
 11
-294.6392412478776
 21
-276.7536496942455
 31
0.0
  0
LINE
  5
C83
330
6B
100
AcDbEntity
  8
0
 62
     7
100
AcDbLine
 10
-294.6392412478776
 20
-267.9536497419292
 30
0.0
 11
-294.6392412478776
 21
-270.1536497300083
 31
0.0
  0
LINE
  5
C84
330
6B
100
AcDbEntity
  8
0
 62
     7
100
AcDbLine
 10
-294.6392412478776
 20
-270.1536497300083
 30
0.0
 11
-292.139241303757
 21
-271.3536496705899
 31
0.0
  0
LINE
  5
C85
330
6B
100
AcDbEntity
  8
0
 62
     7
100
AcDbLine
 10
-292.139241303757
 20
-271.3536496705899
 30
0.0
 11
-290.8392411838026
 21
-271.3536496705899
 31
0.0
  0
ARC
  5
C86
330
6B
100
AcDbEntity
  8
0
 62
     7
100
AcDbCircle
 10
-290.8392411919983
 20
-272.3536497180873
 30
0.0
 40
1.0
100
AcDbArc
 50
0.0
 51
89.99999999844972
  0
ARC
  5
C87
330
6B
100
AcDbEntity
  8
0
 62
     7
100
AcDbCircle
 10
-290.8392411919983
 20
-272.3536497180873
 30
0.0
 40
1.0
100
AcDbArc
 50
270.0000000015438
 51
0.0
  0
LINE
  5
C88
330
6B
100
AcDbEntity
  8
0
 62
     7
100
AcDbLine
 10
-297.1392411919983
 20
-267.9536497419292
 30
0.0
 11
-294.6392412478776
 21
-267.9536497419292
 31
0.0
  0
LINE
  5
C89
330
6B
100
AcDbEntity
  8
0
 62
     7
100
AcDbLine
 10
-297.1392411920951
 20
-276.7536496942455
 30
0.0
 11
-294.6392412478776
 21
-276.7536496942455
 31
0.0
  0
SPLINE
  5
C8A
330
6B
100
AcDbEntity
  8
0
 62
     3
100
AcDbSpline
210
0.0
220
0.0
230
1.0
 70
    24
 71
     3
 72
    12
 73
     8
 74
     0
 42
0.0000000001
 43
0.0000000001
 40
0.0
 40
0.0
 40
0.0
 40
0.0
 40
0.0655592077293884
 40
0.2801046888388828
 40
0.5009363399605417
 40
0.7456369954730912
 40
1.0
 40
1.0
 40
1.0
 40
1.0
 10
-308.63924121435
 20
-286.8599217583949
 30
0.0
 10
-308.63924121435
 20
-286.817958974309
 30
0.0
 10
-308.63924121435
 20
-286.6386710758386
 30
0.0
 10
-308.63924121435
 20
-286.3188124611674
 30
0.0
 10
-308.63924121435
 20
-285.9014732940444
 30
0.0
 10
-308.63924121435
 20
-285.4884335833367
 30
0.0
 10
-308.63924121435
 20
-285.2482552444259
 30
0.0
 10
-308.63924121435
 20
-285.1258410339767
 30
0.0
  0
SPLINE
  5
C8B
330
6B
100
AcDbEntity
  8
0
 62
     3
100
AcDbSpline
210
0.0
220
0.0
230
1.0
 70
    24
 71
     3
 72
    12
 73
     8
 74
     0
 42
0.0000000001
 43
0.0000000001
 40
0.0
 40
0.0
 40
0.0
 40
0.0
 40
0.0656174650461829
 40
0.2801361417371968
 40
0.5009355013712457
 40
0.7456342681667331
 40
1.0
 40
1.0
 40
1.0
 40
1.0
 10
-308.63924121435
 20
-259.581458402198
 30
0.0
 10
-308.63924121435
 20
-259.5510604655891
 30
0.0
 10
-308.63924121435
 20
-259.4212846403209
 30
0.0
 10
-308.63924121435
 20
-259.1636819364357
 30
0.0
 10
-308.63924121435
 20
-258.7753827171121
 30
0.0
 10
-308.63924121435
 20
-258.3304985813565
 30
0.0
 10
-308.63924121435
 20
-258.010484223328
 30
0.0
 10
-308.63924121435
 20
-257.8473776777798
 30
0.0
  0
LINE
  5
C8C
330
6B
100
AcDbEntity
  8
0
 62
     3
100
AcDbLine
 10
-307.1392409684809
 20
-266.3536496659333
 30
0.0
 11
-307.1392409684809
 21
-278.3536497702414
 31
0.0
  0
LINE
  5
C8D
330
6B
100
AcDbEntity
  8
0
 62
     7
100
AcDbLine
 10
-306.6392408865245
 20
-286.2385358860308
 30
0.0
 11
-306.6392408865245
 21
-307.8536508803779
 31
0.0
  0
LINE
  5
C8F
330
6B
100
AcDbEntity
  8
0
 62
     7
100
AcDbLine
 10
-306.6392408865245
 20
-236.8536485557967
 30
0.0
 11
-306.6392408865245
 21
-258.4687635501439
 31
0.0
  0
LINE
  5
C91
330
6B
100
AcDbEntity
  8
0
 62
     3
100
AcDbLine
 10
-308.63924121435
 20
-298.0912966852599
 30
0.0
 11
-308.63924121435
 21
-286.8599217583949
 31
0.0
  0
LINE
  5
C92
330
6B
100
AcDbEntity
  8
0
 62
     3
100
AcDbLine
 10
-308.63924121435
 20
-299.8036170577222
 30
0.0
 11
-308.63924121435
 21
-298.0912966852599
 31
0.0
  0
LINE
  5
C93
330
6B
100
AcDbEntity
  8
0
 62
     3
100
AcDbLine
 10
-308.63924121435
 20
-257.8473776777798
 30
0.0
 11
-308.63924121435
 21
-246.6160027509147
 31
0.0
  0
LINE
  5
C94
330
6B
100
AcDbEntity
  8
0
 62
     3
100
AcDbLine
 10
-308.63924121435
 20
-246.6160027509147
 30
0.0
 11
-308.63924121435
 21
-244.9036823784524
 31
0.0
  0
LINE
  5
C95
330
6B
100
AcDbEntity
  8
0
 62
     3
100
AcDbLine
 10
-308.63924121435
 20
-285.1258410339767
 30
0.0
 11
-308.63924121435
 21
-279.4749700663203
 31
0.0
  0
LINE
  5
C96
330
6B
100
AcDbEntity
  8
0
 62
     3
100
AcDbLine
 10
-308.63924121435
 20
-265.2323293698544
 30
0.0
 11
-308.63924121435
 21
-259.581458402198
 31
0.0
  0
LINE
  5
C97
330
6B
100
AcDbEntity
  8
0
 62
     3
100
AcDbLine
 10
-308.63924121435
 20
-305.2323280101234
 30
0.0
 11
-308.63924121435
 21
-299.8036170577222
 31
0.0
  0
LINE
  5
C98
330
6B
100
AcDbEntity
  8
0
 62
     3
100
AcDbLine
 10
-308.63924121435
 20
-244.9036823784524
 30
0.0
 11
-308.63924121435
 21
-239.4749714260512
 31
0.0
  0
LINE
  5
C99
330
6B
100
AcDbEntity
  8
0
 62
     3
100
AcDbLine
 10
-297.1392411919983
 20
-298.0079041992837
 30
0.0
 11
-297.4614030455446
 21
-298.0202814763003
 31
0.0
  0
LINE
  5
C9A
330
6B
100
AcDbEntity
  8
0
 62
     3
100
AcDbLine
 10
-286.1392412516029
 20
-261.353649777692
 30
0.0
 11
-286.1392411919983
 21
-297.6536497180873
 31
0.0
  0
LINE
  5
C9D
330
6B
100
AcDbEntity
  8
0
 62
     3
100
AcDbLine
 10
-286.6392413335593
 20
-298.1536505942756
 30
0.0
 11
-297.1392411919983
 21
-298.1536505942756
 31
0.0
  0
ARC
  5
C9F
330
6B
100
AcDbEntity
  8
0
 62
     3
100
AcDbCircle
 10
-286.6392411919983
 20
-297.6536497180873
 30
0.0
 40
0.5
100
AcDbArc
 50
270.0
 51
0.0
  0
LINE
  5
CA0
330
6B
100
AcDbEntity
  8
0
 62
     3
100
AcDbLine
 10
-285.9392415913494
 20
-257.8536501353199
 30
0.0
 11
-286.6392413335593
 21
-257.8536501353199
 31
0.0
  0
LINE
  5
CA1
330
6B
100
AcDbEntity
  8
0
 62
     3
100
AcDbLine
 10
-285.9392415913494
 20
-260.8536496957356
 30
0.0
 11
-286.6392413335593
 21
-260.8536496957356
 31
0.0
  0
LINE
  5
CA2
330
6B
100
AcDbEntity
  8
0
 62
     3
100
AcDbLine
 10
-285.9392415913494
 20
-260.8536496957356
 30
0.0
 11
-285.9392415913494
 21
-261.353649777692
 31
0.0
  0
LINE
  5
CA3
330
6B
100
AcDbEntity
  8
0
 62
     3
100
AcDbLine
 10
-285.9392415913494
 20
-261.353649777692
 30
0.0
 11
-286.6392413335593
 21
-261.353649777692
 31
0.0
  0
LINE
  5
CA4
330
6B
100
AcDbEntity
  8
0
 62
     3
100
AcDbLine
 10
-297.1392411919983
 20
-298.1536505942755
 30
0.0
 11
-297.1392411919983
 21
-276.8536495243723
 31
0.0
  0
LINE
  5
CA5
330
6B
100
AcDbEntity
  8
0
 62
     3
100
AcDbLine
 10
-297.1392411919983
 20
-276.8536495243723
 30
0.0
 11
-290.6392410578878
 21
-276.8536495243723
 31
0.0
  0
ARC
  5
CA6
330
6B
100
AcDbEntity
  8
0
 62
     3
100
AcDbCircle
 10
-290.6392411919983
 20
-275.8536497180874
 30
0.0
 40
1.0
100
AcDbArc
 50
270.0
 51
0.0
  0
LINE
  5
CA7
330
6B
100
AcDbEntity
  8
0
 62
     3
100
AcDbLine
 10
-289.6392413596363
 20
-275.8536498261208
 30
0.0
 11
-289.6392413596363
 21
-268.8536496100539
 31
0.0
  0
ARC
  5
CA8
330
6B
100
AcDbEntity
  8
0
 62
     3
100
AcDbCircle
 10
-290.6392411919983
 20
-268.8536497180873
 30
0.0
 40
1.0
100
AcDbArc
 50
0.0
 51
90.0
  0
LINE
  5
CA9
330
6B
100
AcDbEntity
  8
0
 62
     3
100
AcDbLine
 10
-290.6392410578878
 20
-267.8536499118024
 30
0.0
 11
-297.1392411919983
 21
-267.8536499118024
 31
0.0
  0
LINE
  5
CAA
330
6B
100
AcDbEntity
  8
0
 62
     3
100
AcDbLine
 10
-297.1392411919983
 20
-267.8536499118024
 30
0.0
 11
-297.1392411919983
 21
-246.553648841899
 31
0.0
  0
LINE
  5
CAB
330
6B
100
AcDbEntity
  8
0
 62
     3
100
AcDbLine
 10
-285.9392415913494
 20
-257.3536500533635
 30
0.0
 11
-286.6392413335593
 21
-257.3536500533635
 31
0.0
  0
LINE
  5
CAC
330
6B
100
AcDbEntity
  8
0
 62
     3
100
AcDbLine
 10
-285.9392415913494
 20
-257.3536500533635
 30
0.0
 11
-285.9392415913494
 21
-257.8536501353199
 31
0.0
  0
LINE
  5
CAD
330
6B
100
AcDbEntity
  8
0
 62
     3
100
AcDbLine
 10
-286.1392411919983
 20
-247.0536497180873
 30
0.0
 11
-286.1392412516029
 21
-257.3536500533635
 31
0.0
  0
LINE
  5
CAE
330
6B
100
AcDbEntity
  8
0
 62
     3
100
AcDbLine
 10
-286.1392412516029
 20
-257.8536501353199
 30
0.0
 11
-286.1392412516029
 21
-260.8536496957356
 31
0.0
  0
LINE
  5
CB1
330
6B
100
AcDbEntity
  8
0
 62
     3
100
AcDbLine
 10
-297.1392411919983
 20
-246.553648841899
 30
0.0
 11
-286.6392413335593
 21
-246.553648841899
 31
0.0
  0
ARC
  5
CB2
330
6B
100
AcDbEntity
  8
0
 62
     3
100
AcDbCircle
 10
-286.6392411919983
 20
-247.0536497180873
 30
0.0
 40
0.5
100
AcDbArc
 50
0.0
 51
90.0
  0
LINE
  5
CB4
330
6B
100
AcDbEntity
  8
0
 62
     3
100
AcDbLine
 10
-284.1392409237774
 20
-266.3536496659333
 30
0.0
 11
-284.1392409237774
 21
-278.3536497702414
 31
0.0
  0
LINE
  5
CB5
330
6B
100
AcDbEntity
  8
0
 62
     3
100
AcDbLine
 10
-285.9392415913494
 20
-258.6036497925932
 30
0.0
 11
-286.1392412516029
 21
-258.6036497925932
 31
0.0
  0
LINE
  5
CB6
330
6B
100
AcDbEntity
  8
0
 62
     3
100
AcDbLine
 10
-285.9392415913494
 20
-257.8536501353199
 30
0.0
 11
-285.9392415913494
 21
-258.6036497925932
 31
0.0
  0
LINE
  5
CB7
330
6B
100
AcDbEntity
  8
0
 62
     3
100
AcDbLine
 10
-285.9392415913494
 20
-260.1036500384623
 30
0.0
 11
-286.1392412516029
 21
-260.1036500384623
 31
0.0
  0
LINE
  5
CB8
330
6B
100
AcDbEntity
  8
0
 62
     3
100
AcDbLine
 10
-285.9392415913494
 20
-260.1036500384623
 30
0.0
 11
-285.9392415913494
 21
-260.8536496957356
 31
0.0
  0
ARC
  5
CB9
330
6B
100
AcDbEntity
  8
0
 62
     3
100
AcDbCircle
 10
-289.7815360899076
 20
-246.3536497180873
 30
0.0
 40
0.2000000000000216
100
AcDbArc
 50
270.0
 51
69.50000000000092
  0
LINE
  5
CBA
330
6B
100
AcDbEntity
  8
0
 62
     3
100
AcDbLine
 10
-298.571621132523
 20
-242.8536495392734
 30
0.0
 11
-289.7114947619589
 21
-246.1663155084067
 31
0.0
  0
LINE
  5
CBB
330
6B
100
AcDbEntity
  8
0
 62
     3
100
AcDbLine
 10
-303.6392413261087
 20
-242.8536495392734
 30
0.0
 11
-298.571621132523
 21
-242.8536495392734
 31
0.0
  0
LINE
  5
CBC
330
6B
100
AcDbEntity
  8
0
 62
     3
100
AcDbLine
 10
-302.7392409923227
 20
-240.6536495511943
 30
0.0
 11
-303.6392413261087
 21
-241.4786504780465
 31
0.0
  0
LINE
  5
CBD
330
6B
100
AcDbEntity
  8
0
 62
     3
100
AcDbLine
 10
-302.7392409923227
 20
-240.0536505704337
 30
0.0
 11
-302.7392409923227
 21
-240.6536495511943
 31
0.0
  0
LINE
  5
CBE
330
6B
100
AcDbEntity
  8
0
 62
     3
100
AcDbLine
 10
-301.6392409982832
 20
-240.0536505704337
 30
0.0
 11
-302.7392409923227
 21
-240.0536505704337
 31
0.0
  0
LINE
  5
CBF
330
6B
100
AcDbEntity
  8
0
 62
     3
100
AcDbLine
 10
-301.6392409982832
 20
-239.3536498969012
 30
0.0
 11
-301.6392409982832
 21
-240.0536505704337
 31
0.0
  0
LINE
  5
CC0
330
6B
100
AcDbEntity
  8
0
 62
     3
100
AcDbLine
 10
-300.4318371596487
 20
-240.022924376052
 30
0.0
 11
-301.6392409982832
 21
-239.3536498969012
 31
0.0
  0
LINE
  5
CC1
330
6B
100
AcDbEntity
  8
0
 62
     3
100
AcDbLine
 10
-285.964137706414
 20
-245.4321762745792
 30
0.0
 11
-300.4318371596487
 21
-240.022924376052
 31
0.0
  0
LINE
  5
CC2
330
6B
100
AcDbEntity
  8
0
 62
     3
100
AcDbLine
 10
-285.6392411696465
 20
-248.3036505257302
 30
0.0
 11
-285.6392411696465
 21
-245.9005123203212
 31
0.0
  0
ARC
  5
CC3
330
6B
100
AcDbEntity
  8
0
 62
     3
100
AcDbCircle
 10
-286.1392411919983
 20
-245.9005120602169
 30
0.0
 40
0.5000000000000007
100
AcDbArc
 50
0.0
 51
69.50000000000054
  0
LINE
  5
CC4
330
6B
100
AcDbEntity
  8
0
 62
     3
100
AcDbLine
 10
-286.1392412516029
 20
-248.3036505257302
 30
0.0
 11
-285.6392411696465
 21
-248.3036505257302
 31
0.0
  0
LINE
  5
CC5
330
6B
100
AcDbEntity
  8
0
 62
     3
100
AcDbLine
 10
-300.4318371596487
 20
-304.6843750601226
 30
0.0
 11
-301.6392409982832
 21
-305.3536495392734
 31
0.0
  0
LINE
  5
CC6
330
6B
100
AcDbEntity
  8
0
 62
     3
100
AcDbLine
 10
-301.6392409982832
 20
-305.3536495392734
 30
0.0
 11
-301.6392409982832
 21
-304.6536488657409
 31
0.0
  0
LINE
  5
CC7
330
6B
100
AcDbEntity
  8
0
 62
     3
100
AcDbLine
 10
-301.6392409982832
 20
-304.6536488657409
 30
0.0
 11
-302.7392409923227
 21
-304.6536488657409
 31
0.0
  0
LINE
  5
CC8
330
6B
100
AcDbEntity
  8
0
 62
     3
100
AcDbLine
 10
-302.7392409923227
 20
-304.6536488657409
 30
0.0
 11
-302.7392409923227
 21
-304.0536498849803
 31
0.0
  0
LINE
  5
CC9
330
6B
100
AcDbEntity
  8
0
 62
     3
100
AcDbLine
 10
-302.7392409923227
 20
-304.0536498849803
 30
0.0
 11
-303.6392413261087
 21
-303.2286489581281
 31
0.0
  0
LINE
  5
CCA
330
6B
100
AcDbEntity
  8
0
 62
     3
100
AcDbLine
 10
-303.6392413261087
 20
-301.8536498969012
 30
0.0
 11
-298.571621132523
 21
-301.8536498969012
 31
0.0
  0
LINE
  5
CCB
330
6B
100
AcDbEntity
  8
0
 62
     3
100
AcDbLine
 10
-298.571621132523
 20
-301.8536498969012
 30
0.0
 11
-289.7114947619589
 21
-298.5409839277679
 31
0.0
  0
ARC
  5
CCC
330
6B
100
AcDbEntity
  8
0
 62
     3
100
AcDbCircle
 10
-289.7815360899076
 20
-298.3536497180873
 30
0.0
 40
0.2000000000000083
100
AcDbArc
 50
290.4999999999994
 51
90.0
  0
LINE
  5
CCD
330
6B
100
AcDbEntity
  8
0
 62
     3
100
AcDbLine
 10
-285.964137706414
 20
-299.2751231615955
 30
0.0
 11
-300.4318371596487
 21
-304.6843750601226
 31
0.0
  0
ARC
  5
CCE
330
6B
100
AcDbEntity
  8
0
 62
     3
100
AcDbCircle
 10
-286.1392411919983
 20
-298.8067873759578
 30
0.0
 40
0.5000000000000142
100
AcDbArc
 50
290.4999999999994
 51
0.0
  0
LINE
  5
CCF
330
6B
100
AcDbEntity
  8
0
 62
     3
100
AcDbLine
 10
-285.6392411696465
 20
-296.4036489104444
 30
0.0
 11
-285.6392411696465
 21
-298.8067871158534
 31
0.0
  0
LINE
  5
CD0
330
6B
100
AcDbEntity
  8
0
 62
     3
100
AcDbLine
 10
-286.1392412516029
 20
-296.4036489104444
 30
0.0
 11
-285.6392411696465
 21
-296.4036489104444
 31
0.0
  0
LINE
  5
CD1
330
6B
100
AcDbEntity
  8
0
 62
     7
100
AcDbLine
 10
-289.6392413596363
 20
-275.5473937106842
 30
0.0
 11
-294.6392412478776
 21
-275.5473937106842
 31
0.0
  0
LINE
  5
CD2
330
6B
100
AcDbEntity
  8
0
 62
     7
100
AcDbLine
 10
-294.6392412478776
 20
-269.1599057254905
 30
0.0
 11
-289.6392413596363
 21
-269.1599057254905
 31
0.0
  0
LINE
  5
CD3
330
6B
100
AcDbEntity
  8
0
 62
     3
100
AcDbLine
 10
-211.7158556182795
 20
-298.2576085453445
 30
0.0
 11
-211.9164690201097
 21
-298.2576085453445
 31
0.0
  0
LINE
  5
CD4
330
6B
100
AcDbEntity
  8
0
 62
     3
100
AcDbLine
 10
-241.5164690290504
 20
-298.3536502545291
 30
0.0
 11
-237.216468883019
 21
-298.3536502545291
 31
0.0
  0
LINE
  5
CD5
330
6B
100
AcDbEntity
  8
0
 62
     3
100
AcDbLine
 10
-231.216468830865
 20
-298.3536502545291
 30
0.0
 11
-222.2164692182952
 21
-298.3536502545291
 31
0.0
  0
LINE
  5
CD6
330
6B
100
AcDbEntity
  8
0
 62
     3
100
AcDbLine
 10
-216.2164691661411
 20
-298.3536502545291
 30
0.0
 11
-211.9164690201097
 21
-298.3536502545291
 31
0.0
  0
LINE
  5
CD7
330
6B
100
AcDbEntity
  8
0
 62
     3
100
AcDbLine
 10
-241.5164690290504
 20
-298.2576085453445
 30
0.0
 11
-241.7170824308806
 21
-298.2576085453445
 31
0.0
  0
LINE
  5
CD8
330
6B
100
AcDbEntity
  8
0
 62
     3
100
AcDbLine
 10
-211.0525360156708
 20
-297.0205662970954
 30
0.0
 11
-211.1004665319734
 21
-297.270356324833
 31
0.0
  0
LINE
  5
CD9
330
6B
100
AcDbEntity
  8
0
 62
     3
100
AcDbLine
 10
-211.0991962079816
 20
-247.4363396143132
 30
0.0
 11
-211.0513178457432
 21
-247.6858707343751
 31
0.0
  0
LINE
  5
CDA
330
6B
100
AcDbEntity
  8
0
 62
     3
100
AcDbLine
 10
-211.0513178457432
 20
-247.6858707343751
 30
0.0
 11
-211.0513178457432
 21
-267.9536497419292
 31
0.0
  0
LINE
  5
CDB
330
6B
100
AcDbEntity
  8
0
 62
     3
100
AcDbLine
 10
-211.0525360156708
 20
-276.7536496942455
 30
0.0
 11
-211.0525360156708
 21
-297.0205662970954
 31
0.0
  0
LINE
  5
CE2
330
6B
100
AcDbEntity
  8
0
 62
     3
100
AcDbLine
 10
-242.3337446351462
 20
-297.2709542339259
 30
0.0
 11
-242.3816202034169
 21
-297.0214287017995
 31
0.0
  0
LINE
  5
CE3
330
6B
100
AcDbEntity
  8
0
 62
     3
100
AcDbLine
 10
-242.3816202034169
 20
-247.6858707343751
 30
0.0
 11
-242.3337520857268
 21
-247.4363843177968
 31
0.0
  0
LINE
  5
CE4
330
6B
100
AcDbEntity
  8
0
 62
     3
100
AcDbLine
 10
-242.3816202034169
 20
-267.9536497419292
 30
0.0
 11
-242.3816202034169
 21
-247.6858707343751
 31
0.0
  0
LINE
  5
CE5
330
6B
100
AcDbEntity
  8
0
 62
     3
100
AcDbLine
 10
-242.3816202034169
 20
-297.0214287017995
 30
0.0
 11
-242.3816202034169
 21
-276.7536496942455
 31
0.0
  0
LINE
  5
CE6
330
6B
100
AcDbEntity
  8
0
 62
     3
100
AcDbLine
 10
-210.7164682646208
 20
-247.4483499502355
 30
0.0
 11
-210.7164682646208
 21
-297.2589494859391
 31
0.0
  0
LINE
  5
CE7
330
6B
100
AcDbEntity
  8
0
 62
     3
100
AcDbLine
 10
-211.0513178457432
 20
-267.9536497419292
 30
0.0
 11
-211.0664686013871
 21
-267.9536497419292
 31
0.0
  0
LINE
  5
CE8
330
6B
100
AcDbEntity
  8
0
 62
     3
100
AcDbLine
 10
-211.0664686013871
 20
-276.7536496942455
 30
0.0
 11
-211.0525360156708
 21
-276.7536496942455
 31
0.0
  0
LINE
  5
CE9
330
6B
100
AcDbEntity
  8
0
 62
     3
100
AcDbLine
 10
-242.7164697845393
 20
-297.2589494859391
 30
0.0
 11
-242.7164697845393
 21
-247.4483499502355
 31
0.0
  0
LINE
  5
CEA
330
6B
100
AcDbEntity
  8
0
 62
     3
100
AcDbLine
 10
-242.366469447773
 20
-267.9536497419292
 30
0.0
 11
-242.3816202034169
 21
-267.9536497419292
 31
0.0
  0
LINE
  5
CEB
330
6B
100
AcDbEntity
  8
0
 62
     3
100
AcDbLine
 10
-242.3816202034169
 20
-276.7536496942455
 30
0.0
 11
-242.366469447773
 21
-276.7536496942455
 31
0.0
  0
ELLIPSE
  5
CEC
330
6B
100
AcDbEntity
  8
0
 62
     3
100
AcDbEllipse
 10
-211.7179344987256
 20
-297.2568717783479
 30
0.0
 11
0.8174356048783126
 21
-0.5798343957040971
 31
0.0
210
0.0
220
0.0
230
1.0
 40
0.9978028154207276
 41
5.330389921011631
 42
6.899110279166846
  0
ELLIPSE
  5
CED
330
6B
100
AcDbEntity
  8
0
 62
     3
100
AcDbEllipse
 10
-211.7179344987256
 20
-247.4504276578267
 30
0.0
 11
0.8174356048783122
 21
0.5798343957040686
 31
0.0
210
0.0
220
0.0
230
0.9999999999999998
 40
0.9978028154207228
 41
5.667260335192358
 42
7.235980693347577
  0
ELLIPSE
  5
CEE
330
6B
100
AcDbEntity
  8
0
 62
     3
100
AcDbEllipse
 10
-241.7150035504345
 20
-247.4504276578267
 30
0.0
 11
-0.8174356048782557
 21
0.5798343957040971
 31
0.0
210
0.0
220
0.0
230
1.0
 40
0.9978028154207624
 41
5.330389921011623
 42
6.899110279166861
  0
ELLIPSE
  5
CEF
330
6B
100
AcDbEntity
  8
0
 62
     3
100
AcDbEllipse
 10
-241.7150035504345
 20
-297.2568717783479
 30
0.0
 11
-0.8174356048782557
 21
-0.5798343957040971
 31
0.0
210
0.0
220
0.0
230
1.0
 40
0.9978028154207528
 41
5.667260335192318
 42
7.235980693347507
  0
LINE
  5
CF0
330
6B
100
AcDbEntity
  8
0
 62
     3
100
AcDbLine
 10
-241.7170824308806
 20
-246.4496908908301
 30
0.0
 11
-241.5164690290504
 21
-246.4496908908301
 31
0.0
  0
LINE
  5
CF1
330
6B
100
AcDbEntity
  8
0
 62
     3
100
AcDbLine
 10
-211.9164690201097
 20
-246.3536491816455
 30
0.0
 11
-216.2164691661411
 21
-246.3536491816455
 31
0.0
  0
LINE
  5
CF2
330
6B
100
AcDbEntity
  8
0
 62
     3
100
AcDbLine
 10
-222.2164692182952
 20
-246.3536491816455
 30
0.0
 11
-231.216468830865
 21
-246.3536491816455
 31
0.0
  0
LINE
  5
CF3
330
6B
100
AcDbEntity
  8
0
 62
     3
100
AcDbLine
 10
-237.216468883019
 20
-246.3536491816455
 30
0.0
 11
-241.5164690290504
 21
-246.3536491816455
 31
0.0
  0
LINE
  5
CF4
330
6B
100
AcDbEntity
  8
0
 62
     3
100
AcDbLine
 10
-211.9164690201097
 20
-246.4496908908301
 30
0.0
 11
-211.7158556182795
 21
-246.4496908908301
 31
0.0
  0
LINE
  5
CF9
330
6B
100
AcDbEntity
  8
0
 62
     3
100
AcDbLine
 10
-241.5164690290504
 20
-299.3057878886872
 30
0.0
 11
-241.5164690290504
 21
-298.2576085453445
 31
0.0
  0
ARC
  5
CFA
330
6B
100
AcDbEntity
  8
0
 62
     3
100
AcDbCircle
 10
-226.7164690245801
 20
-285.8536497180874
 30
0.0
 40
19.99999999999999
100
AcDbArc
 50
301.6682432535402
 51
317.7314155704278
  0
ARC
  5
CFB
330
6B
100
AcDbEntity
  8
0
 62
     3
100
AcDbCircle
 10
-226.7164690245801
 20
-285.8536497180874
 30
0.0
 40
19.99999999999999
100
AcDbArc
 50
256.9971218370914
 51
283.0028781629153
  0
ARC
  5
CFC
330
6B
100
AcDbEntity
  8
0
 62
     3
100
AcDbCircle
 10
-226.7164690245801
 20
-285.8536497180874
 30
0.0
 40
19.99999999999999
100
AcDbArc
 50
222.2685844295722
 51
238.3317567464599
  0
LINE
  5
CFD
330
6B
100
AcDbEntity
  8
0
 62
     3
100
AcDbLine
 10
-211.9164690201097
 20
-298.2576085453445
 30
0.0
 11
-211.9164690201097
 21
-299.3057878886872
 31
0.0
  0
LINE
  5
CFE
330
6B
100
AcDbEntity
  8
0
 62
     3
100
AcDbLine
 10
-211.9164690201097
 20
-245.4015115474874
 30
0.0
 11
-211.9164690201097
 21
-246.4496908908301
 31
0.0
  0
ARC
  5
CFF
330
6B
100
AcDbEntity
  8
0
 62
     3
100
AcDbCircle
 10
-226.7164690245801
 20
-258.8536497180873
 30
0.0
 40
19.99999999999996
100
AcDbArc
 50
121.6682432535401
 51
137.7314155704278
  0
ARC
  5
D00
330
6B
100
AcDbEntity
  8
0
 62
     3
100
AcDbCircle
 10
-226.7164690245801
 20
-258.8536497180873
 30
0.0
 40
19.99999999999999
100
AcDbArc
 50
76.99712183709127
 51
103.0028781629087
  0
ARC
  5
D01
330
6B
100
AcDbEntity
  8
0
 62
     3
100
AcDbCircle
 10
-226.7164690245801
 20
-258.8536497180873
 30
0.0
 40
19.99999999999999
100
AcDbArc
 50
42.26858442957215
 51
58.33175674645989
  0
LINE
  5
D02
330
6B
100
AcDbEntity
  8
0
 62
     3
100
AcDbLine
 10
-241.5164690290504
 20
-246.4496908908301
 30
0.0
 11
-241.5164690290504
 21
-245.4015115474874
 31
0.0
  0
ARC
  5
D03
330
6B
100
AcDbEntity
  8
0
 62
     3
100
AcDbCircle
 10
-238.5164690245801
 20
-246.6160028854647
 30
0.0
 40
5.000000000000056
100
AcDbArc
 50
133.9569467237699
 51
180.0
  0
ARC
  5
D04
330
6B
100
AcDbEntity
  8
0
 62
     3
100
AcDbCircle
 10
-226.7164690245801
 20
-258.8536497180873
 30
0.0
 40
21.99999999999997
100
AcDbArc
 50
118.5074305093577
 51
133.9569467237699
  0
ARC
  5
D05
330
6B
100
AcDbEntity
  8
0
 62
     3
100
AcDbCircle
 10
-226.7164690245801
 20
-258.8536497180873
 30
0.0
 40
21.99999999999999
100
AcDbArc
 50
62.41980079640823
 51
117.5801992035917
  0
ARC
  5
D06
330
6B
100
AcDbEntity
  8
0
 62
     3
100
AcDbCircle
 10
-226.7164690245801
 20
-258.8536497180873
 30
0.0
 40
22.0
100
AcDbArc
 50
46.04305327623006
 51
61.49256949064231
  0
ARC
  5
D07
330
6B
100
AcDbEntity
  8
0
 62
     3
100
AcDbCircle
 10
-214.91646902458
 20
-246.6160028854647
 30
0.0
 40
5.000000000000006
100
AcDbArc
 50
0.0
 51
46.04305327623006
  0
LINE
  5
D08
330
6B
100
AcDbEntity
  8
0
 62
     3
100
AcDbLine
 10
-209.9164696236067
 20
-246.6160027509147
 30
0.0
 11
-209.9164696236067
 21
-298.0912966852599
 31
0.0
  0
ARC
  5
D09
330
6B
100
AcDbEntity
  8
0
 62
     3
100
AcDbCircle
 10
-214.91646902458
 20
-298.09129655071
 30
0.0
 40
5.000000000000015
100
AcDbArc
 50
313.9569467237699
 51
0.0
  0
ARC
  5
D0A
330
6B
100
AcDbEntity
  8
0
 62
     3
100
AcDbCircle
 10
-226.7164690245801
 20
-285.8536497180874
 30
0.0
 40
22.00000000000001
100
AcDbArc
 50
298.5074305093577
 51
313.9569467237699
  0
ARC
  5
D0B
330
6B
100
AcDbEntity
  8
0
 62
     3
100
AcDbCircle
 10
-226.7164690245801
 20
-285.8536497180874
 30
0.0
 40
22.00000000000002
100
AcDbArc
 50
242.4198007964083
 51
297.5801992035917
  0
ARC
  5
D0C
330
6B
100
AcDbEntity
  8
0
 62
     3
100
AcDbCircle
 10
-226.7164690245801
 20
-285.8536497180874
 30
0.0
 40
22.00000000000001
100
AcDbArc
 50
226.0430532762301
 51
241.4925694906423
  0
ARC
  5
D0D
330
6B
100
AcDbEntity
  8
0
 62
     3
100
AcDbCircle
 10
-238.5164690245801
 20
-298.09129655071
 30
0.0
 40
5.000000000000015
100
AcDbArc
 50
180.0
 51
226.0430532762301
  0
LINE
  5
D0E
330
6B
100
AcDbEntity
  8
0
 62
     3
100
AcDbLine
 10
-243.5164684255534
 20
-298.0912966852599
 30
0.0
 11
-243.5164684255534
 21
-246.6160027509147
 31
0.0
  0
CIRCLE
  5
D53
330
6B
100
AcDbEntity
  8
0
 62
     3
100
AcDbCircle
 10
-217.2664690245801
 20
-272.3536497180873
 30
0.0
 40
4.5
  0
CIRCLE
  5
D54
330
6B
100
AcDbEntity
  8
0
 62
     3
100
AcDbCircle
 10
-217.2664690245801
 20
-272.3536497180873
 30
0.0
 40
6.000000000000056
  0
CIRCLE
  5
D55
330
6B
100
AcDbEntity
  8
0
 62
     3
100
AcDbCircle
 10
-236.1664690245799
 20
-272.3536497180873
 30
0.0
 40
4.5
  0
CIRCLE
  5
D56
330
6B
100
AcDbEntity
  8
0
 62
     3
100
AcDbCircle
 10
-236.1664690245799
 20
-272.3536497180873
 30
0.0
 40
6.0
  0
LINE
  5
D57
330
6B
100
AcDbEntity
  8
0
 62
     3
100
AcDbLine
 10
-216.2164691661411
 20
-296.4036489104444
 30
0.0
 11
-222.2164692182952
 21
-296.4036489104444
 31
0.0
  0
LINE
  5
D58
330
6B
100
AcDbEntity
  8
0
 62
     3
100
AcDbLine
 10
-216.2164691661411
 20
-296.4036489104444
 30
0.0
 11
-216.2164691661411
 21
-298.8067871158534
 31
0.0
  0
LINE
  5
D59
330
6B
100
AcDbEntity
  8
0
 62
     3
100
AcDbLine
 10
-222.2164692182952
 20
-296.4036489104444
 30
0.0
 11
-222.2164692182952
 21
-298.8067871158534
 31
0.0
  0
LINE
  5
D5A
330
6B
100
AcDbEntity
  8
0
 62
     3
100
AcDbLine
 10
-222.2164692182952
 20
-299.2751231615955
 30
0.0
 11
-222.2164692182952
 21
-298.8067871158534
 31
0.0
  0
LINE
  5
D5B
330
6B
100
AcDbEntity
  8
0
 62
     3
100
AcDbLine
 10
-216.2164691661411
 20
-298.8067871158534
 30
0.0
 11
-216.2164691661411
 21
-299.2751231615955
 31
0.0
  0
LINE
  5
D5C
330
6B
100
AcDbEntity
  8
0
 62
     3
100
AcDbLine
 10
-222.2164692182952
 20
-245.9005123203212
 30
0.0
 11
-222.2164692182952
 21
-245.4321762745792
 31
0.0
  0
LINE
  5
D5D
330
6B
100
AcDbEntity
  8
0
 62
     3
100
AcDbLine
 10
-216.2164691661411
 20
-245.4321762745792
 30
0.0
 11
-216.2164691661411
 21
-245.9005123203212
 31
0.0
  0
LINE
  5
D5E
330
6B
100
AcDbEntity
  8
0
 62
     3
100
AcDbLine
 10
-222.2164692182952
 20
-248.3036505257302
 30
0.0
 11
-222.2164692182952
 21
-245.9005123203212
 31
0.0
  0
LINE
  5
D5F
330
6B
100
AcDbEntity
  8
0
 62
     3
100
AcDbLine
 10
-216.2164691661411
 20
-248.3036505257302
 30
0.0
 11
-216.2164691661411
 21
-245.9005123203212
 31
0.0
  0
LINE
  5
D60
330
6B
100
AcDbEntity
  8
0
 62
     3
100
AcDbLine
 10
-216.2164691661411
 20
-248.3036505257302
 30
0.0
 11
-222.2164692182952
 21
-248.3036505257302
 31
0.0
  0
LINE
  5
D61
330
6B
100
AcDbEntity
  8
0
 62
     3
100
AcDbLine
 10
-237.216468883019
 20
-299.2751231615955
 30
0.0
 11
-237.216468883019
 21
-298.8067871158534
 31
0.0
  0
LINE
  5
D62
330
6B
100
AcDbEntity
  8
0
 62
     3
100
AcDbLine
 10
-231.216468830865
 20
-298.8067871158534
 30
0.0
 11
-231.216468830865
 21
-299.2751231615955
 31
0.0
  0
LINE
  5
D63
330
6B
100
AcDbEntity
  8
0
 62
     3
100
AcDbLine
 10
-237.216468883019
 20
-296.4036489104444
 30
0.0
 11
-231.216468830865
 21
-296.4036489104444
 31
0.0
  0
LINE
  5
D64
330
6B
100
AcDbEntity
  8
0
 62
     3
100
AcDbLine
 10
-237.216468883019
 20
-296.4036489104444
 30
0.0
 11
-237.216468883019
 21
-298.8067871158534
 31
0.0
  0
LINE
  5
D65
330
6B
100
AcDbEntity
  8
0
 62
     3
100
AcDbLine
 10
-231.216468830865
 20
-296.4036489104444
 30
0.0
 11
-231.216468830865
 21
-298.8067871158534
 31
0.0
  0
LINE
  5
D66
330
6B
100
AcDbEntity
  8
0
 62
     3
100
AcDbLine
 10
-237.216468883019
 20
-248.3036505257302
 30
0.0
 11
-231.216468830865
 21
-248.3036505257302
 31
0.0
  0
LINE
  5
D67
330
6B
100
AcDbEntity
  8
0
 62
     3
100
AcDbLine
 10
-237.216468883019
 20
-248.3036505257302
 30
0.0
 11
-237.216468883019
 21
-245.9005123203212
 31
0.0
  0
LINE
  5
D68
330
6B
100
AcDbEntity
  8
0
 62
     3
100
AcDbLine
 10
-231.216468830865
 20
-248.3036505257302
 30
0.0
 11
-231.216468830865
 21
-245.9005123203212
 31
0.0
  0
LINE
  5
D69
330
6B
100
AcDbEntity
  8
0
 62
     3
100
AcDbLine
 10
-231.216468830865
 20
-245.4321762745792
 30
0.0
 11
-231.216468830865
 21
-245.9005123203212
 31
0.0
  0
LINE
  5
D6A
330
6B
100
AcDbEntity
  8
0
 62
     3
100
AcDbLine
 10
-237.216468883019
 20
-245.9005123203212
 30
0.0
 11
-237.216468883019
 21
-245.4321762745792
 31
0.0
  0
LINE
  5
D6B
330
6B
100
AcDbEntity
  8
0
 62
     7
100
AcDbLine
 10
-238.6164692987614
 20
-257.3536500533635
 30
0.0
 11
-242.366469447773
 21
-257.3536500533635
 31
0.0
  0
LINE
  5
D6C
330
6B
100
AcDbEntity
  8
0
 62
     7
100
AcDbLine
 10
-238.6164692987614
 20
-258.1036497106368
 30
0.0
 11
-238.6164692987614
 21
-257.3536500533635
 31
0.0
  0
LINE
  5
D6D
330
6B
100
AcDbEntity
  8
0
 62
     7
100
AcDbLine
 10
-226.8664690317047
 20
-258.1036497106368
 30
0.0
 11
-238.6164692987614
 21
-258.1036497106368
 31
0.0
  0
LINE
  5
D6E
330
6B
100
AcDbEntity
  8
0
 62
     7
100
AcDbLine
 10
-239.1164693807178
 20
-257.8536501353199
 30
0.0
 11
-239.1164693807178
 21
-258.6036497925932
 31
0.0
  0
LINE
  5
D6F
330
6B
100
AcDbEntity
  8
0
 62
     7
100
AcDbLine
 10
-242.366469447773
 20
-257.8536501353199
 30
0.0
 11
-239.1164693807178
 21
-257.8536501353199
 31
0.0
  0
LINE
  5
D70
330
6B
100
AcDbEntity
  8
0
 62
     3
100
AcDbLine
 10
-242.366469447773
 20
-257.3536500533635
 30
0.0
 11
-242.366469447773
 21
-257.8536501353199
 31
0.0
  0
LINE
  5
D71
330
6B
100
AcDbEntity
  8
0
 62
     7
100
AcDbLine
 10
-239.1164693807178
 20
-258.6036497925932
 30
0.0
 11
-226.8664690317047
 21
-258.6036497925932
 31
0.0
  0
LINE
  5
D72
330
6B
100
AcDbEntity
  8
0
 62
     7
100
AcDbLine
 10
-226.8664690317047
 20
-258.6036497925932
 30
0.0
 11
-226.8664690317047
 21
-258.1036497106368
 31
0.0
  0
LINE
  5
D73
330
6B
100
AcDbEntity
  8
0
 62
     7
100
AcDbLine
 10
-239.1164693807178
 20
-260.8536496957356
 30
0.0
 11
-242.366469447773
 21
-260.8536496957356
 31
0.0
  0
LINE
  5
D74
330
6B
100
AcDbEntity
  8
0
 62
     7
100
AcDbLine
 10
-239.1164693807178
 20
-260.1036500384623
 30
0.0
 11
-239.1164693807178
 21
-260.8536496957356
 31
0.0
  0
LINE
  5
D75
330
6B
100
AcDbEntity
  8
0
 62
     7
100
AcDbLine
 10
-226.8664690317047
 20
-260.1036500384623
 30
0.0
 11
-239.1164693807178
 21
-260.1036500384623
 31
0.0
  0
LINE
  5
D76
330
6B
100
AcDbEntity
  8
0
 62
     7
100
AcDbLine
 10
-238.6164692987614
 20
-261.353649777692
 30
0.0
 11
-238.6164692987614
 21
-260.6036501204187
 31
0.0
  0
LINE
  5
D77
330
6B
100
AcDbEntity
  8
0
 62
     7
100
AcDbLine
 10
-242.366469447773
 20
-261.353649777692
 30
0.0
 11
-238.6164692987614
 21
-261.353649777692
 31
0.0
  0
LINE
  5
D78
330
6B
100
AcDbEntity
  8
0
 62
     3
100
AcDbLine
 10
-242.366469447773
 20
-260.8536496957356
 30
0.0
 11
-242.366469447773
 21
-261.353649777692
 31
0.0
  0
LINE
  5
D79
330
6B
100
AcDbEntity
  8
0
 62
     7
100
AcDbLine
 10
-226.8664690317047
 20
-260.6036501204187
 30
0.0
 11
-226.8664690317047
 21
-260.1036500384623
 31
0.0
  0
LINE
  5
D7A
330
6B
100
AcDbEntity
  8
0
 62
     7
100
AcDbLine
 10
-238.6164692987614
 20
-260.6036501204187
 30
0.0
 11
-226.8664690317047
 21
-260.6036501204187
 31
0.0
  0
LINE
  5
D7B
330
6B
100
AcDbEntity
  8
0
 62
     3
100
AcDbLine
 10
-216.2164691661411
 20
-240.022924376052
 30
0.0
 11
-222.2164692182952
 21
-240.022924376052
 31
0.0
  0
LINE
  5
D7C
330
6B
100
AcDbEntity
  8
0
 62
     3
100
AcDbLine
 10
-222.2164692182952
 20
-245.4321762745792
 30
0.0
 11
-222.2164692182952
 21
-240.022924376052
 31
0.0
  0
LINE
  5
D7D
330
6B
100
AcDbEntity
  8
0
 62
     3
100
AcDbLine
 10
-216.2164691661411
 20
-245.4321762745792
 30
0.0
 11
-216.2164691661411
 21
-240.022924376052
 31
0.0
  0
LINE
  5
D7E
330
6B
100
AcDbEntity
  8
0
 62
     3
100
AcDbLine
 10
-216.2164691661411
 20
-304.6843750601226
 30
0.0
 11
-222.2164692182952
 21
-304.6843750601226
 31
0.0
  0
LINE
  5
D7F
330
6B
100
AcDbEntity
  8
0
 62
     3
100
AcDbLine
 10
-222.2164692182952
 20
-299.2751231615955
 30
0.0
 11
-222.2164692182952
 21
-304.6843750601226
 31
0.0
  0
LINE
  5
D80
330
6B
100
AcDbEntity
  8
0
 62
     3
100
AcDbLine
 10
-216.2164691661411
 20
-299.2751231615955
 30
0.0
 11
-216.2164691661411
 21
-304.6843750601226
 31
0.0
  0
LINE
  5
D81
330
6B
100
AcDbEntity
  8
0
 62
     3
100
AcDbLine
 10
-237.216468883019
 20
-304.6843750601226
 30
0.0
 11
-231.216468830865
 21
-304.6843750601226
 31
0.0
  0
LINE
  5
D82
330
6B
100
AcDbEntity
  8
0
 62
     3
100
AcDbLine
 10
-237.216468883019
 20
-299.2751231615955
 30
0.0
 11
-237.216468883019
 21
-304.6843750601226
 31
0.0
  0
LINE
  5
D83
330
6B
100
AcDbEntity
  8
0
 62
     3
100
AcDbLine
 10
-231.216468830865
 20
-299.2751231615955
 30
0.0
 11
-231.216468830865
 21
-304.6843750601226
 31
0.0
  0
LINE
  5
D84
330
6B
100
AcDbEntity
  8
0
 62
     3
100
AcDbLine
 10
-237.216468883019
 20
-240.022924376052
 30
0.0
 11
-231.216468830865
 21
-240.022924376052
 31
0.0
  0
LINE
  5
D85
330
6B
100
AcDbEntity
  8
0
 62
     3
100
AcDbLine
 10
-237.216468883019
 20
-245.4321762745792
 30
0.0
 11
-237.216468883019
 21
-240.022924376052
 31
0.0
  0
LINE
  5
D86
330
6B
100
AcDbEntity
  8
0
 62
     3
100
AcDbLine
 10
-231.216468830865
 20
-245.4321762745792
 30
0.0
 11
-231.216468830865
 21
-240.022924376052
 31
0.0
  0
SPLINE
  5
D87
330
6B
100
AcDbEntity
  8
0
 62
     3
100
AcDbSpline
210
0.0
220
0.0
230
1.0
 70
    24
 71
     3
 72
    14
 73
    10
 74
     0
 42
0.0000000001
 43
0.0000000001
 40
0.0
 40
0.0
 40
0.0
 40
0.0
 40
0.2499999999999999
 40
0.2499999999999999
 40
0.5
 40
0.5
 40
0.75
 40
0.75
 40
1.0
 40
1.0
 40
1.0
 40
1.0
 10
-211.0664690245801
 20
-270.4801503185678
 30
0.0
 10
-211.0664690245801
 20
-270.7930653641095
 30
0.0
 10
-211.0664690245801
 20
-271.1050112616917
 30
0.0
 10
-211.0664690245801
 20
-271.728516280957
 30
0.0
 10
-211.0664690245801
 20
-272.0404364802076
 30
0.0
 10
-211.0664690245801
 20
-272.6665195631012
 30
0.0
 10
-211.0664690245801
 20
-272.9786464584793
 30
0.0
 10
-211.0664690245801
 20
-273.6022714619561
 30
0.0
 10
-211.0664690245801
 20
-273.9139644744222
 30
0.0
 10
-211.0664690245801
 20
-274.2271491176068
 30
0.0
  0
LINE
  5
D88
330
6B
100
AcDbEntity
  8
0
 62
     3
100
AcDbLine
 10
-211.0664686013871
 20
-274.2271490826795
 30
0.0
 11
-211.0664686013871
 21
-297.1536504303628
 31
0.0
  0
ARC
  5
D89
330
6B
100
AcDbEntity
  8
0
 62
     3
100
AcDbCircle
 10
-212.0664690245801
 20
-297.1536497180873
 30
0.0
 40
1.0
100
AcDbArc
 50
270.0
 51
0.0
  0
LINE
  5
D8A
330
6B
100
AcDbEntity
  8
0
 62
     3
100
AcDbLine
 10
-211.0664686013871
 20
-247.5536490058118
 30
0.0
 11
-211.0664686013871
 21
-270.4801503534952
 31
0.0
  0
ARC
  5
D8B
330
6B
100
AcDbEntity
  8
0
 62
     3
100
AcDbCircle
 10
-212.0664690245801
 20
-247.5536497180873
 30
0.0
 40
1.0
100
AcDbArc
 50
0.0
 51
90.0
  0
LINE
  5
D8C
330
6B
100
AcDbEntity
  8
0
 62
     3
100
AcDbLine
 10
-212.0664687652999
 20
-298.1536505942756
 30
0.0
 11
-216.2164691661411
 21
-298.1536505942756
 31
0.0
  0
LINE
  5
D8D
330
6B
100
AcDbEntity
  8
0
 62
     3
100
AcDbLine
 10
-216.2164691661411
 20
-246.553648841899
 30
0.0
 11
-212.0664687652999
 21
-246.553648841899
 31
0.0
  0
LINE
  5
D8E
330
6B
100
AcDbEntity
  8
0
 62
     3
100
AcDbLine
 10
-222.2164692182952
 20
-298.1536505942756
 30
0.0
 11
-231.216468830865
 21
-298.1536505942756
 31
0.0
  0
LINE
  5
D8F
330
6B
100
AcDbEntity
  8
0
 62
     3
100
AcDbLine
 10
-231.216468830865
 20
-246.553648841899
 30
0.0
 11
-222.2164692182952
 21
-246.553648841899
 31
0.0
  0
LINE
  5
D90
330
6B
100
AcDbEntity
  8
0
 62
     3
100
AcDbLine
 10
-237.216468883019
 20
-298.1536505942756
 30
0.0
 11
-241.3664692838603
 21
-298.1536505942756
 31
0.0
  0
LINE
  5
D91
330
6B
100
AcDbEntity
  8
0
 62
     3
100
AcDbLine
 10
-241.3664692838603
 20
-246.553648841899
 30
0.0
 11
-237.216468883019
 21
-246.553648841899
 31
0.0
  0
ARC
  5
D92
330
6B
100
AcDbEntity
  8
0
 62
     3
100
AcDbCircle
 10
-241.3664690245801
 20
-297.1536497180873
 30
0.0
 40
1.0
100
AcDbArc
 50
180.0
 51
270.0
  0
ARC
  5
D93
330
6B
100
AcDbEntity
  8
0
 62
     3
100
AcDbCircle
 10
-241.3664690245801
 20
-247.5536497180873
 30
0.0
 40
1.0
100
AcDbArc
 50
90.0
 51
180.0
  0
LINE
  5
D94
330
6B
100
AcDbEntity
  8
0
 62
     3
100
AcDbLine
 10
-242.366469447773
 20
-270.4801503534952
 30
0.0
 11
-242.366469447773
 21
-261.353649777692
 31
0.0
  0
LINE
  5
D95
330
6B
100
AcDbEntity
  8
0
 62
     3
100
AcDbLine
 10
-242.366469447773
 20
-257.3536500533635
 30
0.0
 11
-242.366469447773
 21
-247.5536490058118
 31
0.0
  0
LINE
  5
D96
330
6B
100
AcDbEntity
  8
0
 62
     3
100
AcDbLine
 10
-242.366469447773
 20
-297.1536504303628
 30
0.0
 11
-242.366469447773
 21
-274.2271490826795
 31
0.0
  0
SPLINE
  5
D97
330
6B
100
AcDbEntity
  8
0
 62
     3
100
AcDbSpline
210
0.0
220
0.0
230
1.0
 70
    24
 71
     3
 72
    14
 73
    10
 74
     0
 42
0.0000000001
 43
0.0000000001
 40
0.0
 40
0.0
 40
0.0
 40
0.0
 40
0.25
 40
0.25
 40
0.5
 40
0.5
 40
0.75
 40
0.75
 40
1.0
 40
1.0
 40
1.0
 40
1.0
 10
-242.3664690245801
 20
-274.2271491176068
 30
0.0
 10
-242.3664690245801
 20
-273.9142340720652
 30
0.0
 10
-242.3664690245801
 20
-273.602288174483
 30
0.0
 10
-242.3664690245801
 20
-272.9787831552176
 30
0.0
 10
-242.3664690245801
 20
-272.6668629559671
 30
0.0
 10
-242.3664690245801
 20
-272.0407798730735
 30
0.0
 10
-242.3664690245801
 20
-271.7286529776953
 30
0.0
 10
-242.3664690245801
 20
-271.1050279742185
 30
0.0
 10
-242.3664690245801
 20
-270.7933349617525
 30
0.0
 10
-242.3664690245801
 20
-270.4801503185678
 30
0.0
  0
LINE
  5
D98
330
6B
100
AcDbEntity
  8
0
 62
     3
100
AcDbLine
 10
-242.366469447773
 20
-260.8536496957356
 30
0.0
 11
-242.366469447773
 21
-257.8536501353199
 31
0.0
  0
LINE
  5
D99
330
6B
100
AcDbEntity
  8
0
 62
     3
100
AcDbLine
 10
-216.2164691661411
 20
-305.3536495392734
 30
0.0
 11
-222.2164692182952
 21
-305.3536495392734
 31
0.0
  0
LINE
  5
D9A
330
6B
100
AcDbEntity
  8
0
 62
     3
100
AcDbLine
 10
-222.2164692182952
 20
-304.6843750601226
 30
0.0
 11
-222.2164692182952
 21
-305.3536495392734
 31
0.0
  0
LINE
  5
D9B
330
6B
100
AcDbEntity
  8
0
 62
     3
100
AcDbLine
 10
-216.2164691661411
 20
-304.6843750601226
 30
0.0
 11
-216.2164691661411
 21
-305.3536495392734
 31
0.0
  0
LINE
  5
D9C
330
6B
100
AcDbEntity
  8
0
 62
     3
100
AcDbLine
 10
-216.2164691661411
 20
-239.3536498969012
 30
0.0
 11
-222.2164692182952
 21
-239.3536498969012
 31
0.0
  0
LINE
  5
D9D
330
6B
100
AcDbEntity
  8
0
 62
     3
100
AcDbLine
 10
-222.2164692182952
 20
-240.022924376052
 30
0.0
 11
-222.2164692182952
 21
-239.3536498969012
 31
0.0
  0
LINE
  5
D9E
330
6B
100
AcDbEntity
  8
0
 62
     3
100
AcDbLine
 10
-216.2164691661411
 20
-240.022924376052
 30
0.0
 11
-216.2164691661411
 21
-239.3536498969012
 31
0.0
  0
LINE
  5
D9F
330
6B
100
AcDbEntity
  8
0
 62
     3
100
AcDbLine
 10
-237.216468883019
 20
-239.3536498969012
 30
0.0
 11
-231.216468830865
 21
-239.3536498969012
 31
0.0
  0
LINE
  5
DA0
330
6B
100
AcDbEntity
  8
0
 62
     3
100
AcDbLine
 10
-237.216468883019
 20
-240.022924376052
 30
0.0
 11
-237.216468883019
 21
-239.3536498969012
 31
0.0
  0
LINE
  5
DA1
330
6B
100
AcDbEntity
  8
0
 62
     3
100
AcDbLine
 10
-231.216468830865
 20
-240.022924376052
 30
0.0
 11
-231.216468830865
 21
-239.3536498969012
 31
0.0
  0
LINE
  5
DA2
330
6B
100
AcDbEntity
  8
0
 62
     3
100
AcDbLine
 10
-237.216468883019
 20
-305.3536495392734
 30
0.0
 11
-231.216468830865
 21
-305.3536495392734
 31
0.0
  0
LINE
  5
DA3
330
6B
100
AcDbEntity
  8
0
 62
     3
100
AcDbLine
 10
-237.216468883019
 20
-304.6843750601226
 30
0.0
 11
-237.216468883019
 21
-305.3536495392734
 31
0.0
  0
LINE
  5
DA4
330
6B
100
AcDbEntity
  8
0
 62
     3
100
AcDbLine
 10
-231.216468830865
 20
-304.6843750601226
 30
0.0
 11
-231.216468830865
 21
-305.3536495392734
 31
0.0
  0
LINE
  5
DAD
330
6B
100
AcDbEntity
  8
0
 62
     7
100
AcDbLine
 10
-371.3435039738472
 20
-271.6036497180874
 30
0.0
 11
-371.3435039738472
 21
-270.8536497180874
 31
0.0
  0
LINE
  5
DAE
330
6B
100
AcDbEntity
  8
0
 62
     7
100
AcDbLine
 10
-370.3435039738472
 20
-270.8536497180874
 30
0.0
 11
-371.3435039738472
 21
-270.8536497180874
 31
0.0
  0
LINE
  5
DAF
330
6B
100
AcDbEntity
  8
0
 62
     7
100
AcDbLine
 10
-370.3435039738472
 20
-271.6036497180874
 30
0.0
 11
-370.3435039738472
 21
-270.8536497180874
 31
0.0
  0
CIRCLE
  5
DB0
330
6B
100
AcDbEntity
  8
0
 62
     7
100
AcDbCircle
 10
-370.8435039738472
 20
-272.3536497180874
 30
0.0
 40
2.85
  0
LINE
  5
DB1
330
6B
100
AcDbEntity
  8
0
 62
     7
100
AcDbLine
 10
-370.0935039738472
 20
-272.8536497180874
 30
0.0
 11
-369.3435039738472
 21
-272.8536497180874
 31
0.0
  0
ARC
  5
DB2
330
6B
100
AcDbEntity
  8
0
 62
     7
100
AcDbCircle
 10
-370.0935039738472
 20
-273.1036497180874
 30
0.0
 40
0.25
100
AcDbArc
 50
90.0
 51
180.0
  0
LINE
  5
DB3
330
6B
100
AcDbEntity
  8
0
 62
     7
100
AcDbLine
 10
-370.3435039738472
 20
-273.1036497180874
 30
0.0
 11
-370.3435039738472
 21
-273.8536497180874
 31
0.0
  0
LINE
  5
DB4
330
6B
100
AcDbEntity
  8
0
 62
     7
100
AcDbLine
 10
-370.3435039738472
 20
-273.8536497180874
 30
0.0
 11
-371.3435039738472
 21
-273.8536497180874
 31
0.0
  0
LINE
  5
DB5
330
6B
100
AcDbEntity
  8
0
 62
     7
100
AcDbLine
 10
-371.3435039738472
 20
-273.1036497180874
 30
0.0
 11
-371.3435039738472
 21
-273.8536497180874
 31
0.0
  0
ARC
  5
DB6
330
6B
100
AcDbEntity
  8
0
 62
     7
100
AcDbCircle
 10
-371.5935039738472
 20
-273.1036497180874
 30
0.0
 40
0.25
100
AcDbArc
 50
0.0
 51
90.0
  0
LINE
  5
DB7
330
6B
100
AcDbEntity
  8
0
 62
     7
100
AcDbLine
 10
-371.5935039738472
 20
-272.8536497180874
 30
0.0
 11
-372.3435039738472
 21
-272.8536497180874
 31
0.0
  0
LINE
  5
DB8
330
6B
100
AcDbEntity
  8
0
 62
     7
100
AcDbLine
 10
-372.3435039738472
 20
-272.8536497180874
 30
0.0
 11
-372.3435039738472
 21
-271.8536497180874
 31
0.0
  0
LINE
  5
DB9
330
6B
100
AcDbEntity
  8
0
 62
     7
100
AcDbLine
 10
-371.5935039738472
 20
-271.8536497180874
 30
0.0
 11
-372.3435039738472
 21
-271.8536497180874
 31
0.0
  0
ARC
  5
DBA
330
6B
100
AcDbEntity
  8
0
 62
     7
100
AcDbCircle
 10
-371.5935039738472
 20
-271.6036497180874
 30
0.0
 40
0.25
100
AcDbArc
 50
270.0
 51
0.0
  0
ARC
  5
DBB
330
6B
100
AcDbEntity
  8
0
 62
     7
100
AcDbCircle
 10
-370.0935039738472
 20
-271.6036497180874
 30
0.0
 40
0.25
100
AcDbArc
 50
180.0
 51
270.0
  0
LINE
  5
DBC
330
6B
100
AcDbEntity
  8
0
 62
     7
100
AcDbLine
 10
-370.0935039738472
 20
-271.8536497180874
 30
0.0
 11
-369.3435039738472
 21
-271.8536497180874
 31
0.0
  0
LINE
  5
DBD
330
6B
100
AcDbEntity
  8
0
 62
     7
100
AcDbLine
 10
-369.3435039738472
 20
-272.8536497180874
 30
0.0
 11
-369.3435039738472
 21
-271.8536497180874
 31
0.0
  0
ARC
  5
E5D
330
6B
100
AcDbEntity
  8
0
 62
     7
100
AcDbCircle
 10
-236.1664690245799
 20
-272.3536497180873
 30
0.0
 40
2.5
100
AcDbArc
 50
258.4630410000033
 51
281.5369589999967
  0
LINE
  5
E5E
330
6B
100
AcDbEntity
  8
0
 62
     7
100
AcDbLine
 10
-237.16646902458
 20
-272.8536497180873
 30
0.0
 11
-238.6159590245799
 21
-272.8536497180873
 31
0.0
  0
ARC
  5
E5F
330
6B
100
AcDbEntity
  8
0
 62
     7
100
AcDbCircle
 10
-237.16646902458
 20
-273.3536497180874
 30
0.0
 40
0.5
100
AcDbArc
 50
0.0
 51
90.0
  0
LINE
  5
E60
330
6B
100
AcDbEntity
  8
0
 62
     7
100
AcDbLine
 10
-236.66646902458
 20
-273.3536497180874
 30
0.0
 11
-236.66646902458
 21
-274.8031397180873
 31
0.0
  0
LINE
  5
E61
330
6B
100
AcDbEntity
  8
0
 62
     7
100
AcDbLine
 10
-235.6664690245799
 20
-273.3536497180874
 30
0.0
 11
-235.6664690245799
 21
-274.8031397180873
 31
0.0
  0
ARC
  5
E62
330
6B
100
AcDbEntity
  8
0
 62
     7
100
AcDbCircle
 10
-235.16646902458
 20
-273.3536497180874
 30
0.0
 40
0.5
100
AcDbArc
 50
90.0
 51
180.0
  0
LINE
  5
E63
330
6B
100
AcDbEntity
  8
0
 62
     7
100
AcDbLine
 10
-235.16646902458
 20
-272.8536497180873
 30
0.0
 11
-233.7169790245801
 21
-272.8536497180873
 31
0.0
  0
LINE
  5
E64
330
6B
100
AcDbEntity
  8
0
 62
     7
100
AcDbLine
 10
-235.16646902458
 20
-271.8536497180874
 30
0.0
 11
-233.7169790245801
 21
-271.8536497180874
 31
0.0
  0
ARC
  5
E65
330
6B
100
AcDbEntity
  8
0
 62
     7
100
AcDbCircle
 10
-235.16646902458
 20
-271.3536497180874
 30
0.0
 40
0.5
100
AcDbArc
 50
180.0
 51
270.0
  0
LINE
  5
E66
330
6B
100
AcDbEntity
  8
0
 62
     7
100
AcDbLine
 10
-235.6664690245799
 20
-271.3536497180874
 30
0.0
 11
-235.6664690245799
 21
-269.9041597180874
 31
0.0
  0
ARC
  5
E67
330
6B
100
AcDbEntity
  8
0
 62
     7
100
AcDbCircle
 10
-236.1664690245799
 20
-272.3536497180873
 30
0.0
 40
2.5
100
AcDbArc
 50
78.46304099999699
 51
101.5369589999966
  0
LINE
  5
E68
330
6B
100
AcDbEntity
  8
0
 62
     7
100
AcDbLine
 10
-236.66646902458
 20
-271.3536497180874
 30
0.0
 11
-236.66646902458
 21
-269.9041597180874
 31
0.0
  0
ARC
  5
E69
330
6B
100
AcDbEntity
  8
0
 62
     7
100
AcDbCircle
 10
-237.16646902458
 20
-271.3536497180874
 30
0.0
 40
0.5
100
AcDbArc
 50
270.0
 51
0.0
  0
LINE
  5
E6A
330
6B
100
AcDbEntity
  8
0
 62
     7
100
AcDbLine
 10
-237.16646902458
 20
-271.8536497180874
 30
0.0
 11
-238.6159590245799
 21
-271.8536497180874
 31
0.0
  0
ARC
  5
E6B
330
6B
100
AcDbEntity
  8
0
 62
     7
100
AcDbCircle
 10
-236.1664690245799
 20
-272.3536497180873
 30
0.0
 40
2.5
100
AcDbArc
 50
168.4630410000004
 51
191.5369589999995
  0
ARC
  5
E6C
330
6B
100
AcDbEntity
  8
0
 62
     7
100
AcDbCircle
 10
-236.1664690245799
 20
-272.3536497180873
 30
0.0
 40
2.5
100
AcDbArc
 50
348.4630410000004
 51
11.53695899999958
  0
CIRCLE
  5
E6D
330
6B
100
AcDbEntity
  8
0
 62
     7
100
AcDbCircle
 10
-236.1664690245799
 20
-272.3536497180873
 30
0.0
 40
3.35
  0
ARC
  5
E6E
330
6B
100
AcDbEntity
  8
0
 62
     7
100
AcDbCircle
 10
-217.2664690245801
 20
-272.3536497180873
 30
0.0
 40
2.5
100
AcDbArc
 50
258.4630410000033
 51
281.5369589999967
  0
LINE
  5
E6F
330
6B
100
AcDbEntity
  8
0
 62
     7
100
AcDbLine
 10
-218.2664690245801
 20
-272.8536497180873
 30
0.0
 11
-219.7159590245801
 21
-272.8536497180873
 31
0.0
  0
ARC
  5
E70
330
6B
100
AcDbEntity
  8
0
 62
     7
100
AcDbCircle
 10
-218.2664690245801
 20
-273.3536497180874
 30
0.0
 40
0.5
100
AcDbArc
 50
0.0
 51
90.0
  0
LINE
  5
E71
330
6B
100
AcDbEntity
  8
0
 62
     7
100
AcDbLine
 10
-217.7664690245801
 20
-273.3536497180874
 30
0.0
 11
-217.7664690245801
 21
-274.8031397180873
 31
0.0
  0
LINE
  5
E72
330
6B
100
AcDbEntity
  8
0
 62
     7
100
AcDbLine
 10
-216.7664690245802
 20
-273.3536497180874
 30
0.0
 11
-216.7664690245802
 21
-274.8031397180873
 31
0.0
  0
ARC
  5
E73
330
6B
100
AcDbEntity
  8
0
 62
     7
100
AcDbCircle
 10
-216.2664690245801
 20
-273.3536497180874
 30
0.0
 40
0.5
100
AcDbArc
 50
90.0
 51
180.0
  0
LINE
  5
E74
330
6B
100
AcDbEntity
  8
0
 62
     7
100
AcDbLine
 10
-216.2664690245801
 20
-272.8536497180873
 30
0.0
 11
-214.8169790245802
 21
-272.8536497180873
 31
0.0
  0
LINE
  5
E75
330
6B
100
AcDbEntity
  8
0
 62
     7
100
AcDbLine
 10
-216.2664690245801
 20
-271.8536497180874
 30
0.0
 11
-214.8169790245802
 21
-271.8536497180874
 31
0.0
  0
ARC
  5
E76
330
6B
100
AcDbEntity
  8
0
 62
     7
100
AcDbCircle
 10
-216.2664690245801
 20
-271.3536497180874
 30
0.0
 40
0.5
100
AcDbArc
 50
180.0
 51
270.0
  0
LINE
  5
E77
330
6B
100
AcDbEntity
  8
0
 62
     7
100
AcDbLine
 10
-216.7664690245802
 20
-271.3536497180874
 30
0.0
 11
-216.7664690245802
 21
-269.9041597180874
 31
0.0
  0
ARC
  5
E78
330
6B
100
AcDbEntity
  8
0
 62
     7
100
AcDbCircle
 10
-217.2664690245801
 20
-272.3536497180873
 30
0.0
 40
2.5
100
AcDbArc
 50
78.46304099999699
 51
101.5369589999966
  0
LINE
  5
E79
330
6B
100
AcDbEntity
  8
0
 62
     7
100
AcDbLine
 10
-217.7664690245801
 20
-271.3536497180874
 30
0.0
 11
-217.7664690245801
 21
-269.9041597180874
 31
0.0
  0
ARC
  5
E7A
330
6B
100
AcDbEntity
  8
0
 62
     7
100
AcDbCircle
 10
-218.2664690245801
 20
-271.3536497180874
 30
0.0
 40
0.5
100
AcDbArc
 50
270.0
 51
0.0
  0
LINE
  5
E7B
330
6B
100
AcDbEntity
  8
0
 62
     7
100
AcDbLine
 10
-218.2664690245801
 20
-271.8536497180874
 30
0.0
 11
-219.7159590245801
 21
-271.8536497180874
 31
0.0
  0
ARC
  5
E7C
330
6B
100
AcDbEntity
  8
0
 62
     7
100
AcDbCircle
 10
-217.2664690245801
 20
-272.3536497180873
 30
0.0
 40
2.5
100
AcDbArc
 50
168.4630410000004
 51
191.5369589999995
  0
ARC
  5
E7D
330
6B
100
AcDbEntity
  8
0
 62
     7
100
AcDbCircle
 10
-217.2664690245801
 20
-272.3536497180873
 30
0.0
 40
2.5
100
AcDbArc
 50
348.4630410000002
 51
11.5369589999999
  0
CIRCLE
  5
E7E
330
6B
100
AcDbEntity
  8
0
 62
     7
100
AcDbCircle
 10
-217.2664690245801
 20
-272.3536497180873
 30
0.0
 40
3.35
  0
TEXT
  5
E7F
330
6B
100
AcDbEntity
  8
0
 62
     7
100
AcDbText
 10
-218.3990490245801
 20
-265.2159167180873
 30
0.0
 40
2.740499999999998
  1
N
100
AcDbText
  0
TEXT
  5
E80
330
6B
100
AcDbEntity
  8
0
 62
     7
100
AcDbText
 10
-238.276931636985
 20
-262.7653919977537
 30
0.0
 40
1.6
  1
ストリップゲージ
 41
0.833333
100
AcDbText
  0
LINE
  5
E82
330
6B
100
AcDbEntity
  8
0
 62
     7
100
AcDbLine
 10
-215.0896820245801
 20
-271.8536497180874
 30
0.0
 11
-205.4666370245802
 21
-260.9930227180873
 31
0.0
  0
LINE
  5
E83
330
6B
100
AcDbEntity
  8
0
 62
     7
100
AcDbLine
 10
-205.4666370245802
 20
-260.9930227180873
 30
0.0
 11
-186.2166370245802
 21
-260.9930227180873
 31
0.0
  0
TEXT
  5
E84
330
6B
100
AcDbEntity
  8
0
 62
     4
100
AcDbText
 10
-202.7166370245802
 20
-259.9930227180873
 30
0.0
 40
3.2
  1
線止めねじ
 41
0.716146
100
AcDbText
  0
TEXT
  5
EBC
330
6B
100
AcDbEntity
  8
0
 62
     3
100
AcDbText
 10
-266.970583427797
 20
-330.7707650030553
 30
0.0
 40
3.2
  1
材質：ABS樹脂 耐熱グレード(茶色)
  7
高3.2
100
AcDbText
  0
LINE
  5
EBD
330
6B
100
AcDbEntity
  8
0
 62
     7
100
AcDbLine
 10
-266.970583427797
 20
-331.776208643649
 30
0.0
 11
-201.9012366533825
 21
-331.776208643649
 31
0.0
  0
LINE
  5
EC6
330
6B
100
AcDbEntity
  8
0
 62
     3
100
AcDbLine
 10
-433.4128734277968
 20
-200.3078699634647
 30
0.0
 11
-433.4128734277968
 21
-380.3078699634649
 31
0.0
  0
LINE
  5
EC7
330
6B
100
AcDbEntity
  8
0
 62
     3
100
AcDbLine
 10
-156.4128734277969
 20
-380.3078699634649
 30
0.0
 11
-156.4128734277969
 21
-200.3078699634647
 31
0.0
  0
LINE
  5
EC8
330
6B
100
AcDbEntity
  8
0
 62
     3
100
AcDbLine
 10
-433.4128734277968
 20
-380.3078699634649
 30
0.0
 11
-156.4128734277969
 21
-380.3078699634649
 31
0.0
  0
LINE
  5
EC9
330
6B
100
AcDbEntity
  8
0
 62
     3
100
AcDbLine
 10
-294.9128734277969
 20
-191.8352526634648
 30
0.0
 11
-294.9128734277969
 21
-193.0838117734647
 31
0.0
  0
LINE
  5
ECA
330
6B
100
AcDbEntity
  8
0
 62
     3
100
AcDbLine
 10
-306.8262121477969
 20
-198.4745422434647
 30
0.0
 11
-306.3904642377969
 21
-198.7020103834647
 31
0.0
  0
LINE
  5
ECB
330
6B
100
AcDbEntity
  8
0
 62
     3
100
AcDbLine
 10
-306.8262121477969
 20
-202.2051727134648
 30
0.0
 11
-306.3904642377969
 21
-201.9777045834648
 31
0.0
  0
LINE
  5
ECC
330
6B
100
AcDbEntity
  8
0
 62
     3
100
AcDbLine
 10
-306.3904642377969
 20
-198.7020103834647
 30
0.0
 11
-306.3904642377969
 21
-201.9777045834648
 31
0.0
  0
LINE
  5
ECD
330
6B
100
AcDbEntity
  8
0
 62
     3
100
AcDbLine
 10
-305.2869468177968
 20
-202.2051727134648
 30
0.0
 11
-305.7226947277968
 21
-201.9777045834648
 31
0.0
  0
LINE
  5
ECE
330
6B
100
AcDbEntity
  8
0
 62
     3
100
AcDbLine
 10
-305.7226947277968
 20
-199.9808457634648
 30
0.0
 11
-305.7226947277968
 21
-201.9777045834648
 31
0.0
  0
LINE
  5
ECF
330
6B
100
AcDbEntity
  8
0
 62
     3
100
AcDbLine
 10
-302.7450840377968
 20
-198.4745422434647
 30
0.0
 11
-303.1808319477968
 21
-198.7020103834647
 31
0.0
  0
LINE
  5
ED0
330
6B
100
AcDbEntity
  8
0
 62
     3
100
AcDbLine
 10
-304.284349367797
 20
-198.4745422434647
 30
0.0
 11
-303.8486014577968
 21
-198.7020103834647
 31
0.0
  0
LINE
  5
ED1
330
6B
100
AcDbEntity
  8
0
 62
     3
100
AcDbLine
 10
-303.8486014577968
 20
-198.7020103834647
 30
0.0
 11
-303.8486014577968
 21
-200.1443474434648
 31
0.0
  0
LINE
  5
ED2
330
6B
100
AcDbEntity
  8
0
 62
     3
100
AcDbLine
 10
-303.1808319477968
 20
-198.7020103834647
 30
0.0
 11
-303.1808319477968
 21
-202.4167338634648
 31
0.0
  0
LINE
  5
ED3
330
6B
100
AcDbEntity
  8
0
 62
     3
100
AcDbLine
 10
-302.5297868377969
 20
-198.4745448734647
 30
0.0
 11
-302.0940404977969
 21
-198.7020160034647
 31
0.0
  0
LINE
  5
ED4
330
6B
100
AcDbEntity
  8
0
 62
     3
100
AcDbLine
 10
-302.5298648077968
 20
-202.2051227434648
 30
0.0
 11
-302.0941089577968
 21
-201.9776698134648
 31
0.0
  0
LINE
  5
ED5
330
6B
100
AcDbEntity
  8
0
 62
     3
100
AcDbLine
 10
-302.0940404977969
 20
-198.7020160034647
 30
0.0
 11
-302.0940404977969
 21
-201.9776698134648
 31
0.0
  0
LINE
  5
ED6
330
6B
100
AcDbEntity
  8
0
 62
     3
100
AcDbLine
 10
-300.6002504377968
 20
-198.4745685434647
 30
0.0
 11
-301.0360015377969
 21
-198.7020305734647
 31
0.0
  0
LINE
  5
ED7
330
6B
100
AcDbEntity
  8
0
 62
     3
100
AcDbLine
 10
-301.0360015377969
 20
-198.7020305734647
 30
0.0
 11
-301.0360015377969
 21
-201.9776843834648
 31
0.0
  0
LINE
  5
ED8
330
6B
100
AcDbEntity
  8
0
 62
     3
100
AcDbLine
 10
-300.6002504377968
 20
-202.2051464234647
 30
0.0
 11
-301.0360015377969
 21
-201.9776843834648
 31
0.0
  0
LINE
  5
ED9
330
6B
100
AcDbEntity
  8
0
 62
     3
100
AcDbLine
 10
-296.9099969977968
 20
-198.4746095434647
 30
0.0
 11
-296.4742498777969
 21
-198.7020791834648
 31
0.0
  0
LINE
  5
EDA
330
6B
100
AcDbEntity
  8
0
 62
     3
100
AcDbLine
 10
-296.4742498777969
 20
-198.7020791834648
 30
0.0
 11
-296.4743070477969
 21
-201.9777329934647
 31
0.0
  0
LINE
  5
EDB
330
6B
100
AcDbEntity
  8
0
 62
     3
100
AcDbLine
 10
-296.9100621177969
 20
-202.2051874234648
 30
0.0
 11
-296.4743070477969
 21
-201.9777329934647
 31
0.0
  0
LINE
  5
EDC
330
6B
100
AcDbEntity
  8
0
 62
     3
100
AcDbLine
 10
-294.9577360377968
 20
-198.4746095434647
 30
0.0
 11
-295.3934831577969
 21
-198.7020791834648
 31
0.0
  0
LINE
  5
EDD
330
6B
100
AcDbEntity
  8
0
 62
     3
100
AcDbLine
 10
-294.9576709277969
 20
-202.2051874234648
 30
0.0
 11
-295.393425987797
 21
-201.9777329934647
 31
0.0
  0
LINE
  5
EDE
330
6B
100
AcDbEntity
  8
0
 62
     3
100
AcDbLine
 10
-294.7540081777968
 20
-198.4746095434647
 30
0.0
 11
-294.3182610577969
 21
-198.7020791834648
 31
0.0
  0
LINE
  5
EDF
330
6B
100
AcDbEntity
  8
0
 62
     3
100
AcDbLine
 10
-294.7540732877969
 20
-202.2051874234648
 30
0.0
 11
-294.3183182277969
 21
-201.9777329934647
 31
0.0
  0
LINE
  5
EE0
330
6B
100
AcDbEntity
  8
0
 62
     3
100
AcDbLine
 10
-292.8017472077968
 20
-198.4746095434647
 30
0.0
 11
-293.2374943277969
 21
-198.7020791834648
 31
0.0
  0
LINE
  5
EE1
330
6B
100
AcDbEntity
  8
0
 62
     3
100
AcDbLine
 10
-293.2374943277969
 20
-198.7020791834648
 30
0.0
 11
-293.2374371577969
 21
-201.9777329934647
 31
0.0
  0
LINE
  5
EE2
330
6B
100
AcDbEntity
  8
0
 62
     3
100
AcDbLine
 10
-292.8016820977969
 20
-202.2051874234648
 30
0.0
 11
-293.2374371577969
 21
-201.9777329934647
 31
0.0
  0
LINE
  5
EE3
330
6B
100
AcDbEntity
  8
0
 62
     3
100
AcDbLine
 10
-294.3182859577968
 20
-200.1292123034648
 30
0.0
 11
-295.3934582477968
 21
-200.1292123034648
 31
0.0
  0
LINE
  5
EE4
330
6B
100
AcDbEntity
  8
0
 62
     3
100
AcDbLine
 10
-294.3182933177968
 20
-200.5505026634648
 30
0.0
 11
-295.3934508977968
 21
-200.5505026634648
 31
0.0
  0
LINE
  5
EE5
330
6B
100
AcDbEntity
  8
0
 62
     3
100
AcDbLine
 10
-294.3182610577969
 20
-198.7020791834648
 30
0.0
 11
-294.3182859577968
 21
-200.1292123034648
 31
0.0
  0
LINE
  5
EE6
330
6B
100
AcDbEntity
  8
0
 62
     3
100
AcDbLine
 10
-294.3182933177968
 20
-200.5505026634648
 30
0.0
 11
-294.3183182277969
 21
-201.9777329934647
 31
0.0
  0
LINE
  5
EE7
330
6B
100
AcDbEntity
  8
0
 62
     3
100
AcDbLine
 10
-295.3934831577969
 20
-198.7020791834648
 30
0.0
 11
-295.3934582477968
 21
-200.1292123034648
 31
0.0
  0
LINE
  5
EE8
330
6B
100
AcDbEntity
  8
0
 62
     3
100
AcDbLine
 10
-295.3934508977968
 20
-200.5505026634648
 30
0.0
 11
-295.393425987797
 21
-201.9777329934647
 31
0.0
  0
LINE
  5
EE9
330
6B
100
AcDbEntity
  8
0
 62
     3
100
AcDbLine
 10
-292.5947880877968
 20
-198.4746095434647
 30
0.0
 11
-292.1590409677969
 21
-198.7020791834648
 31
0.0
  0
LINE
  5
EEA
330
6B
100
AcDbEntity
  8
0
 62
     3
100
AcDbLine
 10
-292.1590409677969
 20
-198.7020791834648
 30
0.0
 11
-292.159098137797
 21
-201.9777329934647
 31
0.0
  0
LINE
  5
EEB
330
6B
100
AcDbEntity
  8
0
 62
     3
100
AcDbLine
 10
-292.5948531977969
 20
-202.2051874234648
 30
0.0
 11
-292.159098137797
 21
-201.9777329934647
 31
0.0
  0
LINE
  5
EEC
330
6B
100
AcDbEntity
  8
0
 62
     3
100
AcDbLine
 10
-290.6652778177969
 20
-198.4746095434647
 30
0.0
 11
-291.1010249377969
 21
-198.7020791834648
 31
0.0
  0
LINE
  5
EED
330
6B
100
AcDbEntity
  8
0
 62
     3
100
AcDbLine
 10
-291.1010249377969
 20
-198.7020791834648
 30
0.0
 11
-291.1009677677969
 21
-201.9777329934647
 31
0.0
  0
LINE
  5
EEE
330
6B
100
AcDbEntity
  8
0
 62
     3
100
AcDbLine
 10
-290.6652127077968
 20
-202.2051874234648
 30
0.0
 11
-291.1009677677969
 21
-201.9777329934647
 31
0.0
  0
LINE
  5
EEF
330
6B
100
AcDbEntity
  8
0
 62
     3
100
AcDbLine
 10
-290.4509182577968
 20
-198.4746095434647
 30
0.0
 11
-290.0151711277969
 21
-198.7020791834648
 31
0.0
  0
LINE
  5
EF0
330
6B
100
AcDbEntity
  8
0
 62
     3
100
AcDbLine
 10
-290.0151711277969
 20
-198.7020791834648
 30
0.0
 11
-290.0152282977968
 21
-201.9777329934647
 31
0.0
  0
LINE
  5
EF1
330
6B
100
AcDbEntity
  8
0
 62
     3
100
AcDbLine
 10
-290.4509833677969
 20
-202.2051874234648
 30
0.0
 11
-290.0152282977968
 21
-201.9777329934647
 31
0.0
  0
ARC
  5
EF2
330
6B
100
AcDbEntity
  8
0
 62
     3
100
AcDbCircle
 10
-298.3019082677969
 20
-200.3304677234647
 30
0.0
 40
2.086285909999999
100
AcDbArc
 50
97.70152350999701
 51
270.0
  0
ARC
  5
EF3
330
6B
100
AcDbEntity
  8
0
 62
     3
100
AcDbCircle
 10
-285.4213074277968
 20
-200.3514243534648
 30
0.0
 40
2.108943379999999
100
AcDbArc
 50
0.3142502700009053
 51
69.00558244999579
  0
ARC
  5
EF4
330
6B
100
AcDbEntity
  8
0
 62
     3
100
AcDbCircle
 10
-284.9606321077969
 20
-200.3514243534648
 30
0.0
 40
2.108943379999999
100
AcDbArc
 50
110.9944175499969
 51
148.116611020001
  0
ARC
  5
EF5
330
6B
100
AcDbEntity
  8
0
 62
     3
100
AcDbCircle
 10
-285.4213074277968
 20
-200.3282906134648
 30
0.0
 40
2.108943379999999
100
AcDbArc
 50
290.9944175499969
 51
359.6857497299991
  0
ARC
  5
EF6
330
6B
100
AcDbEntity
  8
0
 62
     3
100
AcDbCircle
 10
-284.9606321077969
 20
-200.3282906134648
 30
0.0
 40
2.108943379999999
100
AcDbArc
 50
211.8833889799989
 51
249.0055824499958
  0
ARC
  5
EF7
330
6B
100
AcDbEntity
  8
0
 62
     3
100
AcDbCircle
 10
-285.1909697677968
 20
-199.4770520834648
 30
0.0
 40
1.214070989999998
100
AcDbArc
 50
64.36517189999924
 51
115.6348281000007
  0
ARC
  5
EF8
330
6B
100
AcDbEntity
  8
0
 62
     3
100
AcDbCircle
 10
-285.1909697677968
 20
-201.2026628734648
 30
0.0
 40
1.214070989999998
100
AcDbArc
 50
244.3651718999992
 51
295.6348281000007
  0
ARC
  5
EF9
330
6B
100
AcDbEntity
  8
0
 62
     3
100
AcDbCircle
 10
-285.1909697677968
 20
-199.4539904034647
 30
0.0
 40
0.59585563
100
AcDbArc
 50
19.48660554000177
 51
160.5133944599982
  0
ARC
  5
EFA
330
6B
100
AcDbEntity
  8
0
 62
     3
100
AcDbCircle
 10
-285.1909697677968
 20
-201.2026628734648
 30
0.0
 40
1.214070989999998
100
AcDbArc
 50
244.3651718999992
 51
295.6348281000007
  0
ARC
  5
EFB
330
6B
100
AcDbEntity
  8
0
 62
     3
100
AcDbCircle
 10
-285.1909697677968
 20
-201.2257245534648
 30
0.0
 40
0.59585563
100
AcDbArc
 50
199.4866055400017
 51
340.5133944599981
  0
ARC
  5
EFC
330
6B
100
AcDbEntity
  8
0
 62
     3
100
AcDbCircle
 10
-289.9334422677969
 20
-222.5679173234648
 30
0.0
 40
26.04
100
AcDbArc
 50
69.50571480000154
 51
81.68998807000383
  0
ARC
  5
EFD
330
6B
100
AcDbEntity
  8
0
 62
     3
100
AcDbCircle
 10
-289.9334422677969
 20
-178.1117976434647
 30
0.0
 40
26.04
100
AcDbArc
 50
278.3100119299961
 51
290.4942851999985
  0
ARC
  5
EFE
330
6B
100
AcDbEntity
  8
0
 62
     3
100
AcDbCircle
 10
-281.6252381477968
 20
-200.3398574834648
 30
0.0
 40
2.31
100
AcDbArc
 50
290.4942851999985
 51
69.50571480000154
  0
ARC
  5
EFF
330
6B
100
AcDbEntity
  8
0
 62
     3
100
AcDbCircle
 10
-308.9252381477968
 20
-200.3398574834648
 30
0.0
 40
2.31
100
AcDbArc
 50
110.4942851999985
 51
249.5057147999943
  0
ARC
  5
F00
330
6B
100
AcDbEntity
  8
0
 62
     3
100
AcDbCircle
 10
-300.6170340177969
 20
-222.5679173234648
 30
0.0
 40
26.04
100
AcDbArc
 50
98.31001192999615
 51
110.4942851999985
  0
ARC
  5
F01
330
6B
100
AcDbEntity
  8
0
 62
     3
100
AcDbCircle
 10
-300.6170340177969
 20
-178.1117976434647
 30
0.0
 40
26.04
100
AcDbArc
 50
249.5057147999943
 51
261.6899880699974
  0
ARC
  5
F02
330
6B
100
AcDbEntity
  8
0
 62
     3
100
AcDbCircle
 10
-295.2752381477969
 20
-259.1398574834648
 30
0.0
 40
62.99999987
100
AcDbArc
 50
81.68998807000383
 51
98.31001192999615
  0
ARC
  5
F03
330
6B
100
AcDbEntity
  8
0
 62
     3
100
AcDbCircle
 10
-295.2752381477969
 20
-141.5398574834648
 30
0.0
 40
62.99999987
100
AcDbArc
 50
261.6899880699974
 51
278.3100119299961
  0
ARC
  5
F04
330
6B
100
AcDbEntity
  8
0
 62
     3
100
AcDbCircle
 10
-295.2752381477969
 20
-259.1398574834648
 30
0.0
 40
62.36999987
100
AcDbArc
 50
81.68998807000383
 51
98.31001192999615
  0
ARC
  5
F05
330
6B
100
AcDbEntity
  8
0
 62
     3
100
AcDbCircle
 10
-295.2752381477969
 20
-141.5398574834648
 30
0.0
 40
62.36999987
100
AcDbArc
 50
261.6899880699974
 51
278.3100119299961
  0
ARC
  5
F06
330
6B
100
AcDbEntity
  8
0
 62
     3
100
AcDbCircle
 10
-289.9334422677969
 20
-178.1117976434647
 30
0.0
 40
25.41
100
AcDbArc
 50
278.3100119299961
 51
290.4942851999985
  0
ARC
  5
F07
330
6B
100
AcDbEntity
  8
0
 62
     3
100
AcDbCircle
 10
-289.9334422677969
 20
-222.5679173234648
 30
0.0
 40
25.41
100
AcDbArc
 50
69.50571480000154
 51
81.68998807000383
  0
ARC
  5
F08
330
6B
100
AcDbEntity
  8
0
 62
     3
100
AcDbCircle
 10
-281.6252381477968
 20
-200.3398574834648
 30
0.0
 40
1.679999999999999
100
AcDbArc
 50
290.4942851999985
 51
69.50571480000154
  0
ARC
  5
F09
330
6B
100
AcDbEntity
  8
0
 62
     3
100
AcDbCircle
 10
-308.9252381477968
 20
-200.3398574834648
 30
0.0
 40
1.679999999999999
100
AcDbArc
 50
110.4942851999985
 51
249.5057147999943
  0
ARC
  5
F0A
330
6B
100
AcDbEntity
  8
0
 62
     3
100
AcDbCircle
 10
-300.6170340177969
 20
-222.5679173234648
 30
0.0
 40
25.41
100
AcDbArc
 50
98.31001192999615
 51
110.4942851999985
  0
ARC
  5
F0B
330
6B
100
AcDbEntity
  8
0
 62
     3
100
AcDbCircle
 10
-300.6170340177969
 20
-178.1117976434647
 30
0.0
 40
25.41
100
AcDbArc
 50
249.5057147999943
 51
261.6899880699974
  0
LINE
  5
F0C
330
6B
100
AcDbEntity
  8
0
 62
     3
100
AcDbLine
 10
-290.6652770377968
 20
-202.4167338634648
 30
0.0
 11
-292.5947888677969
 21
-202.4167338634648
 31
0.0
  0
LINE
  5
F0D
330
6B
100
AcDbEntity
  8
0
 62
     3
100
AcDbLine
 10
-290.6652770377968
 20
-202.2051727134648
 30
0.0
 11
-290.6652770377968
 21
-202.4167338634648
 31
0.0
  0
LINE
  5
F0E
330
6B
100
AcDbEntity
  8
0
 62
     3
100
AcDbLine
 10
-292.8017464277969
 20
-198.2630798134648
 30
0.0
 11
-294.7540089577969
 21
-198.2630798134648
 31
0.0
  0
LINE
  5
F0F
330
6B
100
AcDbEntity
  8
0
 62
     3
100
AcDbLine
 10
-292.8017464277969
 20
-198.2630798134648
 30
0.0
 11
-292.8017464277969
 21
-198.4745422434647
 31
0.0
  0
LINE
  5
F10
330
6B
100
AcDbEntity
  8
0
 62
     3
100
AcDbLine
 10
-292.8017464277969
 20
-202.2051727134648
 30
0.0
 11
-292.8017464277969
 21
-202.4168325734648
 31
0.0
  0
LINE
  5
F11
330
6B
100
AcDbEntity
  8
0
 62
     3
100
AcDbLine
 10
-292.8017464277969
 20
-202.4168325734648
 30
0.0
 11
-294.7540089577969
 21
-202.4168325734648
 31
0.0
  0
LINE
  5
F12
330
6B
100
AcDbEntity
  8
0
 62
     3
100
AcDbLine
 10
-290.6652770377968
 20
-198.2629811034647
 30
0.0
 11
-290.6652770377968
 21
-198.4745422434647
 31
0.0
  0
LINE
  5
F13
330
6B
100
AcDbEntity
  8
0
 62
     3
100
AcDbLine
 10
-290.6652770377968
 20
-198.2629811034647
 30
0.0
 11
-292.5947888677969
 21
-198.2629811034647
 31
0.0
  0
LINE
  5
F14
330
6B
100
AcDbEntity
  8
0
 62
     3
100
AcDbLine
 10
-292.5947888677969
 20
-198.2629811034647
 30
0.0
 11
-292.5947888677969
 21
-198.4745422434647
 31
0.0
  0
LINE
  5
F15
330
6B
100
AcDbEntity
  8
0
 62
     3
100
AcDbLine
 10
-290.4509190377968
 20
-202.2051727134648
 30
0.0
 11
-290.4509190377968
 21
-202.4167338634648
 31
0.0
  0
LINE
  5
F16
330
6B
100
AcDbEntity
  8
0
 62
     3
100
AcDbLine
 10
-288.4666184777968
 20
-202.4167338634648
 30
0.0
 11
-290.4509190377968
 21
-202.4167338634648
 31
0.0
  0
LINE
  5
F17
330
6B
100
AcDbEntity
  8
0
 62
     3
100
AcDbLine
 10
-288.9571551077968
 20
-198.9307506234647
 30
0.0
 11
-288.9571551077968
 21
-201.7489643434648
 31
0.0
  0
LINE
  5
F18
330
6B
100
AcDbEntity
  8
0
 62
     3
100
AcDbLine
 10
-288.9571551077968
 20
-201.7489643434648
 30
0.0
 11
-288.7671061377968
 21
-201.7489643434648
 31
0.0
  0
ARC
  5
F19
330
6B
100
AcDbEntity
  8
0
 62
     3
100
AcDbCircle
 10
-289.7388918777969
 20
-200.3398574834648
 30
0.0
 40
1.71170957
100
AcDbArc
 50
304.5919552700032
 51
55.40804472999678
  0
LINE
  5
F1A
330
6B
100
AcDbEntity
  8
0
 62
     3
100
AcDbLine
 10
-288.4666184777968
 20
-198.2629811034647
 30
0.0
 11
-290.4509190377968
 21
-198.2629811034647
 31
0.0
  0
LINE
  5
F1B
330
6B
100
AcDbEntity
  8
0
 62
     3
100
AcDbLine
 10
-290.4509190377968
 20
-198.2629811034647
 30
0.0
 11
-290.4509190377968
 21
-198.4745422434647
 31
0.0
  0
LINE
  5
F1C
330
6B
100
AcDbEntity
  8
0
 62
     3
100
AcDbLine
 10
-292.5947888677969
 20
-202.2051727134648
 30
0.0
 11
-292.5947888677969
 21
-202.4167338634648
 31
0.0
  0
LINE
  5
F1D
330
6B
100
AcDbEntity
  8
0
 62
     3
100
AcDbLine
 10
-288.9571551077968
 20
-198.9307506234647
 30
0.0
 11
-288.7671061377968
 21
-198.9307506234647
 31
0.0
  0
LINE
  5
F1E
330
6B
100
AcDbEntity
  8
0
 62
     3
100
AcDbLine
 10
-300.6003147677968
 20
-202.2051727134648
 30
0.0
 11
-300.6003184577969
 21
-202.4167536334648
 31
0.0
  0
LINE
  5
F1F
330
6B
100
AcDbEntity
  8
0
 62
     3
100
AcDbLine
 10
-302.5298302977969
 20
-202.4167140934648
 30
0.0
 11
-300.6003184577969
 21
-202.4167477634648
 31
0.0
  0
LINE
  5
F20
330
6B
100
AcDbEntity
  8
0
 62
     3
100
AcDbLine
 10
-306.8262121477969
 20
-202.4167338634648
 30
0.0
 11
-305.2869468177968
 21
-202.4167338634648
 31
0.0
  0
ARC
  5
F21
330
6B
100
AcDbEntity
  8
0
 62
     3
100
AcDbCircle
 10
-311.8081548277968
 20
-200.2909508534647
 30
0.0
 40
14.71356563
100
AcDbArc
 50
353.8660061899987
 51
357.69403426
  0
LINE
  5
F22
330
6B
100
AcDbEntity
  8
0
 62
     3
100
AcDbLine
 10
-298.0915749677969
 20
-200.8793185134648
 30
0.0
 11
-297.1065040777968
 21
-200.8829633834648
 31
0.0
  0
LINE
  5
F24
330
6B
100
AcDbEntity
  8
0
 62
     3
100
AcDbLine
 10
-298.0875965477969
 20
-199.8041037634648
 30
0.0
 11
-297.102525667797
 21
-199.8077486434647
 31
0.0
  0
ARC
  5
F25
330
6B
100
AcDbEntity
  8
0
 62
     3
100
AcDbCircle
 10
-311.8081548277968
 20
-200.2909508534647
 30
0.0
 40
14.71356563
100
AcDbArc
 50
1.881965739998051
 51
5.709993810001195
  0
LINE
  5
F26
330
6B
100
AcDbEntity
  8
0
 62
     3
100
AcDbLine
 10
-300.6002459677968
 20
-198.2630008734648
 30
0.0
 11
-300.6002496577969
 21
-198.4745422434647
 31
0.0
  0
LINE
  5
F27
330
6B
100
AcDbEntity
  8
0
 62
     3
100
AcDbLine
 10
-302.529757797797
 20
-198.2629613334647
 30
0.0
 11
-300.6002459677968
 21
-198.2629950034647
 31
0.0
  0
LINE
  5
F28
330
6B
100
AcDbEntity
  8
0
 62
     3
100
AcDbLine
 10
-302.5298266077968
 20
-202.2051727134648
 30
0.0
 11
-302.5298302977969
 21
-202.4167140934648
 31
0.0
  0
LINE
  5
F29
330
6B
100
AcDbEntity
  8
0
 62
     3
100
AcDbLine
 10
-302.529757797797
 20
-198.2629613334647
 30
0.0
 11
-302.5297614977969
 21
-198.4745422434647
 31
0.0
  0
LINE
  5
F2A
330
6B
100
AcDbEntity
  8
0
 62
     3
100
AcDbLine
 10
-305.2869468177968
 20
-202.2051727134648
 30
0.0
 11
-305.2869468177968
 21
-202.4167338634648
 31
0.0
  0
LINE
  5
F2B
330
6B
100
AcDbEntity
  8
0
 62
     3
100
AcDbLine
 10
-305.7226947277968
 20
-199.9808457634648
 30
0.0
 11
-304.2002646677969
 21
-202.4167338634648
 31
0.0
  0
LINE
  5
F2C
330
6B
100
AcDbEntity
  8
0
 62
     3
100
AcDbLine
 10
-304.2002646677969
 20
-202.4167338634648
 30
0.0
 11
-303.1808319477968
 21
-202.4167338634648
 31
0.0
  0
LINE
  5
F2D
330
6B
100
AcDbEntity
  8
0
 62
     3
100
AcDbLine
 10
-302.7450840377968
 20
-198.2629811034647
 30
0.0
 11
-302.7450840377968
 21
-198.4745422434647
 31
0.0
  0
LINE
  5
F2E
330
6B
100
AcDbEntity
  8
0
 62
     3
100
AcDbLine
 10
-304.284349367797
 20
-198.2629811034647
 30
0.0
 11
-302.7450840377968
 21
-198.2629811034647
 31
0.0
  0
LINE
  5
F2F
330
6B
100
AcDbEntity
  8
0
 62
     3
100
AcDbLine
 10
-304.284349367797
 20
-198.2629811034647
 30
0.0
 11
-304.284349367797
 21
-198.4745422434647
 31
0.0
  0
LINE
  5
F30
330
6B
100
AcDbEntity
  8
0
 62
     3
100
AcDbLine
 10
-303.8486014577968
 20
-200.1443474434648
 30
0.0
 11
-305.0832481277969
 21
-198.2629811034647
 31
0.0
  0
LINE
  5
F31
330
6B
100
AcDbEntity
  8
0
 62
     3
100
AcDbLine
 10
-306.8262121477969
 20
-198.2629811034647
 30
0.0
 11
-305.0832481277969
 21
-198.2629811034647
 31
0.0
  0
LINE
  5
F32
330
6B
100
AcDbEntity
  8
0
 62
     3
100
AcDbLine
 10
-296.9099977877968
 20
-198.2630798134648
 30
0.0
 11
-294.9577352477969
 21
-198.2630798134648
 31
0.0
  0
LINE
  5
F33
330
6B
100
AcDbEntity
  8
0
 62
     3
100
AcDbLine
 10
-296.9099977877968
 20
-198.4745422434647
 30
0.0
 11
-296.9099977877968
 21
-198.2630798134648
 31
0.0
  0
LINE
  5
F34
330
6B
100
AcDbEntity
  8
0
 62
     3
100
AcDbLine
 10
-296.9099977877968
 20
-202.4168325734648
 30
0.0
 11
-296.9099977877968
 21
-202.2051727134648
 31
0.0
  0
LINE
  5
F35
330
6B
100
AcDbEntity
  8
0
 62
     3
100
AcDbLine
 10
-296.9099977877968
 20
-202.4168325734648
 30
0.0
 11
-294.9577352477969
 21
-202.4168325734648
 31
0.0
  0
LINE
  5
F36
330
6B
100
AcDbEntity
  8
0
 62
     3
100
AcDbLine
 10
-294.7540089577969
 20
-202.2051727134648
 30
0.0
 11
-294.7540089577969
 21
-202.4168325734648
 31
0.0
  0
LINE
  5
F37
330
6B
100
AcDbEntity
  8
0
 62
     3
100
AcDbLine
 10
-294.9577352477969
 20
-202.2051727134648
 30
0.0
 11
-294.9577352477969
 21
-202.4168325734648
 31
0.0
  0
LINE
  5
F38
330
6B
100
AcDbEntity
  8
0
 62
     3
100
AcDbLine
 10
-294.9577352477969
 20
-198.4745422434647
 30
0.0
 11
-294.9577352477969
 21
-198.2630798134648
 31
0.0
  0
LINE
  5
F39
330
6B
100
AcDbEntity
  8
0
 62
     3
100
AcDbLine
 10
-294.7540089577969
 20
-198.4745422434647
 30
0.0
 11
-294.7540089577969
 21
-198.2630798134648
 31
0.0
  0
LINE
  5
F3A
330
6B
100
AcDbEntity
  8
0
 62
     3
100
AcDbLine
 10
-306.8262121477969
 20
-202.2051727134648
 30
0.0
 11
-306.8262121477969
 21
-202.4167338634648
 31
0.0
  0
LINE
  5
F3B
330
6B
100
AcDbEntity
  8
0
 62
     3
100
AcDbLine
 10
-306.8262121477969
 20
-198.2629811034647
 30
0.0
 11
-306.8262121477969
 21
-198.4745422434647
 31
0.0
  0
ARC
  5
F3C
330
6B
100
AcDbEntity
  8
0
 62
     3
100
AcDbCircle
 10
-288.2566184777969
 20
-199.9041095734647
 30
0.0
 40
1.641128469999999
100
AcDbArc
 50
17.3087489800011
 51
23.76507095999727
  0
ARC
  5
F3D
330
6B
100
AcDbEntity
  8
0
 62
     3
100
AcDbCircle
 10
-289.6548918777968
 20
-200.3398574834648
 30
0.0
 40
3.105725599999998
100
AcDbArc
 50
342.6912510199989
 51
17.30856644000025
  0
ARC
  5
F3E
330
6B
100
AcDbEntity
  8
0
 62
     3
100
AcDbCircle
 10
-288.2566184777969
 20
-200.7756053834647
 30
0.0
 40
1.641128469999999
100
AcDbArc
 50
336.2349290399968
 51
342.6912510199989
  0
ARC
  5
F3F
330
6B
100
AcDbEntity
  8
0
 62
     3
100
AcDbCircle
 10
-288.4666184777968
 20
-199.9041095734647
 30
0.0
 40
1.641128469999999
100
AcDbArc
 50
17.3087489800011
 51
90.0
  0
ARC
  5
F40
330
6B
100
AcDbEntity
  8
0
 62
     3
100
AcDbCircle
 10
-289.8648918777969
 20
-200.3398574834648
 30
0.0
 40
3.105725599999998
100
AcDbArc
 50
342.6912510199989
 51
17.30856644000025
  0
ARC
  5
F41
330
6B
100
AcDbEntity
  8
0
 62
     3
100
AcDbCircle
 10
-288.4666184777968
 20
-200.7756053834647
 30
0.0
 40
1.641128469999999
100
AcDbArc
 50
270.0
 51
342.6912510199989
  0
ARC
  5
F42
330
6B
100
AcDbEntity
  8
0
 62
     3
100
AcDbCircle
 10
-298.590558847797
 20
-200.3398574834648
 30
0.0
 40
2.076876379999998
100
AcDbArc
 50
46.75287961000178
 51
89.74999828999569
  0
ARC
  5
F43
330
6B
100
AcDbEntity
  8
0
 62
     3
100
AcDbCircle
 10
-298.590558847797
 20
-200.3398574834648
 30
0.0
 40
2.076876379999998
100
AcDbArc
 50
273.976333149997
 51
312.8231203899991
  0
ARC
  5
F44
330
6B
100
AcDbEntity
  8
0
 62
     3
100
AcDbCircle
 10
-287.1487509077969
 20
-200.3719190134648
 30
0.0
 40
2.755888999999998
100
AcDbArc
 50
0.6665840600014417
 51
23.90392827000101
  0
ARC
  5
F45
330
6B
100
AcDbEntity
  8
0
 62
     3
100
AcDbCircle
 10
-283.2331886277968
 20
-200.3719190134648
 30
0.0
 40
2.755888999999998
100
AcDbArc
 50
156.096071729999
 51
179.3334159399985
  0
ARC
  5
F46
330
6B
100
AcDbEntity
  8
0
 62
     3
100
AcDbCircle
 10
-287.1487509077969
 20
-200.3077959534647
 30
0.0
 40
2.755888999999998
100
AcDbArc
 50
336.096071729999
 51
359.3334159399987
  0
ARC
  5
F47
330
6B
100
AcDbEntity
  8
0
 62
     3
100
AcDbCircle
 10
-283.2331886277968
 20
-200.3077959534647
 30
0.0
 40
2.755888999999998
100
AcDbArc
 50
180.6665840599982
 51
203.903928270001
  0
LINE
  5
F48
330
6B
100
AcDbEntity
  8
0
 62
     3
100
AcDbLine
 10
-312.6564286077968
 20
-200.3078699634647
 30
0.0
 11
-433.4128734277968
 21
-200.3078699634647
 31
0.0
  0
LINE
  5
F49
330
6B
100
AcDbEntity
  8
0
 62
     3
100
AcDbLine
 10
-156.4128734277969
 20
-200.3078699634647
 30
0.0
 11
-277.8513353677969
 21
-200.3078699634647
 31
0.0
  0
LINE
  5
F4E
330
6B
100
AcDbEntity
  8
0
 62
     3
100
AcDbLine
 10
-208.412873427797
 20
-380.3078699634649
 30
0.0
 11
-208.412873427797
 21
-340.3078699634647
 31
0.0
  0
LINE
  5
F4F
330
6B
100
AcDbEntity
  8
0
 62
     3
100
AcDbLine
 10
-195.4128734277969
 20
-370.3078699634648
 30
0.0
 11
-195.4128734277969
 21
-340.3078699634647
 31
0.0
  0
LINE
  5
F50
330
6B
100
AcDbEntity
  8
0
 62
     3
100
AcDbLine
 10
-235.412873427797
 20
-370.3078699634648
 30
0.0
 11
-235.412873427797
 21
-356.3078699634648
 31
0.0
  0
LINE
  5
F51
330
6B
100
AcDbEntity
  8
0
 62
     3
100
AcDbLine
 10
-225.412873427797
 20
-356.3078699634648
 30
0.0
 11
-225.412873427797
 21
-380.3078699634649
 31
0.0
  0
LINE
  5
F52
330
6B
100
AcDbEntity
  8
0
 62
     3
100
AcDbLine
 10
-254.412873427797
 20
-340.3078699634648
 30
0.0
 11
-254.412873427797
 21
-363.3078699634647
 31
0.0
  0
LINE
  5
F53
330
6B
100
AcDbEntity
  8
0
 62
     3
100
AcDbLine
 10
-182.4128734277969
 20
-363.3078699634647
 30
0.0
 11
-182.4128734277969
 21
-340.3078699634647
 31
0.0
  0
LINE
  5
F54
330
6B
100
AcDbEntity
  8
0
 62
     3
100
AcDbLine
 10
-156.4128734277969
 20
-340.3078699634647
 30
0.0
 11
-267.6583080677967
 21
-340.3078699634647
 31
0.0
  0
LINE
  5
F55
330
6B
100
AcDbEntity
  8
0
 62
     3
100
AcDbLine
 10
-156.4128734277969
 20
-349.3078699634649
 30
0.0
 11
-267.658308067797
 21
-349.3078699634647
 31
0.0
  0
LINE
  5
F56
330
6B
100
AcDbEntity
  8
0
 62
     3
100
AcDbLine
 10
-156.4128734277969
 20
-363.3078699634647
 30
0.0
 11
-267.658308067797
 21
-363.3078699634647
 31
0.0
  0
LINE
  5
F57
330
6B
100
AcDbEntity
  8
0
 62
     3
100
AcDbLine
 10
-156.4128734277969
 20
-370.3078699634648
 30
0.0
 11
-267.716315927797
 21
-370.3078699634648
 31
0.0
  0
LINE
  5
F58
330
6B
100
AcDbEntity
  8
0
 62
     3
100
AcDbLine
 10
-169.4128734277969
 20
-363.3078699634647
 30
0.0
 11
-169.4128734277969
 21
-340.3078699634647
 31
0.0
  0
LINE
  5
F59
330
6B
100
AcDbEntity
  8
0
 62
     3
100
AcDbLine
 10
-267.658308067797
 20
-340.3078699634647
 30
0.0
 11
-267.658308067797
 21
-380.3078699634649
 31
0.0
  0
LINE
  5
F5A
330
6B
100
AcDbEntity
  8
0
 62
     3
100
AcDbLine
 10
-208.412873427797
 20
-356.3078699634648
 30
0.0
 11
-267.658308067797
 21
-356.3078699634648
 31
0.0
  0
LINE
  5
F5B
330
6B
100
AcDbEntity
  8
0
 62
     3
100
AcDbLine
 10
-225.1345484977969
 20
-375.4750087034647
 30
0.0
 11
-208.412873427797
 21
-375.4750087034647
 31
0.0
  0
TEXT
  5
F5C
330
6B
100
AcDbEntity
  8
0
 62
     3
100
AcDbText
 10
-224.2485480144812
 20
-361.2347731100994
 30
0.0
 40
2.5
  1
耐熱グレード
 41
0.8
  7
高2.5
100
AcDbText
  0
TEXT
  5
F5D
330
6B
100
AcDbEntity
  8
0
 62
     3
100
AcDbText
 10
-253.2165047325448
 20
-361.0100555584809
 30
0.0
 40
2.5
  1
ABS樹脂
  7
高2.5
100
AcDbText
  0
TEXT
  5
F5E
330
6B
100
AcDbEntity
  8
0
 62
     3
100
AcDbText
 10
-252.9515969778472
 20
-347.9956204397069
 30
0.0
 40
4.5
  1
2芯コンセント（茶）
 41
0.8
  7
高4.5
100
AcDbText
1001
ACAD
1000
ACAD_MTEXT_DEFINED_HEIGHT_BEGIN
1070
    46
1040
0.0
1000
ACAD_MTEXT_DEFINED_HEIGHT_END
  0
TEXT
  5
F5F
330
6B
100
AcDbEntity
  8
0
 62
     3
100
AcDbText
 10
-166.3472843343229
 20
-343.7941778647612
 30
0.0
 40
2.0
  1
DEF
  7
高2
100
AcDbText
  0
TEXT
  5
F60
330
6B
100
AcDbEntity
  8
0
 62
     3
100
AcDbText
 10
-180.2863826880311
 20
-343.7941778647612
 30
0.0
 40
2.0
  1
DESN
  7
高2
100
AcDbText
  0
TEXT
  5
F61
330
6B
100
AcDbEntity
  8
0
 62
     3
100
AcDbText
 10
-206.5407496280313
 20
-343.7941778647612
 30
0.0
 40
2.0
  1
APPD
  7
高2
100
AcDbText
  0
TEXT
  5
F62
330
6B
100
AcDbEntity
  8
0
 62
     3
100
AcDbText
 10
-193.428013527797
 20
-343.7941778647612
 30
0.0
 40
2.0
  1
CHCK
  7
高2
100
AcDbText
  0
TEXT
  5
F63
330
6B
100
AcDbEntity
  8
0
 62
     3
100
AcDbText
 10
-234.4857077886443
 20
-366.1394711402341
 30
0.0
 40
2.0
  1
SCALE
 41
0.8
  7
高2
100
AcDbText
  0
TEXT
  5
F64
330
6B
100
AcDbEntity
  8
0
 62
     3
100
AcDbText
 10
-265.9737293647509
 20
-366.1394711402341
 30
0.0
 40
2.0
  1
3AD　ANGLE
 41
1.5
  7
高2
100
AcDbText
  0
TEXT
  5
F65
330
6B
100
AcDbEntity
  8
0
 62
     3
100
AcDbText
 10
-235.2163020977955
 20
-359.3879330712768
 30
0.0
 40
2.0
  1
REMARKS
 41
0.7
  7
高2
100
AcDbText
  0
TEXT
  5
F66
330
6B
100
AcDbEntity
  8
0
 62
     3
100
AcDbText
 10
-266.190637717797
 20
-359.3078699634647
 30
0.0
 40
2.0
  1
MATERIAL
 41
0.7
  7
高2
100
AcDbText
  0
TEXT
  5
F67
330
6B
100
AcDbEntity
  8
0
 62
     3
100
AcDbText
 10
-265.6141505150429
 20
-352.3078699634648
 30
0.0
 40
2.0
  1
MODEL
  7
高2
100
AcDbText
  0
TEXT
  5
F68
330
6B
100
AcDbEntity
  8
0
 62
     3
100
AcDbText
 10
-265.9772296337116
 20
-343.6008486128657
 30
0.0
 40
2.0
  1
CONPONENTS
 41
0.5
  7
高2
100
AcDbText
  0
TEXT
  5
F69
330
6B
100
AcDbEntity
  8
0
 62
     3
100
AcDbText
 10
-253.2701141625448
 20
-355.2203888356528
 30
0.0
 40
4.5
  1
2PO-D
  7
高4.5
100
AcDbText
  0
TEXT
  5
F6A
330
6B
100
AcDbEntity
  8
0
 62
     3
100
AcDbText
 10
-205.3478276971784
 20
-378.2694085680991
 30
0.0
 40
6.299999999999998
  1
2PO-D
  7
高6.3
100
AcDbText
1001
ACAD
1000
ACAD_MTEXT_DEFINED_HEIGHT_BEGIN
1070
    46
1040
0.0
1000
ACAD_MTEXT_DEFINED_HEIGHT_END
  0
TEXT
  5
F6B
330
6B
100
AcDbEntity
  8
0
 62
     3
100
AcDbText
 10
-191.8493636774674
 20
-369.2069808052317
 30
0.0
 40
3.2
  1
1994.4.15
  7
高3.2
100
AcDbText
1001
ACAD
1000
ACAD_MTEXT_DEFINED_HEIGHT_BEGIN
1070
    46
1040
0.0
1000
ACAD_MTEXT_DEFINED_HEIGHT_END
  0
TEXT
  5
F6C
330
6B
100
AcDbEntity
  8
0
 62
     3
100
AcDbText
 10
-221.6252755331507
 20
-369.2069529608969
 30
0.0
 40
3.2
  1
1/1
  7
高3.2
100
AcDbText
  0
TEXT
  5
F6D
330
6B
100
AcDbEntity
  8
0
 62
     3
100
AcDbText
 10
-224.5479465577969
 20
-379.4909917903289
 30
0.0
 40
3.2
  1
ZK-A4X
 41
0.8
  7
高3.2
100
AcDbText
  0
TEXT
  5
F6E
330
6B
100
AcDbEntity
  8
0
 62
     3
100
AcDbText
 10
-266.8276070277971
 20
-373.7832495412769
 30
0.0
 40
2.0
  1
NICHIDO IND.CO.LTD
 41
1.3
  7
高2
100
AcDbText
  0
TEXT
  5
F6F
330
6B
100
AcDbEntity
  8
0
 62
     3
100
AcDbText
 10
-265.6460837628397
 20
-348.1673417555799
 30
0.0
 40
3.2
  1
品 名
  7
高3.2
100
AcDbText
1001
ACAD
1000
ACAD_MTEXT_DEFINED_HEIGHT_BEGIN
1070
    46
1040
0.0
1000
ACAD_MTEXT_DEFINED_HEIGHT_END
  0
TEXT
  5
F70
330
6B
100
AcDbEntity
  8
0
 62
     3
100
AcDbText
 10
-265.6460837628397
 20
-355.8078699634648
 30
0.0
 40
3.2
  1
型 式
  7
高3.2
100
AcDbText
1001
ACAD
1000
ACAD_MTEXT_DEFINED_HEIGHT_BEGIN
1070
    46
1040
3.064735913775954
1000
ACAD_MTEXT_DEFINED_HEIGHT_END
  0
TEXT
  5
F71
330
6B
100
AcDbEntity
  8
0
 62
     3
100
AcDbText
 10
-265.6460837628397
 20
-362.8078699634647
 30
0.0
 40
3.2
  1
材 質
  7
高3.2
100
AcDbText
1001
ACAD
1000
ACAD_MTEXT_DEFINED_HEIGHT_BEGIN
1070
    46
1040
0.0
1000
ACAD_MTEXT_DEFINED_HEIGHT_END
  0
TEXT
  5
F72
330
6B
100
AcDbEntity
  8
0
 62
     3
100
AcDbText
 10
-265.9511187128398
 20
-369.8404299712185
 30
0.0
 40
3.2
  1
第 三 角 法
  7
高3.2
100
AcDbText
1001
ACAD
1000
ACAD_MTEXT_DEFINED_HEIGHT_BEGIN
1070
    46
1040
0.0
1000
ACAD_MTEXT_DEFINED_HEIGHT_END
  0
TEXT
  5
F73
330
6B
100
AcDbEntity
  8
0
 62
     3
100
AcDbText
 10
-267.5445861053108
 20
-379.1673417555799
 30
0.0
 40
3.2
  1
日動工業株式会社
 41
1.199999999999999
  7
高3.2
100
AcDbText
1001
ACAD
1000
ACAD_MTEXT_DEFINED_HEIGHT_BEGIN
1070
    46
1040
0.0
1000
ACAD_MTEXT_DEFINED_HEIGHT_END
  0
TEXT
  5
F74
330
6B
100
AcDbEntity
  8
0
 62
     3
100
AcDbText
 10
-233.9089619058325
 20
-362.9232914302972
 30
0.0
 40
3.2
  1
備考
  7
高3.2
100
AcDbText
1001
ACAD
1000
ACAD_MTEXT_DEFINED_HEIGHT_BEGIN
1070
    46
1040
0.0
1000
ACAD_MTEXT_DEFINED_HEIGHT_END
  0
TEXT
  5
F75
330
6B
100
AcDbEntity
  8
0
 62
     3
100
AcDbText
 10
-224.2599044587969
 20
-374.1616399378945
 30
0.0
 40
2.5
  1
出図コード
  7
高2.5
100
AcDbText
1001
ACAD
1000
ACAD_MTEXT_DEFINED_HEIGHT_BEGIN
1070
    46
1040
0.0
1000
ACAD_MTEXT_DEFINED_HEIGHT_END
  0
TEXT
  5
F76
330
6B
100
AcDbEntity
  8
0
 62
     3
100
AcDbText
 10
-234.0677280239199
 20
-369.8546350530518
 30
0.0
 40
3.2
  1
尺度
  7
高3.2
100
AcDbText
1001
ACAD
1000
ACAD_MTEXT_DEFINED_HEIGHT_BEGIN
1070
    46
1040
0.0
1000
ACAD_MTEXT_DEFINED_HEIGHT_END
  0
TEXT
  5
F77
330
6B
100
AcDbEntity
  8
0
 62
     3
100
AcDbText
 10
-206.9214665421412
 20
-368.7231566049343
 30
0.0
 40
3.2
  1
作成日
  7
高3.2
100
AcDbText
1001
ACAD
1000
ACAD_MTEXT_DEFINED_HEIGHT_BEGIN
1070
    46
1040
0.0
1000
ACAD_MTEXT_DEFINED_HEIGHT_END
  0
TEXT
  5
F78
330
6B
100
AcDbEntity
  8
0
 62
     3
100
AcDbText
 10
-207.026992535277
 20
-348.1673417555799
 30
0.0
 40
3.2
  1
承 認
  7
高3.2
100
AcDbText
1001
ACAD
1000
ACAD_MTEXT_DEFINED_HEIGHT_BEGIN
1070
    46
1040
0.0
1000
ACAD_MTEXT_DEFINED_HEIGHT_END
  0
TEXT
  5
F79
330
6B
100
AcDbEntity
  8
0
 62
     3
100
AcDbText
 10
-194.0269925352771
 20
-348.1673417555799
 30
0.0
 40
3.2
  1
検 図
  7
高3.2
100
AcDbText
1001
ACAD
1000
ACAD_MTEXT_DEFINED_HEIGHT_BEGIN
1070
    46
1040
0.0
1000
ACAD_MTEXT_DEFINED_HEIGHT_END
  0
TEXT
  5
F7A
330
6B
100
AcDbEntity
  8
0
 62
     3
100
AcDbText
 10
-181.0269925352772
 20
-348.1673417555799
 30
0.0
 40
3.2
  1
設 計
  7
高3.2
100
AcDbText
1001
ACAD
1000
ACAD_MTEXT_DEFINED_HEIGHT_BEGIN
1070
    46
1040
0.0
1000
ACAD_MTEXT_DEFINED_HEIGHT_END
  0
TEXT
  5
F7B
330
6B
100
AcDbEntity
  8
0
 62
     3
100
AcDbText
 10
-167.7263560152771
 20
-348.1673417555799
 30
0.0
 40
3.2
  1
製 図
  7
高3.2
100
AcDbText
1001
ACAD
1000
ACAD_MTEXT_DEFINED_HEIGHT_BEGIN
1070
    46
1040
0.0
1000
ACAD_MTEXT_DEFINED_HEIGHT_END
  0
TEXT
  5
F7C
330
6B
100
AcDbEntity
  8
0
 62
     3
100
AcDbText
 10
-168.9128734277969
 20
-209.8078699634648
 30
0.0
 40
3.2
  1
担　当
  7
高3.2
100
AcDbText
  0
TEXT
  5
F7D
330
6B
100
AcDbEntity
  8
0
 62
     3
100
AcDbText
 10
-212.912873427797
 20
-209.8078699634648
 30
0.0
 40
3.2
  1
変更・追記内容
  7
高3.2
100
AcDbText
  0
TEXT
  5
F7E
330
6B
100
AcDbEntity
  8
0
 62
     3
100
AcDbText
 10
-237.7993584274577
 20
-214.478408473373
 30
0.0
 40
2.0
  1
1
  7
高2
100
AcDbText
  0
TEXT
  5
F7F
330
6B
100
AcDbEntity
  8
0
 62
     3
100
AcDbText
 10
-238.107869904215
 20
-219.6482251856459
 30
0.0
 40
2.0
  1
2
  7
高2
100
AcDbText
  0
TEXT
  5
F80
330
6B
100
AcDbEntity
  8
0
 62
     3
100
AcDbText
 10
-230.912873427797
 20
-209.8078699634648
 30
0.0
 40
3.2
  1
日　付
  7
高3.2
100
AcDbText
  0
TEXT
  5
F81
330
6B
100
AcDbEntity
  8
0
 62
     3
100
AcDbText
 10
-230.912873427797
 20
-204.8078699634647
 30
0.0
 40
3.2
  1
図　　　　面　　　　略　　　　歴
  7
高3.2
100
AcDbText
  0
TEXT
  5
F82
330
6B
100
AcDbEntity
  8
0
 62
     3
100
AcDbText
 10
-240.912873427797
 20
-209.8078699634648
 30
0.0
 40
3.2
  1
記号
  7
高3.2
100
AcDbText
  0
LINE
  5
F83
330
6B
100
AcDbEntity
  8
0
 62
     7
100
AcDbLine
 10
-237.412873427797
 20
-216.5169739634646
 30
0.0
 11
-239.3128734277969
 21
-219.8078699634648
 31
0.0
  0
LINE
  5
F84
330
6B
100
AcDbEntity
  8
0
 62
     7
100
AcDbLine
 10
-237.412873427797
 20
-216.5169739634646
 30
0.0
 11
-235.512873427797
 21
-219.8078699634648
 31
0.0
  0
LINE
  5
F85
330
6B
100
AcDbEntity
  8
0
 62
     7
100
AcDbLine
 10
-239.3128734277969
 20
-219.8078699634648
 30
0.0
 11
-235.512873427797
 21
-219.8078699634648
 31
0.0
  0
LINE
  5
F86
330
6B
100
AcDbEntity
  8
0
 62
     7
100
AcDbLine
 10
-237.412873427797
 20
-211.5169729634647
 30
0.0
 11
-239.3128734277969
 21
-214.8078699634647
 31
0.0
  0
LINE
  5
F87
330
6B
100
AcDbEntity
  8
0
 62
     7
100
AcDbLine
 10
-237.412873427797
 20
-211.5169729634647
 30
0.0
 11
-235.512873427797
 21
-214.8078699634647
 31
0.0
  0
LINE
  5
F88
330
6B
100
AcDbEntity
  8
0
 62
     7
100
AcDbLine
 10
-239.3128734277969
 20
-214.8078699634647
 30
0.0
 11
-235.512873427797
 21
-214.8078699634647
 31
0.0
  0
LINE
  5
F89
330
6B
100
AcDbEntity
  8
0
 62
     3
100
AcDbLine
 10
-242.412873427797
 20
-205.3078699634648
 30
0.0
 11
-156.4128734277969
 21
-205.3078699634648
 31
0.0
  0
LINE
  5
F8A
330
6B
100
AcDbEntity
  8
0
 62
     3
100
AcDbLine
 10
-242.412873427797
 20
-210.3078699634647
 30
0.0
 11
-156.4128734277969
 21
-210.3078699634647
 31
0.0
  0
LINE
  5
F8B
330
6B
100
AcDbEntity
  8
0
 62
     7
100
AcDbLine
 10
-242.412873427797
 20
-215.3078699634647
 30
0.0
 11
-156.4128734277969
 21
-215.3078699634647
 31
0.0
  0
LINE
  5
F8C
330
6B
100
AcDbEntity
  8
0
 62
     3
100
AcDbLine
 10
-242.412873427797
 20
-220.3078699634648
 30
0.0
 11
-156.4128734277969
 21
-220.3078699634648
 31
0.0
  0
LINE
  5
F8D
330
6B
100
AcDbEntity
  8
0
 62
     7
100
AcDbLine
 10
-170.412873427797
 20
-220.3078699634648
 30
0.0
 11
-170.4128734277969
 21
-205.3078699634648
 31
0.0
  0
LINE
  5
F8E
330
6B
100
AcDbEntity
  8
0
 62
     7
100
AcDbLine
 10
-214.412873427797
 20
-220.3078699634648
 30
0.0
 11
-214.412873427797
 21
-205.3078699634648
 31
0.0
  0
LINE
  5
F8F
330
6B
100
AcDbEntity
  8
0
 62
     7
100
AcDbLine
 10
-232.4128734277969
 20
-220.3078699634648
 30
0.0
 11
-232.4128734277969
 21
-205.3078699634648
 31
0.0
  0
LINE
  5
F90
330
6B
100
AcDbEntity
  8
0
 62
     3
100
AcDbLine
 10
-242.412873427797
 20
-220.3078699634648
 30
0.0
 11
-242.412873427797
 21
-200.3078699634647
 31
0.0
  0
LINE
  5
106B
330
6B
100
AcDbEntity
  8
0
 62
     7
100
AcDbLine
 10
-214.1644320245802
 20
-270.0013277180874
 30
0.0
 11
-215.0896820245801
 21
-271.8536497180874
 31
0.0
  0
LINE
  5
106E
330
6B
100
AcDbEntity
  8
0
 62
     7
100
AcDbLine
 10
-215.0896820245801
 20
-271.8536497180874
 30
0.0
 11
-213.3622300245802
 21
-270.7121167180874
 31
0.0
  0
LINE
  5
106F
330
6B
100
AcDbEntity
  8
0
  6
Continuous
100
AcDbLine
 10
-241.7664690290504
 20
-246.3536491816455
 30
0.0
 11
-250.1987541977578
 21
-246.3536491816455
 31
0.0
  0
LINE
  5
1070
330
6B
100
AcDbEntity
  8
0
  6
Continuous
100
AcDbLine
 10
-241.7664690290504
 20
-298.3536502545291
 30
0.0
 11
-250.1987541977578
 21
-298.3536502545291
 31
0.0
  0
LINE
  5
1071
330
6B
100
AcDbEntity
  8
0
  6
Continuous
100
AcDbLine
 10
-248.9487541977578
 20
-248.8536491816455
 30
0.0
 11
-248.9487541977578
 21
-295.8536502545291
 31
0.0
  0
LINE
  5
1075
330
6B
100
AcDbEntity
  8
0
  6
Continuous
100
AcDbLine
 10
-210.7164682646208
 20
-247.1983499502355
 30
0.0
 11
-210.7164682646208
 21
-231.7005090228833
 31
0.0
  0
LINE
  5
1076
330
6B
100
AcDbEntity
  8
0
  6
Continuous
100
AcDbLine
 10
-242.7164697845393
 20
-247.1983499502355
 30
0.0
 11
-242.7164697845393
 21
-231.7005090228833
 31
0.0
  0
LINE
  5
1077
330
6B
100
AcDbEntity
  8
0
  6
Continuous
100
AcDbLine
 10
-213.2164682646208
 20
-232.9505090228833
 30
0.0
 11
-240.2164697845393
 21
-232.9505090228833
 31
0.0
  0
LINE
  5
107B
330
6B
100
AcDbEntity
  8
0
  6
Continuous
100
AcDbLine
 10
-387.6435033748204
 20
-246.3660027509147
 30
0.0
 11
-387.6435033748204
 21
-226.1677582447567
 31
0.0
  0
LINE
  5
107C
330
6B
100
AcDbEntity
  8
0
  6
Continuous
100
AcDbLine
 10
-354.0435045728738
 20
-246.3660027509147
 30
0.0
 11
-354.0435045728738
 21
-226.1677582447567
 31
0.0
  0
LINE
  5
107D
330
6B
100
AcDbEntity
  8
0
  6
Continuous
100
AcDbLine
 10
-385.1435033748204
 20
-227.4177582447567
 30
0.0
 11
-356.5435045728738
 21
-227.4177582447567
 31
0.0
  0
LINE
  5
1081
330
6B
100
AcDbEntity
  8
0
  6
Continuous
100
AcDbLine
 10
-303.6392413261087
 20
-236.6036485557967
 30
0.0
 11
-303.6392413261087
 21
-229.99945155559
 31
0.0
  0
LINE
  5
1082
330
6B
100
AcDbEntity
  8
0
  6
Continuous
100
AcDbLine
 10
-286.1392411919983
 20
-246.8036497180873
 30
0.0
 11
-286.1392411919983
 21
-229.99945155559
 31
0.0
  0
LINE
  5
1083
330
6B
100
AcDbEntity
  8
0
  6
Continuous
100
AcDbLine
 10
-301.1392413261087
 20
-231.24945155559
 30
0.0
 11
-288.6392411919983
 21
-231.24945155559
 31
0.0
  0
LINE
  5
1087
330
6B
100
AcDbEntity
  8
0
  6
Continuous
100
AcDbLine
 10
-308.63924121435
 20
-239.2249714260512
 30
0.0
 11
-308.63924121435
 21
-224.5693533078067
 31
0.0
  0
LINE
  5
1088
330
6B
100
AcDbEntity
  8
0
  6
Continuous
100
AcDbLine
 10
-286.1392411919983
 20
-246.8036497180873
 30
0.0
 11
-286.1392411919983
 21
-224.5693533078067
 31
0.0
  0
LINE
  5
1089
330
6B
100
AcDbEntity
  8
0
  6
Continuous
100
AcDbLine
 10
-306.13924121435
 20
-225.8193533078067
 30
0.0
 11
-288.6392411919983
 21
-225.8193533078067
 31
0.0
  0
LINE
  5
108D
330
6B
100
AcDbEntity
  8
0
  6
Continuous
100
AcDbLine
 10
-371.0935039738472
 20
-236.8536497180873
 30
0.0
 11
-399.3867845980791
 21
-236.8536497180873
 31
0.0
  0
LINE
  5
108E
330
6B
100
AcDbEntity
  8
0
  6
Continuous
100
AcDbLine
 10
-371.0935039738472
 20
-307.8536497180873
 30
0.0
 11
-399.3867845980791
 21
-307.8536497180873
 31
0.0
  0
LINE
  5
108F
330
6B
100
AcDbEntity
  8
0
  6
Continuous
100
AcDbLine
 10
-398.136784598079
 20
-239.3536497180873
 30
0.0
 11
-398.136784598079
 21
-305.3536497180872
 31
0.0
  0
LINE
  5
1093
330
6B
100
AcDbEntity
  8
0
 62
     3
100
AcDbLine
 10
-364.1799500914569
 20
-291.6402952944452
 30
0.0
 11
-364.1887189591582
 21
-291.8536501204187
 31
0.0
  0
LINE
  5
1094
330
6B
100
AcDbEntity
  8
0
 62
     3
100
AcDbLine
 10
-364.1887189591582
 20
-291.8536501204187
 30
0.0
 11
-364.1799500914569
 21
-292.0670049463922
 31
0.0
  0
LINE
  5
1095
330
6B
100
AcDbEntity
  8
0
 62
     3
100
AcDbLine
 10
-364.1799500914569
 20
-252.6402944897824
 30
0.0
 11
-364.1887189591582
 21
-252.853649315756
 31
0.0
  0
LINE
  5
1096
330
6B
100
AcDbEntity
  8
0
 62
     3
100
AcDbLine
 10
-364.1887189591582
 20
-252.853649315756
 30
0.0
 11
-364.1799500914569
 21
-253.0670041417295
 31
0.0
  0
LINE
  5
1097
330
6B
100
AcDbEntity
  8
0
 62
     3
100
AcDbLine
 10
-298.0875965477969
 20
-199.8041037634648
 30
0.0
 11
-298.1062240777969
 21
-199.6848360034647
 31
0.0
  0
LINE
  5
1098
330
6B
100
AcDbEntity
  8
0
 62
     3
100
AcDbLine
 10
-298.1062240777969
 20
-199.6848360034647
 30
0.0
 11
-298.1285952577969
 21
-199.5706312234647
 31
0.0
  0
LINE
  5
1099
330
6B
100
AcDbEntity
  8
0
 62
     3
100
AcDbLine
 10
-298.1285952577969
 20
-199.5706312234647
 30
0.0
 11
-298.1545371877968
 21
-199.4623721634648
 31
0.0
  0
LINE
  5
109A
330
6B
100
AcDbEntity
  8
0
 62
     3
100
AcDbLine
 10
-298.1545371877968
 20
-199.4623721634648
 30
0.0
 11
-298.1838493277968
 21
-199.3608956134647
 31
0.0
  0
LINE
  5
109B
330
6B
100
AcDbEntity
  8
0
 62
     3
100
AcDbLine
 10
-298.1838493277968
 20
-199.3608956134647
 30
0.0
 11
-298.2163051377968
 21
-199.2669859334648
 31
0.0
  0
LINE
  5
109C
330
6B
100
AcDbEntity
  8
0
 62
     3
100
AcDbLine
 10
-298.2163051377968
 20
-199.2669859334648
 30
0.0
 11
-298.2516537277969
 21
-199.1813689934647
 31
0.0
  0
LINE
  5
109D
330
6B
100
AcDbEntity
  8
0
 62
     3
100
AcDbLine
 10
-298.2516537277969
 20
-199.1813689934647
 30
0.0
 11
-298.2896218777968
 21
-199.1047065734647
 31
0.0
  0
LINE
  5
109E
330
6B
100
AcDbEntity
  8
0
 62
     3
100
AcDbLine
 10
-298.2896218777968
 20
-199.1047065734647
 30
0.0
 11
-298.3299161277969
 21
-199.0375912434648
 31
0.0
  0
LINE
  5
109F
330
6B
100
AcDbEntity
  8
0
 62
     3
100
AcDbLine
 10
-298.3299161277969
 20
-199.0375912434648
 30
0.0
 11
-298.3722249977968
 21
-198.9805417534647
 31
0.0
  0
LINE
  5
10A0
330
6B
100
AcDbEntity
  8
0
 62
     3
100
AcDbLine
 10
-298.3722249977968
 20
-198.9805417534647
 30
0.0
 11
-298.4162214877969
 21
-198.9339990734648
 31
0.0
  0
LINE
  5
10A1
330
6B
100
AcDbEntity
  8
0
 62
     3
100
AcDbLine
 10
-298.4162214877969
 20
-198.9339990734648
 30
0.0
 11
-298.4615655077969
 21
-198.8983229634648
 31
0.0
  0
LINE
  5
10A2
330
6B
100
AcDbEntity
  8
0
 62
     3
100
AcDbLine
 10
-298.4615655077969
 20
-198.8983229634648
 30
0.0
 11
-298.5079065777968
 21
-198.8737891634647
 31
0.0
  0
LINE
  5
10A3
330
6B
100
AcDbEntity
  8
0
 62
     3
100
AcDbLine
 10
-298.5079065777968
 20
-198.8737891634647
 30
0.0
 11
-298.5548865177968
 21
-198.8605873234648
 31
0.0
  0
LINE
  5
10A4
330
6B
100
AcDbEntity
  8
0
 62
     3
100
AcDbLine
 10
-298.5548865177968
 20
-198.8605873234648
 30
0.0
 11
-298.6021421777969
 21
-198.8588194834647
 31
0.0
  0
LINE
  5
10A5
330
6B
100
AcDbEntity
  8
0
 62
     3
100
AcDbLine
 10
-298.6021421777969
 20
-198.8588194834647
 30
0.0
 11
-298.6493083077968
 21
-198.8684992934647
 31
0.0
  0
LINE
  5
10A6
330
6B
100
AcDbEntity
  8
0
 62
     3
100
AcDbLine
 10
-298.6493083077968
 20
-198.8684992934647
 30
0.0
 11
-298.6960203377969
 21
-198.8895519534647
 31
0.0
  0
LINE
  5
10A7
330
6B
100
AcDbEntity
  8
0
 62
     3
100
AcDbLine
 10
-298.6960203377969
 20
-198.8895519534647
 30
0.0
 11
-298.7419171977969
 21
-198.9218147234647
 31
0.0
  0
LINE
  5
10A8
330
6B
100
AcDbEntity
  8
0
 62
     3
100
AcDbLine
 10
-298.7419171977969
 20
-198.9218147234647
 30
0.0
 11
-298.7866441377969
 21
-198.9650382334647
 31
0.0
  0
LINE
  5
10A9
330
6B
100
AcDbEntity
  8
0
 62
     3
100
AcDbLine
 10
-298.7866441377969
 20
-198.9650382334647
 30
0.0
 11
-298.829855447797
 21
-199.0188883934647
 31
0.0
  0
LINE
  5
10AA
330
6B
100
AcDbEntity
  8
0
 62
     3
100
AcDbLine
 10
-298.829855447797
 20
-199.0188883934647
 30
0.0
 11
-298.8712171077968
 21
-199.0829489634647
 31
0.0
  0
LINE
  5
10AB
330
6B
100
AcDbEntity
  8
0
 62
     3
100
AcDbLine
 10
-298.8712171077968
 20
-199.0829489634647
 30
0.0
 11
-298.9104094277968
 21
-199.1567247834647
 31
0.0
  0
LINE
  5
10AC
330
6B
100
AcDbEntity
  8
0
 62
     3
100
AcDbLine
 10
-298.9104094277968
 20
-199.1567247834647
 30
0.0
 11
-298.9471294677969
 21
-199.2396456134648
 31
0.0
  0
LINE
  5
10AD
330
6B
100
AcDbEntity
  8
0
 62
     3
100
AcDbLine
 10
-298.9471294677969
 20
-199.2396456134648
 30
0.0
 11
-298.9810933977969
 21
-199.3310705134647
 31
0.0
  0
LINE
  5
10AE
330
6B
100
AcDbEntity
  8
0
 62
     3
100
AcDbLine
 10
-298.9810933977969
 20
-199.3310705134647
 30
0.0
 11
-299.0120386977969
 21
-199.4302928234647
 31
0.0
  0
LINE
  5
10AF
330
6B
100
AcDbEntity
  8
0
 62
     3
100
AcDbLine
 10
-299.0120386977969
 20
-199.4302928234647
 30
0.0
 11
-299.0397261777969
 21
-199.5365455934647
 31
0.0
  0
LINE
  5
10B0
330
6B
100
AcDbEntity
  8
0
 62
     3
100
AcDbLine
 10
-299.0397261777969
 20
-199.5365455934647
 30
0.0
 11
-299.0639418277968
 21
-199.6490075534648
 31
0.0
  0
LINE
  5
10B1
330
6B
100
AcDbEntity
  8
0
 62
     3
100
AcDbLine
 10
-299.0639418277968
 20
-199.6490075534648
 30
0.0
 11
-299.0844984677968
 21
-199.7668094334648
 31
0.0
  0
LINE
  5
10B2
330
6B
100
AcDbEntity
  8
0
 62
     3
100
AcDbLine
 10
-299.0844984677968
 20
-199.7668094334648
 30
0.0
 11
-299.1012372077969
 21
-199.8890406734647
 31
0.0
  0
LINE
  5
10B3
330
6B
100
AcDbEntity
  8
0
 62
     3
100
AcDbLine
 10
-299.1012372077969
 20
-199.8890406734647
 30
0.0
 11
-299.1140286677969
 21
-200.0147564934648
 31
0.0
  0
LINE
  5
10B4
330
6B
100
AcDbEntity
  8
0
 62
     3
100
AcDbLine
 10
-299.1140286677969
 20
-200.0147564934648
 30
0.0
 11
-299.1227739777968
 21
-200.1429851734648
 31
0.0
  0
LINE
  5
10B5
330
6B
100
AcDbEntity
  8
0
 62
     3
100
AcDbLine
 10
-299.1227739777968
 20
-200.1429851734648
 30
0.0
 11
-299.1274055377969
 21
-200.2727355834648
 31
0.0
  0
LINE
  5
10B6
330
6B
100
AcDbEntity
  8
0
 62
     3
100
AcDbLine
 10
-299.1274055377969
 20
-200.2727355834648
 30
0.0
 11
-299.127887547797
 21
-200.4030048034648
 31
0.0
  0
LINE
  5
10B7
330
6B
100
AcDbEntity
  8
0
 62
     3
100
AcDbLine
 10
-299.127887547797
 20
-200.4030048034648
 30
0.0
 11
-299.1242162877968
 21
-200.5327859334648
 31
0.0
  0
LINE
  5
10B8
330
6B
100
AcDbEntity
  8
0
 62
     3
100
AcDbLine
 10
-299.1242162877968
 20
-200.5327859334648
 30
0.0
 11
-299.1164201277968
 21
-200.6610758234648
 31
0.0
  0
LINE
  5
10B9
330
6B
100
AcDbEntity
  8
0
 62
     3
100
AcDbLine
 10
-299.1164201277968
 20
-200.6610758234648
 30
0.0
 11
-299.1045593277968
 21
-200.7868828634648
 31
0.0
  0
LINE
  5
10BA
330
6B
100
AcDbEntity
  8
0
 62
     3
100
AcDbLine
 10
-299.1045593277968
 20
-200.7868828634648
 30
0.0
 11
-299.0887255777968
 21
-200.9092346234647
 31
0.0
  0
LINE
  5
10BB
330
6B
100
AcDbEntity
  8
0
 62
     3
100
AcDbLine
 10
-299.0887255777968
 20
-200.9092346234647
 30
0.0
 11
-299.0690412477968
 21
-201.0271853934648
 31
0.0
  0
LINE
  5
10BC
330
6B
100
AcDbEntity
  8
0
 62
     3
100
AcDbLine
 10
-299.0690412477968
 20
-201.0271853934648
 30
0.0
 11
-299.0456584977969
 21
-201.1398234734647
 31
0.0
  0
LINE
  5
10BD
330
6B
100
AcDbEntity
  8
0
 62
     3
100
AcDbLine
 10
-299.0456584977969
 20
-201.1398234734647
 30
0.0
 11
-299.0187580577968
 21
-201.2462782334648
 31
0.0
  0
LINE
  5
10BE
330
6B
100
AcDbEntity
  8
0
 62
     3
100
AcDbLine
 10
-299.0187580577968
 20
-201.2462782334648
 30
0.0
 11
-298.9885478577969
 21
-201.3457268134648
 31
0.0
  0
LINE
  5
10BF
330
6B
100
AcDbEntity
  8
0
 62
     3
100
AcDbLine
 10
-298.9885478577969
 20
-201.3457268134648
 30
0.0
 11
-298.9552614177969
 21
-201.4374005534647
 31
0.0
  0
LINE
  5
10C0
330
6B
100
AcDbEntity
  8
0
 62
     3
100
AcDbLine
 10
-298.9552614177969
 20
-201.4374005534647
 30
0.0
 11
-298.9191560077968
 21
-201.5205908434647
 31
0.0
  0
LINE
  5
10C1
330
6B
100
AcDbEntity
  8
0
 62
     3
100
AcDbLine
 10
-298.9191560077968
 20
-201.5205908434647
 30
0.0
 11
-298.8805107077969
 21
-201.5946546834648
 31
0.0
  0
LINE
  5
10C2
330
6B
100
AcDbEntity
  8
0
 62
     3
100
AcDbLine
 10
-298.8805107077969
 20
-201.5946546834648
 30
0.0
 11
-298.8396242277968
 21
-201.6590195734648
 31
0.0
  0
LINE
  5
10C3
330
6B
100
AcDbEntity
  8
0
 62
     3
100
AcDbLine
 10
-298.8396242277968
 20
-201.6590195734648
 30
0.0
 11
-298.7968126077969
 21
-201.7131880234648
 31
0.0
  0
LINE
  5
10C4
330
6B
100
AcDbEntity
  8
0
 62
     3
100
AcDbLine
 10
-298.7968126077969
 20
-201.7131880234648
 30
0.0
 11
-298.7524067577968
 21
-201.7567413434647
 31
0.0
  0
LINE
  5
10C5
330
6B
100
AcDbEntity
  8
0
 62
     3
100
AcDbLine
 10
-298.7524067577968
 20
-201.7567413434647
 30
0.0
 11
-298.706749897797
 21
-201.7893428734648
 31
0.0
  0
LINE
  5
10C6
330
6B
100
AcDbEntity
  8
0
 62
     3
100
AcDbLine
 10
-298.706749897797
 20
-201.7893428734648
 30
0.0
 11
-298.6601949377968
 21
-201.8107406234648
 31
0.0
  0
LINE
  5
10C7
330
6B
100
AcDbEntity
  8
0
 62
     3
100
AcDbLine
 10
-298.6601949377968
 20
-201.8107406234648
 30
0.0
 11
-298.6131017377968
 21
-201.8207692134648
 31
0.0
  0
LINE
  5
10C8
330
6B
100
AcDbEntity
  8
0
 62
     3
100
AcDbLine
 10
-298.6131017377968
 20
-201.8207692134648
 30
0.0
 11
-298.5658342777968
 21
-201.8193511134648
 31
0.0
  0
LINE
  5
10C9
330
6B
100
AcDbEntity
  8
0
 62
     3
100
AcDbLine
 10
-298.5658342777968
 20
-201.8193511134648
 30
0.0
 11
-298.5187579377969
 21
-201.8064972934648
 31
0.0
  0
LINE
  5
10CA
330
6B
100
AcDbEntity
  8
0
 62
     3
100
AcDbLine
 10
-298.5187579377969
 20
-201.8064972934648
 30
0.0
 11
-298.4722365777968
 21
-201.7823070934648
 31
0.0
  0
LINE
  5
10CB
330
6B
100
AcDbEntity
  8
0
 62
     3
100
AcDbLine
 10
-298.4722365777968
 20
-201.7823070934648
 30
0.0
 11
-298.4266297877969
 21
-201.7469675134648
 31
0.0
  0
LINE
  5
10CC
330
6B
100
AcDbEntity
  8
0
 62
     3
100
AcDbLine
 10
-298.4266297877969
 20
-201.7469675134648
 30
0.0
 11
-298.3822900877968
 21
-201.7007516834648
 31
0.0
  0
LINE
  5
10CD
330
6B
100
AcDbEntity
  8
0
 62
     3
100
AcDbLine
 10
-298.3822900877968
 20
-201.7007516834648
 30
0.0
 11
-298.3395601977968
 21
-201.6440168534648
 31
0.0
  0
LINE
  5
10CE
330
6B
100
AcDbEntity
  8
0
 62
     3
100
AcDbLine
 10
-298.3395601977968
 20
-201.6440168534648
 30
0.0
 11
-298.2987703977969
 21
-201.5772015334648
 31
0.0
  0
LINE
  5
10CF
330
6B
100
AcDbEntity
  8
0
 62
     3
100
AcDbLine
 10
-298.2987703977969
 20
-201.5772015334648
 30
0.0
 11
-298.2602359677969
 21
-201.5008221934647
 31
0.0
  0
LINE
  5
10D0
330
6B
100
AcDbEntity
  8
0
 62
     3
100
AcDbLine
 10
-298.2602359677969
 20
-201.5008221934647
 30
0.0
 11
-298.2242547677969
 21
-201.4154691834647
 31
0.0
  0
LINE
  5
10D1
330
6B
100
AcDbEntity
  8
0
 62
     3
100
AcDbLine
 10
-298.2242547677969
 20
-201.4154691834647
 30
0.0
 11
-298.1911049077968
 21
-201.3218022534648
 31
0.0
  0
LINE
  5
10D2
330
6B
100
AcDbEntity
  8
0
 62
     3
100
AcDbLine
 10
-298.1911049077968
 20
-201.3218022534648
 30
0.0
 11
-298.1610426277969
 21
-201.2205453934648
 31
0.0
  0
LINE
  5
10D3
330
6B
100
AcDbEntity
  8
0
 62
     3
100
AcDbLine
 10
-298.1610426277969
 20
-201.2205453934648
 30
0.0
 11
-298.1343002777968
 21
-201.1124812734648
 31
0.0
  0
LINE
  5
10D4
330
6B
100
AcDbEntity
  8
0
 62
     3
100
AcDbLine
 10
-298.1343002777968
 20
-201.1124812734648
 30
0.0
 11
-298.1110845777969
 21
-200.9984451634648
 31
0.0
  0
LINE
  5
10D5
330
6B
100
AcDbEntity
  8
0
 62
     3
100
AcDbLine
 10
-298.1110845777969
 20
-200.9984451634648
 30
0.0
 11
-298.0915749677969
 21
-200.8793185134648
 31
0.0
  0
TEXT
  5
10D6
330
6B
100
AcDbEntity
  8
0
  6
Continuous
 62
     4
100
AcDbText
 10
-249.5737541977578
 20
-274.8536497180874
 30
0.0
 40
3.0
  1
52
 50
90.0
100
AcDbText
  0
LINE
  5
10D7
330
6B
100
AcDbEntity
  8
0
  6
ByBlock
 62
     0
370
    -2
100
AcDbLine
 10
-248.2788816977578
 20
-295.8536502545291
 30
0.0
 11
-248.9487541977578
 21
-298.3536502545291
 31
0.0
  0
LINE
  5
10D8
330
6B
100
AcDbEntity
  8
0
  6
ByBlock
 62
     0
370
    -2
100
AcDbLine
 10
-248.9487541977578
 20
-298.3536502545291
 30
0.0
 11
-249.6186266977578
 21
-295.8536502545291
 31
0.0
  0
LINE
  5
10D9
330
6B
100
AcDbEntity
  8
0
  6
ByBlock
 62
     0
370
    -2
100
AcDbLine
 10
-248.9487541977578
 20
-298.3536502545291
 30
0.0
 11
-248.9487541977578
 21
-295.8536502545291
 31
0.0
  0
LINE
  5
10DA
330
6B
100
AcDbEntity
  8
0
  6
ByBlock
 62
     0
370
    -2
100
AcDbLine
 10
-249.6186266977578
 20
-248.8536491816455
 30
0.0
 11
-248.9487541977578
 21
-246.3536491816455
 31
0.0
  0
LINE
  5
10DB
330
6B
100
AcDbEntity
  8
0
  6
ByBlock
 62
     0
370
    -2
100
AcDbLine
 10
-248.9487541977578
 20
-246.3536491816455
 30
0.0
 11
-248.2788816977578
 21
-248.8536491816455
 31
0.0
  0
LINE
  5
10DC
330
6B
100
AcDbEntity
  8
0
  6
ByBlock
 62
     0
370
    -2
100
AcDbLine
 10
-248.9487541977578
 20
-246.3536491816455
 30
0.0
 11
-248.9487541977578
 21
-248.8536491816455
 31
0.0
  0
TEXT
  5
10DD
330
6B
100
AcDbEntity
  8
0
  6
Continuous
 62
     4
100
AcDbText
 10
-229.6964675111249
 20
-232.3255090228833
 30
0.0
 40
3.0
  1
32
100
AcDbText
  0
LINE
  5
10DE
330
6B
100
AcDbEntity
  8
0
  6
ByBlock
 62
     0
370
    -2
100
AcDbLine
 10
-240.2164697845393
 20
-233.6203815228833
 30
0.0
 11
-242.7164697845393
 21
-232.9505090228833
 31
0.0
  0
LINE
  5
10DF
330
6B
100
AcDbEntity
  8
0
  6
ByBlock
 62
     0
370
    -2
100
AcDbLine
 10
-242.7164697845393
 20
-232.9505090228833
 30
0.0
 11
-240.2164697845393
 21
-232.2806365228833
 31
0.0
  0
LINE
  5
10E0
330
6B
100
AcDbEntity
  8
0
  6
ByBlock
 62
     0
370
    -2
100
AcDbLine
 10
-242.7164697845393
 20
-232.9505090228833
 30
0.0
 11
-240.2164697845393
 21
-232.9505090228833
 31
0.0
  0
LINE
  5
10E1
330
6B
100
AcDbEntity
  8
0
  6
ByBlock
 62
     0
370
    -2
100
AcDbLine
 10
-213.2164682646208
 20
-232.2806365228833
 30
0.0
 11
-210.7164682646208
 21
-232.9505090228833
 31
0.0
  0
LINE
  5
10E2
330
6B
100
AcDbEntity
  8
0
  6
ByBlock
 62
     0
370
    -2
100
AcDbLine
 10
-210.7164682646208
 20
-232.9505090228833
 30
0.0
 11
-213.2164682646208
 21
-233.6203815228833
 31
0.0
  0
LINE
  5
10E3
330
6B
100
AcDbEntity
  8
0
  6
ByBlock
 62
     0
370
    -2
100
AcDbLine
 10
-210.7164682646208
 20
-232.9505090228833
 30
0.0
 11
-213.2164682646208
 21
-232.9505090228833
 31
0.0
  0
TEXT
  5
10E4
330
6B
100
AcDbEntity
  8
0
  6
Continuous
 62
     4
100
AcDbText
 10
-375.1799595554912
 20
-226.7927582447567
 30
0.0
 40
3.0
  1
33.6
100
AcDbText
  0
LINE
  5
10E5
330
6B
100
AcDbEntity
  8
0
  6
ByBlock
 62
     0
370
    -2
100
AcDbLine
 10
-356.5435045728738
 20
-226.7478857447567
 30
0.0
 11
-354.0435045728738
 21
-227.4177582447567
 31
0.0
  0
LINE
  5
10E6
330
6B
100
AcDbEntity
  8
0
  6
ByBlock
 62
     0
370
    -2
100
AcDbLine
 10
-354.0435045728738
 20
-227.4177582447567
 30
0.0
 11
-356.5435045728738
 21
-228.0876307447567
 31
0.0
  0
LINE
  5
10E7
330
6B
100
AcDbEntity
  8
0
  6
ByBlock
 62
     0
370
    -2
100
AcDbLine
 10
-354.0435045728738
 20
-227.4177582447567
 30
0.0
 11
-356.5435045728738
 21
-227.4177582447567
 31
0.0
  0
LINE
  5
10E8
330
6B
100
AcDbEntity
  8
0
  6
ByBlock
 62
     0
370
    -2
100
AcDbLine
 10
-385.1435033748204
 20
-228.0876307447567
 30
0.0
 11
-387.6435033748204
 21
-227.4177582447567
 31
0.0
  0
LINE
  5
10E9
330
6B
100
AcDbEntity
  8
0
  6
ByBlock
 62
     0
370
    -2
100
AcDbLine
 10
-387.6435033748204
 20
-227.4177582447567
 30
0.0
 11
-385.1435033748204
 21
-226.7478857447567
 31
0.0
  0
LINE
  5
10EA
330
6B
100
AcDbEntity
  8
0
  6
ByBlock
 62
     0
370
    -2
100
AcDbLine
 10
-387.6435033748204
 20
-227.4177582447567
 30
0.0
 11
-385.1435033748204
 21
-227.4177582447567
 31
0.0
  0
TEXT
  5
10EB
330
6B
100
AcDbEntity
  8
0
  6
Continuous
 62
     4
100
AcDbText
 10
-299.1652784681382
 20
-230.62445155559
 30
0.0
 40
3.0
  1
17.5
100
AcDbText
  0
LINE
  5
10EC
330
6B
100
AcDbEntity
  8
0
  6
ByBlock
 62
     0
370
    -2
100
AcDbLine
 10
-288.6392411919983
 20
-230.57957905559
 30
0.0
 11
-286.1392411919983
 21
-231.24945155559
 31
0.0
  0
LINE
  5
10ED
330
6B
100
AcDbEntity
  8
0
  6
ByBlock
 62
     0
370
    -2
100
AcDbLine
 10
-286.1392411919983
 20
-231.24945155559
 30
0.0
 11
-288.6392411919983
 21
-231.91932405559
 31
0.0
  0
LINE
  5
10EE
330
6B
100
AcDbEntity
  8
0
  6
ByBlock
 62
     0
370
    -2
100
AcDbLine
 10
-286.1392411919983
 20
-231.24945155559
 30
0.0
 11
-288.6392411919983
 21
-231.24945155559
 31
0.0
  0
LINE
  5
10EF
330
6B
100
AcDbEntity
  8
0
  6
ByBlock
 62
     0
370
    -2
100
AcDbLine
 10
-301.1392413261087
 20
-231.91932405559
 30
0.0
 11
-303.6392413261087
 21
-231.24945155559
 31
0.0
  0
LINE
  5
10F0
330
6B
100
AcDbEntity
  8
0
  6
ByBlock
 62
     0
370
    -2
100
AcDbLine
 10
-303.6392413261087
 20
-231.24945155559
 30
0.0
 11
-301.1392413261087
 21
-230.57957905559
 31
0.0
  0
LINE
  5
10F1
330
6B
100
AcDbEntity
  8
0
  6
ByBlock
 62
     0
370
    -2
100
AcDbLine
 10
-303.6392413261087
 20
-231.24945155559
 30
0.0
 11
-301.1392413261087
 21
-231.24945155559
 31
0.0
  0
TEXT
  5
10F2
330
6B
100
AcDbEntity
  8
0
  6
Continuous
 62
     4
100
AcDbText
 10
-301.1679067838068
 20
-225.1943533078067
 30
0.0
 40
3.0
  1
22.5
100
AcDbText
  0
LINE
  5
10F3
330
6B
100
AcDbEntity
  8
0
  6
ByBlock
 62
     0
370
    -2
100
AcDbLine
 10
-288.6392411919983
 20
-225.1494808078067
 30
0.0
 11
-286.1392411919983
 21
-225.8193533078067
 31
0.0
  0
LINE
  5
10F4
330
6B
100
AcDbEntity
  8
0
  6
ByBlock
 62
     0
370
    -2
100
AcDbLine
 10
-286.1392411919983
 20
-225.8193533078067
 30
0.0
 11
-288.6392411919983
 21
-226.4892258078067
 31
0.0
  0
LINE
  5
10F5
330
6B
100
AcDbEntity
  8
0
  6
ByBlock
 62
     0
370
    -2
100
AcDbLine
 10
-286.1392411919983
 20
-225.8193533078067
 30
0.0
 11
-288.6392411919983
 21
-225.8193533078067
 31
0.0
  0
LINE
  5
10F6
330
6B
100
AcDbEntity
  8
0
  6
ByBlock
 62
     0
370
    -2
100
AcDbLine
 10
-306.13924121435
 20
-226.4892258078067
 30
0.0
 11
-308.63924121435
 21
-225.8193533078067
 31
0.0
  0
LINE
  5
10F7
330
6B
100
AcDbEntity
  8
0
  6
ByBlock
 62
     0
370
    -2
100
AcDbLine
 10
-308.63924121435
 20
-225.8193533078067
 30
0.0
 11
-306.13924121435
 21
-225.1494808078067
 31
0.0
  0
LINE
  5
10F8
330
6B
100
AcDbEntity
  8
0
  6
ByBlock
 62
     0
370
    -2
100
AcDbLine
 10
-308.63924121435
 20
-225.8193533078067
 30
0.0
 11
-306.13924121435
 21
-225.8193533078067
 31
0.0
  0
TEXT
  5
10F9
330
6B
100
AcDbEntity
  8
0
  6
Continuous
 62
     4
100
AcDbText
 10
-398.761784598079
 20
-276.5562736755451
 30
0.0
 40
3.0
  1
71
 50
90.0
100
AcDbText
  0
LINE
  5
10FA
330
6B
100
AcDbEntity
  8
0
  6
ByBlock
 62
     0
370
    -2
100
AcDbLine
 10
-397.466912098079
 20
-305.3536497180872
 30
0.0
 11
-398.136784598079
 21
-307.8536497180873
 31
0.0
  0
LINE
  5
10FB
330
6B
100
AcDbEntity
  8
0
  6
ByBlock
 62
     0
370
    -2
100
AcDbLine
 10
-398.136784598079
 20
-307.8536497180873
 30
0.0
 11
-398.8066570980791
 21
-305.3536497180872
 31
0.0
  0
LINE
  5
10FC
330
6B
100
AcDbEntity
  8
0
  6
ByBlock
 62
     0
370
    -2
100
AcDbLine
 10
-398.136784598079
 20
-307.8536497180873
 30
0.0
 11
-398.136784598079
 21
-305.3536497180872
 31
0.0
  0
LINE
  5
10FD
330
6B
100
AcDbEntity
  8
0
  6
ByBlock
 62
     0
370
    -2
100
AcDbLine
 10
-398.8066570980791
 20
-239.3536497180873
 30
0.0
 11
-398.136784598079
 21
-236.8536497180873
 31
0.0
  0
LINE
  5
10FE
330
6B
100
AcDbEntity
  8
0
  6
ByBlock
 62
     0
370
    -2
100
AcDbLine
 10
-398.136784598079
 20
-236.8536497180873
 30
0.0
 11
-397.466912098079
 21
-239.3536497180873
 31
0.0
  0
LINE
  5
10FF
330
6B
100
AcDbEntity
  8
0
  6
ByBlock
 62
     0
370
    -2
100
AcDbLine
 10
-398.136784598079
 20
-236.8536497180873
 30
0.0
 11
-398.136784598079
 21
-239.3536497180873
 31
0.0
  0
ENDSEC
  0
SECTION
  2
OBJECTS
  0
DICTIONARY
  5
C
330
0
100
AcDbDictionary
281
     1
  3
ACAD_2007HEADERVARS_RT
350
1104
  3
ACAD_COLOR
350
62
  3
ACAD_GROUP
350
D
  3
ACAD_LAYOUT
350
61
  3
ACAD_MATERIAL
350
10
  3
ACAD_MLEADERSTYLE
350
65
  3
ACAD_MLINESTYLE
350
5E
  3
ACAD_PLOTSETTINGS
350
60
  3
ACAD_PLOTSTYLENAME
350
E
  3
ACAD_SCALELIST
350
42
  3
ACAD_TABLESTYLE
350
63
  3
ACAD_VISUALSTYLE
350
29
  3
ACDB_RECOMPOSE_DATA
350
1102
  3
AcDbVariableDictionary
350
FAD
  3
AEC_PROPERTY_SET_DEFS
350
54A
  3
DWGPROPS
350
1103
  0
DICTIONARY
  5
542
330
2
100
AcDbDictionary
280
     1
281
     1
  3
ACAD_LAYERSTATES
360
543
  0
DICTIONARY
  5
FAB
330
54
100
AcDbDictionary
280
     1
281
     1
  3
ADSK_XREC_LAYER_RECONCILED
360
FAC
  0
DICTIONARY
  5
982
330
6B
100
AcDbDictionary
280
     1
281
     1
  3
ACAD_SORTENTS
360
983
  0
DICTIONARY
  5
1104
102
{ACAD_REACTORS
330
C
102
}
330
C
100
AcDbDictionary
281
     1
  3
DIMARCSYM
350
1106
  3
DIMFXL
350
1105
  3
DIMJOGANG
350
1107
  0
DICTIONARY
  5
62
102
{ACAD_REACTORS
330
C
102
}
330
C
100
AcDbDictionary
281
     1
  0
DICTIONARY
  5
D
102
{ACAD_REACTORS
330
C
102
}
330
C
100
AcDbDictionary
281
     1
  0
DICTIONARY
  5
61
102
{ACAD_REACTORS
330
C
102
}
330
C
100
AcDbDictionary
281
     1
  3
Model
350
6E
  3
レイアウト1
350
6A
  0
DICTIONARY
  5
10
102
{ACAD_REACTORS
330
C
102
}
330
C
100
AcDbDictionary
281
     1
  3
ByBlock
350
19
  3
ByLayer
350
11
  3
Global
350
21
  0
DICTIONARY
  5
65
102
{ACAD_REACTORS
330
C
102
}
330
C
100
AcDbDictionary
281
     1
  3
Standard
350
66
  0
DICTIONARY
  5
5E
102
{ACAD_REACTORS
330
C
102
}
330
C
100
AcDbDictionary
281
     1
  3
Standard
350
5F
  0
DICTIONARY
  5
60
102
{ACAD_REACTORS
330
C
102
}
330
C
100
AcDbDictionary
281
     1
  0
ACDBDICTIONARYWDFLT
  5
E
102
{ACAD_REACTORS
330
C
102
}
330
C
100
AcDbDictionary
281
     1
  3
Normal
350
F
100
AcDbDictionaryWithDefault
340
F
  0
DICTIONARY
  5
42
102
{ACAD_REACTORS
330
C
102
}
330
C
100
AcDbDictionary
281
     1
  3
A0
350
43
  3
A1
350
44
  3
A2
350
45
  3
A3
350
46
  3
A4
350
47
  3
A5
350
48
  3
A6
350
49
  3
A7
350
4A
  3
A8
350
4B
  3
A9
350
4C
  3
B0
350
4D
  3
B1
350
4E
  3
B2
350
4F
  3
B3
350
50
  3
B4
350
51
  3
B5
350
52
  3
B6
350
53
  0
DICTIONARY
  5
63
102
{ACAD_REACTORS
330
C
102
}
330
C
100
AcDbDictionary
281
     1
  3
Standard
350
64
  0
DICTIONARY
  5
29
102
{ACAD_REACTORS
330
C
102
}
330
C
100
AcDbDictionary
281
     1
  3
2dWireframe
350
2F
  3
3dWireframe
350
5E6
  3
Basic
350
2E
  3
Brighten
350
35
  3
ColorChange
350
39
  3
Conceptual
350
32
  3
Dim
350
34
  3
EdgeColorOff
350
41
  3
Facepattern
350
38
  3
Flat
350
2A
  3
FlatWithEdges
350
2B
  3
Gouraud
350
2C
  3
GouraudWithEdges
350
2D
  3
Hidden
350
31
  3
JitterOff
350
3F
  3
Linepattern
350
37
  3
OverhangOff
350
40
  3
Realistic
350
33
  3
Shaded
350
3E
  3
Shaded with edges
350
3D
  3
Shades of Gray
350
3A
  3
Sketchy
350
3B
  3
Thicken
350
36
  3
Wireframe
350
30
  3
X-Ray
350
3C
  0
XRECORD
  5
1102
102
{ACAD_REACTORS
330
C
102
}
330
C
100
AcDbXrecord
280
     1
 90
        1
330
64
  0
DICTIONARY
  5
FAD
102
{ACAD_REACTORS
330
C
102
}
330
C
100
AcDbDictionary
281
     1
  3
CANNOSCALE
350
FB0
  3
CMLEADERSTYLE
350
FAF
  3
CTABLESTYLE
350
FAE
  3
DIMASSOC
350
FB3
  3
INDEXCTL
350
FB2
  3
SORTENTS
350
FB1
  3
XCLIPFRAME
350
1100
  0
DICTIONARY
  5
54A
102
{ACAD_REACTORS
330
C
102
}
330
C
100
AcDbDictionary
281
     1
  0
XRECORD
  5
1103
102
{ACAD_REACTORS
330
C
102
}
330
C
100
AcDbXrecord
280
     1
  1
DWGPROPS COOKIE
  2

  3

  4

  6

  7

  8
imamura
  9

300
=
301
=
302
=
303
=
304
=
305
=
306
=
307
=
308
=
309
=
 40
0.021342337962963
 41
2457240.399584248
 42
2457240.471952419
  1

 90
        0
  0
DICTIONARY
  5
543
102
{ACAD_REACTORS
330
542
102
}
330
542
100
AcDbDictionary
281
     1
  0
XRECORD
  5
FAC
102
{ACAD_REACTORS
330
FAB
102
}
330
FAB
100
AcDbXrecord
280
     1
290
     1
  0
SORTENTSTABLE
  5
983
102
{ACAD_REACTORS
330
982
102
}
330
982
100
AcDbSortentsTable
330
6B
331
10D7
  5
10D1
331
10D3
  5
C4B
331
10CF
  5
C47
331
10CB
  5
C43
331
C96
  5
ED8
331
E66
  5
10DE
331
D0C
  5
F3E
331
C92
  5
ED4
331
D87
  5
F7B
331
CCD
  5
F09
331
E62
  5
10DA
331
D08
  5
F3A
331
F1C
  5
C02
331
CC9
  5
F05
331
D83
  5
F77
331
C8A
  5
ECE
331
D04
  5
F36
331
E5E
  5
10D6
331
F57
  5
C8F
331
F18
  5
BFE
331
EDD
  5
BC3
331
D00
  5
F32
331
F53
  5
C8A
331
ED9
  5
BBF
331
1096
  5
CE3
331
F14
  5
BFA
331
F8E
  5
CCF
331
F10
  5
BF6
331
BB7
  5
CD3
331
F8A
  5
CCB
331
C54
  5
E60
331
C2E
  5
D9A
331
C50
  5
E23
331
C2A
  5
D96
331
C04
  5
D70
331
BEE
  5
D5A
331
45F
  5
45F
331
C00
  5
D6C
331
BEA
  5
D56
331
10C7
  5
C3F
331
10C3
  5
C3B
331
10FE
  5
108E
331
10BF
  5
C36
331
10FA
  5
1093
331
10BB
  5
C2E
331
CC5
  5
F01
331
D7F
  5
F73
331
C86
  5
ECA
331
CC1
  5
EFD
331
D7B
  5
F6F
331
C82
  5
EC6
331
CFC
  5
F2E
331
DB6
  5
107F
331
F4F
  5
C7C
331
ED5
  5
BBB
331
CBD
  5
EF9
331
D77
  5
F6B
331
C7E
  5
E83
331
DB2
  5
107B
331
ED1
  5
BB7
331
108E
  5
1088
331
F0C
  5
BF2
331
CB9
  5
EF5
331
D73
  5
F67
331
C7A
  5
E7F
331
CF4
  5
F2A
331
DAE
  5
1077
331
F47
  5
C78
331
F86
  5
CC7
331
F08
  5
BEE
331
ECD
  5
600
331
CF0
  5
F26
331
F43
  5
C74
331
EC9
  5
5FC
331
F82
  5
CC3
331
F04
  5
BEA
331
1082
  5
10AE
331
C4C
  5
DDD
331
F7E
  5
CBF
331
F00
  5
BE6
331
C26
  5
D92
331
C48
  5
DBB
331
F7A
  5
CBB
331
C22
  5
D8E
331
BFC
  5
D68
331
BE6
  5
D0E
331
C44
  5
DB7
331
C1E
  5
D8A
331
BF8
  5
D64
331
BE2
  5
D0A
331
C40
  5
DB3
331
C1A
  5
D86
331
BF4
  5
D60
331
BDE
  5
D06
331
BF0
  5
D5C
331
BDA
  5
D02
331
10F6
  5
10A0
331
10B7
  5
C2A
331
10F2
  5
10AC
331
10B3
  5
C26
331
10EE
  5
10B5
331
10AF
  5
C22
331
10EA
  5
10BC
331
10AB
  5
C1E
331
CB5
  5
EF1
331
D6F
  5
F5D
331
C76
  5
E7B
331
CB1
  5
EEE
331
D6B
  5
F59
331
C72
  5
E77
331
CEC
  5
F22
331
F3F
  5
C6E
331
CAD
  5
EEC
331
D67
  5
F55
331
C6E
  5
E75
331
DA2
  5
1073
331
CE8
  5
F1E
331
F3B
  5
C66
331
EFC
  5
BE2
331
D63
  5
F51
331
CA9
  5
EE8
331
E7D
  5
10F5
331
CE4
  5
F1A
331
D9E
  5
106F
331
F37
  5
C62
331
F76
  5
CB7
331
EF8
  5
BDE
331
E79
  5
10F1
331
D9A
  5
F8F
331
F33
  5
C5E
331
1076
  5
10C2
331
F72
  5
CB2
331
EF4
  5
BDA
331
F6E
  5
CAC
331
EF0
  5
BD6
331
DBA
  5
1083
331
C3C
  5
DAF
331
C16
  5
D82
331
461
  5
461
331
C38
  5
DA4
331
F6A
  5
CA8
331
EBC
  5
10FE
331
C12
  5
D7E
331
BD6
  5
CFE
331
C34
  5
DA0
331
C0E
  5
D7A
331
BD2
  5
CFA
331
203
  5
203
331
C30
  5
D9C
331
C0A
  5
D76
331
BCE
  5
CF2
331
1FF
  5
1FF
331
BCA
  5
CEE
331
1FB
  5
1FB
331
10E6
  5
10BE
331
10A7
  5
C1A
331
10E2
  5
10C5
331
10A3
  5
C16
331
10DE
  5
10C7
331
109F
  5
C12
331
10DA
  5
10CE
331
109B
  5
C0E
331
CA5
  5
EE4
331
D5F
  5
F4D
331
C66
  5
E71
331
CA1
  5
EE0
331
E75
  5
10ED
331
D5B
  5
F49
331
C62
  5
E6D
331
D96
  5
F8A
331
F2F
  5
C5A
331
C9D
  5
EDD
331
D57
  5
F45
331
C5E
  5
E69
331
E71
  5
10E9
331
CD8
  5
F14
331
D92
  5
F86
331
F2B
  5
C56
331
106E
  5
10FA
331
EEC
  5
BD2
331
C99
  5
EDB
331
D53
  5
F41
331
C5A
  5
E65
331
E6D
  5
10E5
331
CD4
  5
F10
331
D8E
  5
F82
331
F27
  5
C51
331
F66
  5
CA4
331
EE8
  5
BCE
331
E69
  5
10E1
331
CD0
  5
F0C
331
D8A
  5
F7E
331
F62
  5
CA0
331
EE4
  5
BCA
331
F5E
  5
C99
331
EE0
  5
BC6
331
BC6
  5
CEA
331
F5A
  5
C93
331
1F7
  5
1F7
331
BC2
  5
CE6
331
1F3
  5
1F3
331
E84
  5
10FD
331
BBE
  5
CDA
331
1EF
  5
1EF
331
E80
  5
10F8
331
BBA
  5
CD6
331
1EB
  5
1EB
331
10D6
  5
10D4
331
10D2
  5
C4A
331
10CE
  5
C46
331
10CA
  5
C42
331
C95
  5
ED7
331
E65
  5
10DD
331
D0B
  5
F3D
331
C91
  5
ED3
331
F1F
  5
C05
331
CCC
  5
F08
331
D86
  5
F7A
331
C8D
  5
ED1
331
E61
  5
10D9
331
D07
  5
F39
331
F1B
  5
C01
331
CC8
  5
F04
331
D82
  5
F76
331
C89
  5
ECD
331
D03
  5
F35
331
E5D
  5
10D5
331
F56
  5
C8D
331
F17
  5
BFD
331
EDC
  5
BC2
331
F52
  5
C89
331
ED8
  5
BBE
331
1095
  5
CE2
331
F13
  5
BF9
331
F8D
  5
CCE
331
C57
  5
E62
331
F89
  5
CCA
331
BB6
  5
CD2
331
C53
  5
E5F
331
C2D
  5
D99
331
C07
  5
D73
331
C29
  5
D95
331
C03
  5
D6F
331
BED
  5
D59
331
BE9
  5
D55
331
10C6
  5
C3E
331
10C2
  5
C3A
331
10FD
  5
108D
331
10BE
  5
C35
331
10F9
  5
1099
331
10BA
  5
C2D
331
CC4
  5
F00
331
D7E
  5
F72
331
C85
  5
EC9
331
CFF
  5
F31
331
CC0
  5
EFC
331
D7A
  5
F6E
331
C81
  5
EBD
331
CFB
  5
F2D
331
DB5
  5
107E
331
F4E
  5
C7B
331
ED4
  5
BBA
331
F0F
  5
BF5
331
CBC
  5
EF8
331
D76
  5
F6A
331
C7D
  5
E82
331
DB1
  5
107A
331
ED0
  5
BB6
331
108D
  5
1087
331
F0B
  5
BF1
331
CB8
  5
EF4
331
D72
  5
F60
331
C79
  5
E7E
331
CF3
  5
F29
331
DAD
  5
1076
331
F46
  5
C77
331
1089
  5
109F
331
F85
  5
CC6
331
F07
  5
BED
331
ECC
  5
5FF
331
F42
  5
C73
331
EC8
  5
5FB
331
C4F
  5
E16
331
F81
  5
CC2
331
F03
  5
BE9
331
1081
  5
10AD
331
C4B
  5
DBE
331
F7D
  5
CBE
331
BFF
  5
D6B
331
C25
  5
D91
331
C47
  5
DBA
331
F79
  5
CBA
331
C21
  5
D8D
331
BFB
  5
D67
331
BE5
  5
D0D
331
C43
  5
DB6
331
C1D
  5
D89
331
BF7
  5
D63
331
BE1
  5
D09
331
C19
  5
D85
331
BF3
  5
D5F
331
BDD
  5
D05
331
20E
  5
20E
331
BD9
  5
D01
331
10F5
  5
10AB
331
10B6
  5
C29
331
10F1
  5
10B2
331
10B2
  5
C25
331
10ED
  5
10B4
331
10AE
  5
C21
331
10E9
  5
10BB
331
10AA
  5
C1D
331
CB4
  5
EF0
331
D6E
  5
F5C
331
C75
  5
E7A
331
CEF
  5
F25
331
D6A
  5
F58
331
C71
  5
E76
331
CEB
  5
F21
331
F3E
  5
C6D
331
EFF
  5
BE5
331
CAC
  5
EEB
331
D66
  5
F54
331
C6D
  5
E74
331
DA1
  5
1072
331
CE7
  5
F1D
331
F3A
  5
C65
331
107D
  5
10B9
331
EFB
  5
BE1
331
D62
  5
F50
331
CA8
  5
EE7
331
E7C
  5
10F4
331
CE3
  5
F19
331
D9D
  5
106E
331
F36
  5
C61
331
F75
  5
CB6
331
EF7
  5
BDD
331
E78
  5
10F0
331
D99
  5
F8E
331
F32
  5
C5D
331
1075
  5
10C1
331
DBD
  5
1086
331
F71
  5
CB1
331
C3F
  5
DB2
331
EF3
  5
BD9
331
1071
  5
10CD
331
F6D
  5
CAB
331
DB9
  5
1082
331
C3B
  5
DAE
331
C15
  5
D81
331
460
  5
460
331
C37
  5
DA3
331
F69
  5
CA7
331
C11
  5
D7D
331
BD5
  5
CFD
331
C33
  5
D9F
331
C0D
  5
D79
331
BD1
  5
CF9
331
202
  5
202
331
C09
  5
D75
331
BCD
  5
CF1
331
1FE
  5
1FE
331
BC9
  5
CED
331
1FA
  5
1FA
331
10E5
  5
10BD
331
10A6
  5
C19
331
10E1
  5
10C4
331
10A2
  5
C15
331
10DD
  5
10CA
331
109E
  5
C11
331
10D9
  5
10D3
331
109A
  5
C0D
331
CA4
  5
EE3
331
D5E
  5
F4C
331
C65
  5
E70
331
CA0
  5
EDF
331
D5A
  5
F48
331
C61
  5
E6C
331
E74
  5
10EC
331
CDB
  5
F17
331
D95
  5
F89
331
EEF
  5
BD5
331
F2E
  5
C59
331
D56
  5
F44
331
C5D
  5
E68
331
E70
  5
10E8
331
CD7
  5
F13
331
D91
  5
F85
331
F2A
  5
C54
331
EEB
  5
BD1
331
C98
  5
EDA
331
E6C
  5
10E4
331
CD3
  5
F0F
331
C59
  5
E64
331
D8D
  5
F81
331
F26
  5
C50
331
F65
  5
CA3
331
EE7
  5
BCD
331
E68
  5
10E0
331
D89
  5
F7D
331
F61
  5
C9F
331
EE3
  5
BC9
331
F22
  5
C08
331
F5D
  5
C98
331
BC5
  5
CE9
331
F59
  5
C92
331
1F6
  5
1F6
331
1F2
  5
1F2
331
E83
  5
10FC
331
BBD
  5
CD9
331
1EE
  5
1EE
331
BB9
  5
CD5
331
1EA
  5
1EA
331
10D5
  5
C4D
331
10D1
  5
C49
331
10CD
  5
C45
331
10C9
  5
C41
331
D0E
  5
F40
331
C94
  5
ED6
331
E64
  5
10DC
331
D0A
  5
F3C
331
CCF
  5
F0B
331
F1E
  5
C04
331
CCB
  5
F07
331
D85
  5
F79
331
C8C
  5
ED0
331
D06
  5
F38
331
E60
  5
10D8
331
EDF
  5
BC5
331
F1A
  5
C00
331
D81
  5
F75
331
C88
  5
ECC
331
D02
  5
F34
331
F55
  5
C8C
331
F16
  5
BFC
331
EDB
  5
BC1
331
F51
  5
C7E
331
1094
  5
CE5
331
F90
  5
CD1
331
F12
  5
BF8
331
F8C
  5
CCD
331
C56
  5
E61
331
F88
  5
CC9
331
C52
  5
E5E
331
C2C
  5
D98
331
C06
  5
D72
331
C28
  5
D94
331
C02
  5
D6E
331
BEC
  5
D58
331
BE8
  5
D54
331
10C5
  5
C3D
331
10C1
  5
C38
331
10FC
  5
1095
331
10BD
  5
C34
331
10F8
  5
10A5
331
CC7
  5
F03
331
10B9
  5
C2C
331
CC3
  5
EFF
331
D7D
  5
F71
331
C84
  5
EC8
331
CFE
  5
F30
331
ED7
  5
BBD
331
CBF
  5
EFB
331
D79
  5
F6D
331
C80
  5
EBC
331
CFA
  5
F2C
331
DB4
  5
107D
331
F0E
  5
BF4
331
ED3
  5
BB9
331
CBB
  5
EF7
331
D75
  5
F69
331
C7C
  5
E81
331
DB0
  5
1079
331
F49
  5
C7A
331
ECF
  5
602
331
F0A
  5
BF0
331
D71
  5
F5F
331
C78
  5
E7D
331
CF2
  5
F28
331
F45
  5
C76
331
1088
  5
109B
331
F84
  5
CC5
331
F06
  5
BEC
331
ECB
  5
5FE
331
F41
  5
C72
331
C4E
  5
E09
331
F80
  5
CC1
331
F02
  5
BE8
331
C4A
  5
DBD
331
F7C
  5
CBD
331
BFE
  5
D6A
331
C24
  5
D90
331
C46
  5
DB9
331
F78
  5
CB9
331
C20
  5
D8C
331
BFA
  5
D66
331
BE4
  5
D0C
331
425
  5
425
331
C42
  5
DB5
331
C1C
  5
D88
331
BF6
  5
D62
331
BE0
  5
D08
331
C18
  5
D84
331
BF2
  5
D5E
331
BDC
  5
D04
331
20D
  5
20D
331
BD8
  5
D00
331
10F4
  5
10A7
331
10B5
  5
C28
331
10F0
  5
10B1
331
10B1
  5
C24
331
10EC
  5
10B3
331
10AD
  5
C20
331
10E8
  5
10BA
331
CB7
  5
EF3
331
10A9
  5
C1C
331
D6D
  5
F5B
331
C74
  5
E79
331
CEE
  5
F24
331
EC7
  5
5FA
331
D69
  5
F57
331
DA4
  5
1075
331
CEA
  5
F20
331
F3D
  5
C6C
331
EFE
  5
BE4
331
CAB
  5
EEA
331
D65
  5
F53
331
C6C
  5
E73
331
E7F
  5
10F7
331
CE6
  5
F1C
331
DA0
  5
1071
331
F39
  5
C64
331
107C
  5
10B8
331
EFA
  5
BE0
331
D61
  5
F4F
331
E7B
  5
10F3
331
CE2
  5
F18
331
D9C
  5
106B
331
F35
  5
C60
331
F74
  5
CB5
331
EF6
  5
BDC
331
D98
  5
F8D
331
F31
  5
C5C
331
F70
  5
CAE
331
DBC
  5
1085
331
C3E
  5
DB1
331
463
  5
463
331
EF2
  5
BD8
331
1070
  5
10CC
331
DB8
  5
1081
331
F6C
  5
CAA
331
C14
  5
D80
331
C3A
  5
DAD
331
C36
  5
DA2
331
F68
  5
CA6
331
C10
  5
D7C
331
BD4
  5
CFC
331
C32
  5
D9E
331
C0C
  5
D78
331
BD0
  5
CF4
331
201
  5
201
331
C08
  5
D74
331
BCC
  5
CF0
331
1FD
  5
1FD
331
BC8
  5
CEC
331
1F9
  5
1F9
331
10E4
  5
10C0
331
10A5
  5
C18
331
10E0
  5
10C9
331
10A1
  5
C14
331
10DC
  5
10D0
331
109D
  5
C10
331
10D8
  5
10D2
331
CA7
  5
EE6
331
1099
  5
C0C
331
CA3
  5
EE2
331
E77
  5
10EF
331
D5D
  5
F4B
331
C64
  5
E6F
331
C9F
  5
EDE
331
D59
  5
F47
331
C60
  5
E6B
331
E73
  5
10EB
331
CDA
  5
F16
331
D94
  5
F88
331
F2D
  5
C58
331
EEE
  5
BD4
331
D55
  5
F43
331
C5C
  5
E67
331
E6F
  5
10E7
331
CD6
  5
F12
331
D90
  5
F84
331
F29
  5
C53
331
EEA
  5
BD0
331
E6B
  5
10E3
331
CD2
  5
F0E
331
C58
  5
E63
331
D8C
  5
F80
331
F25
  5
C4F
331
F64
  5
CA2
331
EE6
  5
BCC
331
D88
  5
F7C
331
F60
  5
C9D
331
EE2
  5
BC8
331
F21
  5
C07
331
F5C
  5
C97
331
BC4
  5
CE8
331
F58
  5
C91
331
1F5
  5
1F5
331
1F1
  5
1F1
331
E82
  5
10FB
331
BBC
  5
CD8
331
1ED
  5
1ED
331
BB8
  5
CD4
331
10D4
  5
C4C
331
10D0
  5
C48
331
10CC
  5
C44
331
C97
  5
ED9
331
10C8
  5
C40
331
E67
  5
10DF
331
D0D
  5
F3F
331
C93
  5
ED5
331
CCE
  5
F0A
331
E63
  5
10DB
331
D09
  5
F3B
331
C8F
  5
ED2
331
F1D
  5
C03
331
CCA
  5
F06
331
D84
  5
F78
331
C8B
  5
ECF
331
D05
  5
F37
331
E5F
  5
10D7
331
F19
  5
BFF
331
EDE
  5
BC4
331
D80
  5
F74
331
D01
  5
F33
331
F54
  5
C8B
331
EDA
  5
BC0
331
1097
  5
C0A
331
F15
  5
BFB
331
F50
  5
C7D
331
1093
  5
CE4
331
F8F
  5
CD0
331
F11
  5
BF7
331
F8B
  5
CCC
331
C2F
  5
D9B
331
C51
  5
E5D
331
C2B
  5
D97
331
C05
  5
D71
331
BEF
  5
D5B
331
C01
  5
D6D
331
BEB
  5
D57
331
10C4
  5
C3C
331
10FF
  5
108F
331
10C0
  5
C37
331
10FB
  5
1094
331
10BC
  5
C2F
331
CC6
  5
F02
331
10B8
  5
C2B
331
C87
  5
ECB
331
CC2
  5
EFE
331
D7C
  5
F70
331
C83
  5
EC7
331
CFD
  5
F2F
331
DB7
  5
1080
331
ED6
  5
BBC
331
CBE
  5
EFA
331
D78
  5
F6C
331
C7F
  5
E84
331
CF9
  5
F2B
331
DB3
  5
107C
331
108F
  5
1089
331
F0D
  5
BF3
331
ED2
  5
BB8
331
CBA
  5
EF6
331
D74
  5
F68
331
C7B
  5
E80
331
DAF
  5
1078
331
F48
  5
C79
331
ECE
  5
601
331
F87
  5
CC8
331
F09
  5
BEF
331
D70
  5
F5E
331
CF1
  5
F27
331
F44
  5
C75
331
ECA
  5
5FD
331
1087
  5
109A
331
F83
  5
CC4
331
F05
  5
BEB
331
F40
  5
C71
331
1083
  5
10AF
331
C4D
  5
DEA
331
F7F
  5
CC0
331
F01
  5
BE7
331
C27
  5
D93
331
C49
  5
DBC
331
F7B
  5
CBC
331
C23
  5
D8F
331
BFD
  5
D69
331
BE7
  5
D53
331
C45
  5
DB8
331
C1F
  5
D8B
331
BF9
  5
D65
331
BE3
  5
D0B
331
424
  5
424
331
C41
  5
DB4
331
C1B
  5
D87
331
BF5
  5
D61
331
BDF
  5
D07
331
BF1
  5
D5D
331
BDB
  5
D03
331
20C
  5
20C
331
208
  5
208
331
10F7
  5
10A1
331
10F3
  5
10A6
331
10B4
  5
C27
331
10EF
  5
10B0
331
10B0
  5
C23
331
10EB
  5
10B6
331
10AC
  5
C1F
331
CB6
  5
EF2
331
10A8
  5
C1B
331
C77
  5
E7C
331
CB2
  5
EEF
331
D6C
  5
F5A
331
C73
  5
E78
331
CED
  5
F23
331
EC6
  5
5F9
331
D68
  5
F56
331
CAE
  5
EED
331
DA3
  5
1074
331
CE9
  5
F1F
331
F3C
  5
C6B
331
EFD
  5
BE3
331
CAA
  5
EE9
331
D64
  5
F52
331
C6B
  5
E72
331
E7E
  5
10F6
331
CE5
  5
F1B
331
D9F
  5
1070
331
F38
  5
C63
331
107B
  5
10B7
331
F77
  5
CB8
331
EF9
  5
BDF
331
E7A
  5
10F2
331
D60
  5
F4E
331
D9B
  5
F90
331
F34
  5
C5F
331
1077
  5
10C3
331
F73
  5
CB4
331
EF5
  5
BDB
331
F30
  5
C5B
331
F6F
  5
CAD
331
EF1
  5
BD7
331
DBB
  5
1084
331
C3D
  5
DB0
331
C17
  5
D83
331
462
  5
462
331
EBD
  5
10FF
331
C13
  5
D7F
331
F6B
  5
CA9
331
BD7
  5
CFF
331
C35
  5
DA1
331
C0F
  5
D7B
331
BD3
  5
CFB
331
204
  5
204
331
C31
  5
D9D
331
C0B
  5
D77
331
BCF
  5
CF3
331
200
  5
200
331
BCB
  5
CEF
331
1FC
  5
1FC
331
1F8
  5
1F8
331
10E7
  5
10BF
331
10E3
  5
10C6
331
10A4
  5
C17
331
10DF
  5
10C8
331
10A0
  5
C13
331
10DB
  5
10CF
331
109C
  5
C0F
331
CA6
  5
EE5
331
1098
  5
C0B
331
CA2
  5
EE1
331
E76
  5
10EE
331
D5C
  5
F4A
331
C63
  5
E6E
331
D97
  5
F8C
331
D58
  5
F46
331
C5F
  5
E6A
331
E72
  5
10EA
331
CD9
  5
F15
331
D93
  5
F87
331
F2C
  5
C57
331
106F
  5
10CB
331
EED
  5
BD3
331
C9A
  5
EDC
331
D54
  5
F42
331
C5B
  5
E66
331
E6E
  5
10E6
331
CD5
  5
F11
331
D8F
  5
F83
331
F28
  5
C52
331
106B
  5
10F9
331
F67
  5
CA5
331
EE9
  5
BCF
331
E6A
  5
10E2
331
CD1
  5
F0D
331
D8B
  5
F7F
331
F24
  5
C4E
331
F63
  5
CA1
331
EE5
  5
BCB
331
F5F
  5
C9A
331
EE1
  5
BC7
331
F20
  5
C06
331
BC7
  5
CEB
331
F5B
  5
C94
331
BC3
  5
CE7
331
1F4
  5
1F4
331
BBF
  5
CDB
331
1F0
  5
1F0
331
BBB
  5
CD7
331
1EC
  5
1EC
  0
XRECORD
  5
1106
102
{ACAD_REACTORS
330
1104
102
}
330
1104
100
AcDbXrecord
280
     1
 70
     2
  0
XRECORD
  5
1105
102
{ACAD_REACTORS
330
1104
102
}
330
1104
100
AcDbXrecord
280
     1
 40
1.25
  0
XRECORD
  5
1107
102
{ACAD_REACTORS
330
1104
102
}
330
1104
100
AcDbXrecord
280
     1
 40
1.570796326794896
  0
LAYOUT
  5
6E
102
{ACAD_XDICTIONARY
360
113B
102
}
102
{ACAD_REACTORS
330
61
102
}
330
61
100
AcDbPlotSettings
  1

  2
FX DP 205
  4

  6

 40
0.0
 41
0.0
 42
0.0
 43
0.0
 44
0.0
 45
0.0
 46
0.0
 47
0.0
 48
0.0
 49
0.0
140
0.0
141
0.0
142
1.0
143
1.0
 70
  1712
 72
     0
 73
     0
 74
     0
  7

 75
     0
147
1.0
148
0.0
149
0.0
100
AcDbLayout
  1
Model
 70
     1
 71
     0
 10
0.0
 20
0.0
 11
12.0
 21
9.0
 12
0.0
 22
0.0
 32
0.0
 14
0.0
 24
0.0
 34
0.0
 15
0.0
 25
0.0
 35
0.0
146
0.0
 13
0.0
 23
0.0
 33
0.0
 16
1.0
 26
0.0
 36
0.0
 17
0.0
 27
1.0
 37
0.0
 76
     0
330
6B
331
8B
  0
LAYOUT
  5
6A
102
{ACAD_XDICTIONARY
360
1139
102
}
102
{ACAD_REACTORS
330
61
102
}
330
61
100
AcDbPlotSettings
  1

  2
FX DP 205
  4

  6

 40
0.0
 41
0.0
 42
0.0
 43
0.0
 44
0.0
 45
0.0
 46
0.0
 47
0.0
 48
0.0
 49
0.0
140
0.0
141
0.0
142
1.0
143
1.0
 70
   688
 72
     0
 73
     0
 74
     5
  7

 75
    16
147
1.0
148
0.0
149
0.0
100
AcDbLayout
  1
レイアウト1
 70
     1
 71
     1
 10
0.0
 20
0.0
 11
12.0
 21
9.0
 12
0.0
 22
0.0
 32
0.0
 14
1.000000000000000E+20
 24
1.000000000000000E+20
 34
1.000000000000000E+20
 15
-1.000000000000000E+20
 25
-1.000000000000000E+20
 35
-1.000000000000000E+20
146
0.0
 13
0.0
 23
0.0
 33
0.0
 16
1.0
 26
0.0
 36
0.0
 17
0.0
 27
1.0
 37
0.0
 76
     0
330
67
  0
MATERIAL
  5
19
102
{ACAD_XDICTIONARY
360
1A
102
}
102
{ACAD_REACTORS
330
10
102
}
330
10
100
AcDbMaterial
  1
ByBlock
 72
     0
 43
0.0208333333333333
 43
0.0
 43
0.0
 43
0.0
 43
0.0
 43
0.0208333333333333
 43
0.0
 43
0.0
 43
0.0
 43
0.0
 43
1.0
 43
0.0
 43
0.0
 43
0.0
 43
0.0
 43
1.0
 77
     0
 47
0.0208333333333333
 47
0.0
 47
0.0
 47
0.0
 47
0.0
 47
0.0208333333333333
 47
0.0
 47
0.0
 47
0.0
 47
0.0
 47
1.0
 47
0.0
 47
0.0
 47
0.0
 47
0.0
 47
1.0
171
     0
 49
0.0208333333333333
 49
0.0
 49
0.0
 49
0.0
 49
0.0
 49
0.0208333333333333
 49
0.0
 49
0.0
 49
0.0
 49
0.0
 49
1.0
 49
0.0
 49
0.0
 49
0.0
 49
0.0
 49
1.0
175
     0
142
0.0208333333333333
142
0.0
142
0.0
142
0.0
142
0.0
142
0.0208333333333333
142
0.0
142
0.0
142
0.0
142
0.0
142
1.0
142
0.0
142
0.0
142
0.0
142
0.0
142
1.0
179
     0
144
0.0208333333333333
144
0.0
144
0.0
144
0.0
144
0.0
144
0.0208333333333333
144
0.0
144
0.0
144
0.0
144
0.0
144
1.0
144
0.0
144
0.0
144
0.0
144
0.0
144
1.0
147
0.0208333333333333
147
0.0
147
0.0
147
0.0
147
0.0
147
0.0208333333333333
147
0.0
147
0.0
147
0.0
147
0.0
147
1.0
147
0.0
147
0.0
147
0.0
147
0.0
147
1.0
  0
MATERIAL
  5
11
102
{ACAD_XDICTIONARY
360
12
102
}
102
{ACAD_REACTORS
330
10
102
}
330
10
100
AcDbMaterial
  1
ByLayer
 72
     0
 43
0.0208333333333333
 43
0.0
 43
0.0
 43
0.0
 43
0.0
 43
0.0208333333333333
 43
0.0
 43
0.0
 43
0.0
 43
0.0
 43
1.0
 43
0.0
 43
0.0
 43
0.0
 43
0.0
 43
1.0
 77
     0
 47
0.0208333333333333
 47
0.0
 47
0.0
 47
0.0
 47
0.0
 47
0.0208333333333333
 47
0.0
 47
0.0
 47
0.0
 47
0.0
 47
1.0
 47
0.0
 47
0.0
 47
0.0
 47
0.0
 47
1.0
171
     0
 49
0.0208333333333333
 49
0.0
 49
0.0
 49
0.0
 49
0.0
 49
0.0208333333333333
 49
0.0
 49
0.0
 49
0.0
 49
0.0
 49
1.0
 49
0.0
 49
0.0
 49
0.0
 49
0.0
 49
1.0
175
     0
142
0.0208333333333333
142
0.0
142
0.0
142
0.0
142
0.0
142
0.0208333333333333
142
0.0
142
0.0
142
0.0
142
0.0
142
1.0
142
0.0
142
0.0
142
0.0
142
0.0
142
1.0
179
     0
144
0.0208333333333333
144
0.0
144
0.0
144
0.0
144
0.0
144
0.0208333333333333
144
0.0
144
0.0
144
0.0
144
0.0
144
1.0
144
0.0
144
0.0
144
0.0
144
0.0
144
1.0
147
0.0208333333333333
147
0.0
147
0.0
147
0.0
147
0.0
147
0.0208333333333333
147
0.0
147
0.0
147
0.0
147
0.0
147
1.0
147
0.0
147
0.0
147
0.0
147
0.0
147
1.0
  0
MATERIAL
  5
21
102
{ACAD_XDICTIONARY
360
22
102
}
102
{ACAD_REACTORS
330
10
102
}
330
10
100
AcDbMaterial
  1
Global
 72
     0
 43
0.0208333333333333
 43
0.0
 43
0.0
 43
0.0
 43
0.0
 43
0.0208333333333333
 43
0.0
 43
0.0
 43
0.0
 43
0.0
 43
1.0
 43
0.0
 43
0.0
 43
0.0
 43
0.0
 43
1.0
 77
     0
 47
0.0208333333333333
 47
0.0
 47
0.0
 47
0.0
 47
0.0
 47
0.0208333333333333
 47
0.0
 47
0.0
 47
0.0
 47
0.0
 47
1.0
 47
0.0
 47
0.0
 47
0.0
 47
0.0
 47
1.0
171
     0
 49
0.0208333333333333
 49
0.0
 49
0.0
 49
0.0
 49
0.0
 49
0.0208333333333333
 49
0.0
 49
0.0
 49
0.0
 49
0.0
 49
1.0
 49
0.0
 49
0.0
 49
0.0
 49
0.0
 49
1.0
175
     0
142
0.0208333333333333
142
0.0
142
0.0
142
0.0
142
0.0
142
0.0208333333333333
142
0.0
142
0.0
142
0.0
142
0.0
142
1.0
142
0.0
142
0.0
142
0.0
142
0.0
142
1.0
179
     0
144
0.0208333333333333
144
0.0
144
0.0
144
0.0
144
0.0
144
0.0208333333333333
144
0.0
144
0.0
144
0.0
144
0.0
144
1.0
144
0.0
144
0.0
144
0.0
144
0.0
144
1.0
147
0.0208333333333333
147
0.0
147
0.0
147
0.0
147
0.0
147
0.0208333333333333
147
0.0
147
0.0
147
0.0
147
0.0
147
1.0
147
0.0
147
0.0
147
0.0
147
0.0
147
1.0
  0
MLEADERSTYLE
  5
66
102
{ACAD_REACTORS
330
65
102
}
330
65
100
AcDbMLeaderStyle
170
     2
171
     1
172
     0
 90
        2
 40
0.0
 41
0.0
173
     1
 91
-1056964608
340
5A
 92
       -2
290
     1
 42
0.09
291
     1
 43
0.36
  3
Standard
 44
0.18
300

342
55
174
     1
178
     6
175
     1
176
     0
 93
-1056964608
 45
0.18
292
     0
297
     0
 46
0.18
 94
-1056964608
 47
1.0
 49
1.0
140
1.0
293
     1
141
0.0
294
     1
177
     0
142
1.0
295
     0
296
     0
143
0.125
1001
ACAD_MLEADERVER
1070
     2
  0
MLINESTYLE
  5
5F
102
{ACAD_REACTORS
330
5E
102
}
330
5E
100
AcDbMlineStyle
  2
STANDARD
 70
     0
  3

 62
   256
 51
90.0
 52
90.0
 71
     2
 49
0.5
 62
   256
  6
BYLAYER
 49
-0.5
 62
   256
  6
BYLAYER
  0
ACDBPLACEHOLDER
  5
F
102
{ACAD_REACTORS
330
E
102
}
330
E
  0
SCALE
  5
43
102
{ACAD_REACTORS
330
42
102
}
330
42
100
AcDbScale
 70
     0
300
1:1
140
1.0
141
1.0
290
     1
  0
SCALE
  5
44
102
{ACAD_REACTORS
330
42
102
}
330
42
100
AcDbScale
 70
     0
300
1/128" = 1'-0"
140
0.0078125
141
12.0
290
     0
  0
SCALE
  5
45
102
{ACAD_REACTORS
330
42
102
}
330
42
100
AcDbScale
 70
     0
300
1/64" = 1'-0"
140
0.015625
141
12.0
290
     0
  0
SCALE
  5
46
102
{ACAD_REACTORS
330
42
102
}
330
42
100
AcDbScale
 70
     0
300
1/32" = 1'-0"
140
0.03125
141
12.0
290
     0
  0
SCALE
  5
47
102
{ACAD_REACTORS
330
42
102
}
330
42
100
AcDbScale
 70
     0
300
1/16" = 1'-0"
140
0.0625
141
12.0
290
     0
  0
SCALE
  5
48
102
{ACAD_REACTORS
330
42
102
}
330
42
100
AcDbScale
 70
     0
300
3/32" = 1'-0"
140
0.09375
141
12.0
290
     0
  0
SCALE
  5
49
102
{ACAD_REACTORS
330
42
102
}
330
42
100
AcDbScale
 70
     0
300
1/8" = 1'-0"
140
0.125
141
12.0
290
     0
  0
SCALE
  5
4A
102
{ACAD_REACTORS
330
42
102
}
330
42
100
AcDbScale
 70
     0
300
3/16" = 1'-0"
140
0.1875
141
12.0
290
     0
  0
SCALE
  5
4B
102
{ACAD_REACTORS
330
42
102
}
330
42
100
AcDbScale
 70
     0
300
1/4" = 1'-0"
140
0.25
141
12.0
290
     0
  0
SCALE
  5
4C
102
{ACAD_REACTORS
330
42
102
}
330
42
100
AcDbScale
 70
     0
300
3/8" = 1'-0"
140
0.375
141
12.0
290
     0
  0
SCALE
  5
4D
102
{ACAD_REACTORS
330
42
102
}
330
42
100
AcDbScale
 70
     0
300
1/2" = 1'-0"
140
0.5
141
12.0
290
     0
  0
SCALE
  5
4E
102
{ACAD_REACTORS
330
42
102
}
330
42
100
AcDbScale
 70
     0
300
3/4" = 1'-0"
140
0.75
141
12.0
290
     0
  0
SCALE
  5
4F
102
{ACAD_REACTORS
330
42
102
}
330
42
100
AcDbScale
 70
     0
300
1" = 1'-0"
140
1.0
141
12.0
290
     0
  0
SCALE
  5
50
102
{ACAD_REACTORS
330
42
102
}
330
42
100
AcDbScale
 70
     0
300
1-1/2" = 1'-0"
140
1.5
141
12.0
290
     0
  0
SCALE
  5
51
102
{ACAD_REACTORS
330
42
102
}
330
42
100
AcDbScale
 70
     0
300
3" = 1'-0"
140
3.0
141
12.0
290
     0
  0
SCALE
  5
52
102
{ACAD_REACTORS
330
42
102
}
330
42
100
AcDbScale
 70
     0
300
6" = 1'-0"
140
6.0
141
12.0
290
     0
  0
SCALE
  5
53
102
{ACAD_REACTORS
330
42
102
}
330
42
100
AcDbScale
 70
     0
300
1'-0" = 1'-0"
140
12.0
141
12.0
290
     0
  0
TABLESTYLE
  5
64
102
{ACAD_XDICTIONARY
360
FB5
102
}
102
{ACAD_REACTORS
330
63
102
}
330
63
100
AcDbTableStyle
  3
Standard
 70
     0
 71
     0
 40
0.06
 41
0.06
280
     0
281
     0
  7
STANDARD
140
0.18
170
     2
 62
     0
 63
     7
283
     0
274
    -2
284
     1
 64
     0
275
    -2
285
     1
 65
     0
276
    -2
286
     1
 66
     0
277
    -2
287
     1
 67
     0
278
    -2
288
     1
 68
     0
279
    -2
289
     1
 69
     0
  7
STANDARD
140
0.25
170
     5
 62
     0
 63
     7
283
     0
274
    -2
284
     1
 64
     0
275
    -2
285
     1
 65
     0
276
    -2
286
     1
 66
     0
277
    -2
287
     1
 67
     0
278
    -2
288
     1
 68
     0
279
    -2
289
     1
 69
     0
  7
STANDARD
140
0.18
170
     5
 62
     0
 63
     7
283
     0
274
    -2
284
     1
 64
     0
275
    -2
285
     1
 65
     0
276
    -2
286
     1
 66
     0
277
    -2
287
     1
 67
     0
278
    -2
288
     1
 68
     0
279
    -2
289
     1
 69
     0
  0
VISUALSTYLE
  5
2F
102
{ACAD_XDICTIONARY
360
1112
102
}
102
{ACAD_REACTORS
330
29
102
}
330
29
100
AcDbVisualStyle
  2

 70
     4
 71
     0
 72
     2
 73
     0
 90
        0
 40
-0.6
 41
-30.0
 62
     5
 63
     7
 74
     1
 91
        4
 64
     7
 65
   257
 75
     1
175
     1
 42
1.0
 92
        0
 66
   257
 43
1.0
 76
     1
 77
     6
 78
     2
 67
     7
 79
     5
170
     0
171
     0
290
     0
174
     0
 93
        1
 44
0.0
173
     0
291
     0
 45
0.0
1001
ACAD
1000
AcDbSavedByObjectVersion
1070
     0
  0
VISUALSTYLE
  5
5E6
102
{ACAD_XDICTIONARY
360
113D
102
}
102
{ACAD_REACTORS
330
29
102
}
330
29
100
AcDbVisualStyle
  2

 70
     5
 71
     0
 72
     2
 73
     1
 90
        0
 40
-0.6
 41
-30.0
 62
     5
 63
     7
 74
     1
 91
        4
 64
     7
 65
   257
 75
     1
175
     1
 42
1.0
 92
        0
 66
   257
 43
1.0
 76
     1
 77
     6
 78
     2
 67
     7
 79
     5
170
     0
171
     0
290
     0
174
     0
 93
        1
 44
0.0
173
     0
291
     0
 45
0.0
1001
ACAD
1000
AcDbSavedByObjectVersion
1070
     0
  0
VISUALSTYLE
  5
2E
102
{ACAD_XDICTIONARY
360
1110
102
}
102
{ACAD_REACTORS
330
29
102
}
330
29
100
AcDbVisualStyle
  2

 70
     7
 71
     1
 72
     0
 73
     1
 90
        0
 40
-0.6
 41
-30.0
 62
     5
 63
     7
 74
     0
 91
        4
 64
     7
 65
   257
 75
     1
175
     1
 42
1.0
 92
        8
 66
     7
 43
1.0
 76
     1
 77
     6
 78
     2
 67
     7
 79
     5
170
     0
171
     0
290
     0
174
     0
 93
        1
 44
0.0
173
     0
291
     1
 45
0.0
1001
ACAD
1000
AcDbSavedByObjectVersion
1070
     0
  0
VISUALSTYLE
  5
35
102
{ACAD_XDICTIONARY
360
111E
102
}
102
{ACAD_REACTORS
330
29
102
}
330
29
100
AcDbVisualStyle
  2

 70
    12
 71
     2
 72
     2
 73
     0
 90
        0
 40
-0.6
 41
-30.0
 62
     5
 63
     7
 74
     1
 91
        4
 64
     7
 65
   257
 75
     1
175
     1
 42
1.0
 92
        8
 66
     7
 43
1.0
 76
     1
 77
     6
 78
     2
 67
     7
 79
     5
170
     0
171
     0
290
     0
174
     0
 93
        1
 44
50.0
173
     0
291
     1
 45
0.0
1001
ACAD
1000
AcDbSavedByObjectVersion
1070
     0
  0
VISUALSTYLE
  5
39
102
{ACAD_XDICTIONARY
360
1126
102
}
102
{ACAD_REACTORS
330
29
102
}
330
29
100
AcDbVisualStyle
  2

 70
    16
 71
     2
 72
     2
 73
     3
 90
        0
 40
-0.6
 41
-30.0
 62
     5
 63
     8
 74
     1
 91
        4
 64
     7
 65
   257
 75
     1
175
     1
 42
1.0
 92
        8
 66
     8
 43
1.0
 76
     1
 77
     6
 78
     2
 67
     7
 79
     5
170
     0
171
     0
290
     0
174
     0
 93
        1
 44
0.0
173
     0
291
     1
 45
0.0
1001
ACAD
1000
AcDbSavedByObjectVersion
1070
     0
  0
VISUALSTYLE
  5
32
102
{ACAD_XDICTIONARY
360
1118
102
}
102
{ACAD_REACTORS
330
29
102
}
330
29
100
AcDbVisualStyle
  2

 70
     9
 71
     3
 72
     2
 73
     0
 90
        0
 40
-0.6
 41
-30.0
 62
     5
 63
     7
 74
     2
 91
        2
 64
     7
 65
   257
 75
     1
175
     1
 42
179.0
 92
        8
 66
     7
 43
1.0
 76
     1
 77
     6
 78
     2
 67
     7
 79
     3
170
     0
171
     0
290
     0
174
     0
 93
        1
 44
0.0
173
     0
291
     0
 45
0.0
1001
ACAD
1000
AcDbSavedByObjectVersion
1070
     0
  0
VISUALSTYLE
  5
34
102
{ACAD_XDICTIONARY
360
111C
102
}
102
{ACAD_REACTORS
330
29
102
}
330
29
100
AcDbVisualStyle
  2

 70
    11
 71
     2
 72
     2
 73
     0
 90
        0
 40
-0.6
 41
-30.0
 62
     5
 63
     7
 74
     1
 91
        4
 64
     7
 65
   257
 75
     1
175
     1
 42
1.0
 92
        8
 66
     7
 43
1.0
 76
     1
 77
     6
 78
     2
 67
     7
 79
     5
170
     0
171
     0
290
     0
174
     0
 93
        1
 44
-50.0
173
     0
291
     1
 45
0.0
1001
ACAD
1000
AcDbSavedByObjectVersion
1070
     0
  0
VISUALSTYLE
  5
41
102
{ACAD_XDICTIONARY
360
1136
102
}
102
{ACAD_REACTORS
330
29
102
}
330
29
100
AcDbVisualStyle
  2

 70
    22
 71
     2
 72
     2
 73
     0
 90
        0
 40
-0.6
 41
-30.0
 62
     5
 63
     7
 74
     1
 91
        4
 64
     7
 65
   257
 75
     1
175
     1
 42
1.0
 92
        8
 66
     7
 43
1.0
 76
     1
 77
     6
 78
     2
 67
     7
 79
     5
170
     0
171
     0
290
     0
174
     0
 93
        1
 44
0.0
173
     0
291
     1
 45
0.0
1001
ACAD
1000
AcDbSavedByObjectVersion
1070
     0
  0
VISUALSTYLE
  5
38
102
{ACAD_XDICTIONARY
360
1124
102
}
102
{ACAD_REACTORS
330
29
102
}
330
29
100
AcDbVisualStyle
  2

 70
    15
 71
     2
 72
     2
 73
     0
 90
        0
 40
-0.6
 41
-30.0
 62
     5
 63
     7
 74
     1
 91
        4
 64
     7
 65
   257
 75
     1
175
     1
 42
1.0
 92
        8
 66
     7
 43
1.0
 76
     1
 77
     6
 78
     2
 67
     7
 79
     5
170
     0
171
     0
290
     0
174
     0
 93
        1
 44
0.0
173
     0
291
     1
 45
0.0
1001
ACAD
1000
AcDbSavedByObjectVersion
1070
     0
  0
VISUALSTYLE
  5
2A
102
{ACAD_XDICTIONARY
360
1108
102
}
102
{ACAD_REACTORS
330
29
102
}
330
29
100
AcDbVisualStyle
  2

 70
     0
 71
     2
 72
     1
 73
     1
 90
        2
 40
-0.6
 41
30.0
 62
     5
 63
     7
 74
     0
 91
        0
 64
     7
 65
   257
 75
     1
175
     1
 42
1.0
 92
        8
 66
     7
 43
1.0
 76
     1
 77
     6
 78
     2
 67
     7
 79
     5
170
     0
171
     0
290
     0
174
     0
 93
       13
 44
0.0
173
     0
291
     1
 45
0.0
1001
ACAD
1000
AcDbSavedByObjectVersion
1070
     0
  0
VISUALSTYLE
  5
2B
102
{ACAD_XDICTIONARY
360
110A
102
}
102
{ACAD_REACTORS
330
29
102
}
330
29
100
AcDbVisualStyle
  2

 70
     1
 71
     2
 72
     1
 73
     1
 90
        2
 40
-0.6
 41
30.0
 62
     5
 63
     7
 74
     1
 91
        0
 64
     7
 65
   257
 75
     1
175
     1
 42
1.0
 92
        0
 66
   257
 43
1.0
 76
     1
 77
     6
 78
     2
 67
     7
 79
     5
170
     0
171
     0
290
     0
174
     0
 93
       13
 44
0.0
173
     0
291
     1
 45
0.0
1001
ACAD
1000
AcDbSavedByObjectVersion
1070
     0
  0
VISUALSTYLE
  5
2C
102
{ACAD_XDICTIONARY
360
110C
102
}
102
{ACAD_REACTORS
330
29
102
}
330
29
100
AcDbVisualStyle
  2

 70
     2
 71
     2
 72
     2
 73
     1
 90
        2
 40
-0.6
 41
30.0
 62
     5
 63
     7
 74
     0
 91
        0
 64
     7
 65
   257
 75
     1
175
     1
 42
1.0
 92
        0
 66
     7
 43
1.0
 76
     1
 77
     6
 78
     2
 67
     7
 79
     5
170
     0
171
     0
290
     0
174
     0
 93
       13
 44
0.0
173
     0
291
     1
 45
0.0
1001
ACAD
1000
AcDbSavedByObjectVersion
1070
     0
  0
VISUALSTYLE
  5
2D
102
{ACAD_XDICTIONARY
360
110E
102
}
102
{ACAD_REACTORS
330
29
102
}
330
29
100
AcDbVisualStyle
  2

 70
     3
 71
     2
 72
     2
 73
     1
 90
        2
 40
-0.6
 41
30.0
 62
     5
 63
     7
 74
     1
 91
        0
 64
     7
 65
   257
 75
     1
175
     1
 42
1.0
 92
        0
 66
   257
 43
1.0
 76
     1
 77
     6
 78
     2
 67
     7
 79
     5
170
     0
171
     0
290
     0
174
     0
 93
       13
 44
0.0
173
     0
291
     1
 45
0.0
1001
ACAD
1000
AcDbSavedByObjectVersion
1070
     0
  0
VISUALSTYLE
  5
31
102
{ACAD_XDICTIONARY
360
1116
102
}
102
{ACAD_REACTORS
330
29
102
}
330
29
100
AcDbVisualStyle
  2

 70
     6
 71
     1
 72
     2
 73
     2
 90
        0
 40
-0.6
 41
-30.0
 62
     5
 63
     7
 74
     2
 91
        2
 64
     7
 65
   257
 75
     2
175
     1
 42
40.0
 92
        0
 66
   257
 43
1.0
 76
     1
 77
     6
 78
     2
 67
     7
 79
     3
170
     0
171
     0
290
     0
174
     0
 93
        1
 44
0.0
173
     0
291
     0
 45
0.0
1001
ACAD
1000
AcDbSavedByObjectVersion
1070
     0
  0
VISUALSTYLE
  5
3F
102
{ACAD_XDICTIONARY
360
1132
102
}
102
{ACAD_REACTORS
330
29
102
}
330
29
100
AcDbVisualStyle
  2

 70
    20
 71
     2
 72
     2
 73
     0
 90
        0
 40
-0.6
 41
-30.0
 62
     5
 63
     7
 74
     1
 91
        4
 64
     7
 65
   257
 75
     1
175
     1
 42
1.0
 92
       10
 66
     7
 43
1.0
 76
     1
 77
     6
 78
     2
 67
     7
 79
     5
170
     0
171
     0
290
     0
174
     0
 93
        1
 44
0.0
173
     0
291
     1
 45
0.0
1001
ACAD
1000
AcDbSavedByObjectVersion
1070
     0
  0
VISUALSTYLE
  5
37
102
{ACAD_XDICTIONARY
360
1122
102
}
102
{ACAD_REACTORS
330
29
102
}
330
29
100
AcDbVisualStyle
  2

 70
    14
 71
     2
 72
     2
 73
     0
 90
        0
 40
-0.6
 41
-30.0
 62
     5
 63
     7
 74
     1
 91
        4
 64
     7
 65
   257
 75
     7
175
     7
 42
1.0
 92
        8
 66
     7
 43
1.0
 76
     1
 77
     6
 78
     2
 67
     7
 79
     5
170
     0
171
     0
290
     0
174
     0
 93
        1
 44
0.0
173
     0
291
     1
 45
0.0
1001
ACAD
1000
AcDbSavedByObjectVersion
1070
     0
  0
VISUALSTYLE
  5
40
102
{ACAD_XDICTIONARY
360
1134
102
}
102
{ACAD_REACTORS
330
29
102
}
330
29
100
AcDbVisualStyle
  2

 70
    21
 71
     2
 72
     2
 73
     0
 90
        0
 40
-0.6
 41
-30.0
 62
     5
 63
     7
 74
     1
 91
        4
 64
     7
 65
   257
 75
     1
175
     1
 42
1.0
 92
        9
 66
     7
 43
1.0
 76
     1
 77
     6
 78
     2
 67
     7
 79
     5
170
     0
171
     0
290
     0
174
     0
 93
        1
 44
0.0
173
     0
291
     1
 45
0.0
1001
ACAD
1000
AcDbSavedByObjectVersion
1070
     0
  0
VISUALSTYLE
  5
33
102
{ACAD_XDICTIONARY
360
111A
102
}
102
{ACAD_REACTORS
330
29
102
}
330
29
100
AcDbVisualStyle
  2

 70
     8
 71
     2
 72
     3
 73
     0
 90
        2
 40
-0.6
 41
30.0
 62
     5
 63
     7
 74
     0
 91
        0
 64
     7
 65
   257
 75
     1
175
     1
 42
1.0
 92
        8
 66
   257
 43
1.0
 76
     1
 77
     6
 78
     2
 67
     7
 79
     3
170
     0
171
     0
290
     0
174
     0
 93
       13
 44
0.0
173
     0
291
     0
 45
0.0
1001
ACAD
1000
AcDbSavedByObjectVersion
1070
     0
  0
VISUALSTYLE
  5
3E
102
{ACAD_XDICTIONARY
360
1130
102
}
102
{ACAD_REACTORS
330
29
102
}
330
29
100
AcDbVisualStyle
  2

 70
    27
 71
     2
 72
     2
 73
     1
 90
        2
 40
-0.6
 41
30.0
 62
     5
 63
     7
 74
     0
 91
        4
 64
     7
 65
   257
 75
     1
175
     1
 42
1.0
 92
        8
 66
   257
 43
1.0
 76
     1
 77
     6
 78
     2
 67
     8
 79
     3
170
     0
171
     0
290
     0
174
     0
 93
        5
 44
0.0
173
     0
291
     0
 45
0.0
1001
ACAD
1000
AcDbSavedByObjectVersion
1070
     0
  0
VISUALSTYLE
  5
3D
102
{ACAD_XDICTIONARY
360
112E
102
}
102
{ACAD_REACTORS
330
29
102
}
330
29
100
AcDbVisualStyle
  2

 70
    26
 71
     2
 72
     2
 73
     1
 90
        2
 40
-0.6
 41
30.0
 62
     5
 63
     7
 74
     1
 91
       10
 64
     7
 65
   257
 75
     2
175
     1
 42
1.0
 92
        8
 66
   257
 43
1.0
 76
     1
 77
     6
 78
     2
 67
     7
 79
     3
170
     0
171
     0
290
     0
174
     0
 93
        5
 44
0.0
173
     0
291
     0
 45
0.0
1001
ACAD
1000
AcDbSavedByObjectVersion
1070
     0
  0
VISUALSTYLE
  5
3A
102
{ACAD_XDICTIONARY
360
1128
102
}
102
{ACAD_REACTORS
330
29
102
}
330
29
100
AcDbVisualStyle
  2

 70
    23
 71
     2
 72
     2
 73
     3
 90
        0
 40
-0.6
 41
-30.0
 62
     5
 63
     7
 74
     2
 91
        2
 64
     7
 65
     7
 75
     1
175
     1
 42
40.0
 92
        8
 66
     7
 43
1.0
 76
     1
 77
     6
 78
     2
 67
     7
 79
     3
170
     0
171
     0
290
     0
174
     0
 93
        1
 44
0.0
173
     0
291
     0
 45
0.0
1001
ACAD
1000
AcDbSavedByObjectVersion
1070
     0
  0
VISUALSTYLE
  5
3B
102
{ACAD_XDICTIONARY
360
112A
102
}
102
{ACAD_REACTORS
330
29
102
}
330
29
100
AcDbVisualStyle
  2

 70
    24
 71
     1
 72
     2
 73
     2
 90
        0
 40
-0.6
 41
-30.0
 62
     5
 63
     7
 74
     2
 91
        2
 64
     7
 65
     7
 75
     1
175
     1
 42
40.0
 92
       11
 66
     7
 43
1.0
 76
     1
 77
     6
 78
     2
 67
     7
 79
     6
170
     0
171
     0
290
     0
174
     0
 93
        1
 44
0.0
173
     0
291
     0
 45
0.0
1001
ACAD
1000
AcDbSavedByObjectVersion
1070
     0
  0
VISUALSTYLE
  5
36
102
{ACAD_XDICTIONARY
360
1120
102
}
102
{ACAD_REACTORS
330
29
102
}
330
29
100
AcDbVisualStyle
  2

 70
    13
 71
     2
 72
     2
 73
     0
 90
        0
 40
-0.6
 41
-30.0
 62
     5
 63
     7
 74
     1
 91
        4
 64
     7
 65
   257
 75
     1
175
     1
 42
1.0
 92
       12
 66
     7
 43
1.0
 76
     1
 77
     6
 78
     2
 67
     7
 79
     5
170
     0
171
     0
290
     0
174
     0
 93
        1
 44
0.0
173
     0
291
     1
 45
0.0
1001
ACAD
1000
AcDbSavedByObjectVersion
1070
     0
  0
VISUALSTYLE
  5
30
102
{ACAD_XDICTIONARY
360
1114
102
}
102
{ACAD_REACTORS
330
29
102
}
330
29
100
AcDbVisualStyle
  2

 70
     5
 71
     0
 72
     2
 73
     0
 90
        0
 40
-0.6
 41
-30.0
 62
     5
 63
     7
 74
     1
 91
        4
 64
     7
 65
   257
 75
     1
175
     1
 42
1.0
 92
        0
 66
   257
 43
1.0
 76
     1
 77
     6
 78
     2
 67
     7
 79
     3
170
     0
171
     0
290
     0
174
     0
 93
        1
 44
0.0
173
     0
291
     0
 45
0.0
1001
ACAD
1000
AcDbSavedByObjectVersion
1070
     0
  0
VISUALSTYLE
  5
3C
102
{ACAD_XDICTIONARY
360
112C
102
}
102
{ACAD_REACTORS
330
29
102
}
330
29
100
AcDbVisualStyle
  2

 70
    25
 71
     2
 72
     2
 73
     1
 90
        1
 40
0.5
 41
-30.0
 62
     5
 63
     7
 74
     1
 91
        0
 64
     7
 65
   257
 75
     1
175
     1
 42
1.0
 92
        8
 66
     7
 43
1.0
 76
     1
 77
     6
 78
     2
 67
     7
 79
     3
170
     0
171
     0
290
     0
174
     0
 93
       13
 44
0.0
173
     0
291
     0
 45
0.0
1001
ACAD
1000
AcDbSavedByObjectVersion
1070
     0
  0
DICTIONARYVAR
  5
FB0
102
{ACAD_REACTORS
330
FAD
102
}
330
FAD
100
DictionaryVariables
280
     0
  1
1:1
  0
DICTIONARYVAR
  5
FAF
102
{ACAD_REACTORS
330
FAD
102
}
330
FAD
100
DictionaryVariables
280
     0
  1
STANDARD
  0
DICTIONARYVAR
  5
FAE
102
{ACAD_REACTORS
330
FAD
102
}
330
FAD
100
DictionaryVariables
280
     0
  1
STANDARD
  0
DICTIONARYVAR
  5
FB3
102
{ACAD_REACTORS
330
FAD
102
}
330
FAD
100
DictionaryVariables
280
     0
  1
1
  0
DICTIONARYVAR
  5
FB2
102
{ACAD_REACTORS
330
FAD
102
}
330
FAD
100
DictionaryVariables
280
     0
  1
0
  0
DICTIONARYVAR
  5
FB1
102
{ACAD_REACTORS
330
FAD
102
}
330
FAD
100
DictionaryVariables
280
     0
  1
127
  0
DICTIONARYVAR
  5
1100
102
{ACAD_REACTORS
330
FAD
102
}
330
FAD
100
DictionaryVariables
280
     0
  1
2
  0
DICTIONARY
  5
113B
330
6E
100
AcDbDictionary
280
     1
281
     1
  3
ACAD_XREC_ROUNDTRIP
360
113C
  0
DICTIONARY
  5
1139
330
6A
100
AcDbDictionary
280
     1
281
     1
  3
ACAD_XREC_ROUNDTRIP
360
113A
  0
DICTIONARY
  5
1A
330
19
100
AcDbDictionary
280
     1
281
     1
  3
ACAD_XREC_ROUNDTRIP
360
FBE
  3
BUMPTILE
360
1C
  3
DIFFUSETILE
360
1B
  3
OPACITYTILE
360
1F
  3
REFLECTIONTILE
360
1E
  3
REFRACTIONTILE
360
20
  3
SPECULARTILE
360
1D
  0
DICTIONARY
  5
12
330
11
100
AcDbDictionary
280
     1
281
     1
  3
ACAD_XREC_ROUNDTRIP
360
FBD
  3
BUMPTILE
360
14
  3
DIFFUSETILE
360
13
  3
OPACITYTILE
360
17
  3
REFLECTIONTILE
360
16
  3
REFRACTIONTILE
360
18
  3
SPECULARTILE
360
15
  0
DICTIONARY
  5
22
330
21
100
AcDbDictionary
280
     1
281
     1
  3
ACAD_XREC_ROUNDTRIP
360
FBF
  3
BUMPTILE
360
24
  3
DIFFUSETILE
360
23
  3
OPACITYTILE
360
27
  3
REFLECTIONTILE
360
26
  3
REFRACTIONTILE
360
28
  3
SPECULARTILE
360
25
  0
DICTIONARY
  5
FB5
330
64
100
AcDbDictionary
280
     1
281
     1
  3
ACAD_ROUNDTRIP_2008_TABLESTYLE_CELLSTYLEMAP
360
1101
  3
ACAD_XREC_ROUNDTRIP
360
1138
  0
DICTIONARY
  5
1112
330
2F
100
AcDbDictionary
280
     1
281
     1
  3
ACAD_XREC_ROUNDTRIP
360
1113
  0
DICTIONARY
  5
113D
330
5E6
100
AcDbDictionary
280
     1
281
     1
  3
ACAD_XREC_ROUNDTRIP
360
113E
  0
DICTIONARY
  5
1110
330
2E
100
AcDbDictionary
280
     1
281
     1
  3
ACAD_XREC_ROUNDTRIP
360
1111
  0
DICTIONARY
  5
111E
330
35
100
AcDbDictionary
280
     1
281
     1
  3
ACAD_XREC_ROUNDTRIP
360
111F
  0
DICTIONARY
  5
1126
330
39
100
AcDbDictionary
280
     1
281
     1
  3
ACAD_XREC_ROUNDTRIP
360
1127
  0
DICTIONARY
  5
1118
330
32
100
AcDbDictionary
280
     1
281
     1
  3
ACAD_XREC_ROUNDTRIP
360
1119
  0
DICTIONARY
  5
111C
330
34
100
AcDbDictionary
280
     1
281
     1
  3
ACAD_XREC_ROUNDTRIP
360
111D
  0
DICTIONARY
  5
1136
330
41
100
AcDbDictionary
280
     1
281
     1
  3
ACAD_XREC_ROUNDTRIP
360
1137
  0
DICTIONARY
  5
1124
330
38
100
AcDbDictionary
280
     1
281
     1
  3
ACAD_XREC_ROUNDTRIP
360
1125
  0
DICTIONARY
  5
1108
330
2A
100
AcDbDictionary
280
     1
281
     1
  3
ACAD_XREC_ROUNDTRIP
360
1109
  0
DICTIONARY
  5
110A
330
2B
100
AcDbDictionary
280
     1
281
     1
  3
ACAD_XREC_ROUNDTRIP
360
110B
  0
DICTIONARY
  5
110C
330
2C
100
AcDbDictionary
280
     1
281
     1
  3
ACAD_XREC_ROUNDTRIP
360
110D
  0
DICTIONARY
  5
110E
330
2D
100
AcDbDictionary
280
     1
281
     1
  3
ACAD_XREC_ROUNDTRIP
360
110F
  0
DICTIONARY
  5
1116
330
31
100
AcDbDictionary
280
     1
281
     1
  3
ACAD_XREC_ROUNDTRIP
360
1117
  0
DICTIONARY
  5
1132
330
3F
100
AcDbDictionary
280
     1
281
     1
  3
ACAD_XREC_ROUNDTRIP
360
1133
  0
DICTIONARY
  5
1122
330
37
100
AcDbDictionary
280
     1
281
     1
  3
ACAD_XREC_ROUNDTRIP
360
1123
  0
DICTIONARY
  5
1134
330
40
100
AcDbDictionary
280
     1
281
     1
  3
ACAD_XREC_ROUNDTRIP
360
1135
  0
DICTIONARY
  5
111A
330
33
100
AcDbDictionary
280
     1
281
     1
  3
ACAD_XREC_ROUNDTRIP
360
111B
  0
DICTIONARY
  5
1130
330
3E
100
AcDbDictionary
280
     1
281
     1
  3
ACAD_XREC_ROUNDTRIP
360
1131
  0
DICTIONARY
  5
112E
330
3D
100
AcDbDictionary
280
     1
281
     1
  3
ACAD_XREC_ROUNDTRIP
360
112F
  0
DICTIONARY
  5
1128
330
3A
100
AcDbDictionary
280
     1
281
     1
  3
ACAD_XREC_ROUNDTRIP
360
1129
  0
DICTIONARY
  5
112A
330
3B
100
AcDbDictionary
280
     1
281
     1
  3
ACAD_XREC_ROUNDTRIP
360
112B
  0
DICTIONARY
  5
1120
330
36
100
AcDbDictionary
280
     1
281
     1
  3
ACAD_XREC_ROUNDTRIP
360
1121
  0
DICTIONARY
  5
1114
330
30
100
AcDbDictionary
280
     1
281
     1
  3
ACAD_XREC_ROUNDTRIP
360
1115
  0
DICTIONARY
  5
112C
330
3C
100
AcDbDictionary
280
     1
281
     1
  3
ACAD_XREC_ROUNDTRIP
360
112D
  0
XRECORD
  5
113C
102
{ACAD_REACTORS
330
113B
102
}
330
113B
100
AcDbXrecord
280
     1
102
SHADEPLOT
 70
     0
102
SHADEPLOTRESLEVEL
 70
     2
102
SHADEPLOTCUSTOMDPI
 70
   300
  0
XRECORD
  5
113A
102
{ACAD_REACTORS
330
1139
102
}
330
1139
100
AcDbXrecord
280
     1
102
SHADEPLOT
 70
     0
102
SHADEPLOTRESLEVEL
 70
     2
102
SHADEPLOTCUSTOMDPI
 70
   300
  0
XRECORD
  5
FBE
102
{ACAD_REACTORS
330
1A
102
}
330
1A
100
AcDbXrecord
280
     1
102
MATERIAL
148
0.0
149
0.0
149
0.0
 93
        0
 94
      127
282
     0
 72
     0
 77
     0
171
     0
175
     0
179
     0
273
     0
  0
XRECORD
  5
1C
102
{ACAD_REACTORS
330
1A
102
}
330
1A
100
AcDbXrecord
280
     1
270
     1
271
     1
  0
XRECORD
  5
1B
102
{ACAD_REACTORS
330
1A
102
}
330
1A
100
AcDbXrecord
280
     1
270
     1
271
     1
  0
XRECORD
  5
1F
102
{ACAD_REACTORS
330
1A
102
}
330
1A
100
AcDbXrecord
280
     1
270
     1
271
     1
  0
XRECORD
  5
1E
102
{ACAD_REACTORS
330
1A
102
}
330
1A
100
AcDbXrecord
280
     1
270
     1
271
     1
  0
XRECORD
  5
20
102
{ACAD_REACTORS
330
1A
102
}
330
1A
100
AcDbXrecord
280
     1
270
     1
271
     1
  0
XRECORD
  5
1D
102
{ACAD_REACTORS
330
1A
102
}
330
1A
100
AcDbXrecord
280
     1
270
     1
271
     1
  0
XRECORD
  5
FBD
102
{ACAD_REACTORS
330
12
102
}
330
12
100
AcDbXrecord
280
     1
102
MATERIAL
148
0.0
149
0.0
149
0.0
 93
        0
 94
      127
282
     0
 72
     0
 77
     0
171
     0
175
     0
179
     0
273
     0
  0
XRECORD
  5
14
102
{ACAD_REACTORS
330
12
102
}
330
12
100
AcDbXrecord
280
     1
270
     1
271
     1
  0
XRECORD
  5
13
102
{ACAD_REACTORS
330
12
102
}
330
12
100
AcDbXrecord
280
     1
270
     1
271
     1
  0
XRECORD
  5
17
102
{ACAD_REACTORS
330
12
102
}
330
12
100
AcDbXrecord
280
     1
270
     1
271
     1
  0
XRECORD
  5
16
102
{ACAD_REACTORS
330
12
102
}
330
12
100
AcDbXrecord
280
     1
270
     1
271
     1
  0
XRECORD
  5
18
102
{ACAD_REACTORS
330
12
102
}
330
12
100
AcDbXrecord
280
     1
270
     1
271
     1
  0
XRECORD
  5
15
102
{ACAD_REACTORS
330
12
102
}
330
12
100
AcDbXrecord
280
     1
270
     1
271
     1
  0
XRECORD
  5
FBF
102
{ACAD_REACTORS
330
22
102
}
330
22
100
AcDbXrecord
280
     1
102
MATERIAL
148
0.0
149
0.0
149
0.0
 93
        0
 94
      127
282
     0
 72
     0
 77
     0
171
     0
175
     0
179
     0
273
     0
  0
XRECORD
  5
24
102
{ACAD_REACTORS
330
22
102
}
330
22
100
AcDbXrecord
280
     1
270
     1
271
     1
  0
XRECORD
  5
23
102
{ACAD_REACTORS
330
22
102
}
330
22
100
AcDbXrecord
280
     1
270
     1
271
     1
  0
XRECORD
  5
27
102
{ACAD_REACTORS
330
22
102
}
330
22
100
AcDbXrecord
280
     1
270
     1
271
     1
  0
XRECORD
  5
26
102
{ACAD_REACTORS
330
22
102
}
330
22
100
AcDbXrecord
280
     1
270
     1
271
     1
  0
XRECORD
  5
28
102
{ACAD_REACTORS
330
22
102
}
330
22
100
AcDbXrecord
280
     1
270
     1
271
     1
  0
XRECORD
  5
25
102
{ACAD_REACTORS
330
22
102
}
330
22
100
AcDbXrecord
280
     1
270
     1
271
     1
  0
CELLSTYLEMAP
  5
1101
102
{ACAD_REACTORS
330
FB5
102
}
330
FB5
100
AcDbCellStyleMap
 90
        3
300
CELLSTYLE
  1
TABLEFORMAT_BEGIN
 90
        5
170
     1
 91
        0
 92
    32768
 62
   257
 93
        1
300
CONTENTFORMAT
  1
CONTENTFORMAT_BEGIN
 90
        0
 91
        0
 92
      512
 93
        0
300

 40
0.0
140
1.0
 94
        5
 62
     0
340
55
144
0.25
309
CONTENTFORMAT_END
171
     1
301
MARGIN
  1
CELLMARGIN_BEGIN
 40
0.06
 40
0.06
 40
0.06
 40
0.06
 40
0.18
 40
0.18
309
CELLMARGIN_END
 94
        6
 95
        1
302
GRIDFORMAT
  1
GRIDFORMAT_BEGIN
 90
        0
 91
        1
 62
     0
 92
       -2
340
0
 93
        0
 40
0.045
309
GRIDFORMAT_END
 95
        2
302
GRIDFORMAT
  1
GRIDFORMAT_BEGIN
 90
        0
 91
        1
 62
     0
 92
       -2
340
0
 93
        0
 40
0.045
309
GRIDFORMAT_END
 95
        4
302
GRIDFORMAT
  1
GRIDFORMAT_BEGIN
 90
        0
 91
        1
 62
     0
 92
       -2
340
0
 93
        0
 40
0.045
309
GRIDFORMAT_END
 95
        8
302
GRIDFORMAT
  1
GRIDFORMAT_BEGIN
 90
        0
 91
        1
 62
     0
 92
       -2
340
0
 93
        0
 40
0.045
309
GRIDFORMAT_END
 95
       16
302
GRIDFORMAT
  1
GRIDFORMAT_BEGIN
 90
        0
 91
        1
 62
     0
 92
       -2
340
0
 93
        0
 40
0.045
309
GRIDFORMAT_END
 95
       32
302
GRIDFORMAT
  1
GRIDFORMAT_BEGIN
 90
        0
 91
        1
 62
     0
 92
       -2
340
0
 93
        0
 40
0.045
309
GRIDFORMAT_END
309
TABLEFORMAT_END
  1
CELLSTYLE_BEGIN
 90
        1
 91
        1
300
_TITLE
309
CELLSTYLE_END
300
CELLSTYLE
  1
TABLEFORMAT_BEGIN
 90
        5
170
     1
 91
        0
 92
        0
 62
   257
 93
        1
300
CONTENTFORMAT
  1
CONTENTFORMAT_BEGIN
 90
        0
 91
        0
 92
      512
 93
        0
300

 40
0.0
140
1.0
 94
        5
 62
     0
340
55
144
0.18
309
CONTENTFORMAT_END
171
     1
301
MARGIN
  1
CELLMARGIN_BEGIN
 40
0.06
 40
0.06
 40
0.06
 40
0.06
 40
0.18
 40
0.18
309
CELLMARGIN_END
 94
        6
 95
        1
302
GRIDFORMAT
  1
GRIDFORMAT_BEGIN
 90
        0
 91
        1
 62
     0
 92
       -2
340
0
 93
        0
 40
0.045
309
GRIDFORMAT_END
 95
        2
302
GRIDFORMAT
  1
GRIDFORMAT_BEGIN
 90
        0
 91
        1
 62
     0
 92
       -2
340
0
 93
        0
 40
0.045
309
GRIDFORMAT_END
 95
        4
302
GRIDFORMAT
  1
GRIDFORMAT_BEGIN
 90
        0
 91
        1
 62
     0
 92
       -2
340
0
 93
        0
 40
0.045
309
GRIDFORMAT_END
 95
        8
302
GRIDFORMAT
  1
GRIDFORMAT_BEGIN
 90
        0
 91
        1
 62
     0
 92
       -2
340
0
 93
        0
 40
0.045
309
GRIDFORMAT_END
 95
       16
302
GRIDFORMAT
  1
GRIDFORMAT_BEGIN
 90
        0
 91
        1
 62
     0
 92
       -2
340
0
 93
        0
 40
0.045
309
GRIDFORMAT_END
 95
       32
302
GRIDFORMAT
  1
GRIDFORMAT_BEGIN
 90
        0
 91
        1
 62
     0
 92
       -2
340
0
 93
        0
 40
0.045
309
GRIDFORMAT_END
309
TABLEFORMAT_END
  1
CELLSTYLE_BEGIN
 90
        2
 91
        1
300
_HEADER
309
CELLSTYLE_END
300
CELLSTYLE
  1
TABLEFORMAT_BEGIN
 90
        5
170
     1
 91
        0
 92
        0
 62
   257
 93
        1
300
CONTENTFORMAT
  1
CONTENTFORMAT_BEGIN
 90
        0
 91
        0
 92
      512
 93
        0
300

 40
0.0
140
1.0
 94
        2
 62
     0
340
55
144
0.18
309
CONTENTFORMAT_END
171
     1
301
MARGIN
  1
CELLMARGIN_BEGIN
 40
0.06
 40
0.06
 40
0.06
 40
0.06
 40
0.18
 40
0.18
309
CELLMARGIN_END
 94
        6
 95
        1
302
GRIDFORMAT
  1
GRIDFORMAT_BEGIN
 90
        0
 91
        1
 62
     0
 92
       -2
340
0
 93
        0
 40
0.045
309
GRIDFORMAT_END
 95
        2
302
GRIDFORMAT
  1
GRIDFORMAT_BEGIN
 90
        0
 91
        1
 62
     0
 92
       -2
340
0
 93
        0
 40
0.045
309
GRIDFORMAT_END
 95
        4
302
GRIDFORMAT
  1
GRIDFORMAT_BEGIN
 90
        0
 91
        1
 62
     0
 92
       -2
340
0
 93
        0
 40
0.045
309
GRIDFORMAT_END
 95
        8
302
GRIDFORMAT
  1
GRIDFORMAT_BEGIN
 90
        0
 91
        1
 62
     0
 92
       -2
340
0
 93
        0
 40
0.045
309
GRIDFORMAT_END
 95
       16
302
GRIDFORMAT
  1
GRIDFORMAT_BEGIN
 90
        0
 91
        1
 62
     0
 92
       -2
340
0
 93
        0
 40
0.045
309
GRIDFORMAT_END
 95
       32
302
GRIDFORMAT
  1
GRIDFORMAT_BEGIN
 90
        0
 91
        1
 62
     0
 92
       -2
340
0
 93
        0
 40
0.045
309
GRIDFORMAT_END
309
TABLEFORMAT_END
  1
CELLSTYLE_BEGIN
 90
        3
 91
        2
300
_DATA
309
CELLSTYLE_END
  0
XRECORD
  5
1138
102
{ACAD_REACTORS
330
FB5
102
}
330
FB5
100
AcDbXrecord
280
     1
102
ACAD_ROUNDTRIP_PRE2007_TABLESTYLE
 90
      512
 91
        0
  1

 92
      512
 93
        0
  2

 94
      512
 95
        0
  3

  0
XRECORD
  5
1113
102
{ACAD_REACTORS
330
1112
102
}
330
1112
100
AcDbXrecord
280
     1
102
RTVSPropertyOp0
 70
     1
102
RTVSPropertyOp1
 70
     1
102
RTVSPropertyOp2
 70
     1
102
RTVSPropertyOp3
 70
     1
102
RTVSPropertyOp4
 70
     1
102
RTVSPropertyOp5
 70
     1
102
RTVSPropertyOp6
 70
     1
102
RTVSPropertyOp7
 70
     1
102
RTVSPropertyOp8
 70
     1
102
RTVSPropertyOp9
 70
     1
102
RTVSPropertyOp10
 70
     1
102
RTVSPropertyOp11
 70
     1
102
RTVSPropertyOp12
 70
     1
102
RTVSPropertyOp13
 70
     1
102
RTVSPropertyOp14
 70
     1
102
RTVSPropertyOp15
 70
     1
102
RTVSPropertyOp16
 70
     1
102
RTVSPropertyOp17
 70
     1
102
RTVSPropertyOp18
 70
     1
102
RTVSPropertyOp19
 70
     1
102
RTVSPropertyOp20
 70
     1
102
RTVSPropertyOp21
 70
     1
102
RTVSPropertyOp22
 70
     1
102
RTVSPropertyOp23
 70
     1
102
RTVSPropertyOp24
 70
     1
102
RTVSPropertyOp25
 70
     1
102
RTVSPropertyOp26
 70
     1
102
RTVSPropertyOp27
 70
     1
102
RTVSPropertyOp28
 70
     1
102
RTVSPropertyOp29
 70
     1
102
RTVSPropertyOp30
 70
     1
102
RTVSPropertyOp31
 70
     1
102
RTVSPropertyOp32
 70
     1
  0
XRECORD
  5
113E
102
{ACAD_REACTORS
330
113D
102
}
330
113D
100
AcDbXrecord
280
     1
102
RTVSPropertyOp0
 70
     1
102
RTVSPropertyOp1
 70
     1
102
RTVSPropertyOp2
 70
     1
102
RTVSPropertyOp3
 70
     1
102
RTVSPropertyOp4
 70
     1
102
RTVSPropertyOp5
 70
     1
102
RTVSPropertyOp6
 70
     1
102
RTVSPropertyOp7
 70
     1
102
RTVSPropertyOp8
 70
     1
102
RTVSPropertyOp9
 70
     1
102
RTVSPropertyOp10
 70
     1
102
RTVSPropertyOp11
 70
     1
102
RTVSPropertyOp12
 70
     1
102
RTVSPropertyOp13
 70
     1
102
RTVSPropertyOp14
 70
     1
102
RTVSPropertyOp15
 70
     1
102
RTVSPropertyOp16
 70
     1
102
RTVSPropertyOp17
 70
     1
102
RTVSPropertyOp18
 70
     1
102
RTVSPropertyOp19
 70
     1
102
RTVSPropertyOp20
 70
     1
102
RTVSPropertyOp21
 70
     1
102
RTVSPropertyOp22
 70
     1
102
RTVSPropertyOp23
 70
     1
102
RTVSPropertyOp24
 70
     1
102
RTVSPropertyOp25
 70
     1
102
RTVSPropertyOp26
 70
     1
102
RTVSPropertyOp27
 70
     1
102
RTVSPropertyOp28
 70
     1
102
RTVSPropertyOp29
 70
     1
102
RTVSPropertyOp30
 70
     1
102
RTVSPropertyOp31
 70
     1
102
RTVSPropertyOp32
 70
     1
  0
XRECORD
  5
1111
102
{ACAD_REACTORS
330
1110
102
}
330
1110
100
AcDbXrecord
280
     1
102
RTVSPropertyOp0
 70
     1
102
RTVSPropertyOp1
 70
     1
102
RTVSPropertyOp2
 70
     1
102
RTVSPropertyOp3
 70
     1
102
RTVSPropertyOp4
 70
     1
102
RTVSPropertyOp5
 70
     1
102
RTVSPropertyOp6
 70
     1
102
RTVSPropertyOp7
 70
     1
102
RTVSPropertyOp8
 70
     1
102
RTVSPropertyOp9
 70
     1
102
RTVSPropertyOp10
 70
     1
102
RTVSPropertyOp11
 70
     1
102
RTVSPropertyOp12
 70
     1
102
RTVSPropertyOp13
 70
     1
102
RTVSPropertyOp14
 70
     1
102
RTVSPropertyOp15
 70
     1
102
RTVSPropertyOp16
 70
     1
102
RTVSPropertyOp17
 70
     1
102
RTVSPropertyOp18
 70
     1
102
RTVSPropertyOp19
 70
     1
102
RTVSPropertyOp20
 70
     1
102
RTVSPropertyOp21
 70
     1
102
RTVSPropertyOp22
 70
     1
102
RTVSPropertyOp23
 70
     1
102
RTVSPropertyOp24
 70
     1
102
RTVSPropertyOp25
 70
     1
102
RTVSPropertyOp26
 70
     1
102
RTVSPropertyOp27
 70
     1
102
RTVSPropertyOp28
 70
     1
102
RTVSPropertyOp29
 70
     1
102
RTVSPropertyOp30
 70
     1
102
RTVSPropertyOp31
 70
     1
102
RTVSPropertyOp32
 70
     1
  0
XRECORD
  5
111F
102
{ACAD_REACTORS
330
111E
102
}
330
111E
100
AcDbXrecord
280
     1
102
RTVSPropertyOp0
 70
     1
102
RTVSPropertyOp1
 70
     1
102
RTVSPropertyOp2
 70
     1
102
RTVSPropertyOp3
 70
     1
102
RTVSPropertyOp4
 70
     1
102
RTVSPropertyOp5
 70
     1
102
RTVSPropertyOp6
 70
     1
102
RTVSPropertyOp7
 70
     1
102
RTVSPropertyOp8
 70
     1
102
RTVSPropertyOp9
 70
     1
102
RTVSPropertyOp10
 70
     1
102
RTVSPropertyOp11
 70
     1
102
RTVSPropertyOp12
 70
     1
102
RTVSPropertyOp13
 70
     1
102
RTVSPropertyOp14
 70
     1
102
RTVSPropertyOp15
 70
     1
102
RTVSPropertyOp16
 70
     1
102
RTVSPropertyOp17
 70
     1
102
RTVSPropertyOp18
 70
     1
102
RTVSPropertyOp19
 70
     1
102
RTVSPropertyOp20
 70
     1
102
RTVSPropertyOp21
 70
     1
102
RTVSPropertyOp22
 70
     1
102
RTVSPropertyOp23
 70
     1
102
RTVSPropertyOp24
 70
     1
102
RTVSPropertyOp25
 70
     1
102
RTVSPropertyOp26
 70
     1
102
RTVSPropertyOp27
 70
     1
102
RTVSPropertyOp28
 70
     1
102
RTVSPropertyOp29
 70
     1
102
RTVSPropertyOp30
 70
     1
102
RTVSPropertyOp31
 70
     1
102
RTVSPropertyOp32
 70
     1
  0
XRECORD
  5
1127
102
{ACAD_REACTORS
330
1126
102
}
330
1126
100
AcDbXrecord
280
     1
102
RTVSPropertyOp0
 70
     1
102
RTVSPropertyOp1
 70
     1
102
RTVSPropertyOp2
 70
     1
102
RTVSPropertyOp3
 70
     1
102
RTVSPropertyOp4
 70
     1
102
RTVSPropertyOp5
 70
     1
102
RTVSPropertyOp6
 70
     1
102
RTVSPropertyOp7
 70
     1
102
RTVSPropertyOp8
 70
     1
102
RTVSPropertyOp9
 70
     1
102
RTVSPropertyOp10
 70
     1
102
RTVSPropertyOp11
 70
     1
102
RTVSPropertyOp12
 70
     1
102
RTVSPropertyOp13
 70
     1
102
RTVSPropertyOp14
 70
     1
102
RTVSPropertyOp15
 70
     1
102
RTVSPropertyOp16
 70
     1
102
RTVSPropertyOp17
 70
     1
102
RTVSPropertyOp18
 70
     1
102
RTVSPropertyOp19
 70
     1
102
RTVSPropertyOp20
 70
     1
102
RTVSPropertyOp21
 70
     1
102
RTVSPropertyOp22
 70
     1
102
RTVSPropertyOp23
 70
     1
102
RTVSPropertyOp24
 70
     1
102
RTVSPropertyOp25
 70
     1
102
RTVSPropertyOp26
 70
     1
102
RTVSPropertyOp27
 70
     1
102
RTVSPropertyOp28
 70
     1
102
RTVSPropertyOp29
 70
     1
102
RTVSPropertyOp30
 70
     1
102
RTVSPropertyOp31
 70
     1
102
RTVSPropertyOp32
 70
     1
  0
XRECORD
  5
1119
102
{ACAD_REACTORS
330
1118
102
}
330
1118
100
AcDbXrecord
280
     1
102
RTVSPropertyOp0
 70
     1
102
RTVSPropertyOp1
 70
     1
102
RTVSPropertyOp2
 70
     1
102
RTVSPropertyOp3
 70
     1
102
RTVSPropertyOp4
 70
     1
102
RTVSPropertyOp5
 70
     1
102
RTVSPropertyOp6
 70
     1
102
RTVSPropertyOp7
 70
     1
102
RTVSPropertyOp8
 70
     1
102
RTVSPropertyOp9
 70
     1
102
RTVSPropertyOp10
 70
     1
102
RTVSPropertyOp11
 70
     1
102
RTVSPropertyOp12
 70
     1
102
RTVSPropertyOp13
 70
     1
102
RTVSPropertyOp14
 70
     1
102
RTVSPropertyOp15
 70
     1
102
RTVSPropertyOp16
 70
     1
102
RTVSPropertyOp17
 70
     1
102
RTVSPropertyOp18
 70
     1
102
RTVSPropertyOp19
 70
     1
102
RTVSPropertyOp20
 70
     1
102
RTVSPropertyOp21
 70
     1
102
RTVSPropertyOp22
 70
     1
102
RTVSPropertyOp23
 70
     1
102
RTVSPropertyOp24
 70
     1
102
RTVSPropertyOp25
 70
     1
102
RTVSPropertyOp26
 70
     1
102
RTVSPropertyOp27
 70
     1
102
RTVSPropertyOp28
 70
     1
102
RTVSPropertyOp29
 70
     1
102
RTVSPropertyOp30
 70
     1
102
RTVSPropertyOp31
 70
     1
102
RTVSPropertyOp32
 70
     1
  0
XRECORD
  5
111D
102
{ACAD_REACTORS
330
111C
102
}
330
111C
100
AcDbXrecord
280
     1
102
RTVSPropertyOp0
 70
     1
102
RTVSPropertyOp1
 70
     1
102
RTVSPropertyOp2
 70
     1
102
RTVSPropertyOp3
 70
     1
102
RTVSPropertyOp4
 70
     1
102
RTVSPropertyOp5
 70
     1
102
RTVSPropertyOp6
 70
     1
102
RTVSPropertyOp7
 70
     1
102
RTVSPropertyOp8
 70
     1
102
RTVSPropertyOp9
 70
     1
102
RTVSPropertyOp10
 70
     1
102
RTVSPropertyOp11
 70
     1
102
RTVSPropertyOp12
 70
     1
102
RTVSPropertyOp13
 70
     1
102
RTVSPropertyOp14
 70
     1
102
RTVSPropertyOp15
 70
     1
102
RTVSPropertyOp16
 70
     1
102
RTVSPropertyOp17
 70
     1
102
RTVSPropertyOp18
 70
     1
102
RTVSPropertyOp19
 70
     1
102
RTVSPropertyOp20
 70
     1
102
RTVSPropertyOp21
 70
     1
102
RTVSPropertyOp22
 70
     1
102
RTVSPropertyOp23
 70
     1
102
RTVSPropertyOp24
 70
     1
102
RTVSPropertyOp25
 70
     1
102
RTVSPropertyOp26
 70
     1
102
RTVSPropertyOp27
 70
     1
102
RTVSPropertyOp28
 70
     1
102
RTVSPropertyOp29
 70
     1
102
RTVSPropertyOp30
 70
     1
102
RTVSPropertyOp31
 70
     1
102
RTVSPropertyOp32
 70
     1
  0
XRECORD
  5
1137
102
{ACAD_REACTORS
330
1136
102
}
330
1136
100
AcDbXrecord
280
     1
102
RTVSPropertyOp0
 70
     0
102
RTVSPropertyOp1
 70
     0
102
RTVSPropertyOp2
 70
     0
102
RTVSPropertyOp3
 70
     0
102
RTVSPropertyOp4
 70
     0
102
RTVSPropertyOp5
 70
     0
102
RTVSPropertyOp6
 70
     0
102
RTVSPropertyOp7
 70
     0
102
RTVSPropertyOp8
 70
     0
102
RTVSPropertyOp9
 70
     0
102
RTVSPropertyOp10
 70
     0
102
RTVSPropertyOp11
 70
     0
102
RTVSPropertyOp12
 70
     0
102
RTVSPropertyOp13
 70
     0
102
RTVSPropertyOp14
 70
     2
102
RTVSPropertyOp15
 70
     0
102
RTVSPropertyOp16
 70
     0
102
RTVSPropertyOp17
 70
     0
102
RTVSPropertyOp18
 70
     0
102
RTVSPropertyOp19
 70
     0
102
RTVSPropertyOp20
 70
     0
102
RTVSPropertyOp21
 70
     0
102
RTVSPropertyOp22
 70
     0
102
RTVSPropertyOp23
 70
     0
102
RTVSPropertyOp24
 70
     0
102
RTVSPropertyOp25
 70
     0
102
RTVSPropertyOp26
 70
     0
102
RTVSPropertyOp27
 70
     0
102
RTVSPropertyOp28
 70
     0
102
RTVSPropertyOp29
 70
     0
102
RTVSPropertyOp30
 70
     0
102
RTVSPropertyOp31
 70
     0
102
RTVSPropertyOp32
 70
     0
  0
XRECORD
  5
1125
102
{ACAD_REACTORS
330
1124
102
}
330
1124
100
AcDbXrecord
280
     1
102
RTVSPropertyOp0
 70
     1
102
RTVSPropertyOp1
 70
     1
102
RTVSPropertyOp2
 70
     1
102
RTVSPropertyOp3
 70
     1
102
RTVSPropertyOp4
 70
     1
102
RTVSPropertyOp5
 70
     1
102
RTVSPropertyOp6
 70
     1
102
RTVSPropertyOp7
 70
     1
102
RTVSPropertyOp8
 70
     1
102
RTVSPropertyOp9
 70
     1
102
RTVSPropertyOp10
 70
     1
102
RTVSPropertyOp11
 70
     1
102
RTVSPropertyOp12
 70
     1
102
RTVSPropertyOp13
 70
     1
102
RTVSPropertyOp14
 70
     1
102
RTVSPropertyOp15
 70
     1
102
RTVSPropertyOp16
 70
     1
102
RTVSPropertyOp17
 70
     1
102
RTVSPropertyOp18
 70
     1
102
RTVSPropertyOp19
 70
     1
102
RTVSPropertyOp20
 70
     1
102
RTVSPropertyOp21
 70
     1
102
RTVSPropertyOp22
 70
     1
102
RTVSPropertyOp23
 70
     1
102
RTVSPropertyOp24
 70
     1
102
RTVSPropertyOp25
 70
     1
102
RTVSPropertyOp26
 70
     1
102
RTVSPropertyOp27
 70
     1
102
RTVSPropertyOp28
 70
     1
102
RTVSPropertyOp29
 70
     1
102
RTVSPropertyOp30
 70
     1
102
RTVSPropertyOp31
 70
     1
102
RTVSPropertyOp32
 70
     1
  0
XRECORD
  5
1109
102
{ACAD_REACTORS
330
1108
102
}
330
1108
100
AcDbXrecord
280
     1
102
RTVSPropertyOp0
 70
     1
102
RTVSPropertyOp1
 70
     1
102
RTVSPropertyOp2
 70
     1
102
RTVSPropertyOp3
 70
     1
102
RTVSPropertyOp4
 70
     1
102
RTVSPropertyOp5
 70
     1
102
RTVSPropertyOp6
 70
     1
102
RTVSPropertyOp7
 70
     1
102
RTVSPropertyOp8
 70
     1
102
RTVSPropertyOp9
 70
     1
102
RTVSPropertyOp10
 70
     1
102
RTVSPropertyOp11
 70
     1
102
RTVSPropertyOp12
 70
     1
102
RTVSPropertyOp13
 70
     1
102
RTVSPropertyOp14
 70
     1
102
RTVSPropertyOp15
 70
     1
102
RTVSPropertyOp16
 70
     1
102
RTVSPropertyOp17
 70
     1
102
RTVSPropertyOp18
 70
     1
102
RTVSPropertyOp19
 70
     1
102
RTVSPropertyOp20
 70
     1
102
RTVSPropertyOp21
 70
     1
102
RTVSPropertyOp22
 70
     1
102
RTVSPropertyOp23
 70
     1
102
RTVSPropertyOp24
 70
     1
102
RTVSPropertyOp25
 70
     1
102
RTVSPropertyOp26
 70
     1
102
RTVSPropertyOp27
 70
     1
102
RTVSPropertyOp28
 70
     1
102
RTVSPropertyOp29
 70
     1
102
RTVSPropertyOp30
 70
     1
102
RTVSPropertyOp31
 70
     1
102
RTVSPropertyOp32
 70
     1
  0
XRECORD
  5
110B
102
{ACAD_REACTORS
330
110A
102
}
330
110A
100
AcDbXrecord
280
     1
102
RTVSPropertyOp0
 70
     1
102
RTVSPropertyOp1
 70
     1
102
RTVSPropertyOp2
 70
     1
102
RTVSPropertyOp3
 70
     1
102
RTVSPropertyOp4
 70
     1
102
RTVSPropertyOp5
 70
     1
102
RTVSPropertyOp6
 70
     1
102
RTVSPropertyOp7
 70
     1
102
RTVSPropertyOp8
 70
     1
102
RTVSPropertyOp9
 70
     1
102
RTVSPropertyOp10
 70
     1
102
RTVSPropertyOp11
 70
     1
102
RTVSPropertyOp12
 70
     1
102
RTVSPropertyOp13
 70
     1
102
RTVSPropertyOp14
 70
     1
102
RTVSPropertyOp15
 70
     1
102
RTVSPropertyOp16
 70
     1
102
RTVSPropertyOp17
 70
     1
102
RTVSPropertyOp18
 70
     1
102
RTVSPropertyOp19
 70
     1
102
RTVSPropertyOp20
 70
     1
102
RTVSPropertyOp21
 70
     1
102
RTVSPropertyOp22
 70
     1
102
RTVSPropertyOp23
 70
     1
102
RTVSPropertyOp24
 70
     1
102
RTVSPropertyOp25
 70
     1
102
RTVSPropertyOp26
 70
     1
102
RTVSPropertyOp27
 70
     1
102
RTVSPropertyOp28
 70
     1
102
RTVSPropertyOp29
 70
     1
102
RTVSPropertyOp30
 70
     1
102
RTVSPropertyOp31
 70
     1
102
RTVSPropertyOp32
 70
     1
  0
XRECORD
  5
110D
102
{ACAD_REACTORS
330
110C
102
}
330
110C
100
AcDbXrecord
280
     1
102
RTVSPropertyOp0
 70
     1
102
RTVSPropertyOp1
 70
     1
102
RTVSPropertyOp2
 70
     1
102
RTVSPropertyOp3
 70
     1
102
RTVSPropertyOp4
 70
     1
102
RTVSPropertyOp5
 70
     1
102
RTVSPropertyOp6
 70
     1
102
RTVSPropertyOp7
 70
     1
102
RTVSPropertyOp8
 70
     1
102
RTVSPropertyOp9
 70
     1
102
RTVSPropertyOp10
 70
     1
102
RTVSPropertyOp11
 70
     1
102
RTVSPropertyOp12
 70
     1
102
RTVSPropertyOp13
 70
     1
102
RTVSPropertyOp14
 70
     1
102
RTVSPropertyOp15
 70
     1
102
RTVSPropertyOp16
 70
     1
102
RTVSPropertyOp17
 70
     1
102
RTVSPropertyOp18
 70
     1
102
RTVSPropertyOp19
 70
     1
102
RTVSPropertyOp20
 70
     1
102
RTVSPropertyOp21
 70
     1
102
RTVSPropertyOp22
 70
     1
102
RTVSPropertyOp23
 70
     1
102
RTVSPropertyOp24
 70
     1
102
RTVSPropertyOp25
 70
     1
102
RTVSPropertyOp26
 70
     1
102
RTVSPropertyOp27
 70
     1
102
RTVSPropertyOp28
 70
     1
102
RTVSPropertyOp29
 70
     1
102
RTVSPropertyOp30
 70
     1
102
RTVSPropertyOp31
 70
     1
102
RTVSPropertyOp32
 70
     1
  0
XRECORD
  5
110F
102
{ACAD_REACTORS
330
110E
102
}
330
110E
100
AcDbXrecord
280
     1
102
RTVSPropertyOp0
 70
     1
102
RTVSPropertyOp1
 70
     1
102
RTVSPropertyOp2
 70
     1
102
RTVSPropertyOp3
 70
     1
102
RTVSPropertyOp4
 70
     1
102
RTVSPropertyOp5
 70
     1
102
RTVSPropertyOp6
 70
     1
102
RTVSPropertyOp7
 70
     1
102
RTVSPropertyOp8
 70
     1
102
RTVSPropertyOp9
 70
     1
102
RTVSPropertyOp10
 70
     1
102
RTVSPropertyOp11
 70
     1
102
RTVSPropertyOp12
 70
     1
102
RTVSPropertyOp13
 70
     1
102
RTVSPropertyOp14
 70
     1
102
RTVSPropertyOp15
 70
     1
102
RTVSPropertyOp16
 70
     1
102
RTVSPropertyOp17
 70
     1
102
RTVSPropertyOp18
 70
     1
102
RTVSPropertyOp19
 70
     1
102
RTVSPropertyOp20
 70
     1
102
RTVSPropertyOp21
 70
     1
102
RTVSPropertyOp22
 70
     1
102
RTVSPropertyOp23
 70
     1
102
RTVSPropertyOp24
 70
     1
102
RTVSPropertyOp25
 70
     1
102
RTVSPropertyOp26
 70
     1
102
RTVSPropertyOp27
 70
     1
102
RTVSPropertyOp28
 70
     1
102
RTVSPropertyOp29
 70
     1
102
RTVSPropertyOp30
 70
     1
102
RTVSPropertyOp31
 70
     1
102
RTVSPropertyOp32
 70
     1
  0
XRECORD
  5
1117
102
{ACAD_REACTORS
330
1116
102
}
330
1116
100
AcDbXrecord
280
     1
102
RTVSPropertyOp0
 70
     1
102
RTVSPropertyOp1
 70
     1
102
RTVSPropertyOp2
 70
     1
102
RTVSPropertyOp3
 70
     1
102
RTVSPropertyOp4
 70
     1
102
RTVSPropertyOp5
 70
     1
102
RTVSPropertyOp6
 70
     1
102
RTVSPropertyOp7
 70
     1
102
RTVSPropertyOp8
 70
     1
102
RTVSPropertyOp9
 70
     1
102
RTVSPropertyOp10
 70
     1
102
RTVSPropertyOp11
 70
     1
102
RTVSPropertyOp12
 70
     1
102
RTVSPropertyOp13
 70
     1
102
RTVSPropertyOp14
 70
     1
102
RTVSPropertyOp15
 70
     1
102
RTVSPropertyOp16
 70
     1
102
RTVSPropertyOp17
 70
     1
102
RTVSPropertyOp18
 70
     1
102
RTVSPropertyOp19
 70
     1
102
RTVSPropertyOp20
 70
     1
102
RTVSPropertyOp21
 70
     1
102
RTVSPropertyOp22
 70
     1
102
RTVSPropertyOp23
 70
     1
102
RTVSPropertyOp24
 70
     1
102
RTVSPropertyOp25
 70
     1
102
RTVSPropertyOp26
 70
     1
102
RTVSPropertyOp27
 70
     1
102
RTVSPropertyOp28
 70
     1
102
RTVSPropertyOp29
 70
     1
102
RTVSPropertyOp30
 70
     1
102
RTVSPropertyOp31
 70
     1
102
RTVSPropertyOp32
 70
     1
  0
XRECORD
  5
1133
102
{ACAD_REACTORS
330
1132
102
}
330
1132
100
AcDbXrecord
280
     1
102
RTVSPropertyOp0
 70
     0
102
RTVSPropertyOp1
 70
     0
102
RTVSPropertyOp2
 70
     0
102
RTVSPropertyOp3
 70
     0
102
RTVSPropertyOp4
 70
     0
102
RTVSPropertyOp5
 70
     0
102
RTVSPropertyOp6
 70
     0
102
RTVSPropertyOp7
 70
     0
102
RTVSPropertyOp8
 70
     0
102
RTVSPropertyOp9
 70
     0
102
RTVSPropertyOp10
 70
     0
102
RTVSPropertyOp11
 70
     0
102
RTVSPropertyOp12
 70
     0
102
RTVSPropertyOp13
 70
     0
102
RTVSPropertyOp14
 70
     2
102
RTVSPropertyOp15
 70
     0
102
RTVSPropertyOp16
 70
     0
102
RTVSPropertyOp17
 70
     0
102
RTVSPropertyOp18
 70
     0
102
RTVSPropertyOp19
 70
     0
102
RTVSPropertyOp20
 70
     0
102
RTVSPropertyOp21
 70
     0
102
RTVSPropertyOp22
 70
     0
102
RTVSPropertyOp23
 70
     0
102
RTVSPropertyOp24
 70
     0
102
RTVSPropertyOp25
 70
     0
102
RTVSPropertyOp26
 70
     0
102
RTVSPropertyOp27
 70
     0
102
RTVSPropertyOp28
 70
     0
102
RTVSPropertyOp29
 70
     0
102
RTVSPropertyOp30
 70
     0
102
RTVSPropertyOp31
 70
     0
102
RTVSPropertyOp32
 70
     0
  0
XRECORD
  5
1123
102
{ACAD_REACTORS
330
1122
102
}
330
1122
100
AcDbXrecord
280
     1
102
RTVSPropertyOp0
 70
     1
102
RTVSPropertyOp1
 70
     1
102
RTVSPropertyOp2
 70
     1
102
RTVSPropertyOp3
 70
     1
102
RTVSPropertyOp4
 70
     1
102
RTVSPropertyOp5
 70
     1
102
RTVSPropertyOp6
 70
     1
102
RTVSPropertyOp7
 70
     1
102
RTVSPropertyOp8
 70
     1
102
RTVSPropertyOp9
 70
     1
102
RTVSPropertyOp10
 70
     1
102
RTVSPropertyOp11
 70
     1
102
RTVSPropertyOp12
 70
     1
102
RTVSPropertyOp13
 70
     1
102
RTVSPropertyOp14
 70
     1
102
RTVSPropertyOp15
 70
     1
102
RTVSPropertyOp16
 70
     1
102
RTVSPropertyOp17
 70
     1
102
RTVSPropertyOp18
 70
     1
102
RTVSPropertyOp19
 70
     1
102
RTVSPropertyOp20
 70
     1
102
RTVSPropertyOp21
 70
     1
102
RTVSPropertyOp22
 70
     1
102
RTVSPropertyOp23
 70
     1
102
RTVSPropertyOp24
 70
     1
102
RTVSPropertyOp25
 70
     1
102
RTVSPropertyOp26
 70
     1
102
RTVSPropertyOp27
 70
     1
102
RTVSPropertyOp28
 70
     1
102
RTVSPropertyOp29
 70
     1
102
RTVSPropertyOp30
 70
     1
102
RTVSPropertyOp31
 70
     1
102
RTVSPropertyOp32
 70
     1
  0
XRECORD
  5
1135
102
{ACAD_REACTORS
330
1134
102
}
330
1134
100
AcDbXrecord
280
     1
102
RTVSPropertyOp0
 70
     0
102
RTVSPropertyOp1
 70
     0
102
RTVSPropertyOp2
 70
     0
102
RTVSPropertyOp3
 70
     0
102
RTVSPropertyOp4
 70
     0
102
RTVSPropertyOp5
 70
     0
102
RTVSPropertyOp6
 70
     0
102
RTVSPropertyOp7
 70
     0
102
RTVSPropertyOp8
 70
     0
102
RTVSPropertyOp9
 70
     0
102
RTVSPropertyOp10
 70
     0
102
RTVSPropertyOp11
 70
     0
102
RTVSPropertyOp12
 70
     0
102
RTVSPropertyOp13
 70
     0
102
RTVSPropertyOp14
 70
     2
102
RTVSPropertyOp15
 70
     0
102
RTVSPropertyOp16
 70
     0
102
RTVSPropertyOp17
 70
     0
102
RTVSPropertyOp18
 70
     0
102
RTVSPropertyOp19
 70
     0
102
RTVSPropertyOp20
 70
     0
102
RTVSPropertyOp21
 70
     0
102
RTVSPropertyOp22
 70
     0
102
RTVSPropertyOp23
 70
     0
102
RTVSPropertyOp24
 70
     0
102
RTVSPropertyOp25
 70
     0
102
RTVSPropertyOp26
 70
     0
102
RTVSPropertyOp27
 70
     0
102
RTVSPropertyOp28
 70
     0
102
RTVSPropertyOp29
 70
     0
102
RTVSPropertyOp30
 70
     0
102
RTVSPropertyOp31
 70
     0
102
RTVSPropertyOp32
 70
     0
  0
XRECORD
  5
111B
102
{ACAD_REACTORS
330
111A
102
}
330
111A
100
AcDbXrecord
280
     1
102
RTVSPropertyOp0
 70
     1
102
RTVSPropertyOp1
 70
     1
102
RTVSPropertyOp2
 70
     1
102
RTVSPropertyOp3
 70
     1
102
RTVSPropertyOp4
 70
     1
102
RTVSPropertyOp5
 70
     1
102
RTVSPropertyOp6
 70
     1
102
RTVSPropertyOp7
 70
     1
102
RTVSPropertyOp8
 70
     1
102
RTVSPropertyOp9
 70
     1
102
RTVSPropertyOp10
 70
     1
102
RTVSPropertyOp11
 70
     1
102
RTVSPropertyOp12
 70
     1
102
RTVSPropertyOp13
 70
     1
102
RTVSPropertyOp14
 70
     1
102
RTVSPropertyOp15
 70
     1
102
RTVSPropertyOp16
 70
     1
102
RTVSPropertyOp17
 70
     1
102
RTVSPropertyOp18
 70
     1
102
RTVSPropertyOp19
 70
     1
102
RTVSPropertyOp20
 70
     1
102
RTVSPropertyOp21
 70
     1
102
RTVSPropertyOp22
 70
     1
102
RTVSPropertyOp23
 70
     1
102
RTVSPropertyOp24
 70
     1
102
RTVSPropertyOp25
 70
     1
102
RTVSPropertyOp26
 70
     1
102
RTVSPropertyOp27
 70
     1
102
RTVSPropertyOp28
 70
     1
102
RTVSPropertyOp29
 70
     1
102
RTVSPropertyOp30
 70
     1
102
RTVSPropertyOp31
 70
     1
102
RTVSPropertyOp32
 70
     1
  0
XRECORD
  5
1131
102
{ACAD_REACTORS
330
1130
102
}
330
1130
100
AcDbXrecord
280
     1
102
RTVSPropertyOp0
 70
     1
102
RTVSPropertyOp1
 70
     1
102
RTVSPropertyOp2
 70
     1
102
RTVSPropertyOp3
 70
     1
102
RTVSPropertyOp4
 70
     1
102
RTVSPropertyOp5
 70
     1
102
RTVSPropertyOp6
 70
     1
102
RTVSPropertyOp7
 70
     1
102
RTVSPropertyOp8
 70
     1
102
RTVSPropertyOp9
 70
     1
102
RTVSPropertyOp10
 70
     1
102
RTVSPropertyOp11
 70
     1
102
RTVSPropertyOp12
 70
     1
102
RTVSPropertyOp13
 70
     1
102
RTVSPropertyOp14
 70
     1
102
RTVSPropertyOp15
 70
     1
102
RTVSPropertyOp16
 70
     1
102
RTVSPropertyOp17
 70
     1
102
RTVSPropertyOp18
 70
     1
102
RTVSPropertyOp19
 70
     1
102
RTVSPropertyOp20
 70
     1
102
RTVSPropertyOp21
 70
     1
102
RTVSPropertyOp22
 70
     1
102
RTVSPropertyOp23
 70
     1
102
RTVSPropertyOp24
 70
     1
102
RTVSPropertyOp25
 70
     1
102
RTVSPropertyOp26
 70
     1
102
RTVSPropertyOp27
 70
     1
102
RTVSPropertyOp28
 70
     1
102
RTVSPropertyOp29
 70
     1
102
RTVSPropertyOp30
 70
     1
102
RTVSPropertyOp31
 70
     1
102
RTVSPropertyOp32
 70
     1
  0
XRECORD
  5
112F
102
{ACAD_REACTORS
330
112E
102
}
330
112E
100
AcDbXrecord
280
     1
102
RTVSPropertyOp0
 70
     1
102
RTVSPropertyOp1
 70
     1
102
RTVSPropertyOp2
 70
     1
102
RTVSPropertyOp3
 70
     1
102
RTVSPropertyOp4
 70
     1
102
RTVSPropertyOp5
 70
     1
102
RTVSPropertyOp6
 70
     1
102
RTVSPropertyOp7
 70
     1
102
RTVSPropertyOp8
 70
     1
102
RTVSPropertyOp9
 70
     1
102
RTVSPropertyOp10
 70
     1
102
RTVSPropertyOp11
 70
     1
102
RTVSPropertyOp12
 70
     1
102
RTVSPropertyOp13
 70
     1
102
RTVSPropertyOp14
 70
     1
102
RTVSPropertyOp15
 70
     1
102
RTVSPropertyOp16
 70
     1
102
RTVSPropertyOp17
 70
     1
102
RTVSPropertyOp18
 70
     1
102
RTVSPropertyOp19
 70
     1
102
RTVSPropertyOp20
 70
     1
102
RTVSPropertyOp21
 70
     1
102
RTVSPropertyOp22
 70
     1
102
RTVSPropertyOp23
 70
     1
102
RTVSPropertyOp24
 70
     1
102
RTVSPropertyOp25
 70
     1
102
RTVSPropertyOp26
 70
     1
102
RTVSPropertyOp27
 70
     1
102
RTVSPropertyOp28
 70
     1
102
RTVSPropertyOp29
 70
     1
102
RTVSPropertyOp30
 70
     1
102
RTVSPropertyOp31
 70
     1
102
RTVSPropertyOp32
 70
     1
  0
XRECORD
  5
1129
102
{ACAD_REACTORS
330
1128
102
}
330
1128
100
AcDbXrecord
280
     1
102
RTVSPropertyOp0
 70
     1
102
RTVSPropertyOp1
 70
     1
102
RTVSPropertyOp2
 70
     1
102
RTVSPropertyOp3
 70
     1
102
RTVSPropertyOp4
 70
     1
102
RTVSPropertyOp5
 70
     1
102
RTVSPropertyOp6
 70
     1
102
RTVSPropertyOp7
 70
     1
102
RTVSPropertyOp8
 70
     1
102
RTVSPropertyOp9
 70
     1
102
RTVSPropertyOp10
 70
     1
102
RTVSPropertyOp11
 70
     1
102
RTVSPropertyOp12
 70
     1
102
RTVSPropertyOp13
 70
     1
102
RTVSPropertyOp14
 70
     1
102
RTVSPropertyOp15
 70
     1
102
RTVSPropertyOp16
 70
     1
102
RTVSPropertyOp17
 70
     1
102
RTVSPropertyOp18
 70
     1
102
RTVSPropertyOp19
 70
     1
102
RTVSPropertyOp20
 70
     1
102
RTVSPropertyOp21
 70
     1
102
RTVSPropertyOp22
 70
     1
102
RTVSPropertyOp23
 70
     1
102
RTVSPropertyOp24
 70
     1
102
RTVSPropertyOp25
 70
     1
102
RTVSPropertyOp26
 70
     1
102
RTVSPropertyOp27
 70
     1
102
RTVSPropertyOp28
 70
     1
102
RTVSPropertyOp29
 70
     1
102
RTVSPropertyOp30
 70
     1
102
RTVSPropertyOp31
 70
     1
102
RTVSPropertyOp32
 70
     1
  0
XRECORD
  5
112B
102
{ACAD_REACTORS
330
112A
102
}
330
112A
100
AcDbXrecord
280
     1
102
RTVSPropertyOp0
 70
     1
102
RTVSPropertyOp1
 70
     1
102
RTVSPropertyOp2
 70
     1
102
RTVSPropertyOp3
 70
     1
102
RTVSPropertyOp4
 70
     1
102
RTVSPropertyOp5
 70
     1
102
RTVSPropertyOp6
 70
     1
102
RTVSPropertyOp7
 70
     1
102
RTVSPropertyOp8
 70
     1
102
RTVSPropertyOp9
 70
     1
102
RTVSPropertyOp10
 70
     1
102
RTVSPropertyOp11
 70
     1
102
RTVSPropertyOp12
 70
     1
102
RTVSPropertyOp13
 70
     1
102
RTVSPropertyOp14
 70
     1
102
RTVSPropertyOp15
 70
     1
102
RTVSPropertyOp16
 70
     1
102
RTVSPropertyOp17
 70
     1
102
RTVSPropertyOp18
 70
     1
102
RTVSPropertyOp19
 70
     1
102
RTVSPropertyOp20
 70
     1
102
RTVSPropertyOp21
 70
     1
102
RTVSPropertyOp22
 70
     1
102
RTVSPropertyOp23
 70
     1
102
RTVSPropertyOp24
 70
     1
102
RTVSPropertyOp25
 70
     1
102
RTVSPropertyOp26
 70
     1
102
RTVSPropertyOp27
 70
     1
102
RTVSPropertyOp28
 70
     1
102
RTVSPropertyOp29
 70
     1
102
RTVSPropertyOp30
 70
     1
102
RTVSPropertyOp31
 70
     1
102
RTVSPropertyOp32
 70
     1
  0
XRECORD
  5
1121
102
{ACAD_REACTORS
330
1120
102
}
330
1120
100
AcDbXrecord
280
     1
102
RTVSPropertyOp0
 70
     1
102
RTVSPropertyOp1
 70
     1
102
RTVSPropertyOp2
 70
     1
102
RTVSPropertyOp3
 70
     1
102
RTVSPropertyOp4
 70
     1
102
RTVSPropertyOp5
 70
     1
102
RTVSPropertyOp6
 70
     1
102
RTVSPropertyOp7
 70
     1
102
RTVSPropertyOp8
 70
     1
102
RTVSPropertyOp9
 70
     1
102
RTVSPropertyOp10
 70
     1
102
RTVSPropertyOp11
 70
     1
102
RTVSPropertyOp12
 70
     1
102
RTVSPropertyOp13
 70
     1
102
RTVSPropertyOp14
 70
     1
102
RTVSPropertyOp15
 70
     1
102
RTVSPropertyOp16
 70
     1
102
RTVSPropertyOp17
 70
     1
102
RTVSPropertyOp18
 70
     1
102
RTVSPropertyOp19
 70
     1
102
RTVSPropertyOp20
 70
     1
102
RTVSPropertyOp21
 70
     1
102
RTVSPropertyOp22
 70
     1
102
RTVSPropertyOp23
 70
     1
102
RTVSPropertyOp24
 70
     1
102
RTVSPropertyOp25
 70
     1
102
RTVSPropertyOp26
 70
     1
102
RTVSPropertyOp27
 70
     1
102
RTVSPropertyOp28
 70
     1
102
RTVSPropertyOp29
 70
     1
102
RTVSPropertyOp30
 70
     1
102
RTVSPropertyOp31
 70
     1
102
RTVSPropertyOp32
 70
     1
  0
XRECORD
  5
1115
102
{ACAD_REACTORS
330
1114
102
}
330
1114
100
AcDbXrecord
280
     1
102
RTVSPropertyOp0
 70
     1
102
RTVSPropertyOp1
 70
     1
102
RTVSPropertyOp2
 70
     1
102
RTVSPropertyOp3
 70
     1
102
RTVSPropertyOp4
 70
     1
102
RTVSPropertyOp5
 70
     1
102
RTVSPropertyOp6
 70
     1
102
RTVSPropertyOp7
 70
     1
102
RTVSPropertyOp8
 70
     1
102
RTVSPropertyOp9
 70
     1
102
RTVSPropertyOp10
 70
     1
102
RTVSPropertyOp11
 70
     1
102
RTVSPropertyOp12
 70
     1
102
RTVSPropertyOp13
 70
     1
102
RTVSPropertyOp14
 70
     1
102
RTVSPropertyOp15
 70
     1
102
RTVSPropertyOp16
 70
     1
102
RTVSPropertyOp17
 70
     1
102
RTVSPropertyOp18
 70
     1
102
RTVSPropertyOp19
 70
     1
102
RTVSPropertyOp20
 70
     1
102
RTVSPropertyOp21
 70
     1
102
RTVSPropertyOp22
 70
     1
102
RTVSPropertyOp23
 70
     1
102
RTVSPropertyOp24
 70
     1
102
RTVSPropertyOp25
 70
     1
102
RTVSPropertyOp26
 70
     1
102
RTVSPropertyOp27
 70
     1
102
RTVSPropertyOp28
 70
     1
102
RTVSPropertyOp29
 70
     1
102
RTVSPropertyOp30
 70
     1
102
RTVSPropertyOp31
 70
     1
102
RTVSPropertyOp32
 70
     1
  0
XRECORD
  5
112D
102
{ACAD_REACTORS
330
112C
102
}
330
112C
100
AcDbXrecord
280
     1
102
RTVSPropertyOp0
 70
     1
102
RTVSPropertyOp1
 70
     1
102
RTVSPropertyOp2
 70
     1
102
RTVSPropertyOp3
 70
     1
102
RTVSPropertyOp4
 70
     1
102
RTVSPropertyOp5
 70
     1
102
RTVSPropertyOp6
 70
     1
102
RTVSPropertyOp7
 70
     1
102
RTVSPropertyOp8
 70
     1
102
RTVSPropertyOp9
 70
     1
102
RTVSPropertyOp10
 70
     1
102
RTVSPropertyOp11
 70
     1
102
RTVSPropertyOp12
 70
     1
102
RTVSPropertyOp13
 70
     1
102
RTVSPropertyOp14
 70
     1
102
RTVSPropertyOp15
 70
     1
102
RTVSPropertyOp16
 70
     1
102
RTVSPropertyOp17
 70
     1
102
RTVSPropertyOp18
 70
     1
102
RTVSPropertyOp19
 70
     1
102
RTVSPropertyOp20
 70
     1
102
RTVSPropertyOp21
 70
     1
102
RTVSPropertyOp22
 70
     1
102
RTVSPropertyOp23
 70
     1
102
RTVSPropertyOp24
 70
     1
102
RTVSPropertyOp25
 70
     1
102
RTVSPropertyOp26
 70
     1
102
RTVSPropertyOp27
 70
     1
102
RTVSPropertyOp28
 70
     1
102
RTVSPropertyOp29
 70
     1
102
RTVSPropertyOp30
 70
     1
102
RTVSPropertyOp31
 70
     1
102
RTVSPropertyOp32
 70
     1
  0
ENDSEC
  0
EOF
