  0
SECTION
  2
HEADER
  9
$ACADVER
  1
AC1015
  9
$ACADMAINTVER
 70
    20
  9
$DWGCODEPAGE
  3
ANSI_932
  9
$INSBASE
 10
0.0
 20
0.0
 30
0.0
  9
$EXTMIN
 10
-664.6628703721058
 20
-140.2189651788628
 30
0.0
  9
$EXTMAX
 10
-259.6628703721058
 20
139.5563007211371
 30
0.0
  9
$LIMMIN
 10
-205.001
 20
-135.501
  9
$LIMMAX
 10
200.026864
 20
138.556359
  9
$ORTHOMODE
 70
     1
  9
$REGENMODE
 70
     1
  9
$FILLMODE
 70
     1
  9
$QTEXTMODE
 70
     0
  9
$MIRRTEXT
 70
     0
  9
$LTSCALE
 40
6.750430999999998
  9
$ATTMODE
 70
     1
  9
$TEXTSIZE
 40
3.2
  9
$TRACEWID
 40
0.05
  9
$TEXTSTYLE
  7
高3.2
  9
$CLAYER
  8
0
  9
$CELTYPE
  6
CONTINUOUS
  9
$CECOLOR
 62
   256
  9
$CELTSCALE
 40
1.0
  9
$DISPSILH
 70
     0
  9
$DIMSCALE
 40
1.0
  9
$DIMASZ
 40
2.5
  9
$DIMEXO
 40
0.25
  9
$DIMDLI
 40
0.2
  9
$DIMRND
 40
0.0
  9
$DIMDLE
 40
0.0
  9
$DIMEXE
 40
1.25
  9
$DIMTP
 40
0.0
  9
$DIMTM
 40
0.0
  9
$DIMTXT
 40
3.0
  9
$DIMCEN
 40
0.0
  9
$DIMTSZ
 40
0.0
  9
$DIMTOL
 70
     0
  9
$DIMLIM
 70
     0
  9
$DIMTIH
 70
     0
  9
$DIMTOH
 70
     0
  9
$DIMSE1
 70
     0
  9
$DIMSE2
 70
     0
  9
$DIMTAD
 70
     3
  9
$DIMZIN
 70
     8
  9
$DIMBLK
  1
Open30
  9
$DIMASO
 70
     1
  9
$DIMSHO
 70
     1
  9
$DIMPOST
  1

  9
$DIMAPOST
  1

  9
$DIMALT
 70
     0
  9
$DIMALTD
 70
     3
  9
$DIMALTF
 40
0.03937007874016
  9
$DIMLFAC
 40
1.0
  9
$DIMTOFL
 70
     1
  9
$DIMTVP
 40
0.0
  9
$DIMTIX
 70
     0
  9
$DIMSOXD
 70
     0
  9
$DIMSAH
 70
     0
  9
$DIMBLK1
  1

  9
$DIMBLK2
  1

  9
$DIMSTYLE
  2
1：1
  9
$DIMCLRD
 70
     0
  9
$DIMCLRE
 70
     0
  9
$DIMCLRT
 70
     4
  9
$DIMTFAC
 40
1.0
  9
$DIMGAP
 40
0.625
  9
$DIMJUST
 70
     0
  9
$DIMSD1
 70
     0
  9
$DIMSD2
 70
     0
  9
$DIMTOLJ
 70
     0
  9
$DIMTZIN
 70
     8
  9
$DIMALTZ
 70
     0
  9
$DIMALTTZ
 70
     0
  9
$DIMUPT
 70
     1
  9
$DIMDEC
 70
     2
  9
$DIMTDEC
 70
     2
  9
$DIMALTU
 70
     2
  9
$DIMALTTD
 70
     3
  9
$DIMTXSTY
  7
STANDARD
  9
$DIMAUNIT
 70
     0
  9
$DIMADEC
 70
     1
  9
$DIMALTRND
 40
0.0
  9
$DIMAZIN
 70
     2
  9
$DIMDSEP
 70
    46
  9
$DIMATFIT
 70
     0
  9
$DIMFRAC
 70
     0
  9
$DIMLDRBLK
  1
Open30
  9
$DIMLUNIT
 70
     2
  9
$DIMLWD
 70
    -2
  9
$DIMLWE
 70
    -2
  9
$DIMTMOVE
 70
     0
  9
$LUNITS
 70
     2
  9
$LUPREC
 70
     4
  9
$SKETCHINC
 40
0.1
  9
$FILLETRAD
 40
0.0
  9
$AUNITS
 70
     0
  9
$AUPREC
 70
     0
  9
$MENU
  1
.
  9
$ELEVATION
 40
0.0
  9
$PELEVATION
 40
0.0
  9
$THICKNESS
 40
0.0
  9
$LIMCHECK
 70
     0
  9
$CHAMFERA
 40
0.0
  9
$CHAMFERB
 40
0.0
  9
$CHAMFERC
 40
0.0
  9
$CHAMFERD
 40
0.0
  9
$SKPOLY
 70
     0
  9
$TDCREATE
 40
2457239.861523611
  9
$TDUCREATE
 40
2457239.486523611
  9
$TDUPDATE
 40
2457240.470767917
  9
$TDUUPDATE
 40
2457240.095767917
  9
$TDINDWG
 40
0.0237279398
  9
$TDUSRTIMER
 40
0.0237279398
  9
$USRTIMER
 70
     1
  9
$ANGBASE
 50
0.0
  9
$ANGDIR
 70
     0
  9
$PDMODE
 70
     0
  9
$PDSIZE
 40
0.0
  9
$PLINEWID
 40
0.0
  9
$SPLFRAME
 70
     0
  9
$SPLINETYPE
 70
     6
  9
$SPLINESEGS
 70
     8
  9
$HANDSEED
  5
D37
  9
$SURFTAB1
 70
     6
  9
$SURFTAB2
 70
     6
  9
$SURFTYPE
 70
     6
  9
$SURFU
 70
     6
  9
$SURFV
 70
     6
  9
$UCSBASE
  2

  9
$UCSNAME
  2

  9
$UCSORG
 10
0.0
 20
0.0
 30
0.0
  9
$UCSXDIR
 10
1.0
 20
0.0
 30
0.0
  9
$UCSYDIR
 10
0.0
 20
1.0
 30
0.0
  9
$UCSORTHOREF
  2

  9
$UCSORTHOVIEW
 70
     0
  9
$UCSORGTOP
 10
0.0
 20
0.0
 30
0.0
  9
$UCSORGBOTTOM
 10
0.0
 20
0.0
 30
0.0
  9
$UCSORGLEFT
 10
0.0
 20
0.0
 30
0.0
  9
$UCSORGRIGHT
 10
0.0
 20
0.0
 30
0.0
  9
$UCSORGFRONT
 10
0.0
 20
0.0
 30
0.0
  9
$UCSORGBACK
 10
0.0
 20
0.0
 30
0.0
  9
$PUCSBASE
  2

  9
$PUCSNAME
  2

  9
$PUCSORG
 10
0.0
 20
0.0
 30
0.0
  9
$PUCSXDIR
 10
1.0
 20
0.0
 30
0.0
  9
$PUCSYDIR
 10
0.0
 20
1.0
 30
0.0
  9
$PUCSORTHOREF
  2

  9
$PUCSORTHOVIEW
 70
     0
  9
$PUCSORGTOP
 10
0.0
 20
0.0
 30
0.0
  9
$PUCSORGBOTTOM
 10
0.0
 20
0.0
 30
0.0
  9
$PUCSORGLEFT
 10
0.0
 20
0.0
 30
0.0
  9
$PUCSORGRIGHT
 10
0.0
 20
0.0
 30
0.0
  9
$PUCSORGFRONT
 10
0.0
 20
0.0
 30
0.0
  9
$PUCSORGBACK
 10
0.0
 20
0.0
 30
0.0
  9
$USERI1
 70
     0
  9
$USERI2
 70
     0
  9
$USERI3
 70
     0
  9
$USERI4
 70
     0
  9
$USERI5
 70
     0
  9
$USERR1
 40
0.0
  9
$USERR2
 40
0.0
  9
$USERR3
 40
0.0
  9
$USERR4
 40
0.0
  9
$USERR5
 40
0.0
  9
$WORLDVIEW
 70
     1
  9
$SHADEDGE
 70
     3
  9
$SHADEDIF
 70
    70
  9
$TILEMODE
 70
     1
  9
$MAXACTVP
 70
    64
  9
$PINSBASE
 10
0.0
 20
0.0
 30
0.0
  9
$PLIMCHECK
 70
     0
  9
$PEXTMIN
 10
1.000000000000000E+20
 20
1.000000000000000E+20
 30
1.000000000000000E+20
  9
$PEXTMAX
 10
-1.000000000000000E+20
 20
-1.000000000000000E+20
 30
-1.000000000000000E+20
  9
$PLIMMIN
 10
0.0
 20
0.0
  9
$PLIMMAX
 10
12.0
 20
9.0
  9
$UNITMODE
 70
     0
  9
$VISRETAIN
 70
     1
  9
$PLINEGEN
 70
     0
  9
$PSLTSCALE
 70
     1
  9
$TREEDEPTH
 70
  3020
  9
$CMLSTYLE
  2
Standard
  9
$CMLJUST
 70
     0
  9
$CMLSCALE
 40
1.0
  9
$PROXYGRAPHICS
 70
     1
  9
$MEASUREMENT
 70
     0
  9
$CELWEIGHT
370
    -1
  9
$ENDCAPS
280
     0
  9
$JOINSTYLE
280
     0
  9
$LWDISPLAY
290
     0
  9
$INSUNITS
 70
     0
  9
$HYPERLINKBASE
  1

  9
$STYLESHEET
  1

  9
$XEDIT
290
     1
  9
$CEPSNTYPE
380
     0
  9
$PSTYLEMODE
290
     1
  9
$FINGERPRINTGUID
  2
{B6EDE3FF-D10A-4B06-99F2-0768C2D554D4}
  9
$VERSIONGUID
  2
{B72FDA6F-AC47-4C33-9010-939C9F65D3A0}
  9
$EXTNAMES
290
     1
  9
$PSVPSCALE
 40
0.0
  9
$OLESTARTUP
290
     0
  0
ENDSEC
  0
SECTION
  2
CLASSES
  0
CLASS
  1
ACDBDICTIONARYWDFLT
  2
AcDbDictionaryWithDefault
  3
ObjectDBX Classes
 90
        0
280
     0
281
     0
  0
CLASS
  1
MATERIAL
  2
AcDbMaterial
  3
ObjectDBX Classes
 90
     1153
280
     0
281
     0
  0
CLASS
  1
VISUALSTYLE
  2
AcDbVisualStyle
  3
ObjectDBX Classes
 90
     4095
280
     0
281
     0
  0
CLASS
  1
SCALE
  2
AcDbScale
  3
ObjectDBX Classes
 90
     1153
280
     0
281
     0
  0
CLASS
  1
TABLESTYLE
  2
AcDbTableStyle
  3
ObjectDBX Classes
 90
     4095
280
     0
281
     0
  0
CLASS
  1
MLEADERSTYLE
  2
AcDbMLeaderStyle
  3
ACDB_MLEADERSTYLE_CLASS
 90
     4095
280
     0
281
     0
  0
CLASS
  1
SORTENTSTABLE
  2
AcDbSortentsTable
  3
ObjectDBX Classes
 90
        0
280
     0
281
     0
  0
CLASS
  1
AEC_REFEDIT_STATUS_TRACKER
  2
AecDbRefEditStatusTracker
  3
AecArchBase60|Product Desc: Autodesk Architectural Desktop 2007 |Company: Autodesk,Inc. |WEB Address: www.autodesk.com
 90
      129
280
     0
281
     0
  0
CLASS
  1
NPOCOLLECTION
  2
AcDbImpNonPersistentObjectsCollection
  3
ObjectDBX Classes
 90
     1153
280
     0
281
     0
  0
CLASS
  1
DICTIONARYVAR
  2
AcDbDictionaryVar
  3
ObjectDBX Classes
 90
        0
280
     0
281
     0
  0
CLASS
  1
CELLSTYLEMAP
  2
AcDbCellStyleMap
  3
ObjectDBX Classes
 90
     1152
280
     0
281
     0
  0
CLASS
  1
ACDBPLACEHOLDER
  2
AcDbPlaceHolder
  3
ObjectDBX Classes
 90
        0
280
     0
281
     0
  0
CLASS
  1
LAYOUT
  2
AcDbLayout
  3
ObjectDBX Classes
 90
        0
280
     0
281
     0
  0
ENDSEC
  0
SECTION
  2
TABLES
  0
TABLE
  2
VPORT
  5
8
330
0
100
AcDbSymbolTable
 70
     1
  0
VPORT
  5
8B
330
8
100
AcDbSymbolTableRecord
100
AcDbViewportTableRecord
  2
*Active
 70
     0
 10
0.0
 20
0.0
 11
1.0
 21
1.0
 12
-383.2523587255748
 22
-4.704893462506788
 13
0.0
 23
0.0
 14
1.0
 24
1.0
 15
0.0
 25
0.0
 16
0.0
 26
0.0
 36
1.0
 17
0.0
 27
0.0
 37
0.0
 40
477.617341791799
 41
1.953389830508474
 42
50.0
 43
0.0
 44
0.0
 50
0.0
 51
0.0
 71
     0
 72
   100
 73
     1
 74
     1
 75
     0
 76
     0
 77
     0
 78
     0
281
     0
 65
     1
110
0.0
120
0.0
130
0.0
111
1.0
121
0.0
131
0.0
112
0.0
122
1.0
132
0.0
 79
     0
146
0.0
  0
ENDTAB
  0
TABLE
  2
LTYPE
  5
5
330
0
100
AcDbSymbolTable
 70
     3
  0
LTYPE
  5
5A
330
5
100
AcDbSymbolTableRecord
100
AcDbLinetypeTableRecord
  2
ByBlock
 70
     0
  3

 72
    65
 73
     0
 40
0.0
  0
LTYPE
  5
5B
330
5
100
AcDbSymbolTableRecord
100
AcDbLinetypeTableRecord
  2
ByLayer
 70
     0
  3

 72
    65
 73
     0
 40
0.0
  0
LTYPE
  5
5C
330
5
100
AcDbSymbolTableRecord
100
AcDbLinetypeTableRecord
  2
CONTINUOUS
 70
     0
  3
Solid-line
 72
    65
 73
     0
 40
0.0
  0
LTYPE
  5
72
330
5
100
AcDbSymbolTableRecord
100
AcDbLinetypeTableRecord
  2
CENTER
 70
     0
  3
CENTER
 72
    65
 73
     4
 40
2.0
 49
1.25
 74
     0
 49
-0.25
 74
     0
 49
0.25
 74
     0
 49
-0.25
 74
     0
  0
LTYPE
  5
78
330
5
100
AcDbSymbolTableRecord
100
AcDbLinetypeTableRecord
  2
DASHED
 70
     0
  3
DASHED
 72
    65
 73
     2
 40
0.75
 49
0.5
 74
     0
 49
-0.25
 74
     0
  0
ENDTAB
  0
TABLE
  2
LAYER
  5
2
102
{ACAD_XDICTIONARY
360
438
102
}
330
0
100
AcDbSymbolTable
 70
     2
  0
LAYER
  5
54
102
{ACAD_XDICTIONARY
360
B21
102
}
330
2
100
AcDbSymbolTableRecord
100
AcDbLayerTableRecord
  2
0
 70
     0
 62
     7
  6
CONTINUOUS
370
    -3
390
F
  0
LAYER
  5
421
330
2
100
AcDbSymbolTableRecord
100
AcDbLayerTableRecord
  2
Defpoints
 70
     0
 62
     7
  6
CONTINUOUS
290
     0
370
    -3
390
F
  0
ENDTAB
  0
TABLE
  2
STYLE
  5
3
330
0
100
AcDbSymbolTable
 70
     6
  0
STYLE
  5
55
330
3
100
AcDbSymbolTableRecord
100
AcDbTextStyleTableRecord
  2
STANDARD
 70
     0
 40
0.0
 41
1.0
 50
0.0
 71
     0
 42
0.2
  3
TXT
  4
BIGFONT
  0
STYLE
  5
422
330
3
100
AcDbSymbolTableRecord
100
AcDbTextStyleTableRecord
  2
高3.2
 70
     0
 40
3.2
 41
1.0
 50
0.0
 71
     0
 42
3.2
  3
txt.shx
  4
bigfont.shx
  0
STYLE
  5
423
330
3
100
AcDbSymbolTableRecord
100
AcDbTextStyleTableRecord
  2
高6.3
 70
     0
 40
6.299999999999998
 41
1.0
 50
0.0
 71
     0
 42
6.299999999999998
  3
txt.shx
  4
bigfont.shx
  0
STYLE
  5
424
330
3
100
AcDbSymbolTableRecord
100
AcDbTextStyleTableRecord
  2
高2.5
 70
     0
 40
2.5
 41
1.0
 50
0.0
 71
     0
 42
0.2
  3
txt.shx
  4
bigfont.shx
  0
STYLE
  5
425
330
3
100
AcDbSymbolTableRecord
100
AcDbTextStyleTableRecord
  2
高4.5
 70
     0
 40
4.5
 41
1.0
 50
0.0
 71
     0
 42
6.299999999999998
  3
txt.shx
  4
bigfont.shx
  0
STYLE
  5
426
330
3
100
AcDbSymbolTableRecord
100
AcDbTextStyleTableRecord
  2
高2
 70
     0
 40
2.0
 41
1.0
 50
0.0
 71
     0
 42
2.0
  3
txt.shx
  4
bigfont.shx
  0
ENDTAB
  0
TABLE
  2
VIEW
  5
6
330
0
100
AcDbSymbolTable
 70
     0
  0
ENDTAB
  0
TABLE
  2
UCS
  5
7
330
0
100
AcDbSymbolTable
 70
     0
  0
ENDTAB
  0
TABLE
  2
APPID
  5
9
330
0
100
AcDbSymbolTable
 70
    10
  0
APPID
  5
56
330
9
100
AcDbSymbolTableRecord
100
AcDbRegAppTableRecord
  2
ACAD
 70
     0
  0
APPID
  5
5D
330
9
100
AcDbSymbolTableRecord
100
AcDbRegAppTableRecord
  2
AcadAnnotative
 70
     0
  0
APPID
  5
431
330
9
100
AcDbSymbolTableRecord
100
AcDbRegAppTableRecord
  2
ACAD_DSTYLE_DIMJOGGED_JOGANGLE_SYMBOL
 70
     0
  0
APPID
  5
432
330
9
100
AcDbSymbolTableRecord
100
AcDbRegAppTableRecord
  2
ACAD_DSTYLE_DIMJAG
 70
     0
  0
APPID
  5
433
330
9
100
AcDbSymbolTableRecord
100
AcDbRegAppTableRecord
  2
ACAD_DSTYLE_DIMBREAK
 70
     0
  0
APPID
  5
434
330
9
100
AcDbSymbolTableRecord
100
AcDbRegAppTableRecord
  2
ACAD_DSTYLE_DIMTALN
 70
     0
  0
APPID
  5
985
330
9
100
AcDbSymbolTableRecord
100
AcDbRegAppTableRecord
  2
ACAD_EXEMPT_FROM_CAD_STANDARDS
 70
     0
  0
APPID
  5
B67
330
9
100
AcDbSymbolTableRecord
100
AcDbRegAppTableRecord
  2
ACAD_MLEADERVER
 70
     0
  0
APPID
  5
B6C
330
9
100
AcDbSymbolTableRecord
100
AcDbRegAppTableRecord
  2
ACAD_DSTYLE_DIMARC_LENGTH_SYMBOL
 70
     0
  0
APPID
  5
B6D
330
9
100
AcDbSymbolTableRecord
100
AcDbRegAppTableRecord
  2
ACAD_DSTYLE_DIMEXT_LENGTH
 70
     0
  0
ENDTAB
  0
TABLE
  2
DIMSTYLE
  5
A
330
0
100
AcDbSymbolTable
 70
    11
100
AcDbDimStyleTable
 71
     1
340
427
  0
DIMSTYLE
105
57
330
A
100
AcDbSymbolTableRecord
100
AcDbDimStyleTableRecord
  2
Standard
 70
     0
340
55
  0
DIMSTYLE
105
427
102
{ACAD_REACTORS
330
987
102
}
330
A
100
AcDbSymbolTableRecord
100
AcDbDimStyleTableRecord
  2
1：1
 70
     0
 41
2.5
 42
0.25
 43
0.2
 44
1.25
 73
     0
 74
     0
 77
     3
 78
     8
 79
     2
140
3.0
141
0.0
143
0.03937007874016
147
0.625
171
     3
172
     1
178
     4
179
     1
271
     2
272
     2
274
     3
283
     0
284
     8
288
     1
289
     0
340
55
341
391
342
391
1001
ACAD_DSTYLE_DIMARC_LENGTH_SYMBOL
1070
   379
1070
     2
1001
ACAD_DSTYLE_DIMEXT_LENGTH
1070
   378
1040
1.25
1001
ACAD_DSTYLE_DIMJOGGED_JOGANGLE_SYMBOL
1070
   384
1040
1.570796326794896
  0
DIMSTYLE
105
428
330
A
100
AcDbSymbolTableRecord
100
AcDbDimStyleTableRecord
  2
2：1
 70
     0
 41
2.5
 42
0.25
 43
0.2
 44
1.25
 73
     0
 74
     0
 77
     3
 78
     8
 79
     2
140
3.0
141
0.0
143
0.03937007874016
144
0.5
147
0.625
171
     3
172
     1
178
     4
179
     1
271
     2
272
     2
274
     3
283
     0
284
     8
288
     1
289
     0
340
55
341
391
342
391
1001
ACAD_DSTYLE_DIMARC_LENGTH_SYMBOL
1070
   379
1070
     2
1001
ACAD_DSTYLE_DIMEXT_LENGTH
1070
   378
1040
1.25
1001
ACAD_DSTYLE_DIMJOGGED_JOGANGLE_SYMBOL
1070
   384
1040
1.570796326794896
  0
DIMSTYLE
105
429
330
A
100
AcDbSymbolTableRecord
100
AcDbDimStyleTableRecord
  2
5：1
 70
     0
 41
2.5
 42
0.25
 43
0.2
 44
1.25
 73
     0
 74
     0
 77
     3
 78
     8
 79
     2
140
3.0
141
0.0
143
0.03937007874016
144
0.2
147
0.625
171
     3
172
     1
178
     4
179
     1
271
     2
272
     2
274
     3
283
     0
284
     8
288
     1
289
     0
340
55
341
391
342
391
1001
ACAD_DSTYLE_DIMARC_LENGTH_SYMBOL
1070
   379
1070
     2
1001
ACAD_DSTYLE_DIMEXT_LENGTH
1070
   378
1040
1.25
1001
ACAD_DSTYLE_DIMJOGGED_JOGANGLE_SYMBOL
1070
   384
1040
1.570796326794896
  0
DIMSTYLE
105
42A
330
A
100
AcDbSymbolTableRecord
100
AcDbDimStyleTableRecord
  2
10：1
 70
     0
 41
2.5
 42
0.25
 43
0.2
 44
1.25
 73
     0
 74
     0
 77
     3
 78
     8
 79
     2
140
3.0
141
0.0
143
0.03937007874016
144
0.1
147
0.625
171
     3
172
     1
178
     4
179
     1
271
     2
272
     2
274
     3
283
     0
284
     8
288
     1
289
     0
340
55
341
391
342
391
1001
ACAD_DSTYLE_DIMARC_LENGTH_SYMBOL
1070
   379
1070
     2
1001
ACAD_DSTYLE_DIMEXT_LENGTH
1070
   378
1040
1.25
1001
ACAD_DSTYLE_DIMJOGGED_JOGANGLE_SYMBOL
1070
   384
1040
1.570796326794896
  0
DIMSTYLE
105
42B
330
A
100
AcDbSymbolTableRecord
100
AcDbDimStyleTableRecord
  2
1／2
 70
     0
 41
2.5
 42
0.25
 43
0.2
 44
1.25
 73
     0
 74
     0
 77
     3
 78
     8
 79
     2
140
3.0
141
0.0
143
0.03937007874016
144
2.0
147
0.625
171
     3
172
     1
178
     4
179
     1
271
     2
272
     2
274
     3
283
     0
284
     8
288
     1
289
     0
340
55
341
391
342
391
1001
ACAD_DSTYLE_DIMARC_LENGTH_SYMBOL
1070
   379
1070
     2
1001
ACAD_DSTYLE_DIMEXT_LENGTH
1070
   378
1040
1.25
1001
ACAD_DSTYLE_DIMJOGGED_JOGANGLE_SYMBOL
1070
   384
1040
1.570796326794896
  0
DIMSTYLE
105
42C
330
A
100
AcDbSymbolTableRecord
100
AcDbDimStyleTableRecord
  2
1／5
 70
     0
 41
2.5
 42
0.25
 43
0.2
 44
1.25
 73
     0
 74
     0
 77
     3
 78
     8
 79
     2
140
3.0
141
0.0
143
0.03937007874016
144
5.0
147
0.625
171
     3
172
     1
178
     4
179
     1
271
     2
272
     2
274
     3
283
     0
284
     8
288
     1
289
     0
340
55
341
391
342
391
1001
ACAD_DSTYLE_DIMARC_LENGTH_SYMBOL
1070
   379
1070
     2
1001
ACAD_DSTYLE_DIMEXT_LENGTH
1070
   378
1040
1.25
1001
ACAD_DSTYLE_DIMJOGGED_JOGANGLE_SYMBOL
1070
   384
1040
1.570796326794896
  0
DIMSTYLE
105
42D
330
A
100
AcDbSymbolTableRecord
100
AcDbDimStyleTableRecord
  2
1／10
 70
     0
 41
2.5
 42
0.25
 43
0.2
 44
1.25
 73
     0
 74
     0
 77
     3
 78
     8
 79
     2
140
3.0
141
0.0
143
0.03937007874016
144
10.0
147
0.625
171
     3
172
     1
178
     4
179
     1
271
     2
272
     2
274
     3
283
     0
284
     8
288
     1
289
     0
340
55
341
391
342
391
1001
ACAD_DSTYLE_DIMARC_LENGTH_SYMBOL
1070
   379
1070
     2
1001
ACAD_DSTYLE_DIMEXT_LENGTH
1070
   378
1040
1.25
1001
ACAD_DSTYLE_DIMJOGGED_JOGANGLE_SYMBOL
1070
   384
1040
1.570796326794896
  0
DIMSTYLE
105
42E
330
A
100
AcDbSymbolTableRecord
100
AcDbDimStyleTableRecord
  2
1／4
 70
     0
 41
2.5
 42
0.25
 43
0.2
 44
1.25
 73
     0
 74
     0
 77
     3
 78
     8
 79
     2
140
3.0
141
0.0
143
0.03937007874016
144
4.0
147
0.625
171
     3
172
     1
178
     4
179
     1
271
     2
272
     2
274
     3
283
     0
284
     8
288
     1
289
     0
340
55
341
391
342
391
1001
ACAD_DSTYLE_DIMARC_LENGTH_SYMBOL
1070
   379
1070
     2
1001
ACAD_DSTYLE_DIMEXT_LENGTH
1070
   378
1040
1.25
1001
ACAD_DSTYLE_DIMJOGGED_JOGANGLE_SYMBOL
1070
   384
1040
1.570796326794896
  0
DIMSTYLE
105
42F
330
A
100
AcDbSymbolTableRecord
100
AcDbDimStyleTableRecord
  2
1／3
 70
     0
 41
2.5
 42
0.25
 43
0.2
 44
1.25
 73
     0
 74
     0
 77
     3
 78
     8
 79
     2
140
3.0
141
0.0
143
0.03937007874016
144
3.0
147
0.625
171
     3
172
     1
178
     4
179
     1
271
     2
272
     2
274
     3
283
     0
284
     8
288
     1
289
     0
340
55
341
391
342
391
1001
ACAD_DSTYLE_DIMARC_LENGTH_SYMBOL
1070
   379
1070
     2
1001
ACAD_DSTYLE_DIMEXT_LENGTH
1070
   378
1040
1.25
1001
ACAD_DSTYLE_DIMJOGGED_JOGANGLE_SYMBOL
1070
   384
1040
1.570796326794896
  0
DIMSTYLE
105
430
330
A
100
AcDbSymbolTableRecord
100
AcDbDimStyleTableRecord
  2
FREE
 70
     0
 41
2.5
 42
0.25
 43
0.2
 44
1.25
 73
     0
 74
     0
 77
     3
 78
     8
 79
     2
140
3.0
141
0.0
143
0.03937007874016
147
0.625
171
     3
172
     1
178
     4
179
     1
271
     2
272
     2
274
     3
283
     0
284
     8
288
     1
289
     0
340
55
341
391
342
391
1001
ACAD_DSTYLE_DIMBREAK
1070
   391
1040
3.75
1001
ACAD_DSTYLE_DIMJAG
1070
   388
1040
1.5
1001
ACAD_DSTYLE_DIMTALN
1070
   392
1070
     0
1001
ACAD_DSTYLE_DIMARC_LENGTH_SYMBOL
1070
   379
1070
     2
1001
ACAD_DSTYLE_DIMEXT_LENGTH
1070
   378
1040
1.25
1001
ACAD_DSTYLE_DIMJOGGED_JOGANGLE_SYMBOL
1070
   384
1040
1.570796326794896
  0
ENDTAB
  0
TABLE
  2
BLOCK_RECORD
  5
1
330
0
100
AcDbSymbolTable
 70
    20
  0
BLOCK_RECORD
  5
6B
102
{ACAD_XDICTIONARY
360
88C
102
}
330
1
100
AcDbSymbolTableRecord
100
AcDbBlockTableRecord
  2
*Model_Space
340
6E
  0
BLOCK_RECORD
  5
67
330
1
100
AcDbSymbolTableRecord
100
AcDbBlockTableRecord
  2
*Paper_Space
340
6A
  0
BLOCK_RECORD
  5
391
330
1
100
AcDbSymbolTableRecord
100
AcDbBlockTableRecord
  2
_Open30
340
0
102
{BLKREFS
331
4E6
331
4E7
331
4F1
331
4F2
331
4FC
331
4FD
331
507
331
508
331
512
331
513
331
51D
331
51E
331
528
331
529
331
533
331
534
331
53E
331
53F
331
547
331
548
331
BBF
331
BC0
331
BC8
331
BC9
331
BD1
331
BD2
331
BDA
331
BDB
331
BE3
331
BE4
331
BEC
331
BED
331
BF5
331
BF6
331
BFE
331
BFF
102
}
  0
BLOCK_RECORD
  5
457
330
1
100
AcDbSymbolTableRecord
100
AcDbBlockTableRecord
  2
*D1
340
0
  0
BLOCK_RECORD
  5
465
330
1
100
AcDbSymbolTableRecord
100
AcDbBlockTableRecord
  2
*D2
340
0
  0
BLOCK_RECORD
  5
473
330
1
100
AcDbSymbolTableRecord
100
AcDbBlockTableRecord
  2
*D3
340
0
  0
BLOCK_RECORD
  5
481
330
1
100
AcDbSymbolTableRecord
100
AcDbBlockTableRecord
  2
*D4
340
0
  0
BLOCK_RECORD
  5
48F
330
1
100
AcDbSymbolTableRecord
100
AcDbBlockTableRecord
  2
*D5
340
0
  0
BLOCK_RECORD
  5
49D
330
1
100
AcDbSymbolTableRecord
100
AcDbBlockTableRecord
  2
*D6
340
0
  0
BLOCK_RECORD
  5
4AB
330
1
100
AcDbSymbolTableRecord
100
AcDbBlockTableRecord
  2
*D7
340
0
  0
BLOCK_RECORD
  5
4B9
330
1
100
AcDbSymbolTableRecord
100
AcDbBlockTableRecord
  2
*D8
340
0
  0
BLOCK_RECORD
  5
4C7
330
1
100
AcDbSymbolTableRecord
100
AcDbBlockTableRecord
  2
*D9
340
0
  0
BLOCK_RECORD
  5
4D5
330
1
100
AcDbSymbolTableRecord
100
AcDbBlockTableRecord
  2
*D10
340
0
  0
BLOCK_RECORD
  5
7D2
330
1
100
AcDbSymbolTableRecord
100
AcDbBlockTableRecord
  2
*D11
340
0
  0
BLOCK_RECORD
  5
7DF
330
1
100
AcDbSymbolTableRecord
100
AcDbBlockTableRecord
  2
*D12
340
0
  0
BLOCK_RECORD
  5
7EC
330
1
100
AcDbSymbolTableRecord
100
AcDbBlockTableRecord
  2
*D13
340
0
  0
BLOCK_RECORD
  5
7F9
330
1
100
AcDbSymbolTableRecord
100
AcDbBlockTableRecord
  2
*D14
340
0
  0
BLOCK_RECORD
  5
806
330
1
100
AcDbSymbolTableRecord
100
AcDbBlockTableRecord
  2
*D15
340
0
  0
BLOCK_RECORD
  5
813
330
1
100
AcDbSymbolTableRecord
100
AcDbBlockTableRecord
  2
*D16
340
0
  0
BLOCK_RECORD
  5
820
330
1
100
AcDbSymbolTableRecord
100
AcDbBlockTableRecord
  2
*D17
340
0
  0
BLOCK_RECORD
  5
82D
330
1
100
AcDbSymbolTableRecord
100
AcDbBlockTableRecord
  2
*D18
340
0
  0
BLOCK_RECORD
  5
9A1
330
1
100
AcDbSymbolTableRecord
100
AcDbBlockTableRecord
  2
_DotSmall
340
0
  0
ENDTAB
  0
ENDSEC
  0
SECTION
  2
BLOCKS
  0
BLOCK
  5
6C
330
6B
100
AcDbEntity
  8
0
100
AcDbBlockBegin
  2
*Model_Space
 70
     0
 10
0.0
 20
0.0
 30
0.0
  3
*Model_Space
  1

  0
ENDBLK
  5
6D
330
6B
100
AcDbEntity
  8
0
100
AcDbBlockEnd
  0
BLOCK
  5
68
330
67
100
AcDbEntity
 67
     1
  8
0
100
AcDbBlockBegin
  2
*Paper_Space
 70
     0
 10
0.0
 20
0.0
 30
0.0
  3
*Paper_Space
  1

  0
ENDBLK
  5
69
330
67
100
AcDbEntity
 67
     1
  8
0
100
AcDbBlockEnd
  0
BLOCK
  5
392
330
391
100
AcDbEntity
  8
0
100
AcDbBlockBegin
  2
_Open30
 70
     0
 10
0.0
 20
0.0
 30
0.0
  3
_Open30
  1

  0
LINE
  5
393
330
391
100
AcDbEntity
  8
0
  6
ByBlock
 62
     0
370
    -2
100
AcDbLine
 10
-1.0
 20
0.267949
 30
0.0
 11
0.0
 21
0.0
 31
0.0
  0
LINE
  5
394
330
391
100
AcDbEntity
  8
0
  6
ByBlock
 62
     0
370
    -2
100
AcDbLine
 10
0.0
 20
0.0
 30
0.0
 11
-1.0
 21
-0.267949
 31
0.0
  0
LINE
  5
395
330
391
100
AcDbEntity
  8
0
  6
ByBlock
 62
     0
370
    -2
100
AcDbLine
 10
0.0
 20
0.0
 30
0.0
 11
-1.0
 21
0.0
 31
0.0
  0
ENDBLK
  5
396
330
391
100
AcDbEntity
  8
0
100
AcDbBlockEnd
  0
BLOCK
  5
458
330
457
100
AcDbEntity
  8
0
100
AcDbBlockBegin
  2
*D1
 70
     1
 10
0.0
 20
0.0
 30
0.0
  3
*D1
  1

  0
LINE
  5
4E1
330
457
100
AcDbEntity
  8
0
 62
     0
370
    -2
100
AcDbLine
 10
-242.1968610214522
 20
165.3837725956092
 30
0.0
 11
-242.1968610214522
 21
162.4741411736004
 31
0.0
  0
LINE
  5
4E2
330
457
100
AcDbEntity
  8
0
 62
     0
370
    -2
100
AcDbLine
 10
-244.6540480755725
 20
165.3837725956092
 30
0.0
 11
-244.6540480755725
 21
162.4741411736004
 31
0.0
  0
LINE
  5
4E3
330
457
100
AcDbEntity
  8
0
 62
     0
370
    -2
100
AcDbLine
 10
-239.6968610214522
 20
163.7241411736004
 30
0.0
 11
-237.1968610214522
 21
163.7241411736004
 31
0.0
  0
LINE
  5
4E4
330
457
100
AcDbEntity
  8
0
 62
     0
370
    -2
100
AcDbLine
 10
-247.1540480755725
 20
163.7241411736004
 30
0.0
 11
-259.9040480755725
 21
163.7241411736004
 31
0.0
  0
LINE
  5
4E5
330
457
100
AcDbEntity
  8
0
 62
     0
370
    -2
100
AcDbLine
 10
-242.1968610214522
 20
163.7241411736004
 30
0.0
 11
-244.6540480755725
 21
163.7241411736004
 31
0.0
  0
INSERT
  5
4E6
330
457
100
AcDbEntity
  8
0
 62
     0
370
    -2
100
AcDbBlockReference
  2
_Open30
 10
-242.1968610214522
 20
163.7241411736004
 30
0.0
 41
2.5
 42
2.5
 43
2.5
 50
180.0
  0
INSERT
  5
4E7
330
457
100
AcDbEntity
  8
0
 62
     0
370
    -2
100
AcDbBlockReference
  2
_Open30
 10
-244.6540480755725
 20
163.7241411736004
 30
0.0
 41
2.5
 42
2.5
 43
2.5
  0
MTEXT
  5
4E8
330
457
100
AcDbEntity
  8
0
 62
     4
100
AcDbMText
 10
-254.7790480755725
 20
165.8491411736004
 30
0.0
 40
3.0
 41
0.0
 71
     5
 72
     1
  1
2.46
 73
     1
 44
1.0
1001
ACAD
1000
MTEXTBEGIN
1070
    73
1070
     1
1070
    44
1040
1.0
1070
    74
1070
     0
1000
MTEXTEND
  0
POINT
  5
4E9
330
457
100
AcDbEntity
  8
Defpoints
 62
     0
100
AcDbPoint
 10
-242.1968610214522
 20
165.6337725956092
 30
0.0
  0
POINT
  5
4EA
330
457
100
AcDbEntity
  8
Defpoints
 62
     0
100
AcDbPoint
 10
-244.6540480755725
 20
165.6337725956092
 30
0.0
  0
POINT
  5
4EB
330
457
100
AcDbEntity
  8
Defpoints
 62
     0
100
AcDbPoint
 10
-244.6540480755725
 20
163.7241411736004
 30
0.0
  0
ENDBLK
  5
459
330
457
100
AcDbEntity
  8
0
100
AcDbBlockEnd
  0
BLOCK
  5
466
330
465
100
AcDbEntity
  8
0
100
AcDbBlockBegin
  2
*D2
 70
     1
 10
0.0
 20
0.0
 30
0.0
  3
*D2
  1

  0
LINE
  5
4EC
330
465
100
AcDbEntity
  8
0
 62
     0
370
    -2
100
AcDbLine
 10
-240.558736115379
 20
159.9276830228468
 30
0.0
 11
-240.558736115379
 21
157.3817909533835
 31
0.0
  0
LINE
  5
4ED
330
465
100
AcDbEntity
  8
0
 62
     0
370
    -2
100
AcDbLine
 10
-243.6529719135219
 20
159.9276830228468
 30
0.0
 11
-243.6529719135219
 21
157.3817909533835
 31
0.0
  0
LINE
  5
4EE
330
465
100
AcDbEntity
  8
0
 62
     0
370
    -2
100
AcDbLine
 10
-238.058736115379
 20
158.6317909533835
 30
0.0
 11
-235.558736115379
 21
158.6317909533835
 31
0.0
  0
LINE
  5
4EF
330
465
100
AcDbEntity
  8
0
 62
     0
370
    -2
100
AcDbLine
 10
-246.1529719135219
 20
158.6317909533835
 30
0.0
 11
-259.9863052468553
 21
158.6317909533835
 31
0.0
  0
LINE
  5
4F0
330
465
100
AcDbEntity
  8
0
 62
     0
370
    -2
100
AcDbLine
 10
-240.558736115379
 20
158.6317909533835
 30
0.0
 11
-243.6529719135219
 21
158.6317909533835
 31
0.0
  0
INSERT
  5
4F1
330
465
100
AcDbEntity
  8
0
 62
     0
370
    -2
100
AcDbBlockReference
  2
_Open30
 10
-240.558736115379
 20
158.6317909533835
 30
0.0
 41
2.5
 42
2.5
 43
2.5
 50
180.0
  0
INSERT
  5
4F2
330
465
100
AcDbEntity
  8
0
 62
     0
370
    -2
100
AcDbBlockReference
  2
_Open30
 10
-243.6529719135219
 20
158.6317909533835
 30
0.0
 41
2.5
 42
2.5
 43
2.5
  0
MTEXT
  5
4F3
330
465
100
AcDbEntity
  8
0
 62
     4
100
AcDbMText
 10
-254.7779719135219
 20
160.5067909533835
 30
0.0
 40
2.5
 41
0.0
 71
     5
 72
     1
  1
15.47
  7
高2.5
 73
     1
 44
1.0
1001
ACAD
1000
MTEXTBEGIN
1070
    73
1070
     1
1070
    44
1040
1.0
1070
    74
1070
     0
1000
MTEXTEND
  0
POINT
  5
4F4
330
465
100
AcDbEntity
  8
Defpoints
 62
     0
100
AcDbPoint
 10
-240.558736115379
 20
160.1776830228468
 30
0.0
  0
POINT
  5
4F5
330
465
100
AcDbEntity
  8
Defpoints
 62
     0
100
AcDbPoint
 10
-243.6529719135219
 20
160.1776830228468
 30
0.0
  0
POINT
  5
4F6
330
465
100
AcDbEntity
  8
Defpoints
 62
     0
100
AcDbPoint
 10
-243.6529719135219
 20
158.6317909533835
 30
0.0
  0
ENDBLK
  5
467
330
465
100
AcDbEntity
  8
0
100
AcDbBlockEnd
  0
BLOCK
  5
474
330
473
100
AcDbEntity
  8
0
100
AcDbBlockBegin
  2
*D3
 70
     1
 10
0.0
 20
0.0
 30
0.0
  3
*D3
  1

  0
LINE
  5
4F7
330
473
100
AcDbEntity
  8
0
 62
     0
370
    -2
100
AcDbLine
 10
-238.8296045072936
 20
154.4715933070003
 30
0.0
 11
-238.8296045072936
 21
152.1985056446331
 31
0.0
  0
LINE
  5
4F8
330
473
100
AcDbEntity
  8
0
 62
     0
370
    -2
100
AcDbLine
 10
-242.8339094604853
 20
154.4715933070003
 30
0.0
 11
-242.8339094604853
 21
152.1985056446331
 31
0.0
  0
LINE
  5
4F9
330
473
100
AcDbEntity
  8
0
 62
     0
370
    -2
100
AcDbLine
 10
-236.3296045072935
 20
153.4485056446331
 30
0.0
 11
-233.8296045072935
 21
153.4485056446331
 31
0.0
  0
LINE
  5
4FA
330
473
100
AcDbEntity
  8
0
 62
     0
370
    -2
100
AcDbLine
 10
-245.3339094604853
 20
153.4485056446331
 30
0.0
 11
-257.0839094604854
 21
153.4485056446331
 31
0.0
  0
LINE
  5
4FB
330
473
100
AcDbEntity
  8
0
 62
     0
370
    -2
100
AcDbLine
 10
-238.8296045072936
 20
153.4485056446331
 30
0.0
 11
-242.8339094604853
 21
153.4485056446331
 31
0.0
  0
INSERT
  5
4FC
330
473
100
AcDbEntity
  8
0
 62
     0
370
    -2
100
AcDbBlockReference
  2
_Open30
 10
-238.8296045072936
 20
153.4485056446331
 30
0.0
 41
2.5
 42
2.5
 43
2.5
 50
180.0
  0
INSERT
  5
4FD
330
473
100
AcDbEntity
  8
0
 62
     0
370
    -2
100
AcDbBlockReference
  2
_Open30
 10
-242.8339094604853
 20
153.4485056446331
 30
0.0
 41
2.5
 42
2.5
 43
2.5
  0
MTEXT
  5
4FE
330
473
100
AcDbEntity
  8
0
 62
     4
100
AcDbMText
 10
-252.4589094604853
 20
155.6735056446331
 30
0.0
 40
3.2
 41
0.0
 71
     5
 72
     1
  1
8.01
  7
高3.2
 73
     1
 44
1.0
1001
ACAD
1000
MTEXTBEGIN
1070
    73
1070
     1
1070
    44
1040
1.0
1070
    74
1070
     0
1000
MTEXTEND
  0
POINT
  5
4FF
330
473
100
AcDbEntity
  8
Defpoints
 62
     0
100
AcDbPoint
 10
-238.8296045072936
 20
154.7215933070003
 30
0.0
  0
POINT
  5
500
330
473
100
AcDbEntity
  8
Defpoints
 62
     0
100
AcDbPoint
 10
-242.8339094604853
 20
154.7215933070003
 30
0.0
  0
POINT
  5
501
330
473
100
AcDbEntity
  8
Defpoints
 62
     0
100
AcDbPoint
 10
-242.8339094604853
 20
153.4485056446331
 30
0.0
  0
ENDBLK
  5
475
330
473
100
AcDbEntity
  8
0
100
AcDbBlockEnd
  0
BLOCK
  5
482
330
481
100
AcDbEntity
  8
0
100
AcDbBlockBegin
  2
*D4
 70
     1
 10
0.0
 20
0.0
 30
0.0
  3
*D4
  1

  0
LINE
  5
502
330
481
100
AcDbEntity
  8
0
 62
     0
370
    -2
100
AcDbLine
 10
-238.9206112093058
 20
149.1973733389687
 30
0.0
 11
-238.9206112093058
 21
147.3789598315123
 31
0.0
  0
LINE
  5
503
330
481
100
AcDbEntity
  8
0
 62
     0
370
    -2
100
AcDbLine
 10
-243.6529719135219
 20
149.1973733389687
 30
0.0
 11
-243.6529719135219
 21
147.3789598315123
 31
0.0
  0
LINE
  5
504
330
481
100
AcDbEntity
  8
0
 62
     0
370
    -2
100
AcDbLine
 10
-236.4206112093058
 20
148.6289598315123
 30
0.0
 11
-233.9206112093058
 21
148.6289598315123
 31
0.0
  0
LINE
  5
505
330
481
100
AcDbEntity
  8
0
 62
     0
370
    -2
100
AcDbLine
 10
-246.1529719135219
 20
148.6289598315123
 30
0.0
 11
-267.9029719135219
 21
148.6289598315123
 31
0.0
  0
LINE
  5
506
330
481
100
AcDbEntity
  8
0
 62
     0
370
    -2
100
AcDbLine
 10
-238.9206112093058
 20
148.6289598315123
 30
0.0
 11
-243.6529719135219
 21
148.6289598315123
 31
0.0
  0
INSERT
  5
507
330
481
100
AcDbEntity
  8
0
 62
     0
370
    -2
100
AcDbBlockReference
  2
_Open30
 10
-238.9206112093058
 20
148.6289598315123
 30
0.0
 41
2.5
 42
2.5
 43
2.5
 50
180.0
  0
INSERT
  5
508
330
481
100
AcDbEntity
  8
0
 62
     0
370
    -2
100
AcDbBlockReference
  2
_Open30
 10
-243.6529719135219
 20
148.6289598315123
 30
0.0
 41
2.5
 42
2.5
 43
2.5
  0
MTEXT
  5
509
330
481
100
AcDbEntity
  8
0
 62
     4
100
AcDbMText
 10
-258.2779719135219
 20
151.5039598315123
 30
0.0
 40
4.5
 41
0.0
 71
     5
 72
     1
  1
47.32
  7
高4.5
 73
     1
 44
1.0
1001
ACAD
1000
MTEXTBEGIN
1070
    73
1070
     1
1070
    44
1040
1.0
1070
    74
1070
     0
1000
MTEXTEND
  0
POINT
  5
50A
330
481
100
AcDbEntity
  8
Defpoints
 62
     0
100
AcDbPoint
 10
-238.9206112093058
 20
149.4473733389687
 30
0.0
  0
POINT
  5
50B
330
481
100
AcDbEntity
  8
Defpoints
 62
     0
100
AcDbPoint
 10
-243.6529719135219
 20
149.4473733389687
 30
0.0
  0
POINT
  5
50C
330
481
100
AcDbEntity
  8
Defpoints
 62
     0
100
AcDbPoint
 10
-243.6529719135219
 20
148.6289598315123
 30
0.0
  0
ENDBLK
  5
483
330
481
100
AcDbEntity
  8
0
100
AcDbBlockEnd
  0
BLOCK
  5
490
330
48F
100
AcDbEntity
  8
0
100
AcDbBlockBegin
  2
*D5
 70
     1
 10
0.0
 20
0.0
 30
0.0
  3
*D5
  1

  0
LINE
  5
50D
330
48F
100
AcDbEntity
  8
0
 62
     0
370
    -2
100
AcDbLine
 10
-217.4429749412984
 20
165.3837725956092
 30
0.0
 11
-217.4429749412984
 21
162.4741411736004
 31
0.0
  0
LINE
  5
50E
330
48F
100
AcDbEntity
  8
0
 62
     0
370
    -2
100
AcDbLine
 10
-219.9001619954187
 20
165.3837725956092
 30
0.0
 11
-219.9001619954187
 21
162.4741411736004
 31
0.0
  0
LINE
  5
50F
330
48F
100
AcDbEntity
  8
0
 62
     0
370
    -2
100
AcDbLine
 10
-214.9429749412984
 20
163.7241411736004
 30
0.0
 11
-212.4429749412984
 21
163.7241411736004
 31
0.0
  0
LINE
  5
510
330
48F
100
AcDbEntity
  8
0
 62
     0
370
    -2
100
AcDbLine
 10
-222.4001619954186
 20
163.7241411736004
 30
0.0
 11
-244.0001619954187
 21
163.7241411736004
 31
0.0
  0
LINE
  5
511
330
48F
100
AcDbEntity
  8
0
 62
     0
370
    -2
100
AcDbLine
 10
-217.4429749412984
 20
163.7241411736004
 30
0.0
 11
-219.9001619954187
 21
163.7241411736004
 31
0.0
  0
INSERT
  5
512
330
48F
100
AcDbEntity
  8
0
 62
     0
370
    -2
100
AcDbBlockReference
  2
_Open30
 10
-217.4429749412984
 20
163.7241411736004
 30
0.0
 41
2.5
 42
2.5
 43
2.5
 50
180.0
  0
INSERT
  5
513
330
48F
100
AcDbEntity
  8
0
 62
     0
370
    -2
100
AcDbBlockReference
  2
_Open30
 10
-219.9001619954187
 20
163.7241411736004
 30
0.0
 41
2.5
 42
2.5
 43
2.5
  0
MTEXT
  5
514
330
48F
100
AcDbEntity
  8
0
 62
     4
100
AcDbMText
 10
-234.4501619954187
 20
167.4991411736004
 30
0.0
 40
6.299999999999998
 41
0.0
 71
     5
 72
     1
  1
0.25
  7
高6.3
 73
     1
 44
1.0
1001
ACAD
1000
MTEXTBEGIN
1070
    73
1070
     1
1070
    44
1040
1.0
1070
    74
1070
     0
1000
MTEXTEND
  0
POINT
  5
515
330
48F
100
AcDbEntity
  8
Defpoints
 62
     0
100
AcDbPoint
 10
-217.4429749412984
 20
165.6337725956092
 30
0.0
  0
POINT
  5
516
330
48F
100
AcDbEntity
  8
Defpoints
 62
     0
100
AcDbPoint
 10
-219.9001619954187
 20
165.6337725956092
 30
0.0
  0
POINT
  5
517
330
48F
100
AcDbEntity
  8
Defpoints
 62
     0
100
AcDbPoint
 10
-219.9001619954187
 20
163.7241411736004
 30
0.0
  0
ENDBLK
  5
491
330
48F
100
AcDbEntity
  8
0
100
AcDbBlockEnd
  0
BLOCK
  5
49E
330
49D
100
AcDbEntity
  8
0
100
AcDbBlockBegin
  2
*D6
 70
     1
 10
0.0
 20
0.0
 30
0.0
  3
*D6
  1

  0
LINE
  5
518
330
49D
100
AcDbEntity
  8
0
 62
     0
370
    -2
100
AcDbLine
 10
-215.8048500352252
 20
159.9276830228468
 30
0.0
 11
-215.8048500352252
 21
157.3817909533835
 31
0.0
  0
LINE
  5
519
330
49D
100
AcDbEntity
  8
0
 62
     0
370
    -2
100
AcDbLine
 10
-218.8990858333681
 20
159.9276830228468
 30
0.0
 11
-218.8990858333681
 21
157.3817909533835
 31
0.0
  0
LINE
  5
51A
330
49D
100
AcDbEntity
  8
0
 62
     0
370
    -2
100
AcDbLine
 10
-213.3048500352252
 20
158.6317909533835
 30
0.0
 11
-210.8048500352252
 21
158.6317909533835
 31
0.0
  0
LINE
  5
51B
330
49D
100
AcDbEntity
  8
0
 62
     0
370
    -2
100
AcDbLine
 10
-221.3990858333681
 20
158.6317909533835
 30
0.0
 11
-233.3990858333681
 21
158.6317909533835
 31
0.0
  0
LINE
  5
51C
330
49D
100
AcDbEntity
  8
0
 62
     0
370
    -2
100
AcDbLine
 10
-215.8048500352252
 20
158.6317909533835
 30
0.0
 11
-218.8990858333681
 21
158.6317909533835
 31
0.0
  0
INSERT
  5
51D
330
49D
100
AcDbEntity
  8
0
 62
     0
370
    -2
100
AcDbBlockReference
  2
_Open30
 10
-215.8048500352252
 20
158.6317909533835
 30
0.0
 41
2.5
 42
2.5
 43
2.5
 50
180.0
  0
INSERT
  5
51E
330
49D
100
AcDbEntity
  8
0
 62
     0
370
    -2
100
AcDbBlockReference
  2
_Open30
 10
-218.8990858333681
 20
158.6317909533835
 30
0.0
 41
2.5
 42
2.5
 43
2.5
  0
MTEXT
  5
51F
330
49D
100
AcDbEntity
  8
0
 62
     4
100
AcDbMText
 10
-228.7740858333681
 20
160.7567909533835
 30
0.0
 40
3.0
 41
0.0
 71
     5
 72
     1
  1
1.55
 73
     1
 44
1.0
1001
ACAD
1000
MTEXTBEGIN
1070
    73
1070
     1
1070
    44
1040
1.0
1070
    74
1070
     0
1000
MTEXTEND
  0
POINT
  5
520
330
49D
100
AcDbEntity
  8
Defpoints
 62
     0
100
AcDbPoint
 10
-215.8048500352252
 20
160.1776830228468
 30
0.0
  0
POINT
  5
521
330
49D
100
AcDbEntity
  8
Defpoints
 62
     0
100
AcDbPoint
 10
-218.8990858333681
 20
160.1776830228468
 30
0.0
  0
POINT
  5
522
330
49D
100
AcDbEntity
  8
Defpoints
 62
     0
100
AcDbPoint
 10
-218.8990858333681
 20
158.6317909533835
 30
0.0
  0
ENDBLK
  5
49F
330
49D
100
AcDbEntity
  8
0
100
AcDbBlockEnd
  0
BLOCK
  5
4AC
330
4AB
100
AcDbEntity
  8
0
100
AcDbBlockBegin
  2
*D7
 70
     1
 10
0.0
 20
0.0
 30
0.0
  3
*D7
  1

  0
LINE
  5
523
330
4AB
100
AcDbEntity
  8
0
 62
     0
370
    -2
100
AcDbLine
 10
-214.0757184271397
 20
154.4715933070003
 30
0.0
 11
-214.0757184271397
 21
152.1985056446331
 31
0.0
  0
LINE
  5
524
330
4AB
100
AcDbEntity
  8
0
 62
     0
370
    -2
100
AcDbLine
 10
-218.0800233803315
 20
154.4715933070003
 30
0.0
 11
-218.0800233803315
 21
152.1985056446331
 31
0.0
  0
LINE
  5
525
330
4AB
100
AcDbEntity
  8
0
 62
     0
370
    -2
100
AcDbLine
 10
-211.5757184271397
 20
153.4485056446331
 30
0.0
 11
-209.0757184271397
 21
153.4485056446331
 31
0.0
  0
LINE
  5
526
330
4AB
100
AcDbEntity
  8
0
 62
     0
370
    -2
100
AcDbLine
 10
-220.5800233803315
 20
153.4485056446331
 30
0.0
 11
-228.9133567136648
 21
153.4485056446331
 31
0.0
  0
LINE
  5
527
330
4AB
100
AcDbEntity
  8
0
 62
     0
370
    -2
100
AcDbLine
 10
-214.0757184271397
 20
153.4485056446331
 30
0.0
 11
-218.0800233803315
 21
153.4485056446331
 31
0.0
  0
INSERT
  5
528
330
4AB
100
AcDbEntity
  8
0
 62
     0
370
    -2
100
AcDbBlockReference
  2
_Open30
 10
-214.0757184271397
 20
153.4485056446331
 30
0.0
 41
2.5
 42
2.5
 43
2.5
 50
180.0
  0
INSERT
  5
529
330
4AB
100
AcDbEntity
  8
0
 62
     0
370
    -2
100
AcDbBlockReference
  2
_Open30
 10
-218.0800233803315
 20
153.4485056446331
 30
0.0
 41
2.5
 42
2.5
 43
2.5
  0
MTEXT
  5
52A
330
4AB
100
AcDbEntity
  8
0
 62
     4
100
AcDbMText
 10
-226.4550233803315
 20
155.0735056446331
 30
0.0
 40
2.0
 41
0.0
 71
     5
 72
     1
  1
0.8
  7
高2
 73
     1
 44
1.0
1001
ACAD
1000
MTEXTBEGIN
1070
    73
1070
     1
1070
    44
1040
1.0
1070
    74
1070
     0
1000
MTEXTEND
  0
POINT
  5
52B
330
4AB
100
AcDbEntity
  8
Defpoints
 62
     0
100
AcDbPoint
 10
-214.0757184271397
 20
154.7215933070003
 30
0.0
  0
POINT
  5
52C
330
4AB
100
AcDbEntity
  8
Defpoints
 62
     0
100
AcDbPoint
 10
-218.0800233803315
 20
154.7215933070003
 30
0.0
  0
POINT
  5
52D
330
4AB
100
AcDbEntity
  8
Defpoints
 62
     0
100
AcDbPoint
 10
-218.0800233803315
 20
153.4485056446331
 30
0.0
  0
ENDBLK
  5
4AD
330
4AB
100
AcDbEntity
  8
0
100
AcDbBlockEnd
  0
BLOCK
  5
4BA
330
4B9
100
AcDbEntity
  8
0
100
AcDbBlockBegin
  2
*D8
 70
     1
 10
0.0
 20
0.0
 30
0.0
  3
*D8
  1

  0
LINE
  5
52E
330
4B9
100
AcDbEntity
  8
0
 62
     0
370
    -2
100
AcDbLine
 10
-214.166725129152
 20
149.1973733389687
 30
0.0
 11
-214.166725129152
 21
147.3789598315123
 31
0.0
  0
LINE
  5
52F
330
4B9
100
AcDbEntity
  8
0
 62
     0
370
    -2
100
AcDbLine
 10
-218.8990858333681
 20
149.1973733389687
 30
0.0
 11
-218.8990858333681
 21
147.3789598315123
 31
0.0
  0
LINE
  5
530
330
4B9
100
AcDbEntity
  8
0
 62
     0
370
    -2
100
AcDbLine
 10
-211.666725129152
 20
148.6289598315123
 30
0.0
 11
-209.166725129152
 21
148.6289598315123
 31
0.0
  0
LINE
  5
531
330
4B9
100
AcDbEntity
  8
0
 62
     0
370
    -2
100
AcDbLine
 10
-221.3990858333681
 20
148.6289598315123
 30
0.0
 11
-236.1490858333681
 21
148.6289598315123
 31
0.0
  0
LINE
  5
532
330
4B9
100
AcDbEntity
  8
0
 62
     0
370
    -2
100
AcDbLine
 10
-214.166725129152
 20
148.6289598315123
 30
0.0
 11
-218.8990858333681
 21
148.6289598315123
 31
0.0
  0
INSERT
  5
533
330
4B9
100
AcDbEntity
  8
0
 62
     0
370
    -2
100
AcDbBlockReference
  2
_Open30
 10
-214.166725129152
 20
148.6289598315123
 30
0.0
 41
2.5
 42
2.5
 43
2.5
 50
180.0
  0
INSERT
  5
534
330
4B9
100
AcDbEntity
  8
0
 62
     0
370
    -2
100
AcDbBlockReference
  2
_Open30
 10
-218.8990858333681
 20
148.6289598315123
 30
0.0
 41
2.5
 42
2.5
 43
2.5
  0
MTEXT
  5
535
330
4B9
100
AcDbEntity
  8
0
 62
     4
100
AcDbMText
 10
-230.0240858333681
 20
150.7539598315123
 30
0.0
 40
3.0
 41
0.0
 71
     5
 72
     1
  1
18.93
 73
     1
 44
1.0
1001
ACAD
1000
MTEXTBEGIN
1070
    73
1070
     1
1070
    44
1040
1.0
1070
    74
1070
     0
1000
MTEXTEND
  0
POINT
  5
536
330
4B9
100
AcDbEntity
  8
Defpoints
 62
     0
100
AcDbPoint
 10
-214.166725129152
 20
149.4473733389687
 30
0.0
  0
POINT
  5
537
330
4B9
100
AcDbEntity
  8
Defpoints
 62
     0
100
AcDbPoint
 10
-218.8990858333681
 20
149.4473733389687
 30
0.0
  0
POINT
  5
538
330
4B9
100
AcDbEntity
  8
Defpoints
 62
     0
100
AcDbPoint
 10
-218.8990858333681
 20
148.6289598315123
 30
0.0
  0
ENDBLK
  5
4BB
330
4B9
100
AcDbEntity
  8
0
100
AcDbBlockEnd
  0
BLOCK
  5
4C8
330
4C7
100
AcDbEntity
  8
0
100
AcDbBlockBegin
  2
*D9
 70
     1
 10
0.0
 20
0.0
 30
0.0
  3
*D9
  1

  0
LINE
  5
539
330
4C7
100
AcDbEntity
  8
0
 62
     0
370
    -2
100
AcDbLine
 10
-216.9711519802903
 20
144.141533132379
 30
0.0
 11
-216.9711519802903
 21
141.8316120555034
 31
0.0
  0
LINE
  5
53A
330
4C7
100
AcDbEntity
  8
0
 62
     0
370
    -2
100
AcDbLine
 10
-221.5598271824382
 20
144.141533132379
 30
0.0
 11
-221.5598271824382
 21
141.8316120555034
 31
0.0
  0
LINE
  5
53B
330
4C7
100
AcDbEntity
  8
0
 62
     0
370
    -2
100
AcDbLine
 10
-214.4711519802903
 20
143.0816120555034
 30
0.0
 11
-211.9711519802903
 21
143.0816120555034
 31
0.0
  0
LINE
  5
53C
330
4C7
100
AcDbEntity
  8
0
 62
     0
370
    -2
100
AcDbLine
 10
-224.0598271824382
 20
143.0816120555034
 30
0.0
 11
-238.8098271824382
 21
143.0816120555034
 31
0.0
  0
LINE
  5
53D
330
4C7
100
AcDbEntity
  8
0
 62
     0
370
    -2
100
AcDbLine
 10
-216.9711519802903
 20
143.0816120555034
 30
0.0
 11
-221.5598271824382
 21
143.0816120555034
 31
0.0
  0
INSERT
  5
53E
330
4C7
100
AcDbEntity
  8
0
 62
     0
370
    -2
100
AcDbBlockReference
  2
_Open30
 10
-216.9711519802903
 20
143.0816120555034
 30
0.0
 41
2.5
 42
2.5
 43
2.5
 50
180.0
  0
INSERT
  5
53F
330
4C7
100
AcDbEntity
  8
0
 62
     0
370
    -2
100
AcDbBlockReference
  2
_Open30
 10
-221.5598271824382
 20
143.0816120555034
 30
0.0
 41
2.5
 42
2.5
 43
2.5
  0
MTEXT
  5
540
330
4C7
100
AcDbEntity
  8
0
 62
     4
100
AcDbMText
 10
-232.6848271824382
 20
145.2066120555034
 30
0.0
 40
3.0
 41
0.0
 71
     5
 72
     1
  1
13.77
 73
     1
 44
1.0
1001
ACAD
1000
MTEXTBEGIN
1070
    73
1070
     1
1070
    44
1040
1.0
1070
    74
1070
     0
1000
MTEXTEND
  0
POINT
  5
541
330
4C7
100
AcDbEntity
  8
Defpoints
 62
     0
100
AcDbPoint
 10
-216.9711519802903
 20
144.391533132379
 30
0.0
  0
POINT
  5
542
330
4C7
100
AcDbEntity
  8
Defpoints
 62
     0
100
AcDbPoint
 10
-221.5598271824382
 20
144.391533132379
 30
0.0
  0
POINT
  5
543
330
4C7
100
AcDbEntity
  8
Defpoints
 62
     0
100
AcDbPoint
 10
-221.5598271824382
 20
143.0816120555034
 30
0.0
  0
ENDBLK
  5
4C9
330
4C7
100
AcDbEntity
  8
0
100
AcDbBlockEnd
  0
BLOCK
  5
4D6
330
4D5
100
AcDbEntity
  8
0
100
AcDbBlockBegin
  2
*D10
 70
     1
 10
0.0
 20
0.0
 30
0.0
  3
*D10
  1

  0
LINE
  5
544
330
4D5
100
AcDbEntity
  8
0
 62
     0
370
    -2
100
AcDbLine
 10
-224.0674348134406
 20
175.0710244506533
 30
0.0
 11
-224.0674348134406
 21
182.4675579285911
 31
0.0
  0
LINE
  5
545
330
4D5
100
AcDbEntity
  8
0
 62
     0
370
    -2
100
AcDbLine
 10
-234.0059091829306
 20
175.0710244506533
 30
0.0
 11
-234.0059091829306
 21
182.4675579285911
 31
0.0
  0
LINE
  5
546
330
4D5
100
AcDbEntity
  8
0
 62
     0
370
    -2
100
AcDbLine
 10
-226.5674348134406
 20
181.2175579285911
 30
0.0
 11
-231.5059091829306
 21
181.2175579285911
 31
0.0
  0
INSERT
  5
547
330
4D5
100
AcDbEntity
  8
0
 62
     0
370
    -2
100
AcDbBlockReference
  2
_Open30
 10
-224.0674348134406
 20
181.2175579285911
 30
0.0
 41
2.5
 42
2.5
 43
2.5
  0
INSERT
  5
548
330
4D5
100
AcDbEntity
  8
0
 62
     0
370
    -2
100
AcDbBlockReference
  2
_Open30
 10
-234.0059091829306
 20
181.2175579285911
 30
0.0
 41
2.5
 42
2.5
 43
2.5
 50
180.0
  0
MTEXT
  5
549
330
4D5
100
AcDbEntity
  8
0
 62
     4
100
AcDbMText
 10
-229.0366719981856
 20
184.292557928591
 30
0.0
 40
3.0
 41
0.0
 71
     5
 72
     1
  1
9.94\H0.7X;\S+0^ -0.02;
 73
     1
 44
1.0
1001
ACAD
1000
MTEXTBEGIN
1070
    73
1070
     1
1070
    44
1040
1.0
1070
    74
1070
     0
1000
MTEXTEND
  0
POINT
  5
54A
330
4D5
100
AcDbEntity
  8
Defpoints
 62
     0
100
AcDbPoint
 10
-224.0674348134406
 20
174.8210244506533
 30
0.0
  0
POINT
  5
54B
330
4D5
100
AcDbEntity
  8
Defpoints
 62
     0
100
AcDbPoint
 10
-234.0059091829306
 20
174.8210244506533
 30
0.0
  0
POINT
  5
54C
330
4D5
100
AcDbEntity
  8
Defpoints
 62
     0
100
AcDbPoint
 10
-234.0059091829306
 20
181.2175579285911
 30
0.0
  0
ENDBLK
  5
4D7
330
4D5
100
AcDbEntity
  8
0
100
AcDbBlockEnd
  0
BLOCK
  5
7D3
330
7D2
100
AcDbEntity
  8
0
100
AcDbBlockBegin
  2
*D11
 70
     1
 10
0.0
 20
0.0
 30
0.0
  3
*D11
  1

  0
LINE
  5
BBC
330
7D2
100
AcDbEntity
  8
0
 62
     0
370
    -2
100
AcDbLine
 10
-521.3123814790708
 20
5.039574370603709
 30
0.0
 11
-514.4991033540709
 21
5.039574370603708
 31
0.0
  0
LINE
  5
BBD
330
7D2
100
AcDbEntity
  8
0
 62
     0
370
    -2
100
AcDbLine
 10
-521.3123814790708
 20
44.03957437060377
 30
0.0
 11
-514.4991033540709
 21
44.03957437060377
 31
0.0
  0
LINE
  5
BBE
330
7D2
100
AcDbEntity
  8
0
 62
     0
370
    -2
100
AcDbLine
 10
-515.7491033540709
 20
7.539574370603708
 30
0.0
 11
-515.7491033540709
 21
41.53957437060377
 31
0.0
  0
INSERT
  5
BBF
330
7D2
100
AcDbEntity
  8
0
 62
     0
370
    -2
100
AcDbBlockReference
  2
_Open30
 10
-515.7491033540709
 20
5.039574370603708
 30
0.0
 41
2.5
 42
2.5
 43
2.5
 50
270.0
  0
INSERT
  5
BC0
330
7D2
100
AcDbEntity
  8
0
 62
     0
370
    -2
100
AcDbBlockReference
  2
_Open30
 10
-515.7491033540709
 20
44.03957437060377
 30
0.0
 41
2.5
 42
2.5
 43
2.5
 50
90.0
  0
MTEXT
  5
BC1
330
7D2
100
AcDbEntity
  8
0
 62
     4
100
AcDbMText
 10
-517.8741033540709
 20
24.53957437060366
 30
0.0
 40
3.0
 41
0.0
 71
     5
 72
     1
  1
39
 11
0.0000000000000001
 21
1.0
 31
0.0
 73
     1
 44
1.0
1001
ACAD
1000
MTEXTBEGIN
1070
    73
1070
     1
1070
    44
1040
1.0
1070
    74
1070
     0
1000
MTEXTEND
  0
POINT
  5
BC2
330
7D2
100
AcDbEntity
  8
Defpoints
 62
     0
100
AcDbPoint
 10
-521.5623814790708
 20
5.039574370603709
 30
0.0
  0
POINT
  5
BC3
330
7D2
100
AcDbEntity
  8
Defpoints
 62
     0
100
AcDbPoint
 10
-521.5623814790708
 20
44.03957437060377
 30
0.0
  0
POINT
  5
BC4
330
7D2
100
AcDbEntity
  8
Defpoints
 62
     0
100
AcDbPoint
 10
-515.7491033540709
 20
44.03957437060377
 30
0.0
  0
ENDBLK
  5
7D4
330
7D2
100
AcDbEntity
  8
0
100
AcDbBlockEnd
  0
BLOCK
  5
7E0
330
7DF
100
AcDbEntity
  8
0
100
AcDbBlockBegin
  2
*D12
 70
     1
 10
0.0
 20
0.0
 30
0.0
  3
*D12
  1

  0
LINE
  5
BC5
330
7DF
100
AcDbEntity
  8
0
 62
     0
370
    -2
100
AcDbLine
 10
-526.1023127290709
 20
-8.660425629396312
 30
0.0
 11
-507.9752758540709
 21
-8.660425629396319
 31
0.0
  0
LINE
  5
BC6
330
7DF
100
AcDbEntity
  8
0
 62
     0
370
    -2
100
AcDbLine
 10
-526.1023127290709
 20
57.73957437060379
 30
0.0
 11
-507.9752758540709
 21
57.73957437060379
 31
0.0
  0
LINE
  5
BC7
330
7DF
100
AcDbEntity
  8
0
 62
     0
370
    -2
100
AcDbLine
 10
-509.2252758540708
 20
-6.160425629396319
 30
0.0
 11
-509.2252758540708
 21
55.23957437060379
 31
0.0
  0
INSERT
  5
BC8
330
7DF
100
AcDbEntity
  8
0
 62
     0
370
    -2
100
AcDbBlockReference
  2
_Open30
 10
-509.2252758540708
 20
-8.660425629396318
 30
0.0
 41
2.5
 42
2.5
 43
2.5
 50
270.0
  0
INSERT
  5
BC9
330
7DF
100
AcDbEntity
  8
0
 62
     0
370
    -2
100
AcDbBlockReference
  2
_Open30
 10
-509.2252758540708
 20
57.73957437060379
 30
0.0
 41
2.5
 42
2.5
 43
2.5
 50
90.0
  0
MTEXT
  5
BCA
330
7DF
100
AcDbEntity
  8
0
 62
     4
100
AcDbMText
 10
-511.3502758540708
 20
24.53957437060366
 30
0.0
 40
3.0
 41
0.0
 71
     5
 72
     1
  1
66.4
 11
0.0000000000000001
 21
1.0
 31
0.0
 73
     1
 44
1.0
1001
ACAD
1000
MTEXTBEGIN
1070
    73
1070
     1
1070
    44
1040
1.0
1070
    74
1070
     0
1000
MTEXTEND
  0
POINT
  5
BCB
330
7DF
100
AcDbEntity
  8
Defpoints
 62
     0
100
AcDbPoint
 10
-526.3523127290709
 20
-8.660425629396312
 30
0.0
  0
POINT
  5
BCC
330
7DF
100
AcDbEntity
  8
Defpoints
 62
     0
100
AcDbPoint
 10
-526.3523127290709
 20
57.73957437060379
 30
0.0
  0
POINT
  5
BCD
330
7DF
100
AcDbEntity
  8
Defpoints
 62
     0
100
AcDbPoint
 10
-509.2252758540708
 20
57.73957437060379
 30
0.0
  0
ENDBLK
  5
7E1
330
7DF
100
AcDbEntity
  8
0
100
AcDbBlockEnd
  0
BLOCK
  5
7ED
330
7EC
100
AcDbEntity
  8
0
100
AcDbBlockBegin
  2
*D13
 70
     1
 10
0.0
 20
0.0
 30
0.0
  3
*D13
  1

  0
LINE
  5
BCE
330
7EC
100
AcDbEntity
  8
0
 62
     0
370
    -2
100
AcDbLine
 10
-558.3523127290709
 20
55.98957437060379
 30
0.0
 11
-558.3523127290709
 21
80.67808062060381
 31
0.0
  0
LINE
  5
BCF
330
7EC
100
AcDbEntity
  8
0
 62
     0
370
    -2
100
AcDbLine
 10
-524.3523127290709
 20
55.98957437060379
 30
0.0
 11
-524.3523127290709
 21
80.67808062060381
 31
0.0
  0
LINE
  5
BD0
330
7EC
100
AcDbEntity
  8
0
 62
     0
370
    -2
100
AcDbLine
 10
-555.8523127290709
 20
79.42808062060381
 30
0.0
 11
-526.8523127290709
 21
79.42808062060381
 31
0.0
  0
INSERT
  5
BD1
330
7EC
100
AcDbEntity
  8
0
 62
     0
370
    -2
100
AcDbBlockReference
  2
_Open30
 10
-558.3523127290709
 20
79.42808062060381
 30
0.0
 41
2.5
 42
2.5
 43
2.5
 50
180.0
  0
INSERT
  5
BD2
330
7EC
100
AcDbEntity
  8
0
 62
     0
370
    -2
100
AcDbBlockReference
  2
_Open30
 10
-524.3523127290709
 20
79.42808062060381
 30
0.0
 41
2.5
 42
2.5
 43
2.5
  0
MTEXT
  5
BD3
330
7EC
100
AcDbEntity
  8
0
 62
     4
100
AcDbMText
 10
-541.3523127290709
 20
81.55308062060381
 30
0.0
 40
3.0
 41
0.0
 71
     5
 72
     1
  1
34
 73
     1
 44
1.0
1001
ACAD
1000
MTEXTBEGIN
1070
    73
1070
     1
1070
    44
1040
1.0
1070
    74
1070
     0
1000
MTEXTEND
  0
POINT
  5
BD4
330
7EC
100
AcDbEntity
  8
Defpoints
 62
     0
100
AcDbPoint
 10
-558.3523127290709
 20
55.73957437060379
 30
0.0
  0
POINT
  5
BD5
330
7EC
100
AcDbEntity
  8
Defpoints
 62
     0
100
AcDbPoint
 10
-524.3523127290709
 20
55.73957437060379
 30
0.0
  0
POINT
  5
BD6
330
7EC
100
AcDbEntity
  8
Defpoints
 62
     0
100
AcDbPoint
 10
-524.3523127290709
 20
79.42808062060381
 30
0.0
  0
ENDBLK
  5
7EE
330
7EC
100
AcDbEntity
  8
0
100
AcDbBlockEnd
  0
BLOCK
  5
7FA
330
7F9
100
AcDbEntity
  8
0
100
AcDbBlockBegin
  2
*D14
 70
     1
 10
0.0
 20
0.0
 30
0.0
  3
*D14
  1

  0
LINE
  5
BD7
330
7F9
100
AcDbEntity
  8
0
 62
     0
370
    -2
100
AcDbLine
 10
-475.9118421040708
 20
66.28957437060382
 30
0.0
 11
-475.9118421040708
 21
75.4983499956038
 31
0.0
  0
LINE
  5
BD8
330
7F9
100
AcDbEntity
  8
0
 62
     0
370
    -2
100
AcDbLine
 10
-456.4118421040706
 20
57.48957437060379
 30
0.0
 11
-456.4118421040706
 21
75.4983499956038
 31
0.0
  0
LINE
  5
BD9
330
7F9
100
AcDbEntity
  8
0
 62
     0
370
    -2
100
AcDbLine
 10
-473.4118421040708
 20
74.2483499956038
 30
0.0
 11
-458.9118421040707
 21
74.2483499956038
 31
0.0
  0
INSERT
  5
BDA
330
7F9
100
AcDbEntity
  8
0
 62
     0
370
    -2
100
AcDbBlockReference
  2
_Open30
 10
-475.9118421040708
 20
74.2483499956038
 30
0.0
 41
2.5
 42
2.5
 43
2.5
 50
180.0
  0
INSERT
  5
BDB
330
7F9
100
AcDbEntity
  8
0
 62
     0
370
    -2
100
AcDbBlockReference
  2
_Open30
 10
-456.4118421040706
 20
74.2483499956038
 30
0.0
 41
2.5
 42
2.5
 43
2.5
  0
MTEXT
  5
BDC
330
7F9
100
AcDbEntity
  8
0
 62
     4
100
AcDbMText
 10
-466.1618421040707
 20
76.3733499956038
 30
0.0
 40
3.0
 41
0.0
 71
     5
 72
     1
  1
19.5
 73
     1
 44
1.0
1001
ACAD
1000
MTEXTBEGIN
1070
    73
1070
     1
1070
    44
1040
1.0
1070
    74
1070
     0
1000
MTEXTEND
  0
POINT
  5
BDD
330
7F9
100
AcDbEntity
  8
Defpoints
 62
     0
100
AcDbPoint
 10
-475.9118421040708
 20
66.03957437060381
 30
0.0
  0
POINT
  5
BDE
330
7F9
100
AcDbEntity
  8
Defpoints
 62
     0
100
AcDbPoint
 10
-456.4118421040706
 20
57.23957437060379
 30
0.0
  0
POINT
  5
BDF
330
7F9
100
AcDbEntity
  8
Defpoints
 62
     0
100
AcDbPoint
 10
-456.4118421040706
 20
74.2483499956038
 30
0.0
  0
ENDBLK
  5
7FB
330
7F9
100
AcDbEntity
  8
0
100
AcDbBlockEnd
  0
BLOCK
  5
807
330
806
100
AcDbEntity
  8
0
100
AcDbBlockBegin
  2
*D15
 70
     1
 10
0.0
 20
0.0
 30
0.0
  3
*D15
  1

  0
LINE
  5
BE0
330
806
100
AcDbEntity
  8
0
 62
     0
370
    -2
100
AcDbLine
 10
-480.9118421040708
 20
44.28957437060377
 30
0.0
 11
-480.9118421040708
 21
81.32703062060384
 31
0.0
  0
LINE
  5
BE1
330
806
100
AcDbEntity
  8
0
 62
     0
370
    -2
100
AcDbLine
 10
-454.4118421040708
 20
55.48957437060379
 30
0.0
 11
-454.4118421040708
 21
81.32703062060384
 31
0.0
  0
LINE
  5
BE2
330
806
100
AcDbEntity
  8
0
 62
     0
370
    -2
100
AcDbLine
 10
-478.4118421040708
 20
80.07703062060384
 30
0.0
 11
-456.9118421040708
 21
80.07703062060384
 31
0.0
  0
INSERT
  5
BE3
330
806
100
AcDbEntity
  8
0
 62
     0
370
    -2
100
AcDbBlockReference
  2
_Open30
 10
-480.9118421040708
 20
80.07703062060384
 30
0.0
 41
2.5
 42
2.5
 43
2.5
 50
180.0
  0
INSERT
  5
BE4
330
806
100
AcDbEntity
  8
0
 62
     0
370
    -2
100
AcDbBlockReference
  2
_Open30
 10
-454.4118421040708
 20
80.07703062060384
 30
0.0
 41
2.5
 42
2.5
 43
2.5
  0
MTEXT
  5
BE5
330
806
100
AcDbEntity
  8
0
 62
     4
100
AcDbMText
 10
-467.6618421040708
 20
82.20203062060384
 30
0.0
 40
3.0
 41
0.0
 71
     5
 72
     1
  1
26.5
 73
     1
 44
1.0
1001
ACAD
1000
MTEXTBEGIN
1070
    73
1070
     1
1070
    44
1040
1.0
1070
    74
1070
     0
1000
MTEXTEND
  0
POINT
  5
BE6
330
806
100
AcDbEntity
  8
Defpoints
 62
     0
100
AcDbPoint
 10
-480.9118421040708
 20
44.03957437060377
 30
0.0
  0
POINT
  5
BE7
330
806
100
AcDbEntity
  8
Defpoints
 62
     0
100
AcDbPoint
 10
-454.4118421040708
 20
55.23957437060379
 30
0.0
  0
POINT
  5
BE8
330
806
100
AcDbEntity
  8
Defpoints
 62
     0
100
AcDbPoint
 10
-454.4118421040708
 20
80.07703062060384
 30
0.0
  0
ENDBLK
  5
808
330
806
100
AcDbEntity
  8
0
100
AcDbBlockEnd
  0
BLOCK
  5
814
330
813
100
AcDbEntity
  8
0
100
AcDbBlockBegin
  2
*D16
 70
     1
 10
0.0
 20
0.0
 30
0.0
  3
*D16
  1

  0
LINE
  5
BE9
330
813
100
AcDbEntity
  8
0
 62
     0
370
    -2
100
AcDbLine
 10
-561.3523127290709
 20
-2.160425629396304
 30
0.0
 11
-561.3523127290709
 21
-32.85952099630004
 31
0.0
  0
LINE
  5
BEA
330
813
100
AcDbEntity
  8
0
 62
     0
370
    -2
100
AcDbLine
 10
-524.3523127290709
 20
-6.910425629396311
 30
0.0
 11
-524.3523127290709
 21
-32.85952099630004
 31
0.0
  0
LINE
  5
BEB
330
813
100
AcDbEntity
  8
0
 62
     0
370
    -2
100
AcDbLine
 10
-558.8523127290709
 20
-31.60952099630004
 30
0.0
 11
-526.8523127290709
 21
-31.60952099630004
 31
0.0
  0
INSERT
  5
BEC
330
813
100
AcDbEntity
  8
0
 62
     0
370
    -2
100
AcDbBlockReference
  2
_Open30
 10
-561.3523127290709
 20
-31.60952099630004
 30
0.0
 41
2.5
 42
2.5
 43
2.5
 50
180.0
  0
INSERT
  5
BED
330
813
100
AcDbEntity
  8
0
 62
     0
370
    -2
100
AcDbBlockReference
  2
_Open30
 10
-524.3523127290709
 20
-31.60952099630004
 30
0.0
 41
2.5
 42
2.5
 43
2.5
  0
MTEXT
  5
BEE
330
813
100
AcDbEntity
  8
0
 62
     4
100
AcDbMText
 10
-541.7954944820718
 20
-29.48452099630004
 30
0.0
 40
3.0
 41
0.0
 71
     5
 72
     1
  1
37
 73
     1
 44
1.0
1001
ACAD
1000
MTEXTBEGIN
1070
    73
1070
     1
1070
    44
1040
1.0
1070
    74
1070
     0
1000
MTEXTEND
  0
POINT
  5
BEF
330
813
100
AcDbEntity
  8
Defpoints
 62
     0
100
AcDbPoint
 10
-561.3523127290709
 20
-1.910425629396303
 30
0.0
  0
POINT
  5
BF0
330
813
100
AcDbEntity
  8
Defpoints
 62
     0
100
AcDbPoint
 10
-524.3523127290709
 20
-6.660425629396311
 30
0.0
  0
POINT
  5
BF1
330
813
100
AcDbEntity
  8
Defpoints
 62
     0
100
AcDbPoint
 10
-524.3523127290709
 20
-31.60952099630004
 30
0.0
  0
ENDBLK
  5
815
330
813
100
AcDbEntity
  8
0
100
AcDbBlockEnd
  0
BLOCK
  5
821
330
820
100
AcDbEntity
  8
0
100
AcDbBlockBegin
  2
*D17
 70
     1
 10
0.0
 20
0.0
 30
0.0
  3
*D17
  1

  0
LINE
  5
BF2
330
820
100
AcDbEntity
  8
0
 62
     0
370
    -2
100
AcDbLine
 10
-544.7588414790708
 20
-15.71042562939625
 30
0.0
 11
-570.6524421040709
 21
-15.71042562939624
 31
0.0
  0
LINE
  5
BF3
330
820
100
AcDbEntity
  8
0
 62
     0
370
    -2
100
AcDbLine
 10
-544.7588414790708
 20
64.78957437060374
 30
0.0
 11
-570.6524421040709
 21
64.78957437060374
 31
0.0
  0
LINE
  5
BF4
330
820
100
AcDbEntity
  8
0
 62
     0
370
    -2
100
AcDbLine
 10
-569.4024421040709
 20
-13.21042562939624
 30
0.0
 11
-569.4024421040709
 21
62.28957437060374
 31
0.0
  0
INSERT
  5
BF5
330
820
100
AcDbEntity
  8
0
 62
     0
370
    -2
100
AcDbBlockReference
  2
_Open30
 10
-569.4024421040709
 20
-15.71042562939624
 30
0.0
 41
2.5
 42
2.5
 43
2.5
 50
270.0
  0
INSERT
  5
BF6
330
820
100
AcDbEntity
  8
0
 62
     0
370
    -2
100
AcDbBlockReference
  2
_Open30
 10
-569.4024421040709
 20
64.78957437060374
 30
0.0
 41
2.5
 42
2.5
 43
2.5
 50
90.0
  0
MTEXT
  5
BF7
330
820
100
AcDbEntity
  8
0
 62
     4
100
AcDbMText
 10
-571.5274421040709
 20
24.53957437060366
 30
0.0
 40
3.0
 41
0.0
 71
     5
 72
     1
  1
80.5
 11
0.0000000000000001
 21
1.0
 31
0.0
 73
     1
 44
1.0
1001
ACAD
1000
MTEXTBEGIN
1070
    73
1070
     1
1070
    44
1040
1.0
1070
    74
1070
     0
1000
MTEXTEND
  0
POINT
  5
BF8
330
820
100
AcDbEntity
  8
Defpoints
 62
     0
100
AcDbPoint
 10
-544.5088414790708
 20
-15.71042562939625
 30
0.0
  0
POINT
  5
BF9
330
820
100
AcDbEntity
  8
Defpoints
 62
     0
100
AcDbPoint
 10
-544.5088414790708
 20
64.78957437060374
 30
0.0
  0
POINT
  5
BFA
330
820
100
AcDbEntity
  8
Defpoints
 62
     0
100
AcDbPoint
 10
-569.4024421040709
 20
64.78957437060374
 30
0.0
  0
ENDBLK
  5
822
330
820
100
AcDbEntity
  8
0
100
AcDbBlockEnd
  0
BLOCK
  5
82E
330
82D
100
AcDbEntity
  8
0
100
AcDbBlockBegin
  2
*D18
 70
     1
 10
0.0
 20
0.0
 30
0.0
  3
*D18
  1

  0
LINE
  5
BFB
330
82D
100
AcDbEntity
  8
0
 62
     0
370
    -2
100
AcDbLine
 10
-545.1023127290709
 20
-22.46042562939634
 30
0.0
 11
-575.7800789790709
 21
-22.46042562939633
 31
0.0
  0
LINE
  5
BFC
330
82D
100
AcDbEntity
  8
0
 62
     0
370
    -2
100
AcDbLine
 10
-545.1023127290709
 20
71.53957437060381
 30
0.0
 11
-575.7800789790709
 21
71.53957437060381
 31
0.0
  0
LINE
  5
BFD
330
82D
100
AcDbEntity
  8
0
 62
     0
370
    -2
100
AcDbLine
 10
-574.5300789790709
 20
-19.96042562939632
 30
0.0
 11
-574.5300789790709
 21
69.03957437060381
 31
0.0
  0
INSERT
  5
BFE
330
82D
100
AcDbEntity
  8
0
 62
     0
370
    -2
100
AcDbBlockReference
  2
_Open30
 10
-574.5300789790709
 20
-22.46042562939633
 30
0.0
 41
2.5
 42
2.5
 43
2.5
 50
270.0
  0
INSERT
  5
BFF
330
82D
100
AcDbEntity
  8
0
 62
     0
370
    -2
100
AcDbBlockReference
  2
_Open30
 10
-574.5300789790709
 20
71.53957437060381
 30
0.0
 41
2.5
 42
2.5
 43
2.5
 50
90.0
  0
MTEXT
  5
C00
330
82D
100
AcDbEntity
  8
0
 62
     4
100
AcDbMText
 10
-576.6550789790709
 20
24.53957437060366
 30
0.0
 40
3.0
 41
0.0
 71
     5
 72
     1
  1
94
 11
0.0000000000000001
 21
1.0
 31
0.0
 73
     1
 44
1.0
1001
ACAD
1000
MTEXTBEGIN
1070
    73
1070
     1
1070
    44
1040
1.0
1070
    74
1070
     0
1000
MTEXTEND
  0
POINT
  5
C01
330
82D
100
AcDbEntity
  8
Defpoints
 62
     0
100
AcDbPoint
 10
-544.8523127290709
 20
-22.46042562939634
 30
0.0
  0
POINT
  5
C02
330
82D
100
AcDbEntity
  8
Defpoints
 62
     0
100
AcDbPoint
 10
-544.8523127290709
 20
71.53957437060381
 30
0.0
  0
POINT
  5
C03
330
82D
100
AcDbEntity
  8
Defpoints
 62
     0
100
AcDbPoint
 10
-574.5300789790709
 20
71.53957437060381
 30
0.0
  0
ENDBLK
  5
82F
330
82D
100
AcDbEntity
  8
0
100
AcDbBlockEnd
  0
BLOCK
  5
9A3
330
9A1
100
AcDbEntity
  8
0
100
AcDbBlockBegin
  2
_DotSmall
 70
     0
 10
0.0
 20
0.0
 30
0.0
  3
_DotSmall
  1

  0
LWPOLYLINE
  5
9A2
330
9A1
100
AcDbEntity
  8
0
  6
ByBlock
 62
     0
100
AcDbPolyline
 90
        2
 70
     1
 43
0.5
 10
-0.0625
 20
0.0
 42
1.0
 10
0.0625
 20
0.0
 42
1.0
  0
ENDBLK
  5
9A4
330
9A1
100
AcDbEntity
  8
0
100
AcDbBlockEnd
  0
ENDSEC
  0
SECTION
  2
ENTITIES
  0
TEXT
  5
33F
330
6B
100
AcDbEntity
  8
0
 62
     3
100
AcDbText
 10
-507.3779518353931
 20
-109.7189651788628
 30
0.0
 40
3.2
  1
1
 41
0.8
  7
高3.2
100
AcDbText
  0
TEXT
  5
340
330
6B
100
AcDbEntity
  8
0
 62
     3
100
AcDbText
 10
-507.3779518353931
 20
-99.71896517886285
 30
0.0
 40
3.2
  1
1
 41
0.8
  7
高3.2
100
AcDbText
  0
TEXT
  5
341
330
6B
100
AcDbEntity
  8
0
 62
     3
100
AcDbText
 10
-507.3779518353931
 20
-114.7189651788628
 30
0.0
 40
3.2
  1
2
 41
0.8
  7
高3.2
100
AcDbText
  0
TEXT
  5
342
330
6B
100
AcDbEntity
  8
0
 62
     3
100
AcDbText
 10
-507.3779518353931
 20
-94.71896517886284
 30
0.0
 40
3.2
  1
2
 41
0.8
  7
高3.2
100
AcDbText
  0
TEXT
  5
343
330
6B
100
AcDbEntity
  8
0
 62
     3
100
AcDbText
 10
-507.3779518353931
 20
-104.7189651788628
 30
0.0
 40
3.2
  1
1
 41
0.8
  7
高3.2
100
AcDbText
  0
TEXT
  5
344
330
6B
100
AcDbEntity
  8
0
 62
     3
100
AcDbText
 10
-507.3779518353931
 20
-124.7189651788628
 30
0.0
 40
3.2
  1
2
 41
0.8
  7
高3.2
100
AcDbText
  0
TEXT
  5
345
330
6B
100
AcDbEntity
  8
0
 62
     3
100
AcDbText
 10
-507.3779518353931
 20
-129.7189651788628
 30
0.0
 40
3.2
  1
2
 41
0.8
  7
高3.2
100
AcDbText
  0
TEXT
  5
346
330
6B
100
AcDbEntity
  8
0
 62
     3
100
AcDbText
 10
-507.3779518353931
 20
-134.7189651788628
 30
0.0
 40
3.2
  1
1式
 41
0.8
  7
高3.2
100
AcDbText
  0
TEXT
  5
347
330
6B
100
AcDbEntity
  8
0
 62
     3
100
AcDbText
 10
-507.3779518353931
 20
-119.7189651788628
 30
0.0
 40
3.2
  1
3
 41
0.8
  7
高3.2
100
AcDbText
  0
LINE
  5
348
330
6B
100
AcDbEntity
  8
0
 62
     7
100
AcDbLine
 10
-508.8779518353931
 20
-140.2189651788628
 30
0.0
 11
-508.8779518353931
 21
-90.21896517886284
 31
0.0
  0
TEXT
  5
349
330
6B
100
AcDbEntity
  8
0
 62
     3
100
AcDbText
 10
-613.0684710112267
 20
-119.7189651788628
 30
0.0
 40
3.2
  1
SPCC
 41
0.8
  7
高3.2
100
AcDbText
  0
TEXT
  5
34A
330
6B
100
AcDbEntity
  8
0
 62
     3
100
AcDbText
 10
-641.3352257567212
 20
-114.7189651788628
 30
0.0
 40
3.2
  1
ビス
 41
0.8
  7
高3.2
100
AcDbText
  0
TEXT
  5
34B
330
6B
100
AcDbEntity
  8
0
 62
     3
100
AcDbText
 10
-641.3352257567212
 20
-104.7189651788628
 30
0.0
 40
3.2
  1
コンセント取付枠
 41
0.8
  7
高3.2
100
AcDbText
  0
TEXT
  5
34C
330
6B
100
AcDbEntity
  8
0
 62
     3
100
AcDbText
 10
-641.3352257567212
 20
-99.71896517886285
 30
0.0
 40
3.2
  1
取付ビス
 41
0.8
  7
高3.2
100
AcDbText
  0
TEXT
  5
34D
330
6B
100
AcDbEntity
  8
0
 62
     3
100
AcDbText
 10
-641.3352257567212
 20
-94.71896517886284
 30
0.0
 40
3.2
  1
取付ビス
 41
0.8
  7
高3.2
100
AcDbText
  0
TEXT
  5
34E
330
6B
100
AcDbEntity
  8
0
 62
     3
100
AcDbText
 10
-613.0684710112267
 20
-94.71896517886284
 30
0.0
 40
3.2
  1
SS41
 41
0.8
  7
高3.2
100
AcDbText
  0
TEXT
  5
34F
330
6B
100
AcDbEntity
  8
0
 62
     3
100
AcDbText
 10
-613.0684710112267
 20
-99.71896517886285
 30
0.0
 40
3.2
  1
SS41
 41
0.8
  7
高3.2
100
AcDbText
  0
TEXT
  5
350
330
6B
100
AcDbEntity
  8
0
 62
     3
100
AcDbText
 10
-641.3352257567212
 20
-109.7189651788628
 30
0.0
 40
3.2
  1
ビス
 41
0.8
  7
高3.2
100
AcDbText
  0
TEXT
  5
351
330
6B
100
AcDbEntity
  8
0
 62
     3
100
AcDbText
 10
-613.0684710112267
 20
-109.7189651788628
 30
0.0
 40
3.2
  1
SS41
 41
0.8
  7
高3.2
100
AcDbText
  0
TEXT
  5
352
330
6B
100
AcDbEntity
  8
0
 62
     3
100
AcDbText
 10
-613.0684710112267
 20
-114.7189651788628
 30
0.0
 40
3.2
  1
SS41
 41
0.8
  7
高3.2
100
AcDbText
  0
TEXT
  5
353
330
6B
100
AcDbEntity
  8
0
 62
     3
100
AcDbText
 10
-580.4564245807674
 20
-114.7189651788628
 30
0.0
 40
3.2
  1
プラマイ丸平M4x8(クロメートメッキ処理)
 41
0.8
  7
高3.2
100
AcDbText
  0
TEXT
  5
354
330
6B
100
AcDbEntity
  8
0
 62
     3
100
AcDbText
 10
-580.4564245807674
 20
-119.7189651788628
 30
0.0
 40
3.2
  1
角10-M4(クロメートメッキ処理)
 41
0.8
  7
高3.2
100
AcDbText
  0
TEXT
  5
355
330
6B
100
AcDbEntity
  8
0
 62
     3
100
AcDbText
 10
-613.0684710112267
 20
-104.7189651788628
 30
0.0
 40
3.2
  1
SPEC(ボンデ鋼板)
 41
0.8
  7
高3.2
100
AcDbText
  0
TEXT
  5
356
330
6B
100
AcDbEntity
  8
0
 62
     3
100
AcDbText
 10
-580.4564245807674
 20
-104.7189651788628
 30
0.0
 40
3.2
  1
アース金具有り、無し2種
 41
0.8
  7
高3.2
100
AcDbText
  0
TEXT
  5
357
330
6B
100
AcDbEntity
  8
0
 62
     3
100
AcDbText
 10
-580.4564245807674
 20
-134.7189651788628
 30
0.0
 40
3.2
  1
難燃性(成形色：赤、緑、茶)
 41
0.8
  7
高3.2
100
AcDbText
  0
TEXT
  5
358
330
6B
100
AcDbEntity
  8
0
 62
     3
100
AcDbText
 10
-613.0684710112267
 20
-124.7189651788628
 30
0.0
 40
3.2
  1
C2680R1/2H
 41
0.8
  7
高3.2
100
AcDbText
  0
TEXT
  5
359
330
6B
100
AcDbEntity
  8
0
 62
     3
100
AcDbText
 10
-613.0684710112269
 20
-129.7189651788628
 30
0.0
 40
3.2
  1
C5191-1/2H
 41
0.8
  7
高3.2
100
AcDbText
  0
TEXT
  5
35A
330
6B
100
AcDbEntity
  8
0
 62
     3
100
AcDbText
 10
-580.4564245807674
 20
-129.7189651788628
 30
0.0
 40
3.2
  1
0.8t
 41
0.8
  7
高3.2
100
AcDbText
  0
TEXT
  5
35B
330
6B
100
AcDbEntity
  8
0
 62
     3
100
AcDbText
 10
-580.4564245807674
 20
-124.7189651788628
 30
0.0
 40
3.2
  1
0.7t
 41
0.8
  7
高3.2
100
AcDbText
  0
TEXT
  5
35C
330
6B
100
AcDbEntity
  8
0
 62
     3
100
AcDbText
 10
-613.0684710112269
 20
-134.7189651788628
 30
0.0
 40
3.2
  1
耐熱ABS樹脂
 41
0.8
  7
高3.2
100
AcDbText
  0
TEXT
  5
35D
330
6B
100
AcDbEntity
  8
0
 62
     3
100
AcDbText
 10
-641.3352257567212
 20
-134.7189651788628
 30
0.0
 40
3.2
  1
ケースA,B
 41
0.8
  7
高3.2
100
AcDbText
  0
TEXT
  5
35E
330
6B
100
AcDbEntity
  8
0
 62
     3
100
AcDbText
 10
-641.3352257567212
 20
-129.7189651788628
 30
0.0
 40
3.2
  1
刃受
 41
0.8
  7
高3.2
100
AcDbText
  0
TEXT
  5
35F
330
6B
100
AcDbEntity
  8
0
 62
     3
100
AcDbText
 10
-641.3352257567212
 20
-124.7189651788628
 30
0.0
 40
3.2
  1
アース刃受
 41
0.8
  7
高3.2
100
AcDbText
  0
TEXT
  5
360
330
6B
100
AcDbEntity
  8
0
 62
     3
100
AcDbText
 10
-641.3352257567212
 20
-119.7189651788628
 30
0.0
 40
3.2
  1
角ナット
 41
0.8
  7
高3.2
100
AcDbText
  0
TEXT
  5
361
330
6B
100
AcDbEntity
  8
0
 62
     3
100
AcDbText
 10
-648.1628703721058
 20
-134.7189651788628
 30
0.0
 40
3.2
  1
1
 41
0.8
  7
高3.2
100
AcDbText
  0
TEXT
  5
362
330
6B
100
AcDbEntity
  8
0
 62
     3
100
AcDbText
 10
-648.1628703721058
 20
-129.7189651788628
 30
0.0
 40
3.2
  1
2
 41
0.8
  7
高3.2
100
AcDbText
  0
TEXT
  5
363
330
6B
100
AcDbEntity
  8
0
 62
     3
100
AcDbText
 10
-648.1628703721058
 20
-124.7189651788628
 30
0.0
 40
3.2
  1
3
 41
0.8
  7
高3.2
100
AcDbText
  0
TEXT
  5
364
330
6B
100
AcDbEntity
  8
0
 62
     3
100
AcDbText
 10
-648.1628703721058
 20
-119.7189651788628
 30
0.0
 40
3.2
  1
4
 41
0.8
  7
高3.2
100
AcDbText
  0
TEXT
  5
365
330
6B
100
AcDbEntity
  8
0
 62
     3
100
AcDbText
 10
-648.1628703721058
 20
-114.7189651788628
 30
0.0
 40
3.2
  1
5
 41
0.8
  7
高3.2
100
AcDbText
  0
TEXT
  5
366
330
6B
100
AcDbEntity
  8
0
 62
     3
100
AcDbText
 10
-648.1628703721058
 20
-109.7189651788628
 30
0.0
 40
3.2
  1
6
 41
0.8
  7
高3.2
100
AcDbText
  0
TEXT
  5
367
330
6B
100
AcDbEntity
  8
0
 62
     3
100
AcDbText
 10
-648.1628703721058
 20
-104.7189651788628
 30
0.0
 40
3.2
  1
7
 41
0.8
  7
高3.2
100
AcDbText
  0
TEXT
  5
368
330
6B
100
AcDbEntity
  8
0
 62
     3
100
AcDbText
 10
-648.1628703721058
 20
-99.71896517886285
 30
0.0
 40
3.2
  1
8
 41
0.8
  7
高3.2
100
AcDbText
  0
TEXT
  5
369
330
6B
100
AcDbEntity
  8
0
 62
     3
100
AcDbText
 10
-648.1628703721058
 20
-94.71896517886284
 30
0.0
 40
3.2
  1
9
 41
0.8
  7
高3.2
100
AcDbText
  0
LINE
  5
36A
330
6B
100
AcDbEntity
  8
0
 62
     7
100
AcDbLine
 10
-581.9564245807676
 20
-140.2189651788628
 30
0.0
 11
-581.9564245807676
 21
-90.21896517886284
 31
0.0
  0
LINE
  5
36B
330
6B
100
AcDbEntity
  8
0
 62
     7
100
AcDbLine
 10
-614.5684710112267
 20
-140.2189651788628
 30
0.0
 11
-614.5684710112267
 21
-90.21896517886284
 31
0.0
  0
LINE
  5
36C
330
6B
100
AcDbEntity
  8
0
 62
     7
100
AcDbLine
 10
-642.8352257567212
 20
-140.2189651788628
 30
0.0
 11
-642.8352257567212
 21
-90.21896517886284
 31
0.0
  0
TEXT
  5
36D
330
6B
100
AcDbEntity
  8
0
 62
     3
100
AcDbText
 10
-580.4564245807674
 20
-94.71896517886284
 30
0.0
 40
3.2
  1
PタイトM3.5x12(クロメートメッキ処理)
 41
0.8
  7
高3.2
100
AcDbText
  0
TEXT
  5
36E
330
6B
100
AcDbEntity
  8
0
 62
     3
100
AcDbText
 10
-580.4564245807674
 20
-99.71896517886285
 30
0.0
 40
3.2
  1
PタイトM3.5x14(ユニクロメートメッキ処理)
 41
0.8
  7
高3.2
100
AcDbText
  0
TEXT
  5
36F
330
6B
100
AcDbEntity
  8
0
 62
     3
100
AcDbText
 10
-580.4564245807674
 20
-109.7189651788628
 30
0.0
 40
3.2
  1
プラマイ丸平M4x8(ユニクロメートメッキ処理)
 41
0.8
  7
高3.2
100
AcDbText
  0
TEXT
  5
370
330
6B
100
AcDbEntity
  8
0
 62
     3
100
AcDbText
 10
-507.3779518353931
 20
-139.7189651788628
 30
0.0
 40
3.2
  1
個数
 41
0.8
  7
高3.2
100
AcDbText
  0
TEXT
  5
371
330
6B
100
AcDbEntity
  8
0
 62
     3
100
AcDbText
 10
-580.4564245807674
 20
-139.7189651788628
 30
0.0
 40
3.2
  1
備　　　　考
 41
0.8
  7
高3.2
100
AcDbText
  0
TEXT
  5
372
330
6B
100
AcDbEntity
  8
0
 62
     3
100
AcDbText
 10
-613.0684710112269
 20
-139.7189651788628
 30
0.0
 40
3.2
  1
材　　　　質
 41
0.8
  7
高3.2
100
AcDbText
  0
TEXT
  5
373
330
6B
100
AcDbEntity
  8
0
 62
     3
100
AcDbText
 10
-641.3352257567212
 20
-139.7189651788628
 30
0.0
 40
3.2
  1
部　　品　　名
 41
0.8
  7
高3.2
100
AcDbText
  0
TEXT
  5
374
330
6B
100
AcDbEntity
  8
0
 62
     3
100
AcDbText
 10
-648.1628703721058
 20
-139.7189651788628
 30
0.0
 40
3.2
  1
No
 41
0.8
  7
高3.2
100
AcDbText
  0
TEXT
  5
379
330
6B
100
AcDbEntity
  8
0
 62
     3
100
AcDbText
 10
-284.1628703721058
 20
-75.71896517886282
 30
0.0
 40
4.5
  1
コード
  7
高4.5
100
AcDbText
  0
TEXT
  5
37A
330
6B
100
AcDbEntity
  8
0
 62
     3
100
AcDbText
 10
-310.1628703721058
 20
-75.7189651788628
 30
0.0
 40
4.5
  1
型式
  7
高4.5
100
AcDbText
  0
TEXT
  5
37D
330
6B
100
AcDbEntity
  8
0
 62
     3
100
AcDbText
 10
-310.1628703721058
 20
-81.71896517886281
 30
0.0
 40
4.5
  1
2PE-DN
 41
0.8
  7
高4.5
100
AcDbText
  0
TEXT
  5
37E
330
6B
100
AcDbEntity
  8
0
 62
     3
100
AcDbText
 10
-310.1628703721058
 20
-87.71896517886281
 30
0.0
 40
4.5
  1
2PE-GN
 41
0.8
  7
高4.5
100
AcDbText
  0
TEXT
  5
37F
330
6B
100
AcDbEntity
  8
0
 62
     3
100
AcDbText
 10
-310.1628703721058
 20
-93.7189651788628
 30
0.0
 40
4.5
  1
2PE-RN
 41
0.8
  7
高4.5
100
AcDbText
  0
TEXT
  5
380
330
6B
100
AcDbEntity
  8
0
 62
     3
100
AcDbText
 10
-310.1628703721058
 20
-99.71896517886282
 30
0.0
 40
4.5
  1
2PE-WN
 41
0.8
  7
高4.5
100
AcDbText
  0
TEXT
  5
381
330
6B
100
AcDbEntity
  8
0
 62
     3
100
AcDbText
 10
-284.1628703721058
 20
-81.71896517886281
 30
0.0
 40
4.5
  1
51440
  7
高4.5
100
AcDbText
  0
TEXT
  5
382
330
6B
100
AcDbEntity
  8
0
 62
     3
100
AcDbText
 10
-284.1628703721058
 20
-87.71896517886281
 30
0.0
 40
4.5
  1
51441
  7
高4.5
100
AcDbText
  0
TEXT
  5
383
330
6B
100
AcDbEntity
  8
0
 62
     3
100
AcDbText
 10
-284.1628703721058
 20
-93.71896517886282
 30
0.0
 40
4.5
  1
51442
  7
高4.5
100
AcDbText
  0
TEXT
  5
384
330
6B
100
AcDbEntity
  8
0
 62
     3
100
AcDbText
 10
-284.1628703721058
 20
-99.71896517886282
 30
0.0
 40
4.5
  1
51439
  7
高4.5
100
AcDbText
  0
LINE
  5
38F
330
6B
100
AcDbEntity
  8
0
 62
     3
100
AcDbLine
 10
-499.1398656815468
 20
-140.2189651788628
 30
0.0
 11
-499.1398656815468
 21
-90.21896517886284
 31
0.0
  0
LINE
  5
62E
330
6B
100
AcDbEntity
  8
0
 62
     3
100
AcDbLine
 10
-415.0142633540706
 20
-8.660425629396312
 30
0.0
 11
-415.0142633540706
 21
-6.660425629396311
 31
0.0
  0
LINE
  5
62F
330
6B
100
AcDbEntity
  8
0
 62
     3
100
AcDbLine
 10
-419.0142633540706
 20
-8.660425629396312
 30
0.0
 11
-419.0142633540706
 21
-6.660425629396311
 31
0.0
  0
LINE
  5
630
330
6B
100
AcDbEntity
  8
0
 62
     3
100
AcDbLine
 10
-415.0142633540706
 20
-6.660425629396311
 30
0.0
 11
-419.0142633540706
 21
-6.660425629396311
 31
0.0
  0
LINE
  5
631
330
6B
100
AcDbEntity
  8
0
 62
     3
100
AcDbLine
 10
-418.2642633540706
 20
8.339574370603715
 30
0.0
 11
-418.2642633540706
 21
-6.660425629396311
 31
0.0
  0
LINE
  5
632
330
6B
100
AcDbEntity
  8
0
 62
     3
100
AcDbLine
 10
-415.7642633540706
 20
8.339574370603715
 30
0.0
 11
-415.7642633540706
 21
-6.660425629396311
 31
0.0
  0
LINE
  5
633
330
6B
100
AcDbEntity
  8
0
 62
     3
100
AcDbLine
 10
-415.7642633540706
 20
8.339574370603715
 30
0.0
 11
-418.2642633540706
 21
8.339574370603715
 31
0.0
  0
CIRCLE
  5
634
330
6B
100
AcDbEntity
  8
0
 62
     3
100
AcDbCircle
 10
-416.0642633540708
 20
32.54069749560376
 30
0.0
 40
1.500000000000001
  0
CIRCLE
  5
635
330
6B
100
AcDbEntity
  8
0
 62
     3
100
AcDbCircle
 10
-416.0642633540708
 20
32.54069749560376
 30
0.0
 40
2.000000000000003
  0
CIRCLE
  5
636
330
6B
100
AcDbEntity
  8
0
 62
     3
100
AcDbCircle
 10
-416.0642633540708
 20
26.54069749560374
 30
0.0
 40
2.000000000000003
  0
CIRCLE
  5
637
330
6B
100
AcDbEntity
  8
0
 62
     3
100
AcDbCircle
 10
-416.0642633540708
 20
26.54069749560374
 30
0.0
 40
1.500000000000001
  0
CIRCLE
  5
638
330
6B
100
AcDbEntity
  8
0
 62
     3
100
AcDbCircle
 10
-392.0642633540706
 20
26.54069749560374
 30
0.0
 40
2.000000000000003
  0
CIRCLE
  5
639
330
6B
100
AcDbEntity
  8
0
 62
     3
100
AcDbCircle
 10
-392.0642633540706
 20
26.54069749560374
 30
0.0
 40
1.500000000000001
  0
CIRCLE
  5
63A
330
6B
100
AcDbEntity
  8
0
 62
     3
100
AcDbCircle
 10
-392.0642633540706
 20
32.54069749560376
 30
0.0
 40
2.000000000000003
  0
CIRCLE
  5
63B
330
6B
100
AcDbEntity
  8
0
 62
     3
100
AcDbCircle
 10
-392.0642633540706
 20
32.54069749560376
 30
0.0
 40
1.500000000000001
  0
LINE
  5
63C
330
6B
100
AcDbEntity
  8
0
  6
CENTER
 62
     7
100
AcDbLine
 10
-521.5623814790708
 20
5.039574370603709
 30
0.0
 11
-559.0948521040709
 21
5.039574370603709
 31
0.0
  0
LINE
  5
63D
330
6B
100
AcDbEntity
  8
0
  6
CENTER
 62
     7
100
AcDbLine
 10
-532.4697521040709
 20
49.03957437060378
 30
0.0
 11
-550.295458979071
 21
49.03957437060378
 31
0.0
  0
LINE
  5
63E
330
6B
100
AcDbEntity
  8
0
  6
CENTER
 62
     7
100
AcDbLine
 10
-532.4697521040709
 20
10.03957437060372
 30
0.0
 11
-550.295458979071
 21
10.03957437060372
 31
0.0
  0
LINE
  5
63F
330
6B
100
AcDbEntity
  8
0
  6
CENTER
 62
     7
100
AcDbLine
 10
-538.3712833540709
 20
-1.860425629396303
 30
0.0
 11
-544.5088414790708
 21
-1.860425629396303
 31
0.0
  0
LINE
  5
640
330
6B
100
AcDbEntity
  8
0
  6
CENTER
 62
     7
100
AcDbLine
 10
-483.0668314790708
 20
44.03957437060377
 30
0.0
 11
-467.8804833540707
 21
44.03957437060377
 31
0.0
  0
LINE
  5
641
330
6B
100
AcDbEntity
  8
0
  6
CENTER
 62
     7
100
AcDbLine
 10
-483.0668314790708
 20
5.039574370603709
 30
0.0
 11
-467.8804833540707
 21
5.039574370603709
 31
0.0
  0
LINE
  5
642
330
6B
100
AcDbEntity
  8
0
  6
CENTER
 62
     7
100
AcDbLine
 10
-534.7286983540708
 20
37.13957437060376
 30
0.0
 11
-531.4262452290709
 21
37.13957437060376
 31
0.0
  0
LINE
  5
643
330
6B
100
AcDbEntity
  8
0
  6
CENTER
 62
     7
100
AcDbLine
 10
-533.0613521040709
 20
38.40652499560376
 30
0.0
 11
-533.0613521040709
 21
38.90808624560377
 31
0.0
  0
LINE
  5
644
330
6B
100
AcDbEntity
  8
0
  6
CENTER
 62
     7
100
AcDbLine
 10
-521.5623814790708
 20
44.03957437060377
 30
0.0
 11
-559.0948521040709
 21
44.03957437060377
 31
0.0
  0
LINE
  5
645
330
6B
100
AcDbEntity
  8
0
  6
CENTER
 62
     7
100
AcDbLine
 10
-538.3712833540709
 20
24.53957437060374
 30
0.0
 11
-544.5088414790708
 21
24.53957437060374
 31
0.0
  0
LINE
  5
646
330
6B
100
AcDbEntity
  8
0
  6
CENTER
 62
     7
100
AcDbLine
 10
-541.3523127290709
 20
73.35394374560383
 30
0.0
 11
-541.3523127290709
 21
-24.69282062939634
 31
0.0
  0
LINE
  5
647
330
6B
100
AcDbEntity
  8
0
 62
     3
100
AcDbLine
 10
-474.9118421040709
 20
71.53957437060381
 30
0.0
 11
-475.9118421040708
 21
71.53957437060381
 31
0.0
  0
LINE
  5
648
330
6B
100
AcDbEntity
  8
0
 62
     3
100
AcDbLine
 10
-474.9118421040709
 20
57.83957437060379
 30
0.0
 11
-456.4118421040706
 21
57.83957437060379
 31
0.0
  0
LINE
  5
649
330
6B
100
AcDbEntity
  8
0
 62
     3
100
AcDbLine
 10
-474.9118421040709
 20
-8.760425629396312
 30
0.0
 11
-456.4118421040706
 21
-8.760425629396312
 31
0.0
  0
LINE
  5
64A
330
6B
100
AcDbEntity
  8
0
 62
     3
100
AcDbLine
 10
-456.4118421040706
 20
-9.760425629396305
 30
0.0
 11
-474.9118421040709
 21
-9.760425629396305
 31
0.0
  0
LINE
  5
64B
330
6B
100
AcDbEntity
  8
0
 62
     3
100
AcDbLine
 10
-456.4118421040706
 20
58.8395743706038
 30
0.0
 11
-474.9118421040709
 21
58.8395743706038
 31
0.0
  0
LINE
  5
64C
330
6B
100
AcDbEntity
  8
0
 62
     3
100
AcDbLine
 10
-474.9118421040709
 20
-22.46042562939634
 30
0.0
 11
-474.9118421040709
 21
-9.760425629396305
 31
0.0
  0
LINE
  5
64D
330
6B
100
AcDbEntity
  8
0
 62
     3
100
AcDbLine
 10
-474.9118421040709
 20
58.8395743706038
 30
0.0
 11
-474.9118421040709
 21
71.53957437060381
 31
0.0
  0
ARC
  5
64E
330
6B
100
AcDbEntity
  8
0
 62
     3
100
AcDbCircle
 10
-456.4118421040706
 20
57.83957437060379
 30
0.0
 40
1.000000000000001
100
AcDbArc
 50
0.0
 51
90.0
  0
ARC
  5
64F
330
6B
100
AcDbEntity
  8
0
 62
     3
100
AcDbCircle
 10
-474.9118421040709
 20
-9.760425629396305
 30
0.0
 40
1.000000000000001
100
AcDbArc
 50
90.0
 51
180.0
  0
ARC
  5
650
330
6B
100
AcDbEntity
  8
0
 62
     3
100
AcDbCircle
 10
-456.4118421040706
 20
-8.760425629396312
 30
0.0
 40
1.000000000000001
100
AcDbArc
 50
270.0
 51
0.0
  0
ARC
  5
651
330
6B
100
AcDbEntity
  8
0
 62
     3
100
AcDbCircle
 10
-474.9118421040709
 20
58.8395743706038
 30
0.0
 40
1.000000000000001
100
AcDbArc
 50
180.0
 51
270.0
  0
LINE
  5
652
330
6B
100
AcDbEntity
  8
0
 62
     3
100
AcDbLine
 10
-475.9118421040708
 20
-9.760425629396305
 30
0.0
 11
-475.9118421040708
 21
-22.46042562939634
 31
0.0
  0
LINE
  5
653
330
6B
100
AcDbEntity
  8
0
 62
     3
100
AcDbLine
 10
-475.9118421040708
 20
58.8395743706038
 30
0.0
 11
-475.9118421040708
 21
71.53957437060381
 31
0.0
  0
CIRCLE
  5
654
330
6B
100
AcDbEntity
  8
0
 62
     3
100
AcDbCircle
 10
-541.3523127290709
 20
64.78957437060374
 30
0.0
 40
1.650000000000002
  0
CIRCLE
  5
655
330
6B
100
AcDbEntity
  8
0
 62
     3
100
AcDbCircle
 10
-541.3523127290709
 20
-15.71042562939625
 30
0.0
 40
1.650000000000002
  0
LINE
  5
656
330
6B
100
AcDbEntity
  8
0
 62
     3
100
AcDbLine
 10
-473.9118421040708
 20
62.4145743706038
 30
0.0
 11
-473.9118421040708
 21
66.9145743706038
 31
0.0
  0
LINE
  5
657
330
6B
100
AcDbEntity
  8
0
 62
     3
100
AcDbLine
 10
-473.9118421040708
 20
66.9145743706038
 30
0.0
 11
-474.9118421040709
 21
66.9145743706038
 31
0.0
  0
LINE
  5
658
330
6B
100
AcDbEntity
  8
0
 62
     3
100
AcDbLine
 10
-473.9118421040708
 20
62.4145743706038
 30
0.0
 11
-474.9118421040709
 21
62.4145743706038
 31
0.0
  0
LINE
  5
659
330
6B
100
AcDbEntity
  8
0
 62
     3
100
AcDbLine
 10
-473.9118421040708
 20
-13.33542562939632
 30
0.0
 11
-474.9118421040709
 21
-13.33542562939632
 31
0.0
  0
LINE
  5
65A
330
6B
100
AcDbEntity
  8
0
 62
     3
100
AcDbLine
 10
-473.9118421040708
 20
-17.83542562939633
 30
0.0
 11
-474.9118421040709
 21
-17.83542562939633
 31
0.0
  0
LINE
  5
65B
330
6B
100
AcDbEntity
  8
0
 62
     3
100
AcDbLine
 10
-473.9118421040708
 20
-13.33542562939632
 30
0.0
 11
-473.9118421040708
 21
-17.83542562939633
 31
0.0
  0
LINE
  5
65C
330
6B
100
AcDbEntity
  8
0
 62
     3
100
AcDbLine
 10
-411.5642633540706
 20
58.8395743706038
 30
0.0
 11
-396.5642633540708
 21
58.8395743706038
 31
0.0
  0
LINE
  5
65D
330
6B
100
AcDbEntity
  8
0
  6
DASHED
 62
     7
100
AcDbLine
 10
-458.9118421040708
 20
-8.760425629396312
 30
0.0
 11
-458.9118421040708
 21
-9.760425629396305
 31
0.0
  0
LINE
  5
65E
330
6B
100
AcDbEntity
  8
0
  6
DASHED
 62
     7
100
AcDbLine
 10
-470.9118421040708
 20
-8.760425629396312
 30
0.0
 11
-470.9118421040708
 21
-9.760425629396305
 31
0.0
  0
LINE
  5
65F
330
6B
100
AcDbEntity
  8
0
 62
     3
100
AcDbLine
 10
-474.9118421040709
 20
67.5395743706038
 30
0.0
 11
-475.9118421040708
 21
67.5395743706038
 31
0.0
  0
LINE
  5
660
330
6B
100
AcDbEntity
  8
0
 62
     3
100
AcDbLine
 10
-455.4118421040708
 20
-3.660425629396304
 30
0.0
 11
-455.4118421040708
 21
21.54069749560374
 31
0.0
  0
LINE
  5
661
330
6B
100
AcDbEntity
  8
0
 62
     3
100
AcDbLine
 10
-455.4118421040708
 20
37.54069749560378
 30
0.0
 11
-455.4118421040708
 21
52.73957437060379
 31
0.0
  0
LINE
  5
662
330
6B
100
AcDbEntity
  8
0
 62
     3
100
AcDbLine
 10
-456.4118421040706
 20
-8.760425629396312
 30
0.0
 11
-456.4118421040706
 21
21.54069749560374
 31
0.0
  0
LINE
  5
663
330
6B
100
AcDbEntity
  8
0
 62
     3
100
AcDbLine
 10
-456.4118421040706
 20
37.54069749560378
 30
0.0
 11
-456.4118421040706
 21
57.83957437060379
 31
0.0
  0
LINE
  5
664
330
6B
100
AcDbEntity
  8
0
  6
CENTER
 62
     7
100
AcDbLine
 10
-404.0642633540706
 20
45.63957437060378
 30
0.0
 11
-404.0642633540706
 21
73.35394374560383
 31
0.0
  0
LINE
  5
665
330
6B
100
AcDbEntity
  8
0
  6
CENTER
 62
     7
100
AcDbLine
 10
-404.0642633540706
 20
43.63957437060377
 30
0.0
 11
-404.0642633540706
 21
-24.69282062939634
 31
0.0
  0
LINE
  5
666
330
6B
100
AcDbEntity
  8
0
 62
     3
100
AcDbLine
 10
-386.5642633540706
 20
-5.968690629396306
 30
0.0
 11
-389.5642633540706
 21
-5.968690629396306
 31
0.0
  0
LINE
  5
667
330
6B
100
AcDbEntity
  8
0
 62
     3
100
AcDbLine
 10
-392.5642633540706
 20
-5.968690629396306
 30
0.0
 11
-395.5642633540707
 21
-5.968690629396306
 31
0.0
  0
LINE
  5
668
330
6B
100
AcDbEntity
  8
0
  6
CENTER
 62
     7
100
AcDbLine
 10
-478.4881896040708
 20
64.6645743706038
 30
0.0
 11
-471.4598046040708
 21
64.6645743706038
 31
0.0
  0
LINE
  5
669
330
6B
100
AcDbEntity
  8
0
  6
CENTER
 62
     7
100
AcDbLine
 10
-477.4460033540708
 20
-15.58542562939632
 30
0.0
 11
-472.1558727290708
 21
-15.58542562939632
 31
0.0
  0
LINE
  5
66A
330
6B
100
AcDbEntity
  8
0
 62
     7
100
AcDbLine
 10
-544.891395854071
 20
52.54859187060379
 30
0.0
 11
-543.3713452290709
 21
52.45782062060378
 31
0.0
  0
LINE
  5
66B
330
6B
100
AcDbEntity
  8
0
 62
     7
100
AcDbLine
 10
-543.368582729071
 20
52.45945124560378
 30
0.0
 11
-546.9276308540709
 21
56.01849937060379
 31
0.0
  0
ARC
  5
66C
330
6B
100
AcDbEntity
  8
0
 62
     7
100
AcDbCircle
 10
-541.3523127290709
 20
49.03957437060378
 30
0.0
 40
3.970000000000006
100
AcDbArc
 50
120.5224879999977
 51
239.4775119999963
  0
ARC
  5
66D
330
6B
100
AcDbEntity
  8
0
 62
     7
100
AcDbCircle
 10
-541.3523127290709
 20
49.03957437060378
 30
0.0
 40
8.932500000000011
100
AcDbArc
 50
128.6206300000029
 51
231.3793700000021
  0
LINE
  5
66E
330
6B
100
AcDbEntity
  8
0
 62
     7
100
AcDbLine
 10
-546.9968058540708
 20
54.65400249560379
 30
0.0
 11
-546.9276308540709
 21
56.01849937060379
 31
0.0
  0
LINE
  5
66F
330
6B
100
AcDbEntity
  8
0
 62
     7
100
AcDbLine
 10
-544.891395854071
 20
45.53055749560377
 30
0.0
 11
-543.3666733540709
 21
45.62160749560378
 31
0.0
  0
LINE
  5
670
330
6B
100
AcDbEntity
  8
0
 62
     7
100
AcDbLine
 10
-546.9276308540709
 20
42.06064999560377
 30
0.0
 11
-543.368582729071
 21
45.61969812060377
 31
0.0
  0
LINE
  5
671
330
6B
100
AcDbEntity
  8
0
 62
     7
100
AcDbLine
 10
-546.9968058540708
 20
43.42514687060377
 30
0.0
 11
-546.9276308540709
 21
42.06064999560377
 31
0.0
  0
LINE
  5
672
330
6B
100
AcDbEntity
  8
0
 62
     7
100
AcDbLine
 10
-537.8132302290708
 20
52.54859187060379
 30
0.0
 11
-539.3379527290709
 21
52.45754187060379
 31
0.0
  0
LINE
  5
673
330
6B
100
AcDbEntity
  8
0
 62
     7
100
AcDbLine
 10
-535.746222104071
 20
55.99380374560379
 30
0.0
 11
-535.7078196040709
 21
54.65400249560379
 31
0.0
  0
ARC
  5
674
330
6B
100
AcDbEntity
  8
0
 62
     7
100
AcDbCircle
 10
-541.3523127290709
 20
49.03957437060378
 30
0.0
 40
3.970000000000006
100
AcDbArc
 50
300.5224879999977
 51
59.47751200000225
  0
LINE
  5
675
330
6B
100
AcDbEntity
  8
0
 62
     7
100
AcDbLine
 10
-539.3360433540708
 20
52.45945124560378
 30
0.0
 11
-535.7769952290708
 21
56.01849937060379
 31
0.0
  0
ARC
  5
676
330
6B
100
AcDbEntity
  8
0
 62
     7
100
AcDbCircle
 10
-541.3523127290709
 20
49.03957437060378
 30
0.0
 40
8.932500000000011
100
AcDbArc
 50
308.6206299999978
 51
51.37937000000212
  0
LINE
  5
677
330
6B
100
AcDbEntity
  8
0
 62
     7
100
AcDbLine
 10
-537.8132302290708
 20
45.53055749560377
 30
0.0
 11
-539.3379527290709
 21
45.62160749560378
 31
0.0
  0
LINE
  5
678
330
6B
100
AcDbEntity
  8
0
 62
     7
100
AcDbLine
 10
-535.7769952290708
 20
42.06064999560377
 30
0.0
 11
-539.3360433540708
 21
45.61969812060377
 31
0.0
  0
LINE
  5
679
330
6B
100
AcDbEntity
  8
0
 62
     7
100
AcDbLine
 10
-535.7078196040709
 20
43.42514687060377
 30
0.0
 11
-535.7477677290709
 21
42.03142249560378
 31
0.0
  0
LINE
  5
67A
330
6B
100
AcDbEntity
  8
0
 62
     7
100
AcDbLine
 10
-535.2173027290708
 20
38.61287999560376
 30
0.0
 11
-534.2762833540708
 21
35.10094749560376
 31
0.0
  0
ARC
  5
67B
330
6B
100
AcDbEntity
  8
0
 62
     7
100
AcDbCircle
 10
-538.5726871040708
 20
37.71380687060375
 30
0.0
 40
3.473750000000004
100
AcDbArc
 50
14.99999999999936
 51
103.7892660000001
  0
ARC
  5
67C
330
6B
100
AcDbEntity
  8
0
 62
     7
100
AcDbCircle
 10
-541.3523127290709
 20
49.03957437060378
 30
0.0
 40
8.188125000000013
100
AcDbArc
 50
270.0
 51
283.7892660000002
  0
ARC
  5
67D
330
6B
100
AcDbEntity
  8
0
 62
     7
100
AcDbCircle
 10
-541.3523127290709
 20
49.03957437060378
 30
0.0
 40
15.63187500000002
100
AcDbArc
 50
270.0
 51
296.9149079999986
  0
LINE
  5
67E
330
6B
100
AcDbEntity
  8
0
 62
     7
100
AcDbLine
 10
-535.5616408540709
 20
35.86474249560376
 30
0.0
 11
-534.2762833540708
 21
35.10094749560376
 31
0.0
  0
LINE
  5
67F
330
6B
100
AcDbEntity
  8
0
  6
CENTER
 62
     7
100
AcDbLine
 10
-534.0468233540708
 20
37.22882437060376
 30
0.0
 11
-548.669891479071
 21
37.22882437060376
 31
0.0
  0
ARC
  5
680
330
6B
100
AcDbEntity
  8
0
 62
     7
100
AcDbCircle
 10
-544.1319383540709
 20
37.71380687060375
 30
0.0
 40
3.473750000000004
100
AcDbArc
 50
76.21073399999985
 51
165.0000000000006
  0
ARC
  5
681
330
6B
100
AcDbEntity
  8
0
 62
     7
100
AcDbCircle
 10
-541.3523127290709
 20
49.03957437060378
 30
0.0
 40
8.188125000000013
100
AcDbArc
 50
256.2107339999998
 51
270.0
  0
LINE
  5
682
330
6B
100
AcDbEntity
  8
0
 62
     7
100
AcDbLine
 10
-548.4283427290709
 20
35.10094749560376
 30
0.0
 11
-547.4873233540709
 21
38.61287999560376
 31
0.0
  0
ARC
  5
683
330
6B
100
AcDbEntity
  8
0
 62
     7
100
AcDbCircle
 10
-541.3523127290709
 20
49.03957437060378
 30
0.0
 40
15.63187500000002
100
AcDbArc
 50
243.0850920000015
 51
270.0
  0
LINE
  5
684
330
6B
100
AcDbEntity
  8
0
 62
     7
100
AcDbLine
 10
-547.142984604071
 20
35.86474249560376
 30
0.0
 11
-548.4283427290709
 21
35.10094749560376
 31
0.0
  0
LINE
  5
685
330
6B
100
AcDbEntity
  8
0
 62
     7
100
AcDbLine
 10
-543.368582729071
 20
13.45945124560372
 30
0.0
 11
-546.9276308540709
 21
17.01849937060373
 31
0.0
  0
ARC
  5
686
330
6B
100
AcDbEntity
  8
0
 62
     7
100
AcDbCircle
 10
-541.3523127290709
 20
10.03957437060372
 30
0.0
 40
8.932500000000011
100
AcDbArc
 50
128.6206300000029
 51
231.3793700000021
  0
LINE
  5
687
330
6B
100
AcDbEntity
  8
0
 62
     7
100
AcDbLine
 10
-546.9968058540708
 20
15.65400249560372
 30
0.0
 11
-546.9276308540709
 21
17.01849937060373
 31
0.0
  0
LINE
  5
688
330
6B
100
AcDbEntity
  8
0
 62
     7
100
AcDbLine
 10
-544.891395854071
 20
13.54859187060372
 30
0.0
 11
-543.3713452290709
 21
13.45782062060372
 31
0.0
  0
ARC
  5
689
330
6B
100
AcDbEntity
  8
0
 62
     7
100
AcDbCircle
 10
-541.3523127290709
 20
10.03957437060372
 30
0.0
 40
3.970000000000006
100
AcDbArc
 50
120.5224879999977
 51
239.4775119999963
  0
LINE
  5
68A
330
6B
100
AcDbEntity
  8
0
 62
     7
100
AcDbLine
 10
-544.891395854071
 20
6.530557495603712
 30
0.0
 11
-543.3666733540709
 21
6.62160749560371
 31
0.0
  0
LINE
  5
68B
330
6B
100
AcDbEntity
  8
0
 62
     7
100
AcDbLine
 10
-546.9276308540709
 20
3.060649995603703
 30
0.0
 11
-543.368582729071
 21
6.61969812060371
 31
0.0
  0
LINE
  5
68C
330
6B
100
AcDbEntity
  8
0
 62
     7
100
AcDbLine
 10
-546.9968058540708
 20
4.42514687060371
 30
0.0
 11
-546.9276308540709
 21
3.060649995603703
 31
0.0
  0
LINE
  5
68D
330
6B
100
AcDbEntity
  8
0
 62
     7
100
AcDbLine
 10
-537.8132302290708
 20
6.530557495603712
 30
0.0
 11
-539.3379527290709
 21
6.62160749560371
 31
0.0
  0
ARC
  5
68E
330
6B
100
AcDbEntity
  8
0
 62
     7
100
AcDbCircle
 10
-541.3523127290709
 20
10.03957437060372
 30
0.0
 40
3.970000000000006
100
AcDbArc
 50
300.5224879999977
 51
59.47751200000225
  0
LINE
  5
68F
330
6B
100
AcDbEntity
  8
0
 62
     7
100
AcDbLine
 10
-535.7769952290708
 20
3.060649995603703
 30
0.0
 11
-539.3360433540708
 21
6.61969812060371
 31
0.0
  0
LINE
  5
690
330
6B
100
AcDbEntity
  8
0
 62
     7
100
AcDbLine
 10
-535.7078196040709
 20
4.42514687060371
 30
0.0
 11
-535.7477677290709
 21
3.031422495603706
 31
0.0
  0
ARC
  5
691
330
6B
100
AcDbEntity
  8
0
 62
     7
100
AcDbCircle
 10
-541.3523127290709
 20
10.03957437060372
 30
0.0
 40
8.932500000000011
100
AcDbArc
 50
308.6206299999978
 51
51.37937000000212
  0
LINE
  5
692
330
6B
100
AcDbEntity
  8
0
 62
     7
100
AcDbLine
 10
-535.746222104071
 20
16.99380374560373
 30
0.0
 11
-535.7078196040709
 21
15.65400249560372
 31
0.0
  0
LINE
  5
693
330
6B
100
AcDbEntity
  8
0
 62
     7
100
AcDbLine
 10
-539.3360433540708
 20
13.45945124560372
 30
0.0
 11
-535.7769952290708
 21
17.01849937060373
 31
0.0
  0
LINE
  5
694
330
6B
100
AcDbEntity
  8
0
 62
     7
100
AcDbLine
 10
-537.8132302290708
 20
13.54859187060372
 30
0.0
 11
-539.3379527290709
 21
13.45754187060372
 31
0.0
  0
ARC
  5
695
330
6B
100
AcDbEntity
  8
0
 62
     7
100
AcDbCircle
 10
-538.5726871040708
 20
-1.286193129396297
 30
0.0
 40
3.473750000000004
100
AcDbArc
 50
14.99999999999936
 51
103.7892660000001
  0
ARC
  5
696
330
6B
100
AcDbEntity
  8
0
 62
     7
100
AcDbCircle
 10
-541.3523127290709
 20
10.03957437060372
 30
0.0
 40
8.188125000000013
100
AcDbArc
 50
270.0
 51
283.7892660000002
  0
ARC
  5
697
330
6B
100
AcDbEntity
  8
0
 62
     7
100
AcDbCircle
 10
-544.1319383540709
 20
-1.286193129396297
 30
0.0
 40
3.473750000000004
100
AcDbArc
 50
76.21073399999985
 51
165.0000000000006
  0
ARC
  5
698
330
6B
100
AcDbEntity
  8
0
 62
     7
100
AcDbCircle
 10
-541.3523127290709
 20
10.03957437060372
 30
0.0
 40
8.188125000000013
100
AcDbArc
 50
256.2107339999998
 51
270.0
  0
LINE
  5
699
330
6B
100
AcDbEntity
  8
0
 62
     7
100
AcDbLine
 10
-547.142984604071
 20
-3.135257504396303
 30
0.0
 11
-548.4283427290709
 21
-3.899052504396304
 31
0.0
  0
LINE
  5
69A
330
6B
100
AcDbEntity
  8
0
 62
     7
100
AcDbLine
 10
-548.4283427290709
 20
-3.899052504396304
 30
0.0
 11
-547.4873233540709
 21
-0.3871200043962979
 31
0.0
  0
ARC
  5
69B
330
6B
100
AcDbEntity
  8
0
 62
     7
100
AcDbCircle
 10
-541.3523127290709
 20
10.03957437060372
 30
0.0
 40
15.63187500000002
100
AcDbArc
 50
243.0850920000015
 51
270.0
  0
LINE
  5
69C
330
6B
100
AcDbEntity
  8
0
 62
     7
100
AcDbLine
 10
-535.2173027290708
 20
-0.3871200043962979
 30
0.0
 11
-534.2762833540708
 21
-3.899052504396304
 31
0.0
  0
LINE
  5
69D
330
6B
100
AcDbEntity
  8
0
 62
     7
100
AcDbLine
 10
-535.5616408540709
 20
-3.135257504396303
 30
0.0
 11
-534.2762833540708
 21
-3.899052504396304
 31
0.0
  0
ARC
  5
69E
330
6B
100
AcDbEntity
  8
0
 62
     7
100
AcDbCircle
 10
-541.3523127290709
 20
10.03957437060372
 30
0.0
 40
15.63187500000002
100
AcDbArc
 50
270.0
 51
296.9149079999986
  0
CIRCLE
  5
6A1
330
6B
100
AcDbEntity
  8
0
 62
     7
100
AcDbCircle
 10
-505.9666465466823
 20
65.62885187060381
 30
0.0
 40
5.0
  0
TEXT
  5
6A2
330
6B
100
AcDbEntity
  8
0
 62
     4
100
AcDbText
 10
-508.2237790912301
 20
62.45408054784423
 30
0.0
 40
6.299999999999998
  1
3
  7
高6.3
100
AcDbText
  0
CIRCLE
  5
6A5
330
6B
100
AcDbEntity
  8
0
 62
     7
100
AcDbCircle
 10
-516.8237236812077
 20
65.80865187060379
 30
0.0
 40
5.0
  0
TEXT
  5
6A6
330
6B
100
AcDbEntity
  8
0
 62
     4
100
AcDbText
 10
-519.0808562257557
 20
62.63388054784424
 30
0.0
 40
6.299999999999998
  1
2
  7
高6.3
100
AcDbText
  0
CIRCLE
  5
6AD
330
6B
100
AcDbEntity
  8
0
 62
     7
100
AcDbCircle
 10
-441.8522913237189
 20
65.80865187060379
 30
0.0
 40
5.0
  0
TEXT
  5
6AE
330
6B
100
AcDbEntity
  8
0
 62
     4
100
AcDbText
 10
-443.0126538977908
 20
62.76911886567631
 30
0.0
 40
6.299999999999998
  1
1
  7
高6.3
100
AcDbText
  0
CIRCLE
  5
6B1
330
6B
100
AcDbEntity
  8
0
 62
     7
100
AcDbCircle
 10
-373.7516221040707
 20
65.80865187060379
 30
0.0
 40
5.0
  0
TEXT
  5
6B2
330
6B
100
AcDbEntity
  8
0
 62
     4
100
AcDbText
 10
-376.0087546486186
 20
62.63388054784424
 30
0.0
 40
6.299999999999998
  1
7
  7
高6.3
100
AcDbText
  0
CIRCLE
  5
6B5
330
6B
100
AcDbEntity
  8
0
 62
     7
100
AcDbCircle
 10
-373.7516221040707
 20
25.6877804763402
 30
0.0
 40
5.0
  0
TEXT
  5
6B6
330
6B
100
AcDbEntity
  8
0
 62
     4
100
AcDbText
 10
-376.0087546486186
 20
22.51300915358063
 30
0.0
 40
6.299999999999998
  1
5
  7
高6.3
100
AcDbText
  0
CIRCLE
  5
6B9
330
6B
100
AcDbEntity
  8
0
 62
     7
100
AcDbCircle
 10
-373.7516221040707
 20
14.61184361239614
 30
0.0
 40
5.0
  0
TEXT
  5
6BA
330
6B
100
AcDbEntity
  8
0
 62
     4
100
AcDbText
 10
-376.0087546486186
 20
11.43707228963657
 30
0.0
 40
6.299999999999998
  1
8
  7
高6.3
100
AcDbText
  0
CIRCLE
  5
6BD
330
6B
100
AcDbEntity
  8
0
 62
     7
100
AcDbCircle
 10
-373.7516221040707
 20
3.530828819473747
 30
0.0
 40
5.0
  0
TEXT
  5
6BE
330
6B
100
AcDbEntity
  8
0
 62
     4
100
AcDbText
 10
-376.0087546486186
 20
0.3560574967141825
 30
0.0
 40
6.299999999999998
  1
9
  7
高6.3
100
AcDbText
  0
CIRCLE
  5
6C1
330
6B
100
AcDbEntity
  8
0
 62
     7
100
AcDbCircle
 10
-373.7516221040707
 20
-8.851569930526272
 30
0.0
 40
5.0
  0
TEXT
  5
6C2
330
6B
100
AcDbEntity
  8
0
 62
     4
100
AcDbText
 10
-376.0087546486186
 20
-12.02634125328585
 30
0.0
 40
6.299999999999998
  1
4
  7
高6.3
100
AcDbText
  0
CIRCLE
  5
6C5
330
6B
100
AcDbEntity
  8
0
 62
     7
100
AcDbCircle
 10
-373.7516221040707
 20
-19.98134437939633
 30
0.0
 40
5.0
  0
TEXT
  5
6C6
330
6B
100
AcDbEntity
  8
0
 62
     4
100
AcDbText
 10
-376.0087546486186
 20
-23.15611570215589
 30
0.0
 40
6.299999999999998
  1
6
  7
高6.3
100
AcDbText
  0
ARC
  5
6CB
330
6B
100
AcDbEntity
  8
0
 62
     3
100
AcDbCircle
 10
-388.0642633540706
 20
23.04069749560374
 30
0.0
 40
1.000000000000001
100
AcDbArc
 50
0.0
 51
90.0
  0
ARC
  5
6CC
330
6B
100
AcDbEntity
  8
0
 62
     3
100
AcDbCircle
 10
-420.0642633540706
 20
36.04069749560377
 30
0.0
 40
1.000000000000001
100
AcDbArc
 50
180.0
 51
270.0
  0
ARC
  5
6CD
330
6B
100
AcDbEntity
  8
0
 62
     3
100
AcDbCircle
 10
-420.0642633540706
 20
23.04069749560374
 30
0.0
 40
1.000000000000001
100
AcDbArc
 50
90.0
 51
180.0
  0
ARC
  5
6CE
330
6B
100
AcDbEntity
  8
0
 62
     3
100
AcDbCircle
 10
-385.0642633540707
 20
2.839574370603706
 30
0.0
 40
1.000000000000001
100
AcDbArc
 50
0.0
 51
90.0
  0
LINE
  5
6CF
330
6B
100
AcDbEntity
  8
0
 62
     3
100
AcDbLine
 10
-385.0642633540707
 20
3.839574370603706
 30
0.0
 11
-386.0642633540706
 21
3.839574370603706
 31
0.0
  0
ARC
  5
6D0
330
6B
100
AcDbEntity
  8
0
 62
     3
100
AcDbCircle
 10
-386.0642633540706
 20
4.839574370603706
 30
0.0
 40
1.000000000000001
100
AcDbArc
 50
180.0
 51
270.0
  0
LINE
  5
6D1
330
6B
100
AcDbEntity
  8
0
 62
     3
100
AcDbLine
 10
-411.6642633540706
 20
54.23623749560379
 30
0.0
 11
-411.6642633540706
 21
56.23623749560379
 31
0.0
  0
ARC
  5
6D2
330
6B
100
AcDbEntity
  8
0
 62
     3
100
AcDbCircle
 10
-413.1642633540706
 20
56.23623749560379
 30
0.0
 40
1.500000000000001
100
AcDbArc
 50
0.0
 51
180.0
  0
LINE
  5
6D3
330
6B
100
AcDbEntity
  8
0
 62
     3
100
AcDbLine
 10
-414.6642633540706
 20
54.23623749560379
 30
0.0
 11
-414.6642633540706
 21
56.23623749560379
 31
0.0
  0
ARC
  5
6D4
330
6B
100
AcDbEntity
  8
0
 62
     3
100
AcDbCircle
 10
-413.1642633540706
 20
54.23623749560379
 30
0.0
 40
1.500000000000001
100
AcDbArc
 50
180.0
 51
0.0
  0
LINE
  5
6D5
330
6B
100
AcDbEntity
  8
0
 62
     3
100
AcDbLine
 10
-411.6642633540706
 20
-5.160425629396306
 30
0.0
 11
-411.6642633540706
 21
-7.160425629396311
 31
0.0
  0
ARC
  5
6D6
330
6B
100
AcDbEntity
  8
0
 62
     3
100
AcDbCircle
 10
-413.1642633540706
 20
-5.160425629396306
 30
0.0
 40
1.500000000000001
100
AcDbArc
 50
0.0
 51
180.0
  0
LINE
  5
6D7
330
6B
100
AcDbEntity
  8
0
 62
     3
100
AcDbLine
 10
-414.6642633540706
 20
-5.160425629396306
 30
0.0
 11
-414.6642633540706
 21
-7.160425629396311
 31
0.0
  0
ARC
  5
6D8
330
6B
100
AcDbEntity
  8
0
 62
     3
100
AcDbCircle
 10
-413.1642633540706
 20
-7.160425629396311
 30
0.0
 40
1.500000000000001
100
AcDbArc
 50
180.0
 51
0.0
  0
ARC
  5
6D9
330
6B
100
AcDbEntity
  8
0
 62
     3
100
AcDbCircle
 10
-454.9118421040708
 20
-8.160425629396311
 30
0.0
 40
0.5000000000000009
100
AcDbArc
 50
270.0
 51
0.0
  0
LINE
  5
6DA
330
6B
100
AcDbEntity
  8
0
 62
     3
100
AcDbLine
 10
-454.4118421040708
 20
-8.160425629396311
 30
0.0
 11
-454.4118421040708
 21
-4.160425629396306
 31
0.0
  0
ARC
  5
6DB
330
6B
100
AcDbEntity
  8
0
 62
     3
100
AcDbCircle
 10
-454.9118421040708
 20
-4.160425629396306
 30
0.0
 40
0.5000000000000009
100
AcDbArc
 50
0.0
 51
90.0
  0
LINE
  5
6DC
330
6B
100
AcDbEntity
  8
0
 62
     3
100
AcDbLine
 10
-454.9118421040708
 20
-3.660425629396304
 30
0.0
 11
-456.4118421040706
 21
-3.660425629396304
 31
0.0
  0
ARC
  5
6DD
330
6B
100
AcDbEntity
  8
0
 62
     3
100
AcDbCircle
 10
-454.9118421040708
 20
53.23957437060379
 30
0.0
 40
0.5000000000000009
100
AcDbArc
 50
270.0
 51
0.0
  0
LINE
  5
6DE
330
6B
100
AcDbEntity
  8
0
 62
     3
100
AcDbLine
 10
-454.4118421040708
 20
57.23957437060379
 30
0.0
 11
-454.4118421040708
 21
53.23957437060379
 31
0.0
  0
LINE
  5
6DF
330
6B
100
AcDbEntity
  8
0
 62
     3
100
AcDbLine
 10
-454.9118421040708
 20
52.73957437060379
 30
0.0
 11
-456.4118421040706
 21
52.73957437060379
 31
0.0
  0
ARC
  5
6E0
330
6B
100
AcDbEntity
  8
0
 62
     3
100
AcDbCircle
 10
-454.9118421040708
 20
57.23957437060379
 30
0.0
 40
0.5000000000000009
100
AcDbArc
 50
0.0
 51
90.0
  0
LINE
  5
6E1
330
6B
100
AcDbEntity
  8
0
 62
     3
100
AcDbLine
 10
-421.0642633540706
 20
55.73957437060379
 30
0.0
 11
-421.0642633540706
 21
35.54069749560376
 31
0.0
  0
ARC
  5
6E2
330
6B
100
AcDbEntity
  8
0
 62
     3
100
AcDbCircle
 10
-419.0642633540708
 20
55.73957437060379
 30
0.0
 40
2.000000000000003
100
AcDbArc
 50
90.0
 51
180.0
  0
ARC
  5
6E3
330
6B
100
AcDbEntity
  8
0
 62
     3
100
AcDbCircle
 10
-389.0642633540707
 20
55.73957437060379
 30
0.0
 40
2.000000000000003
100
AcDbArc
 50
0.0
 51
90.0
  0
ARC
  5
6E4
330
6B
100
AcDbEntity
  8
0
 62
     3
100
AcDbCircle
 10
-388.0642633540706
 20
36.04069749560377
 30
0.0
 40
1.000000000000001
100
AcDbArc
 50
270.0
 51
0.0
  0
LINE
  5
6E5
330
6B
100
AcDbEntity
  8
0
 62
     3
100
AcDbLine
 10
-384.0642633540708
 20
-6.660425629396311
 30
0.0
 11
-384.0642633540708
 21
2.889574370603703
 31
0.0
  0
ARC
  5
6E6
330
6B
100
AcDbEntity
  8
0
 62
     3
100
AcDbCircle
 10
-386.0642633540706
 20
-6.660425629396311
 30
0.0
 40
2.000000000000003
100
AcDbArc
 50
270.0
 51
0.0
  0
ARC
  5
6E7
330
6B
100
AcDbEntity
  8
0
 62
     3
100
AcDbCircle
 10
-419.0642633540708
 20
-6.660425629396311
 30
0.0
 40
2.000000000000003
100
AcDbArc
 50
180.0
 51
270.0
  0
LINE
  5
6E8
330
6B
100
AcDbEntity
  8
0
 62
     3
100
AcDbLine
 10
-469.9118421040708
 20
57.73957437060379
 30
0.0
 11
-469.9118421040708
 21
-8.660425629396312
 31
0.0
  0
LINE
  5
6E9
330
6B
100
AcDbEntity
  8
0
 62
     3
100
AcDbLine
 10
-463.7118421040709
 20
34.74069749560376
 30
0.0
 11
-459.9118421040707
 21
34.74069749560376
 31
0.0
  0
LINE
  5
6EA
330
6B
100
AcDbEntity
  8
0
 62
     3
100
AcDbLine
 10
-395.5642633540707
 20
-5.610425629396309
 30
0.0
 11
-395.5642633540707
 21
-8.660425629396312
 31
0.0
  0
ARC
  5
6EB
330
6B
100
AcDbEntity
  8
0
 62
     3
100
AcDbCircle
 10
-394.0642633540708
 20
-5.610425629396309
 30
0.0
 40
1.500000000000001
100
AcDbArc
 50
0.0
 51
180.0
  0
LINE
  5
6EC
330
6B
100
AcDbEntity
  8
0
 62
     3
100
AcDbLine
 10
-392.5642633540706
 20
-8.660425629396312
 30
0.0
 11
-392.5642633540706
 21
-5.610425629396309
 31
0.0
  0
LINE
  5
6ED
330
6B
100
AcDbEntity
  8
0
 62
     3
100
AcDbLine
 10
-389.5642633540706
 20
-5.610425629396309
 30
0.0
 11
-389.5642633540706
 21
-8.660425629396312
 31
0.0
  0
ARC
  5
6EE
330
6B
100
AcDbEntity
  8
0
 62
     3
100
AcDbCircle
 10
-388.0642633540706
 20
-5.610425629396309
 30
0.0
 40
1.500000000000001
100
AcDbArc
 50
0.0
 51
180.0
  0
LINE
  5
6EF
330
6B
100
AcDbEntity
  8
0
 62
     3
100
AcDbLine
 10
-386.5642633540706
 20
-5.610425629396309
 30
0.0
 11
-386.5642633540706
 21
-8.660425629396312
 31
0.0
  0
ARC
  5
6F0
330
6B
100
AcDbEntity
  8
0
 62
     3
100
AcDbCircle
 10
-394.9642633540707
 20
56.23623749560379
 30
0.0
 40
1.500000000000001
100
AcDbArc
 50
0.0
 51
180.0
  0
LINE
  5
6F1
330
6B
100
AcDbEntity
  8
0
 62
     3
100
AcDbLine
 10
-393.4642633540708
 20
54.23623749560379
 30
0.0
 11
-393.4642633540708
 21
56.23623749560379
 31
0.0
  0
ARC
  5
6F2
330
6B
100
AcDbEntity
  8
0
 62
     3
100
AcDbCircle
 10
-394.9642633540707
 20
54.23623749560379
 30
0.0
 40
1.500000000000001
100
AcDbArc
 50
180.0
 51
0.0
  0
LINE
  5
6F3
330
6B
100
AcDbEntity
  8
0
 62
     3
100
AcDbLine
 10
-396.4642633540707
 20
54.23623749560379
 30
0.0
 11
-396.4642633540707
 21
56.23623749560379
 31
0.0
  0
LINE
  5
6F4
330
6B
100
AcDbEntity
  8
0
 62
     3
100
AcDbLine
 10
-463.7118421040709
 20
24.34069749560374
 30
0.0
 11
-459.9118421040707
 21
24.34069749560374
 31
0.0
  0
LINE
  5
6F5
330
6B
100
AcDbEntity
  8
0
 62
     3
100
AcDbLine
 10
-418.0642633540706
 20
35.04069749560376
 30
0.0
 11
-418.0642633540706
 21
24.04069749560374
 31
0.0
  0
LINE
  5
6F6
330
6B
100
AcDbEntity
  8
0
 62
     3
100
AcDbLine
 10
-420.0642633540706
 20
24.54069749560375
 30
0.0
 11
-418.0642633540706
 21
24.54069749560375
 31
0.0
  0
ARC
  5
6F7
330
6B
100
AcDbEntity
  8
0
 62
     3
100
AcDbCircle
 10
-420.0642633540706
 20
23.54069749560374
 30
0.0
 40
1.000000000000001
100
AcDbArc
 50
90.0
 51
180.0
  0
LINE
  5
6F8
330
6B
100
AcDbEntity
  8
0
 62
     3
100
AcDbLine
 10
-420.0642633540706
 20
34.54069749560375
 30
0.0
 11
-418.0642633540706
 21
34.54069749560375
 31
0.0
  0
ARC
  5
6F9
330
6B
100
AcDbEntity
  8
0
 62
     3
100
AcDbCircle
 10
-420.0642633540706
 20
35.54069749560376
 30
0.0
 40
1.000000000000001
100
AcDbArc
 50
180.0
 51
270.0
  0
LINE
  5
6FA
330
6B
100
AcDbEntity
  8
0
 62
     3
100
AcDbLine
 10
-388.0642633540706
 20
24.54069749560375
 30
0.0
 11
-390.0642633540707
 21
24.54069749560375
 31
0.0
  0
ARC
  5
6FB
330
6B
100
AcDbEntity
  8
0
 62
     3
100
AcDbCircle
 10
-388.0642633540706
 20
23.54069749560374
 30
0.0
 40
1.000000000000001
100
AcDbArc
 50
0.0
 51
90.0
  0
ARC
  5
6FC
330
6B
100
AcDbEntity
  8
0
 62
     3
100
AcDbCircle
 10
-388.0642633540706
 20
35.54069749560376
 30
0.0
 40
1.000000000000001
100
AcDbArc
 50
270.0
 51
0.0
  0
LINE
  5
6FD
330
6B
100
AcDbEntity
  8
0
 62
     3
100
AcDbLine
 10
-388.0642633540706
 20
34.54069749560375
 30
0.0
 11
-390.0642633540707
 21
34.54069749560375
 31
0.0
  0
LINE
  5
6FE
330
6B
100
AcDbEntity
  8
0
 62
     3
100
AcDbLine
 10
-454.4118421040708
 20
35.04069749560376
 30
0.0
 11
-469.9118421040708
 21
34.54069749560375
 31
0.0
  0
LINE
  5
6FF
330
6B
100
AcDbEntity
  8
0
 62
     3
100
AcDbLine
 10
-454.4118421040708
 20
24.04069749560374
 30
0.0
 11
-469.9118421040708
 21
24.54069749560375
 31
0.0
  0
LINE
  5
700
330
6B
100
AcDbEntity
  8
0
 62
     3
100
AcDbLine
 10
-421.0642633540706
 20
21.54069749560374
 30
0.0
 11
-421.0642633540706
 21
-6.660425629396311
 31
0.0
  0
LINE
  5
701
330
6B
100
AcDbEntity
  8
0
 62
     3
100
AcDbLine
 10
-421.0642633540706
 20
21.54069749560374
 30
0.0
 11
-421.0642633540706
 21
23.54069749560374
 31
0.0
  0
LINE
  5
702
330
6B
100
AcDbEntity
  8
0
 62
     3
100
AcDbLine
 10
-387.0642633540708
 20
4.839574370603706
 30
0.0
 11
-387.0642633540708
 21
23.54069749560374
 31
0.0
  0
ARC
  5
703
330
6B
100
AcDbEntity
  8
0
 62
     3
100
AcDbCircle
 10
-387.5642633540707
 20
22.04069749560374
 30
0.0
 40
0.5000000000000009
100
AcDbArc
 50
270.0
 51
0.0
  0
LINE
  5
704
330
6B
100
AcDbEntity
  8
0
 62
     3
100
AcDbLine
 10
-387.0642633540708
 20
55.73957437060379
 30
0.0
 11
-387.0642633540708
 21
35.54069749560376
 31
0.0
  0
ARC
  5
705
330
6B
100
AcDbEntity
  8
0
 62
     3
100
AcDbCircle
 10
-387.5642633540707
 20
37.04069749560377
 30
0.0
 40
0.5000000000000009
100
AcDbArc
 50
0.0
 51
90.0
  0
LINE
  5
706
330
6B
100
AcDbEntity
  8
0
 62
     3
100
AcDbLine
 10
-390.0642633540707
 20
35.04069749560376
 30
0.0
 11
-390.0642633540707
 21
24.04069749560374
 31
0.0
  0
ARC
  5
707
330
6B
100
AcDbEntity
  8
0
 62
     3
100
AcDbCircle
 10
-456.9118421040706
 20
57.23957437060379
 30
0.0
 40
0.5000000000000009
100
AcDbArc
 50
0.0
 51
90.0
  0
LINE
  5
708
330
6B
100
AcDbEntity
  8
0
 62
     3
100
AcDbLine
 10
-454.4118421040708
 20
37.04069749560377
 30
0.0
 11
-454.4118421040708
 21
22.04069749560374
 31
0.0
  0
ARC
  5
709
330
6B
100
AcDbEntity
  8
0
 62
     3
100
AcDbCircle
 10
-454.9118421040708
 20
37.04069749560377
 30
0.0
 40
0.5000000000000009
100
AcDbArc
 50
0.0
 51
90.0
  0
LINE
  5
70A
330
6B
100
AcDbEntity
  8
0
 62
     3
100
AcDbLine
 10
-454.9118421040708
 20
37.54069749560378
 30
0.0
 11
-456.4118421040706
 21
37.54069749560378
 31
0.0
  0
LINE
  5
70B
330
6B
100
AcDbEntity
  8
0
 62
     3
100
AcDbLine
 10
-454.9118421040708
 20
21.54069749560374
 30
0.0
 11
-456.4118421040706
 21
21.54069749560374
 31
0.0
  0
ARC
  5
70C
330
6B
100
AcDbEntity
  8
0
 62
     3
100
AcDbCircle
 10
-454.9118421040708
 20
22.04069749560374
 30
0.0
 40
0.5000000000000009
100
AcDbArc
 50
270.0
 51
0.0
  0
LINE
  5
70D
330
6B
100
AcDbEntity
  8
0
 62
     3
100
AcDbLine
 10
-467.5343414790708
 20
27.04069749560375
 30
0.0
 11
-469.9118421040708
 21
27.04069749560375
 31
0.0
  0
LINE
  5
70E
330
6B
100
AcDbEntity
  8
0
 62
     3
100
AcDbLine
 10
-467.5343414790708
 20
32.04069749560375
 30
0.0
 11
-469.9118421040708
 21
32.04069749560375
 31
0.0
  0
LINE
  5
70F
330
6B
100
AcDbEntity
  8
0
 62
     3
100
AcDbLine
 10
-454.9118421040708
 20
57.73957437060379
 30
0.0
 11
-469.9118421040708
 21
57.73957437060379
 31
0.0
  0
LINE
  5
710
330
6B
100
AcDbEntity
  8
0
 62
     3
100
AcDbLine
 10
-459.9118421040707
 20
34.87940749560376
 30
0.0
 11
-459.9118421040707
 21
24.20198812060374
 31
0.0
  0
ARC
  5
711
330
6B
100
AcDbEntity
  8
0
 62
     3
100
AcDbCircle
 10
-456.9118421040706
 20
-8.160425629396311
 30
0.0
 40
0.5000000000000009
100
AcDbArc
 50
270.0
 51
0.0
  0
LINE
  5
712
330
6B
100
AcDbEntity
  8
0
 62
     3
100
AcDbLine
 10
-454.9118421040708
 20
-8.660425629396312
 30
0.0
 11
-469.9118421040708
 21
-8.660425629396312
 31
0.0
  0
LINE
  5
713
330
6B
100
AcDbEntity
  8
0
 62
     3
100
AcDbLine
 10
-421.0642633540706
 20
37.54069749560378
 30
0.0
 11
-412.1642633540706
 21
37.54069749560378
 31
0.0
  0
LINE
  5
714
330
6B
100
AcDbEntity
  8
0
 62
     3
100
AcDbLine
 10
-421.0642633540706
 20
21.54069749560374
 30
0.0
 11
-412.1642633540706
 21
21.54069749560374
 31
0.0
  0
LINE
  5
715
330
6B
100
AcDbEntity
  8
0
 62
     3
100
AcDbLine
 10
-411.6642633540706
 20
37.04069749560377
 30
0.0
 11
-411.6642633540706
 21
22.04069749560374
 31
0.0
  0
ARC
  5
716
330
6B
100
AcDbEntity
  8
0
 62
     3
100
AcDbCircle
 10
-412.1642633540706
 20
37.04069749560377
 30
0.0
 40
0.5000000000000009
100
AcDbArc
 50
0.0
 51
90.0
  0
ARC
  5
717
330
6B
100
AcDbEntity
  8
0
 62
     3
100
AcDbCircle
 10
-412.1642633540706
 20
22.04069749560374
 30
0.0
 40
0.5000000000000009
100
AcDbArc
 50
270.0
 51
0.0
  0
LINE
  5
718
330
6B
100
AcDbEntity
  8
0
 62
     3
100
AcDbLine
 10
-420.0642633540706
 20
35.04069749560376
 30
0.0
 11
-418.0642633540706
 21
35.04069749560376
 31
0.0
  0
LINE
  5
719
330
6B
100
AcDbEntity
  8
0
 62
     3
100
AcDbLine
 10
-420.0642633540706
 20
24.04069749560374
 30
0.0
 11
-418.0642633540706
 21
24.04069749560374
 31
0.0
  0
LINE
  5
71A
330
6B
100
AcDbEntity
  8
0
 62
     3
100
AcDbLine
 10
-390.0642633540707
 20
24.04069749560374
 30
0.0
 11
-387.9142633540707
 21
24.04069749560374
 31
0.0
  0
LINE
  5
71B
330
6B
100
AcDbEntity
  8
0
 62
     3
100
AcDbLine
 10
-390.0642633540707
 20
35.04069749560376
 30
0.0
 11
-387.9142633540707
 21
35.04069749560376
 31
0.0
  0
ARC
  5
71C
330
6B
100
AcDbEntity
  8
0
 62
     3
100
AcDbCircle
 10
-395.9642633540707
 20
37.04069749560377
 30
0.0
 40
0.5000000000000009
100
AcDbArc
 50
90.0
 51
180.0
  0
LINE
  5
71D
330
6B
100
AcDbEntity
  8
0
 62
     3
100
AcDbLine
 10
-396.4642633540707
 20
37.04069749560377
 30
0.0
 11
-396.4642633540707
 21
22.04069749560374
 31
0.0
  0
ARC
  5
71E
330
6B
100
AcDbEntity
  8
0
 62
     3
100
AcDbCircle
 10
-395.9642633540707
 20
22.04069749560374
 30
0.0
 40
0.5000000000000009
100
AcDbArc
 50
180.0
 51
270.0
  0
LINE
  5
71F
330
6B
100
AcDbEntity
  8
0
 62
     3
100
AcDbLine
 10
-387.5642633540707
 20
21.54069749560374
 30
0.0
 11
-395.9642633540707
 21
21.54069749560374
 31
0.0
  0
LINE
  5
720
330
6B
100
AcDbEntity
  8
0
 62
     3
100
AcDbLine
 10
-387.5642633540707
 20
37.54069749560378
 30
0.0
 11
-395.9642633540707
 21
37.54069749560378
 31
0.0
  0
ARC
  5
721
330
6B
100
AcDbEntity
  8
0
 62
     3
100
AcDbCircle
 10
-541.3523127290709
 20
44.03957437060377
 30
0.0
 40
16.75000000000003
100
AcDbArc
 50
304.8254599999996
 51
54.87616500000005
  0
LINE
  5
722
330
6B
100
AcDbEntity
  8
0
 62
     3
100
AcDbLine
 10
-531.7867496040709
 20
30.28957437060376
 30
0.0
 11
-550.9178758540708
 21
30.28957437060376
 31
0.0
  0
ARC
  5
723
330
6B
100
AcDbEntity
  8
0
 62
     3
100
AcDbCircle
 10
-541.3523127290709
 20
44.03957437060377
 30
0.0
 40
16.75000000000003
100
AcDbArc
 50
125.1238349999999
 51
235.1745400000004
  0
LINE
  5
724
330
6B
100
AcDbEntity
  8
0
 62
     3
100
AcDbLine
 10
-531.7867496040709
 20
18.78957437060373
 30
0.0
 11
-550.9178758540708
 21
18.78957437060373
 31
0.0
  0
ARC
  5
725
330
6B
100
AcDbEntity
  8
0
 62
     3
100
AcDbCircle
 10
-541.3523127290709
 20
5.039574370603709
 30
0.0
 40
16.75000000000003
100
AcDbArc
 50
304.8254599999996
 51
55.17454000000043
  0
ARC
  5
726
330
6B
100
AcDbEntity
  8
0
 62
     3
100
AcDbCircle
 10
-541.3523127290709
 20
5.039574370603709
 30
0.0
 40
16.75000000000003
100
AcDbArc
 50
124.8254599999996
 51
235.1745400000004
  0
ARC
  5
727
330
6B
100
AcDbEntity
  8
0
 62
     3
100
AcDbCircle
 10
-476.4118421040708
 20
29.78957437060375
 30
0.0
 40
0.5000000000000009
100
AcDbArc
 50
0.0
 51
90.0
  0
LINE
  5
728
330
6B
100
AcDbEntity
  8
0
 62
     3
100
AcDbLine
 10
-475.9118421040708
 20
-8.660425629396312
 30
0.0
 11
-475.9118421040708
 21
57.71493437060379
 31
0.0
  0
ARC
  5
729
330
6B
100
AcDbEntity
  8
0
 62
     3
100
AcDbCircle
 10
-476.4118421040708
 20
19.28957437060373
 30
0.0
 40
0.5000000000000009
100
AcDbArc
 50
270.0
 51
0.0
  0
LINE
  5
72A
330
6B
100
AcDbEntity
  8
0
 62
     3
100
AcDbLine
 10
-476.4118421040708
 20
18.78957437060373
 30
0.0
 11
-480.4118421040708
 21
18.78957437060373
 31
0.0
  0
ARC
  5
72B
330
6B
100
AcDbEntity
  8
0
 62
     3
100
AcDbCircle
 10
-480.4118421040708
 20
18.28957437060373
 30
0.0
 40
0.5000000000000009
100
AcDbArc
 50
90.0
 51
180.0
  0
LINE
  5
72C
330
6B
100
AcDbEntity
  8
0
 62
     3
100
AcDbLine
 10
-480.9118421040708
 20
-8.160425629396311
 30
0.0
 11
-480.9118421040708
 21
18.28957437060373
 31
0.0
  0
ARC
  5
72D
330
6B
100
AcDbEntity
  8
0
 62
     3
100
AcDbCircle
 10
-480.4118421040708
 20
-8.160425629396311
 30
0.0
 40
0.5000000000000009
100
AcDbArc
 50
180.0
 51
270.0
  0
LINE
  5
72E
330
6B
100
AcDbEntity
  8
0
 62
     3
100
AcDbLine
 10
-480.4118421040708
 20
-8.660425629396312
 30
0.0
 11
-469.9118421040708
 21
-8.660425629396312
 31
0.0
  0
LINE
  5
72F
330
6B
100
AcDbEntity
  8
0
 62
     3
100
AcDbLine
 10
-480.9118421040708
 20
57.28957437060379
 30
0.0
 11
-480.9118421040708
 21
30.78957437060375
 31
0.0
  0
ARC
  5
730
330
6B
100
AcDbEntity
  8
0
 62
     3
100
AcDbCircle
 10
-480.4118421040708
 20
30.78957437060375
 30
0.0
 40
0.5000000000000009
100
AcDbArc
 50
180.0
 51
270.0
  0
LINE
  5
731
330
6B
100
AcDbEntity
  8
0
 62
     3
100
AcDbLine
 10
-476.4118421040708
 20
30.28957437060376
 30
0.0
 11
-480.4118421040708
 21
30.28957437060376
 31
0.0
  0
LINE
  5
732
330
6B
100
AcDbEntity
  8
0
 62
     3
100
AcDbLine
 10
-469.9118421040708
 20
57.71493437060379
 30
0.0
 11
-480.4118421040708
 21
57.71493437060379
 31
0.0
  0
ARC
  5
733
330
6B
100
AcDbEntity
  8
0
 62
     3
100
AcDbCircle
 10
-526.3523127290709
 20
-6.660425629396311
 30
0.0
 40
2.000000000000003
100
AcDbArc
 50
270.0
 51
0.0
  0
ARC
  5
734
330
6B
100
AcDbEntity
  8
0
 62
     3
100
AcDbCircle
 10
-559.3523127290709
 20
-6.660425629396311
 30
0.0
 40
2.000000000000003
100
AcDbArc
 50
180.0
 51
270.0
  0
LINE
  5
735
330
6B
100
AcDbEntity
  8
0
 62
     3
100
AcDbLine
 10
-561.3523127290709
 20
2.839574370603706
 30
0.0
 11
-561.3523127290709
 21
-6.660425629396311
 31
0.0
  0
ARC
  5
736
330
6B
100
AcDbEntity
  8
0
 62
     3
100
AcDbCircle
 10
-560.3523127290709
 20
2.839574370603706
 30
0.0
 40
1.000000000000001
100
AcDbArc
 50
90.0
 51
180.0
  0
LINE
  5
737
330
6B
100
AcDbEntity
  8
0
 62
     3
100
AcDbLine
 10
-560.3523127290709
 20
3.839574370603706
 30
0.0
 11
-559.3523127290709
 21
3.839574370603706
 31
0.0
  0
ARC
  5
738
330
6B
100
AcDbEntity
  8
0
 62
     3
100
AcDbCircle
 10
-559.3523127290709
 20
4.839574370603706
 30
0.0
 40
1.000000000000001
100
AcDbArc
 50
270.0
 51
0.0
  0
LINE
  5
739
330
6B
100
AcDbEntity
  8
0
 62
     3
100
AcDbLine
 10
-558.3523127290709
 20
55.73957437060379
 30
0.0
 11
-558.3523127290709
 21
4.839574370603706
 31
0.0
  0
ARC
  5
73A
330
6B
100
AcDbEntity
  8
0
 62
     3
100
AcDbCircle
 10
-556.3523127290709
 20
55.73957437060379
 30
0.0
 40
2.000000000000003
100
AcDbArc
 50
90.0
 51
180.0
  0
ARC
  5
73B
330
6B
100
AcDbEntity
  8
0
 62
     3
100
AcDbCircle
 10
-526.3523127290709
 20
55.73957437060379
 30
0.0
 40
2.000000000000003
100
AcDbArc
 50
0.0
 51
90.0
  0
LINE
  5
73C
330
6B
100
AcDbEntity
  8
0
 62
     3
100
AcDbLine
 10
-524.3523127290709
 20
55.73957437060379
 30
0.0
 11
-524.3523127290709
 21
-6.660425629396311
 31
0.0
  0
ARC
  5
73D
330
6B
100
AcDbEntity
  8
0
 62
     3
100
AcDbCircle
 10
-480.4118421040708
 20
57.28957437060379
 30
0.0
 40
0.5000000000000009
100
AcDbArc
 50
90.0
 51
180.0
  0
LINE
  5
73E
330
6B
100
AcDbEntity
  8
0
 62
     3
100
AcDbLine
 10
-548.8523127290709
 20
-8.760425629396312
 30
0.0
 11
-559.8523127290709
 21
-8.760425629396312
 31
0.0
  0
LINE
  5
73F
330
6B
100
AcDbEntity
  8
0
 62
     3
100
AcDbLine
 10
-548.8523127290709
 20
-9.760425629396305
 30
0.0
 11
-559.8523127290709
 21
-9.760425629396305
 31
0.0
  0
LINE
  5
740
330
6B
100
AcDbEntity
  8
0
 62
     3
100
AcDbLine
 10
-548.8523127290709
 20
67.5395743706038
 30
0.0
 11
-544.8523127290709
 21
71.53957437060381
 31
0.0
  0
LINE
  5
741
330
6B
100
AcDbEntity
  8
0
 62
     3
100
AcDbLine
 10
-544.8523127290709
 20
71.53957437060381
 30
0.0
 11
-537.8523127290709
 21
71.53957437060381
 31
0.0
  0
LINE
  5
742
330
6B
100
AcDbEntity
  8
0
 62
     3
100
AcDbLine
 10
-537.8523127290709
 20
71.53957437060381
 30
0.0
 11
-533.8523127290709
 21
67.5395743706038
 31
0.0
  0
LINE
  5
743
330
6B
100
AcDbEntity
  8
0
 62
     3
100
AcDbLine
 10
-411.5642633540706
 20
-18.46042562939633
 30
0.0
 11
-411.5642633540706
 21
67.5395743706038
 31
0.0
  0
LINE
  5
744
330
6B
100
AcDbEntity
  8
0
 62
     3
100
AcDbLine
 10
-396.5642633540708
 20
67.5395743706038
 30
0.0
 11
-400.5642633540706
 21
71.53957437060381
 31
0.0
  0
LINE
  5
745
330
6B
100
AcDbEntity
  8
0
 62
     3
100
AcDbLine
 10
-400.5642633540706
 20
71.53957437060381
 30
0.0
 11
-407.5642633540706
 21
71.53957437060381
 31
0.0
  0
LINE
  5
746
330
6B
100
AcDbEntity
  8
0
 62
     3
100
AcDbLine
 10
-407.5642633540706
 20
71.53957437060381
 30
0.0
 11
-411.5642633540706
 21
67.5395743706038
 31
0.0
  0
LINE
  5
747
330
6B
100
AcDbEntity
  8
0
 62
     3
100
AcDbLine
 10
-396.5642633540708
 20
67.5395743706038
 30
0.0
 11
-396.5642633540708
 21
-9.760425629396305
 31
0.0
  0
LINE
  5
748
330
6B
100
AcDbEntity
  8
0
 62
     3
100
AcDbLine
 10
-396.5642633540708
 20
-9.760425629396305
 30
0.0
 11
-396.5642633540708
 21
-18.46042562939633
 31
0.0
  0
LINE
  5
749
330
6B
100
AcDbEntity
  8
0
 62
     3
100
AcDbLine
 10
-419.0642633540708
 20
57.73957437060379
 30
0.0
 11
-411.5642633540706
 21
57.73957437060379
 31
0.0
  0
LINE
  5
74A
330
6B
100
AcDbEntity
  8
0
 62
     3
100
AcDbLine
 10
-396.5642633540708
 20
57.73957437060379
 30
0.0
 11
-389.0642633540707
 21
57.73957437060379
 31
0.0
  0
LINE
  5
74B
330
6B
100
AcDbEntity
  8
0
 62
     3
100
AcDbLine
 10
-533.8523127290709
 20
-18.46042562939633
 30
0.0
 11
-533.8523127290709
 21
-8.660425629396312
 31
0.0
  0
LINE
  5
74C
330
6B
100
AcDbEntity
  8
0
 62
     3
100
AcDbLine
 10
-533.8523127290709
 20
57.73957437060379
 30
0.0
 11
-533.8523127290709
 21
67.5395743706038
 31
0.0
  0
LINE
  5
74D
330
6B
100
AcDbEntity
  8
0
 62
     3
100
AcDbLine
 10
-548.8523127290709
 20
67.5395743706038
 30
0.0
 11
-548.8523127290709
 21
57.73957437060379
 31
0.0
  0
LINE
  5
74E
330
6B
100
AcDbEntity
  8
0
 62
     3
100
AcDbLine
 10
-548.8523127290709
 20
-8.660425629396312
 30
0.0
 11
-548.8523127290709
 21
-18.46042562939633
 31
0.0
  0
LINE
  5
74F
330
6B
100
AcDbEntity
  8
0
 62
     3
100
AcDbLine
 10
-385.5642633540707
 20
-8.660425629396312
 30
0.0
 11
-396.5642633540708
 21
-8.660425629396312
 31
0.0
  0
LINE
  5
750
330
6B
100
AcDbEntity
  8
0
 62
     3
100
AcDbLine
 10
-411.5642633540706
 20
-8.660425629396312
 30
0.0
 11
-419.0642633540708
 21
-8.660425629396312
 31
0.0
  0
LINE
  5
751
330
6B
100
AcDbEntity
  8
0
 62
     3
100
AcDbLine
 10
-385.5642633540707
 20
-9.760425629396305
 30
0.0
 11
-385.5642633540707
 21
-8.660425629396312
 31
0.0
  0
LINE
  5
752
330
6B
100
AcDbEntity
  8
0
 62
     3
100
AcDbLine
 10
-411.5642633540706
 20
-9.760425629396305
 30
0.0
 11
-385.5642633540707
 21
-9.760425629396305
 31
0.0
  0
LINE
  5
753
330
6B
100
AcDbEntity
  8
0
 62
     3
100
AcDbLine
 10
-550.3523127290709
 20
-11.26042562939632
 30
0.0
 11
-550.3523127290709
 21
-9.760425629396305
 31
0.0
  0
ARC
  5
754
330
6B
100
AcDbEntity
  8
0
 62
     3
100
AcDbCircle
 10
-550.8523127290709
 20
-11.26042562939632
 30
0.0
 40
0.5000000000000009
100
AcDbArc
 50
270.0
 51
0.0
  0
LINE
  5
755
330
6B
100
AcDbEntity
  8
0
 62
     3
100
AcDbLine
 10
-557.8523127290709
 20
-11.76042562939632
 30
0.0
 11
-550.8523127290709
 21
-11.76042562939632
 31
0.0
  0
ARC
  5
756
330
6B
100
AcDbEntity
  8
0
 62
     3
100
AcDbCircle
 10
-557.8523127290709
 20
-11.26042562939632
 30
0.0
 40
0.5000000000000009
100
AcDbArc
 50
180.0
 51
270.0
  0
LINE
  5
757
330
6B
100
AcDbEntity
  8
0
 62
     3
100
AcDbLine
 10
-558.3523127290709
 20
-11.26042562939632
 30
0.0
 11
-558.3523127290709
 21
-9.760425629396305
 31
0.0
  0
LINE
  5
758
330
6B
100
AcDbEntity
  8
0
 62
     3
100
AcDbLine
 10
-559.8523127290709
 20
-9.760425629396305
 30
0.0
 11
-559.8523127290709
 21
-8.760425629396312
 31
0.0
  0
LINE
  5
759
330
6B
100
AcDbEntity
  8
0
 62
     3
100
AcDbLine
 10
-387.0642633540708
 20
-11.26042562939632
 30
0.0
 11
-387.0642633540708
 21
-9.760425629396305
 31
0.0
  0
ARC
  5
75A
330
6B
100
AcDbEntity
  8
0
 62
     3
100
AcDbCircle
 10
-387.5642633540707
 20
-11.26042562939632
 30
0.0
 40
0.5000000000000009
100
AcDbArc
 50
270.0
 51
0.0
  0
LINE
  5
75B
330
6B
100
AcDbEntity
  8
0
 62
     3
100
AcDbLine
 10
-394.5642633540706
 20
-11.76042562939632
 30
0.0
 11
-387.5642633540707
 21
-11.76042562939632
 31
0.0
  0
ARC
  5
75C
330
6B
100
AcDbEntity
  8
0
 62
     3
100
AcDbCircle
 10
-394.5642633540706
 20
-11.26042562939632
 30
0.0
 40
0.5000000000000009
100
AcDbArc
 50
180.0
 51
270.0
  0
LINE
  5
75D
330
6B
100
AcDbEntity
  8
0
 62
     3
100
AcDbLine
 10
-395.0642633540707
 20
-11.26042562939632
 30
0.0
 11
-395.0642633540707
 21
-9.760425629396305
 31
0.0
  0
LINE
  5
75E
330
6B
100
AcDbEntity
  8
0
 62
     3
100
AcDbLine
 10
-420.0642633540706
 20
33.04069749560376
 30
0.0
 11
-420.0642633540706
 21
26.04069749560375
 31
0.0
  0
ARC
  5
75F
330
6B
100
AcDbEntity
  8
0
 62
     3
100
AcDbCircle
 10
-419.5642633540708
 20
33.04069749560376
 30
0.0
 40
0.5000000000000009
100
AcDbArc
 50
90.0
 51
180.0
  0
LINE
  5
760
330
6B
100
AcDbEntity
  8
0
 62
     3
100
AcDbLine
 10
-419.5642633540708
 20
33.54069749560376
 30
0.0
 11
-418.0642633540706
 21
33.54069749560376
 31
0.0
  0
LINE
  5
761
330
6B
100
AcDbEntity
  8
0
 62
     3
100
AcDbLine
 10
-419.5642633540708
 20
25.54069749560375
 30
0.0
 11
-418.0642633540706
 21
25.54069749560375
 31
0.0
  0
ARC
  5
762
330
6B
100
AcDbEntity
  8
0
 62
     3
100
AcDbCircle
 10
-419.5642633540708
 20
26.04069749560375
 30
0.0
 40
0.5000000000000009
100
AcDbArc
 50
180.0
 51
270.0
  0
LINE
  5
763
330
6B
100
AcDbEntity
  8
0
 62
     3
100
AcDbLine
 10
-388.5642633540706
 20
25.54069749560375
 30
0.0
 11
-390.0642633540707
 21
25.54069749560375
 31
0.0
  0
ARC
  5
764
330
6B
100
AcDbEntity
  8
0
 62
     3
100
AcDbCircle
 10
-388.5642633540706
 20
26.04069749560375
 30
0.0
 40
0.5000000000000009
100
AcDbArc
 50
270.0
 51
0.0
  0
LINE
  5
765
330
6B
100
AcDbEntity
  8
0
 62
     3
100
AcDbLine
 10
-388.0642633540706
 20
33.04069749560376
 30
0.0
 11
-388.0642633540706
 21
26.04069749560375
 31
0.0
  0
ARC
  5
766
330
6B
100
AcDbEntity
  8
0
 62
     3
100
AcDbCircle
 10
-388.5642633540706
 20
33.04069749560376
 30
0.0
 40
0.5000000000000009
100
AcDbArc
 50
0.0
 51
90.0
  0
LINE
  5
767
330
6B
100
AcDbEntity
  8
0
 62
     3
100
AcDbLine
 10
-388.5642633540706
 20
33.54069749560376
 30
0.0
 11
-390.0642633540707
 21
33.54069749560376
 31
0.0
  0
LINE
  5
768
330
6B
100
AcDbEntity
  8
0
 62
     3
100
AcDbLine
 10
-392.8299589790706
 20
33.83054687060376
 30
0.0
 11
-392.8299589790706
 21
31.25084874560375
 31
0.0
  0
LINE
  5
769
330
6B
100
AcDbEntity
  8
0
 62
     3
100
AcDbLine
 10
-415.2985677290706
 20
27.83054687060375
 30
0.0
 11
-415.2985677290706
 21
25.25084874560374
 31
0.0
  0
LINE
  5
76A
330
6B
100
AcDbEntity
  8
0
 62
     3
100
AcDbLine
 10
-415.2985677290706
 20
33.83054687060376
 30
0.0
 11
-415.2985677290706
 21
31.25084874560375
 31
0.0
  0
ARC
  5
76B
330
6B
100
AcDbEntity
  8
0
 62
     3
100
AcDbCircle
 10
-541.3823783540708
 20
49.03957437060378
 30
0.0
 40
4.962500000000007
100
AcDbArc
 50
135.0000000000003
 51
224.9999999999997
  0
LINE
  5
76C
330
6B
100
AcDbEntity
  8
0
 62
     3
100
AcDbLine
 10
-544.891395854071
 20
52.54859187060379
 30
0.0
 11
-546.9968058540708
 21
54.65400249560379
 31
0.0
  0
ARC
  5
76D
330
6B
100
AcDbEntity
  8
0
 62
     3
100
AcDbCircle
 10
-541.3823783540708
 20
49.03957437060378
 30
0.0
 40
7.940000000000012
100
AcDbArc
 50
135.0000000000003
 51
224.9999999999997
  0
LINE
  5
76E
330
6B
100
AcDbEntity
  8
0
 62
     3
100
AcDbLine
 10
-546.9968058540708
 20
43.42514687060377
 30
0.0
 11
-544.891395854071
 21
45.53055749560377
 31
0.0
  0
LINE
  5
76F
330
6B
100
AcDbEntity
  8
0
 62
     3
100
AcDbLine
 10
-537.8132302290708
 20
52.54859187060379
 30
0.0
 11
-535.7078196040709
 21
54.65400249560379
 31
0.0
  0
ARC
  5
770
330
6B
100
AcDbEntity
  8
0
 62
     3
100
AcDbCircle
 10
-541.322247729071
 20
49.03957437060378
 30
0.0
 40
4.962500000000007
100
AcDbArc
 50
315.0000000000003
 51
44.99999999999971
  0
ARC
  5
771
330
6B
100
AcDbEntity
  8
0
 62
     3
100
AcDbCircle
 10
-541.322247729071
 20
49.03957437060378
 30
0.0
 40
7.940000000000012
100
AcDbArc
 50
315.0000000000003
 51
44.99999999999971
  0
LINE
  5
772
330
6B
100
AcDbEntity
  8
0
 62
     3
100
AcDbLine
 10
-535.7078196040709
 20
43.42514687060377
 30
0.0
 11
-537.8132302290708
 21
45.53055749560377
 31
0.0
  0
ARC
  5
773
330
6B
100
AcDbEntity
  8
0
 62
     3
100
AcDbCircle
 10
-538.5583827290709
 20
37.46192124560375
 30
0.0
 40
2.481250000000003
100
AcDbArc
 50
14.99999999999936
 51
103.5672739999957
  0
ARC
  5
774
330
6B
100
AcDbEntity
  8
0
 62
     3
100
AcDbCircle
 10
-541.3523127290709
 20
49.03957437060378
 30
0.0
 40
9.428750000000015
100
AcDbArc
 50
256.4327260000043
 51
283.5672739999957
  0
LINE
  5
775
330
6B
100
AcDbEntity
  8
0
 62
     3
100
AcDbLine
 10
-535.5616408540709
 20
35.86474249560376
 30
0.0
 11
-536.1616789790708
 21
38.10411624560376
 31
0.0
  0
ARC
  5
776
330
6B
100
AcDbEntity
  8
0
 62
     3
100
AcDbCircle
 10
-541.3523127290709
 20
49.03957437060378
 30
0.0
 40
14.39125000000002
100
AcDbArc
 50
246.2732959999996
 51
293.7267040000004
  0
ARC
  5
777
330
6B
100
AcDbEntity
  8
0
 62
     3
100
AcDbCircle
 10
-544.1462433540708
 20
37.46192124560375
 30
0.0
 40
2.481250000000003
100
AcDbArc
 50
76.43272600000429
 51
165.0000000000006
  0
LINE
  5
778
330
6B
100
AcDbEntity
  8
0
 62
     3
100
AcDbLine
 10
-547.142984604071
 20
35.86474249560376
 30
0.0
 11
-546.5429464790709
 21
38.10411624560376
 31
0.0
  0
ARC
  5
779
330
6B
100
AcDbEntity
  8
0
 62
     3
100
AcDbCircle
 10
-541.3823783540708
 20
10.03957437060372
 30
0.0
 40
4.962500000000007
100
AcDbArc
 50
135.0000000000003
 51
224.9999999999997
  0
LINE
  5
77A
330
6B
100
AcDbEntity
  8
0
 62
     3
100
AcDbLine
 10
-544.891395854071
 20
13.54859187060372
 30
0.0
 11
-546.9968058540708
 21
15.65400249560372
 31
0.0
  0
ARC
  5
77B
330
6B
100
AcDbEntity
  8
0
 62
     3
100
AcDbCircle
 10
-541.3823783540708
 20
10.03957437060372
 30
0.0
 40
7.940000000000012
100
AcDbArc
 50
135.0000000000003
 51
224.9999999999997
  0
LINE
  5
77C
330
6B
100
AcDbEntity
  8
0
 62
     3
100
AcDbLine
 10
-546.9968058540708
 20
4.42514687060371
 30
0.0
 11
-544.891395854071
 21
6.530557495603712
 31
0.0
  0
LINE
  5
77D
330
6B
100
AcDbEntity
  8
0
 62
     3
100
AcDbLine
 10
-535.7078196040709
 20
4.42514687060371
 30
0.0
 11
-537.8132302290708
 21
6.530557495603712
 31
0.0
  0
ARC
  5
77E
330
6B
100
AcDbEntity
  8
0
 62
     3
100
AcDbCircle
 10
-541.322247729071
 20
10.03957437060372
 30
0.0
 40
4.962500000000007
100
AcDbArc
 50
315.0000000000003
 51
44.99999999999971
  0
ARC
  5
77F
330
6B
100
AcDbEntity
  8
0
 62
     3
100
AcDbCircle
 10
-541.322247729071
 20
10.03957437060372
 30
0.0
 40
7.940000000000012
100
AcDbArc
 50
315.0000000000003
 51
44.99999999999971
  0
LINE
  5
780
330
6B
100
AcDbEntity
  8
0
 62
     3
100
AcDbLine
 10
-537.8132302290708
 20
13.54859187060372
 30
0.0
 11
-535.7078196040709
 21
15.65400249560372
 31
0.0
  0
ARC
  5
781
330
6B
100
AcDbEntity
  8
0
 62
     3
100
AcDbCircle
 10
-538.5583827290709
 20
-1.538078754396301
 30
0.0
 40
2.481250000000003
100
AcDbArc
 50
14.99999999999936
 51
103.5672739999957
  0
ARC
  5
782
330
6B
100
AcDbEntity
  8
0
 62
     3
100
AcDbCircle
 10
-541.3523127290709
 20
10.03957437060372
 30
0.0
 40
9.428750000000015
100
AcDbArc
 50
256.4327260000043
 51
283.5672739999957
  0
ARC
  5
783
330
6B
100
AcDbEntity
  8
0
 62
     3
100
AcDbCircle
 10
-544.1462433540708
 20
-1.538078754396301
 30
0.0
 40
2.481250000000003
100
AcDbArc
 50
76.43272600000429
 51
165.0000000000006
  0
LINE
  5
784
330
6B
100
AcDbEntity
  8
0
 62
     3
100
AcDbLine
 10
-547.142984604071
 20
-3.135257504396303
 30
0.0
 11
-546.5429464790709
 21
-0.8958837543963014
 31
0.0
  0
ARC
  5
785
330
6B
100
AcDbEntity
  8
0
 62
     3
100
AcDbCircle
 10
-541.3523127290709
 20
10.03957437060372
 30
0.0
 40
14.39125000000002
100
AcDbArc
 50
246.2732959999996
 51
293.7267040000004
  0
LINE
  5
786
330
6B
100
AcDbEntity
  8
0
 62
     3
100
AcDbLine
 10
-535.5616408540709
 20
-3.135257504396303
 30
0.0
 11
-536.1616789790708
 21
-0.8958837543963014
 31
0.0
  0
LINE
  5
787
330
6B
100
AcDbEntity
  8
0
 62
     3
100
AcDbLine
 10
-526.3523127290709
 20
-8.660425629396312
 30
0.0
 11
-559.3523127290709
 21
-8.660425629396312
 31
0.0
  0
LINE
  5
788
330
6B
100
AcDbEntity
  8
0
 62
     3
100
AcDbLine
 10
-526.3523127290709
 20
57.73957437060379
 30
0.0
 11
-556.3523127290709
 21
57.73957437060379
 31
0.0
  0
CIRCLE
  5
789
330
6B
100
AcDbEntity
  8
0
 62
     7
100
AcDbCircle
 10
-404.0642633540706
 20
64.6645743706038
 30
0.0
 40
2.250000000000003
  0
CIRCLE
  5
78A
330
6B
100
AcDbEntity
  8
0
 62
     7
100
AcDbCircle
 10
-404.0642633540706
 20
64.6645743706038
 30
0.0
 40
1.650000000000002
  0
CIRCLE
  5
78B
330
6B
100
AcDbEntity
  8
0
 62
     7
100
AcDbCircle
 10
-404.0642633540706
 20
-15.58542562939632
 30
0.0
 40
2.250000000000003
  0
CIRCLE
  5
78C
330
6B
100
AcDbEntity
  8
0
 62
     7
100
AcDbCircle
 10
-404.0642633540706
 20
-15.58542562939632
 30
0.0
 40
1.650000000000002
  0
CIRCLE
  5
78D
330
6B
100
AcDbEntity
  8
0
 62
     7
100
AcDbCircle
 10
-391.0642633540707
 20
0.839155620603705
 30
0.0
 40
2.250000000000003
  0
LINE
  5
78E
330
6B
100
AcDbEntity
  8
0
 62
     7
100
AcDbLine
 10
-392.4142633540707
 20
-0.060844379396297
 30
0.0
 11
-389.7142633540707
 21
-0.060844379396297
 31
0.0
  0
LINE
  5
78F
330
6B
100
AcDbEntity
  8
0
 62
     7
100
AcDbLine
 10
-391.0642633540707
 20
0.6141556206037003
 30
0.0
 11
-391.0642633540707
 21
2.639155620603705
 31
0.0
  0
LINE
  5
790
330
6B
100
AcDbEntity
  8
0
 62
     7
100
AcDbLine
 10
-392.8642633540708
 20
0.6141556206037003
 30
0.0
 11
-389.2642633540706
 21
0.6141556206037003
 31
0.0
  0
LINE
  5
791
330
6B
100
AcDbEntity
  8
0
 62
     7
100
AcDbLine
 10
-391.6267633540707
 20
-0.7358443793962977
 30
0.0
 11
-390.5017633540706
 21
-0.7358443793962977
 31
0.0
  0
CIRCLE
  5
792
330
6B
100
AcDbEntity
  8
0
 62
     7
100
AcDbCircle
 10
-404.0642633540706
 20
44.63957437060376
 30
0.0
 40
3.000000000000003
  0
CIRCLE
  5
793
330
6B
100
AcDbEntity
  8
0
 62
     7
100
AcDbCircle
 10
-404.0642633540706
 20
24.53957437060374
 30
0.0
 40
3.000000000000003
  0
CIRCLE
  5
794
330
6B
100
AcDbEntity
  8
0
 62
     7
100
AcDbCircle
 10
-404.0642633540706
 20
5.63957437060371
 30
0.0
 40
3.000000000000003
  0
LINE
  5
795
330
6B
100
AcDbEntity
  8
0
 62
     7
100
AcDbLine
 10
-403.9642633540706
 20
23.53957437060374
 30
0.0
 11
-403.9642633540706
 21
25.53957437060374
 31
0.0
  0
LINE
  5
796
330
6B
100
AcDbEntity
  8
0
 62
     7
100
AcDbLine
 10
-404.1642633540706
 20
23.53957437060374
 30
0.0
 11
-404.1642633540706
 21
25.53957437060374
 31
0.0
  0
LINE
  5
797
330
6B
100
AcDbEntity
  8
0
 62
     7
100
AcDbLine
 10
-405.0642633540705
 20
24.63957437060374
 30
0.0
 11
-403.0642633540706
 21
24.63957437060374
 31
0.0
  0
LINE
  5
798
330
6B
100
AcDbEntity
  8
0
 62
     7
100
AcDbLine
 10
-405.0642633540705
 20
24.43957437060374
 30
0.0
 11
-403.0642633540706
 21
24.43957437060374
 31
0.0
  0
LINE
  5
799
330
6B
100
AcDbEntity
  8
0
 62
     7
100
AcDbLine
 10
-403.9642633540706
 20
4.639574370603706
 30
0.0
 11
-403.9642633540706
 21
6.63957437060371
 31
0.0
  0
LINE
  5
79A
330
6B
100
AcDbEntity
  8
0
 62
     7
100
AcDbLine
 10
-404.1642633540706
 20
4.639574370603706
 30
0.0
 11
-404.1642633540706
 21
6.63957437060371
 31
0.0
  0
LINE
  5
79B
330
6B
100
AcDbEntity
  8
0
 62
     7
100
AcDbLine
 10
-405.0642633540705
 20
5.739574370603707
 30
0.0
 11
-403.0642633540706
 21
5.739574370603707
 31
0.0
  0
LINE
  5
79C
330
6B
100
AcDbEntity
  8
0
 62
     7
100
AcDbLine
 10
-405.0642633540705
 20
5.539574370603709
 30
0.0
 11
-403.0642633540706
 21
5.539574370603709
 31
0.0
  0
LINE
  5
79D
330
6B
100
AcDbEntity
  8
0
 62
     7
100
AcDbLine
 10
-405.0642633540705
 20
44.73957437060376
 30
0.0
 11
-403.0642633540706
 21
44.73957437060376
 31
0.0
  0
LINE
  5
79E
330
6B
100
AcDbEntity
  8
0
 62
     7
100
AcDbLine
 10
-405.0642633540705
 20
44.53957437060377
 30
0.0
 11
-403.0642633540706
 21
44.53957437060377
 31
0.0
  0
LINE
  5
79F
330
6B
100
AcDbEntity
  8
0
 62
     7
100
AcDbLine
 10
-403.9642633540706
 20
43.63957437060377
 30
0.0
 11
-403.9642633540706
 21
45.63957437060378
 31
0.0
  0
LINE
  5
7A0
330
6B
100
AcDbEntity
  8
0
 62
     7
100
AcDbLine
 10
-404.1642633540706
 20
43.63957437060377
 30
0.0
 11
-404.1642633540706
 21
45.63957437060378
 31
0.0
  0
LINE
  5
7A1
330
6B
100
AcDbEntity
  8
0
 62
     7
100
AcDbLine
 10
-464.2868421040708
 20
33.54069749560376
 30
0.0
 11
-464.2868421040708
 21
25.54069749560375
 31
0.0
  0
LINE
  5
7A2
330
6B
100
AcDbEntity
  8
0
 62
     7
100
AcDbLine
 10
-464.5368421040706
 20
33.54069749560376
 30
0.0
 11
-464.5368421040706
 21
25.54069749560375
 31
0.0
  0
CIRCLE
  5
7A3
330
6B
100
AcDbEntity
  8
0
 62
     7
100
AcDbCircle
 10
-464.4118421040708
 20
29.54069749560375
 30
0.0
 40
4.000000000000006
  0
LINE
  5
7A4
330
6B
100
AcDbEntity
  8
0
 62
     7
100
AcDbLine
 10
-465.9118421040708
 20
29.54069749560375
 30
0.0
 11
-462.9118421040709
 21
29.54069749560375
 31
0.0
  0
LINE
  5
7A5
330
6B
100
AcDbEntity
  8
0
 62
     7
100
AcDbLine
 10
-464.4118421040708
 20
33.54069749560376
 30
0.0
 11
-464.4118421040708
 21
25.54069749560375
 31
0.0
  0
LINE
  5
7A6
330
6B
100
AcDbEntity
  8
0
 62
     7
100
AcDbLine
 10
-465.9118421040708
 20
29.66569749560375
 30
0.0
 11
-462.9118421040709
 21
29.66569749560375
 31
0.0
  0
LINE
  5
7A7
330
6B
100
AcDbEntity
  8
0
 62
     7
100
AcDbLine
 10
-465.9118421040708
 20
29.41569749560375
 30
0.0
 11
-462.9118421040709
 21
29.41569749560375
 31
0.0
  0
TEXT
  5
7A8
330
6B
100
AcDbEntity
  8
0
 62
     7
100
AcDbText
 10
-553.9857921040709
 20
50.94938999560379
 30
0.0
 40
2.000000000000003
  1
NICHIDO
 50
270.0000009999997
 41
1.105262999999998
100
AcDbText
  0
CIRCLE
  5
7A9
330
6B
100
AcDbEntity
  8
0
 62
     7
100
AcDbCircle
 10
-533.0613521040709
 20
37.13957437060376
 30
0.0
 40
1.500000000000001
  0
LINE
  5
7AA
330
6B
100
AcDbEntity
  8
0
 62
     7
100
AcDbLine
 10
-533.4363521040708
 20
36.08957437060376
 30
0.0
 11
-532.6863521040709
 21
36.08957437060376
 31
0.0
  0
LINE
  5
7AB
330
6B
100
AcDbEntity
  8
0
 62
     7
100
AcDbLine
 10
-533.961352104071
 20
36.53957437060376
 30
0.0
 11
-532.1613521040709
 21
36.53957437060376
 31
0.0
  0
LINE
  5
7AC
330
6B
100
AcDbEntity
  8
0
 62
     7
100
AcDbLine
 10
-534.261352104071
 20
36.98957437060375
 30
0.0
 11
-531.8613521040709
 21
36.98957437060375
 31
0.0
  0
LINE
  5
7AD
330
6B
100
AcDbEntity
  8
0
 62
     7
100
AcDbLine
 10
-533.0613521040709
 20
36.98957437060375
 30
0.0
 11
-533.0613521040709
 21
38.33957437060377
 31
0.0
  0
LINE
  5
7AE
330
6B
100
AcDbEntity
  8
0
 62
     7
100
AcDbLine
 10
-537.7234877290709
 20
54.46213187060379
 30
0.0
 11
-539.4787033540709
 21
54.05077062060379
 31
0.0
  0
ARC
  5
7AF
330
6B
100
AcDbEntity
  8
0
 62
     7
100
AcDbCircle
 10
-541.3523127290709
 20
49.03957437060378
 30
0.0
 40
6.850000000000012
100
AcDbArc
 50
69.50000000000094
 51
122.5000000000021
  0
LINE
  5
7B0
330
6B
100
AcDbEntity
  8
0
 62
     7
100
AcDbLine
 10
-537.7234877290709
 20
54.46213187060379
 30
0.0
 11
-538.778288979071
 21
55.92411499560379
 31
0.0
  0
LINE
  5
7B1
330
6B
100
AcDbEntity
  8
0
 62
     7
100
AcDbLine
 10
-538.778288979071
 20
55.92411499560379
 30
0.0
 11
-538.9533921040708
 21
55.45577937060379
 31
0.0
  0
LINE
  5
7B2
330
6B
100
AcDbEntity
  8
0
 62
     7
100
AcDbLine
 10
-539.3035996040708
 20
54.51910687060379
 30
0.0
 11
-539.4787033540709
 21
54.05077062060379
 31
0.0
  0
ARC
  5
7B3
330
6B
100
AcDbEntity
  8
0
 62
     7
100
AcDbCircle
 10
-541.3523127290709
 20
49.03957437060378
 30
0.0
 40
5.850000000000008
100
AcDbArc
 50
69.50000000000094
 51
122.5000000000021
  0
LINE
  5
7B4
330
6B
100
AcDbEntity
  8
0
 62
     7
100
AcDbLine
 10
-544.4955158540708
 20
53.97341437060379
 30
0.0
 11
-545.0328152290709
 21
54.81680624560379
 31
0.0
  0
CIRCLE
  5
7B5
330
6B
100
AcDbEntity
  8
0
 62
     7
100
AcDbCircle
 10
-533.0613521040709
 20
-1.860425629396303
 30
0.0
 40
1.500000000000001
  0
LINE
  5
7B6
330
6B
100
AcDbEntity
  8
0
 62
     7
100
AcDbLine
 10
-533.4363521040708
 20
-2.910425629396304
 30
0.0
 11
-532.6863521040709
 21
-2.910425629396304
 31
0.0
  0
LINE
  5
7B7
330
6B
100
AcDbEntity
  8
0
 62
     7
100
AcDbLine
 10
-533.961352104071
 20
-2.460425629396304
 30
0.0
 11
-532.1613521040709
 21
-2.460425629396304
 31
0.0
  0
LINE
  5
7B8
330
6B
100
AcDbEntity
  8
0
 62
     7
100
AcDbLine
 10
-533.0613521040709
 20
-2.0104256293963
 30
0.0
 11
-533.0613521040709
 21
-0.6604256293963005
 31
0.0
  0
LINE
  5
7B9
330
6B
100
AcDbEntity
  8
0
 62
     7
100
AcDbLine
 10
-534.261352104071
 20
-2.0104256293963
 30
0.0
 11
-531.8613521040709
 21
-2.0104256293963
 31
0.0
  0
LINE
  5
7BA
330
6B
100
AcDbEntity
  8
0
 62
     7
100
AcDbLine
 10
-530.075327104071
 20
-1.676891254396299
 30
0.0
 11
-528.2764346040709
 21
-2.719970004396301
 31
0.0
  0
LINE
  5
7BB
330
6B
100
AcDbEntity
  8
0
 62
     7
100
AcDbLine
 10
-528.0483052290709
 20
-1.676891254396299
 30
0.0
 11
-530.075327104071
 21
-1.676891254396299
 31
0.0
  0
LINE
  5
7BC
330
6B
100
AcDbEntity
  8
0
 62
     7
100
AcDbLine
 10
-528.0483052290709
 20
-1.676891254396299
 30
0.0
 11
-529.8372389790707
 21
-0.6633806293963005
 31
0.0
  0
CIRCLE
  5
7BD
330
6B
100
AcDbEntity
  8
0
 62
     7
100
AcDbCircle
 10
-529.0618164790709
 20
-1.676891254396299
 30
0.0
 40
1.01351125
  0
TEXT
  5
7BE
330
6B
100
AcDbEntity
  8
0
 62
     7
100
AcDbText
 10
-530.2158646040709
 20
14.03512874560372
 30
0.0
 40
2.000000000000003
  1
<PS>E JET
 50
270.0000009999997
 41
0.8762
100
AcDbText
  0
TEXT
  5
7BF
330
6B
100
AcDbEntity
  8
0
 62
     7
100
AcDbText
 10
-554.0677533540709
 20
10.49794999560372
 30
0.0
 40
2.425500000000003
  1
１５Ａー１２５Ｖ
 50
269.9999729999997
 41
0.4383640000000001
100
AcDbText
  0
TEXT
  5
7C0
330
6B
100
AcDbEntity
  8
0
 62
     4
100
AcDbText
 10
-420.4740721040708
 20
6.677211245603713
 30
0.0
 40
1.600000000000002
  1
ストリップゲージ
 50
270.0000009999997
 41
0.833333
100
AcDbText
  0
LINE
  5
7C1
330
6B
100
AcDbEntity
  8
0
 62
     7
100
AcDbLine
 10
-537.7234877290709
 20
15.46213187060373
 30
0.0
 11
-539.4787033540709
 21
15.05077062060372
 31
0.0
  0
LINE
  5
7C2
330
6B
100
AcDbEntity
  8
0
 62
     7
100
AcDbLine
 10
-539.3035996040708
 20
15.51910687060372
 30
0.0
 11
-539.4787033540709
 21
15.05077062060372
 31
0.0
  0
ARC
  5
7C3
330
6B
100
AcDbEntity
  8
0
 62
     7
100
AcDbCircle
 10
-541.3523127290709
 20
10.03957437060372
 30
0.0
 40
5.850000000000008
100
AcDbArc
 50
69.50000000000094
 51
122.5000000000021
  0
ARC
  5
7C4
330
6B
100
AcDbEntity
  8
0
 62
     7
100
AcDbCircle
 10
-541.3523127290709
 20
10.03957437060372
 30
0.0
 40
6.850000000000012
100
AcDbArc
 50
69.50000000000094
 51
122.5000000000021
  0
LINE
  5
7C5
330
6B
100
AcDbEntity
  8
0
 62
     7
100
AcDbLine
 10
-538.778288979071
 20
16.92411499560373
 30
0.0
 11
-538.9533921040708
 21
16.45577937060373
 31
0.0
  0
LINE
  5
7C6
330
6B
100
AcDbEntity
  8
0
 62
     7
100
AcDbLine
 10
-537.7234877290709
 20
15.46213187060373
 30
0.0
 11
-538.778288979071
 21
16.92411499560373
 31
0.0
  0
LINE
  5
7C7
330
6B
100
AcDbEntity
  8
0
 62
     7
100
AcDbLine
 10
-544.4955158540708
 20
14.97341437060372
 30
0.0
 11
-545.0328152290709
 21
15.81680624560372
 31
0.0
  0
LINE
  5
7CA
330
6B
100
AcDbEntity
  8
0
 62
     3
100
AcDbLine
 10
-537.8523127290709
 20
-22.46042562939634
 30
0.0
 11
-533.8523127290709
 21
-18.46042562939633
 31
0.0
  0
LINE
  5
7CB
330
6B
100
AcDbEntity
  8
0
 62
     3
100
AcDbLine
 10
-544.8523127290709
 20
-22.46042562939634
 30
0.0
 11
-537.8523127290709
 21
-22.46042562939634
 31
0.0
  0
LINE
  5
7CC
330
6B
100
AcDbEntity
  8
0
 62
     3
100
AcDbLine
 10
-548.8523127290709
 20
-18.46042562939633
 30
0.0
 11
-544.8523127290709
 21
-22.46042562939634
 31
0.0
  0
LINE
  5
7CD
330
6B
100
AcDbEntity
  8
0
 62
     3
100
AcDbLine
 10
-475.9118421040708
 20
-22.46042562939634
 30
0.0
 11
-474.9118421040709
 21
-22.46042562939634
 31
0.0
  0
LINE
  5
7CE
330
6B
100
AcDbEntity
  8
0
 62
     3
100
AcDbLine
 10
-396.5642633540708
 20
-18.46042562939633
 30
0.0
 11
-400.5642633540706
 21
-22.46042562939634
 31
0.0
  0
LINE
  5
7CF
330
6B
100
AcDbEntity
  8
0
 62
     3
100
AcDbLine
 10
-400.5642633540706
 20
-22.46042562939634
 30
0.0
 11
-407.5642633540706
 21
-22.46042562939634
 31
0.0
  0
LINE
  5
7D0
330
6B
100
AcDbEntity
  8
0
 62
     3
100
AcDbLine
 10
-407.5642633540706
 20
-22.46042562939634
 30
0.0
 11
-411.5642633540706
 21
-18.46042562939633
 31
0.0
  0
LINE
  5
7D1
330
6B
100
AcDbEntity
  8
0
 62
     3
100
AcDbLine
 10
-475.9118421040708
 20
-18.46042562939633
 30
0.0
 11
-474.9118421040709
 21
-18.46042562939633
 31
0.0
  0
LINE
  5
971
330
6B
100
AcDbEntity
  8
0
  6
CENTER
 62
     7
100
AcDbLine
 10
-538.3712833540709
 20
64.78957437060374
 30
0.0
 11
-544.5088414790708
 21
64.78957437060374
 31
0.0
  0
LINE
  5
972
330
6B
100
AcDbEntity
  8
0
  6
CENTER
 62
     7
100
AcDbLine
 10
-538.3712833540709
 20
-15.71042562939625
 30
0.0
 11
-544.5088414790708
 21
-15.71042562939625
 31
0.0
  0
LINE
  5
9F2
330
6B
100
AcDbEntity
  8
0
 62
     7
100
AcDbLine
 10
-649.662870372106
 20
-135.2189651788628
 30
0.0
 11
-499.1398656815468
 21
-135.2189651788628
 31
0.0
  0
LINE
  5
9F3
330
6B
100
AcDbEntity
  8
0
 62
     7
100
AcDbLine
 10
-649.662870372106
 20
-130.2189651788628
 30
0.0
 11
-499.1398656815468
 21
-130.2189651788628
 31
0.0
  0
LINE
  5
9F4
330
6B
100
AcDbEntity
  8
0
 62
     7
100
AcDbLine
 10
-649.662870372106
 20
-125.2189651788628
 30
0.0
 11
-499.1398656815468
 21
-125.2189651788628
 31
0.0
  0
LINE
  5
9F5
330
6B
100
AcDbEntity
  8
0
 62
     7
100
AcDbLine
 10
-649.662870372106
 20
-120.2189651788628
 30
0.0
 11
-499.1398656815468
 21
-120.2189651788628
 31
0.0
  0
LINE
  5
9F6
330
6B
100
AcDbEntity
  8
0
 62
     7
100
AcDbLine
 10
-649.662870372106
 20
-115.2189651788628
 30
0.0
 11
-499.1398656815468
 21
-115.2189651788628
 31
0.0
  0
LINE
  5
9F7
330
6B
100
AcDbEntity
  8
0
 62
     7
100
AcDbLine
 10
-649.662870372106
 20
-110.2189651788628
 30
0.0
 11
-499.1398656815468
 21
-110.2189651788628
 31
0.0
  0
LINE
  5
9F8
330
6B
100
AcDbEntity
  8
0
 62
     7
100
AcDbLine
 10
-649.662870372106
 20
-105.2189651788628
 30
0.0
 11
-499.1398656815468
 21
-105.2189651788628
 31
0.0
  0
LINE
  5
9F9
330
6B
100
AcDbEntity
  8
0
 62
     7
100
AcDbLine
 10
-649.662870372106
 20
-100.2189651788628
 30
0.0
 11
-499.1398656815468
 21
-100.2189651788628
 31
0.0
  0
LINE
  5
9FA
330
6B
100
AcDbEntity
  8
0
 62
     7
100
AcDbLine
 10
-649.662870372106
 20
-95.21896517886284
 30
0.0
 11
-499.1398656815468
 21
-95.21896517886284
 31
0.0
  0
LINE
  5
9FB
330
6B
100
AcDbEntity
  8
0
 62
     3
100
AcDbLine
 10
-649.662870372106
 20
-90.21896517886284
 30
0.0
 11
-499.1398656815468
 21
-90.21896517886284
 31
0.0
  0
LINE
  5
9FD
330
6B
100
AcDbEntity
  8
0
 62
     3
100
AcDbLine
 10
-649.662870372106
 20
133.7810348211371
 30
0.0
 11
-649.662870372106
 21
-140.2189651788628
 31
0.0
  0
LINE
  5
9FE
330
6B
100
AcDbEntity
  8
0
 62
     3
100
AcDbLine
 10
-259.6628703721058
 20
-140.2189651788628
 30
0.0
 11
-259.6628703721058
 21
133.7810348211371
 31
0.0
  0
LINE
  5
9FF
330
6B
100
AcDbEntity
  8
0
 62
     3
100
AcDbLine
 10
-649.662870372106
 20
-140.2189651788628
 30
0.0
 11
-259.6628703721058
 21
-140.2189651788628
 31
0.0
  0
LINE
  5
A00
330
6B
100
AcDbEntity
  8
0
 62
     3
100
AcDbLine
 10
-471.8879809021059
 20
136.2210369611372
 30
0.0
 11
-471.265483892106
 21
135.8960824811371
 31
0.0
  0
LINE
  5
A01
330
6B
100
AcDbEntity
  8
0
 62
     3
100
AcDbLine
 10
-471.8879809021059
 20
130.8915648611371
 30
0.0
 11
-471.265483892106
 21
131.2165193411372
 31
0.0
  0
LINE
  5
A02
330
6B
100
AcDbEntity
  8
0
 62
     3
100
AcDbLine
 10
-471.265483892106
 20
135.8960824811371
 30
0.0
 11
-471.265483892106
 21
131.2165193411372
 31
0.0
  0
LINE
  5
A03
330
6B
100
AcDbEntity
  8
0
 62
     3
100
AcDbLine
 10
-469.6890304321058
 20
130.8915648611371
 30
0.0
 11
-470.3115274421057
 21
131.2165193411372
 31
0.0
  0
LINE
  5
A04
330
6B
100
AcDbEntity
  8
0
 62
     3
100
AcDbLine
 10
-470.3115274421057
 20
134.069174791137
 30
0.0
 11
-470.3115274421057
 21
131.2165193411372
 31
0.0
  0
LINE
  5
A05
330
6B
100
AcDbEntity
  8
0
 62
     3
100
AcDbLine
 10
-466.0577978921057
 20
136.2210369611372
 30
0.0
 11
-466.6802948921057
 21
135.8960824811371
 31
0.0
  0
LINE
  5
A06
330
6B
100
AcDbEntity
  8
0
 62
     3
100
AcDbLine
 10
-468.2567483621057
 20
136.2210369611372
 30
0.0
 11
-467.6342513521057
 21
135.8960824811371
 31
0.0
  0
LINE
  5
A07
330
6B
100
AcDbEntity
  8
0
 62
     3
100
AcDbLine
 10
-467.6342513521057
 20
135.8960824811371
 30
0.0
 11
-467.6342513521057
 21
133.8356009611372
 31
0.0
  0
LINE
  5
A08
330
6B
100
AcDbEntity
  8
0
 62
     3
100
AcDbLine
 10
-466.6802948921057
 20
135.8960824811371
 30
0.0
 11
-466.6802948921057
 21
130.5893346511371
 31
0.0
  0
LINE
  5
A09
330
6B
100
AcDbEntity
  8
0
 62
     3
100
AcDbLine
 10
-465.7502304521058
 20
136.2210332111372
 30
0.0
 11
-465.1277356921059
 21
135.896074441137
 31
0.0
  0
LINE
  5
A0A
330
6B
100
AcDbEntity
  8
0
 62
     3
100
AcDbLine
 10
-465.7503418421057
 20
130.891636251137
 30
0.0
 11
-465.127833492106
 21
131.2165690011371
 31
0.0
  0
LINE
  5
A0B
330
6B
100
AcDbEntity
  8
0
 62
     3
100
AcDbLine
 10
-465.1277356921059
 20
135.896074441137
 30
0.0
 11
-465.1277356921059
 21
131.2165690011371
 31
0.0
  0
LINE
  5
A0C
330
6B
100
AcDbEntity
  8
0
 62
     3
100
AcDbLine
 10
-462.9937498921058
 20
136.2209993911372
 30
0.0
 11
-463.6162514521059
 21
135.8960536311372
 31
0.0
  0
LINE
  5
A0D
330
6B
100
AcDbEntity
  8
0
 62
     3
100
AcDbLine
 10
-463.6162514521059
 20
135.8960536311372
 30
0.0
 11
-463.6162514521059
 21
131.2165481911371
 31
0.0
  0
LINE
  5
A0E
330
6B
100
AcDbEntity
  8
0
 62
     3
100
AcDbLine
 10
-462.9937498921058
 20
130.891602431137
 30
0.0
 11
-463.6162514521059
 21
131.2165481911371
 31
0.0
  0
LINE
  5
A0F
330
6B
100
AcDbEntity
  8
0
 62
     3
100
AcDbLine
 10
-457.7219592621059
 20
136.220940821137
 30
0.0
 11
-457.0994633821057
 21
135.8959842011371
 31
0.0
  0
LINE
  5
A10
330
6B
100
AcDbEntity
  8
0
 62
     3
100
AcDbLine
 10
-457.0994633821057
 20
135.8959842011371
 30
0.0
 11
-457.0995450521058
 21
131.2164787511371
 31
0.0
  0
LINE
  5
A11
330
6B
100
AcDbEntity
  8
0
 62
     3
100
AcDbLine
 10
-457.7220522821058
 20
130.8915438611371
 30
0.0
 11
-457.0995450521058
 21
131.2164787511371
 31
0.0
  0
LINE
  5
A12
330
6B
100
AcDbEntity
  8
0
 62
     3
100
AcDbLine
 10
-454.9330150221059
 20
136.220940821137
 30
0.0
 11
-455.5555109121057
 21
135.8959842011371
 31
0.0
  0
LINE
  5
A13
330
6B
100
AcDbEntity
  8
0
 62
     3
100
AcDbLine
 10
-454.932922012106
 20
130.8915438611371
 30
0.0
 11
-455.5554292421057
 21
131.2164787511371
 31
0.0
  0
LINE
  5
A14
330
6B
100
AcDbEntity
  8
0
 62
     3
100
AcDbLine
 10
-454.6419752221058
 20
136.220940821137
 30
0.0
 11
-454.0194793421058
 21
135.8959842011371
 31
0.0
  0
LINE
  5
A15
330
6B
100
AcDbEntity
  8
0
 62
     3
100
AcDbLine
 10
-454.642068242106
 20
130.8915438611371
 30
0.0
 11
-454.0195610121058
 21
131.2164787511371
 31
0.0
  0
LINE
  5
A16
330
6B
100
AcDbEntity
  8
0
 62
     3
100
AcDbLine
 10
-451.8530309921058
 20
136.220940821137
 30
0.0
 11
-452.4755268721057
 21
135.8959842011371
 31
0.0
  0
LINE
  5
A17
330
6B
100
AcDbEntity
  8
0
 62
     3
100
AcDbLine
 10
-452.4755268721057
 20
135.8959842011371
 30
0.0
 11
-452.4754452021058
 21
131.2164787511371
 31
0.0
  0
LINE
  5
A18
330
6B
100
AcDbEntity
  8
0
 62
     3
100
AcDbLine
 10
-451.8529379721058
 20
130.8915438611371
 30
0.0
 11
-452.4754452021058
 21
131.2164787511371
 31
0.0
  0
LINE
  5
A19
330
6B
100
AcDbEntity
  8
0
 62
     3
100
AcDbLine
 10
-454.0195149221057
 20
133.8572226011372
 30
0.0
 11
-455.5554753321058
 21
133.8572226011372
 31
0.0
  0
LINE
  5
A1A
330
6B
100
AcDbEntity
  8
0
 62
     3
100
AcDbLine
 10
-454.0195254221059
 20
133.2553792211371
 30
0.0
 11
-455.5554648321058
 21
133.2553792211371
 31
0.0
  0
LINE
  5
A1B
330
6B
100
AcDbEntity
  8
0
 62
     3
100
AcDbLine
 10
-454.0194793421058
 20
135.8959842011371
 30
0.0
 11
-454.0195149221057
 21
133.8572226011372
 31
0.0
  0
LINE
  5
A1C
330
6B
100
AcDbEntity
  8
0
 62
     3
100
AcDbLine
 10
-454.0195254221059
 20
133.2553792211371
 30
0.0
 11
-454.0195610121058
 21
131.2164787511371
 31
0.0
  0
LINE
  5
A1D
330
6B
100
AcDbEntity
  8
0
 62
     3
100
AcDbLine
 10
-455.5555109121057
 20
135.8959842011371
 30
0.0
 11
-455.5554753321058
 21
133.8572226011372
 31
0.0
  0
LINE
  5
A1E
330
6B
100
AcDbEntity
  8
0
 62
     3
100
AcDbLine
 10
-455.5554648321058
 20
133.2553792211371
 30
0.0
 11
-455.5554292421057
 21
131.2164787511371
 31
0.0
  0
LINE
  5
A1F
330
6B
100
AcDbEntity
  8
0
 62
     3
100
AcDbLine
 10
-451.5573751021057
 20
136.220940821137
 30
0.0
 11
-450.9348792121057
 21
135.8959842011371
 31
0.0
  0
LINE
  5
A20
330
6B
100
AcDbEntity
  8
0
 62
     3
100
AcDbLine
 10
-450.9348792121057
 20
135.8959842011371
 30
0.0
 11
-450.9349608921057
 21
131.2164787511371
 31
0.0
  0
LINE
  5
A21
330
6B
100
AcDbEntity
  8
0
 62
     3
100
AcDbLine
 10
-451.5574681221058
 20
130.8915438611371
 30
0.0
 11
-450.9349608921057
 21
131.2164787511371
 31
0.0
  0
LINE
  5
A22
330
6B
100
AcDbEntity
  8
0
 62
     3
100
AcDbLine
 10
-448.8009318621059
 20
136.220940821137
 30
0.0
 11
-449.4234277521058
 21
135.8959842011371
 31
0.0
  0
LINE
  5
A23
330
6B
100
AcDbEntity
  8
0
 62
     3
100
AcDbLine
 10
-449.4234277521058
 20
135.8959842011371
 30
0.0
 11
-449.4233460721059
 21
131.2164787511371
 31
0.0
  0
LINE
  5
A24
330
6B
100
AcDbEntity
  8
0
 62
     3
100
AcDbLine
 10
-448.800838842106
 20
130.8915438611371
 30
0.0
 11
-449.4233460721059
 21
131.2164787511371
 31
0.0
  0
LINE
  5
A25
330
6B
100
AcDbEntity
  8
0
 62
     3
100
AcDbLine
 10
-448.4947039121059
 20
136.220940821137
 30
0.0
 11
-447.8722080221058
 21
135.8959842011371
 31
0.0
  0
LINE
  5
A26
330
6B
100
AcDbEntity
  8
0
 62
     3
100
AcDbLine
 10
-447.8722080221058
 20
135.8959842011371
 30
0.0
 11
-447.8722896921057
 21
131.2164787511371
 31
0.0
  0
LINE
  5
A27
330
6B
100
AcDbEntity
  8
0
 62
     3
100
AcDbLine
 10
-448.4947969221058
 20
130.8915438611371
 30
0.0
 11
-447.8722896921057
 21
131.2164787511371
 31
0.0
  0
ARC
  5
A28
330
6B
100
AcDbEntity
  8
0
 62
     3
100
AcDbCircle
 10
-459.7104039321059
 20
133.5697148511372
 30
0.0
 40
2.98040844
100
AcDbArc
 50
97.70152350999723
 51
270.0
  0
ARC
  5
A29
330
6B
100
AcDbEntity
  8
0
 62
     3
100
AcDbCircle
 10
-441.3095455921058
 20
133.539776811137
 30
0.0
 40
3.012776259999998
100
AcDbArc
 50
0.3142502699992948
 51
69.00558245000303
  0
ARC
  5
A2A
330
6B
100
AcDbEntity
  8
0
 62
     3
100
AcDbCircle
 10
-440.6514379821057
 20
133.539776811137
 30
0.0
 40
3.012776259999998
100
AcDbArc
 50
110.9944175499969
 51
148.1166110200042
  0
ARC
  5
A2B
330
6B
100
AcDbEntity
  8
0
 62
     3
100
AcDbCircle
 10
-441.3095455921058
 20
133.5728250111372
 30
0.0
 40
3.012776259999998
100
AcDbArc
 50
290.9944175499969
 51
359.6857497300007
  0
ARC
  5
A2C
330
6B
100
AcDbEntity
  8
0
 62
     3
100
AcDbCircle
 10
-440.6514379821057
 20
133.5728250111372
 30
0.0
 40
3.012776259999998
100
AcDbArc
 50
211.8833889799958
 51
249.005582450003
  0
ARC
  5
A2D
330
6B
100
AcDbEntity
  8
0
 62
     3
100
AcDbCircle
 10
-440.9804917821058
 20
134.7888800411372
 30
0.0
 40
1.73438712
100
AcDbArc
 50
64.36517189999993
 51
115.6348281
  0
ARC
  5
A2E
330
6B
100
AcDbEntity
  8
0
 62
     3
100
AcDbCircle
 10
-440.9804917821058
 20
132.3237217811371
 30
0.0
 40
1.73438712
100
AcDbArc
 50
244.3651718999999
 51
295.6348281
  0
ARC
  5
A2F
330
6B
100
AcDbEntity
  8
0
 62
     3
100
AcDbCircle
 10
-440.9804917821058
 20
134.8218253011371
 30
0.0
 40
0.85122233
100
AcDbArc
 50
19.48660554000439
 51
160.5133944599956
  0
ARC
  5
A30
330
6B
100
AcDbEntity
  8
0
 62
     3
100
AcDbCircle
 10
-440.9804917821058
 20
132.3237217811371
 30
0.0
 40
1.73438712
100
AcDbArc
 50
244.3651718999999
 51
295.6348281
  0
ARC
  5
A31
330
6B
100
AcDbEntity
  8
0
 62
     3
100
AcDbCircle
 10
-440.9804917821058
 20
132.290776521137
 30
0.0
 40
0.85122233
100
AcDbArc
 50
199.4866055400044
 51
340.5133944599956
  0
ARC
  5
A32
330
6B
100
AcDbEntity
  8
0
 62
     3
100
AcDbCircle
 10
-447.7554525021057
 20
101.8019297111371
 30
0.0
 40
37.20000000000001
100
AcDbArc
 50
69.50571480000821
 51
81.68998807001051
  0
ARC
  5
A33
330
6B
100
AcDbEntity
  8
0
 62
     3
100
AcDbCircle
 10
-447.7554525021057
 20
165.310672111137
 30
0.0
 40
37.20000000000001
100
AcDbArc
 50
278.3100119299894
 51
290.4942851999918
  0
ARC
  5
A34
330
6B
100
AcDbEntity
  8
0
 62
     3
100
AcDbCircle
 10
-435.886589462106
 20
133.5563009111371
 30
0.0
 40
3.299999999999998
100
AcDbArc
 50
290.4942851999918
 51
69.50571480000821
  0
ARC
  5
A35
330
6B
100
AcDbEntity
  8
0
 62
     3
100
AcDbCircle
 10
-474.886589462106
 20
133.5563009111371
 30
0.0
 40
3.299999999999998
100
AcDbArc
 50
110.4942851999918
 51
249.5057148000082
  0
ARC
  5
A36
330
6B
100
AcDbEntity
  8
0
 62
     3
100
AcDbCircle
 10
-463.0177264321057
 20
101.8019297111371
 30
0.0
 40
37.20000000000001
100
AcDbArc
 50
98.31001192998948
 51
110.4942851999918
  0
ARC
  5
A37
330
6B
100
AcDbEntity
  8
0
 62
     3
100
AcDbCircle
 10
-463.0177264321057
 20
165.310672111137
 30
0.0
 40
37.20000000000001
100
AcDbArc
 50
249.5057148000082
 51
261.6899880699974
  0
ARC
  5
A38
330
6B
100
AcDbEntity
  8
0
 62
     3
100
AcDbCircle
 10
-455.386589462106
 20
49.55630091113711
 30
0.0
 40
89.99999981
100
AcDbArc
 50
81.68998807001051
 51
98.31001192998948
  0
ARC
  5
A39
330
6B
100
AcDbEntity
  8
0
 62
     3
100
AcDbCircle
 10
-455.386589462106
 20
217.5563009111371
 30
0.0
 40
89.99999981
100
AcDbArc
 50
261.6899880699974
 51
278.3100119299894
  0
ARC
  5
A3A
330
6B
100
AcDbEntity
  8
0
 62
     3
100
AcDbCircle
 10
-455.386589462106
 20
49.55630091113711
 30
0.0
 40
89.09999981
100
AcDbArc
 50
81.68998807001051
 51
98.31001192998948
  0
ARC
  5
A3B
330
6B
100
AcDbEntity
  8
0
 62
     3
100
AcDbCircle
 10
-455.386589462106
 20
217.5563009111371
 30
0.0
 40
89.09999981
100
AcDbArc
 50
261.6899880699974
 51
278.3100119299894
  0
ARC
  5
A3C
330
6B
100
AcDbEntity
  8
0
 62
     3
100
AcDbCircle
 10
-447.7554525021057
 20
165.310672111137
 30
0.0
 40
36.3
100
AcDbArc
 50
278.3100119299894
 51
290.4942851999918
  0
ARC
  5
A3D
330
6B
100
AcDbEntity
  8
0
 62
     3
100
AcDbCircle
 10
-447.7554525021057
 20
101.8019297111371
 30
0.0
 40
36.3
100
AcDbArc
 50
69.50571480000821
 51
81.68998807001051
  0
ARC
  5
A3E
330
6B
100
AcDbEntity
  8
0
 62
     3
100
AcDbCircle
 10
-435.886589462106
 20
133.5563009111371
 30
0.0
 40
2.399999999999999
100
AcDbArc
 50
290.4942851999918
 51
69.50571480000821
  0
ARC
  5
A3F
330
6B
100
AcDbEntity
  8
0
 62
     3
100
AcDbCircle
 10
-474.886589462106
 20
133.5563009111371
 30
0.0
 40
2.399999999999999
100
AcDbArc
 50
110.4942851999918
 51
249.5057148000082
  0
ARC
  5
A40
330
6B
100
AcDbEntity
  8
0
 62
     3
100
AcDbCircle
 10
-463.0177264321057
 20
101.8019297111371
 30
0.0
 40
36.3
100
AcDbArc
 50
98.31001192998948
 51
110.4942851999918
  0
ARC
  5
A41
330
6B
100
AcDbEntity
  8
0
 62
     3
100
AcDbCircle
 10
-463.0177264321057
 20
165.310672111137
 30
0.0
 40
36.3
100
AcDbArc
 50
249.5057148000082
 51
261.6899880699974
  0
LINE
  5
A42
330
6B
100
AcDbEntity
  8
0
 62
     3
100
AcDbLine
 10
-448.8009307421059
 20
130.5893346511371
 30
0.0
 11
-451.5573762221058
 21
130.5893346511371
 31
0.0
  0
LINE
  5
A43
330
6B
100
AcDbEntity
  8
0
 62
     3
100
AcDbLine
 10
-448.8009307421059
 20
130.8915648611371
 30
0.0
 11
-448.8009307421059
 21
130.5893346511371
 31
0.0
  0
LINE
  5
A44
330
6B
100
AcDbEntity
  8
0
 62
     3
100
AcDbLine
 10
-451.8530298721058
 20
136.5231261411371
 30
0.0
 11
-454.6419763421059
 21
136.5231261411371
 31
0.0
  0
LINE
  5
A45
330
6B
100
AcDbEntity
  8
0
 62
     3
100
AcDbLine
 10
-451.8530298721058
 20
136.5231261411371
 30
0.0
 11
-451.8530298721058
 21
136.2210369611372
 31
0.0
  0
LINE
  5
A46
330
6B
100
AcDbEntity
  8
0
 62
     3
100
AcDbLine
 10
-451.8530298721058
 20
130.8915648611371
 30
0.0
 11
-451.8530298721058
 21
130.5891936311371
 31
0.0
  0
LINE
  5
A47
330
6B
100
AcDbEntity
  8
0
 62
     3
100
AcDbLine
 10
-451.8530298721058
 20
130.5891936311371
 30
0.0
 11
-454.6419763421059
 21
130.5891936311371
 31
0.0
  0
LINE
  5
A48
330
6B
100
AcDbEntity
  8
0
 62
     3
100
AcDbLine
 10
-448.8009307421059
 20
136.5232671711371
 30
0.0
 11
-448.8009307421059
 21
136.2210369611372
 31
0.0
  0
LINE
  5
A49
330
6B
100
AcDbEntity
  8
0
 62
     3
100
AcDbLine
 10
-448.8009307421059
 20
136.5232671711371
 30
0.0
 11
-451.5573762221058
 21
136.5232671711371
 31
0.0
  0
LINE
  5
A4A
330
6B
100
AcDbEntity
  8
0
 62
     3
100
AcDbLine
 10
-451.5573762221058
 20
136.5232671711371
 30
0.0
 11
-451.5573762221058
 21
136.2210369611372
 31
0.0
  0
LINE
  5
A4B
330
6B
100
AcDbEntity
  8
0
 62
     3
100
AcDbLine
 10
-448.4947050321058
 20
130.8915648611371
 30
0.0
 11
-448.4947050321058
 21
130.5893346511371
 31
0.0
  0
LINE
  5
A4C
330
6B
100
AcDbEntity
  8
0
 62
     3
100
AcDbLine
 10
-445.659989942106
 20
130.5893346511371
 30
0.0
 11
-448.4947050321058
 21
130.5893346511371
 31
0.0
  0
LINE
  5
A4D
330
6B
100
AcDbEntity
  8
0
 62
     3
100
AcDbLine
 10
-446.3607565521058
 20
135.5693107111372
 30
0.0
 11
-446.3607565521058
 21
131.543291111137
 31
0.0
  0
LINE
  5
A4E
330
6B
100
AcDbEntity
  8
0
 62
     3
100
AcDbLine
 10
-446.3607565521058
 20
131.543291111137
 30
0.0
 11
-446.0892580321057
 21
131.543291111137
 31
0.0
  0
ARC
  5
A4F
330
6B
100
AcDbEntity
  8
0
 62
     3
100
AcDbCircle
 10
-447.4775233721058
 20
133.5563009111371
 30
0.0
 40
2.44529939
100
AcDbArc
 50
304.5919552700023
 51
55.4080447299977
  0
LINE
  5
A50
330
6B
100
AcDbEntity
  8
0
 62
     3
100
AcDbLine
 10
-445.659989942106
 20
136.5232671711371
 30
0.0
 11
-448.4947050321058
 21
136.5232671711371
 31
0.0
  0
LINE
  5
A51
330
6B
100
AcDbEntity
  8
0
 62
     3
100
AcDbLine
 10
-448.4947050321058
 20
136.5232671711371
 30
0.0
 11
-448.4947050321058
 21
136.2210369611372
 31
0.0
  0
LINE
  5
A52
330
6B
100
AcDbEntity
  8
0
 62
     3
100
AcDbLine
 10
-451.5573762221058
 20
130.8915648611371
 30
0.0
 11
-451.5573762221058
 21
130.5893346511371
 31
0.0
  0
LINE
  5
A53
330
6B
100
AcDbEntity
  8
0
 62
     3
100
AcDbLine
 10
-446.3607565521058
 20
135.5693107111372
 30
0.0
 11
-446.0892580321057
 21
135.5693107111372
 31
0.0
  0
LINE
  5
A54
330
6B
100
AcDbEntity
  8
0
 62
     3
100
AcDbLine
 10
-462.9938417921058
 20
130.8915648611371
 30
0.0
 11
-462.9938470621058
 21
130.5893064111371
 31
0.0
  0
LINE
  5
A55
330
6B
100
AcDbEntity
  8
0
 62
     3
100
AcDbLine
 10
-465.7502925421058
 20
130.5893629011372
 30
0.0
 11
-462.9938470621058
 21
130.5893147911371
 31
0.0
  0
LINE
  5
A56
330
6B
100
AcDbEntity
  8
0
 62
     3
100
AcDbLine
 10
-471.8879809021059
 20
130.5893346511371
 30
0.0
 11
-469.6890304321058
 21
130.5893346511371
 31
0.0
  0
ARC
  5
A57
330
6B
100
AcDbEntity
  8
0
 62
     3
100
AcDbCircle
 10
-479.0050418721058
 20
133.6261675211372
 30
0.0
 40
21.01937947
100
AcDbArc
 50
353.8660061899983
 51
357.6940342600001
  0
LINE
  5
A58
330
6B
100
AcDbEntity
  8
0
 62
     3
100
AcDbLine
 10
-459.4099277821057
 20
132.785642301137
 30
0.0
 11
-458.0026836621058
 21
132.7804353311371
 31
0.0
  0
LINE
  5
A5A
330
6B
100
AcDbEntity
  8
0
 62
     3
100
AcDbLine
 10
-459.4042443321058
 20
134.3216633611371
 30
0.0
 11
-457.9970002121057
 21
134.3164563911372
 31
0.0
  0
ARC
  5
A5B
330
6B
100
AcDbEntity
  8
0
 62
     3
100
AcDbCircle
 10
-479.0050418721058
 20
133.6261675211372
 30
0.0
 40
21.01937947
100
AcDbArc
 50
1.881965739999571
 51
5.709993809997955
  0
LINE
  5
A5C
330
6B
100
AcDbEntity
  8
0
 62
     3
100
AcDbLine
 10
-462.9937435021059
 20
136.5232389211371
 30
0.0
 11
-462.9937487721058
 21
136.2210369611372
 31
0.0
  0
LINE
  5
A5D
330
6B
100
AcDbEntity
  8
0
 62
     3
100
AcDbLine
 10
-465.7501889821057
 20
136.5232954111371
 30
0.0
 11
-462.9937435021059
 21
136.5232473011372
 31
0.0
  0
LINE
  5
A5E
330
6B
100
AcDbEntity
  8
0
 62
     3
100
AcDbLine
 10
-465.7502872721059
 20
130.8915648611371
 30
0.0
 11
-465.7502925421058
 21
130.5893629011372
 31
0.0
  0
LINE
  5
A5F
330
6B
100
AcDbEntity
  8
0
 62
     3
100
AcDbLine
 10
-465.7501889821057
 20
136.5232954111371
 30
0.0
 11
-465.750194252106
 21
136.2210369611372
 31
0.0
  0
LINE
  5
A60
330
6B
100
AcDbEntity
  8
0
 62
     3
100
AcDbLine
 10
-469.6890304321058
 20
130.8915648611371
 30
0.0
 11
-469.6890304321058
 21
130.5893346511371
 31
0.0
  0
LINE
  5
A61
330
6B
100
AcDbEntity
  8
0
 62
     3
100
AcDbLine
 10
-470.3115274421057
 20
134.069174791137
 30
0.0
 11
-468.1366273621057
 21
130.5893346511371
 31
0.0
  0
LINE
  5
A62
330
6B
100
AcDbEntity
  8
0
 62
     3
100
AcDbLine
 10
-468.1366273621057
 20
130.5893346511371
 30
0.0
 11
-466.6802948921057
 21
130.5893346511371
 31
0.0
  0
LINE
  5
A63
330
6B
100
AcDbEntity
  8
0
 62
     3
100
AcDbLine
 10
-466.0577978921057
 20
136.5232671711371
 30
0.0
 11
-466.0577978921057
 21
136.2210369611372
 31
0.0
  0
LINE
  5
A64
330
6B
100
AcDbEntity
  8
0
 62
     3
100
AcDbLine
 10
-468.2567483621057
 20
136.5232671711371
 30
0.0
 11
-466.0577978921057
 21
136.5232671711371
 31
0.0
  0
LINE
  5
A65
330
6B
100
AcDbEntity
  8
0
 62
     3
100
AcDbLine
 10
-468.2567483621057
 20
136.5232671711371
 30
0.0
 11
-468.2567483621057
 21
136.2210369611372
 31
0.0
  0
LINE
  5
A66
330
6B
100
AcDbEntity
  8
0
 62
     3
100
AcDbLine
 10
-467.6342513521057
 20
133.8356009611372
 30
0.0
 11
-469.3980322921057
 21
136.5232671711371
 31
0.0
  0
LINE
  5
A67
330
6B
100
AcDbEntity
  8
0
 62
     3
100
AcDbLine
 10
-471.8879809021059
 20
136.5232671711371
 30
0.0
 11
-469.3980322921057
 21
136.5232671711371
 31
0.0
  0
LINE
  5
A68
330
6B
100
AcDbEntity
  8
0
 62
     3
100
AcDbLine
 10
-457.7219603821058
 20
136.5231261411371
 30
0.0
 11
-454.933013902106
 21
136.5231261411371
 31
0.0
  0
LINE
  5
A69
330
6B
100
AcDbEntity
  8
0
 62
     3
100
AcDbLine
 10
-457.7219603821058
 20
136.2210369611372
 30
0.0
 11
-457.7219603821058
 21
136.5231261411371
 31
0.0
  0
LINE
  5
A6A
330
6B
100
AcDbEntity
  8
0
 62
     3
100
AcDbLine
 10
-457.7219603821058
 20
130.5891936311371
 30
0.0
 11
-457.7219603821058
 21
130.8915648611371
 31
0.0
  0
LINE
  5
A6B
330
6B
100
AcDbEntity
  8
0
 62
     3
100
AcDbLine
 10
-457.7219603821058
 20
130.5891936311371
 30
0.0
 11
-454.933013902106
 21
130.5891936311371
 31
0.0
  0
LINE
  5
A6C
330
6B
100
AcDbEntity
  8
0
 62
     3
100
AcDbLine
 10
-454.6419763421059
 20
130.8915648611371
 30
0.0
 11
-454.6419763421059
 21
130.5891936311371
 31
0.0
  0
LINE
  5
A6D
330
6B
100
AcDbEntity
  8
0
 62
     3
100
AcDbLine
 10
-454.933013902106
 20
130.8915648611371
 30
0.0
 11
-454.933013902106
 21
130.5891936311371
 31
0.0
  0
LINE
  5
A6E
330
6B
100
AcDbEntity
  8
0
 62
     3
100
AcDbLine
 10
-454.933013902106
 20
136.2210369611372
 30
0.0
 11
-454.933013902106
 21
136.5231261411371
 31
0.0
  0
LINE
  5
A6F
330
6B
100
AcDbEntity
  8
0
 62
     3
100
AcDbLine
 10
-454.6419763421059
 20
136.2210369611372
 30
0.0
 11
-454.6419763421059
 21
136.5231261411371
 31
0.0
  0
LINE
  5
A70
330
6B
100
AcDbEntity
  8
0
 62
     3
100
AcDbLine
 10
-471.8879809021059
 20
130.8915648611371
 30
0.0
 11
-471.8879809021059
 21
130.5893346511371
 31
0.0
  0
LINE
  5
A71
330
6B
100
AcDbEntity
  8
0
 62
     3
100
AcDbLine
 10
-471.8879809021059
 20
136.5232671711371
 30
0.0
 11
-471.8879809021059
 21
136.2210369611372
 31
0.0
  0
ARC
  5
A72
330
6B
100
AcDbEntity
  8
0
 62
     3
100
AcDbCircle
 10
-445.3599899421058
 20
134.1787979211372
 30
0.0
 40
2.344469249999999
100
AcDbArc
 50
17.30874897999644
 51
23.76507095999595
  0
ARC
  5
A73
330
6B
100
AcDbEntity
  8
0
 62
     3
100
AcDbCircle
 10
-447.357523372106
 20
133.5563009111371
 30
0.0
 40
4.43675086
100
AcDbArc
 50
342.6912510200036
 51
17.30856643999967
  0
ARC
  5
A74
330
6B
100
AcDbEntity
  8
0
 62
     3
100
AcDbCircle
 10
-445.3599899421058
 20
132.9338039011371
 30
0.0
 40
2.344469249999999
100
AcDbArc
 50
336.2349290400012
 51
342.6912510200036
  0
ARC
  5
A75
330
6B
100
AcDbEntity
  8
0
 62
     3
100
AcDbCircle
 10
-445.659989942106
 20
134.1787979211372
 30
0.0
 40
2.344469249999999
100
AcDbArc
 50
17.30874897999644
 51
90.0
  0
ARC
  5
A76
330
6B
100
AcDbEntity
  8
0
 62
     3
100
AcDbCircle
 10
-447.6575233721057
 20
133.5563009111371
 30
0.0
 40
4.43675086
100
AcDbArc
 50
342.6912510200036
 51
17.30856643999967
  0
ARC
  5
A77
330
6B
100
AcDbEntity
  8
0
 62
     3
100
AcDbCircle
 10
-445.659989942106
 20
132.9338039011371
 30
0.0
 40
2.344469249999999
100
AcDbArc
 50
270.0
 51
342.6912510200036
  0
ARC
  5
A78
330
6B
100
AcDbEntity
  8
0
 62
     3
100
AcDbCircle
 10
-460.1227619121059
 20
133.5563009111371
 30
0.0
 40
2.966966259999998
100
AcDbArc
 50
46.7528796099937
 51
89.74999828999569
  0
ARC
  5
A79
330
6B
100
AcDbEntity
  8
0
 62
     3
100
AcDbCircle
 10
-460.1227619121059
 20
133.5563009111371
 30
0.0
 40
2.966966259999998
100
AcDbArc
 50
273.9763331499971
 51
312.8231203899991
  0
ARC
  5
A7A
330
6B
100
AcDbEntity
  8
0
 62
     3
100
AcDbCircle
 10
-443.7773219821058
 20
133.5104987311372
 30
0.0
 40
3.936984289999998
100
AcDbArc
 50
0.6665840599997753
 51
23.90392827000101
  0
ARC
  5
A7B
330
6B
100
AcDbEntity
  8
0
 62
     3
100
AcDbCircle
 10
-438.1836615921057
 20
133.5104987311372
 30
0.0
 40
3.936984289999998
100
AcDbArc
 50
156.096071729999
 51
179.3334159400002
  0
ARC
  5
A7C
330
6B
100
AcDbEntity
  8
0
 62
     3
100
AcDbCircle
 10
-443.7773219821058
 20
133.6021030911371
 30
0.0
 40
3.936984289999998
100
AcDbArc
 50
336.096071729999
 51
359.3334159400003
  0
ARC
  5
A7D
330
6B
100
AcDbEntity
  8
0
 62
     3
100
AcDbCircle
 10
-438.1836615921057
 20
133.6021030911371
 30
0.0
 40
3.936984289999998
100
AcDbArc
 50
180.6665840599997
 51
203.903928270001
  0
LINE
  5
A7E
330
6B
100
AcDbEntity
  8
0
 62
     3
100
AcDbLine
 10
-431.0061451921058
 20
133.7810348211371
 30
0.0
 11
-259.662870372106
 21
133.7810348211371
 31
0.0
  0
LINE
  5
A7F
330
6B
100
AcDbEntity
  8
0
 62
     3
100
AcDbLine
 10
-479.5601798621056
 20
133.7810348211371
 30
0.0
 11
-649.662870372106
 21
133.7810348211371
 31
0.0
  0
LINE
  5
A80
330
6B
100
AcDbEntity
  8
0
 62
     3
100
AcDbLine
 10
-662.0647941621058
 20
0.2256737711371386
 30
0.0
 11
-664.6628703721058
 21
-1.27432622886286
 31
0.0
  0
LINE
  5
A81
330
6B
100
AcDbEntity
  8
0
 62
     3
100
AcDbLine
 10
-662.0647941621058
 20
0.2256737711371386
 30
0.0
 11
-664.6628703721058
 21
1.725673771137138
 31
0.0
  0
LINE
  5
A82
330
6B
100
AcDbEntity
  8
0
 62
     3
100
AcDbLine
 10
-664.6628703721058
 20
-1.27432622886286
 30
0.0
 11
-664.6628703721058
 21
1.725673771137138
 31
0.0
  0
LINE
  5
A85
330
6B
100
AcDbEntity
  8
0
 62
     3
100
AcDbLine
 10
-311.6628703721058
 20
-140.2189651788628
 30
0.0
 11
-311.6628703721058
 21
-100.2189651788628
 31
0.0
  0
LINE
  5
A86
330
6B
100
AcDbEntity
  8
0
 62
     3
100
AcDbLine
 10
-298.6628703721058
 20
-130.2189651788628
 30
0.0
 11
-298.6628703721058
 21
-102.2189651788628
 31
0.0
  0
LINE
  5
A87
330
6B
100
AcDbEntity
  8
0
 62
     3
100
AcDbLine
 10
-338.6628703721058
 20
-130.2189651788628
 30
0.0
 11
-338.6628703721058
 21
-116.2189651788628
 31
0.0
  0
LINE
  5
A88
330
6B
100
AcDbEntity
  8
0
 62
     3
100
AcDbLine
 10
-328.6628703721058
 20
-116.2189651788628
 30
0.0
 11
-328.6628703721058
 21
-140.2189651788628
 31
0.0
  0
LINE
  5
A89
330
6B
100
AcDbEntity
  8
0
 62
     3
100
AcDbLine
 10
-357.6628703721058
 20
-100.2189651788628
 30
0.0
 11
-357.6628703721058
 21
-123.2189651788628
 31
0.0
  0
LINE
  5
A8A
330
6B
100
AcDbEntity
  8
0
 62
     3
100
AcDbLine
 10
-298.6628703721058
 20
-102.2189651788628
 30
0.0
 11
-298.6628703721058
 21
-100.2189651788628
 31
0.0
  0
LINE
  5
A8B
330
6B
100
AcDbEntity
  8
0
 62
     3
100
AcDbLine
 10
-285.6628703721058
 20
-123.2189651788628
 30
0.0
 11
-285.6628703721058
 21
-100.2189651788628
 31
0.0
  0
LINE
  5
A8C
330
6B
100
AcDbEntity
  8
0
 62
     3
100
AcDbLine
 10
-259.6628703721058
 20
-100.2189651788628
 30
0.0
 11
-370.9083050121058
 21
-100.2189651788628
 31
0.0
  0
LINE
  5
A8D
330
6B
100
AcDbEntity
  8
0
 62
     3
100
AcDbLine
 10
-259.6628703721058
 20
-109.2189651788628
 30
0.0
 11
-370.9083050121058
 21
-109.2189651788628
 31
0.0
  0
LINE
  5
A8E
330
6B
100
AcDbEntity
  8
0
 62
     3
100
AcDbLine
 10
-259.6628703721058
 20
-123.2189651788628
 30
0.0
 11
-370.9083050121058
 21
-123.2189651788628
 31
0.0
  0
LINE
  5
A8F
330
6B
100
AcDbEntity
  8
0
 62
     3
100
AcDbLine
 10
-259.6628703721058
 20
-130.2189651788628
 30
0.0
 11
-370.9663128721059
 21
-130.2189651788628
 31
0.0
  0
LINE
  5
A90
330
6B
100
AcDbEntity
  8
0
 62
     3
100
AcDbLine
 10
-272.6628703721058
 20
-123.2189651788628
 30
0.0
 11
-272.6628703721058
 21
-100.2189651788628
 31
0.0
  0
LINE
  5
A91
330
6B
100
AcDbEntity
  8
0
 62
     3
100
AcDbLine
 10
-370.9083050121058
 20
-100.2189651788628
 30
0.0
 11
-370.9083050121058
 21
-140.2189651788628
 31
0.0
  0
LINE
  5
A92
330
6B
100
AcDbEntity
  8
0
 62
     3
100
AcDbLine
 10
-311.6628703721058
 20
-116.2189651788628
 30
0.0
 11
-370.9083050121058
 21
-116.2189651788628
 31
0.0
  0
LINE
  5
A93
330
6B
100
AcDbEntity
  8
0
 62
     3
100
AcDbLine
 10
-328.3845454421059
 20
-135.3861039188628
 30
0.0
 11
-311.6628703721058
 21
-135.3861039188628
 31
0.0
  0
TEXT
  5
A94
330
6B
100
AcDbEntity
  8
0
 62
     3
100
AcDbText
 10
-327.49854495879
 20
-121.1458683254974
 30
0.0
 40
2.5
  1
-
  7
高2.5
100
AcDbText
  0
TEXT
  5
A95
330
6B
100
AcDbEntity
  8
0
 62
     3
100
AcDbText
 10
-356.4665016768536
 20
-120.9211507738789
 30
0.0
 40
2.5
  1
-
  7
高2.5
100
AcDbText
  0
TEXT
  5
A96
330
6B
100
AcDbEntity
  8
0
 62
     3
100
AcDbText
 10
-356.2015939221562
 20
-107.9067156551049
 30
0.0
 40
4.5
  1
E付き抜止コンセント
 41
0.8
  7
高4.5
100
AcDbText
1001
ACAD
1000
ACAD_MTEXT_DEFINED_HEIGHT_BEGIN
1070
    46
1040
0.0
1000
ACAD_MTEXT_DEFINED_HEIGHT_END
  0
TEXT
  5
A97
330
6B
100
AcDbEntity
  8
0
 62
     3
100
AcDbText
 10
-269.5972812786317
 20
-103.7052730801592
 30
0.0
 40
2.0
  1
DEF
  7
高2
100
AcDbText
  0
TEXT
  5
A98
330
6B
100
AcDbEntity
  8
0
 62
     3
100
AcDbText
 10
-283.53637963234
 20
-103.7052730801593
 30
0.0
 40
2.0
  1
DESN
  7
高2
100
AcDbText
  0
TEXT
  5
A99
330
6B
100
AcDbEntity
  8
0
 62
     3
100
AcDbText
 10
-309.7907465723401
 20
-103.7052730801592
 30
0.0
 40
2.0
  1
APPD
  7
高2
100
AcDbText
  0
TEXT
  5
A9A
330
6B
100
AcDbEntity
  8
0
 62
     3
100
AcDbText
 10
-296.6780104721058
 20
-103.7052730801592
 30
0.0
 40
2.0
  1
CHCK
  7
高2
100
AcDbText
  0
TEXT
  5
A9B
330
6B
100
AcDbEntity
  8
0
 62
     3
100
AcDbText
 10
-337.7357047329531
 20
-126.0505663556321
 30
0.0
 40
2.0
  1
SCALE
 41
0.8
  7
高2
100
AcDbText
  0
TEXT
  5
A9C
330
6B
100
AcDbEntity
  8
0
 62
     3
100
AcDbText
 10
-369.2237263090597
 20
-126.0505663556321
 30
0.0
 40
2.0
  1
3AD　ANGLE
 41
1.5
  7
高2
100
AcDbText
  0
TEXT
  5
A9D
330
6B
100
AcDbEntity
  8
0
 62
     3
100
AcDbText
 10
-338.4662990421043
 20
-119.299028286675
 30
0.0
 40
2.0
  1
REMARKS
 41
0.7
  7
高2
100
AcDbText
  0
TEXT
  5
A9E
330
6B
100
AcDbEntity
  8
0
 62
     3
100
AcDbText
 10
-369.4406346621058
 20
-119.2189651788628
 30
0.0
 40
2.0
  1
MATERIAL
 41
0.7
  7
高2
100
AcDbText
  0
TEXT
  5
A9F
330
6B
100
AcDbEntity
  8
0
 62
     3
100
AcDbText
 10
-368.8641474593517
 20
-112.2189651788628
 30
0.0
 40
2.0
  1
MODEL
  7
高2
100
AcDbText
  0
TEXT
  5
AA0
330
6B
100
AcDbEntity
  8
0
 62
     3
100
AcDbText
 10
-369.2272265780204
 20
-103.5119438282638
 30
0.0
 40
2.0
  1
CONPONENTS
 41
0.5
  7
高2
100
AcDbText
  0
TEXT
  5
AA1
330
6B
100
AcDbEntity
  8
0
 62
     3
100
AcDbText
 10
-356.5201111068536
 20
-115.6489394793606
 30
0.0
 40
2.5
  1
2PE-RN/2PE-DN
  7
高2.5
100
AcDbText
  0
TEXT
  5
AA2
330
6B
100
AcDbEntity
  8
0
 62
     3
100
AcDbText
 10
-308.5978246414872
 20
-138.1805037834972
 30
0.0
 40
6.299999999999998
  1
2PE-N
  7
高6.3
100
AcDbText
1001
ACAD
1000
ACAD_MTEXT_DEFINED_HEIGHT_BEGIN
1070
    46
1040
0.0
1000
ACAD_MTEXT_DEFINED_HEIGHT_END
  0
TEXT
  5
AA3
330
6B
100
AcDbEntity
  8
0
 62
     3
100
AcDbText
 10
-295.0993606217762
 20
-129.1180760206298
 30
0.0
 40
3.2
  1
2000.08.23
  7
高3.2
100
AcDbText
1001
ACAD
1000
ACAD_MTEXT_DEFINED_HEIGHT_BEGIN
1070
    46
1040
0.0
1000
ACAD_MTEXT_DEFINED_HEIGHT_END
  0
TEXT
  5
AA4
330
6B
100
AcDbEntity
  8
0
 62
     3
100
AcDbText
 10
-324.8752724774595
 20
-129.1180481762949
 30
0.0
 40
3.2
  1
1/1
  7
高3.2
100
AcDbText
  0
TEXT
  5
AA5
330
6B
100
AcDbEntity
  8
0
 62
     3
100
AcDbText
 10
-327.7979435021058
 20
-139.4020870057268
 30
0.0
 40
3.2
  1
ZK-A3X
 41
0.8
  7
高3.2
100
AcDbText
  0
TEXT
  5
AA6
330
6B
100
AcDbEntity
  8
0
 62
     3
100
AcDbText
 10
-370.0776039721059
 20
-133.694344756675
 30
0.0
 40
2.0
  1
NICHIDO IND.CO.LTD
 41
1.3
  7
高2
100
AcDbText
  0
TEXT
  5
AA7
330
6B
100
AcDbEntity
  8
0
 62
     3
100
AcDbText
 10
-368.8960807071487
 20
-108.0784369709779
 30
0.0
 40
3.2
  1
品 名
  7
高3.2
100
AcDbText
1001
ACAD
1000
ACAD_MTEXT_DEFINED_HEIGHT_BEGIN
1070
    46
1040
0.0
1000
ACAD_MTEXT_DEFINED_HEIGHT_END
  0
TEXT
  5
AA8
330
6B
100
AcDbEntity
  8
0
 62
     3
100
AcDbText
 10
-368.8960807071487
 20
-115.7189651788628
 30
0.0
 40
3.2
  1
型 式
  7
高3.2
100
AcDbText
1001
ACAD
1000
ACAD_MTEXT_DEFINED_HEIGHT_BEGIN
1070
    46
1040
3.064735913775954
1000
ACAD_MTEXT_DEFINED_HEIGHT_END
  0
TEXT
  5
AA9
330
6B
100
AcDbEntity
  8
0
 62
     3
100
AcDbText
 10
-368.8960807071487
 20
-122.7189651788628
 30
0.0
 40
3.2
  1
材 質
  7
高3.2
100
AcDbText
1001
ACAD
1000
ACAD_MTEXT_DEFINED_HEIGHT_BEGIN
1070
    46
1040
0.0
1000
ACAD_MTEXT_DEFINED_HEIGHT_END
  0
TEXT
  5
AAA
330
6B
100
AcDbEntity
  8
0
 62
     3
100
AcDbText
 10
-369.2011156571486
 20
-129.7515251866165
 30
0.0
 40
3.2
  1
第 三 角 法
  7
高3.2
100
AcDbText
1001
ACAD
1000
ACAD_MTEXT_DEFINED_HEIGHT_BEGIN
1070
    46
1040
0.0
1000
ACAD_MTEXT_DEFINED_HEIGHT_END
  0
TEXT
  5
AAB
330
6B
100
AcDbEntity
  8
0
 62
     3
100
AcDbText
 10
-370.7945830496198
 20
-139.0784369709779
 30
0.0
 40
3.2
  1
日動工業株式会社
 41
1.199999999999999
  7
高3.2
100
AcDbText
1001
ACAD
1000
ACAD_MTEXT_DEFINED_HEIGHT_BEGIN
1070
    46
1040
0.0
1000
ACAD_MTEXT_DEFINED_HEIGHT_END
  0
TEXT
  5
AAC
330
6B
100
AcDbEntity
  8
0
 62
     3
100
AcDbText
 10
-337.1589588501413
 20
-122.8343866456952
 30
0.0
 40
3.2
  1
備考
  7
高3.2
100
AcDbText
1001
ACAD
1000
ACAD_MTEXT_DEFINED_HEIGHT_BEGIN
1070
    46
1040
0.0
1000
ACAD_MTEXT_DEFINED_HEIGHT_END
  0
TEXT
  5
AAD
330
6B
100
AcDbEntity
  8
0
 62
     3
100
AcDbText
 10
-327.5099014031059
 20
-134.0727351532925
 30
0.0
 40
2.5
  1
出図コード
  7
高2.5
100
AcDbText
1001
ACAD
1000
ACAD_MTEXT_DEFINED_HEIGHT_BEGIN
1070
    46
1040
0.0
1000
ACAD_MTEXT_DEFINED_HEIGHT_END
  0
TEXT
  5
AAE
330
6B
100
AcDbEntity
  8
0
 62
     3
100
AcDbText
 10
-337.3177249682287
 20
-129.7657302684499
 30
0.0
 40
3.2
  1
尺度
  7
高3.2
100
AcDbText
1001
ACAD
1000
ACAD_MTEXT_DEFINED_HEIGHT_BEGIN
1070
    46
1040
0.0
1000
ACAD_MTEXT_DEFINED_HEIGHT_END
  0
TEXT
  5
AAF
330
6B
100
AcDbEntity
  8
0
 62
     3
100
AcDbText
 10
-310.17146348645
 20
-128.6342518203324
 30
0.0
 40
3.2
  1
作成日
  7
高3.2
100
AcDbText
1001
ACAD
1000
ACAD_MTEXT_DEFINED_HEIGHT_BEGIN
1070
    46
1040
0.0
1000
ACAD_MTEXT_DEFINED_HEIGHT_END
  0
TEXT
  5
AB0
330
6B
100
AcDbEntity
  8
0
 62
     3
100
AcDbText
 10
-310.2769894795861
 20
-108.0784369709779
 30
0.0
 40
3.2
  1
承 認
  7
高3.2
100
AcDbText
1001
ACAD
1000
ACAD_MTEXT_DEFINED_HEIGHT_BEGIN
1070
    46
1040
0.0
1000
ACAD_MTEXT_DEFINED_HEIGHT_END
  0
TEXT
  5
AB1
330
6B
100
AcDbEntity
  8
0
 62
     3
100
AcDbText
 10
-297.276989479586
 20
-108.0784369709779
 30
0.0
 40
3.2
  1
検 図
  7
高3.2
100
AcDbText
1001
ACAD
1000
ACAD_MTEXT_DEFINED_HEIGHT_BEGIN
1070
    46
1040
0.0
1000
ACAD_MTEXT_DEFINED_HEIGHT_END
  0
TEXT
  5
AB2
330
6B
100
AcDbEntity
  8
0
 62
     3
100
AcDbText
 10
-284.2769894795861
 20
-108.0784369709779
 30
0.0
 40
3.2
  1
設 計
  7
高3.2
100
AcDbText
1001
ACAD
1000
ACAD_MTEXT_DEFINED_HEIGHT_BEGIN
1070
    46
1040
0.0
1000
ACAD_MTEXT_DEFINED_HEIGHT_END
  0
TEXT
  5
AB3
330
6B
100
AcDbEntity
  8
0
 62
     3
100
AcDbText
 10
-270.9763529595861
 20
-108.0784369709779
 30
0.0
 40
3.2
  1
製 図
  7
高3.2
100
AcDbText
1001
ACAD
1000
ACAD_MTEXT_DEFINED_HEIGHT_BEGIN
1070
    46
1040
0.0
1000
ACAD_MTEXT_DEFINED_HEIGHT_END
  0
TEXT
  5
AB4
330
6B
100
AcDbEntity
  8
0
 62
     3
100
AcDbText
 10
-272.162870372106
 20
124.2810348211371
 30
0.0
 40
3.2
  1
担　当
  7
高3.2
100
AcDbText
  0
TEXT
  5
AB5
330
6B
100
AcDbEntity
  8
0
 62
     3
100
AcDbText
 10
-316.162870372106
 20
124.2810348211371
 30
0.0
 40
3.2
  1
変更・追記内容
  7
高3.2
100
AcDbText
  0
TEXT
  5
AB6
330
6B
100
AcDbEntity
  8
0
 62
     3
100
AcDbText
 10
-341.0493553717667
 20
119.6104963112288
 30
0.0
 40
2.0
  1
1
  7
高2
100
AcDbText
  0
TEXT
  5
AB7
330
6B
100
AcDbEntity
  8
0
 62
     3
100
AcDbText
 10
-341.3578668485241
 20
114.4406795989559
 30
0.0
 40
2.0
  1
2
  7
高2
100
AcDbText
  0
TEXT
  5
AB8
330
6B
100
AcDbEntity
  8
0
 62
     3
100
AcDbText
 10
-334.162870372106
 20
124.2810348211371
 30
0.0
 40
3.2
  1
日　付
  7
高3.2
100
AcDbText
  0
TEXT
  5
AB9
330
6B
100
AcDbEntity
  8
0
 62
     3
100
AcDbText
 10
-334.162870372106
 20
129.2810348211371
 30
0.0
 40
3.2
  1
図　　　　面　　　　略　　　　歴
  7
高3.2
100
AcDbText
  0
TEXT
  5
ABA
330
6B
100
AcDbEntity
  8
0
 62
     3
100
AcDbText
 10
-344.162870372106
 20
124.2810348211371
 30
0.0
 40
3.2
  1
記号
  7
高3.2
100
AcDbText
  0
LINE
  5
ABB
330
6B
100
AcDbEntity
  8
0
 62
     7
100
AcDbLine
 10
-340.662870372106
 20
117.5719308211372
 30
0.0
 11
-342.5628703721059
 21
114.2810348211371
 31
0.0
  0
LINE
  5
ABC
330
6B
100
AcDbEntity
  8
0
 62
     7
100
AcDbLine
 10
-340.662870372106
 20
117.5719308211372
 30
0.0
 11
-338.7628703721059
 21
114.2810348211371
 31
0.0
  0
LINE
  5
ABD
330
6B
100
AcDbEntity
  8
0
 62
     7
100
AcDbLine
 10
-342.5628703721059
 20
114.2810348211371
 30
0.0
 11
-338.7628703721059
 21
114.2810348211371
 31
0.0
  0
LINE
  5
ABE
330
6B
100
AcDbEntity
  8
0
 62
     7
100
AcDbLine
 10
-340.662870372106
 20
122.5719318211372
 30
0.0
 11
-342.5628703721059
 21
119.281034821137
 31
0.0
  0
LINE
  5
ABF
330
6B
100
AcDbEntity
  8
0
 62
     7
100
AcDbLine
 10
-340.662870372106
 20
122.5719318211372
 30
0.0
 11
-338.7628703721059
 21
119.281034821137
 31
0.0
  0
LINE
  5
AC0
330
6B
100
AcDbEntity
  8
0
 62
     7
100
AcDbLine
 10
-342.5628703721059
 20
119.281034821137
 30
0.0
 11
-338.7628703721059
 21
119.281034821137
 31
0.0
  0
LINE
  5
AC1
330
6B
100
AcDbEntity
  8
0
 62
     3
100
AcDbLine
 10
-345.662870372106
 20
128.7810348211371
 30
0.0
 11
-259.662870372106
 21
128.7810348211371
 31
0.0
  0
LINE
  5
AC2
330
6B
100
AcDbEntity
  8
0
 62
     3
100
AcDbLine
 10
-345.662870372106
 20
123.7810348211371
 30
0.0
 11
-259.662870372106
 21
123.7810348211371
 31
0.0
  0
LINE
  5
AC3
330
6B
100
AcDbEntity
  8
0
 62
     7
100
AcDbLine
 10
-345.662870372106
 20
118.7810348211371
 30
0.0
 11
-259.662870372106
 21
118.7810348211371
 31
0.0
  0
LINE
  5
AC4
330
6B
100
AcDbEntity
  8
0
 62
     3
100
AcDbLine
 10
-345.662870372106
 20
113.7810348211371
 30
0.0
 11
-259.662870372106
 21
113.7810348211371
 31
0.0
  0
LINE
  5
AC5
330
6B
100
AcDbEntity
  8
0
 62
     7
100
AcDbLine
 10
-273.662870372106
 20
113.7810348211371
 30
0.0
 11
-273.662870372106
 21
128.7810348211371
 31
0.0
  0
LINE
  5
AC6
330
6B
100
AcDbEntity
  8
0
 62
     7
100
AcDbLine
 10
-317.662870372106
 20
113.7810348211371
 30
0.0
 11
-317.662870372106
 21
128.7810348211371
 31
0.0
  0
LINE
  5
AC7
330
6B
100
AcDbEntity
  8
0
 62
     7
100
AcDbLine
 10
-335.662870372106
 20
113.7810348211371
 30
0.0
 11
-335.662870372106
 21
128.7810348211371
 31
0.0
  0
LINE
  5
AC8
330
6B
100
AcDbEntity
  8
0
 62
     3
100
AcDbLine
 10
-345.662870372106
 20
113.7810348211371
 30
0.0
 11
-345.662870372106
 21
133.7810348211371
 31
0.0
  0
LINE
  5
AC9
330
6B
100
AcDbEntity
  8
0
 62
     7
100
AcDbLine
 10
-259.6628703721058
 20
-94.21896517886279
 30
0.0
 11
-311.6628703721058
 21
-94.21896517886279
 31
0.0
  0
LINE
  5
ACA
330
6B
100
AcDbEntity
  8
0
 62
     7
100
AcDbLine
 10
-259.6628703721058
 20
-88.21896517886282
 30
0.0
 11
-311.6628703721058
 21
-88.2189651788628
 31
0.0
  0
LINE
  5
ACB
330
6B
100
AcDbEntity
  8
0
 62
     7
100
AcDbLine
 10
-259.6628703721058
 20
-82.21896517886282
 30
0.0
 11
-311.6628703721058
 21
-82.21896517886282
 31
0.0
  0
LINE
  5
ACC
330
6B
100
AcDbEntity
  8
0
 62
     7
100
AcDbLine
 10
-259.6628703721058
 20
-76.21896517886281
 30
0.0
 11
-311.6628703721058
 21
-76.2189651788628
 31
0.0
  0
LINE
  5
ACD
330
6B
100
AcDbEntity
  8
0
 62
     3
100
AcDbLine
 10
-259.6628703721058
 20
-70.21896517886282
 30
0.0
 11
-311.6628703721058
 21
-70.2189651788628
 31
0.0
  0
LINE
  5
ACE
330
6B
100
AcDbEntity
  8
0
  6
Continuous
100
AcDbLine
 10
-285.6628703721058
 20
-100.2189651788628
 30
0.0
 11
-285.6628703721058
 21
-70.21896517886282
 31
0.0
  0
LINE
  5
ACF
330
6B
100
AcDbEntity
  8
0
  6
Continuous
 62
     3
100
AcDbLine
 10
-311.6628703721058
 20
-100.2189651788628
 30
0.0
 11
-311.6628703721058
 21
-70.21896517886282
 31
0.0
  0
TEXT
  5
AD8
330
6B
100
AcDbEntity
  8
0
 62
     3
100
AcDbText
 10
-356.5201111068536
 20
-112.3078934745161
 30
0.0
 40
2.5
  1
2PE-WN/2PE-GN
  7
高2.5
100
AcDbText
  0
TEXT
  5
C1D
330
6B
100
AcDbEntity
  8
0
  6
Continuous
 62
     4
100
AcDbText
 10
-467.4577696984099
 20
-25.38821885432686
 30
0.0
 40
3.0
  1
2-M4タッピングねじ下穴
100
AcDbText
1001
ACAD
1000
MTEXTBEGIN
1070
    73
1070
     1
1070
    44
1040
1.0
1070
    74
1070
     0
1000
MTEXTEND
  0
LINE
  5
C20
330
6B
100
AcDbEntity
  8
0
100
AcDbLine
 10
-545.1023127290709
 20
-22.46042562939634
 30
0.0
 11
-575.7800789790709
 21
-22.46042562939633
 31
0.0
  0
LINE
  5
C21
330
6B
100
AcDbEntity
  8
0
100
AcDbLine
 10
-545.1023127290709
 20
71.53957437060381
 30
0.0
 11
-575.7800789790709
 21
71.53957437060381
 31
0.0
  0
LINE
  5
C22
330
6B
100
AcDbEntity
  8
0
100
AcDbLine
 10
-574.5300789790709
 20
-19.96042562939632
 30
0.0
 11
-574.5300789790709
 21
69.03957437060381
 31
0.0
  0
LINE
  5
C26
330
6B
100
AcDbEntity
  8
0
100
AcDbLine
 10
-544.7588414790708
 20
-15.71042562939625
 30
0.0
 11
-570.6524421040709
 21
-15.71042562939624
 31
0.0
  0
LINE
  5
C27
330
6B
100
AcDbEntity
  8
0
100
AcDbLine
 10
-544.7588414790708
 20
64.78957437060374
 30
0.0
 11
-570.6524421040709
 21
64.78957437060374
 31
0.0
  0
LINE
  5
C28
330
6B
100
AcDbEntity
  8
0
100
AcDbLine
 10
-569.4024421040709
 20
-13.21042562939624
 30
0.0
 11
-569.4024421040709
 21
62.28957437060374
 31
0.0
  0
LINE
  5
C2C
330
6B
100
AcDbEntity
  8
0
100
AcDbLine
 10
-561.3523127290709
 20
-2.160425629396304
 30
0.0
 11
-561.3523127290709
 21
-32.85952099630004
 31
0.0
  0
LINE
  5
C2D
330
6B
100
AcDbEntity
  8
0
100
AcDbLine
 10
-524.3523127290709
 20
-6.910425629396311
 30
0.0
 11
-524.3523127290709
 21
-32.85952099630004
 31
0.0
  0
LINE
  5
C2E
330
6B
100
AcDbEntity
  8
0
100
AcDbLine
 10
-558.8523127290709
 20
-31.60952099630004
 30
0.0
 11
-526.8523127290709
 21
-31.60952099630004
 31
0.0
  0
LINE
  5
C32
330
6B
100
AcDbEntity
  8
0
100
AcDbLine
 10
-480.9118421040708
 20
44.28957437060377
 30
0.0
 11
-480.9118421040708
 21
81.32703062060384
 31
0.0
  0
LINE
  5
C33
330
6B
100
AcDbEntity
  8
0
100
AcDbLine
 10
-454.4118421040708
 20
55.48957437060379
 30
0.0
 11
-454.4118421040708
 21
81.32703062060384
 31
0.0
  0
LINE
  5
C34
330
6B
100
AcDbEntity
  8
0
100
AcDbLine
 10
-478.4118421040708
 20
80.07703062060384
 30
0.0
 11
-456.9118421040708
 21
80.07703062060384
 31
0.0
  0
LINE
  5
C38
330
6B
100
AcDbEntity
  8
0
100
AcDbLine
 10
-475.9118421040708
 20
66.28957437060382
 30
0.0
 11
-475.9118421040708
 21
75.4983499956038
 31
0.0
  0
LINE
  5
C39
330
6B
100
AcDbEntity
  8
0
100
AcDbLine
 10
-456.4118421040706
 20
57.48957437060379
 30
0.0
 11
-456.4118421040706
 21
75.4983499956038
 31
0.0
  0
LINE
  5
C3A
330
6B
100
AcDbEntity
  8
0
100
AcDbLine
 10
-473.4118421040708
 20
74.2483499956038
 30
0.0
 11
-458.9118421040707
 21
74.2483499956038
 31
0.0
  0
LINE
  5
C3E
330
6B
100
AcDbEntity
  8
0
100
AcDbLine
 10
-558.3523127290709
 20
55.98957437060379
 30
0.0
 11
-558.3523127290709
 21
80.67808062060381
 31
0.0
  0
LINE
  5
C3F
330
6B
100
AcDbEntity
  8
0
100
AcDbLine
 10
-524.3523127290709
 20
55.98957437060379
 30
0.0
 11
-524.3523127290709
 21
80.67808062060381
 31
0.0
  0
LINE
  5
C40
330
6B
100
AcDbEntity
  8
0
100
AcDbLine
 10
-555.8523127290709
 20
79.42808062060381
 30
0.0
 11
-526.8523127290709
 21
79.42808062060381
 31
0.0
  0
LINE
  5
C44
330
6B
100
AcDbEntity
  8
0
100
AcDbLine
 10
-526.1023127290709
 20
-8.660425629396312
 30
0.0
 11
-507.9752758540709
 21
-8.660425629396319
 31
0.0
  0
LINE
  5
C45
330
6B
100
AcDbEntity
  8
0
100
AcDbLine
 10
-526.1023127290709
 20
57.73957437060379
 30
0.0
 11
-507.9752758540709
 21
57.73957437060379
 31
0.0
  0
LINE
  5
C46
330
6B
100
AcDbEntity
  8
0
100
AcDbLine
 10
-509.2252758540708
 20
-6.160425629396319
 30
0.0
 11
-509.2252758540708
 21
55.23957437060379
 31
0.0
  0
LINE
  5
C4A
330
6B
100
AcDbEntity
  8
0
100
AcDbLine
 10
-521.3123814790708
 20
5.039574370603709
 30
0.0
 11
-514.4991033540709
 21
5.039574370603708
 31
0.0
  0
LINE
  5
C4B
330
6B
100
AcDbEntity
  8
0
100
AcDbLine
 10
-521.3123814790708
 20
44.03957437060377
 30
0.0
 11
-514.4991033540709
 21
44.03957437060377
 31
0.0
  0
LINE
  5
C4C
330
6B
100
AcDbEntity
  8
0
100
AcDbLine
 10
-515.7491033540709
 20
7.539574370603708
 30
0.0
 11
-515.7491033540709
 21
41.53957437060377
 31
0.0
  0
LINE
  5
C50
330
6B
100
AcDbEntity
  8
0
 62
     3
100
AcDbLine
 10
-459.4042443321058
 20
134.3216633611371
 30
0.0
 11
-459.4308550821057
 21
134.4920458811372
 31
0.0
  0
LINE
  5
C51
330
6B
100
AcDbEntity
  8
0
 62
     3
100
AcDbLine
 10
-459.4308550821057
 20
134.4920458811372
 30
0.0
 11
-459.4628139121057
 21
134.6551955711371
 31
0.0
  0
LINE
  5
C52
330
6B
100
AcDbEntity
  8
0
 62
     3
100
AcDbLine
 10
-459.4628139121057
 20
134.6551955711371
 30
0.0
 11
-459.4998738121058
 21
134.8098513711371
 31
0.0
  0
LINE
  5
C53
330
6B
100
AcDbEntity
  8
0
 62
     3
100
AcDbLine
 10
-459.4998738121058
 20
134.8098513711371
 30
0.0
 11
-459.5417483121059
 21
134.9548178711371
 31
0.0
  0
LINE
  5
C54
330
6B
100
AcDbEntity
  8
0
 62
     3
100
AcDbLine
 10
-459.5417483121059
 20
134.9548178711371
 30
0.0
 11
-459.5881137421057
 21
135.0889745611372
 31
0.0
  0
LINE
  5
C55
330
6B
100
AcDbEntity
  8
0
 62
     3
100
AcDbLine
 10
-459.5881137421057
 20
135.0889745611372
 30
0.0
 11
-459.638611732106
 21
135.2112844611371
 31
0.0
  0
LINE
  5
C56
330
6B
100
AcDbEntity
  8
0
 62
     3
100
AcDbLine
 10
-459.638611732106
 20
135.2112844611371
 30
0.0
 11
-459.6928519521058
 21
135.3208022011371
 31
0.0
  0
LINE
  5
C57
330
6B
100
AcDbEntity
  8
0
 62
     3
100
AcDbLine
 10
-459.6928519521058
 20
135.3208022011371
 30
0.0
 11
-459.7504151521058
 21
135.4166812511371
 31
0.0
  0
LINE
  5
C58
330
6B
100
AcDbEntity
  8
0
 62
     3
100
AcDbLine
 10
-459.7504151521058
 20
135.4166812511371
 30
0.0
 11
-459.8108564021059
 21
135.498180521137
 31
0.0
  0
LINE
  5
C59
330
6B
100
AcDbEntity
  8
0
 62
     3
100
AcDbLine
 10
-459.8108564021059
 20
135.498180521137
 30
0.0
 11
-459.8737085221056
 21
135.5646700611371
 31
0.0
  0
LINE
  5
C5A
330
6B
100
AcDbEntity
  8
0
 62
     3
100
AcDbLine
 10
-459.8737085221056
 20
135.5646700611371
 30
0.0
 11
-459.9384857021059
 21
135.6156359411371
 31
0.0
  0
LINE
  5
C5B
330
6B
100
AcDbEntity
  8
0
 62
     3
100
AcDbLine
 10
-459.9384857021059
 20
135.6156359411371
 30
0.0
 11
-460.0046872321057
 21
135.6506842211371
 31
0.0
  0
LINE
  5
C5C
330
6B
100
AcDbEntity
  8
0
 62
     3
100
AcDbLine
 10
-460.0046872321057
 20
135.6506842211371
 30
0.0
 11
-460.0718014221057
 21
135.6695439911371
 31
0.0
  0
LINE
  5
C5D
330
6B
100
AcDbEntity
  8
0
 62
     3
100
AcDbLine
 10
-460.0718014221057
 20
135.6695439911371
 30
0.0
 11
-460.1393095121058
 21
135.6720694911371
 31
0.0
  0
LINE
  5
C5E
330
6B
100
AcDbEntity
  8
0
 62
     3
100
AcDbLine
 10
-460.1393095121058
 20
135.6720694911371
 30
0.0
 11
-460.2066897021058
 21
135.658241181137
 31
0.0
  0
LINE
  5
C5F
330
6B
100
AcDbEntity
  8
0
 62
     3
100
AcDbLine
 10
-460.2066897021058
 20
135.658241181137
 30
0.0
 11
-460.2734211721057
 21
135.628165951137
 31
0.0
  0
LINE
  5
C60
330
6B
100
AcDbEntity
  8
0
 62
     3
100
AcDbLine
 10
-460.2734211721057
 20
135.628165951137
 30
0.0
 11
-460.3389881121057
 21
135.5820762811371
 31
0.0
  0
LINE
  5
C61
330
6B
100
AcDbEntity
  8
0
 62
     3
100
AcDbLine
 10
-460.3389881121057
 20
135.5820762811371
 30
0.0
 11
-460.4028837521059
 21
135.5203284011371
 31
0.0
  0
LINE
  5
C62
330
6B
100
AcDbEntity
  8
0
 62
     3
100
AcDbLine
 10
-460.4028837521059
 20
135.5203284011371
 30
0.0
 11
-460.4646141821057
 21
135.4433996111371
 31
0.0
  0
LINE
  5
C63
330
6B
100
AcDbEntity
  8
0
 62
     3
100
AcDbLine
 10
-460.4646141821057
 20
135.4433996111371
 30
0.0
 11
-460.523702272106
 21
135.3518845111372
 31
0.0
  0
LINE
  5
C64
330
6B
100
AcDbEntity
  8
0
 62
     3
100
AcDbLine
 10
-460.523702272106
 20
135.3518845111372
 30
0.0
 11
-460.5796913021058
 21
135.2464904811371
 31
0.0
  0
LINE
  5
C65
330
6B
100
AcDbEntity
  8
0
 62
     3
100
AcDbLine
 10
-460.5796913021058
 20
135.2464904811371
 30
0.0
 11
-460.632148502106
 21
135.1280321511372
 31
0.0
  0
LINE
  5
C66
330
6B
100
AcDbEntity
  8
0
 62
     3
100
AcDbLine
 10
-460.632148502106
 20
135.1280321511372
 30
0.0
 11
-460.6806684021059
 21
134.9974251411371
 31
0.0
  0
LINE
  5
C67
330
6B
100
AcDbEntity
  8
0
 62
     3
100
AcDbLine
 10
-460.6806684021059
 20
134.9974251411371
 30
0.0
 11
-460.7248759821058
 21
134.8556789911371
 31
0.0
  0
LINE
  5
C68
330
6B
100
AcDbEntity
  8
0
 62
     3
100
AcDbLine
 10
-460.7248759821058
 20
134.8556789911371
 30
0.0
 11
-460.7644295221058
 21
134.7038893211371
 31
0.0
  0
LINE
  5
C69
330
6B
100
AcDbEntity
  8
0
 62
     3
100
AcDbLine
 10
-460.7644295221058
 20
134.7038893211371
 30
0.0
 11
-460.7990233021056
 21
134.543229381137
 31
0.0
  0
LINE
  5
C6A
330
6B
100
AcDbEntity
  8
0
 62
     3
100
AcDbLine
 10
-460.7990233021056
 20
134.543229381137
 30
0.0
 11
-460.8283899321057
 21
134.3749409911371
 31
0.0
  0
LINE
  5
C6B
330
6B
100
AcDbEntity
  8
0
 62
     3
100
AcDbLine
 10
-460.8283899321057
 20
134.3749409911371
 30
0.0
 11
-460.8523024221057
 21
134.2003249311372
 31
0.0
  0
LINE
  5
C6C
330
6B
100
AcDbEntity
  8
0
 62
     3
100
AcDbLine
 10
-460.8523024221057
 20
134.2003249311372
 30
0.0
 11
-460.8705759321058
 21
134.0207309011372
 31
0.0
  0
LINE
  5
C6D
330
6B
100
AcDbEntity
  8
0
 62
     3
100
AcDbLine
 10
-460.8705759321058
 20
134.0207309011372
 30
0.0
 11
-460.883069232106
 21
133.8375470611371
 31
0.0
  0
LINE
  5
C6E
330
6B
100
AcDbEntity
  8
0
 62
     3
100
AcDbLine
 10
-460.883069232106
 20
133.8375470611371
 30
0.0
 11
-460.8896857421059
 21
133.652189341137
 31
0.0
  0
LINE
  5
C6F
330
6B
100
AcDbEntity
  8
0
 62
     3
100
AcDbLine
 10
-460.8896857421059
 20
133.652189341137
 30
0.0
 11
-460.8903743321058
 21
133.4660904411371
 31
0.0
  0
LINE
  5
C70
330
6B
100
AcDbEntity
  8
0
 62
     3
100
AcDbLine
 10
-460.8903743321058
 20
133.4660904411371
 30
0.0
 11
-460.8851296721057
 21
133.2806888311371
 31
0.0
  0
LINE
  5
C71
330
6B
100
AcDbEntity
  8
0
 62
     3
100
AcDbLine
 10
-460.8851296721057
 20
133.2806888311371
 30
0.0
 11
-460.873992302106
 21
133.0974175611371
 31
0.0
  0
LINE
  5
C72
330
6B
100
AcDbEntity
  8
0
 62
     3
100
AcDbLine
 10
-460.873992302106
 20
133.0974175611371
 30
0.0
 11
-460.857048302106
 21
132.9176932211371
 31
0.0
  0
LINE
  5
C73
330
6B
100
AcDbEntity
  8
0
 62
     3
100
AcDbLine
 10
-460.857048302106
 20
132.9176932211371
 30
0.0
 11
-460.8344286521058
 21
132.7429049911371
 31
0.0
  0
LINE
  5
C74
330
6B
100
AcDbEntity
  8
0
 62
     3
100
AcDbLine
 10
-460.8344286521058
 20
132.7429049911371
 30
0.0
 11
-460.8063081821057
 21
132.5744038911372
 31
0.0
  0
LINE
  5
C75
330
6B
100
AcDbEntity
  8
0
 62
     3
100
AcDbLine
 10
-460.8063081821057
 20
132.5744038911372
 30
0.0
 11
-460.7729042521058
 21
132.4134923511371
 31
0.0
  0
LINE
  5
C76
330
6B
100
AcDbEntity
  8
0
 62
     3
100
AcDbLine
 10
-460.7729042521058
 20
132.4134923511371
 30
0.0
 11
-460.7344750521058
 21
132.2614141311371
 31
0.0
  0
LINE
  5
C77
330
6B
100
AcDbEntity
  8
0
 62
     3
100
AcDbLine
 10
-460.7344750521058
 20
132.2614141311371
 30
0.0
 11
-460.6913176321057
 21
132.1193447211371
 31
0.0
  0
LINE
  5
C78
330
6B
100
AcDbEntity
  8
0
 62
     3
100
AcDbLine
 10
-460.6913176321057
 20
132.1193447211371
 30
0.0
 11
-460.6437655621058
 21
131.9883822411372
 31
0.0
  0
LINE
  5
C79
330
6B
100
AcDbEntity
  8
0
 62
     3
100
AcDbLine
 10
-460.6437655621058
 20
131.9883822411372
 30
0.0
 11
-460.5921864121056
 21
131.8695389611372
 31
0.0
  0
LINE
  5
C7A
330
6B
100
AcDbEntity
  8
0
 62
     3
100
AcDbLine
 10
-460.5921864121056
 20
131.8695389611372
 30
0.0
 11
-460.536978842106
 21
131.7637334911371
 31
0.0
  0
LINE
  5
C7B
330
6B
100
AcDbEntity
  8
0
 62
     3
100
AcDbLine
 10
-460.536978842106
 20
131.7637334911371
 30
0.0
 11
-460.4785695921059
 21
131.6717836311371
 31
0.0
  0
LINE
  5
C7C
330
6B
100
AcDbEntity
  8
0
 62
     3
100
AcDbLine
 10
-460.4785695921059
 20
131.6717836311371
 30
0.0
 11
-460.4174101321058
 21
131.5944001311371
 31
0.0
  0
LINE
  5
C7D
330
6B
100
AcDbEntity
  8
0
 62
     3
100
AcDbLine
 10
-460.4174101321058
 20
131.5944001311371
 30
0.0
 11
-460.3539731921057
 21
131.532181111137
 31
0.0
  0
LINE
  5
C7E
330
6B
100
AcDbEntity
  8
0
 62
     3
100
AcDbLine
 10
-460.3539731921057
 20
131.532181111137
 30
0.0
 11
-460.2887491121057
 21
131.4856075011371
 31
0.0
  0
LINE
  5
C7F
330
6B
100
AcDbEntity
  8
0
 62
     3
100
AcDbLine
 10
-460.2887491121057
 20
131.4856075011371
 30
0.0
 11
-460.2222420321058
 21
131.4550392711371
 31
0.0
  0
LINE
  5
C80
330
6B
100
AcDbEntity
  8
0
 62
     3
100
AcDbLine
 10
-460.2222420321058
 20
131.4550392711371
 30
0.0
 11
-460.154966022106
 21
131.4407127211371
 31
0.0
  0
LINE
  5
C81
330
6B
100
AcDbEntity
  8
0
 62
     3
100
AcDbLine
 10
-460.154966022106
 20
131.4407127211371
 30
0.0
 11
-460.0874410921058
 21
131.4427385811371
 31
0.0
  0
LINE
  5
C82
330
6B
100
AcDbEntity
  8
0
 62
     3
100
AcDbLine
 10
-460.0874410921058
 20
131.4427385811371
 30
0.0
 11
-460.020189172106
 21
131.461101181137
 31
0.0
  0
LINE
  5
C83
330
6B
100
AcDbEntity
  8
0
 62
     3
100
AcDbLine
 10
-460.020189172106
 20
131.461101181137
 30
0.0
 11
-459.9537300921057
 21
131.495658601137
 31
0.0
  0
LINE
  5
C84
330
6B
100
AcDbEntity
  8
0
 62
     3
100
AcDbLine
 10
-459.9537300921057
 20
131.495658601137
 30
0.0
 11
-459.8885775321058
 21
131.5461437311371
 31
0.0
  0
LINE
  5
C85
330
6B
100
AcDbEntity
  8
0
 62
     3
100
AcDbLine
 10
-459.8885775321058
 20
131.5461437311371
 30
0.0
 11
-459.8252351021058
 21
131.6121663311371
 31
0.0
  0
LINE
  5
C86
330
6B
100
AcDbEntity
  8
0
 62
     3
100
AcDbLine
 10
-459.8252351021058
 20
131.6121663311371
 30
0.0
 11
-459.7641924021059
 21
131.6932160911371
 31
0.0
  0
LINE
  5
C87
330
6B
100
AcDbEntity
  8
0
 62
     3
100
AcDbLine
 10
-459.7641924021059
 20
131.6932160911371
 30
0.0
 11
-459.7059212621058
 21
131.7886665411371
 31
0.0
  0
LINE
  5
C88
330
6B
100
AcDbEntity
  8
0
 62
     3
100
AcDbLine
 10
-459.7059212621058
 20
131.7886665411371
 30
0.0
 11
-459.6508720821058
 21
131.8977799011371
 31
0.0
  0
LINE
  5
C89
330
6B
100
AcDbEntity
  8
0
 62
     3
100
AcDbLine
 10
-459.6508720821058
 20
131.8977799011371
 30
0.0
 11
-459.5994703621057
 21
132.019712761137
 31
0.0
  0
LINE
  5
C8A
330
6B
100
AcDbEntity
  8
0
 62
     3
100
AcDbLine
 10
-459.5994703621057
 20
132.019712761137
 30
0.0
 11
-459.5521134221058
 21
132.1535226711371
 31
0.0
  0
LINE
  5
C8B
330
6B
100
AcDbEntity
  8
0
 62
     3
100
AcDbLine
 10
-459.5521134221058
 20
132.1535226711371
 30
0.0
 11
-459.5091673021057
 21
132.2981753211371
 31
0.0
  0
LINE
  5
C8C
330
6B
100
AcDbEntity
  8
0
 62
     3
100
AcDbLine
 10
-459.5091673021057
 20
132.2981753211371
 30
0.0
 11
-459.4709639521059
 21
132.4525526411371
 31
0.0
  0
LINE
  5
C8D
330
6B
100
AcDbEntity
  8
0
 62
     3
100
AcDbLine
 10
-459.4709639521059
 20
132.4525526411371
 30
0.0
 11
-459.4377986621059
 21
132.6154613711371
 31
0.0
  0
LINE
  5
C8E
330
6B
100
AcDbEntity
  8
0
 62
     3
100
AcDbLine
 10
-459.4377986621059
 20
132.6154613711371
 30
0.0
 11
-459.4099277821057
 21
132.785642301137
 31
0.0
  0
LINE
  5
C8F
330
6B
100
AcDbEntity
  8
0
  6
Continuous
100
AcDbLine
 10
-547.4851057509876
 20
47.03515055115345
 30
0.0
 11
-520.2878884999323
 21
62.20316132024732
 31
0.0
1001
ACAD
1000
DSTYLE
1002
{
1070
   341
1005
9A1
1070
   147
1040
0.625
1070
    77
1070
     0
1002
}
  0
LINE
  5
C91
330
6B
100
AcDbEntity
  8
0
  6
Continuous
100
AcDbLine
 10
-535.1992139790707
 20
46.68350624560377
 30
0.0
 11
-520.2878884999323
 21
62.20316132024734
 31
0.0
1001
ACAD
1000
DSTYLE
1002
{
1070
   341
1005
9A1
1070
   147
1040
0.625
1070
    77
1070
     0
1002
}
  0
LINE
  5
C93
330
6B
100
AcDbEntity
  8
0
  6
Continuous
100
AcDbLine
 10
-539.0014357936959
 20
36.08156141115387
 30
0.0
 11
-509.6934222091172
 21
62.29551372965814
 31
0.0
1001
ACAD
1000
DSTYLE
1002
{
1070
   341
1005
9A1
1070
   147
1040
0.625
1070
    77
1070
     0
1002
}
  0
LINE
  5
C95
330
6B
100
AcDbEntity
  8
0
  6
Continuous
100
AcDbLine
 10
-473.6419177290708
 20
48.04901874560377
 30
0.0
 11
-445.2757478791886
 21
62.16448595604784
 31
0.0
1001
ACAD
1000
DSTYLE
1002
{
1070
   341
1005
9A1
1070
   147
1040
0.625
1070
    77
1070
     0
1002
}
  0
LINE
  5
C97
330
6B
100
AcDbEntity
  8
0
  6
Continuous
100
AcDbLine
 10
-460.3957458540707
 20
46.06970562060378
 30
0.0
 11
-445.2757478791886
 21
62.16448595604784
 31
0.0
1001
ACAD
1000
DSTYLE
1002
{
1070
   341
1005
9A1
1070
   147
1040
0.625
1070
    77
1070
     0
1002
}
  0
LINE
  5
C99
330
6B
100
AcDbEntity
  8
0
  6
Continuous
100
AcDbLine
 10
-400.7905046040707
 20
52.93144124560377
 30
0.0
 11
-378.2658240956507
 21
63.65877271604296
 31
0.0
1001
ACAD
1000
DSTYLE
1002
{
1070
   341
1005
9A1
1070
   147
1040
0.625
1070
    77
1070
     0
1002
}
  0
LINE
  5
C9B
330
6B
100
AcDbEntity
  8
0
  6
Continuous
100
AcDbLine
 10
-388.8248508540708
 20
27.03785249560374
 30
0.0
 11
-378.7316861136718
 21
26.13383255881149
 31
0.0
1001
ACAD
1000
DSTYLE
1002
{
1070
   341
1005
9A1
1070
   147
1040
0.625
1070
    77
1070
     0
1002
}
  0
LINE
  5
C9D
330
6B
100
AcDbEntity
  8
0
  6
Continuous
100
AcDbLine
 10
-402.0869333540706
 20
23.97916812060374
 30
0.0
 11
-378.4989334467488
 21
16.18124955595571
 31
0.0
1001
ACAD
1000
DSTYLE
1002
{
1070
   341
1005
9A1
1070
   147
1040
0.625
1070
    77
1070
     0
1002
}
  0
LINE
  5
C9F
330
6B
100
AcDbEntity
  8
0
  6
Continuous
100
AcDbLine
 10
-402.0869333540706
 20
5.444564995603709
 30
0.0
 11
-378.7402572075234
 21
3.86775582136045
 31
0.0
1001
ACAD
1000
DSTYLE
1002
{
1070
   341
1005
9A1
1070
   147
1040
0.625
1070
    77
1070
     0
1002
}
  0
LINE
  5
CA1
330
6B
100
AcDbEntity
  8
0
  6
Continuous
100
AcDbLine
 10
-388.1741514790706
 20
-5.282317504396306
 30
0.0
 11
-378.6052015888425
 21
-7.650417906425332
 31
0.0
1001
ACAD
1000
DSTYLE
1002
{
1070
   341
1005
9A1
1070
   147
1040
0.625
1070
    77
1070
     0
1002
}
  0
LINE
  5
CA3
330
6B
100
AcDbEntity
  8
0
  6
Continuous
100
AcDbLine
 10
-389.2369733540708
 20
-11.06618250439627
 30
0.0
 11
-378.0848126033472
 21
-17.48665800692788
 31
0.0
1001
ACAD
1000
DSTYLE
1002
{
1070
   341
1005
9A1
1070
   147
1040
0.625
1070
    77
1070
     0
1002
}
  0
LINE
  5
CA5
330
6B
100
AcDbEntity
  8
0
  6
Continuous
100
AcDbLine
 10
-472.8573369057411
 20
-17.85214545917141
 30
0.0
 11
-469.0236696837234
 21
-26.09283457731966
 31
0.0
  0
LINE
  5
CA6
330
6B
100
AcDbEntity
  8
0
  6
Continuous
100
AcDbLine
 10
-469.0236696837234
 20
-26.09283457731966
 30
0.0
 11
-465.8986696837234
 21
-26.09283457731966
 31
0.0
  0
LINE
  5
CA7
330
6B
100
AcDbEntity
  8
0
  6
ByBlock
 62
     0
370
    -2
100
AcDbLine
 10
-473.4647022174095
 20
-18.13469907255866
 30
0.0
 11
-473.9118421040708
 21
-15.58542562939632
 31
0.0
  0
LINE
  5
CA8
330
6B
100
AcDbEntity
  8
0
  6
ByBlock
 62
     0
370
    -2
100
AcDbLine
 10
-473.9118421040708
 20
-15.58542562939632
 30
0.0
 11
-472.2499715940727
 21
-17.56959184578416
 31
0.0
  0
LINE
  5
CA9
330
6B
100
AcDbEntity
  8
0
  6
ByBlock
 62
     0
370
    -2
100
AcDbLine
 10
-473.9118421040708
 20
-15.58542562939632
 30
0.0
 11
-472.8573369057411
 21
-17.85214545917141
 31
0.0
  0
TEXT
  5
CAA
330
6B
100
AcDbEntity
  8
0
  6
Continuous
 62
     4
100
AcDbText
 10
-575.1550789790709
 20
22.03957437060365
 30
0.0
 40
3.0
  1
94
 50
90.0
100
AcDbText
  0
LINE
  5
CAB
330
6B
100
AcDbEntity
  8
0
  6
ByBlock
 62
     0
370
    -2
100
AcDbLine
 10
-575.1999514790709
 20
69.03957437060381
 30
0.0
 11
-574.5300789790709
 21
71.53957437060381
 31
0.0
  0
LINE
  5
CAC
330
6B
100
AcDbEntity
  8
0
  6
ByBlock
 62
     0
370
    -2
100
AcDbLine
 10
-574.5300789790709
 20
71.53957437060381
 30
0.0
 11
-573.8602064790709
 21
69.03957437060381
 31
0.0
  0
LINE
  5
CAD
330
6B
100
AcDbEntity
  8
0
  6
ByBlock
 62
     0
370
    -2
100
AcDbLine
 10
-574.5300789790709
 20
71.53957437060381
 30
0.0
 11
-574.5300789790709
 21
69.03957437060381
 31
0.0
  0
LINE
  5
CAE
330
6B
100
AcDbEntity
  8
0
  6
ByBlock
 62
     0
370
    -2
100
AcDbLine
 10
-573.8602064790709
 20
-19.96042562939632
 30
0.0
 11
-574.5300789790709
 21
-22.46042562939633
 31
0.0
  0
LINE
  5
CAF
330
6B
100
AcDbEntity
  8
0
  6
ByBlock
 62
     0
370
    -2
100
AcDbLine
 10
-574.5300789790709
 20
-22.46042562939633
 30
0.0
 11
-575.1999514790709
 21
-19.96042562939632
 31
0.0
  0
LINE
  5
CB0
330
6B
100
AcDbEntity
  8
0
  6
ByBlock
 62
     0
370
    -2
100
AcDbLine
 10
-574.5300789790709
 20
-22.46042562939633
 30
0.0
 11
-574.5300789790709
 21
-19.96042562939632
 31
0.0
  0
TEXT
  5
CB1
330
6B
100
AcDbEntity
  8
0
  6
Continuous
 62
     4
100
AcDbText
 10
-570.0274421040709
 20
20.28957437060366
 30
0.0
 40
3.0
  1
80.5
 50
90.0
100
AcDbText
  0
LINE
  5
CB2
330
6B
100
AcDbEntity
  8
0
  6
ByBlock
 62
     0
370
    -2
100
AcDbLine
 10
-570.0723146040709
 20
62.28957437060374
 30
0.0
 11
-569.4024421040709
 21
64.78957437060374
 31
0.0
  0
LINE
  5
CB3
330
6B
100
AcDbEntity
  8
0
  6
ByBlock
 62
     0
370
    -2
100
AcDbLine
 10
-569.4024421040709
 20
64.78957437060374
 30
0.0
 11
-568.7325696040709
 21
62.28957437060374
 31
0.0
  0
LINE
  5
CB4
330
6B
100
AcDbEntity
  8
0
  6
ByBlock
 62
     0
370
    -2
100
AcDbLine
 10
-569.4024421040709
 20
64.78957437060374
 30
0.0
 11
-569.4024421040709
 21
62.28957437060374
 31
0.0
  0
LINE
  5
CB5
330
6B
100
AcDbEntity
  8
0
  6
ByBlock
 62
     0
370
    -2
100
AcDbLine
 10
-568.7325696040709
 20
-13.21042562939624
 30
0.0
 11
-569.4024421040709
 21
-15.71042562939624
 31
0.0
  0
LINE
  5
CB6
330
6B
100
AcDbEntity
  8
0
  6
ByBlock
 62
     0
370
    -2
100
AcDbLine
 10
-569.4024421040709
 20
-15.71042562939624
 30
0.0
 11
-570.0723146040709
 21
-13.21042562939624
 31
0.0
  0
LINE
  5
CB7
330
6B
100
AcDbEntity
  8
0
  6
ByBlock
 62
     0
370
    -2
100
AcDbLine
 10
-569.4024421040709
 20
-15.71042562939624
 30
0.0
 11
-569.4024421040709
 21
-13.21042562939624
 31
0.0
  0
TEXT
  5
CB8
330
6B
100
AcDbEntity
  8
0
  6
Continuous
 62
     4
100
AcDbText
 10
-544.2954944820718
 20
-30.98452099630004
 30
0.0
 40
3.0
  1
37
100
AcDbText
  0
LINE
  5
CB9
330
6B
100
AcDbEntity
  8
0
  6
ByBlock
 62
     0
370
    -2
100
AcDbLine
 10
-526.8523127290709
 20
-30.93964849630004
 30
0.0
 11
-524.3523127290709
 21
-31.60952099630004
 31
0.0
  0
LINE
  5
CBA
330
6B
100
AcDbEntity
  8
0
  6
ByBlock
 62
     0
370
    -2
100
AcDbLine
 10
-524.3523127290709
 20
-31.60952099630004
 30
0.0
 11
-526.8523127290709
 21
-32.27939349630004
 31
0.0
  0
LINE
  5
CBB
330
6B
100
AcDbEntity
  8
0
  6
ByBlock
 62
     0
370
    -2
100
AcDbLine
 10
-524.3523127290709
 20
-31.60952099630004
 30
0.0
 11
-526.8523127290709
 21
-31.60952099630004
 31
0.0
  0
LINE
  5
CBC
330
6B
100
AcDbEntity
  8
0
  6
ByBlock
 62
     0
370
    -2
100
AcDbLine
 10
-558.8523127290709
 20
-32.27939349630004
 30
0.0
 11
-561.3523127290709
 21
-31.60952099630004
 31
0.0
  0
LINE
  5
CBD
330
6B
100
AcDbEntity
  8
0
  6
ByBlock
 62
     0
370
    -2
100
AcDbLine
 10
-561.3523127290709
 20
-31.60952099630004
 30
0.0
 11
-558.8523127290709
 21
-30.93964849630004
 31
0.0
  0
LINE
  5
CBE
330
6B
100
AcDbEntity
  8
0
  6
ByBlock
 62
     0
370
    -2
100
AcDbLine
 10
-561.3523127290709
 20
-31.60952099630004
 30
0.0
 11
-558.8523127290709
 21
-31.60952099630004
 31
0.0
  0
TEXT
  5
CBF
330
6B
100
AcDbEntity
  8
0
  6
Continuous
 62
     4
100
AcDbText
 10
-472.1618421040708
 20
80.70203062060384
 30
0.0
 40
3.0
  1
26.5
100
AcDbText
  0
LINE
  5
CC0
330
6B
100
AcDbEntity
  8
0
  6
ByBlock
 62
     0
370
    -2
100
AcDbLine
 10
-456.9118421040708
 20
80.74690312060385
 30
0.0
 11
-454.4118421040708
 21
80.07703062060384
 31
0.0
  0
LINE
  5
CC1
330
6B
100
AcDbEntity
  8
0
  6
ByBlock
 62
     0
370
    -2
100
AcDbLine
 10
-454.4118421040708
 20
80.07703062060384
 30
0.0
 11
-456.9118421040708
 21
79.40715812060386
 31
0.0
  0
LINE
  5
CC2
330
6B
100
AcDbEntity
  8
0
  6
ByBlock
 62
     0
370
    -2
100
AcDbLine
 10
-454.4118421040708
 20
80.07703062060384
 30
0.0
 11
-456.9118421040708
 21
80.07703062060384
 31
0.0
  0
LINE
  5
CC3
330
6B
100
AcDbEntity
  8
0
  6
ByBlock
 62
     0
370
    -2
100
AcDbLine
 10
-478.4118421040708
 20
79.40715812060386
 30
0.0
 11
-480.9118421040708
 21
80.07703062060384
 31
0.0
  0
LINE
  5
CC4
330
6B
100
AcDbEntity
  8
0
  6
ByBlock
 62
     0
370
    -2
100
AcDbLine
 10
-480.9118421040708
 20
80.07703062060384
 30
0.0
 11
-478.4118421040708
 21
80.74690312060385
 31
0.0
  0
LINE
  5
CC5
330
6B
100
AcDbEntity
  8
0
  6
ByBlock
 62
     0
370
    -2
100
AcDbLine
 10
-480.9118421040708
 20
80.07703062060384
 30
0.0
 11
-478.4118421040708
 21
80.07703062060384
 31
0.0
  0
TEXT
  5
CC6
330
6B
100
AcDbEntity
  8
0
  6
Continuous
 62
     4
100
AcDbText
 10
-470.1618421040707
 20
74.8733499956038
 30
0.0
 40
3.0
  1
19.5
100
AcDbText
  0
LINE
  5
CC7
330
6B
100
AcDbEntity
  8
0
  6
ByBlock
 62
     0
370
    -2
100
AcDbLine
 10
-458.9118421040707
 20
74.9182224956038
 30
0.0
 11
-456.4118421040706
 21
74.2483499956038
 31
0.0
  0
LINE
  5
CC8
330
6B
100
AcDbEntity
  8
0
  6
ByBlock
 62
     0
370
    -2
100
AcDbLine
 10
-456.4118421040706
 20
74.2483499956038
 30
0.0
 11
-458.9118421040707
 21
73.57847749560381
 31
0.0
  0
LINE
  5
CC9
330
6B
100
AcDbEntity
  8
0
  6
ByBlock
 62
     0
370
    -2
100
AcDbLine
 10
-456.4118421040706
 20
74.2483499956038
 30
0.0
 11
-458.9118421040707
 21
74.2483499956038
 31
0.0
  0
LINE
  5
CCA
330
6B
100
AcDbEntity
  8
0
  6
ByBlock
 62
     0
370
    -2
100
AcDbLine
 10
-473.4118421040708
 20
73.57847749560381
 30
0.0
 11
-475.9118421040708
 21
74.2483499956038
 31
0.0
  0
LINE
  5
CCB
330
6B
100
AcDbEntity
  8
0
  6
ByBlock
 62
     0
370
    -2
100
AcDbLine
 10
-475.9118421040708
 20
74.2483499956038
 30
0.0
 11
-473.4118421040708
 21
74.9182224956038
 31
0.0
  0
LINE
  5
CCC
330
6B
100
AcDbEntity
  8
0
  6
ByBlock
 62
     0
370
    -2
100
AcDbLine
 10
-475.9118421040708
 20
74.2483499956038
 30
0.0
 11
-473.4118421040708
 21
74.2483499956038
 31
0.0
  0
TEXT
  5
CCD
330
6B
100
AcDbEntity
  8
0
  6
Continuous
 62
     4
100
AcDbText
 10
-543.8523127290709
 20
80.05308062060381
 30
0.0
 40
3.0
  1
34
100
AcDbText
  0
LINE
  5
CCE
330
6B
100
AcDbEntity
  8
0
  6
ByBlock
 62
     0
370
    -2
100
AcDbLine
 10
-526.8523127290709
 20
80.09795312060381
 30
0.0
 11
-524.3523127290709
 21
79.42808062060381
 31
0.0
  0
LINE
  5
CCF
330
6B
100
AcDbEntity
  8
0
  6
ByBlock
 62
     0
370
    -2
100
AcDbLine
 10
-524.3523127290709
 20
79.42808062060381
 30
0.0
 11
-526.8523127290709
 21
78.75820812060381
 31
0.0
  0
LINE
  5
CD0
330
6B
100
AcDbEntity
  8
0
  6
ByBlock
 62
     0
370
    -2
100
AcDbLine
 10
-524.3523127290709
 20
79.42808062060381
 30
0.0
 11
-526.8523127290709
 21
79.42808062060381
 31
0.0
  0
LINE
  5
CD1
330
6B
100
AcDbEntity
  8
0
  6
ByBlock
 62
     0
370
    -2
100
AcDbLine
 10
-555.8523127290709
 20
78.75820812060381
 30
0.0
 11
-558.3523127290709
 21
79.42808062060381
 31
0.0
  0
LINE
  5
CD2
330
6B
100
AcDbEntity
  8
0
  6
ByBlock
 62
     0
370
    -2
100
AcDbLine
 10
-558.3523127290709
 20
79.42808062060381
 30
0.0
 11
-555.8523127290709
 21
80.09795312060381
 31
0.0
  0
LINE
  5
CD3
330
6B
100
AcDbEntity
  8
0
  6
ByBlock
 62
     0
370
    -2
100
AcDbLine
 10
-558.3523127290709
 20
79.42808062060381
 30
0.0
 11
-555.8523127290709
 21
79.42808062060381
 31
0.0
  0
TEXT
  5
CD4
330
6B
100
AcDbEntity
  8
0
  6
Continuous
 62
     4
100
AcDbText
 10
-509.8502758540709
 20
20.03957437060366
 30
0.0
 40
3.0
  1
66.4
 50
90.0
100
AcDbText
  0
LINE
  5
CD5
330
6B
100
AcDbEntity
  8
0
  6
ByBlock
 62
     0
370
    -2
100
AcDbLine
 10
-509.8951483540709
 20
55.23957437060379
 30
0.0
 11
-509.2252758540708
 21
57.73957437060379
 31
0.0
  0
LINE
  5
CD6
330
6B
100
AcDbEntity
  8
0
  6
ByBlock
 62
     0
370
    -2
100
AcDbLine
 10
-509.2252758540708
 20
57.73957437060379
 30
0.0
 11
-508.5554033540709
 21
55.23957437060379
 31
0.0
  0
LINE
  5
CD7
330
6B
100
AcDbEntity
  8
0
  6
ByBlock
 62
     0
370
    -2
100
AcDbLine
 10
-509.2252758540708
 20
57.73957437060379
 30
0.0
 11
-509.2252758540708
 21
55.23957437060379
 31
0.0
  0
LINE
  5
CD8
330
6B
100
AcDbEntity
  8
0
  6
ByBlock
 62
     0
370
    -2
100
AcDbLine
 10
-508.5554033540709
 20
-6.160425629396318
 30
0.0
 11
-509.2252758540708
 21
-8.660425629396318
 31
0.0
  0
LINE
  5
CD9
330
6B
100
AcDbEntity
  8
0
  6
ByBlock
 62
     0
370
    -2
100
AcDbLine
 10
-509.2252758540708
 20
-8.660425629396318
 30
0.0
 11
-509.8951483540709
 21
-6.160425629396318
 31
0.0
  0
LINE
  5
CDA
330
6B
100
AcDbEntity
  8
0
  6
ByBlock
 62
     0
370
    -2
100
AcDbLine
 10
-509.2252758540708
 20
-8.660425629396318
 30
0.0
 11
-509.2252758540708
 21
-6.160425629396318
 31
0.0
  0
TEXT
  5
CDB
330
6B
100
AcDbEntity
  8
0
  6
Continuous
 62
     4
100
AcDbText
 10
-516.3741033540709
 20
22.03957437060366
 30
0.0
 40
3.0
  1
39
 50
90.0
100
AcDbText
  0
LINE
  5
CDC
330
6B
100
AcDbEntity
  8
0
  6
ByBlock
 62
     0
370
    -2
100
AcDbLine
 10
-516.4189758540709
 20
41.53957437060377
 30
0.0
 11
-515.7491033540709
 21
44.03957437060377
 31
0.0
  0
LINE
  5
CDD
330
6B
100
AcDbEntity
  8
0
  6
ByBlock
 62
     0
370
    -2
100
AcDbLine
 10
-515.7491033540709
 20
44.03957437060377
 30
0.0
 11
-515.0792308540709
 21
41.53957437060377
 31
0.0
  0
LINE
  5
CDE
330
6B
100
AcDbEntity
  8
0
  6
ByBlock
 62
     0
370
    -2
100
AcDbLine
 10
-515.7491033540709
 20
44.03957437060377
 30
0.0
 11
-515.7491033540709
 21
41.53957437060377
 31
0.0
  0
LINE
  5
CDF
330
6B
100
AcDbEntity
  8
0
  6
ByBlock
 62
     0
370
    -2
100
AcDbLine
 10
-515.0792308540709
 20
7.539574370603708
 30
0.0
 11
-515.7491033540709
 21
5.039574370603708
 31
0.0
  0
LINE
  5
CE0
330
6B
100
AcDbEntity
  8
0
  6
ByBlock
 62
     0
370
    -2
100
AcDbLine
 10
-515.7491033540709
 20
5.039574370603708
 30
0.0
 11
-516.4189758540709
 21
7.539574370603708
 31
0.0
  0
LINE
  5
CE1
330
6B
100
AcDbEntity
  8
0
  6
ByBlock
 62
     0
370
    -2
100
AcDbLine
 10
-515.7491033540709
 20
5.039574370603708
 30
0.0
 11
-515.7491033540709
 21
7.539574370603708
 31
0.0
  0
ARC
  5
CE2
330
6B
100
AcDbEntity
  8
0
  6
ByBlock
 62
     0
100
AcDbCircle
 10
-547.4851057509876
 20
47.03515055115345
 30
0.0
 40
0.1562499999999801
100
AcDbArc
 50
29.14860520095418
 51
209.1486052009542
  0
ARC
  5
CE3
330
6B
100
AcDbEntity
  8
0
  6
ByBlock
 62
     0
100
AcDbCircle
 10
-547.4851057509876
 20
47.03515055115345
 30
0.0
 40
0.1562499999999801
100
AcDbArc
 50
209.1486052009542
 51
29.14860520095418
  0
ARC
  5
CE4
330
6B
100
AcDbEntity
  8
0
  6
ByBlock
 62
     0
100
AcDbCircle
 10
-535.1992139790707
 20
46.68350624560377
 30
0.0
 40
0.1562499999999938
100
AcDbArc
 50
46.14521701195038
 51
226.1452170119504
  0
ARC
  5
CE5
330
6B
100
AcDbEntity
  8
0
  6
ByBlock
 62
     0
100
AcDbCircle
 10
-535.1992139790707
 20
46.68350624560377
 30
0.0
 40
0.1562499999999938
100
AcDbArc
 50
226.1452170119504
 51
46.14521701195038
  0
ARC
  5
CE6
330
6B
100
AcDbEntity
  8
0
  6
ByBlock
 62
     0
100
AcDbCircle
 10
-539.0014357936959
 20
36.08156141115387
 30
0.0
 40
0.1562500000000054
100
AcDbArc
 50
41.81038880839258
 51
221.8103888083926
  0
ARC
  5
CE7
330
6B
100
AcDbEntity
  8
0
  6
ByBlock
 62
     0
100
AcDbCircle
 10
-539.0014357936959
 20
36.08156141115387
 30
0.0
 40
0.1562500000000054
100
AcDbArc
 50
221.8103888083926
 51
41.81038880839258
  0
ARC
  5
CE8
330
6B
100
AcDbEntity
  8
0
  6
ByBlock
 62
     0
100
AcDbCircle
 10
-473.6419177290708
 20
48.04901874560377
 30
0.0
 40
0.156249999999979
100
AcDbArc
 50
26.45568420795092
 51
206.4556842079509
  0
ARC
  5
CE9
330
6B
100
AcDbEntity
  8
0
  6
ByBlock
 62
     0
100
AcDbCircle
 10
-473.6419177290708
 20
48.04901874560377
 30
0.0
 40
0.156249999999979
100
AcDbArc
 50
206.4556842079509
 51
26.45568420795092
  0
ARC
  5
CEA
330
6B
100
AcDbEntity
  8
0
  6
ByBlock
 62
     0
100
AcDbCircle
 10
-460.3957458540707
 20
46.06970562060378
 30
0.0
 40
0.1562499999999824
100
AcDbArc
 50
46.78866464938876
 51
226.7886646493888
  0
ARC
  5
CEB
330
6B
100
AcDbEntity
  8
0
  6
ByBlock
 62
     0
100
AcDbCircle
 10
-460.3957458540707
 20
46.06970562060378
 30
0.0
 40
0.1562499999999824
100
AcDbArc
 50
226.7886646493888
 51
46.78866464938876
  0
ARC
  5
CEC
330
6B
100
AcDbEntity
  8
0
  6
ByBlock
 62
     0
100
AcDbCircle
 10
-400.7905046040707
 20
52.93144124560377
 30
0.0
 40
0.1562500000000071
100
AcDbArc
 50
25.46602632148071
 51
205.4660263214807
  0
ARC
  5
CED
330
6B
100
AcDbEntity
  8
0
  6
ByBlock
 62
     0
100
AcDbCircle
 10
-400.7905046040707
 20
52.93144124560377
 30
0.0
 40
0.1562500000000071
100
AcDbArc
 50
205.4660263214807
 51
25.46602632148071
  0
ARC
  5
CEE
330
6B
100
AcDbEntity
  8
0
  6
ByBlock
 62
     0
100
AcDbCircle
 10
-388.8248508540708
 20
27.03785249560374
 30
0.0
 40
0.1562500000000268
100
AcDbArc
 50
354.8818154311596
 51
174.8818154311596
  0
ARC
  5
CEF
330
6B
100
AcDbEntity
  8
0
  6
ByBlock
 62
     0
100
AcDbCircle
 10
-388.8248508540708
 20
27.03785249560374
 30
0.0
 40
0.1562500000000268
100
AcDbArc
 50
174.8818154311596
 51
354.8818154311596
  0
ARC
  5
CF0
330
6B
100
AcDbEntity
  8
0
  6
ByBlock
 62
     0
100
AcDbCircle
 10
-402.0869333540706
 20
23.97916812060374
 30
0.0
 40
0.1562500000000151
100
AcDbArc
 50
341.706714608744
 51
161.706714608744
  0
ARC
  5
CF1
330
6B
100
AcDbEntity
  8
0
  6
ByBlock
 62
     0
100
AcDbCircle
 10
-402.0869333540706
 20
23.97916812060374
 30
0.0
 40
0.1562500000000151
100
AcDbArc
 50
161.706714608744
 51
341.706714608744
  0
ARC
  5
CF2
330
6B
100
AcDbEntity
  8
0
  6
ByBlock
 62
     0
100
AcDbCircle
 10
-402.0869333540706
 20
5.444564995603709
 30
0.0
 40
0.1562500000000092
100
AcDbArc
 50
356.136173047495
 51
176.136173047495
  0
ARC
  5
CF3
330
6B
100
AcDbEntity
  8
0
  6
ByBlock
 62
     0
100
AcDbCircle
 10
-402.0869333540706
 20
5.444564995603709
 30
0.0
 40
0.1562500000000092
100
AcDbArc
 50
176.136173047495
 51
356.136173047495
  0
ARC
  5
CF4
330
6B
100
AcDbEntity
  8
0
  6
ByBlock
 62
     0
100
AcDbCircle
 10
-388.1741514790706
 20
-5.282317504396306
 30
0.0
 40
0.1562500000000082
100
AcDbArc
 50
346.0998605645193
 51
166.0998605645192
  0
ARC
  5
CF5
330
6B
100
AcDbEntity
  8
0
  6
ByBlock
 62
     0
100
AcDbCircle
 10
-388.1741514790706
 20
-5.282317504396306
 30
0.0
 40
0.1562500000000082
100
AcDbArc
 50
166.0998605645192
 51
346.0998605645193
  0
ARC
  5
CF6
330
6B
100
AcDbEntity
  8
0
  6
ByBlock
 62
     0
100
AcDbCircle
 10
-389.2369733540708
 20
-11.06618250439627
 30
0.0
 40
0.1562500000000241
100
AcDbArc
 50
330.0702844822825
 51
150.0702844822825
  0
ARC
  5
CF7
330
6B
100
AcDbEntity
  8
0
  6
ByBlock
 62
     0
100
AcDbCircle
 10
-389.2369733540708
 20
-11.06618250439627
 30
0.0
 40
0.1562500000000241
100
AcDbArc
 50
150.0702844822825
 51
330.0702844822825
  0
ENDSEC
  0
SECTION
  2
OBJECTS
  0
DICTIONARY
  5
C
330
0
100
AcDbDictionary
281
     1
  3
ACAD_2007HEADERVARS_RT
350
CFC
  3
ACAD_COLOR
350
62
  3
ACAD_GROUP
350
D
  3
ACAD_LAYOUT
350
61
  3
ACAD_MATERIAL
350
10
  3
ACAD_MLEADERSTYLE
350
65
  3
ACAD_MLINESTYLE
350
5E
  3
ACAD_PLOTSETTINGS
350
60
  3
ACAD_PLOTSTYLENAME
350
E
  3
ACAD_SCALELIST
350
42
  3
ACAD_TABLESTYLE
350
63
  3
ACAD_VISUALSTYLE
350
29
  3
ACDB_RECOMPOSE_DATA
350
CFA
  3
AcDbVariableDictionary
350
B23
  3
AEC_PROPERTY_SET_DEFS
350
449
  3
DWGPROPS
350
CFB
  0
DICTIONARY
  5
438
330
2
100
AcDbDictionary
280
     1
281
     1
  3
ACAD_LAYERSTATES
360
439
  0
DICTIONARY
  5
B21
330
54
100
AcDbDictionary
280
     1
281
     1
  3
ADSK_XREC_LAYER_RECONCILED
360
B22
  0
DICTIONARY
  5
88C
330
6B
100
AcDbDictionary
280
     1
281
     1
  3
ACAD_SORTENTS
360
88D
  0
DICTIONARY
  5
CFC
102
{ACAD_REACTORS
330
C
102
}
330
C
100
AcDbDictionary
281
     1
  3
DIMARCSYM
350
CFE
  3
DIMFXL
350
CFD
  3
DIMJOGANG
350
CFF
  0
DICTIONARY
  5
62
102
{ACAD_REACTORS
330
C
102
}
330
C
100
AcDbDictionary
281
     1
  0
DICTIONARY
  5
D
102
{ACAD_REACTORS
330
C
102
}
330
C
100
AcDbDictionary
281
     1
  0
DICTIONARY
  5
61
102
{ACAD_REACTORS
330
C
102
}
330
C
100
AcDbDictionary
281
     1
  3
Model
350
6E
  3
レイアウト1
350
6A
  0
DICTIONARY
  5
10
102
{ACAD_REACTORS
330
C
102
}
330
C
100
AcDbDictionary
281
     1
  3
ByBlock
350
19
  3
ByLayer
350
11
  3
Global
350
21
  0
DICTIONARY
  5
65
102
{ACAD_REACTORS
330
C
102
}
330
C
100
AcDbDictionary
281
     1
  3
Standard
350
66
  0
DICTIONARY
  5
5E
102
{ACAD_REACTORS
330
C
102
}
330
C
100
AcDbDictionary
281
     1
  3
Standard
350
5F
  0
DICTIONARY
  5
60
102
{ACAD_REACTORS
330
C
102
}
330
C
100
AcDbDictionary
281
     1
  0
ACDBDICTIONARYWDFLT
  5
E
102
{ACAD_REACTORS
330
C
102
}
330
C
100
AcDbDictionary
281
     1
  3
Normal
350
F
100
AcDbDictionaryWithDefault
340
F
  0
DICTIONARY
  5
42
102
{ACAD_REACTORS
330
C
102
}
330
C
100
AcDbDictionary
281
     1
  3
A0
350
43
  3
A1
350
44
  3
A2
350
45
  3
A3
350
46
  3
A4
350
47
  3
A5
350
48
  3
A6
350
49
  3
A7
350
4A
  3
A8
350
4B
  3
A9
350
4C
  3
B0
350
4D
  3
B1
350
4E
  3
B2
350
4F
  3
B3
350
50
  3
B4
350
51
  3
B5
350
52
  3
B6
350
53
  0
DICTIONARY
  5
63
102
{ACAD_REACTORS
330
C
102
}
330
C
100
AcDbDictionary
281
     1
  3
Standard
350
64
  0
DICTIONARY
  5
29
102
{ACAD_REACTORS
330
C
102
}
330
C
100
AcDbDictionary
281
     1
  3
2dWireframe
350
2F
  3
3dWireframe
350
435
  3
Basic
350
2E
  3
Brighten
350
35
  3
ColorChange
350
39
  3
Conceptual
350
32
  3
Dim
350
34
  3
EdgeColorOff
350
41
  3
Facepattern
350
38
  3
Flat
350
2A
  3
FlatWithEdges
350
2B
  3
Gouraud
350
2C
  3
GouraudWithEdges
350
2D
  3
Hidden
350
31
  3
JitterOff
350
3F
  3
Linepattern
350
37
  3
OverhangOff
350
40
  3
Realistic
350
33
  3
Shaded
350
3E
  3
Shaded with edges
350
3D
  3
Shades of Gray
350
3A
  3
Sketchy
350
3B
  3
Thicken
350
36
  3
Wireframe
350
30
  3
X-Ray
350
3C
  0
XRECORD
  5
CFA
102
{ACAD_REACTORS
330
C
102
}
330
C
100
AcDbXrecord
280
     1
 90
        1
330
64
  0
DICTIONARY
  5
B23
102
{ACAD_REACTORS
330
C
102
}
330
C
100
AcDbDictionary
281
     1
  3
CANNOSCALE
350
B26
  3
CMLEADERSTYLE
350
B25
  3
CTABLESTYLE
350
B24
  3
DIMASSOC
350
B29
  3
INDEXCTL
350
B28
  3
SORTENTS
350
B27
  3
XCLIPFRAME
350
CF8
  0
DICTIONARY
  5
449
102
{ACAD_REACTORS
330
C
102
}
330
C
100
AcDbDictionary
281
     1
  0
XRECORD
  5
CFB
102
{ACAD_REACTORS
330
C
102
}
330
C
100
AcDbXrecord
280
     1
  1
DWGPROPS COOKIE
  2

  3

  4

  6

  7

  8
imamura
  9

300
=
301
=
302
=
303
=
304
=
305
=
306
=
307
=
308
=
309
=
 40
0.0237277546296296
 41
2457239.861523611
 42
2457240.470767917
  1

 90
        0
  0
DICTIONARY
  5
439
102
{ACAD_REACTORS
330
438
102
}
330
438
100
AcDbDictionary
281
     1
  0
XRECORD
  5
B22
102
{ACAD_REACTORS
330
B21
102
}
330
B21
100
AcDbXrecord
280
     1
290
     1
  0
SORTENTSTABLE
  5
88D
102
{ACAD_REACTORS
330
88C
102
}
330
88C
100
AcDbSortentsTable
330
6B
331
A97
  5
731
331
C95
  5
CEB
331
746
  5
C21
331
A93
  5
72D
331
ACE
  5
CF5
331
C91
  5
CF1
331
7BC
  5
CAF
331
742
  5
C1D
331
A8F
  5
729
331
ACA
  5
71B
331
CCC
  5
79E
331
A8B
  5
718
331
77D
  5
C58
331
7B8
  5
CAB
331
73E
  5
C19
331
6CF
  5
A67
331
C8D
  5
6E7
331
CC8
  5
7A0
331
779
  5
C54
331
7B4
  5
CA7
331
73A
  5
C15
331
C89
  5
6E3
331
6CB
  5
A63
331
371
  5
37C
331
7B0
  5
CA3
331
64C
  5
9FE
331
706
  5
A9E
331
36D
  5
378
331
648
  5
9FA
331
702
  5
A9A
331
369
  5
374
331
657
  5
A09
331
A1D
  5
651
331
653
  5
A05
331
A19
  5
64D
331
C1D
  5
CC8
331
68E
  5
A40
331
A15
  5
649
331
A54
  5
688
331
68A
  5
A3C
331
A11
  5
645
331
A50
  5
684
331
C54
  5
692
331
C50
  5
68E
331
AC6
  5
760
331
A87
  5
714
331
CC4
  5
7A7
331
AC2
  5
75C
331
775
  5
C50
331
736
  5
C11
331
62F
  5
7CE
331
C85
  5
6DF
331
ABE
  5
758
331
CC0
  5
7A9
331
A7F
  5
70E
331
771
  5
C4C
331
7AC
  5
C9F
331
732
  5
C0D
331
C81
  5
6DB
331
ABA
  5
754
331
CBC
  5
7B0
331
A7B
  5
70A
331
76D
  5
C48
331
7A8
  5
C9B
331
72E
  5
C09
331
644
  5
9F4
331
6FE
  5
A96
331
365
  5
370
331
C7D
  5
6D7
331
CB8
  5
7B6
331
769
  5
C44
331
7A4
  5
C97
331
72A
  5
ACF
331
640
  5
9A8
331
C79
  5
6D3
331
6FA
  5
A92
331
361
  5
36C
331
7A0
  5
C93
331
63C
  5
9A0
331
6F6
  5
A8E
331
35D
  5
368
331
638
  5
994
331
6F2
  5
A8A
331
359
  5
364
331
686
  5
A38
331
A0D
  5
641
331
A4C
  5
680
331
A48
  5
67C
331
682
  5
A34
331
A09
  5
63D
331
67E
  5
A30
331
C4C
  5
765
331
A05
  5
639
331
A44
  5
678
331
67A
  5
A2C
331
A01
  5
635
331
A40
  5
674
331
C44
  5
776
331
C40
  5
78E
331
CF4
  5
CD0
331
CF0
  5
CDC
331
AB6
  5
750
331
A77
  5
706
331
AB2
  5
74C
331
CB4
  5
7BF
331
A73
  5
702
331
765
  5
C40
331
726
  5
ABE
331
C75
  5
6CD
331
AAE
  5
748
331
CB0
  5
7C6
331
A6F
  5
6FE
331
761
  5
C3C
331
79C
  5
C8F
331
722
  5
ABA
331
C71
  5
6C3
331
AAA
  5
744
331
CAC
  5
7C8
331
A6B
  5
6FA
331
75D
  5
C38
331
798
  5
C75
331
71E
  5
AB6
331
634
  5
972
331
6EE
  5
A86
331
355
  5
360
331
C6D
  5
6BB
331
CA8
  5
CC4
331
759
  5
C34
331
794
  5
C6F
331
71A
  5
AB2
331
630
  5
7CF
331
C69
  5
6B3
331
6EA
  5
A82
331
351
  5
35C
331
790
  5
C6B
331
6E6
  5
A7E
331
34D
  5
358
331
6E2
  5
A7A
331
349
  5
354
331
7D0
  5
CC1
331
676
  5
A28
331
9FD
  5
631
331
A3C
  5
670
331
A38
  5
66C
331
672
  5
A24
331
9F9
  5
342
331
66E
  5
A20
331
9F5
  5
33E
331
A34
  5
668
331
66A
  5
A1C
331
C38
  5
799
331
A30
  5
664
331
CEC
  5
CE3
331
C34
  5
7A5
331
CE8
  5
CE9
331
CE4
  5
CEF
331
CE0
  5
76A
331
AA6
  5
740
331
A67
  5
6F6
331
AA2
  5
73C
331
A63
  5
6F2
331
755
  5
C30
331
7CF
  5
CC0
331
716
  5
AAE
331
C65
  5
6A7
331
A9E
  5
738
331
A5F
  5
6EE
331
751
  5
C2C
331
7CB
  5
CBC
331
712
  5
AAA
331
78C
  5
C67
331
C61
  5
69F
331
A9A
  5
734
331
A5B
  5
6EA
331
74D
  5
C28
331
7C7
  5
CBA
331
70E
  5
AA6
331
788
  5
C63
331
6DE
  5
A76
331
345
  5
350
331
384
  5
456
331
C5D
  5
69B
331
749
  5
C24
331
7C3
  5
CB6
331
70A
  5
AA2
331
784
  5
C5F
331
C59
  5
697
331
6DA
  5
A72
331
69B
  5
A4D
331
341
  5
34C
331
380
  5
452
331
780
  5
C5B
331
6D6
  5
A6E
331
697
  5
A49
331
6D2
  5
A6A
331
693
  5
A45
331
666
  5
A18
331
A2C
  5
660
331
662
  5
A14
331
A28
  5
65C
331
65E
  5
A10
331
C2C
  5
7AD
331
A24
  5
658
331
65A
  5
A0C
331
C28
  5
7B9
331
A20
  5
654
331
CDC
  5
76F
331
C20
  5
7C1
331
CD8
  5
77C
331
CD4
  5
788
331
CD0
  5
797
331
A96
  5
730
331
7BF
  5
CB2
331
745
  5
C20
331
A92
  5
72C
331
CCF
  5
796
331
7BB
  5
CAE
331
741
  5
C1C
331
A8E
  5
728
331
ACD
  5
726
331
AC9
  5
71A
331
CCB
  5
79D
331
A8A
  5
717
331
77C
  5
C57
331
7B7
  5
CAA
331
73D
  5
C18
331
C8C
  5
6E6
331
6CE
  5
A66
331
374
  5
37F
331
778
  5
C53
331
7B3
  5
CA6
331
739
  5
C14
331
64F
  5
A01
331
C88
  5
6E2
331
370
  5
37B
331
64B
  5
9FD
331
705
  5
A9D
331
6C6
  5
A62
331
36C
  5
377
331
701
  5
A99
331
6C2
  5
A60
331
368
  5
373
331
656
  5
A08
331
A1C
  5
650
331
A57
  5
68B
331
652
  5
A04
331
A18
  5
64C
331
68D
  5
A3F
331
A14
  5
648
331
A53
  5
687
331
689
  5
A3B
331
C57
  5
695
331
A10
  5
644
331
C53
  5
691
331
AC5
  5
75F
331
CC7
  5
79F
331
A86
  5
713
331
AC1
  5
75B
331
CC3
  5
7A6
331
A82
  5
711
331
774
  5
C4F
331
735
  5
C10
331
7AF
  5
CA2
331
62E
  5
7CD
331
C84
  5
6DE
331
ABD
  5
757
331
CBF
  5
7AC
331
A7E
  5
70D
331
770
  5
C4B
331
7AB
  5
C9E
331
731
  5
C0C
331
647
  5
9F9
331
C80
  5
6DA
331
AB9
  5
753
331
CBB
  5
7B5
331
A7A
  5
709
331
76C
  5
C47
331
7A7
  5
C9A
331
72D
  5
C08
331
643
  5
9F3
331
6FD
  5
A95
331
6BE
  5
A5E
331
364
  5
36F
331
C7C
  5
6D6
331
768
  5
C43
331
7A3
  5
C96
331
729
  5
ACE
331
63F
  5
9A7
331
C78
  5
6D0
331
6F9
  5
A91
331
6BA
  5
A5C
331
360
  5
36B
331
63B
  5
99F
331
6F5
  5
A8D
331
6B6
  5
A5A
331
35C
  5
367
331
6F1
  5
A89
331
6B2
  5
A58
331
358
  5
363
331
A4F
  5
683
331
685
  5
A37
331
A0C
  5
640
331
A4B
  5
67F
331
A47
  5
67B
331
681
  5
A33
331
A08
  5
63C
331
67D
  5
A2F
331
C4B
  5
764
331
A04
  5
638
331
A43
  5
677
331
679
  5
A2B
331
A00
  5
634
331
CF7
  5
CCC
331
CF3
  5
CD8
331
AB5
  5
74F
331
CB7
  5
7BC
331
A76
  5
705
331
AB1
  5
74B
331
CB3
  5
7BE
331
A72
  5
701
331
764
  5
C3F
331
79F
  5
C92
331
725
  5
ABD
331
C74
  5
6C8
331
AAD
  5
747
331
CAF
  5
7C5
331
A6E
  5
6FD
331
760
  5
C3B
331
79B
  5
C8E
331
721
  5
AB9
331
637
  5
993
331
C70
  5
6C0
331
AA9
  5
743
331
CAB
  5
7C7
331
A6A
  5
6F9
331
75C
  5
C37
331
797
  5
C72
331
71D
  5
AB5
331
633
  5
971
331
6ED
  5
A85
331
6AE
  5
A56
331
354
  5
35F
331
C6C
  5
6B8
331
758
  5
C33
331
719
  5
AB1
331
793
  5
C6E
331
972
  5
9F6
331
C68
  5
6B0
331
6E9
  5
A81
331
350
  5
35B
331
38F
  5
625
331
6E5
  5
A7D
331
6A6
  5
A54
331
34C
  5
357
331
6E1
  5
A79
331
6A2
  5
A52
331
348
  5
353
331
A3F
  5
673
331
675
  5
A27
331
A3B
  5
66F
331
A37
  5
66B
331
671
  5
A23
331
C3F
  5
78D
331
9F8
  5
341
331
66D
  5
A1F
331
9F4
  5
33D
331
A33
  5
667
331
CEF
  5
CE1
331
669
  5
A1B
331
CEB
  5
CE7
331
C33
  5
7A4
331
CE7
  5
CED
331
CE3
  5
CF3
331
AA5
  5
73F
331
CA7
  5
CC3
331
A66
  5
6F5
331
AA1
  5
73B
331
CA3
  5
CCE
331
A62
  5
6F1
331
754
  5
C2F
331
7CE
  5
CBF
331
715
  5
AAD
331
78F
  5
C6A
331
C64
  5
6A4
331
A9D
  5
737
331
C9F
  5
CDA
331
A5E
  5
6ED
331
750
  5
C2B
331
7CA
  5
CBB
331
711
  5
AA9
331
78B
  5
C66
331
C60
  5
69E
331
A99
  5
733
331
C9B
  5
CE2
331
A5A
  5
6E9
331
74C
  5
C27
331
7C6
  5
CB9
331
70D
  5
AA5
331
787
  5
C62
331
6DD
  5
A75
331
69E
  5
A50
331
344
  5
34F
331
383
  5
455
331
C5C
  5
69A
331
748
  5
C23
331
7C2
  5
CB5
331
709
  5
AA1
331
783
  5
C5E
331
C58
  5
696
331
6D9
  5
A71
331
69A
  5
A4C
331
340
  5
34B
331
37F
  5
451
331
6D5
  5
A6D
331
696
  5
A48
331
6D1
  5
A69
331
692
  5
A44
331
A2F
  5
663
331
665
  5
A17
331
A2B
  5
65F
331
661
  5
A13
331
A27
  5
65B
331
65D
  5
A0F
331
A23
  5
657
331
659
  5
A0B
331
C27
  5
7B8
331
CDF
  5
769
331
CDB
  5
775
331
CD7
  5
787
331
CD3
  5
794
331
C97
  5
CE8
331
A95
  5
72F
331
C93
  5
CEE
331
7BE
  5
CB1
331
744
  5
C1F
331
A91
  5
72B
331
C8F
  5
CF4
331
CCE
  5
795
331
77F
  5
C5A
331
7BA
  5
CAD
331
740
  5
C1B
331
A8D
  5
727
331
ACC
  5
725
331
AC8
  5
762
331
CCA
  5
79C
331
A89
  5
716
331
77B
  5
C56
331
7B6
  5
CA9
331
73C
  5
C17
331
C8B
  5
6E5
331
6CD
  5
A65
331
373
  5
37E
331
7B2
  5
CA5
331
738
  5
C13
331
64E
  5
A00
331
36F
  5
37A
331
64A
  5
9FC
331
704
  5
A9C
331
6C5
  5
A61
331
36B
  5
376
331
700
  5
A98
331
6C1
  5
A5F
331
A1F
  5
653
331
655
  5
A07
331
A1B
  5
64F
331
651
  5
A03
331
A17
  5
64B
331
A56
  5
68A
331
68C
  5
A3E
331
A13
  5
647
331
A52
  5
686
331
688
  5
A3A
331
C56
  5
694
331
C52
  5
690
331
AC4
  5
75E
331
CC6
  5
7A2
331
A85
  5
712
331
777
  5
C52
331
C87
  5
6E1
331
AC0
  5
75A
331
CC2
  5
7AB
331
A81
  5
710
331
773
  5
C4E
331
7AE
  5
CA1
331
734
  5
C0F
331
C83
  5
6DD
331
ABC
  5
756
331
CBE
  5
7B2
331
A7D
  5
70C
331
76F
  5
C4A
331
7AA
  5
C9D
331
730
  5
C0B
331
646
  5
9F8
331
367
  5
372
331
C7F
  5
6D9
331
AB8
  5
752
331
CBA
  5
7B4
331
A79
  5
708
331
76B
  5
C46
331
7A6
  5
C99
331
72C
  5
C05
331
642
  5
9F2
331
C7B
  5
6D5
331
6FC
  5
A94
331
6BD
  5
A5D
331
363
  5
36E
331
7A2
  5
C95
331
728
  5
AC0
331
63E
  5
9A6
331
6F8
  5
A90
331
6B9
  5
A5B
331
35F
  5
36A
331
63A
  5
99E
331
6F4
  5
A8C
331
6B5
  5
A59
331
35B
  5
366
331
6F0
  5
A88
331
6B1
  5
A57
331
A0F
  5
643
331
A4E
  5
682
331
A4A
  5
67E
331
684
  5
A36
331
A0B
  5
63F
331
A46
  5
67A
331
680
  5
A32
331
A07
  5
63B
331
67C
  5
A2E
331
C4A
  5
763
331
A03
  5
637
331
A42
  5
676
331
678
  5
A2A
331
C46
  5
77B
331
CF6
  5
CCA
331
CF2
  5
CD6
331
AB4
  5
74E
331
CB6
  5
7BB
331
A75
  5
704
331
767
  5
C42
331
C77
  5
6CF
331
AB0
  5
74A
331
CB2
  5
7BD
331
A71
  5
700
331
763
  5
C3E
331
79E
  5
C91
331
724
  5
ABC
331
C73
  5
6C7
331
AAC
  5
746
331
CAE
  5
7C4
331
A6D
  5
6FC
331
75F
  5
C3A
331
79A
  5
C8D
331
720
  5
AB8
331
636
  5
988
331
C6F
  5
6BF
331
357
  5
362
331
AA8
  5
742
331
CAA
  5
7CC
331
A69
  5
6F8
331
75B
  5
C36
331
796
  5
C71
331
71C
  5
AB4
331
632
  5
7D1
331
6EC
  5
A84
331
6AD
  5
A55
331
353
  5
35E
331
C6B
  5
6B7
331
718
  5
AB0
331
792
  5
C6D
331
971
  5
9F7
331
6E8
  5
A80
331
34F
  5
35A
331
6E4
  5
A7C
331
6A5
  5
A53
331
34B
  5
356
331
6E0
  5
A78
331
6A1
  5
A51
331
9FF
  5
633
331
A3E
  5
672
331
674
  5
A26
331
9FB
  5
344
331
A3A
  5
66E
331
A36
  5
66A
331
670
  5
A22
331
C3E
  5
789
331
9F7
  5
340
331
66C
  5
A1E
331
C3A
  5
79B
331
9F3
  5
33C
331
A32
  5
666
331
CEE
  5
CE0
331
668
  5
A1A
331
CEA
  5
CE6
331
C32
  5
7A3
331
CE6
  5
CEC
331
CE2
  5
CF2
331
AA4
  5
73E
331
CA6
  5
CC7
331
A65
  5
6F4
331
757
  5
C32
331
C67
  5
6AF
331
AA0
  5
73A
331
A61
  5
6F0
331
753
  5
C2E
331
7CD
  5
CBE
331
714
  5
AAC
331
78E
  5
C69
331
C63
  5
6A3
331
A9C
  5
736
331
A5D
  5
6EC
331
74F
  5
C2A
331
78A
  5
C65
331
710
  5
AA8
331
C5F
  5
69D
331
347
  5
352
331
A98
  5
732
331
74B
  5
C26
331
7C5
  5
CB8
331
70C
  5
AA4
331
786
  5
C61
331
6DC
  5
A74
331
69D
  5
A4F
331
343
  5
34E
331
382
  5
454
331
C5B
  5
699
331
7C1
  5
CB4
331
708
  5
AA0
331
782
  5
C5D
331
6D8
  5
A70
331
699
  5
A4B
331
33F
  5
34A
331
37E
  5
450
331
6D4
  5
A6C
331
695
  5
A47
331
37A
  5
38F
331
6D0
  5
A68
331
691
  5
A43
331
A2E
  5
662
331
664
  5
A16
331
A2A
  5
65E
331
660
  5
A12
331
C2E
  5
7AF
331
A26
  5
65A
331
65C
  5
A0E
331
A22
  5
656
331
658
  5
A0A
331
C26
  5
7B7
331
CDE
  5
771
331
C22
  5
7C3
331
CDA
  5
781
331
CD6
  5
783
331
CD2
  5
793
331
747
  5
C22
331
A94
  5
72E
331
ACF
  5
CF6
331
7BD
  5
CB0
331
743
  5
C1E
331
A90
  5
72A
331
ACB
  5
724
331
CCD
  5
798
331
A8C
  5
719
331
77E
  5
C59
331
7B9
  5
CAC
331
73F
  5
C1A
331
C8E
  5
6E8
331
CC9
  5
7A1
331
A88
  5
715
331
77A
  5
C55
331
7B5
  5
CA8
331
73B
  5
C16
331
C8A
  5
6E4
331
6CC
  5
A64
331
372
  5
37D
331
7B1
  5
CA4
331
64D
  5
9FF
331
707
  5
A9F
331
36E
  5
379
331
649
  5
9FB
331
703
  5
A9B
331
36A
  5
375
331
A1E
  5
652
331
654
  5
A06
331
A1A
  5
64E
331
68F
  5
A41
331
650
  5
A02
331
A16
  5
64A
331
A55
  5
689
331
68B
  5
A3D
331
A12
  5
646
331
A51
  5
685
331
C55
  5
693
331
C51
  5
68F
331
AC7
  5
761
331
CC5
  5
7A8
331
AC3
  5
75D
331
776
  5
C51
331
737
  5
C12
331
C86
  5
6E0
331
ABF
  5
759
331
CC1
  5
7AA
331
A80
  5
70F
331
772
  5
C4D
331
7AD
  5
CA0
331
733
  5
C0E
331
C82
  5
6DC
331
ABB
  5
755
331
CBD
  5
7B1
331
A7C
  5
70B
331
76E
  5
C49
331
7A9
  5
C9C
331
72F
  5
C0A
331
645
  5
9F5
331
6FF
  5
A97
331
366
  5
371
331
C7E
  5
6D8
331
CB9
  5
7B3
331
A78
  5
707
331
76A
  5
C45
331
7A5
  5
C98
331
72B
  5
AD8
331
641
  5
9A9
331
C7A
  5
6D4
331
6FB
  5
A93
331
362
  5
36D
331
7A1
  5
C94
331
63D
  5
9A5
331
6F7
  5
A8F
331
35E
  5
369
331
639
  5
995
331
6F3
  5
A8B
331
35A
  5
365
331
AD8
  5
CF7
331
687
  5
A39
331
A0E
  5
642
331
A4D
  5
681
331
A49
  5
67D
331
683
  5
A35
331
A0A
  5
63E
331
67F
  5
A31
331
A06
  5
63A
331
A45
  5
679
331
67B
  5
A2D
331
A02
  5
636
331
A41
  5
675
331
C45
  5
777
331
CF5
  5
CD2
331
CF1
  5
CDE
331
AB7
  5
751
331
AB3
  5
74D
331
CB5
  5
7BA
331
A74
  5
703
331
766
  5
C41
331
727
  5
ABF
331
C76
  5
6CE
331
AAF
  5
749
331
CB1
  5
7C0
331
A70
  5
6FF
331
762
  5
C3D
331
79D
  5
C90
331
723
  5
ABB
331
C72
  5
6C4
331
AAB
  5
745
331
CAD
  5
7C9
331
A6C
  5
6FB
331
75E
  5
C39
331
799
  5
C8C
331
71F
  5
AB7
331
635
  5
987
331
6EF
  5
A87
331
356
  5
361
331
C6E
  5
6BC
331
CA9
  5
CC5
331
A68
  5
6F7
331
75A
  5
C35
331
795
  5
C70
331
71B
  5
AB3
331
631
  5
7D0
331
C6A
  5
6B4
331
6EB
  5
A83
331
352
  5
35D
331
791
  5
C6C
331
6E7
  5
A7F
331
34E
  5
359
331
6E3
  5
A7B
331
34A
  5
355
331
7D1
  5
CC2
331
677
  5
A29
331
9FE
  5
632
331
A3D
  5
671
331
A39
  5
66D
331
673
  5
A25
331
9FA
  5
343
331
A35
  5
669
331
66F
  5
A21
331
9F6
  5
33F
331
66B
  5
A1D
331
C39
  5
79A
331
9F2
  5
331
331
A31
  5
665
331
CED
  5
CE4
331
CE9
  5
CEA
331
CE5
  5
CF0
331
CE1
  5
76B
331
AA7
  5
741
331
AA3
  5
73D
331
CA5
  5
CC6
331
A64
  5
6F3
331
756
  5
C31
331
717
  5
AAF
331
C66
  5
6A8
331
A9F
  5
739
331
CA1
  5
CD4
331
A60
  5
6EF
331
752
  5
C2D
331
7CC
  5
CBD
331
713
  5
AAB
331
78D
  5
C68
331
C62
  5
6A0
331
A9B
  5
735
331
C9D
  5
CDF
331
A5C
  5
6EB
331
74E
  5
C29
331
789
  5
C64
331
70F
  5
AA7
331
C5E
  5
69C
331
6DF
  5
A77
331
346
  5
351
331
C99
  5
CE5
331
74A
  5
C25
331
7C4
  5
CB7
331
70B
  5
AA3
331
785
  5
C60
331
C5A
  5
698
331
6DB
  5
A73
331
69C
  5
A4E
331
342
  5
34D
331
381
  5
453
331
A58
  5
68C
331
7C0
  5
CB3
331
781
  5
C5C
331
6D7
  5
A6F
331
698
  5
A4A
331
37D
  5
44F
331
6D3
  5
A6B
331
694
  5
A46
331
379
  5
384
331
690
  5
A42
331
667
  5
A19
331
A2D
  5
661
331
663
  5
A15
331
A29
  5
65D
331
65F
  5
A11
331
C2D
  5
7AE
331
A25
  5
659
331
65B
  5
A0D
331
A21
  5
655
331
CDD
  5
770
331
C21
  5
7C2
331
CD9
  5
77D
331
CD5
  5
782
331
CD1
  5
78F
  0
XRECORD
  5
CFE
102
{ACAD_REACTORS
330
CFC
102
}
330
CFC
100
AcDbXrecord
280
     1
 70
     2
  0
XRECORD
  5
CFD
102
{ACAD_REACTORS
330
CFC
102
}
330
CFC
100
AcDbXrecord
280
     1
 40
1.25
  0
XRECORD
  5
CFF
102
{ACAD_REACTORS
330
CFC
102
}
330
CFC
100
AcDbXrecord
280
     1
 40
1.570796326794896
  0
LAYOUT
  5
6E
102
{ACAD_XDICTIONARY
360
D33
102
}
102
{ACAD_REACTORS
330
61
102
}
330
61
100
AcDbPlotSettings
  1

  2
FX DP 205
  4

  6

 40
0.0
 41
0.0
 42
0.0
 43
0.0
 44
0.0
 45
0.0
 46
0.0
 47
0.0
 48
0.0
 49
0.0
140
0.0
141
0.0
142
1.0
143
1.0
 70
  1712
 72
     0
 73
     0
 74
     0
  7

 75
     0
147
1.0
148
0.0
149
0.0
100
AcDbLayout
  1
Model
 70
     1
 71
     0
 10
0.0
 20
0.0
 11
12.0
 21
9.0
 12
0.0
 22
0.0
 32
0.0
 14
0.0
 24
0.0
 34
0.0
 15
0.0
 25
0.0
 35
0.0
146
0.0
 13
0.0
 23
0.0
 33
0.0
 16
1.0
 26
0.0
 36
0.0
 17
0.0
 27
1.0
 37
0.0
 76
     0
330
6B
331
8B
  0
LAYOUT
  5
6A
102
{ACAD_XDICTIONARY
360
D31
102
}
102
{ACAD_REACTORS
330
61
102
}
330
61
100
AcDbPlotSettings
  1

  2
FX DP 205
  4

  6

 40
0.0
 41
0.0
 42
0.0
 43
0.0
 44
0.0
 45
0.0
 46
0.0
 47
0.0
 48
0.0
 49
0.0
140
0.0
141
0.0
142
1.0
143
1.0
 70
   688
 72
     0
 73
     0
 74
     5
  7

 75
    16
147
1.0
148
0.0
149
0.0
100
AcDbLayout
  1
レイアウト1
 70
     1
 71
     1
 10
0.0
 20
0.0
 11
12.0
 21
9.0
 12
0.0
 22
0.0
 32
0.0
 14
1.000000000000000E+20
 24
1.000000000000000E+20
 34
1.000000000000000E+20
 15
-1.000000000000000E+20
 25
-1.000000000000000E+20
 35
-1.000000000000000E+20
146
0.0
 13
0.0
 23
0.0
 33
0.0
 16
1.0
 26
0.0
 36
0.0
 17
0.0
 27
1.0
 37
0.0
 76
     0
330
67
  0
MATERIAL
  5
19
102
{ACAD_XDICTIONARY
360
1A
102
}
102
{ACAD_REACTORS
330
10
102
}
330
10
100
AcDbMaterial
  1
ByBlock
 72
     0
 43
0.0208333333333333
 43
0.0
 43
0.0
 43
0.0
 43
0.0
 43
0.0208333333333333
 43
0.0
 43
0.0
 43
0.0
 43
0.0
 43
1.0
 43
0.0
 43
0.0
 43
0.0
 43
0.0
 43
1.0
 77
     0
 47
0.0208333333333333
 47
0.0
 47
0.0
 47
0.0
 47
0.0
 47
0.0208333333333333
 47
0.0
 47
0.0
 47
0.0
 47
0.0
 47
1.0
 47
0.0
 47
0.0
 47
0.0
 47
0.0
 47
1.0
171
     0
 49
0.0208333333333333
 49
0.0
 49
0.0
 49
0.0
 49
0.0
 49
0.0208333333333333
 49
0.0
 49
0.0
 49
0.0
 49
0.0
 49
1.0
 49
0.0
 49
0.0
 49
0.0
 49
0.0
 49
1.0
175
     0
142
0.0208333333333333
142
0.0
142
0.0
142
0.0
142
0.0
142
0.0208333333333333
142
0.0
142
0.0
142
0.0
142
0.0
142
1.0
142
0.0
142
0.0
142
0.0
142
0.0
142
1.0
179
     0
144
0.0208333333333333
144
0.0
144
0.0
144
0.0
144
0.0
144
0.0208333333333333
144
0.0
144
0.0
144
0.0
144
0.0
144
1.0
144
0.0
144
0.0
144
0.0
144
0.0
144
1.0
147
0.0208333333333333
147
0.0
147
0.0
147
0.0
147
0.0
147
0.0208333333333333
147
0.0
147
0.0
147
0.0
147
0.0
147
1.0
147
0.0
147
0.0
147
0.0
147
0.0
147
1.0
  0
MATERIAL
  5
11
102
{ACAD_XDICTIONARY
360
12
102
}
102
{ACAD_REACTORS
330
10
102
}
330
10
100
AcDbMaterial
  1
ByLayer
 72
     0
 43
0.0208333333333333
 43
0.0
 43
0.0
 43
0.0
 43
0.0
 43
0.0208333333333333
 43
0.0
 43
0.0
 43
0.0
 43
0.0
 43
1.0
 43
0.0
 43
0.0
 43
0.0
 43
0.0
 43
1.0
 77
     0
 47
0.0208333333333333
 47
0.0
 47
0.0
 47
0.0
 47
0.0
 47
0.0208333333333333
 47
0.0
 47
0.0
 47
0.0
 47
0.0
 47
1.0
 47
0.0
 47
0.0
 47
0.0
 47
0.0
 47
1.0
171
     0
 49
0.0208333333333333
 49
0.0
 49
0.0
 49
0.0
 49
0.0
 49
0.0208333333333333
 49
0.0
 49
0.0
 49
0.0
 49
0.0
 49
1.0
 49
0.0
 49
0.0
 49
0.0
 49
0.0
 49
1.0
175
     0
142
0.0208333333333333
142
0.0
142
0.0
142
0.0
142
0.0
142
0.0208333333333333
142
0.0
142
0.0
142
0.0
142
0.0
142
1.0
142
0.0
142
0.0
142
0.0
142
0.0
142
1.0
179
     0
144
0.0208333333333333
144
0.0
144
0.0
144
0.0
144
0.0
144
0.0208333333333333
144
0.0
144
0.0
144
0.0
144
0.0
144
1.0
144
0.0
144
0.0
144
0.0
144
0.0
144
1.0
147
0.0208333333333333
147
0.0
147
0.0
147
0.0
147
0.0
147
0.0208333333333333
147
0.0
147
0.0
147
0.0
147
0.0
147
1.0
147
0.0
147
0.0
147
0.0
147
0.0
147
1.0
  0
MATERIAL
  5
21
102
{ACAD_XDICTIONARY
360
22
102
}
102
{ACAD_REACTORS
330
10
102
}
330
10
100
AcDbMaterial
  1
Global
 72
     0
 43
0.0208333333333333
 43
0.0
 43
0.0
 43
0.0
 43
0.0
 43
0.0208333333333333
 43
0.0
 43
0.0
 43
0.0
 43
0.0
 43
1.0
 43
0.0
 43
0.0
 43
0.0
 43
0.0
 43
1.0
 77
     0
 47
0.0208333333333333
 47
0.0
 47
0.0
 47
0.0
 47
0.0
 47
0.0208333333333333
 47
0.0
 47
0.0
 47
0.0
 47
0.0
 47
1.0
 47
0.0
 47
0.0
 47
0.0
 47
0.0
 47
1.0
171
     0
 49
0.0208333333333333
 49
0.0
 49
0.0
 49
0.0
 49
0.0
 49
0.0208333333333333
 49
0.0
 49
0.0
 49
0.0
 49
0.0
 49
1.0
 49
0.0
 49
0.0
 49
0.0
 49
0.0
 49
1.0
175
     0
142
0.0208333333333333
142
0.0
142
0.0
142
0.0
142
0.0
142
0.0208333333333333
142
0.0
142
0.0
142
0.0
142
0.0
142
1.0
142
0.0
142
0.0
142
0.0
142
0.0
142
1.0
179
     0
144
0.0208333333333333
144
0.0
144
0.0
144
0.0
144
0.0
144
0.0208333333333333
144
0.0
144
0.0
144
0.0
144
0.0
144
1.0
144
0.0
144
0.0
144
0.0
144
0.0
144
1.0
147
0.0208333333333333
147
0.0
147
0.0
147
0.0
147
0.0
147
0.0208333333333333
147
0.0
147
0.0
147
0.0
147
0.0
147
1.0
147
0.0
147
0.0
147
0.0
147
0.0
147
1.0
  0
MLEADERSTYLE
  5
66
102
{ACAD_REACTORS
330
65
102
}
330
65
100
AcDbMLeaderStyle
170
     2
171
     1
172
     0
 90
        2
 40
0.0
 41
0.0
173
     1
 91
-1056964608
340
5A
 92
       -2
290
     1
 42
0.09
291
     1
 43
0.36
  3
Standard
 44
0.18
300

342
55
174
     1
178
     6
175
     1
176
     0
 93
-1056964608
 45
0.18
292
     0
297
     0
 46
0.18
 94
-1056964608
 47
1.0
 49
1.0
140
1.0
293
     1
141
0.0
294
     1
177
     0
142
1.0
295
     0
296
     0
143
0.125
1001
ACAD_MLEADERVER
1070
     2
  0
MLINESTYLE
  5
5F
102
{ACAD_REACTORS
330
5E
102
}
330
5E
100
AcDbMlineStyle
  2
STANDARD
 70
     0
  3

 62
   256
 51
90.0
 52
90.0
 71
     2
 49
0.5
 62
   256
  6
BYLAYER
 49
-0.5
 62
   256
  6
BYLAYER
  0
ACDBPLACEHOLDER
  5
F
102
{ACAD_REACTORS
330
E
102
}
330
E
  0
SCALE
  5
43
102
{ACAD_REACTORS
330
42
102
}
330
42
100
AcDbScale
 70
     0
300
1:1
140
1.0
141
1.0
290
     1
  0
SCALE
  5
44
102
{ACAD_REACTORS
330
42
102
}
330
42
100
AcDbScale
 70
     0
300
1/128" = 1'-0"
140
0.0078125
141
12.0
290
     0
  0
SCALE
  5
45
102
{ACAD_REACTORS
330
42
102
}
330
42
100
AcDbScale
 70
     0
300
1/64" = 1'-0"
140
0.015625
141
12.0
290
     0
  0
SCALE
  5
46
102
{ACAD_REACTORS
330
42
102
}
330
42
100
AcDbScale
 70
     0
300
1/32" = 1'-0"
140
0.03125
141
12.0
290
     0
  0
SCALE
  5
47
102
{ACAD_REACTORS
330
42
102
}
330
42
100
AcDbScale
 70
     0
300
1/16" = 1'-0"
140
0.0625
141
12.0
290
     0
  0
SCALE
  5
48
102
{ACAD_REACTORS
330
42
102
}
330
42
100
AcDbScale
 70
     0
300
3/32" = 1'-0"
140
0.09375
141
12.0
290
     0
  0
SCALE
  5
49
102
{ACAD_REACTORS
330
42
102
}
330
42
100
AcDbScale
 70
     0
300
1/8" = 1'-0"
140
0.125
141
12.0
290
     0
  0
SCALE
  5
4A
102
{ACAD_REACTORS
330
42
102
}
330
42
100
AcDbScale
 70
     0
300
3/16" = 1'-0"
140
0.1875
141
12.0
290
     0
  0
SCALE
  5
4B
102
{ACAD_REACTORS
330
42
102
}
330
42
100
AcDbScale
 70
     0
300
1/4" = 1'-0"
140
0.25
141
12.0
290
     0
  0
SCALE
  5
4C
102
{ACAD_REACTORS
330
42
102
}
330
42
100
AcDbScale
 70
     0
300
3/8" = 1'-0"
140
0.375
141
12.0
290
     0
  0
SCALE
  5
4D
102
{ACAD_REACTORS
330
42
102
}
330
42
100
AcDbScale
 70
     0
300
1/2" = 1'-0"
140
0.5
141
12.0
290
     0
  0
SCALE
  5
4E
102
{ACAD_REACTORS
330
42
102
}
330
42
100
AcDbScale
 70
     0
300
3/4" = 1'-0"
140
0.75
141
12.0
290
     0
  0
SCALE
  5
4F
102
{ACAD_REACTORS
330
42
102
}
330
42
100
AcDbScale
 70
     0
300
1" = 1'-0"
140
1.0
141
12.0
290
     0
  0
SCALE
  5
50
102
{ACAD_REACTORS
330
42
102
}
330
42
100
AcDbScale
 70
     0
300
1-1/2" = 1'-0"
140
1.5
141
12.0
290
     0
  0
SCALE
  5
51
102
{ACAD_REACTORS
330
42
102
}
330
42
100
AcDbScale
 70
     0
300
3" = 1'-0"
140
3.0
141
12.0
290
     0
  0
SCALE
  5
52
102
{ACAD_REACTORS
330
42
102
}
330
42
100
AcDbScale
 70
     0
300
6" = 1'-0"
140
6.0
141
12.0
290
     0
  0
SCALE
  5
53
102
{ACAD_REACTORS
330
42
102
}
330
42
100
AcDbScale
 70
     0
300
1'-0" = 1'-0"
140
12.0
141
12.0
290
     0
  0
TABLESTYLE
  5
64
102
{ACAD_XDICTIONARY
360
B2B
102
}
102
{ACAD_REACTORS
330
63
102
}
330
63
100
AcDbTableStyle
  3
Standard
 70
     0
 71
     0
 40
0.06
 41
0.06
280
     0
281
     0
  7
STANDARD
140
0.18
170
     2
 62
     0
 63
     7
283
     0
274
    -2
284
     1
 64
     0
275
    -2
285
     1
 65
     0
276
    -2
286
     1
 66
     0
277
    -2
287
     1
 67
     0
278
    -2
288
     1
 68
     0
279
    -2
289
     1
 69
     0
  7
STANDARD
140
0.25
170
     5
 62
     0
 63
     7
283
     0
274
    -2
284
     1
 64
     0
275
    -2
285
     1
 65
     0
276
    -2
286
     1
 66
     0
277
    -2
287
     1
 67
     0
278
    -2
288
     1
 68
     0
279
    -2
289
     1
 69
     0
  7
STANDARD
140
0.18
170
     5
 62
     0
 63
     7
283
     0
274
    -2
284
     1
 64
     0
275
    -2
285
     1
 65
     0
276
    -2
286
     1
 66
     0
277
    -2
287
     1
 67
     0
278
    -2
288
     1
 68
     0
279
    -2
289
     1
 69
     0
  0
VISUALSTYLE
  5
2F
102
{ACAD_XDICTIONARY
360
D0A
102
}
102
{ACAD_REACTORS
330
29
102
}
330
29
100
AcDbVisualStyle
  2

 70
     4
 71
     0
 72
     2
 73
     0
 90
        0
 40
-0.6
 41
-30.0
 62
     5
 63
     7
 74
     1
 91
        4
 64
     7
 65
   257
 75
     1
175
     1
 42
1.0
 92
        0
 66
   257
 43
1.0
 76
     1
 77
     6
 78
     2
 67
     7
 79
     5
170
     0
171
     0
290
     0
174
     0
 93
        1
 44
0.0
173
     0
291
     0
 45
0.0
1001
ACAD
1000
AcDbSavedByObjectVersion
1070
     0
  0
VISUALSTYLE
  5
435
102
{ACAD_XDICTIONARY
360
D35
102
}
102
{ACAD_REACTORS
330
29
102
}
330
29
100
AcDbVisualStyle
  2

 70
     5
 71
     0
 72
     2
 73
     1
 90
        0
 40
-0.6
 41
-30.0
 62
     5
 63
     7
 74
     1
 91
        4
 64
     7
 65
   257
 75
     1
175
     1
 42
1.0
 92
        0
 66
   257
 43
1.0
 76
     1
 77
     6
 78
     2
 67
     7
 79
     5
170
     0
171
     0
290
     0
174
     0
 93
        1
 44
0.0
173
     0
291
     0
 45
0.0
1001
ACAD
1000
AcDbSavedByObjectVersion
1070
     0
  0
VISUALSTYLE
  5
2E
102
{ACAD_XDICTIONARY
360
D08
102
}
102
{ACAD_REACTORS
330
29
102
}
330
29
100
AcDbVisualStyle
  2

 70
     7
 71
     1
 72
     0
 73
     1
 90
        0
 40
-0.6
 41
-30.0
 62
     5
 63
     7
 74
     0
 91
        4
 64
     7
 65
   257
 75
     1
175
     1
 42
1.0
 92
        8
 66
     7
 43
1.0
 76
     1
 77
     6
 78
     2
 67
     7
 79
     5
170
     0
171
     0
290
     0
174
     0
 93
        1
 44
0.0
173
     0
291
     1
 45
0.0
1001
ACAD
1000
AcDbSavedByObjectVersion
1070
     0
  0
VISUALSTYLE
  5
35
102
{ACAD_XDICTIONARY
360
D16
102
}
102
{ACAD_REACTORS
330
29
102
}
330
29
100
AcDbVisualStyle
  2

 70
    12
 71
     2
 72
     2
 73
     0
 90
        0
 40
-0.6
 41
-30.0
 62
     5
 63
     7
 74
     1
 91
        4
 64
     7
 65
   257
 75
     1
175
     1
 42
1.0
 92
        8
 66
     7
 43
1.0
 76
     1
 77
     6
 78
     2
 67
     7
 79
     5
170
     0
171
     0
290
     0
174
     0
 93
        1
 44
50.0
173
     0
291
     1
 45
0.0
1001
ACAD
1000
AcDbSavedByObjectVersion
1070
     0
  0
VISUALSTYLE
  5
39
102
{ACAD_XDICTIONARY
360
D1E
102
}
102
{ACAD_REACTORS
330
29
102
}
330
29
100
AcDbVisualStyle
  2

 70
    16
 71
     2
 72
     2
 73
     3
 90
        0
 40
-0.6
 41
-30.0
 62
     5
 63
     8
 74
     1
 91
        4
 64
     7
 65
   257
 75
     1
175
     1
 42
1.0
 92
        8
 66
     8
 43
1.0
 76
     1
 77
     6
 78
     2
 67
     7
 79
     5
170
     0
171
     0
290
     0
174
     0
 93
        1
 44
0.0
173
     0
291
     1
 45
0.0
1001
ACAD
1000
AcDbSavedByObjectVersion
1070
     0
  0
VISUALSTYLE
  5
32
102
{ACAD_XDICTIONARY
360
D10
102
}
102
{ACAD_REACTORS
330
29
102
}
330
29
100
AcDbVisualStyle
  2

 70
     9
 71
     3
 72
     2
 73
     0
 90
        0
 40
-0.6
 41
-30.0
 62
     5
 63
     7
 74
     2
 91
        2
 64
     7
 65
   257
 75
     1
175
     1
 42
179.0
 92
        8
 66
     7
 43
1.0
 76
     1
 77
     6
 78
     2
 67
     7
 79
     3
170
     0
171
     0
290
     0
174
     0
 93
        1
 44
0.0
173
     0
291
     0
 45
0.0
1001
ACAD
1000
AcDbSavedByObjectVersion
1070
     0
  0
VISUALSTYLE
  5
34
102
{ACAD_XDICTIONARY
360
D14
102
}
102
{ACAD_REACTORS
330
29
102
}
330
29
100
AcDbVisualStyle
  2

 70
    11
 71
     2
 72
     2
 73
     0
 90
        0
 40
-0.6
 41
-30.0
 62
     5
 63
     7
 74
     1
 91
        4
 64
     7
 65
   257
 75
     1
175
     1
 42
1.0
 92
        8
 66
     7
 43
1.0
 76
     1
 77
     6
 78
     2
 67
     7
 79
     5
170
     0
171
     0
290
     0
174
     0
 93
        1
 44
-50.0
173
     0
291
     1
 45
0.0
1001
ACAD
1000
AcDbSavedByObjectVersion
1070
     0
  0
VISUALSTYLE
  5
41
102
{ACAD_XDICTIONARY
360
D2E
102
}
102
{ACAD_REACTORS
330
29
102
}
330
29
100
AcDbVisualStyle
  2

 70
    22
 71
     2
 72
     2
 73
     0
 90
        0
 40
-0.6
 41
-30.0
 62
     5
 63
     7
 74
     1
 91
        4
 64
     7
 65
   257
 75
     1
175
     1
 42
1.0
 92
        8
 66
     7
 43
1.0
 76
     1
 77
     6
 78
     2
 67
     7
 79
     5
170
     0
171
     0
290
     0
174
     0
 93
        1
 44
0.0
173
     0
291
     1
 45
0.0
1001
ACAD
1000
AcDbSavedByObjectVersion
1070
     0
  0
VISUALSTYLE
  5
38
102
{ACAD_XDICTIONARY
360
D1C
102
}
102
{ACAD_REACTORS
330
29
102
}
330
29
100
AcDbVisualStyle
  2

 70
    15
 71
     2
 72
     2
 73
     0
 90
        0
 40
-0.6
 41
-30.0
 62
     5
 63
     7
 74
     1
 91
        4
 64
     7
 65
   257
 75
     1
175
     1
 42
1.0
 92
        8
 66
     7
 43
1.0
 76
     1
 77
     6
 78
     2
 67
     7
 79
     5
170
     0
171
     0
290
     0
174
     0
 93
        1
 44
0.0
173
     0
291
     1
 45
0.0
1001
ACAD
1000
AcDbSavedByObjectVersion
1070
     0
  0
VISUALSTYLE
  5
2A
102
{ACAD_XDICTIONARY
360
D00
102
}
102
{ACAD_REACTORS
330
29
102
}
330
29
100
AcDbVisualStyle
  2

 70
     0
 71
     2
 72
     1
 73
     1
 90
        2
 40
-0.6
 41
30.0
 62
     5
 63
     7
 74
     0
 91
        0
 64
     7
 65
   257
 75
     1
175
     1
 42
1.0
 92
        8
 66
     7
 43
1.0
 76
     1
 77
     6
 78
     2
 67
     7
 79
     5
170
     0
171
     0
290
     0
174
     0
 93
       13
 44
0.0
173
     0
291
     1
 45
0.0
1001
ACAD
1000
AcDbSavedByObjectVersion
1070
     0
  0
VISUALSTYLE
  5
2B
102
{ACAD_XDICTIONARY
360
D02
102
}
102
{ACAD_REACTORS
330
29
102
}
330
29
100
AcDbVisualStyle
  2

 70
     1
 71
     2
 72
     1
 73
     1
 90
        2
 40
-0.6
 41
30.0
 62
     5
 63
     7
 74
     1
 91
        0
 64
     7
 65
   257
 75
     1
175
     1
 42
1.0
 92
        0
 66
   257
 43
1.0
 76
     1
 77
     6
 78
     2
 67
     7
 79
     5
170
     0
171
     0
290
     0
174
     0
 93
       13
 44
0.0
173
     0
291
     1
 45
0.0
1001
ACAD
1000
AcDbSavedByObjectVersion
1070
     0
  0
VISUALSTYLE
  5
2C
102
{ACAD_XDICTIONARY
360
D04
102
}
102
{ACAD_REACTORS
330
29
102
}
330
29
100
AcDbVisualStyle
  2

 70
     2
 71
     2
 72
     2
 73
     1
 90
        2
 40
-0.6
 41
30.0
 62
     5
 63
     7
 74
     0
 91
        0
 64
     7
 65
   257
 75
     1
175
     1
 42
1.0
 92
        0
 66
     7
 43
1.0
 76
     1
 77
     6
 78
     2
 67
     7
 79
     5
170
     0
171
     0
290
     0
174
     0
 93
       13
 44
0.0
173
     0
291
     1
 45
0.0
1001
ACAD
1000
AcDbSavedByObjectVersion
1070
     0
  0
VISUALSTYLE
  5
2D
102
{ACAD_XDICTIONARY
360
D06
102
}
102
{ACAD_REACTORS
330
29
102
}
330
29
100
AcDbVisualStyle
  2

 70
     3
 71
     2
 72
     2
 73
     1
 90
        2
 40
-0.6
 41
30.0
 62
     5
 63
     7
 74
     1
 91
        0
 64
     7
 65
   257
 75
     1
175
     1
 42
1.0
 92
        0
 66
   257
 43
1.0
 76
     1
 77
     6
 78
     2
 67
     7
 79
     5
170
     0
171
     0
290
     0
174
     0
 93
       13
 44
0.0
173
     0
291
     1
 45
0.0
1001
ACAD
1000
AcDbSavedByObjectVersion
1070
     0
  0
VISUALSTYLE
  5
31
102
{ACAD_XDICTIONARY
360
D0E
102
}
102
{ACAD_REACTORS
330
29
102
}
330
29
100
AcDbVisualStyle
  2

 70
     6
 71
     1
 72
     2
 73
     2
 90
        0
 40
-0.6
 41
-30.0
 62
     5
 63
     7
 74
     2
 91
        2
 64
     7
 65
   257
 75
     2
175
     1
 42
40.0
 92
        0
 66
   257
 43
1.0
 76
     1
 77
     6
 78
     2
 67
     7
 79
     3
170
     0
171
     0
290
     0
174
     0
 93
        1
 44
0.0
173
     0
291
     0
 45
0.0
1001
ACAD
1000
AcDbSavedByObjectVersion
1070
     0
  0
VISUALSTYLE
  5
3F
102
{ACAD_XDICTIONARY
360
D2A
102
}
102
{ACAD_REACTORS
330
29
102
}
330
29
100
AcDbVisualStyle
  2

 70
    20
 71
     2
 72
     2
 73
     0
 90
        0
 40
-0.6
 41
-30.0
 62
     5
 63
     7
 74
     1
 91
        4
 64
     7
 65
   257
 75
     1
175
     1
 42
1.0
 92
       10
 66
     7
 43
1.0
 76
     1
 77
     6
 78
     2
 67
     7
 79
     5
170
     0
171
     0
290
     0
174
     0
 93
        1
 44
0.0
173
     0
291
     1
 45
0.0
1001
ACAD
1000
AcDbSavedByObjectVersion
1070
     0
  0
VISUALSTYLE
  5
37
102
{ACAD_XDICTIONARY
360
D1A
102
}
102
{ACAD_REACTORS
330
29
102
}
330
29
100
AcDbVisualStyle
  2

 70
    14
 71
     2
 72
     2
 73
     0
 90
        0
 40
-0.6
 41
-30.0
 62
     5
 63
     7
 74
     1
 91
        4
 64
     7
 65
   257
 75
     7
175
     7
 42
1.0
 92
        8
 66
     7
 43
1.0
 76
     1
 77
     6
 78
     2
 67
     7
 79
     5
170
     0
171
     0
290
     0
174
     0
 93
        1
 44
0.0
173
     0
291
     1
 45
0.0
1001
ACAD
1000
AcDbSavedByObjectVersion
1070
     0
  0
VISUALSTYLE
  5
40
102
{ACAD_XDICTIONARY
360
D2C
102
}
102
{ACAD_REACTORS
330
29
102
}
330
29
100
AcDbVisualStyle
  2

 70
    21
 71
     2
 72
     2
 73
     0
 90
        0
 40
-0.6
 41
-30.0
 62
     5
 63
     7
 74
     1
 91
        4
 64
     7
 65
   257
 75
     1
175
     1
 42
1.0
 92
        9
 66
     7
 43
1.0
 76
     1
 77
     6
 78
     2
 67
     7
 79
     5
170
     0
171
     0
290
     0
174
     0
 93
        1
 44
0.0
173
     0
291
     1
 45
0.0
1001
ACAD
1000
AcDbSavedByObjectVersion
1070
     0
  0
VISUALSTYLE
  5
33
102
{ACAD_XDICTIONARY
360
D12
102
}
102
{ACAD_REACTORS
330
29
102
}
330
29
100
AcDbVisualStyle
  2

 70
     8
 71
     2
 72
     3
 73
     0
 90
        2
 40
-0.6
 41
30.0
 62
     5
 63
     7
 74
     0
 91
        0
 64
     7
 65
   257
 75
     1
175
     1
 42
1.0
 92
        8
 66
   257
 43
1.0
 76
     1
 77
     6
 78
     2
 67
     7
 79
     3
170
     0
171
     0
290
     0
174
     0
 93
       13
 44
0.0
173
     0
291
     0
 45
0.0
1001
ACAD
1000
AcDbSavedByObjectVersion
1070
     0
  0
VISUALSTYLE
  5
3E
102
{ACAD_XDICTIONARY
360
D28
102
}
102
{ACAD_REACTORS
330
29
102
}
330
29
100
AcDbVisualStyle
  2

 70
    27
 71
     2
 72
     2
 73
     1
 90
        2
 40
-0.6
 41
30.0
 62
     5
 63
     7
 74
     0
 91
        4
 64
     7
 65
   257
 75
     1
175
     1
 42
1.0
 92
        8
 66
   257
 43
1.0
 76
     1
 77
     6
 78
     2
 67
     8
 79
     3
170
     0
171
     0
290
     0
174
     0
 93
        5
 44
0.0
173
     0
291
     0
 45
0.0
1001
ACAD
1000
AcDbSavedByObjectVersion
1070
     0
  0
VISUALSTYLE
  5
3D
102
{ACAD_XDICTIONARY
360
D26
102
}
102
{ACAD_REACTORS
330
29
102
}
330
29
100
AcDbVisualStyle
  2

 70
    26
 71
     2
 72
     2
 73
     1
 90
        2
 40
-0.6
 41
30.0
 62
     5
 63
     7
 74
     1
 91
       10
 64
     7
 65
   257
 75
     2
175
     1
 42
1.0
 92
        8
 66
   257
 43
1.0
 76
     1
 77
     6
 78
     2
 67
     7
 79
     3
170
     0
171
     0
290
     0
174
     0
 93
        5
 44
0.0
173
     0
291
     0
 45
0.0
1001
ACAD
1000
AcDbSavedByObjectVersion
1070
     0
  0
VISUALSTYLE
  5
3A
102
{ACAD_XDICTIONARY
360
D20
102
}
102
{ACAD_REACTORS
330
29
102
}
330
29
100
AcDbVisualStyle
  2

 70
    23
 71
     2
 72
     2
 73
     3
 90
        0
 40
-0.6
 41
-30.0
 62
     5
 63
     7
 74
     2
 91
        2
 64
     7
 65
     7
 75
     1
175
     1
 42
40.0
 92
        8
 66
     7
 43
1.0
 76
     1
 77
     6
 78
     2
 67
     7
 79
     3
170
     0
171
     0
290
     0
174
     0
 93
        1
 44
0.0
173
     0
291
     0
 45
0.0
1001
ACAD
1000
AcDbSavedByObjectVersion
1070
     0
  0
VISUALSTYLE
  5
3B
102
{ACAD_XDICTIONARY
360
D22
102
}
102
{ACAD_REACTORS
330
29
102
}
330
29
100
AcDbVisualStyle
  2

 70
    24
 71
     1
 72
     2
 73
     2
 90
        0
 40
-0.6
 41
-30.0
 62
     5
 63
     7
 74
     2
 91
        2
 64
     7
 65
     7
 75
     1
175
     1
 42
40.0
 92
       11
 66
     7
 43
1.0
 76
     1
 77
     6
 78
     2
 67
     7
 79
     6
170
     0
171
     0
290
     0
174
     0
 93
        1
 44
0.0
173
     0
291
     0
 45
0.0
1001
ACAD
1000
AcDbSavedByObjectVersion
1070
     0
  0
VISUALSTYLE
  5
36
102
{ACAD_XDICTIONARY
360
D18
102
}
102
{ACAD_REACTORS
330
29
102
}
330
29
100
AcDbVisualStyle
  2

 70
    13
 71
     2
 72
     2
 73
     0
 90
        0
 40
-0.6
 41
-30.0
 62
     5
 63
     7
 74
     1
 91
        4
 64
     7
 65
   257
 75
     1
175
     1
 42
1.0
 92
       12
 66
     7
 43
1.0
 76
     1
 77
     6
 78
     2
 67
     7
 79
     5
170
     0
171
     0
290
     0
174
     0
 93
        1
 44
0.0
173
     0
291
     1
 45
0.0
1001
ACAD
1000
AcDbSavedByObjectVersion
1070
     0
  0
VISUALSTYLE
  5
30
102
{ACAD_XDICTIONARY
360
D0C
102
}
102
{ACAD_REACTORS
330
29
102
}
330
29
100
AcDbVisualStyle
  2

 70
     5
 71
     0
 72
     2
 73
     0
 90
        0
 40
-0.6
 41
-30.0
 62
     5
 63
     7
 74
     1
 91
        4
 64
     7
 65
   257
 75
     1
175
     1
 42
1.0
 92
        0
 66
   257
 43
1.0
 76
     1
 77
     6
 78
     2
 67
     7
 79
     3
170
     0
171
     0
290
     0
174
     0
 93
        1
 44
0.0
173
     0
291
     0
 45
0.0
1001
ACAD
1000
AcDbSavedByObjectVersion
1070
     0
  0
VISUALSTYLE
  5
3C
102
{ACAD_XDICTIONARY
360
D24
102
}
102
{ACAD_REACTORS
330
29
102
}
330
29
100
AcDbVisualStyle
  2

 70
    25
 71
     2
 72
     2
 73
     1
 90
        1
 40
0.5
 41
-30.0
 62
     5
 63
     7
 74
     1
 91
        0
 64
     7
 65
   257
 75
     1
175
     1
 42
1.0
 92
        8
 66
     7
 43
1.0
 76
     1
 77
     6
 78
     2
 67
     7
 79
     3
170
     0
171
     0
290
     0
174
     0
 93
       13
 44
0.0
173
     0
291
     0
 45
0.0
1001
ACAD
1000
AcDbSavedByObjectVersion
1070
     0
  0
DICTIONARYVAR
  5
B26
102
{ACAD_REACTORS
330
B23
102
}
330
B23
100
DictionaryVariables
280
     0
  1
1:1
  0
DICTIONARYVAR
  5
B25
102
{ACAD_REACTORS
330
B23
102
}
330
B23
100
DictionaryVariables
280
     0
  1
STANDARD
  0
DICTIONARYVAR
  5
B24
102
{ACAD_REACTORS
330
B23
102
}
330
B23
100
DictionaryVariables
280
     0
  1
STANDARD
  0
DICTIONARYVAR
  5
B29
102
{ACAD_REACTORS
330
B23
102
}
330
B23
100
DictionaryVariables
280
     0
  1
1
  0
DICTIONARYVAR
  5
B28
102
{ACAD_REACTORS
330
B23
102
}
330
B23
100
DictionaryVariables
280
     0
  1
0
  0
DICTIONARYVAR
  5
B27
102
{ACAD_REACTORS
330
B23
102
}
330
B23
100
DictionaryVariables
280
     0
  1
127
  0
DICTIONARYVAR
  5
CF8
102
{ACAD_REACTORS
330
B23
102
}
330
B23
100
DictionaryVariables
280
     0
  1
2
  0
DICTIONARY
  5
D33
330
6E
100
AcDbDictionary
280
     1
281
     1
  3
ACAD_XREC_ROUNDTRIP
360
D34
  0
DICTIONARY
  5
D31
330
6A
100
AcDbDictionary
280
     1
281
     1
  3
ACAD_XREC_ROUNDTRIP
360
D32
  0
DICTIONARY
  5
1A
330
19
100
AcDbDictionary
280
     1
281
     1
  3
ACAD_XREC_ROUNDTRIP
360
B34
  3
BUMPTILE
360
1C
  3
DIFFUSETILE
360
1B
  3
OPACITYTILE
360
1F
  3
REFLECTIONTILE
360
1E
  3
REFRACTIONTILE
360
20
  3
SPECULARTILE
360
1D
  0
DICTIONARY
  5
12
330
11
100
AcDbDictionary
280
     1
281
     1
  3
ACAD_XREC_ROUNDTRIP
360
B33
  3
BUMPTILE
360
14
  3
DIFFUSETILE
360
13
  3
OPACITYTILE
360
17
  3
REFLECTIONTILE
360
16
  3
REFRACTIONTILE
360
18
  3
SPECULARTILE
360
15
  0
DICTIONARY
  5
22
330
21
100
AcDbDictionary
280
     1
281
     1
  3
ACAD_XREC_ROUNDTRIP
360
B35
  3
BUMPTILE
360
24
  3
DIFFUSETILE
360
23
  3
OPACITYTILE
360
27
  3
REFLECTIONTILE
360
26
  3
REFRACTIONTILE
360
28
  3
SPECULARTILE
360
25
  0
DICTIONARY
  5
B2B
330
64
100
AcDbDictionary
280
     1
281
     1
  3
ACAD_ROUNDTRIP_2008_TABLESTYLE_CELLSTYLEMAP
360
CF9
  3
ACAD_XREC_ROUNDTRIP
360
D30
  0
DICTIONARY
  5
D0A
330
2F
100
AcDbDictionary
280
     1
281
     1
  3
ACAD_XREC_ROUNDTRIP
360
D0B
  0
DICTIONARY
  5
D35
330
435
100
AcDbDictionary
280
     1
281
     1
  3
ACAD_XREC_ROUNDTRIP
360
D36
  0
DICTIONARY
  5
D08
330
2E
100
AcDbDictionary
280
     1
281
     1
  3
ACAD_XREC_ROUNDTRIP
360
D09
  0
DICTIONARY
  5
D16
330
35
100
AcDbDictionary
280
     1
281
     1
  3
ACAD_XREC_ROUNDTRIP
360
D17
  0
DICTIONARY
  5
D1E
330
39
100
AcDbDictionary
280
     1
281
     1
  3
ACAD_XREC_ROUNDTRIP
360
D1F
  0
DICTIONARY
  5
D10
330
32
100
AcDbDictionary
280
     1
281
     1
  3
ACAD_XREC_ROUNDTRIP
360
D11
  0
DICTIONARY
  5
D14
330
34
100
AcDbDictionary
280
     1
281
     1
  3
ACAD_XREC_ROUNDTRIP
360
D15
  0
DICTIONARY
  5
D2E
330
41
100
AcDbDictionary
280
     1
281
     1
  3
ACAD_XREC_ROUNDTRIP
360
D2F
  0
DICTIONARY
  5
D1C
330
38
100
AcDbDictionary
280
     1
281
     1
  3
ACAD_XREC_ROUNDTRIP
360
D1D
  0
DICTIONARY
  5
D00
330
2A
100
AcDbDictionary
280
     1
281
     1
  3
ACAD_XREC_ROUNDTRIP
360
D01
  0
DICTIONARY
  5
D02
330
2B
100
AcDbDictionary
280
     1
281
     1
  3
ACAD_XREC_ROUNDTRIP
360
D03
  0
DICTIONARY
  5
D04
330
2C
100
AcDbDictionary
280
     1
281
     1
  3
ACAD_XREC_ROUNDTRIP
360
D05
  0
DICTIONARY
  5
D06
330
2D
100
AcDbDictionary
280
     1
281
     1
  3
ACAD_XREC_ROUNDTRIP
360
D07
  0
DICTIONARY
  5
D0E
330
31
100
AcDbDictionary
280
     1
281
     1
  3
ACAD_XREC_ROUNDTRIP
360
D0F
  0
DICTIONARY
  5
D2A
330
3F
100
AcDbDictionary
280
     1
281
     1
  3
ACAD_XREC_ROUNDTRIP
360
D2B
  0
DICTIONARY
  5
D1A
330
37
100
AcDbDictionary
280
     1
281
     1
  3
ACAD_XREC_ROUNDTRIP
360
D1B
  0
DICTIONARY
  5
D2C
330
40
100
AcDbDictionary
280
     1
281
     1
  3
ACAD_XREC_ROUNDTRIP
360
D2D
  0
DICTIONARY
  5
D12
330
33
100
AcDbDictionary
280
     1
281
     1
  3
ACAD_XREC_ROUNDTRIP
360
D13
  0
DICTIONARY
  5
D28
330
3E
100
AcDbDictionary
280
     1
281
     1
  3
ACAD_XREC_ROUNDTRIP
360
D29
  0
DICTIONARY
  5
D26
330
3D
100
AcDbDictionary
280
     1
281
     1
  3
ACAD_XREC_ROUNDTRIP
360
D27
  0
DICTIONARY
  5
D20
330
3A
100
AcDbDictionary
280
     1
281
     1
  3
ACAD_XREC_ROUNDTRIP
360
D21
  0
DICTIONARY
  5
D22
330
3B
100
AcDbDictionary
280
     1
281
     1
  3
ACAD_XREC_ROUNDTRIP
360
D23
  0
DICTIONARY
  5
D18
330
36
100
AcDbDictionary
280
     1
281
     1
  3
ACAD_XREC_ROUNDTRIP
360
D19
  0
DICTIONARY
  5
D0C
330
30
100
AcDbDictionary
280
     1
281
     1
  3
ACAD_XREC_ROUNDTRIP
360
D0D
  0
DICTIONARY
  5
D24
330
3C
100
AcDbDictionary
280
     1
281
     1
  3
ACAD_XREC_ROUNDTRIP
360
D25
  0
XRECORD
  5
D34
102
{ACAD_REACTORS
330
D33
102
}
330
D33
100
AcDbXrecord
280
     1
102
SHADEPLOT
 70
     0
102
SHADEPLOTRESLEVEL
 70
     2
102
SHADEPLOTCUSTOMDPI
 70
   300
  0
XRECORD
  5
D32
102
{ACAD_REACTORS
330
D31
102
}
330
D31
100
AcDbXrecord
280
     1
102
SHADEPLOT
 70
     0
102
SHADEPLOTRESLEVEL
 70
     2
102
SHADEPLOTCUSTOMDPI
 70
   300
  0
XRECORD
  5
B34
102
{ACAD_REACTORS
330
1A
102
}
330
1A
100
AcDbXrecord
280
     1
102
MATERIAL
148
0.0
149
0.0
149
0.0
 93
        0
 94
      127
282
     0
 72
     0
 77
     0
171
     0
175
     0
179
     0
273
     0
  0
XRECORD
  5
1C
102
{ACAD_REACTORS
330
1A
102
}
330
1A
100
AcDbXrecord
280
     1
270
     1
271
     1
  0
XRECORD
  5
1B
102
{ACAD_REACTORS
330
1A
102
}
330
1A
100
AcDbXrecord
280
     1
270
     1
271
     1
  0
XRECORD
  5
1F
102
{ACAD_REACTORS
330
1A
102
}
330
1A
100
AcDbXrecord
280
     1
270
     1
271
     1
  0
XRECORD
  5
1E
102
{ACAD_REACTORS
330
1A
102
}
330
1A
100
AcDbXrecord
280
     1
270
     1
271
     1
  0
XRECORD
  5
20
102
{ACAD_REACTORS
330
1A
102
}
330
1A
100
AcDbXrecord
280
     1
270
     1
271
     1
  0
XRECORD
  5
1D
102
{ACAD_REACTORS
330
1A
102
}
330
1A
100
AcDbXrecord
280
     1
270
     1
271
     1
  0
XRECORD
  5
B33
102
{ACAD_REACTORS
330
12
102
}
330
12
100
AcDbXrecord
280
     1
102
MATERIAL
148
0.0
149
0.0
149
0.0
 93
        0
 94
      127
282
     0
 72
     0
 77
     0
171
     0
175
     0
179
     0
273
     0
  0
XRECORD
  5
14
102
{ACAD_REACTORS
330
12
102
}
330
12
100
AcDbXrecord
280
     1
270
     1
271
     1
  0
XRECORD
  5
13
102
{ACAD_REACTORS
330
12
102
}
330
12
100
AcDbXrecord
280
     1
270
     1
271
     1
  0
XRECORD
  5
17
102
{ACAD_REACTORS
330
12
102
}
330
12
100
AcDbXrecord
280
     1
270
     1
271
     1
  0
XRECORD
  5
16
102
{ACAD_REACTORS
330
12
102
}
330
12
100
AcDbXrecord
280
     1
270
     1
271
     1
  0
XRECORD
  5
18
102
{ACAD_REACTORS
330
12
102
}
330
12
100
AcDbXrecord
280
     1
270
     1
271
     1
  0
XRECORD
  5
15
102
{ACAD_REACTORS
330
12
102
}
330
12
100
AcDbXrecord
280
     1
270
     1
271
     1
  0
XRECORD
  5
B35
102
{ACAD_REACTORS
330
22
102
}
330
22
100
AcDbXrecord
280
     1
102
MATERIAL
148
0.0
149
0.0
149
0.0
 93
        0
 94
      127
282
     0
 72
     0
 77
     0
171
     0
175
     0
179
     0
273
     0
  0
XRECORD
  5
24
102
{ACAD_REACTORS
330
22
102
}
330
22
100
AcDbXrecord
280
     1
270
     1
271
     1
  0
XRECORD
  5
23
102
{ACAD_REACTORS
330
22
102
}
330
22
100
AcDbXrecord
280
     1
270
     1
271
     1
  0
XRECORD
  5
27
102
{ACAD_REACTORS
330
22
102
}
330
22
100
AcDbXrecord
280
     1
270
     1
271
     1
  0
XRECORD
  5
26
102
{ACAD_REACTORS
330
22
102
}
330
22
100
AcDbXrecord
280
     1
270
     1
271
     1
  0
XRECORD
  5
28
102
{ACAD_REACTORS
330
22
102
}
330
22
100
AcDbXrecord
280
     1
270
     1
271
     1
  0
XRECORD
  5
25
102
{ACAD_REACTORS
330
22
102
}
330
22
100
AcDbXrecord
280
     1
270
     1
271
     1
  0
CELLSTYLEMAP
  5
CF9
102
{ACAD_REACTORS
330
B2B
102
}
330
B2B
100
AcDbCellStyleMap
 90
        3
300
CELLSTYLE
  1
TABLEFORMAT_BEGIN
 90
        5
170
     1
 91
        0
 92
    32768
 62
   257
 93
        1
300
CONTENTFORMAT
  1
CONTENTFORMAT_BEGIN
 90
        0
 91
        0
 92
      512
 93
        0
300

 40
0.0
140
1.0
 94
        5
 62
     0
340
55
144
0.25
309
CONTENTFORMAT_END
171
     1
301
MARGIN
  1
CELLMARGIN_BEGIN
 40
0.06
 40
0.06
 40
0.06
 40
0.06
 40
0.18
 40
0.18
309
CELLMARGIN_END
 94
        6
 95
        1
302
GRIDFORMAT
  1
GRIDFORMAT_BEGIN
 90
        0
 91
        1
 62
     0
 92
       -2
340
0
 93
        0
 40
0.045
309
GRIDFORMAT_END
 95
        2
302
GRIDFORMAT
  1
GRIDFORMAT_BEGIN
 90
        0
 91
        1
 62
     0
 92
       -2
340
0
 93
        0
 40
0.045
309
GRIDFORMAT_END
 95
        4
302
GRIDFORMAT
  1
GRIDFORMAT_BEGIN
 90
        0
 91
        1
 62
     0
 92
       -2
340
0
 93
        0
 40
0.045
309
GRIDFORMAT_END
 95
        8
302
GRIDFORMAT
  1
GRIDFORMAT_BEGIN
 90
        0
 91
        1
 62
     0
 92
       -2
340
0
 93
        0
 40
0.045
309
GRIDFORMAT_END
 95
       16
302
GRIDFORMAT
  1
GRIDFORMAT_BEGIN
 90
        0
 91
        1
 62
     0
 92
       -2
340
0
 93
        0
 40
0.045
309
GRIDFORMAT_END
 95
       32
302
GRIDFORMAT
  1
GRIDFORMAT_BEGIN
 90
        0
 91
        1
 62
     0
 92
       -2
340
0
 93
        0
 40
0.045
309
GRIDFORMAT_END
309
TABLEFORMAT_END
  1
CELLSTYLE_BEGIN
 90
        1
 91
        1
300
_TITLE
309
CELLSTYLE_END
300
CELLSTYLE
  1
TABLEFORMAT_BEGIN
 90
        5
170
     1
 91
        0
 92
        0
 62
   257
 93
        1
300
CONTENTFORMAT
  1
CONTENTFORMAT_BEGIN
 90
        0
 91
        0
 92
      512
 93
        0
300

 40
0.0
140
1.0
 94
        5
 62
     0
340
55
144
0.18
309
CONTENTFORMAT_END
171
     1
301
MARGIN
  1
CELLMARGIN_BEGIN
 40
0.06
 40
0.06
 40
0.06
 40
0.06
 40
0.18
 40
0.18
309
CELLMARGIN_END
 94
        6
 95
        1
302
GRIDFORMAT
  1
GRIDFORMAT_BEGIN
 90
        0
 91
        1
 62
     0
 92
       -2
340
0
 93
        0
 40
0.045
309
GRIDFORMAT_END
 95
        2
302
GRIDFORMAT
  1
GRIDFORMAT_BEGIN
 90
        0
 91
        1
 62
     0
 92
       -2
340
0
 93
        0
 40
0.045
309
GRIDFORMAT_END
 95
        4
302
GRIDFORMAT
  1
GRIDFORMAT_BEGIN
 90
        0
 91
        1
 62
     0
 92
       -2
340
0
 93
        0
 40
0.045
309
GRIDFORMAT_END
 95
        8
302
GRIDFORMAT
  1
GRIDFORMAT_BEGIN
 90
        0
 91
        1
 62
     0
 92
       -2
340
0
 93
        0
 40
0.045
309
GRIDFORMAT_END
 95
       16
302
GRIDFORMAT
  1
GRIDFORMAT_BEGIN
 90
        0
 91
        1
 62
     0
 92
       -2
340
0
 93
        0
 40
0.045
309
GRIDFORMAT_END
 95
       32
302
GRIDFORMAT
  1
GRIDFORMAT_BEGIN
 90
        0
 91
        1
 62
     0
 92
       -2
340
0
 93
        0
 40
0.045
309
GRIDFORMAT_END
309
TABLEFORMAT_END
  1
CELLSTYLE_BEGIN
 90
        2
 91
        1
300
_HEADER
309
CELLSTYLE_END
300
CELLSTYLE
  1
TABLEFORMAT_BEGIN
 90
        5
170
     1
 91
        0
 92
        0
 62
   257
 93
        1
300
CONTENTFORMAT
  1
CONTENTFORMAT_BEGIN
 90
        0
 91
        0
 92
      512
 93
        0
300

 40
0.0
140
1.0
 94
        2
 62
     0
340
55
144
0.18
309
CONTENTFORMAT_END
171
     1
301
MARGIN
  1
CELLMARGIN_BEGIN
 40
0.06
 40
0.06
 40
0.06
 40
0.06
 40
0.18
 40
0.18
309
CELLMARGIN_END
 94
        6
 95
        1
302
GRIDFORMAT
  1
GRIDFORMAT_BEGIN
 90
        0
 91
        1
 62
     0
 92
       -2
340
0
 93
        0
 40
0.045
309
GRIDFORMAT_END
 95
        2
302
GRIDFORMAT
  1
GRIDFORMAT_BEGIN
 90
        0
 91
        1
 62
     0
 92
       -2
340
0
 93
        0
 40
0.045
309
GRIDFORMAT_END
 95
        4
302
GRIDFORMAT
  1
GRIDFORMAT_BEGIN
 90
        0
 91
        1
 62
     0
 92
       -2
340
0
 93
        0
 40
0.045
309
GRIDFORMAT_END
 95
        8
302
GRIDFORMAT
  1
GRIDFORMAT_BEGIN
 90
        0
 91
        1
 62
     0
 92
       -2
340
0
 93
        0
 40
0.045
309
GRIDFORMAT_END
 95
       16
302
GRIDFORMAT
  1
GRIDFORMAT_BEGIN
 90
        0
 91
        1
 62
     0
 92
       -2
340
0
 93
        0
 40
0.045
309
GRIDFORMAT_END
 95
       32
302
GRIDFORMAT
  1
GRIDFORMAT_BEGIN
 90
        0
 91
        1
 62
     0
 92
       -2
340
0
 93
        0
 40
0.045
309
GRIDFORMAT_END
309
TABLEFORMAT_END
  1
CELLSTYLE_BEGIN
 90
        3
 91
        2
300
_DATA
309
CELLSTYLE_END
  0
XRECORD
  5
D30
102
{ACAD_REACTORS
330
B2B
102
}
330
B2B
100
AcDbXrecord
280
     1
102
ACAD_ROUNDTRIP_PRE2007_TABLESTYLE
 90
      512
 91
        0
  1

 92
      512
 93
        0
  2

 94
      512
 95
        0
  3

  0
XRECORD
  5
D0B
102
{ACAD_REACTORS
330
D0A
102
}
330
D0A
100
AcDbXrecord
280
     1
102
RTVSPropertyOp0
 70
     1
102
RTVSPropertyOp1
 70
     1
102
RTVSPropertyOp2
 70
     1
102
RTVSPropertyOp3
 70
     1
102
RTVSPropertyOp4
 70
     1
102
RTVSPropertyOp5
 70
     1
102
RTVSPropertyOp6
 70
     1
102
RTVSPropertyOp7
 70
     1
102
RTVSPropertyOp8
 70
     1
102
RTVSPropertyOp9
 70
     1
102
RTVSPropertyOp10
 70
     1
102
RTVSPropertyOp11
 70
     1
102
RTVSPropertyOp12
 70
     1
102
RTVSPropertyOp13
 70
     1
102
RTVSPropertyOp14
 70
     1
102
RTVSPropertyOp15
 70
     1
102
RTVSPropertyOp16
 70
     1
102
RTVSPropertyOp17
 70
     1
102
RTVSPropertyOp18
 70
     1
102
RTVSPropertyOp19
 70
     1
102
RTVSPropertyOp20
 70
     1
102
RTVSPropertyOp21
 70
     1
102
RTVSPropertyOp22
 70
     1
102
RTVSPropertyOp23
 70
     1
102
RTVSPropertyOp24
 70
     1
102
RTVSPropertyOp25
 70
     1
102
RTVSPropertyOp26
 70
     1
102
RTVSPropertyOp27
 70
     1
102
RTVSPropertyOp28
 70
     1
102
RTVSPropertyOp29
 70
     1
102
RTVSPropertyOp30
 70
     1
102
RTVSPropertyOp31
 70
     1
102
RTVSPropertyOp32
 70
     1
  0
XRECORD
  5
D36
102
{ACAD_REACTORS
330
D35
102
}
330
D35
100
AcDbXrecord
280
     1
102
RTVSPropertyOp0
 70
     1
102
RTVSPropertyOp1
 70
     1
102
RTVSPropertyOp2
 70
     1
102
RTVSPropertyOp3
 70
     1
102
RTVSPropertyOp4
 70
     1
102
RTVSPropertyOp5
 70
     1
102
RTVSPropertyOp6
 70
     1
102
RTVSPropertyOp7
 70
     1
102
RTVSPropertyOp8
 70
     1
102
RTVSPropertyOp9
 70
     1
102
RTVSPropertyOp10
 70
     1
102
RTVSPropertyOp11
 70
     1
102
RTVSPropertyOp12
 70
     1
102
RTVSPropertyOp13
 70
     1
102
RTVSPropertyOp14
 70
     1
102
RTVSPropertyOp15
 70
     1
102
RTVSPropertyOp16
 70
     1
102
RTVSPropertyOp17
 70
     1
102
RTVSPropertyOp18
 70
     1
102
RTVSPropertyOp19
 70
     1
102
RTVSPropertyOp20
 70
     1
102
RTVSPropertyOp21
 70
     1
102
RTVSPropertyOp22
 70
     1
102
RTVSPropertyOp23
 70
     1
102
RTVSPropertyOp24
 70
     1
102
RTVSPropertyOp25
 70
     1
102
RTVSPropertyOp26
 70
     1
102
RTVSPropertyOp27
 70
     1
102
RTVSPropertyOp28
 70
     1
102
RTVSPropertyOp29
 70
     1
102
RTVSPropertyOp30
 70
     1
102
RTVSPropertyOp31
 70
     1
102
RTVSPropertyOp32
 70
     1
  0
XRECORD
  5
D09
102
{ACAD_REACTORS
330
D08
102
}
330
D08
100
AcDbXrecord
280
     1
102
RTVSPropertyOp0
 70
     1
102
RTVSPropertyOp1
 70
     1
102
RTVSPropertyOp2
 70
     1
102
RTVSPropertyOp3
 70
     1
102
RTVSPropertyOp4
 70
     1
102
RTVSPropertyOp5
 70
     1
102
RTVSPropertyOp6
 70
     1
102
RTVSPropertyOp7
 70
     1
102
RTVSPropertyOp8
 70
     1
102
RTVSPropertyOp9
 70
     1
102
RTVSPropertyOp10
 70
     1
102
RTVSPropertyOp11
 70
     1
102
RTVSPropertyOp12
 70
     1
102
RTVSPropertyOp13
 70
     1
102
RTVSPropertyOp14
 70
     1
102
RTVSPropertyOp15
 70
     1
102
RTVSPropertyOp16
 70
     1
102
RTVSPropertyOp17
 70
     1
102
RTVSPropertyOp18
 70
     1
102
RTVSPropertyOp19
 70
     1
102
RTVSPropertyOp20
 70
     1
102
RTVSPropertyOp21
 70
     1
102
RTVSPropertyOp22
 70
     1
102
RTVSPropertyOp23
 70
     1
102
RTVSPropertyOp24
 70
     1
102
RTVSPropertyOp25
 70
     1
102
RTVSPropertyOp26
 70
     1
102
RTVSPropertyOp27
 70
     1
102
RTVSPropertyOp28
 70
     1
102
RTVSPropertyOp29
 70
     1
102
RTVSPropertyOp30
 70
     1
102
RTVSPropertyOp31
 70
     1
102
RTVSPropertyOp32
 70
     1
  0
XRECORD
  5
D17
102
{ACAD_REACTORS
330
D16
102
}
330
D16
100
AcDbXrecord
280
     1
102
RTVSPropertyOp0
 70
     1
102
RTVSPropertyOp1
 70
     1
102
RTVSPropertyOp2
 70
     1
102
RTVSPropertyOp3
 70
     1
102
RTVSPropertyOp4
 70
     1
102
RTVSPropertyOp5
 70
     1
102
RTVSPropertyOp6
 70
     1
102
RTVSPropertyOp7
 70
     1
102
RTVSPropertyOp8
 70
     1
102
RTVSPropertyOp9
 70
     1
102
RTVSPropertyOp10
 70
     1
102
RTVSPropertyOp11
 70
     1
102
RTVSPropertyOp12
 70
     1
102
RTVSPropertyOp13
 70
     1
102
RTVSPropertyOp14
 70
     1
102
RTVSPropertyOp15
 70
     1
102
RTVSPropertyOp16
 70
     1
102
RTVSPropertyOp17
 70
     1
102
RTVSPropertyOp18
 70
     1
102
RTVSPropertyOp19
 70
     1
102
RTVSPropertyOp20
 70
     1
102
RTVSPropertyOp21
 70
     1
102
RTVSPropertyOp22
 70
     1
102
RTVSPropertyOp23
 70
     1
102
RTVSPropertyOp24
 70
     1
102
RTVSPropertyOp25
 70
     1
102
RTVSPropertyOp26
 70
     1
102
RTVSPropertyOp27
 70
     1
102
RTVSPropertyOp28
 70
     1
102
RTVSPropertyOp29
 70
     1
102
RTVSPropertyOp30
 70
     1
102
RTVSPropertyOp31
 70
     1
102
RTVSPropertyOp32
 70
     1
  0
XRECORD
  5
D1F
102
{ACAD_REACTORS
330
D1E
102
}
330
D1E
100
AcDbXrecord
280
     1
102
RTVSPropertyOp0
 70
     1
102
RTVSPropertyOp1
 70
     1
102
RTVSPropertyOp2
 70
     1
102
RTVSPropertyOp3
 70
     1
102
RTVSPropertyOp4
 70
     1
102
RTVSPropertyOp5
 70
     1
102
RTVSPropertyOp6
 70
     1
102
RTVSPropertyOp7
 70
     1
102
RTVSPropertyOp8
 70
     1
102
RTVSPropertyOp9
 70
     1
102
RTVSPropertyOp10
 70
     1
102
RTVSPropertyOp11
 70
     1
102
RTVSPropertyOp12
 70
     1
102
RTVSPropertyOp13
 70
     1
102
RTVSPropertyOp14
 70
     1
102
RTVSPropertyOp15
 70
     1
102
RTVSPropertyOp16
 70
     1
102
RTVSPropertyOp17
 70
     1
102
RTVSPropertyOp18
 70
     1
102
RTVSPropertyOp19
 70
     1
102
RTVSPropertyOp20
 70
     1
102
RTVSPropertyOp21
 70
     1
102
RTVSPropertyOp22
 70
     1
102
RTVSPropertyOp23
 70
     1
102
RTVSPropertyOp24
 70
     1
102
RTVSPropertyOp25
 70
     1
102
RTVSPropertyOp26
 70
     1
102
RTVSPropertyOp27
 70
     1
102
RTVSPropertyOp28
 70
     1
102
RTVSPropertyOp29
 70
     1
102
RTVSPropertyOp30
 70
     1
102
RTVSPropertyOp31
 70
     1
102
RTVSPropertyOp32
 70
     1
  0
XRECORD
  5
D11
102
{ACAD_REACTORS
330
D10
102
}
330
D10
100
AcDbXrecord
280
     1
102
RTVSPropertyOp0
 70
     1
102
RTVSPropertyOp1
 70
     1
102
RTVSPropertyOp2
 70
     1
102
RTVSPropertyOp3
 70
     1
102
RTVSPropertyOp4
 70
     1
102
RTVSPropertyOp5
 70
     1
102
RTVSPropertyOp6
 70
     1
102
RTVSPropertyOp7
 70
     1
102
RTVSPropertyOp8
 70
     1
102
RTVSPropertyOp9
 70
     1
102
RTVSPropertyOp10
 70
     1
102
RTVSPropertyOp11
 70
     1
102
RTVSPropertyOp12
 70
     1
102
RTVSPropertyOp13
 70
     1
102
RTVSPropertyOp14
 70
     1
102
RTVSPropertyOp15
 70
     1
102
RTVSPropertyOp16
 70
     1
102
RTVSPropertyOp17
 70
     1
102
RTVSPropertyOp18
 70
     1
102
RTVSPropertyOp19
 70
     1
102
RTVSPropertyOp20
 70
     1
102
RTVSPropertyOp21
 70
     1
102
RTVSPropertyOp22
 70
     1
102
RTVSPropertyOp23
 70
     1
102
RTVSPropertyOp24
 70
     1
102
RTVSPropertyOp25
 70
     1
102
RTVSPropertyOp26
 70
     1
102
RTVSPropertyOp27
 70
     1
102
RTVSPropertyOp28
 70
     1
102
RTVSPropertyOp29
 70
     1
102
RTVSPropertyOp30
 70
     1
102
RTVSPropertyOp31
 70
     1
102
RTVSPropertyOp32
 70
     1
  0
XRECORD
  5
D15
102
{ACAD_REACTORS
330
D14
102
}
330
D14
100
AcDbXrecord
280
     1
102
RTVSPropertyOp0
 70
     1
102
RTVSPropertyOp1
 70
     1
102
RTVSPropertyOp2
 70
     1
102
RTVSPropertyOp3
 70
     1
102
RTVSPropertyOp4
 70
     1
102
RTVSPropertyOp5
 70
     1
102
RTVSPropertyOp6
 70
     1
102
RTVSPropertyOp7
 70
     1
102
RTVSPropertyOp8
 70
     1
102
RTVSPropertyOp9
 70
     1
102
RTVSPropertyOp10
 70
     1
102
RTVSPropertyOp11
 70
     1
102
RTVSPropertyOp12
 70
     1
102
RTVSPropertyOp13
 70
     1
102
RTVSPropertyOp14
 70
     1
102
RTVSPropertyOp15
 70
     1
102
RTVSPropertyOp16
 70
     1
102
RTVSPropertyOp17
 70
     1
102
RTVSPropertyOp18
 70
     1
102
RTVSPropertyOp19
 70
     1
102
RTVSPropertyOp20
 70
     1
102
RTVSPropertyOp21
 70
     1
102
RTVSPropertyOp22
 70
     1
102
RTVSPropertyOp23
 70
     1
102
RTVSPropertyOp24
 70
     1
102
RTVSPropertyOp25
 70
     1
102
RTVSPropertyOp26
 70
     1
102
RTVSPropertyOp27
 70
     1
102
RTVSPropertyOp28
 70
     1
102
RTVSPropertyOp29
 70
     1
102
RTVSPropertyOp30
 70
     1
102
RTVSPropertyOp31
 70
     1
102
RTVSPropertyOp32
 70
     1
  0
XRECORD
  5
D2F
102
{ACAD_REACTORS
330
D2E
102
}
330
D2E
100
AcDbXrecord
280
     1
102
RTVSPropertyOp0
 70
     0
102
RTVSPropertyOp1
 70
     0
102
RTVSPropertyOp2
 70
     0
102
RTVSPropertyOp3
 70
     0
102
RTVSPropertyOp4
 70
     0
102
RTVSPropertyOp5
 70
     0
102
RTVSPropertyOp6
 70
     0
102
RTVSPropertyOp7
 70
     0
102
RTVSPropertyOp8
 70
     0
102
RTVSPropertyOp9
 70
     0
102
RTVSPropertyOp10
 70
     0
102
RTVSPropertyOp11
 70
     0
102
RTVSPropertyOp12
 70
     0
102
RTVSPropertyOp13
 70
     0
102
RTVSPropertyOp14
 70
     2
102
RTVSPropertyOp15
 70
     0
102
RTVSPropertyOp16
 70
     0
102
RTVSPropertyOp17
 70
     0
102
RTVSPropertyOp18
 70
     0
102
RTVSPropertyOp19
 70
     0
102
RTVSPropertyOp20
 70
     0
102
RTVSPropertyOp21
 70
     0
102
RTVSPropertyOp22
 70
     0
102
RTVSPropertyOp23
 70
     0
102
RTVSPropertyOp24
 70
     0
102
RTVSPropertyOp25
 70
     0
102
RTVSPropertyOp26
 70
     0
102
RTVSPropertyOp27
 70
     0
102
RTVSPropertyOp28
 70
     0
102
RTVSPropertyOp29
 70
     0
102
RTVSPropertyOp30
 70
     0
102
RTVSPropertyOp31
 70
     0
102
RTVSPropertyOp32
 70
     0
  0
XRECORD
  5
D1D
102
{ACAD_REACTORS
330
D1C
102
}
330
D1C
100
AcDbXrecord
280
     1
102
RTVSPropertyOp0
 70
     1
102
RTVSPropertyOp1
 70
     1
102
RTVSPropertyOp2
 70
     1
102
RTVSPropertyOp3
 70
     1
102
RTVSPropertyOp4
 70
     1
102
RTVSPropertyOp5
 70
     1
102
RTVSPropertyOp6
 70
     1
102
RTVSPropertyOp7
 70
     1
102
RTVSPropertyOp8
 70
     1
102
RTVSPropertyOp9
 70
     1
102
RTVSPropertyOp10
 70
     1
102
RTVSPropertyOp11
 70
     1
102
RTVSPropertyOp12
 70
     1
102
RTVSPropertyOp13
 70
     1
102
RTVSPropertyOp14
 70
     1
102
RTVSPropertyOp15
 70
     1
102
RTVSPropertyOp16
 70
     1
102
RTVSPropertyOp17
 70
     1
102
RTVSPropertyOp18
 70
     1
102
RTVSPropertyOp19
 70
     1
102
RTVSPropertyOp20
 70
     1
102
RTVSPropertyOp21
 70
     1
102
RTVSPropertyOp22
 70
     1
102
RTVSPropertyOp23
 70
     1
102
RTVSPropertyOp24
 70
     1
102
RTVSPropertyOp25
 70
     1
102
RTVSPropertyOp26
 70
     1
102
RTVSPropertyOp27
 70
     1
102
RTVSPropertyOp28
 70
     1
102
RTVSPropertyOp29
 70
     1
102
RTVSPropertyOp30
 70
     1
102
RTVSPropertyOp31
 70
     1
102
RTVSPropertyOp32
 70
     1
  0
XRECORD
  5
D01
102
{ACAD_REACTORS
330
D00
102
}
330
D00
100
AcDbXrecord
280
     1
102
RTVSPropertyOp0
 70
     1
102
RTVSPropertyOp1
 70
     1
102
RTVSPropertyOp2
 70
     1
102
RTVSPropertyOp3
 70
     1
102
RTVSPropertyOp4
 70
     1
102
RTVSPropertyOp5
 70
     1
102
RTVSPropertyOp6
 70
     1
102
RTVSPropertyOp7
 70
     1
102
RTVSPropertyOp8
 70
     1
102
RTVSPropertyOp9
 70
     1
102
RTVSPropertyOp10
 70
     1
102
RTVSPropertyOp11
 70
     1
102
RTVSPropertyOp12
 70
     1
102
RTVSPropertyOp13
 70
     1
102
RTVSPropertyOp14
 70
     1
102
RTVSPropertyOp15
 70
     1
102
RTVSPropertyOp16
 70
     1
102
RTVSPropertyOp17
 70
     1
102
RTVSPropertyOp18
 70
     1
102
RTVSPropertyOp19
 70
     1
102
RTVSPropertyOp20
 70
     1
102
RTVSPropertyOp21
 70
     1
102
RTVSPropertyOp22
 70
     1
102
RTVSPropertyOp23
 70
     1
102
RTVSPropertyOp24
 70
     1
102
RTVSPropertyOp25
 70
     1
102
RTVSPropertyOp26
 70
     1
102
RTVSPropertyOp27
 70
     1
102
RTVSPropertyOp28
 70
     1
102
RTVSPropertyOp29
 70
     1
102
RTVSPropertyOp30
 70
     1
102
RTVSPropertyOp31
 70
     1
102
RTVSPropertyOp32
 70
     1
  0
XRECORD
  5
D03
102
{ACAD_REACTORS
330
D02
102
}
330
D02
100
AcDbXrecord
280
     1
102
RTVSPropertyOp0
 70
     1
102
RTVSPropertyOp1
 70
     1
102
RTVSPropertyOp2
 70
     1
102
RTVSPropertyOp3
 70
     1
102
RTVSPropertyOp4
 70
     1
102
RTVSPropertyOp5
 70
     1
102
RTVSPropertyOp6
 70
     1
102
RTVSPropertyOp7
 70
     1
102
RTVSPropertyOp8
 70
     1
102
RTVSPropertyOp9
 70
     1
102
RTVSPropertyOp10
 70
     1
102
RTVSPropertyOp11
 70
     1
102
RTVSPropertyOp12
 70
     1
102
RTVSPropertyOp13
 70
     1
102
RTVSPropertyOp14
 70
     1
102
RTVSPropertyOp15
 70
     1
102
RTVSPropertyOp16
 70
     1
102
RTVSPropertyOp17
 70
     1
102
RTVSPropertyOp18
 70
     1
102
RTVSPropertyOp19
 70
     1
102
RTVSPropertyOp20
 70
     1
102
RTVSPropertyOp21
 70
     1
102
RTVSPropertyOp22
 70
     1
102
RTVSPropertyOp23
 70
     1
102
RTVSPropertyOp24
 70
     1
102
RTVSPropertyOp25
 70
     1
102
RTVSPropertyOp26
 70
     1
102
RTVSPropertyOp27
 70
     1
102
RTVSPropertyOp28
 70
     1
102
RTVSPropertyOp29
 70
     1
102
RTVSPropertyOp30
 70
     1
102
RTVSPropertyOp31
 70
     1
102
RTVSPropertyOp32
 70
     1
  0
XRECORD
  5
D05
102
{ACAD_REACTORS
330
D04
102
}
330
D04
100
AcDbXrecord
280
     1
102
RTVSPropertyOp0
 70
     1
102
RTVSPropertyOp1
 70
     1
102
RTVSPropertyOp2
 70
     1
102
RTVSPropertyOp3
 70
     1
102
RTVSPropertyOp4
 70
     1
102
RTVSPropertyOp5
 70
     1
102
RTVSPropertyOp6
 70
     1
102
RTVSPropertyOp7
 70
     1
102
RTVSPropertyOp8
 70
     1
102
RTVSPropertyOp9
 70
     1
102
RTVSPropertyOp10
 70
     1
102
RTVSPropertyOp11
 70
     1
102
RTVSPropertyOp12
 70
     1
102
RTVSPropertyOp13
 70
     1
102
RTVSPropertyOp14
 70
     1
102
RTVSPropertyOp15
 70
     1
102
RTVSPropertyOp16
 70
     1
102
RTVSPropertyOp17
 70
     1
102
RTVSPropertyOp18
 70
     1
102
RTVSPropertyOp19
 70
     1
102
RTVSPropertyOp20
 70
     1
102
RTVSPropertyOp21
 70
     1
102
RTVSPropertyOp22
 70
     1
102
RTVSPropertyOp23
 70
     1
102
RTVSPropertyOp24
 70
     1
102
RTVSPropertyOp25
 70
     1
102
RTVSPropertyOp26
 70
     1
102
RTVSPropertyOp27
 70
     1
102
RTVSPropertyOp28
 70
     1
102
RTVSPropertyOp29
 70
     1
102
RTVSPropertyOp30
 70
     1
102
RTVSPropertyOp31
 70
     1
102
RTVSPropertyOp32
 70
     1
  0
XRECORD
  5
D07
102
{ACAD_REACTORS
330
D06
102
}
330
D06
100
AcDbXrecord
280
     1
102
RTVSPropertyOp0
 70
     1
102
RTVSPropertyOp1
 70
     1
102
RTVSPropertyOp2
 70
     1
102
RTVSPropertyOp3
 70
     1
102
RTVSPropertyOp4
 70
     1
102
RTVSPropertyOp5
 70
     1
102
RTVSPropertyOp6
 70
     1
102
RTVSPropertyOp7
 70
     1
102
RTVSPropertyOp8
 70
     1
102
RTVSPropertyOp9
 70
     1
102
RTVSPropertyOp10
 70
     1
102
RTVSPropertyOp11
 70
     1
102
RTVSPropertyOp12
 70
     1
102
RTVSPropertyOp13
 70
     1
102
RTVSPropertyOp14
 70
     1
102
RTVSPropertyOp15
 70
     1
102
RTVSPropertyOp16
 70
     1
102
RTVSPropertyOp17
 70
     1
102
RTVSPropertyOp18
 70
     1
102
RTVSPropertyOp19
 70
     1
102
RTVSPropertyOp20
 70
     1
102
RTVSPropertyOp21
 70
     1
102
RTVSPropertyOp22
 70
     1
102
RTVSPropertyOp23
 70
     1
102
RTVSPropertyOp24
 70
     1
102
RTVSPropertyOp25
 70
     1
102
RTVSPropertyOp26
 70
     1
102
RTVSPropertyOp27
 70
     1
102
RTVSPropertyOp28
 70
     1
102
RTVSPropertyOp29
 70
     1
102
RTVSPropertyOp30
 70
     1
102
RTVSPropertyOp31
 70
     1
102
RTVSPropertyOp32
 70
     1
  0
XRECORD
  5
D0F
102
{ACAD_REACTORS
330
D0E
102
}
330
D0E
100
AcDbXrecord
280
     1
102
RTVSPropertyOp0
 70
     1
102
RTVSPropertyOp1
 70
     1
102
RTVSPropertyOp2
 70
     1
102
RTVSPropertyOp3
 70
     1
102
RTVSPropertyOp4
 70
     1
102
RTVSPropertyOp5
 70
     1
102
RTVSPropertyOp6
 70
     1
102
RTVSPropertyOp7
 70
     1
102
RTVSPropertyOp8
 70
     1
102
RTVSPropertyOp9
 70
     1
102
RTVSPropertyOp10
 70
     1
102
RTVSPropertyOp11
 70
     1
102
RTVSPropertyOp12
 70
     1
102
RTVSPropertyOp13
 70
     1
102
RTVSPropertyOp14
 70
     1
102
RTVSPropertyOp15
 70
     1
102
RTVSPropertyOp16
 70
     1
102
RTVSPropertyOp17
 70
     1
102
RTVSPropertyOp18
 70
     1
102
RTVSPropertyOp19
 70
     1
102
RTVSPropertyOp20
 70
     1
102
RTVSPropertyOp21
 70
     1
102
RTVSPropertyOp22
 70
     1
102
RTVSPropertyOp23
 70
     1
102
RTVSPropertyOp24
 70
     1
102
RTVSPropertyOp25
 70
     1
102
RTVSPropertyOp26
 70
     1
102
RTVSPropertyOp27
 70
     1
102
RTVSPropertyOp28
 70
     1
102
RTVSPropertyOp29
 70
     1
102
RTVSPropertyOp30
 70
     1
102
RTVSPropertyOp31
 70
     1
102
RTVSPropertyOp32
 70
     1
  0
XRECORD
  5
D2B
102
{ACAD_REACTORS
330
D2A
102
}
330
D2A
100
AcDbXrecord
280
     1
102
RTVSPropertyOp0
 70
     0
102
RTVSPropertyOp1
 70
     0
102
RTVSPropertyOp2
 70
     0
102
RTVSPropertyOp3
 70
     0
102
RTVSPropertyOp4
 70
     0
102
RTVSPropertyOp5
 70
     0
102
RTVSPropertyOp6
 70
     0
102
RTVSPropertyOp7
 70
     0
102
RTVSPropertyOp8
 70
     0
102
RTVSPropertyOp9
 70
     0
102
RTVSPropertyOp10
 70
     0
102
RTVSPropertyOp11
 70
     0
102
RTVSPropertyOp12
 70
     0
102
RTVSPropertyOp13
 70
     0
102
RTVSPropertyOp14
 70
     2
102
RTVSPropertyOp15
 70
     0
102
RTVSPropertyOp16
 70
     0
102
RTVSPropertyOp17
 70
     0
102
RTVSPropertyOp18
 70
     0
102
RTVSPropertyOp19
 70
     0
102
RTVSPropertyOp20
 70
     0
102
RTVSPropertyOp21
 70
     0
102
RTVSPropertyOp22
 70
     0
102
RTVSPropertyOp23
 70
     0
102
RTVSPropertyOp24
 70
     0
102
RTVSPropertyOp25
 70
     0
102
RTVSPropertyOp26
 70
     0
102
RTVSPropertyOp27
 70
     0
102
RTVSPropertyOp28
 70
     0
102
RTVSPropertyOp29
 70
     0
102
RTVSPropertyOp30
 70
     0
102
RTVSPropertyOp31
 70
     0
102
RTVSPropertyOp32
 70
     0
  0
XRECORD
  5
D1B
102
{ACAD_REACTORS
330
D1A
102
}
330
D1A
100
AcDbXrecord
280
     1
102
RTVSPropertyOp0
 70
     1
102
RTVSPropertyOp1
 70
     1
102
RTVSPropertyOp2
 70
     1
102
RTVSPropertyOp3
 70
     1
102
RTVSPropertyOp4
 70
     1
102
RTVSPropertyOp5
 70
     1
102
RTVSPropertyOp6
 70
     1
102
RTVSPropertyOp7
 70
     1
102
RTVSPropertyOp8
 70
     1
102
RTVSPropertyOp9
 70
     1
102
RTVSPropertyOp10
 70
     1
102
RTVSPropertyOp11
 70
     1
102
RTVSPropertyOp12
 70
     1
102
RTVSPropertyOp13
 70
     1
102
RTVSPropertyOp14
 70
     1
102
RTVSPropertyOp15
 70
     1
102
RTVSPropertyOp16
 70
     1
102
RTVSPropertyOp17
 70
     1
102
RTVSPropertyOp18
 70
     1
102
RTVSPropertyOp19
 70
     1
102
RTVSPropertyOp20
 70
     1
102
RTVSPropertyOp21
 70
     1
102
RTVSPropertyOp22
 70
     1
102
RTVSPropertyOp23
 70
     1
102
RTVSPropertyOp24
 70
     1
102
RTVSPropertyOp25
 70
     1
102
RTVSPropertyOp26
 70
     1
102
RTVSPropertyOp27
 70
     1
102
RTVSPropertyOp28
 70
     1
102
RTVSPropertyOp29
 70
     1
102
RTVSPropertyOp30
 70
     1
102
RTVSPropertyOp31
 70
     1
102
RTVSPropertyOp32
 70
     1
  0
XRECORD
  5
D2D
102
{ACAD_REACTORS
330
D2C
102
}
330
D2C
100
AcDbXrecord
280
     1
102
RTVSPropertyOp0
 70
     0
102
RTVSPropertyOp1
 70
     0
102
RTVSPropertyOp2
 70
     0
102
RTVSPropertyOp3
 70
     0
102
RTVSPropertyOp4
 70
     0
102
RTVSPropertyOp5
 70
     0
102
RTVSPropertyOp6
 70
     0
102
RTVSPropertyOp7
 70
     0
102
RTVSPropertyOp8
 70
     0
102
RTVSPropertyOp9
 70
     0
102
RTVSPropertyOp10
 70
     0
102
RTVSPropertyOp11
 70
     0
102
RTVSPropertyOp12
 70
     0
102
RTVSPropertyOp13
 70
     0
102
RTVSPropertyOp14
 70
     2
102
RTVSPropertyOp15
 70
     0
102
RTVSPropertyOp16
 70
     0
102
RTVSPropertyOp17
 70
     0
102
RTVSPropertyOp18
 70
     0
102
RTVSPropertyOp19
 70
     0
102
RTVSPropertyOp20
 70
     0
102
RTVSPropertyOp21
 70
     0
102
RTVSPropertyOp22
 70
     0
102
RTVSPropertyOp23
 70
     0
102
RTVSPropertyOp24
 70
     0
102
RTVSPropertyOp25
 70
     0
102
RTVSPropertyOp26
 70
     0
102
RTVSPropertyOp27
 70
     0
102
RTVSPropertyOp28
 70
     0
102
RTVSPropertyOp29
 70
     0
102
RTVSPropertyOp30
 70
     0
102
RTVSPropertyOp31
 70
     0
102
RTVSPropertyOp32
 70
     0
  0
XRECORD
  5
D13
102
{ACAD_REACTORS
330
D12
102
}
330
D12
100
AcDbXrecord
280
     1
102
RTVSPropertyOp0
 70
     1
102
RTVSPropertyOp1
 70
     1
102
RTVSPropertyOp2
 70
     1
102
RTVSPropertyOp3
 70
     1
102
RTVSPropertyOp4
 70
     1
102
RTVSPropertyOp5
 70
     1
102
RTVSPropertyOp6
 70
     1
102
RTVSPropertyOp7
 70
     1
102
RTVSPropertyOp8
 70
     1
102
RTVSPropertyOp9
 70
     1
102
RTVSPropertyOp10
 70
     1
102
RTVSPropertyOp11
 70
     1
102
RTVSPropertyOp12
 70
     1
102
RTVSPropertyOp13
 70
     1
102
RTVSPropertyOp14
 70
     1
102
RTVSPropertyOp15
 70
     1
102
RTVSPropertyOp16
 70
     1
102
RTVSPropertyOp17
 70
     1
102
RTVSPropertyOp18
 70
     1
102
RTVSPropertyOp19
 70
     1
102
RTVSPropertyOp20
 70
     1
102
RTVSPropertyOp21
 70
     1
102
RTVSPropertyOp22
 70
     1
102
RTVSPropertyOp23
 70
     1
102
RTVSPropertyOp24
 70
     1
102
RTVSPropertyOp25
 70
     1
102
RTVSPropertyOp26
 70
     1
102
RTVSPropertyOp27
 70
     1
102
RTVSPropertyOp28
 70
     1
102
RTVSPropertyOp29
 70
     1
102
RTVSPropertyOp30
 70
     1
102
RTVSPropertyOp31
 70
     1
102
RTVSPropertyOp32
 70
     1
  0
XRECORD
  5
D29
102
{ACAD_REACTORS
330
D28
102
}
330
D28
100
AcDbXrecord
280
     1
102
RTVSPropertyOp0
 70
     1
102
RTVSPropertyOp1
 70
     1
102
RTVSPropertyOp2
 70
     1
102
RTVSPropertyOp3
 70
     1
102
RTVSPropertyOp4
 70
     1
102
RTVSPropertyOp5
 70
     1
102
RTVSPropertyOp6
 70
     1
102
RTVSPropertyOp7
 70
     1
102
RTVSPropertyOp8
 70
     1
102
RTVSPropertyOp9
 70
     1
102
RTVSPropertyOp10
 70
     1
102
RTVSPropertyOp11
 70
     1
102
RTVSPropertyOp12
 70
     1
102
RTVSPropertyOp13
 70
     1
102
RTVSPropertyOp14
 70
     1
102
RTVSPropertyOp15
 70
     1
102
RTVSPropertyOp16
 70
     1
102
RTVSPropertyOp17
 70
     1
102
RTVSPropertyOp18
 70
     1
102
RTVSPropertyOp19
 70
     1
102
RTVSPropertyOp20
 70
     1
102
RTVSPropertyOp21
 70
     1
102
RTVSPropertyOp22
 70
     1
102
RTVSPropertyOp23
 70
     1
102
RTVSPropertyOp24
 70
     1
102
RTVSPropertyOp25
 70
     1
102
RTVSPropertyOp26
 70
     1
102
RTVSPropertyOp27
 70
     1
102
RTVSPropertyOp28
 70
     1
102
RTVSPropertyOp29
 70
     1
102
RTVSPropertyOp30
 70
     1
102
RTVSPropertyOp31
 70
     1
102
RTVSPropertyOp32
 70
     1
  0
XRECORD
  5
D27
102
{ACAD_REACTORS
330
D26
102
}
330
D26
100
AcDbXrecord
280
     1
102
RTVSPropertyOp0
 70
     1
102
RTVSPropertyOp1
 70
     1
102
RTVSPropertyOp2
 70
     1
102
RTVSPropertyOp3
 70
     1
102
RTVSPropertyOp4
 70
     1
102
RTVSPropertyOp5
 70
     1
102
RTVSPropertyOp6
 70
     1
102
RTVSPropertyOp7
 70
     1
102
RTVSPropertyOp8
 70
     1
102
RTVSPropertyOp9
 70
     1
102
RTVSPropertyOp10
 70
     1
102
RTVSPropertyOp11
 70
     1
102
RTVSPropertyOp12
 70
     1
102
RTVSPropertyOp13
 70
     1
102
RTVSPropertyOp14
 70
     1
102
RTVSPropertyOp15
 70
     1
102
RTVSPropertyOp16
 70
     1
102
RTVSPropertyOp17
 70
     1
102
RTVSPropertyOp18
 70
     1
102
RTVSPropertyOp19
 70
     1
102
RTVSPropertyOp20
 70
     1
102
RTVSPropertyOp21
 70
     1
102
RTVSPropertyOp22
 70
     1
102
RTVSPropertyOp23
 70
     1
102
RTVSPropertyOp24
 70
     1
102
RTVSPropertyOp25
 70
     1
102
RTVSPropertyOp26
 70
     1
102
RTVSPropertyOp27
 70
     1
102
RTVSPropertyOp28
 70
     1
102
RTVSPropertyOp29
 70
     1
102
RTVSPropertyOp30
 70
     1
102
RTVSPropertyOp31
 70
     1
102
RTVSPropertyOp32
 70
     1
  0
XRECORD
  5
D21
102
{ACAD_REACTORS
330
D20
102
}
330
D20
100
AcDbXrecord
280
     1
102
RTVSPropertyOp0
 70
     1
102
RTVSPropertyOp1
 70
     1
102
RTVSPropertyOp2
 70
     1
102
RTVSPropertyOp3
 70
     1
102
RTVSPropertyOp4
 70
     1
102
RTVSPropertyOp5
 70
     1
102
RTVSPropertyOp6
 70
     1
102
RTVSPropertyOp7
 70
     1
102
RTVSPropertyOp8
 70
     1
102
RTVSPropertyOp9
 70
     1
102
RTVSPropertyOp10
 70
     1
102
RTVSPropertyOp11
 70
     1
102
RTVSPropertyOp12
 70
     1
102
RTVSPropertyOp13
 70
     1
102
RTVSPropertyOp14
 70
     1
102
RTVSPropertyOp15
 70
     1
102
RTVSPropertyOp16
 70
     1
102
RTVSPropertyOp17
 70
     1
102
RTVSPropertyOp18
 70
     1
102
RTVSPropertyOp19
 70
     1
102
RTVSPropertyOp20
 70
     1
102
RTVSPropertyOp21
 70
     1
102
RTVSPropertyOp22
 70
     1
102
RTVSPropertyOp23
 70
     1
102
RTVSPropertyOp24
 70
     1
102
RTVSPropertyOp25
 70
     1
102
RTVSPropertyOp26
 70
     1
102
RTVSPropertyOp27
 70
     1
102
RTVSPropertyOp28
 70
     1
102
RTVSPropertyOp29
 70
     1
102
RTVSPropertyOp30
 70
     1
102
RTVSPropertyOp31
 70
     1
102
RTVSPropertyOp32
 70
     1
  0
XRECORD
  5
D23
102
{ACAD_REACTORS
330
D22
102
}
330
D22
100
AcDbXrecord
280
     1
102
RTVSPropertyOp0
 70
     1
102
RTVSPropertyOp1
 70
     1
102
RTVSPropertyOp2
 70
     1
102
RTVSPropertyOp3
 70
     1
102
RTVSPropertyOp4
 70
     1
102
RTVSPropertyOp5
 70
     1
102
RTVSPropertyOp6
 70
     1
102
RTVSPropertyOp7
 70
     1
102
RTVSPropertyOp8
 70
     1
102
RTVSPropertyOp9
 70
     1
102
RTVSPropertyOp10
 70
     1
102
RTVSPropertyOp11
 70
     1
102
RTVSPropertyOp12
 70
     1
102
RTVSPropertyOp13
 70
     1
102
RTVSPropertyOp14
 70
     1
102
RTVSPropertyOp15
 70
     1
102
RTVSPropertyOp16
 70
     1
102
RTVSPropertyOp17
 70
     1
102
RTVSPropertyOp18
 70
     1
102
RTVSPropertyOp19
 70
     1
102
RTVSPropertyOp20
 70
     1
102
RTVSPropertyOp21
 70
     1
102
RTVSPropertyOp22
 70
     1
102
RTVSPropertyOp23
 70
     1
102
RTVSPropertyOp24
 70
     1
102
RTVSPropertyOp25
 70
     1
102
RTVSPropertyOp26
 70
     1
102
RTVSPropertyOp27
 70
     1
102
RTVSPropertyOp28
 70
     1
102
RTVSPropertyOp29
 70
     1
102
RTVSPropertyOp30
 70
     1
102
RTVSPropertyOp31
 70
     1
102
RTVSPropertyOp32
 70
     1
  0
XRECORD
  5
D19
102
{ACAD_REACTORS
330
D18
102
}
330
D18
100
AcDbXrecord
280
     1
102
RTVSPropertyOp0
 70
     1
102
RTVSPropertyOp1
 70
     1
102
RTVSPropertyOp2
 70
     1
102
RTVSPropertyOp3
 70
     1
102
RTVSPropertyOp4
 70
     1
102
RTVSPropertyOp5
 70
     1
102
RTVSPropertyOp6
 70
     1
102
RTVSPropertyOp7
 70
     1
102
RTVSPropertyOp8
 70
     1
102
RTVSPropertyOp9
 70
     1
102
RTVSPropertyOp10
 70
     1
102
RTVSPropertyOp11
 70
     1
102
RTVSPropertyOp12
 70
     1
102
RTVSPropertyOp13
 70
     1
102
RTVSPropertyOp14
 70
     1
102
RTVSPropertyOp15
 70
     1
102
RTVSPropertyOp16
 70
     1
102
RTVSPropertyOp17
 70
     1
102
RTVSPropertyOp18
 70
     1
102
RTVSPropertyOp19
 70
     1
102
RTVSPropertyOp20
 70
     1
102
RTVSPropertyOp21
 70
     1
102
RTVSPropertyOp22
 70
     1
102
RTVSPropertyOp23
 70
     1
102
RTVSPropertyOp24
 70
     1
102
RTVSPropertyOp25
 70
     1
102
RTVSPropertyOp26
 70
     1
102
RTVSPropertyOp27
 70
     1
102
RTVSPropertyOp28
 70
     1
102
RTVSPropertyOp29
 70
     1
102
RTVSPropertyOp30
 70
     1
102
RTVSPropertyOp31
 70
     1
102
RTVSPropertyOp32
 70
     1
  0
XRECORD
  5
D0D
102
{ACAD_REACTORS
330
D0C
102
}
330
D0C
100
AcDbXrecord
280
     1
102
RTVSPropertyOp0
 70
     1
102
RTVSPropertyOp1
 70
     1
102
RTVSPropertyOp2
 70
     1
102
RTVSPropertyOp3
 70
     1
102
RTVSPropertyOp4
 70
     1
102
RTVSPropertyOp5
 70
     1
102
RTVSPropertyOp6
 70
     1
102
RTVSPropertyOp7
 70
     1
102
RTVSPropertyOp8
 70
     1
102
RTVSPropertyOp9
 70
     1
102
RTVSPropertyOp10
 70
     1
102
RTVSPropertyOp11
 70
     1
102
RTVSPropertyOp12
 70
     1
102
RTVSPropertyOp13
 70
     1
102
RTVSPropertyOp14
 70
     1
102
RTVSPropertyOp15
 70
     1
102
RTVSPropertyOp16
 70
     1
102
RTVSPropertyOp17
 70
     1
102
RTVSPropertyOp18
 70
     1
102
RTVSPropertyOp19
 70
     1
102
RTVSPropertyOp20
 70
     1
102
RTVSPropertyOp21
 70
     1
102
RTVSPropertyOp22
 70
     1
102
RTVSPropertyOp23
 70
     1
102
RTVSPropertyOp24
 70
     1
102
RTVSPropertyOp25
 70
     1
102
RTVSPropertyOp26
 70
     1
102
RTVSPropertyOp27
 70
     1
102
RTVSPropertyOp28
 70
     1
102
RTVSPropertyOp29
 70
     1
102
RTVSPropertyOp30
 70
     1
102
RTVSPropertyOp31
 70
     1
102
RTVSPropertyOp32
 70
     1
  0
XRECORD
  5
D25
102
{ACAD_REACTORS
330
D24
102
}
330
D24
100
AcDbXrecord
280
     1
102
RTVSPropertyOp0
 70
     1
102
RTVSPropertyOp1
 70
     1
102
RTVSPropertyOp2
 70
     1
102
RTVSPropertyOp3
 70
     1
102
RTVSPropertyOp4
 70
     1
102
RTVSPropertyOp5
 70
     1
102
RTVSPropertyOp6
 70
     1
102
RTVSPropertyOp7
 70
     1
102
RTVSPropertyOp8
 70
     1
102
RTVSPropertyOp9
 70
     1
102
RTVSPropertyOp10
 70
     1
102
RTVSPropertyOp11
 70
     1
102
RTVSPropertyOp12
 70
     1
102
RTVSPropertyOp13
 70
     1
102
RTVSPropertyOp14
 70
     1
102
RTVSPropertyOp15
 70
     1
102
RTVSPropertyOp16
 70
     1
102
RTVSPropertyOp17
 70
     1
102
RTVSPropertyOp18
 70
     1
102
RTVSPropertyOp19
 70
     1
102
RTVSPropertyOp20
 70
     1
102
RTVSPropertyOp21
 70
     1
102
RTVSPropertyOp22
 70
     1
102
RTVSPropertyOp23
 70
     1
102
RTVSPropertyOp24
 70
     1
102
RTVSPropertyOp25
 70
     1
102
RTVSPropertyOp26
 70
     1
102
RTVSPropertyOp27
 70
     1
102
RTVSPropertyOp28
 70
     1
102
RTVSPropertyOp29
 70
     1
102
RTVSPropertyOp30
 70
     1
102
RTVSPropertyOp31
 70
     1
102
RTVSPropertyOp32
 70
     1
  0
ENDSEC
  0
EOF
